999
DXF file: _cgs_temp_output.dxf
999
Pro/ENGINEER 2016360 by Parametric Technology Corporation
  0
SECTION
  2
HEADER
  9
$ACADVER
  1
AC1021
  9
$DWGCODEPAGE
  3
ANSI_1252
  9
$EXTMAX
 10
22.0
 20
17.0
 30
0.0
  9
$EXTMIN
 10
0.0
 20
0.0
 30
0.0
  9
$LIMMIN
 10
0.0
 20
0.0
  9
$LIMMAX
 10
22.0
 20
17.0
  9
$VIEWCTR
 10
11.0
 20
8.5
  9
$VIEWSIZE
 40
17.0
  9
$CLAYER
  8
0
  9
$LTSCALE
 40
1.21
  9
$CELTYPE
  6
BYLAYER
  9
$DIMSCALE
 40
1.0
  9
$DIMASZ
 40
0.1875
  9
$DIMEXO
 40
0.0625
  9
$DIMDLI
 40
0.836
  9
$DIMEXE
 40
0.125
  9
$DIMCEN
 40
0.198
  9
$DIMLFAC
 40
1.0
  9
$DIMBLK
  1
_CLOSED
  9
$DIMALT
 70
0
  9
$DIMALTF
 40
25.4
  9
$DIMTXT
 40
0.15625
  9
$DIMTOL
 70
0
  9
$DIMLIM
 70
0
  9
$DIMTFAC
 40
1.0
  9
$DIMGAP
 40
0.09
  9
$DIMDSEP
 70
46
  9
$AUNITS
 70
0
  9
$PDMODE
 70
3
  9
$PDSIZE
 40
0.3125
  9
$HANDSEED
  5
5DF
  9
$TILEMODE
 70
1
  9
$MEASUREMENT
 70
0
  9
$INSUNITS
 70
1
  0
ENDSEC
  0
SECTION
  2
CLASSES
  0
CLASS
  1
ACDBDICTIONARYWDFLT
  2
AcDbDictionaryWithDefault
  3
AutoCAD 2000
 90
0
 91
1
280
0
281
0
  0
CLASS
  1
ACDBPLACEHOLDER
  2
AcDbPlaceHolder
  3
AutoCAD 2000
 90
0
 91
1
280
0
281
0
  0
CLASS
  1
LAYOUT
  2
AcDbLayout
  3
AutoCAD 2000
 90
0
 91
0
280
0
281
0
  0
ENDSEC
  0
SECTION
  2
TABLES
  0
TABLE
  2
VPORT
  5
8
100
AcDbSymbolTable
 70
2
  0
VPORT
  5
1F4
100
AcDbSymbolTableRecord
100
AcDbViewportTableRecord
  2
*ACTIVE
 70
0
 10
0.0
 20
0.0
 11
1.0
 21
1.0
 12
11.0
 22
8.5
 13
0.0
 23
0.0
 14
1.0
 24
1.0
 15
0.0
 25
0.0
 16
0.0
 26
0.0
 36
1.0
 17
0.0
 27
0.0
 37
0.0
 40
17.0
 41
1.2941176471
 42
50.0
 43
0.0
 44
0.0
 50
0.0
 51
0.0
 71
0
 72
100
 73
1
 74
1
 75
0
 76
0
 77
0
 78
0
  0
ENDTAB
  0
TABLE
  2
LTYPE
  5
5
100
AcDbSymbolTable
 70
6
  0
LTYPE
  5
14
100
AcDbSymbolTableRecord
100
AcDbLinetypeTableRecord
  2
BYBLOCK
 70
0
  3

 72
65
 73
0
 40
0.0
  0
LTYPE
  5
15
100
AcDbSymbolTableRecord
100
AcDbLinetypeTableRecord
  2
BYLAYER
 70
0
  3

 72
65
 73
0
 40
0.0
  0
LTYPE
  5
16
100
AcDbSymbolTableRecord
100
AcDbLinetypeTableRecord
  2
CONTINUOUS
 70
64
  3
Solid line
 72
65
 73
0
 40
0.0
  0
LTYPE
  5
1F5
100
AcDbSymbolTableRecord
100
AcDbLinetypeTableRecord
  2
CENTER
 70
64
  3
____ _ ____ _ ____ _ ____ _ ____ _ ____ _ ____
 72
65
 73
4
 40
0.6
 49
0.375
 74
0
 49
-0.075
 74
0
 49
0.075
 74
0
 49
-0.075
 74
0
  0
LTYPE
  5
1F6
100
AcDbSymbolTableRecord
100
AcDbLinetypeTableRecord
  2
HIDDEN
 70
64
  3
- - - - - - - - - - - - - - - - - - - -
 72
65
 73
2
 40
0.2
 49
0.1
 74
0
 49
-0.1
 74
0
  0
LTYPE
  5
1F7
100
AcDbSymbolTableRecord
100
AcDbLinetypeTableRecord
  2
PHANTOM
 70
64
  3
_____ _ _ _____ _ _ _____ _ _ _____
 72
65
 73
6
 40
0.8
 49
0.45
 74
0
 49
-0.05
 74
0
 49
0.1
 74
0
 49
-0.05
 74
0
 49
0.1
 74
0
 49
-0.05
 74
0
  0
LTYPE
  5
1F8
100
AcDbSymbolTableRecord
100
AcDbLinetypeTableRecord
  2
DOT
 70
64
  3
. . . . . . . . . . . . . . . . . . . .
 72
65
 73
2
 40
0.2
 49
0.1
 74
0
 49
-0.1
 74
0
  0
LTYPE
  5
1F9
100
AcDbSymbolTableRecord
100
AcDbLinetypeTableRecord
  2
DASHED
 70
64
  3
- - - - - - - - - - - - - - - - - - - -
 72
65
 73
2
 40
0.2
 49
0.1
 74
0
 49
-0.1
 74
0
  0
ENDTAB
  0
TABLE
  2
LAYER
  5
2
100
AcDbSymbolTable
 70
36
  0
LAYER
  5
10
100
AcDbSymbolTableRecord
100
AcDbLayerTableRecord
  2
0
 70
0
 62
7
  6
CONTINUOUS
370
-3
390
F
  0
LAYER
  5
1FA
100
AcDbSymbolTableRecord
100
AcDbLayerTableRecord
  2
DEFAULT_1
 70
0
 62
7
  6
CENTER
370
-3
390
F
  0
LAYER
  5
1FB
100
AcDbSymbolTableRecord
100
AcDbLayerTableRecord
  2
DEFAULT_2
 70
0
 62
8
  6
HIDDEN
370
-3
390
F
  0
LAYER
  5
1FC
100
AcDbSymbolTableRecord
100
AcDbLayerTableRecord
  2
DEFAULT_3
 70
0
 62
7
  6
PHANTOM
370
-3
390
F
  0
LAYER
  5
1FD
100
AcDbSymbolTableRecord
100
AcDbLayerTableRecord
  2
01_ALL_DTM_PLN
 70
0
 62
7
  6
CONTINUOUS
370
-3
390
F
  0
LAYER
  5
1FE
100
AcDbSymbolTableRecord
100
AcDbLayerTableRecord
  2
01__ASM_ALL_DTM_PLN
 70
0
 62
7
  6
CONTINUOUS
370
-3
390
F
  0
LAYER
  5
1FF
100
AcDbSymbolTableRecord
100
AcDbLayerTableRecord
  2
01__ASM_DEF_DTM_PLN
 70
0
 62
7
  6
CONTINUOUS
370
-3
390
F
  0
LAYER
  5
200
100
AcDbSymbolTableRecord
100
AcDbLayerTableRecord
  2
01___PRT_ALL_DTM_PLN
 70
0
 62
7
  6
CONTINUOUS
370
-3
390
F
  0
LAYER
  5
201
100
AcDbSymbolTableRecord
100
AcDbLayerTableRecord
  2
01___PRT_DEF_DTM_PLN
 70
0
 62
7
  6
CONTINUOUS
370
-3
390
F
  0
LAYER
  5
202
100
AcDbSymbolTableRecord
100
AcDbLayerTableRecord
  2
02_ALL_AXES
 70
0
 62
7
  6
CONTINUOUS
370
-3
390
F
  0
LAYER
  5
203
100
AcDbSymbolTableRecord
100
AcDbLayerTableRecord
  2
02__ASM_ALL_AXES
 70
0
 62
7
  6
CONTINUOUS
370
-3
390
F
  0
LAYER
  5
204
100
AcDbSymbolTableRecord
100
AcDbLayerTableRecord
  2
02___PRT_ALL_AXES
 70
0
 62
7
  6
CONTINUOUS
370
-3
390
F
  0
LAYER
  5
205
100
AcDbSymbolTableRecord
100
AcDbLayerTableRecord
  2
03_ALL_CURVES
 70
0
 62
7
  6
CONTINUOUS
370
-3
390
F
  0
LAYER
  5
206
100
AcDbSymbolTableRecord
100
AcDbLayerTableRecord
  2
03__ASM_ALL_CURVES
 70
0
 62
7
  6
CONTINUOUS
370
-3
390
F
  0
LAYER
  5
207
100
AcDbSymbolTableRecord
100
AcDbLayerTableRecord
  2
03___PRT_ALL_CURVES
 70
0
 62
7
  6
CONTINUOUS
370
-3
390
F
  0
LAYER
  5
208
100
AcDbSymbolTableRecord
100
AcDbLayerTableRecord
  2
04_ALL_DTM_PNT
 70
0
 62
7
  6
CONTINUOUS
370
-3
390
F
  0
LAYER
  5
209
100
AcDbSymbolTableRecord
100
AcDbLayerTableRecord
  2
04__ASM_ALL_DTM_PNT
 70
0
 62
7
  6
CONTINUOUS
370
-3
390
F
  0
LAYER
  5
20A
100
AcDbSymbolTableRecord
100
AcDbLayerTableRecord
  2
04___PRT_ALL_DTM_PNT
 70
0
 62
7
  6
CONTINUOUS
370
-3
390
F
  0
LAYER
  5
20B
100
AcDbSymbolTableRecord
100
AcDbLayerTableRecord
  2
05_ALL_DTM_CSYS
 70
0
 62
7
  6
CONTINUOUS
370
-3
390
F
  0
LAYER
  5
20C
100
AcDbSymbolTableRecord
100
AcDbLayerTableRecord
  2
05__ASM_ALL_DTM_CSYS
 70
0
 62
7
  6
CONTINUOUS
370
-3
390
F
  0
LAYER
  5
20D
100
AcDbSymbolTableRecord
100
AcDbLayerTableRecord
  2
05__ASM_DEF_DTM_CSYS
 70
0
 62
7
  6
CONTINUOUS
370
-3
390
F
  0
LAYER
  5
20E
100
AcDbSymbolTableRecord
100
AcDbLayerTableRecord
  2
05___PRT_ALL_DTM_CSYS
 70
0
 62
7
  6
CONTINUOUS
370
-3
390
F
  0
LAYER
  5
20F
100
AcDbSymbolTableRecord
100
AcDbLayerTableRecord
  2
05___PRT_DEF_DTM_CSYS
 70
0
 62
7
  6
CONTINUOUS
370
-3
390
F
  0
LAYER
  5
210
100
AcDbSymbolTableRecord
100
AcDbLayerTableRecord
  2
06_ALL_SURFS
 70
0
 62
7
  6
CONTINUOUS
370
-3
390
F
  0
LAYER
  5
211
100
AcDbSymbolTableRecord
100
AcDbLayerTableRecord
  2
06__ASM_ALL_SURFS
 70
0
 62
7
  6
CONTINUOUS
370
-3
390
F
  0
LAYER
  5
212
100
AcDbSymbolTableRecord
100
AcDbLayerTableRecord
  2
06___PRT_ALL_SURFS
 70
0
 62
7
  6
CONTINUOUS
370
-3
390
F
  0
LAYER
  5
213
100
AcDbSymbolTableRecord
100
AcDbLayerTableRecord
  2
07__ASM_ALL_SKELETONS
 70
0
 62
7
  6
CONTINUOUS
370
-3
390
F
  0
LAYER
  5
214
100
AcDbSymbolTableRecord
100
AcDbLayerTableRecord
  2
DRAWINGS
 70
0
 62
7
  6
CONTINUOUS
370
-3
390
F
  0
LAYER
  5
215
100
AcDbSymbolTableRecord
100
AcDbLayerTableRecord
  2
SHELL
 70
0
 62
7
  6
CONTINUOUS
370
-3
390
F
  0
ENDTAB
  0
TABLE
  2
STYLE
  5
3
100
AcDbSymbolTable
 70
1
  0
STYLE
  5
11
100
AcDbSymbolTableRecord
100
AcDbTextStyleTableRecord
  2
STANDARD
 70
0
 40
0.0
 41
0.8
 50
0.0
 71
0
 42
0.2
  3
txt
  4

  0
STYLE
  5
216
100
AcDbSymbolTableRecord
100
AcDbTextStyleTableRecord
  2
TEXTSTYLE_1
 70
0
 40
0.0
 41
0.8
 50
0.0
 71
0
 42
0.2
  3
gdt
  4

  0
ENDTAB
  0
TABLE
  2
VIEW
  5
6
100
AcDbSymbolTable
 70
0
  0
ENDTAB
  0
TABLE
  2
UCS
  5
7
100
AcDbSymbolTable
 70
0
  0
ENDTAB
  0
TABLE
  2
APPID
  5
9
100
AcDbSymbolTable
 70
1
  0
APPID
  5
217
100
AcDbSymbolTableRecord
100
AcDbRegAppTableRecord
  2
ACAD
 70
0
  0
ENDTAB
  0
TABLE
  2
BLOCK_RECORD
  5
1
100
AcDbSymbolTable
 70
0
  0
BLOCK_RECORD
  5
218
100
AcDbSymbolTableRecord
100
AcDbBlockTableRecord
  2
*Model_Space
  0
BLOCK_RECORD
  5
219
100
AcDbSymbolTableRecord
100
AcDbBlockTableRecord
  2
*Paper_Space
  0
ENDTAB
  0
TABLE
  2
DIMSTYLE
  5
A
100
AcDbSymbolTable
 70
1
100
AcDbDimStyleTable
 71
0
  0
DIMSTYLE
105
21A
100
AcDbSymbolTableRecord
100
AcDbDimStyleTableRecord
  2
STANDARD
 70
0
  3

  4

 40
1.0
 41
0.1875
 42
0.0625
 43
0.38
 44
0.125
 45
0.0
 46
0.0
 47
0.0001
 48
0.0001
140
0.15625
141
0.09
142
0.0
143
25.4
144
1.0
145
0.0
146
1.0
147
0.09
 71
0.0
 72
0.0
 73
1
 74
1
 75
0
 76
0
 77
0
 78
4
 79
1
170
0
171
3
172
0
173
0
174
0
175
0
176
0
177
0
178
0
270
2
179
4
271
4
272
4
273
2
274
2
275
0
280
0
281
0
282
0
283
1
284
4
285
0
286
0
287
3
288
0
340
11
278
46
  0
ENDTAB
  0
ENDSEC
  0
SECTION
  2
BLOCKS
  0
BLOCK
  5
20
100
AcDbEntity
  8
0
100
AcDbBlockBegin
  2
*Model_Space
 70
0
 10
0.0
 20
0.0
 30
0.0
  3
*Model_Space
  1

  0
ENDBLK
  5
21
100
AcDbEntity
  8
0
100
AcDbBlockEnd
  0
BLOCK
  5
1C
100
AcDbEntity
  8
0
100
AcDbBlockBegin
  2
*Paper_Space
 70
0
 10
0.0
 20
0.0
 30
0.0
  3
*Paper_Space
  1

  0
ENDBLK
  5
1D
100
AcDbEntity
  8
0
100
AcDbBlockEnd
  0
ENDSEC
  0
SECTION
  2
ENTITIES
  0
MTEXT
  5
21B
100
AcDbEntity
  8
0
100
AcDbMText
 62
7
  6
CONTINUOUS
  7
STANDARD
 71
1
 72
1
 10
15.9560215477
 20
0.9479130325
 30
0.0
 11
1.0
 21
0.0
 31
0.0
 44
0.9
  1
SCALE: 1:0.333
 40
0.3
 41
3.36
  0
LINE
  5
21C
100
AcDbEntity
  8
0
100
AcDbLine
 62
7
  6
CONTINUOUS
 10
0.0
 20
0.0
 11
0.0
 21
17.0
  0
LINE
  5
21D
100
AcDbEntity
  8
0
100
AcDbLine
 62
7
  6
CONTINUOUS
 10
0.0
 20
0.0
 11
22.0
 21
0.0
  0
LINE
  5
21E
100
AcDbEntity
  8
0
100
AcDbLine
 62
7
  6
CONTINUOUS
 10
0.0
 20
17.0
 11
22.0
 21
17.0
  0
LINE
  5
21F
100
AcDbEntity
  8
0
100
AcDbLine
 62
7
  6
CONTINUOUS
 10
22.0
 20
0.0
 11
22.0
 21
17.0
  0
LINE
  5
220
100
AcDbEntity
  8
0
100
AcDbLine
 62
7
  6
CONTINUOUS
 10
3.9637006147
 20
5.2217865634
 11
3.9637006147
 21
5.1875986391
  0
LINE
  5
221
100
AcDbEntity
  8
0
100
AcDbLine
 62
7
  6
CONTINUOUS
 10
4.1453672814
 20
5.0384532301
 11
4.1453281095
 21
5.0467865634
  0
LINE
  5
222
100
AcDbEntity
  8
0
100
AcDbLine
 62
7
  6
CONTINUOUS
 10
4.236452737
 20
5.3560675533
 11
4.236452737
 21
5.3601198968
  0
LINE
  5
223
100
AcDbEntity
  8
0
100
AcDbLine
 62
7
  6
CONTINUOUS
 10
4.3303672814
 20
5.0134532301
 11
4.3303672814
 21
5.2967865634
  0
LINE
  5
224
100
AcDbEntity
  8
0
100
AcDbLine
 62
7
  6
CONTINUOUS
 10
4.347033948
 20
5.3601198968
 11
4.347033948
 21
5.3684533881
  0
LINE
  5
225
100
AcDbEntity
  8
0
100
AcDbLine
 62
7
  6
CONTINUOUS
 10
4.3637730199
 20
5.3850471749
 11
4.3665733126
 21
6.0268229243
  0
LINE
  5
226
100
AcDbEntity
  8
0
100
AcDbLine
 62
7
  6
CONTINUOUS
 10
4.3941612501
 20
6.0268229243
 11
4.3969615428
 21
5.3850471749
  0
LINE
  5
227
100
AcDbEntity
  8
0
100
AcDbLine
 62
7
  6
CONTINUOUS
 10
4.4137006147
 20
5.3684533881
 11
4.4137006147
 21
5.3601198968
  0
LINE
  5
228
100
AcDbEntity
  8
0
100
AcDbLine
 62
7
  6
CONTINUOUS
 10
4.6428672814
 20
5.1907963683
 11
4.6428672814
 21
5.2927767586
  0
LINE
  5
229
100
AcDbEntity
  8
0
100
AcDbLine
 62
7
  6
CONTINUOUS
 10
4.647033948
 20
5.2959468195
 11
4.647033948
 21
5.1876263074
  0
LINE
  5
22A
100
AcDbEntity
  8
0
100
AcDbLine
 62
7
  6
CONTINUOUS
 10
4.736452737
 20
5.3560675533
 11
4.736452737
 21
5.3601198968
  0
LINE
  5
22B
100
AcDbEntity
  8
0
100
AcDbLine
 62
7
  6
CONTINUOUS
 10
4.797033948
 20
5.1867865634
 11
4.797033948
 21
5.2217865634
  0
LINE
  5
22C
100
AcDbEntity
  8
0
100
AcDbLine
 62
7
  6
CONTINUOUS
 10
4.8941612501
 20
6.0268229243
 11
4.8969615428
 21
5.3850471749
  0
LINE
  5
22D
100
AcDbEntity
  8
0
100
AcDbLine
 62
7
  6
CONTINUOUS
 10
4.8303672814
 20
5.0134532301
 11
4.8303672814
 21
5.2967865634
  0
LINE
  5
22E
100
AcDbEntity
  8
0
100
AcDbLine
 62
7
  6
CONTINUOUS
 10
4.847033948
 20
5.3601198968
 11
4.847033948
 21
5.3684533881
  0
LINE
  5
22F
100
AcDbEntity
  8
0
100
AcDbLine
 62
7
  6
CONTINUOUS
 10
4.9137006147
 20
5.3684533881
 11
4.9137006147
 21
5.3601198968
  0
LINE
  5
230
100
AcDbEntity
  8
0
100
AcDbLine
 62
7
  6
CONTINUOUS
 10
4.8637730199
 20
5.3850471749
 11
4.8665733126
 21
6.0268229243
  0
LINE
  5
231
100
AcDbEntity
  8
0
100
AcDbLine
 62
7
  6
CONTINUOUS
 10
4.647033948
 20
5.1876263074
 11
4.6428672814
 21
5.1907963683
  0
LINE
  5
232
100
AcDbEntity
  8
0
100
AcDbLine
 62
7
  6
CONTINUOUS
 10
5.1428672814
 20
5.1907963683
 11
5.1428672814
 21
5.2927767586
  0
LINE
  5
233
100
AcDbEntity
  8
0
100
AcDbLine
 62
7
  6
CONTINUOUS
 10
5.147033948
 20
5.2959468195
 11
5.147033948
 21
5.1876263074
  0
LINE
  5
234
100
AcDbEntity
  8
0
100
AcDbLine
 62
7
  6
CONTINUOUS
 10
5.236452737
 20
5.3560675533
 11
5.236452737
 21
5.3601198968
  0
LINE
  5
235
100
AcDbEntity
  8
0
100
AcDbLine
 62
7
  6
CONTINUOUS
 10
5.3941612501
 20
6.0268229243
 11
5.3969615428
 21
5.3850471749
  0
LINE
  5
236
100
AcDbEntity
  8
0
100
AcDbLine
 62
7
  6
CONTINUOUS
 10
5.297033948
 20
5.1867865634
 11
5.297033948
 21
5.2217865634
  0
LINE
  5
237
100
AcDbEntity
  8
0
100
AcDbLine
 62
7
  6
CONTINUOUS
 10
5.3303672814
 20
5.0134532301
 11
5.3303672814
 21
5.2967865634
  0
LINE
  5
238
100
AcDbEntity
  8
0
100
AcDbLine
 62
7
  6
CONTINUOUS
 10
5.347033948
 20
5.3601198968
 11
5.347033948
 21
5.3684533881
  0
LINE
  5
239
100
AcDbEntity
  8
0
100
AcDbLine
 62
7
  6
CONTINUOUS
 10
5.3637730199
 20
5.3850471749
 11
5.3665733126
 21
6.0268229243
  0
LINE
  5
23A
100
AcDbEntity
  8
0
100
AcDbLine
 62
7
  6
CONTINUOUS
 10
5.147033948
 20
5.1876263074
 11
5.1428672814
 21
5.1907963683
  0
LINE
  5
23B
100
AcDbEntity
  8
0
100
AcDbLine
 62
7
  6
CONTINUOUS
 10
5.4137006147
 20
5.3684533881
 11
5.4137006147
 21
5.3601198968
  0
LINE
  5
23C
100
AcDbEntity
  8
0
100
AcDbLine
 62
7
  6
CONTINUOUS
 10
4.6870685412
 20
5.007301249
 11
4.7245248532
 21
5.0415257313
  0
LINE
  5
23D
100
AcDbEntity
  8
0
100
AcDbLine
 62
7
  6
CONTINUOUS
 10
4.6428672814
 20
5.2927767586
 11
4.647033948
 21
5.2959468195
  0
LINE
  5
23E
100
AcDbEntity
  8
0
100
AcDbLine
 62
7
  6
CONTINUOUS
 10
5.6428672814
 20
5.1907963683
 11
5.6428672814
 21
5.2927767586
  0
LINE
  5
23F
100
AcDbEntity
  8
0
100
AcDbLine
 62
7
  6
CONTINUOUS
 10
5.647033948
 20
5.2959468195
 11
5.647033948
 21
5.1876263074
  0
LINE
  5
240
100
AcDbEntity
  8
0
100
AcDbLine
 62
7
  6
CONTINUOUS
 10
4.2413009924
 20
5.0051198968
 11
4.6814473694
 21
5.0051198968
  0
LINE
  5
241
100
AcDbEntity
  8
0
100
AcDbLine
 62
7
  6
CONTINUOUS
 10
4.7413009924
 20
5.0051198968
 11
5.1814473694
 21
5.0051198968
  0
LINE
  5
242
100
AcDbEntity
  8
0
100
AcDbLine
 62
7
  6
CONTINUOUS
 10
5.2413009924
 20
5.0051198968
 11
5.6814473694
 21
5.0051198968
  0
LINE
  5
243
100
AcDbEntity
  8
0
100
AcDbLine
 62
7
  6
CONTINUOUS
 10
5.7413009924
 20
5.0051198968
 11
6.1814473694
 21
5.0051198968
  0
LINE
  5
244
100
AcDbEntity
  8
0
100
AcDbLine
 62
7
  6
CONTINUOUS
 10
6.2413009924
 20
5.0051198968
 11
6.6814473694
 21
5.0051198968
  0
LINE
  5
245
100
AcDbEntity
  8
0
100
AcDbLine
 62
7
  6
CONTINUOUS
 10
6.7413009924
 20
5.0051198968
 11
7.1814473694
 21
5.0051198968
  0
LINE
  5
246
100
AcDbEntity
  8
0
100
AcDbLine
 62
7
  6
CONTINUOUS
 10
7.2413009924
 20
5.0051198968
 11
7.6814473694
 21
5.0051198968
  0
LINE
  5
247
100
AcDbEntity
  8
0
100
AcDbLine
 62
7
  6
CONTINUOUS
 10
7.7413009924
 20
5.0051198968
 11
8.1814473694
 21
5.0051198968
  0
LINE
  5
248
100
AcDbEntity
  8
0
100
AcDbLine
 62
7
  6
CONTINUOUS
 10
4.1453672814
 20
5.0384532301
 11
4.1667653931
 21
5.0384532301
  0
LINE
  5
249
100
AcDbEntity
  8
0
100
AcDbLine
 62
7
  6
CONTINUOUS
 10
4.344539375
 20
5.0751198968
 11
4.603466048
 21
5.0751198968
  0
LINE
  5
24A
100
AcDbEntity
  8
0
100
AcDbLine
 62
7
  6
CONTINUOUS
 10
4.844539375
 20
5.0751198968
 11
5.103466048
 21
5.0751198968
  0
LINE
  5
24B
100
AcDbEntity
  8
0
100
AcDbLine
 62
7
  6
CONTINUOUS
 10
5.344539375
 20
5.0751198968
 11
5.603466048
 21
5.0751198968
  0
LINE
  5
24C
100
AcDbEntity
  8
0
100
AcDbLine
 62
7
  6
CONTINUOUS
 10
5.844539375
 20
5.0751198968
 11
6.103466048
 21
5.0751198968
  0
LINE
  5
24D
100
AcDbEntity
  8
0
100
AcDbLine
 62
7
  6
CONTINUOUS
 10
6.344539375
 20
5.0751198968
 11
6.603466048
 21
5.0751198968
  0
LINE
  5
24E
100
AcDbEntity
  8
0
100
AcDbLine
 62
7
  6
CONTINUOUS
 10
6.844539375
 20
5.0751198968
 11
7.103466048
 21
5.0751198968
  0
LINE
  5
24F
100
AcDbEntity
  8
0
100
AcDbLine
 62
7
  6
CONTINUOUS
 10
7.344539375
 20
5.0751198968
 11
7.603466048
 21
5.0751198968
  0
LINE
  5
250
100
AcDbEntity
  8
0
100
AcDbLine
 62
7
  6
CONTINUOUS
 10
7.844539375
 20
5.0751198968
 11
8.103466048
 21
5.0751198968
  0
LINE
  5
251
100
AcDbEntity
  8
0
100
AcDbLine
 62
7
  6
CONTINUOUS
 10
4.308118481
 20
5.3051198968
 11
4.3055784445
 21
5.3055149536
  0
LINE
  5
252
100
AcDbEntity
  8
0
100
AcDbLine
 62
7
  6
CONTINUOUS
 10
5.647033948
 20
5.1876263074
 11
5.6428672814
 21
5.1907963683
  0
LINE
  5
253
100
AcDbEntity
  8
0
100
AcDbLine
 62
7
  6
CONTINUOUS
 10
5.736452737
 20
5.3560675533
 11
5.736452737
 21
5.3601198968
  0
LINE
  5
254
100
AcDbEntity
  8
0
100
AcDbLine
 62
7
  6
CONTINUOUS
 10
5.797033948
 20
5.1867865634
 11
5.797033948
 21
5.2217865634
  0
LINE
  5
255
100
AcDbEntity
  8
0
100
AcDbLine
 62
7
  6
CONTINUOUS
 10
5.8303672814
 20
5.0134532301
 11
5.8303672814
 21
5.2967865634
  0
LINE
  5
256
100
AcDbEntity
  8
0
100
AcDbLine
 62
7
  6
CONTINUOUS
 10
5.847033948
 20
5.3601198968
 11
5.847033948
 21
5.3684533881
  0
LINE
  5
257
100
AcDbEntity
  8
0
100
AcDbLine
 62
7
  6
CONTINUOUS
 10
5.1428672814
 20
5.2927767586
 11
5.147033948
 21
5.2959468195
  0
LINE
  5
258
100
AcDbEntity
  8
0
100
AcDbLine
 62
7
  6
CONTINUOUS
 10
4.808118481
 20
5.3051198968
 11
4.8055784445
 21
5.3055149536
  0
LINE
  5
259
100
AcDbEntity
  8
0
100
AcDbLine
 62
7
  6
CONTINUOUS
 10
5.308118481
 20
5.3051198968
 11
5.3055784445
 21
5.3055149536
  0
LINE
  5
25A
100
AcDbEntity
  8
0
100
AcDbLine
 62
7
  6
CONTINUOUS
 10
5.8941612501
 20
6.0268229243
 11
5.8969615428
 21
5.3850471749
  0
LINE
  5
25B
100
AcDbEntity
  8
0
100
AcDbLine
 62
7
  6
CONTINUOUS
 10
5.9137006147
 20
5.3684533881
 11
5.9137006147
 21
5.3601198968
  0
LINE
  5
25C
100
AcDbEntity
  8
0
100
AcDbLine
 62
7
  6
CONTINUOUS
 10
5.8637730199
 20
5.3850471749
 11
5.8665733126
 21
6.0268229243
  0
LINE
  5
25D
100
AcDbEntity
  8
0
100
AcDbLine
 62
7
  6
CONTINUOUS
 10
5.1870685412
 20
5.007301249
 11
5.2245248532
 21
5.0415257313
  0
LINE
  5
25E
100
AcDbEntity
  8
0
100
AcDbLine
 62
7
  6
CONTINUOUS
 10
4.308118481
 20
5.3051198968
 11
4.5720577624
 21
5.3051198968
  0
LINE
  5
25F
100
AcDbEntity
  8
0
100
AcDbLine
 62
7
  6
CONTINUOUS
 10
4.6886768003
 20
5.3051198968
 11
4.7539690831
 21
5.3051198968
  0
LINE
  5
260
100
AcDbEntity
  8
0
100
AcDbLine
 62
7
  6
CONTINUOUS
 10
4.808118481
 20
5.3051198968
 11
5.0720577624
 21
5.3051198968
  0
LINE
  5
261
100
AcDbEntity
  8
0
100
AcDbLine
 62
7
  6
CONTINUOUS
 10
5.1886768003
 20
5.3051198968
 11
5.2539690831
 21
5.3051198968
  0
LINE
  5
262
100
AcDbEntity
  8
0
100
AcDbLine
 62
7
  6
CONTINUOUS
 10
5.308118481
 20
5.3051198968
 11
5.5720577624
 21
5.3051198968
  0
LINE
  5
263
100
AcDbEntity
  8
0
100
AcDbLine
 62
7
  6
CONTINUOUS
 10
5.6886768003
 20
5.3051198968
 11
5.7539690831
 21
5.3051198968
  0
LINE
  5
264
100
AcDbEntity
  8
0
100
AcDbLine
 62
7
  6
CONTINUOUS
 10
5.808118481
 20
5.3051198968
 11
6.0720577624
 21
5.3051198968
  0
LINE
  5
265
100
AcDbEntity
  8
0
100
AcDbLine
 62
7
  6
CONTINUOUS
 10
6.1886768003
 20
5.3051198968
 11
6.2539690831
 21
5.3051198968
  0
LINE
  5
266
100
AcDbEntity
  8
0
100
AcDbLine
 62
7
  6
CONTINUOUS
 10
6.308118481
 20
5.3051198968
 11
6.5720577624
 21
5.3051198968
  0
LINE
  5
267
100
AcDbEntity
  8
0
100
AcDbLine
 62
7
  6
CONTINUOUS
 10
6.6886768003
 20
5.3051198968
 11
6.7539690831
 21
5.3051198968
  0
LINE
  5
268
100
AcDbEntity
  8
0
100
AcDbLine
 62
7
  6
CONTINUOUS
 10
6.808118481
 20
5.3051198968
 11
7.0720577624
 21
5.3051198968
  0
LINE
  5
269
100
AcDbEntity
  8
0
100
AcDbLine
 62
7
  6
CONTINUOUS
 10
7.1886768003
 20
5.3051198968
 11
7.2539690831
 21
5.3051198968
  0
LINE
  5
26A
100
AcDbEntity
  8
0
100
AcDbLine
 62
7
  6
CONTINUOUS
 10
7.308118481
 20
5.3051198968
 11
7.5720577624
 21
5.3051198968
  0
LINE
  5
26B
100
AcDbEntity
  8
0
100
AcDbLine
 62
7
  6
CONTINUOUS
 10
7.6886768003
 20
5.3051198968
 11
7.7539690831
 21
5.3051198968
  0
LINE
  5
26C
100
AcDbEntity
  8
0
100
AcDbLine
 62
7
  6
CONTINUOUS
 10
7.808118481
 20
5.3051198968
 11
8.0720577624
 21
5.3051198968
  0
LINE
  5
26D
100
AcDbEntity
  8
0
100
AcDbLine
 62
7
  6
CONTINUOUS
 10
8.1886768003
 20
5.3051198968
 11
8.2539690831
 21
5.3051198968
  0
LINE
  5
26E
100
AcDbEntity
  8
0
100
AcDbLine
 62
7
  6
CONTINUOUS
 10
4.3470329049
 20
5.3601198968
 11
4.4137392555
 21
5.3601198968
  0
LINE
  5
26F
100
AcDbEntity
  8
0
100
AcDbLine
 62
7
  6
CONTINUOUS
 10
4.8470329049
 20
5.3601198968
 11
4.9137392555
 21
5.3601198968
  0
LINE
  5
270
100
AcDbEntity
  8
0
100
AcDbLine
 62
7
  6
CONTINUOUS
 10
5.3470329049
 20
5.3601198968
 11
5.4137392555
 21
5.3601198968
  0
LINE
  5
271
100
AcDbEntity
  8
0
100
AcDbLine
 62
7
  6
CONTINUOUS
 10
5.8470329049
 20
5.3601198968
 11
5.9137392555
 21
5.3601198968
  0
LINE
  5
272
100
AcDbEntity
  8
0
100
AcDbLine
 62
7
  6
CONTINUOUS
 10
6.3470329049
 20
5.3601198968
 11
6.4137392555
 21
5.3601198968
  0
LINE
  5
273
100
AcDbEntity
  8
0
100
AcDbLine
 62
7
  6
CONTINUOUS
 10
6.8470329049
 20
5.3601198968
 11
6.9137392555
 21
5.3601198968
  0
LINE
  5
274
100
AcDbEntity
  8
0
100
AcDbLine
 62
7
  6
CONTINUOUS
 10
7.3470329049
 20
5.3601198968
 11
7.4137392555
 21
5.3601198968
  0
LINE
  5
275
100
AcDbEntity
  8
0
100
AcDbLine
 62
7
  6
CONTINUOUS
 10
7.8470329049
 20
5.3601198968
 11
7.9137392555
 21
5.3601198968
  0
LINE
  5
276
100
AcDbEntity
  8
0
100
AcDbLine
 62
7
  6
CONTINUOUS
 10
7.7536849676
 20
5.3651198968
 11
7.7367395809
 21
5.3651198968
  0
LINE
  5
277
100
AcDbEntity
  8
0
100
AcDbLine
 62
7
  6
CONTINUOUS
 10
7.2536849676
 20
5.3651198968
 11
7.2367395809
 21
5.3651198968
  0
LINE
  5
278
100
AcDbEntity
  8
0
100
AcDbLine
 62
7
  6
CONTINUOUS
 10
6.7536849676
 20
5.3651198968
 11
6.7367395809
 21
5.3651198968
  0
LINE
  5
279
100
AcDbEntity
  8
0
100
AcDbLine
 62
7
  6
CONTINUOUS
 10
6.2536849676
 20
5.3651198968
 11
6.2367395809
 21
5.3651198968
  0
LINE
  5
27A
100
AcDbEntity
  8
0
100
AcDbLine
 62
7
  6
CONTINUOUS
 10
5.7536849676
 20
5.3651198968
 11
5.7367395809
 21
5.3651198968
  0
LINE
  5
27B
100
AcDbEntity
  8
0
100
AcDbLine
 62
7
  6
CONTINUOUS
 10
5.2536849676
 20
5.3651198968
 11
5.2367395809
 21
5.3651198968
  0
LINE
  5
27C
100
AcDbEntity
  8
0
100
AcDbLine
 62
7
  6
CONTINUOUS
 10
4.7536849676
 20
5.3651198968
 11
4.7367395809
 21
5.3651198968
  0
LINE
  5
27D
100
AcDbEntity
  8
0
100
AcDbLine
 62
7
  6
CONTINUOUS
 10
4.2536849676
 20
5.3651198968
 11
4.2367395809
 21
5.3651198968
  0
LINE
  5
27E
100
AcDbEntity
  8
0
100
AcDbLine
 62
7
  6
CONTINUOUS
 10
8.1503672814
 20
5.3684532301
 11
7.9137006147
 21
5.3684532301
  0
LINE
  5
27F
100
AcDbEntity
  8
0
100
AcDbLine
 62
7
  6
CONTINUOUS
 10
4.1103672814
 20
5.3684532301
 11
4.347033948
 21
5.3684532301
  0
LINE
  5
280
100
AcDbEntity
  8
0
100
AcDbLine
 62
7
  6
CONTINUOUS
 10
4.4137006147
 20
5.3684532301
 11
4.847033948
 21
5.3684532301
  0
LINE
  5
281
100
AcDbEntity
  8
0
100
AcDbLine
 62
7
  6
CONTINUOUS
 10
4.9137006147
 20
5.3684532301
 11
5.347033948
 21
5.3684532301
  0
LINE
  5
282
100
AcDbEntity
  8
0
100
AcDbLine
 62
7
  6
CONTINUOUS
 10
5.4137006147
 20
5.3684532301
 11
5.847033948
 21
5.3684532301
  0
LINE
  5
283
100
AcDbEntity
  8
0
100
AcDbLine
 62
7
  6
CONTINUOUS
 10
5.9137006147
 20
5.3684532301
 11
6.347033948
 21
5.3684532301
  0
LINE
  5
284
100
AcDbEntity
  8
0
100
AcDbLine
 62
7
  6
CONTINUOUS
 10
6.4137006147
 20
5.3684532301
 11
6.847033948
 21
5.3684532301
  0
LINE
  5
285
100
AcDbEntity
  8
0
100
AcDbLine
 62
7
  6
CONTINUOUS
 10
6.9137006147
 20
5.3684532301
 11
7.347033948
 21
5.3684532301
  0
LINE
  5
286
100
AcDbEntity
  8
0
100
AcDbLine
 62
7
  6
CONTINUOUS
 10
7.4137006147
 20
5.3684532301
 11
7.847033948
 21
5.3684532301
  0
LINE
  5
287
100
AcDbEntity
  8
0
100
AcDbLine
 62
7
  6
CONTINUOUS
 10
4.3950137437
 20
5.3684544673
 11
4.3657204604
 21
5.3684544801
  0
LINE
  5
288
100
AcDbEntity
  8
0
100
AcDbLine
 62
7
  6
CONTINUOUS
 10
4.8950137437
 20
5.3684544673
 11
4.8657204604
 21
5.3684544801
  0
LINE
  5
289
100
AcDbEntity
  8
0
100
AcDbLine
 62
7
  6
CONTINUOUS
 10
5.3950137437
 20
5.3684544673
 11
5.3657204604
 21
5.3684544801
  0
LINE
  5
28A
100
AcDbEntity
  8
0
100
AcDbLine
 62
7
  6
CONTINUOUS
 10
5.8950137437
 20
5.3684544673
 11
5.8657204604
 21
5.3684544801
  0
LINE
  5
28B
100
AcDbEntity
  8
0
100
AcDbLine
 62
7
  6
CONTINUOUS
 10
6.3950137437
 20
5.3684544673
 11
6.3657204604
 21
5.3684544801
  0
LINE
  5
28C
100
AcDbEntity
  8
0
100
AcDbLine
 62
7
  6
CONTINUOUS
 10
6.8950137437
 20
5.3684544673
 11
6.8657204604
 21
5.3684544801
  0
LINE
  5
28D
100
AcDbEntity
  8
0
100
AcDbLine
 62
7
  6
CONTINUOUS
 10
7.3950137437
 20
5.3684544673
 11
7.3657204604
 21
5.3684544801
  0
LINE
  5
28E
100
AcDbEntity
  8
0
100
AcDbLine
 62
7
  6
CONTINUOUS
 10
7.8950137437
 20
5.3684544673
 11
7.8657204604
 21
5.3684544801
  0
LINE
  5
28F
100
AcDbEntity
  8
0
100
AcDbLine
 62
7
  6
CONTINUOUS
 10
5.808118481
 20
5.3051198968
 11
5.8055784445
 21
5.3055149536
  0
LINE
  5
290
100
AcDbEntity
  8
0
100
AcDbLine
 62
7
  6
CONTINUOUS
 10
6.308118481
 20
5.3051198968
 11
6.3055784445
 21
5.3055149536
  0
LINE
  5
291
100
AcDbEntity
  8
0
100
AcDbLine
 62
7
  6
CONTINUOUS
 10
6.147033948
 20
5.1876263074
 11
6.1428672814
 21
5.1907963683
  0
LINE
  5
292
100
AcDbEntity
  8
0
100
AcDbLine
 62
7
  6
CONTINUOUS
 10
6.1428672814
 20
5.1907963683
 11
6.1428672814
 21
5.2927767586
  0
LINE
  5
293
100
AcDbEntity
  8
0
100
AcDbLine
 62
7
  6
CONTINUOUS
 10
6.147033948
 20
5.2959468195
 11
6.147033948
 21
5.1876263074
  0
LINE
  5
294
100
AcDbEntity
  8
0
100
AcDbLine
 62
7
  6
CONTINUOUS
 10
5.6428672814
 20
5.2927767586
 11
5.647033948
 21
5.2959468195
  0
LINE
  5
295
100
AcDbEntity
  8
0
100
AcDbLine
 62
7
  6
CONTINUOUS
 10
6.808118481
 20
5.3051198968
 11
6.8055784445
 21
5.3055149536
  0
LINE
  5
296
100
AcDbEntity
  8
0
100
AcDbLine
 62
7
  6
CONTINUOUS
 10
7.308118481
 20
5.3051198968
 11
7.3055784445
 21
5.3055149536
  0
LINE
  5
297
100
AcDbEntity
  8
0
100
AcDbLine
 62
7
  6
CONTINUOUS
 10
6.236452737
 20
5.3560675533
 11
6.236452737
 21
5.3601198968
  0
LINE
  5
298
100
AcDbEntity
  8
0
100
AcDbLine
 62
7
  6
CONTINUOUS
 10
6.297033948
 20
5.1867865634
 11
6.297033948
 21
5.2217865634
  0
LINE
  5
299
100
AcDbEntity
  8
0
100
AcDbLine
 62
7
  6
CONTINUOUS
 10
5.6870685412
 20
5.007301249
 11
5.7245248532
 21
5.0415257313
  0
LINE
  5
29A
100
AcDbEntity
  8
0
100
AcDbLine
 62
7
  6
CONTINUOUS
 10
7.808118481
 20
5.3051198968
 11
7.8055784445
 21
5.3055149536
  0
LINE
  5
29B
100
AcDbEntity
  8
0
100
AcDbLine
 62
7
  6
CONTINUOUS
 10
6.647033948
 20
5.1876263074
 11
6.6428672814
 21
5.1907963683
  0
LINE
  5
29C
100
AcDbEntity
  8
0
100
AcDbLine
 62
7
  6
CONTINUOUS
 10
6.3941612501
 20
6.0268229243
 11
6.3969615428
 21
5.3850471749
  0
LINE
  5
29D
100
AcDbEntity
  8
0
100
AcDbLine
 62
7
  6
CONTINUOUS
 10
6.3303672814
 20
5.0134532301
 11
6.3303672814
 21
5.2967865634
  0
LINE
  5
29E
100
AcDbEntity
  8
0
100
AcDbLine
 62
7
  6
CONTINUOUS
 10
6.347033948
 20
5.3601198968
 11
6.347033948
 21
5.3684533881
  0
LINE
  5
29F
100
AcDbEntity
  8
0
100
AcDbLine
 62
7
  6
CONTINUOUS
 10
6.4137006147
 20
5.3684533881
 11
6.4137006147
 21
5.3601198968
  0
LINE
  5
2A0
100
AcDbEntity
  8
0
100
AcDbLine
 62
7
  6
CONTINUOUS
 10
6.3637730199
 20
5.3850471749
 11
6.3665733126
 21
6.0268229243
  0
LINE
  5
2A1
100
AcDbEntity
  8
0
100
AcDbLine
 62
7
  6
CONTINUOUS
 10
6.1428672814
 20
5.2927767586
 11
6.147033948
 21
5.2959468195
  0
LINE
  5
2A2
100
AcDbEntity
  8
0
100
AcDbLine
 62
7
  6
CONTINUOUS
 10
6.1870685412
 20
5.007301249
 11
6.2245248532
 21
5.0415257313
  0
LINE
  5
2A3
100
AcDbEntity
  8
0
100
AcDbLine
 62
7
  6
CONTINUOUS
 10
7.147033948
 20
5.1876263074
 11
7.1428672814
 21
5.1907963683
  0
LINE
  5
2A4
100
AcDbEntity
  8
0
100
AcDbLine
 62
7
  6
CONTINUOUS
 10
6.6428672814
 20
5.1907963683
 11
6.6428672814
 21
5.2927767586
  0
LINE
  5
2A5
100
AcDbEntity
  8
0
100
AcDbLine
 62
7
  6
CONTINUOUS
 10
6.647033948
 20
5.2959468195
 11
6.647033948
 21
5.1876263074
  0
LINE
  5
2A6
100
AcDbEntity
  8
0
100
AcDbLine
 62
7
  6
CONTINUOUS
 10
6.736452737
 20
5.3560675533
 11
6.736452737
 21
5.3601198968
  0
LINE
  5
2A7
100
AcDbEntity
  8
0
100
AcDbLine
 62
7
  6
CONTINUOUS
 10
6.6428672814
 20
5.2927767586
 11
6.647033948
 21
5.2959468195
  0
LINE
  5
2A8
100
AcDbEntity
  8
0
100
AcDbLine
 62
7
  6
CONTINUOUS
 10
7.8858279961
 20
6.0351198968
 11
7.8749065666
 21
6.0351198968
  0
LINE
  5
2A9
100
AcDbEntity
  8
0
100
AcDbLine
 62
7
  6
CONTINUOUS
 10
7.3858279961
 20
6.0351198968
 11
7.3749065666
 21
6.0351198968
  0
LINE
  5
2AA
100
AcDbEntity
  8
0
100
AcDbLine
 62
7
  6
CONTINUOUS
 10
6.8858279961
 20
6.0351198968
 11
6.8749065666
 21
6.0351198968
  0
LINE
  5
2AB
100
AcDbEntity
  8
0
100
AcDbLine
 62
7
  6
CONTINUOUS
 10
6.3858279961
 20
6.0351198968
 11
6.3749065666
 21
6.0351198968
  0
LINE
  5
2AC
100
AcDbEntity
  8
0
100
AcDbLine
 62
7
  6
CONTINUOUS
 10
5.8858279961
 20
6.0351198968
 11
5.8749065666
 21
6.0351198968
  0
LINE
  5
2AD
100
AcDbEntity
  8
0
100
AcDbLine
 62
7
  6
CONTINUOUS
 10
5.3858279961
 20
6.0351198968
 11
5.3749065666
 21
6.0351198968
  0
LINE
  5
2AE
100
AcDbEntity
  8
0
100
AcDbLine
 62
7
  6
CONTINUOUS
 10
4.8858279961
 20
6.0351198968
 11
4.8749065666
 21
6.0351198968
  0
LINE
  5
2AF
100
AcDbEntity
  8
0
100
AcDbLine
 62
7
  6
CONTINUOUS
 10
4.3858279961
 20
6.0351198968
 11
4.3749065666
 21
6.0351198968
  0
LINE
  5
2B0
100
AcDbEntity
  8
0
100
AcDbLine
 62
7
  6
CONTINUOUS
 10
6.797033948
 20
5.1867865634
 11
6.797033948
 21
5.2217865634
  0
LINE
  5
2B1
100
AcDbEntity
  8
0
100
AcDbLine
 62
7
  6
CONTINUOUS
 10
6.8303672814
 20
5.0134532301
 11
6.8303672814
 21
5.2967865634
  0
LINE
  5
2B2
100
AcDbEntity
  8
0
100
AcDbLine
 62
7
  6
CONTINUOUS
 10
6.847033948
 20
5.3601198968
 11
6.847033948
 21
5.3684533881
  0
LINE
  5
2B3
100
AcDbEntity
  8
0
100
AcDbLine
 62
7
  6
CONTINUOUS
 10
6.8637730199
 20
5.3850471749
 11
6.8665733126
 21
6.0268229243
  0
LINE
  5
2B4
100
AcDbEntity
  8
0
100
AcDbLine
 62
7
  6
CONTINUOUS
 10
6.6870685412
 20
5.007301249
 11
6.7245248532
 21
5.0415257313
  0
LINE
  5
2B5
100
AcDbEntity
  8
0
100
AcDbLine
 62
7
  6
CONTINUOUS
 10
7.647033948
 20
5.1876263074
 11
7.6428672814
 21
5.1907963683
  0
LINE
  5
2B6
100
AcDbEntity
  8
0
100
AcDbLine
 62
7
  6
CONTINUOUS
 10
6.8941612501
 20
6.0268229243
 11
6.8969615428
 21
5.3850471749
  0
LINE
  5
2B7
100
AcDbEntity
  8
0
100
AcDbLine
 62
7
  6
CONTINUOUS
 10
6.9137006147
 20
5.3684533881
 11
6.9137006147
 21
5.3601198968
  0
LINE
  5
2B8
100
AcDbEntity
  8
0
100
AcDbLine
 62
7
  6
CONTINUOUS
 10
7.1428672814
 20
5.2927767586
 11
7.147033948
 21
5.2959468195
  0
LINE
  5
2B9
100
AcDbEntity
  8
0
100
AcDbLine
 62
7
  6
CONTINUOUS
 10
7.1428672814
 20
5.1907963683
 11
7.1428672814
 21
5.2927767586
  0
LINE
  5
2BA
100
AcDbEntity
  8
0
100
AcDbLine
 62
7
  6
CONTINUOUS
 10
7.147033948
 20
5.2959468195
 11
7.147033948
 21
5.1876263074
  0
LINE
  5
2BB
100
AcDbEntity
  8
0
100
AcDbLine
 62
7
  6
CONTINUOUS
 10
8.147033948
 20
5.1876263074
 11
8.1428672814
 21
5.1907963683
  0
LINE
  5
2BC
100
AcDbEntity
  8
0
100
AcDbLine
 62
7
  6
CONTINUOUS
 10
7.236452737
 20
5.3560675533
 11
7.236452737
 21
5.3601198968
  0
LINE
  5
2BD
100
AcDbEntity
  8
0
100
AcDbLine
 62
7
  6
CONTINUOUS
 10
7.297033948
 20
5.1867865634
 11
7.297033948
 21
5.2217865634
  0
LINE
  5
2BE
100
AcDbEntity
  8
0
100
AcDbLine
 62
7
  6
CONTINUOUS
 10
7.3303672814
 20
5.0134532301
 11
7.3303672814
 21
5.2967865634
  0
LINE
  5
2BF
100
AcDbEntity
  8
0
100
AcDbLine
 62
7
  6
CONTINUOUS
 10
7.1870685412
 20
5.007301249
 11
7.2245248532
 21
5.0415257313
  0
LINE
  5
2C0
100
AcDbEntity
  8
0
100
AcDbLine
 62
7
  6
CONTINUOUS
 10
7.6428672814
 20
5.2927767586
 11
7.647033948
 21
5.2959468195
  0
LINE
  5
2C1
100
AcDbEntity
  8
0
100
AcDbLine
 62
7
  6
CONTINUOUS
 10
7.3941612501
 20
6.0268229243
 11
7.3969615428
 21
5.3850471749
  0
LINE
  5
2C2
100
AcDbEntity
  8
0
100
AcDbLine
 62
7
  6
CONTINUOUS
 10
7.347033948
 20
5.3601198968
 11
7.347033948
 21
5.3684533881
  0
LINE
  5
2C3
100
AcDbEntity
  8
0
100
AcDbLine
 62
7
  6
CONTINUOUS
 10
7.4137006147
 20
5.3684533881
 11
7.4137006147
 21
5.3601198968
  0
LINE
  5
2C4
100
AcDbEntity
  8
0
100
AcDbLine
 62
7
  6
CONTINUOUS
 10
7.3637730199
 20
5.3850471749
 11
7.3665733126
 21
6.0268229243
  0
LINE
  5
2C5
100
AcDbEntity
  8
0
100
AcDbLine
 62
7
  6
CONTINUOUS
 10
7.6870685412
 20
5.007301249
 11
7.7245248532
 21
5.0415257313
  0
LINE
  5
2C6
100
AcDbEntity
  8
0
100
AcDbLine
 62
7
  6
CONTINUOUS
 10
8.1428672814
 20
5.2927767586
 11
8.147033948
 21
5.2959468195
  0
LINE
  5
2C7
100
AcDbEntity
  8
0
100
AcDbLine
 62
7
  6
CONTINUOUS
 10
7.6428672814
 20
5.1907963683
 11
7.6428672814
 21
5.2927767586
  0
LINE
  5
2C8
100
AcDbEntity
  8
0
100
AcDbLine
 62
7
  6
CONTINUOUS
 10
7.647033948
 20
5.2959468195
 11
7.647033948
 21
5.1876263074
  0
LINE
  5
2C9
100
AcDbEntity
  8
0
100
AcDbLine
 62
7
  6
CONTINUOUS
 10
7.736452737
 20
5.3560675533
 11
7.736452737
 21
5.3601198968
  0
LINE
  5
2CA
100
AcDbEntity
  8
0
100
AcDbLine
 62
7
  6
CONTINUOUS
 10
7.8941612501
 20
6.0268229243
 11
7.8969615428
 21
5.3850471749
  0
LINE
  5
2CB
100
AcDbEntity
  8
0
100
AcDbLine
 62
7
  6
CONTINUOUS
 10
7.797033948
 20
5.1867865634
 11
7.797033948
 21
5.2217865634
  0
LINE
  5
2CC
100
AcDbEntity
  8
0
100
AcDbLine
 62
7
  6
CONTINUOUS
 10
7.8303672814
 20
5.0134532301
 11
7.8303672814
 21
5.2967865634
  0
LINE
  5
2CD
100
AcDbEntity
  8
0
100
AcDbLine
 62
7
  6
CONTINUOUS
 10
7.847033948
 20
5.3601198968
 11
7.847033948
 21
5.3684533881
  0
LINE
  5
2CE
100
AcDbEntity
  8
0
100
AcDbLine
 62
7
  6
CONTINUOUS
 10
7.9137006147
 20
5.3684533881
 11
7.9137006147
 21
5.3601198968
  0
LINE
  5
2CF
100
AcDbEntity
  8
0
100
AcDbLine
 62
7
  6
CONTINUOUS
 10
7.8637730199
 20
5.3850471749
 11
7.8665733126
 21
6.0268229243
  0
LINE
  5
2D0
100
AcDbEntity
  8
0
100
AcDbLine
 62
7
  6
CONTINUOUS
 10
8.1870685412
 20
5.007301249
 11
8.2245248532
 21
5.0415257313
  0
LINE
  5
2D1
100
AcDbEntity
  8
0
100
AcDbLine
 62
7
  6
CONTINUOUS
 10
8.1428672814
 20
5.1907963683
 11
8.1428672814
 21
5.2927767586
  0
LINE
  5
2D2
100
AcDbEntity
  8
0
100
AcDbLine
 62
7
  6
CONTINUOUS
 10
8.147033948
 20
5.2959468195
 11
8.147033948
 21
5.1876263074
  0
LINE
  5
2D3
100
AcDbEntity
  8
0
100
AcDbLine
 62
7
  6
CONTINUOUS
 10
8.297033948
 20
5.1867865634
 11
8.297033948
 21
5.2217865634
  0
LINE
  5
2D4
100
AcDbEntity
  8
0
100
AcDbLine
 62
7
  6
CONTINUOUS
 10
3.9042054224
 20
12.8400477918
 11
3.9042054224
 21
12.3600477918
  0
LINE
  5
2D5
100
AcDbEntity
  8
0
100
AcDbLine
 62
7
  6
CONTINUOUS
 10
4.1943579179
 20
11.8534329645
 11
4.1766665383
 21
12.3600477918
  0
LINE
  5
2D6
100
AcDbEntity
  8
0
100
AcDbLine
 62
7
  6
CONTINUOUS
 10
4.1766665383
 20
12.8400477918
 11
4.194357892
 21
13.3466618789
  0
LINE
  5
2D7
100
AcDbEntity
  8
0
100
AcDbLine
 62
7
  6
CONTINUOUS
 10
4.2875387557
 20
11.8500477709
 11
4.2875387557
 21
13.266758092
  0
LINE
  5
2D8
100
AcDbEntity
  8
0
100
AcDbLine
 62
7
  6
CONTINUOUS
 10
4.3042778276
 20
11.8584534511
 11
4.3042778276
 21
13.266758092
  0
LINE
  5
2D9
100
AcDbEntity
  8
0
100
AcDbLine
 62
7
  6
CONTINUOUS
 10
4.3070781203
 20
11.8961013597
 11
4.3070781203
 21
13.266758092
  0
LINE
  5
2DA
100
AcDbEntity
  8
0
100
AcDbLine
 62
7
  6
CONTINUOUS
 10
4.3346660578
 20
13.266758092
 11
4.3346660578
 21
11.8961013597
  0
LINE
  5
2DB
100
AcDbEntity
  8
0
100
AcDbLine
 62
7
  6
CONTINUOUS
 10
4.3374663505
 20
13.266758092
 11
4.3374663505
 21
11.8584534511
  0
LINE
  5
2DC
100
AcDbEntity
  8
0
100
AcDbLine
 62
7
  6
CONTINUOUS
 10
4.3542054224
 20
13.266758092
 11
4.3542054224
 21
11.8500477918
  0
LINE
  5
2DD
100
AcDbEntity
  8
0
100
AcDbLine
 62
7
  6
CONTINUOUS
 10
4.5054390182
 20
12.3350477918
 11
4.5054390182
 21
12.8650477918
  0
LINE
  5
2DE
100
AcDbEntity
  8
0
100
AcDbLine
 62
7
  6
CONTINUOUS
 10
4.5142054224
 20
12.3433811252
 11
4.5142054224
 21
12.3517144585
  0
LINE
  5
2DF
100
AcDbEntity
  8
0
100
AcDbLine
 62
7
  6
CONTINUOUS
 10
4.5142054224
 20
12.8483811252
 11
4.5142054224
 21
12.8567144585
  0
LINE
  5
2E0
100
AcDbEntity
  8
0
100
AcDbLine
 62
7
  6
CONTINUOUS
 10
4.6943579179
 20
11.8534329645
 11
4.6766665383
 21
12.3600477918
  0
LINE
  5
2E1
100
AcDbEntity
  8
0
100
AcDbLine
 62
7
  6
CONTINUOUS
 10
4.5875387557
 20
12.3433811252
 11
4.5875387557
 21
12.3517144585
  0
LINE
  5
2E2
100
AcDbEntity
  8
0
100
AcDbLine
 62
7
  6
CONTINUOUS
 10
4.5875387557
 20
12.8483811252
 11
4.5875387557
 21
12.8567144585
  0
LINE
  5
2E3
100
AcDbEntity
  8
0
100
AcDbLine
 62
7
  6
CONTINUOUS
 10
4.6766665383
 20
12.8400477918
 11
4.694357892
 21
13.3466618789
  0
LINE
  5
2E4
100
AcDbEntity
  8
0
100
AcDbLine
 62
7
  6
CONTINUOUS
 10
4.7875387557
 20
11.8500477709
 11
4.7875387557
 21
13.266758092
  0
LINE
  5
2E5
100
AcDbEntity
  8
0
100
AcDbLine
 62
7
  6
CONTINUOUS
 10
4.8042778276
 20
11.8584534511
 11
4.8042778276
 21
13.266758092
  0
LINE
  5
2E6
100
AcDbEntity
  8
0
100
AcDbLine
 62
7
  6
CONTINUOUS
 10
4.8070781203
 20
11.8961013597
 11
4.8070781203
 21
13.266758092
  0
LINE
  5
2E7
100
AcDbEntity
  8
0
100
AcDbLine
 62
7
  6
CONTINUOUS
 10
4.8346660578
 20
13.266758092
 11
4.8346660578
 21
11.8961013597
  0
LINE
  5
2E8
100
AcDbEntity
  8
0
100
AcDbLine
 62
7
  6
CONTINUOUS
 10
4.8374663505
 20
13.266758092
 11
4.8374663505
 21
11.8584534511
  0
LINE
  5
2E9
100
AcDbEntity
  8
0
100
AcDbLine
 62
7
  6
CONTINUOUS
 10
4.8542054224
 20
13.266758092
 11
4.8542054224
 21
11.8500477918
  0
LINE
  5
2EA
100
AcDbEntity
  8
0
100
AcDbLine
 62
7
  6
CONTINUOUS
 10
5.0054390182
 20
12.3350477918
 11
5.0054390182
 21
12.8650477918
  0
LINE
  5
2EB
100
AcDbEntity
  8
0
100
AcDbLine
 62
7
  6
CONTINUOUS
 10
5.0142054224
 20
12.3433811252
 11
5.0142054224
 21
12.3517144585
  0
LINE
  5
2EC
100
AcDbEntity
  8
0
100
AcDbLine
 62
7
  6
CONTINUOUS
 10
5.0142054224
 20
12.8483811252
 11
5.0142054224
 21
12.8567144585
  0
LINE
  5
2ED
100
AcDbEntity
  8
0
100
AcDbLine
 62
7
  6
CONTINUOUS
 10
5.1943579179
 20
11.8534329645
 11
5.1766665383
 21
12.3600477918
  0
LINE
  5
2EE
100
AcDbEntity
  8
0
100
AcDbLine
 62
7
  6
CONTINUOUS
 10
5.0875387557
 20
12.3433811252
 11
5.0875387557
 21
12.3517144585
  0
LINE
  5
2EF
100
AcDbEntity
  8
0
100
AcDbLine
 62
7
  6
CONTINUOUS
 10
5.0875387557
 20
12.8483811252
 11
5.0875387557
 21
12.8567144585
  0
LINE
  5
2F0
100
AcDbEntity
  8
0
100
AcDbLine
 62
7
  6
CONTINUOUS
 10
5.1766665383
 20
12.8400477918
 11
5.194357892
 21
13.3466618789
  0
LINE
  5
2F1
100
AcDbEntity
  8
0
100
AcDbLine
 62
7
  6
CONTINUOUS
 10
5.2875387557
 20
11.8500477709
 11
5.2875387557
 21
13.266758092
  0
LINE
  5
2F2
100
AcDbEntity
  8
0
100
AcDbLine
 62
7
  6
CONTINUOUS
 10
5.3042778276
 20
11.8584534511
 11
5.3042778276
 21
13.266758092
  0
LINE
  5
2F3
100
AcDbEntity
  8
0
100
AcDbLine
 62
7
  6
CONTINUOUS
 10
5.3070781203
 20
11.8961013597
 11
5.3070781203
 21
13.266758092
  0
LINE
  5
2F4
100
AcDbEntity
  8
0
100
AcDbLine
 62
7
  6
CONTINUOUS
 10
4.6944738908
 20
11.8500477918
 11
4.2198329196
 21
11.8500491828
  0
LINE
  5
2F5
100
AcDbEntity
  8
0
100
AcDbLine
 62
7
  6
CONTINUOUS
 10
5.1944738908
 20
11.8500477918
 11
4.7198329196
 21
11.8500491828
  0
LINE
  5
2F6
100
AcDbEntity
  8
0
100
AcDbLine
 62
7
  6
CONTINUOUS
 10
5.6944738908
 20
11.8500477918
 11
5.2198329196
 21
11.8500491828
  0
LINE
  5
2F7
100
AcDbEntity
  8
0
100
AcDbLine
 62
7
  6
CONTINUOUS
 10
6.1944738908
 20
11.8500477918
 11
5.7198329196
 21
11.8500491828
  0
LINE
  5
2F8
100
AcDbEntity
  8
0
100
AcDbLine
 62
7
  6
CONTINUOUS
 10
6.6944738908
 20
11.8500477918
 11
6.2198329196
 21
11.8500491828
  0
LINE
  5
2F9
100
AcDbEntity
  8
0
100
AcDbLine
 62
7
  6
CONTINUOUS
 10
7.1944738908
 20
11.8500477918
 11
6.7198329196
 21
11.8500491828
  0
LINE
  5
2FA
100
AcDbEntity
  8
0
100
AcDbLine
 62
7
  6
CONTINUOUS
 10
7.6944738908
 20
11.8500477918
 11
7.2198329196
 21
11.8500491828
  0
LINE
  5
2FB
100
AcDbEntity
  8
0
100
AcDbLine
 62
7
  6
CONTINUOUS
 10
8.1944738908
 20
11.8500477918
 11
7.7198329196
 21
11.8500491828
  0
LINE
  5
2FC
100
AcDbEntity
  8
0
100
AcDbLine
 62
7
  6
CONTINUOUS
 10
5.3346660578
 20
13.266758092
 11
5.3346660578
 21
11.8961013597
  0
LINE
  5
2FD
100
AcDbEntity
  8
0
100
AcDbLine
 62
7
  6
CONTINUOUS
 10
5.3374663505
 20
13.266758092
 11
5.3374663505
 21
11.8584534511
  0
LINE
  5
2FE
100
AcDbEntity
  8
0
100
AcDbLine
 62
7
  6
CONTINUOUS
 10
5.3542054224
 20
13.266758092
 11
5.3542054224
 21
11.8500477918
  0
LINE
  5
2FF
100
AcDbEntity
  8
0
100
AcDbLine
 62
7
  6
CONTINUOUS
 10
5.5054390182
 20
12.3350477918
 11
5.5054390182
 21
12.8650477918
  0
LINE
  5
300
100
AcDbEntity
  8
0
100
AcDbLine
 62
7
  6
CONTINUOUS
 10
5.5142054224
 20
12.3433811252
 11
5.5142054224
 21
12.3517144585
  0
LINE
  5
301
100
AcDbEntity
  8
0
100
AcDbLine
 62
7
  6
CONTINUOUS
 10
5.5142054224
 20
12.8483811252
 11
5.5142054224
 21
12.8567144585
  0
LINE
  5
302
100
AcDbEntity
  8
0
100
AcDbLine
 62
7
  6
CONTINUOUS
 10
5.5875387557
 20
12.3433811252
 11
5.5875387557
 21
12.3517144585
  0
LINE
  5
303
100
AcDbEntity
  8
0
100
AcDbLine
 62
7
  6
CONTINUOUS
 10
5.5875387557
 20
12.8483811252
 11
5.5875387557
 21
12.8567144585
  0
LINE
  5
304
100
AcDbEntity
  8
0
100
AcDbLine
 62
7
  6
CONTINUOUS
 10
5.6943579179
 20
11.8534329645
 11
5.6766665383
 21
12.3600477918
  0
LINE
  5
305
100
AcDbEntity
  8
0
100
AcDbLine
 62
7
  6
CONTINUOUS
 10
5.6766665383
 20
12.8400477918
 11
5.694357892
 21
13.3466618789
  0
LINE
  5
306
100
AcDbEntity
  8
0
100
AcDbLine
 62
7
  6
CONTINUOUS
 10
8.2292054224
 20
12.2267144585
 11
8.2072373655
 21
12.2267144585
  0
LINE
  5
307
100
AcDbEntity
  8
0
100
AcDbLine
 62
7
  6
CONTINUOUS
 10
5.7875387557
 20
11.8500477709
 11
5.7875387557
 21
13.266758092
  0
LINE
  5
308
100
AcDbEntity
  8
0
100
AcDbLine
 62
7
  6
CONTINUOUS
 10
5.8042778276
 20
11.8584534511
 11
5.8042778276
 21
13.266758092
  0
LINE
  5
309
100
AcDbEntity
  8
0
100
AcDbLine
 62
7
  6
CONTINUOUS
 10
5.8070781203
 20
11.8961013597
 11
5.8070781203
 21
13.266758092
  0
LINE
  5
30A
100
AcDbEntity
  8
0
100
AcDbLine
 62
7
  6
CONTINUOUS
 10
5.8346660578
 20
13.266758092
 11
5.8346660578
 21
11.8961013597
  0
LINE
  5
30B
100
AcDbEntity
  8
0
100
AcDbLine
 62
7
  6
CONTINUOUS
 10
5.8374663505
 20
13.266758092
 11
5.8374663505
 21
11.8584534511
  0
LINE
  5
30C
100
AcDbEntity
  8
0
100
AcDbLine
 62
7
  6
CONTINUOUS
 10
5.8542054224
 20
13.266758092
 11
5.8542054224
 21
11.8500477918
  0
LINE
  5
30D
100
AcDbEntity
  8
0
100
AcDbLine
 62
7
  6
CONTINUOUS
 10
4.5054390182
 20
12.3433811252
 11
4.6772485511
 21
12.3433811252
  0
LINE
  5
30E
100
AcDbEntity
  8
0
100
AcDbLine
 62
7
  6
CONTINUOUS
 10
5.0054390182
 20
12.3433811252
 11
5.1772485511
 21
12.3433811252
  0
LINE
  5
30F
100
AcDbEntity
  8
0
100
AcDbLine
 62
7
  6
CONTINUOUS
 10
5.5054390182
 20
12.3433811252
 11
5.6772485511
 21
12.3433811252
  0
LINE
  5
310
100
AcDbEntity
  8
0
100
AcDbLine
 62
7
  6
CONTINUOUS
 10
6.0054390182
 20
12.3433811252
 11
6.1772485511
 21
12.3433811252
  0
LINE
  5
311
100
AcDbEntity
  8
0
100
AcDbLine
 62
7
  6
CONTINUOUS
 10
6.5054390182
 20
12.3433811252
 11
6.6772485511
 21
12.3433811252
  0
LINE
  5
312
100
AcDbEntity
  8
0
100
AcDbLine
 62
7
  6
CONTINUOUS
 10
7.0054390182
 20
12.3433811252
 11
7.1772485511
 21
12.3433811252
  0
LINE
  5
313
100
AcDbEntity
  8
0
100
AcDbLine
 62
7
  6
CONTINUOUS
 10
7.5054390182
 20
12.3433811252
 11
7.6772485511
 21
12.3433811252
  0
LINE
  5
314
100
AcDbEntity
  8
0
100
AcDbLine
 62
7
  6
CONTINUOUS
 10
8.0054390182
 20
12.3433811252
 11
8.2292054224
 21
12.3433811252
  0
LINE
  5
315
100
AcDbEntity
  8
0
100
AcDbLine
 62
7
  6
CONTINUOUS
 10
3.9125387557
 20
12.3517144585
 11
4.1769575447
 21
12.3517144585
  0
LINE
  5
316
100
AcDbEntity
  8
0
100
AcDbLine
 62
7
  6
CONTINUOUS
 10
4.5054390182
 20
12.3517144585
 11
4.6769575447
 21
12.3517144585
  0
LINE
  5
317
100
AcDbEntity
  8
0
100
AcDbLine
 62
7
  6
CONTINUOUS
 10
5.0054390182
 20
12.3517144585
 11
5.1769575447
 21
12.3517144585
  0
LINE
  5
318
100
AcDbEntity
  8
0
100
AcDbLine
 62
7
  6
CONTINUOUS
 10
5.5054390182
 20
12.3517144585
 11
5.6769575447
 21
12.3517144585
  0
LINE
  5
319
100
AcDbEntity
  8
0
100
AcDbLine
 62
7
  6
CONTINUOUS
 10
6.0054390182
 20
12.3517144585
 11
6.1769575447
 21
12.3517144585
  0
LINE
  5
31A
100
AcDbEntity
  8
0
100
AcDbLine
 62
7
  6
CONTINUOUS
 10
6.5054390182
 20
12.3517144585
 11
6.6769575447
 21
12.3517144585
  0
LINE
  5
31B
100
AcDbEntity
  8
0
100
AcDbLine
 62
7
  6
CONTINUOUS
 10
7.0054390182
 20
12.3517144585
 11
7.1769575447
 21
12.3517144585
  0
LINE
  5
31C
100
AcDbEntity
  8
0
100
AcDbLine
 62
7
  6
CONTINUOUS
 10
7.5054390182
 20
12.3517144585
 11
7.6769575447
 21
12.3517144585
  0
LINE
  5
31D
100
AcDbEntity
  8
0
100
AcDbLine
 62
7
  6
CONTINUOUS
 10
6.0054390182
 20
12.3350477918
 11
6.0054390182
 21
12.8650477918
  0
LINE
  5
31E
100
AcDbEntity
  8
0
100
AcDbLine
 62
7
  6
CONTINUOUS
 10
6.0142054224
 20
12.3433811252
 11
6.0142054224
 21
12.3517144585
  0
LINE
  5
31F
100
AcDbEntity
  8
0
100
AcDbLine
 62
7
  6
CONTINUOUS
 10
6.0142054224
 20
12.8483811252
 11
6.0142054224
 21
12.8567144585
  0
LINE
  5
320
100
AcDbEntity
  8
0
100
AcDbLine
 62
7
  6
CONTINUOUS
 10
6.0875387557
 20
12.3433811252
 11
6.0875387557
 21
12.3517144585
  0
LINE
  5
321
100
AcDbEntity
  8
0
100
AcDbLine
 62
7
  6
CONTINUOUS
 10
6.0875387557
 20
12.8483811252
 11
6.0875387557
 21
12.8567144585
  0
LINE
  5
322
100
AcDbEntity
  8
0
100
AcDbLine
 62
7
  6
CONTINUOUS
 10
6.1943579179
 20
11.8534329645
 11
6.1766665383
 21
12.3600477918
  0
LINE
  5
323
100
AcDbEntity
  8
0
100
AcDbLine
 62
7
  6
CONTINUOUS
 10
6.1766665383
 20
12.8400477918
 11
6.194357892
 21
13.3466618789
  0
LINE
  5
324
100
AcDbEntity
  8
0
100
AcDbLine
 62
7
  6
CONTINUOUS
 10
6.2875387557
 20
11.8500477709
 11
6.2875387557
 21
13.266758092
  0
LINE
  5
325
100
AcDbEntity
  8
0
100
AcDbLine
 62
7
  6
CONTINUOUS
 10
6.3042778276
 20
11.8584534511
 11
6.3042778276
 21
13.266758092
  0
LINE
  5
326
100
AcDbEntity
  8
0
100
AcDbLine
 62
7
  6
CONTINUOUS
 10
6.3070781203
 20
11.8961013597
 11
6.3070781203
 21
13.266758092
  0
LINE
  5
327
100
AcDbEntity
  8
0
100
AcDbLine
 62
7
  6
CONTINUOUS
 10
6.3346660578
 20
13.266758092
 11
6.3346660578
 21
11.8961013597
  0
LINE
  5
328
100
AcDbEntity
  8
0
100
AcDbLine
 62
7
  6
CONTINUOUS
 10
6.3374663505
 20
13.266758092
 11
6.3374663505
 21
11.8584534511
  0
LINE
  5
329
100
AcDbEntity
  8
0
100
AcDbLine
 62
7
  6
CONTINUOUS
 10
6.3542054224
 20
13.266758092
 11
6.3542054224
 21
11.8500477918
  0
LINE
  5
32A
100
AcDbEntity
  8
0
100
AcDbLine
 62
7
  6
CONTINUOUS
 10
3.9125387557
 20
12.8483811252
 11
4.1769575447
 21
12.8483811252
  0
LINE
  5
32B
100
AcDbEntity
  8
0
100
AcDbLine
 62
7
  6
CONTINUOUS
 10
4.5054390182
 20
12.8483811252
 11
4.6769575447
 21
12.8483811252
  0
LINE
  5
32C
100
AcDbEntity
  8
0
100
AcDbLine
 62
7
  6
CONTINUOUS
 10
5.0054390182
 20
12.8483811252
 11
5.1769575447
 21
12.8483811252
  0
LINE
  5
32D
100
AcDbEntity
  8
0
100
AcDbLine
 62
7
  6
CONTINUOUS
 10
5.5054390182
 20
12.8483811252
 11
5.6769575447
 21
12.8483811252
  0
LINE
  5
32E
100
AcDbEntity
  8
0
100
AcDbLine
 62
7
  6
CONTINUOUS
 10
6.0054390182
 20
12.8483811252
 11
6.1769575447
 21
12.8483811252
  0
LINE
  5
32F
100
AcDbEntity
  8
0
100
AcDbLine
 62
7
  6
CONTINUOUS
 10
6.5054390182
 20
12.8483811252
 11
6.6769575447
 21
12.8483811252
  0
LINE
  5
330
100
AcDbEntity
  8
0
100
AcDbLine
 62
7
  6
CONTINUOUS
 10
7.0054390182
 20
12.8483811252
 11
7.1769575447
 21
12.8483811252
  0
LINE
  5
331
100
AcDbEntity
  8
0
100
AcDbLine
 62
7
  6
CONTINUOUS
 10
7.5054390182
 20
12.8483811252
 11
7.6769575447
 21
12.8483811252
  0
LINE
  5
332
100
AcDbEntity
  8
0
100
AcDbLine
 62
7
  6
CONTINUOUS
 10
4.5054390182
 20
12.8567144585
 11
4.6772485511
 21
12.8567144585
  0
LINE
  5
333
100
AcDbEntity
  8
0
100
AcDbLine
 62
7
  6
CONTINUOUS
 10
5.0054390182
 20
12.8567144585
 11
5.1772485511
 21
12.8567144585
  0
LINE
  5
334
100
AcDbEntity
  8
0
100
AcDbLine
 62
7
  6
CONTINUOUS
 10
5.5054390182
 20
12.8567144585
 11
5.6772485511
 21
12.8567144585
  0
LINE
  5
335
100
AcDbEntity
  8
0
100
AcDbLine
 62
7
  6
CONTINUOUS
 10
6.0054390182
 20
12.8567144585
 11
6.1772485511
 21
12.8567144585
  0
LINE
  5
336
100
AcDbEntity
  8
0
100
AcDbLine
 62
7
  6
CONTINUOUS
 10
6.5054390182
 20
12.8567144585
 11
6.6772485511
 21
12.8567144585
  0
LINE
  5
337
100
AcDbEntity
  8
0
100
AcDbLine
 62
7
  6
CONTINUOUS
 10
7.0054390182
 20
12.8567144585
 11
7.1772485511
 21
12.8567144585
  0
LINE
  5
338
100
AcDbEntity
  8
0
100
AcDbLine
 62
7
  6
CONTINUOUS
 10
7.5054390182
 20
12.8567144585
 11
7.6772485511
 21
12.8567144585
  0
LINE
  5
339
100
AcDbEntity
  8
0
100
AcDbLine
 62
7
  6
CONTINUOUS
 10
8.0054390182
 20
12.8567144585
 11
8.2292054224
 21
12.8567144585
  0
LINE
  5
33A
100
AcDbEntity
  8
0
100
AcDbLine
 62
7
  6
CONTINUOUS
 10
6.5054390182
 20
12.3350477918
 11
6.5054390182
 21
12.8650477918
  0
LINE
  5
33B
100
AcDbEntity
  8
0
100
AcDbLine
 62
7
  6
CONTINUOUS
 10
6.5142054224
 20
12.3433811252
 11
6.5142054224
 21
12.3517144585
  0
LINE
  5
33C
100
AcDbEntity
  8
0
100
AcDbLine
 62
7
  6
CONTINUOUS
 10
6.5142054224
 20
12.8483811252
 11
6.5142054224
 21
12.8567144585
  0
LINE
  5
33D
100
AcDbEntity
  8
0
100
AcDbLine
 62
7
  6
CONTINUOUS
 10
8.2071093942
 20
12.9733811252
 11
8.2292054224
 21
12.9733811252
  0
LINE
  5
33E
100
AcDbEntity
  8
0
100
AcDbLine
 62
7
  6
CONTINUOUS
 10
6.6943579179
 20
11.8534329645
 11
6.6766665383
 21
12.3600477918
  0
LINE
  5
33F
100
AcDbEntity
  8
0
100
AcDbLine
 62
7
  6
CONTINUOUS
 10
6.5875387557
 20
12.3433811252
 11
6.5875387557
 21
12.3517144585
  0
LINE
  5
340
100
AcDbEntity
  8
0
100
AcDbLine
 62
7
  6
CONTINUOUS
 10
6.5875387557
 20
12.8483811252
 11
6.5875387557
 21
12.8567144585
  0
LINE
  5
341
100
AcDbEntity
  8
0
100
AcDbLine
 62
7
  6
CONTINUOUS
 10
6.6766665383
 20
12.8400477918
 11
6.694357892
 21
13.3466618789
  0
LINE
  5
342
100
AcDbEntity
  8
0
100
AcDbLine
 62
7
  6
CONTINUOUS
 10
6.7875387557
 20
11.8500477709
 11
6.7875387557
 21
13.266758092
  0
LINE
  5
343
100
AcDbEntity
  8
0
100
AcDbLine
 62
7
  6
CONTINUOUS
 10
6.8042778276
 20
11.8584534511
 11
6.8042778276
 21
13.266758092
  0
LINE
  5
344
100
AcDbEntity
  8
0
100
AcDbLine
 62
7
  6
CONTINUOUS
 10
6.8070781203
 20
11.8961013597
 11
6.8070781203
 21
13.266758092
  0
LINE
  5
345
100
AcDbEntity
  8
0
100
AcDbLine
 62
7
  6
CONTINUOUS
 10
6.8346660578
 20
13.266758092
 11
6.8346660578
 21
11.8961013597
  0
LINE
  5
346
100
AcDbEntity
  8
0
100
AcDbLine
 62
7
  6
CONTINUOUS
 10
6.8374663505
 20
13.266758092
 11
6.8374663505
 21
11.8584534511
  0
LINE
  5
347
100
AcDbEntity
  8
0
100
AcDbLine
 62
7
  6
CONTINUOUS
 10
6.8542054224
 20
13.266758092
 11
6.8542054224
 21
11.8500477918
  0
LINE
  5
348
100
AcDbEntity
  8
0
100
AcDbLine
 62
7
  6
CONTINUOUS
 10
4.2875387557
 20
13.266758092
 11
4.3542054224
 21
13.266758092
  0
LINE
  5
349
100
AcDbEntity
  8
0
100
AcDbLine
 62
7
  6
CONTINUOUS
 10
4.7875387557
 20
13.266758092
 11
4.8542054224
 21
13.266758092
  0
LINE
  5
34A
100
AcDbEntity
  8
0
100
AcDbLine
 62
7
  6
CONTINUOUS
 10
5.2875387557
 20
13.266758092
 11
5.3542054224
 21
13.266758092
  0
LINE
  5
34B
100
AcDbEntity
  8
0
100
AcDbLine
 62
7
  6
CONTINUOUS
 10
5.7875387557
 20
13.266758092
 11
5.8542054224
 21
13.266758092
  0
LINE
  5
34C
100
AcDbEntity
  8
0
100
AcDbLine
 62
7
  6
CONTINUOUS
 10
6.2875387557
 20
13.266758092
 11
6.3542054224
 21
13.266758092
  0
LINE
  5
34D
100
AcDbEntity
  8
0
100
AcDbLine
 62
7
  6
CONTINUOUS
 10
6.7875387557
 20
13.266758092
 11
6.8542054224
 21
13.266758092
  0
LINE
  5
34E
100
AcDbEntity
  8
0
100
AcDbLine
 62
7
  6
CONTINUOUS
 10
7.2875387557
 20
13.266758092
 11
7.3542054224
 21
13.266758092
  0
LINE
  5
34F
100
AcDbEntity
  8
0
100
AcDbLine
 62
7
  6
CONTINUOUS
 10
7.7875387557
 20
13.266758092
 11
7.8542054224
 21
13.266758092
  0
LINE
  5
350
100
AcDbEntity
  8
0
100
AcDbLine
 62
7
  6
CONTINUOUS
 10
4.2203401667
 20
13.3500477918
 11
4.6944738908
 21
13.3500477918
  0
LINE
  5
351
100
AcDbEntity
  8
0
100
AcDbLine
 62
7
  6
CONTINUOUS
 10
4.7203401667
 20
13.3500477918
 11
5.1944738908
 21
13.3500477918
  0
LINE
  5
352
100
AcDbEntity
  8
0
100
AcDbLine
 62
7
  6
CONTINUOUS
 10
5.2203401667
 20
13.3500477918
 11
5.6944738908
 21
13.3500477918
  0
LINE
  5
353
100
AcDbEntity
  8
0
100
AcDbLine
 62
7
  6
CONTINUOUS
 10
5.7203401667
 20
13.3500477918
 11
6.1944738908
 21
13.3500477918
  0
LINE
  5
354
100
AcDbEntity
  8
0
100
AcDbLine
 62
7
  6
CONTINUOUS
 10
6.2203401667
 20
13.3500477918
 11
6.6944738908
 21
13.3500477918
  0
LINE
  5
355
100
AcDbEntity
  8
0
100
AcDbLine
 62
7
  6
CONTINUOUS
 10
6.7203401667
 20
13.3500477918
 11
7.1944738908
 21
13.3500477918
  0
LINE
  5
356
100
AcDbEntity
  8
0
100
AcDbLine
 62
7
  6
CONTINUOUS
 10
7.2203401667
 20
13.3500477918
 11
7.6944738908
 21
13.3500477918
  0
LINE
  5
357
100
AcDbEntity
  8
0
100
AcDbLine
 62
7
  6
CONTINUOUS
 10
7.7203401667
 20
13.3500477918
 11
8.1944738908
 21
13.3500477918
  0
LINE
  5
358
100
AcDbEntity
  8
0
100
AcDbLine
 62
7
  6
CONTINUOUS
 10
7.0054390182
 20
12.3350477918
 11
7.0054390182
 21
12.8650477918
  0
LINE
  5
359
100
AcDbEntity
  8
0
100
AcDbLine
 62
7
  6
CONTINUOUS
 10
7.0142054224
 20
12.3433811252
 11
7.0142054224
 21
12.3517144585
  0
LINE
  5
35A
100
AcDbEntity
  8
0
100
AcDbLine
 62
7
  6
CONTINUOUS
 10
7.0142054224
 20
12.8483811252
 11
7.0142054224
 21
12.8567144585
  0
LINE
  5
35B
100
AcDbEntity
  8
0
100
AcDbLine
 62
7
  6
CONTINUOUS
 10
7.0875387557
 20
12.3433811252
 11
7.0875387557
 21
12.3517144585
  0
LINE
  5
35C
100
AcDbEntity
  8
0
100
AcDbLine
 62
7
  6
CONTINUOUS
 10
7.0875387557
 20
12.8483811252
 11
7.0875387557
 21
12.8567144585
  0
LINE
  5
35D
100
AcDbEntity
  8
0
100
AcDbLine
 62
7
  6
CONTINUOUS
 10
7.1943579179
 20
11.8534329645
 11
7.1766665383
 21
12.3600477918
  0
LINE
  5
35E
100
AcDbEntity
  8
0
100
AcDbLine
 62
7
  6
CONTINUOUS
 10
7.2875387557
 20
11.8500477709
 11
7.2875387557
 21
13.266758092
  0
LINE
  5
35F
100
AcDbEntity
  8
0
100
AcDbLine
 62
7
  6
CONTINUOUS
 10
7.3042778276
 20
11.8584534511
 11
7.3042778276
 21
13.266758092
  0
LINE
  5
360
100
AcDbEntity
  8
0
100
AcDbLine
 62
7
  6
CONTINUOUS
 10
7.3070781203
 20
11.8961013597
 11
7.3070781203
 21
13.266758092
  0
LINE
  5
361
100
AcDbEntity
  8
0
100
AcDbLine
 62
7
  6
CONTINUOUS
 10
7.1766665383
 20
12.8400477918
 11
7.194357892
 21
13.3466618789
  0
LINE
  5
362
100
AcDbEntity
  8
0
100
AcDbLine
 62
7
  6
CONTINUOUS
 10
7.3346660578
 20
13.266758092
 11
7.3346660578
 21
11.8961013597
  0
LINE
  5
363
100
AcDbEntity
  8
0
100
AcDbLine
 62
7
  6
CONTINUOUS
 10
7.3374663505
 20
13.266758092
 11
7.3374663505
 21
11.8584534511
  0
LINE
  5
364
100
AcDbEntity
  8
0
100
AcDbLine
 62
7
  6
CONTINUOUS
 10
7.3542054224
 20
13.266758092
 11
7.3542054224
 21
11.8500477918
  0
LINE
  5
365
100
AcDbEntity
  8
0
100
AcDbLine
 62
7
  6
CONTINUOUS
 10
7.5054390182
 20
12.3350477918
 11
7.5054390182
 21
12.8650477918
  0
LINE
  5
366
100
AcDbEntity
  8
0
100
AcDbLine
 62
7
  6
CONTINUOUS
 10
7.5142054224
 20
12.3433811252
 11
7.5142054224
 21
12.3517144585
  0
LINE
  5
367
100
AcDbEntity
  8
0
100
AcDbLine
 62
7
  6
CONTINUOUS
 10
7.5142054224
 20
12.8483811252
 11
7.5142054224
 21
12.8567144585
  0
LINE
  5
368
100
AcDbEntity
  8
0
100
AcDbLine
 62
7
  6
CONTINUOUS
 10
7.5875387557
 20
12.3433811252
 11
7.5875387557
 21
12.3517144585
  0
LINE
  5
369
100
AcDbEntity
  8
0
100
AcDbLine
 62
7
  6
CONTINUOUS
 10
7.5875387557
 20
12.8483811252
 11
7.5875387557
 21
12.8567144585
  0
LINE
  5
36A
100
AcDbEntity
  8
0
100
AcDbLine
 62
7
  6
CONTINUOUS
 10
7.6943579179
 20
11.8534329645
 11
7.6766665383
 21
12.3600477918
  0
LINE
  5
36B
100
AcDbEntity
  8
0
100
AcDbLine
 62
7
  6
CONTINUOUS
 10
7.6766665383
 20
12.8400477918
 11
7.694357892
 21
13.3466618789
  0
LINE
  5
36C
100
AcDbEntity
  8
0
100
AcDbLine
 62
7
  6
CONTINUOUS
 10
7.7875387557
 20
11.8500477709
 11
7.7875387557
 21
13.266758092
  0
LINE
  5
36D
100
AcDbEntity
  8
0
100
AcDbLine
 62
7
  6
CONTINUOUS
 10
7.8042778276
 20
11.8584534511
 11
7.8042778276
 21
13.266758092
  0
LINE
  5
36E
100
AcDbEntity
  8
0
100
AcDbLine
 62
7
  6
CONTINUOUS
 10
7.8070781203
 20
11.8961013597
 11
7.8070781203
 21
13.266758092
  0
LINE
  5
36F
100
AcDbEntity
  8
0
100
AcDbLine
 62
7
  6
CONTINUOUS
 10
7.8346660578
 20
13.266758092
 11
7.8346660578
 21
11.8961013597
  0
LINE
  5
370
100
AcDbEntity
  8
0
100
AcDbLine
 62
7
  6
CONTINUOUS
 10
7.8374663505
 20
13.266758092
 11
7.8374663505
 21
11.8584534511
  0
LINE
  5
371
100
AcDbEntity
  8
0
100
AcDbLine
 62
7
  6
CONTINUOUS
 10
7.8542054224
 20
13.266758092
 11
7.8542054224
 21
11.8500477918
  0
LINE
  5
372
100
AcDbEntity
  8
0
100
AcDbLine
 62
7
  6
CONTINUOUS
 10
8.0054390182
 20
12.3350477918
 11
8.0054390182
 21
12.8650477918
  0
LINE
  5
373
100
AcDbEntity
  8
0
100
AcDbLine
 62
7
  6
CONTINUOUS
 10
8.0142054224
 20
12.3433811252
 11
8.0142054224
 21
12.8567144585
  0
LINE
  5
374
100
AcDbEntity
  8
0
100
AcDbLine
 62
7
  6
CONTINUOUS
 10
8.0875387557
 20
12.3433811252
 11
8.0875387557
 21
12.8567144585
  0
LINE
  5
375
100
AcDbEntity
  8
0
100
AcDbLine
 62
7
  6
CONTINUOUS
 10
8.2028072242
 20
11.8583811252
 11
8.2028072242
 21
12.2183806604
  0
LINE
  5
376
100
AcDbEntity
  8
0
100
AcDbLine
 62
7
  6
CONTINUOUS
 10
8.2028072242
 20
12.9817144585
 11
8.2028072242
 21
13.3417144585
  0
LINE
  5
377
100
AcDbEntity
  8
0
100
AcDbLine
 62
7
  6
CONTINUOUS
 10
8.2375387557
 20
12.2350477918
 11
8.2375387557
 21
12.3350477918
  0
LINE
  5
378
100
AcDbEntity
  8
0
100
AcDbLine
 62
7
  6
CONTINUOUS
 10
8.2375387557
 20
12.8650477918
 11
8.2375387557
 21
12.9650477918
  0
LWPOLYLINE
  5
379
100
AcDbEntity
  8
0
100
AcDbPolyline
 62
7
  6
CONTINUOUS
 90
9
 70
0
 10
8.2028072233
 20
12.2183806605
 10
8.2028312195
 20
12.2190908509
 10
8.203210118
 20
12.2212684182
 10
8.2039204975
 20
12.2231081194
 10
8.2048021824
 20
12.2245679411
 10
8.2057418338
 20
12.2256645195
 10
8.2066121302
 20
12.2263834099
 10
8.2071936408
 20
12.2266990111
 10
8.207246611
 20
12.2267177248
  0
LWPOLYLINE
  5
37A
100
AcDbEntity
  8
0
100
AcDbPolyline
 62
7
  6
CONTINUOUS
 90
9
 70
0
 10
8.2071725091
 20
12.9733796268
 10
8.2071759831
 20
12.9734033922
 10
8.206550415
 20
12.9737542211
 10
8.2056356316
 20
12.9745372674
 10
8.2046628783
 20
12.975724447
 10
8.203776444
 20
12.9772893963
 10
8.2031081126
 20
12.9792144227
 10
8.2028129588
 20
12.9813676199
 10
8.2028071839
 20
12.9817144558
  0
LINE
  5
37B
100
AcDbEntity
  8
0
100
AcDbLine
 62
7
  6
CONTINUOUS
 10
14.8103552674
 20
5.2539580378
 11
14.8103552674
 21
5.308959275
  0
LINE
  5
37C
100
AcDbEntity
  8
0
100
AcDbLine
 62
7
  6
CONTINUOUS
 10
14.8130759144
 20
5.9324804478
 11
14.8103552728
 21
5.308959275
  0
LINE
  5
37D
100
AcDbEntity
  8
0
100
AcDbLine
 62
7
  6
CONTINUOUS
 10
15.0620219341
 20
5.0072913711
 11
15.0620219341
 21
4.9539580378
  0
LINE
  5
37E
100
AcDbEntity
  8
0
100
AcDbLine
 62
7
  6
CONTINUOUS
 10
15.0703552674
 20
4.9456247044
 11
15.4270219341
 21
4.9456247044
  0
LINE
  5
37F
100
AcDbEntity
  8
0
100
AcDbLine
 62
7
  6
CONTINUOUS
 10
15.6936886007
 20
4.9456247044
 11
16.0503552674
 21
4.9456247044
  0
LINE
  5
380
100
AcDbEntity
  8
0
100
AcDbLine
 62
7
  6
CONTINUOUS
 10
15.443611117
 20
4.9878039611
 11
15.6770994241
 21
4.9878039611
  0
LINE
  5
381
100
AcDbEntity
  8
0
100
AcDbLine
 62
7
  6
CONTINUOUS
 10
15.0703552674
 20
5.0156247044
 11
15.1786886007
 21
5.0156247044
  0
LINE
  5
382
100
AcDbEntity
  8
0
100
AcDbLine
 62
7
  6
CONTINUOUS
 10
15.9420219341
 20
5.0156247044
 11
16.0503552674
 21
5.0156247044
  0
LWPOLYLINE
  5
383
100
AcDbEntity
  8
0
100
AcDbPolyline
 62
7
  6
CONTINUOUS
 90
4
 70
0
 10
15.6770991291
 20
4.9878039735
 10
15.6787599699
 20
4.9876313932
 10
15.6808967762
 20
4.9868655994
 10
15.6830407345
 20
4.9852558432
  0
LINE
  5
384
100
AcDbEntity
  8
0
100
AcDbLine
 62
7
  6
CONTINUOUS
 10
15.1870219341
 20
4.9539580378
 11
15.1870219341
 21
5.2372913711
  0
LINE
  5
385
100
AcDbEntity
  8
0
100
AcDbLine
 62
7
  6
CONTINUOUS
 10
15.3036886007
 20
5.1256247044
 11
15.8170219341
 21
5.1256247044
  0
LINE
  5
386
100
AcDbEntity
  8
0
100
AcDbLine
 62
7
  6
CONTINUOUS
 10
15.8170219341
 20
5.1281311151
 11
15.3036886007
 21
5.1281311151
  0
LINE
  5
387
100
AcDbEntity
  8
0
100
AcDbLine
 62
7
  6
CONTINUOUS
 10
15.3036886007
 20
4.9539580378
 11
15.3036886007
 21
5.3006247044
  0
LINE
  5
388
100
AcDbEntity
  8
0
100
AcDbLine
 62
7
  6
CONTINUOUS
 10
15.3036886007
 20
5.2364516271
 11
15.8170219341
 21
5.2364516271
  0
LINE
  5
389
100
AcDbEntity
  8
0
100
AcDbLine
 62
7
  6
CONTINUOUS
 10
15.3036886007
 20
5.2389580378
 11
15.8170219341
 21
5.2389580378
  0
LINE
  5
38A
100
AcDbEntity
  8
0
100
AcDbLine
 62
7
  6
CONTINUOUS
 10
14.8186886007
 20
5.2456247044
 11
15.1786886007
 21
5.2456247044
  0
LINE
  5
38B
100
AcDbEntity
  8
0
100
AcDbLine
 62
7
  6
CONTINUOUS
 10
15.3120219341
 20
5.2456247044
 11
15.8086886007
 21
5.2456247044
  0
LINE
  5
38C
100
AcDbEntity
  8
0
100
AcDbLine
 62
7
  6
CONTINUOUS
 10
15.9420219341
 20
5.2456247044
 11
16.3020219341
 21
5.2456247044
  0
LINE
  5
38D
100
AcDbEntity
  8
0
100
AcDbLine
 62
7
  6
CONTINUOUS
 10
15.4353552674
 20
4.9539580378
 11
15.4353540918
 21
5.074622487
  0
LINE
  5
38E
100
AcDbEntity
  8
0
100
AcDbLine
 62
7
  6
CONTINUOUS
 10
15.8086886007
 20
5.3039580378
 11
15.3120219341
 21
5.3039580378
  0
LINE
  5
38F
100
AcDbEntity
  8
0
100
AcDbLine
 62
7
  6
CONTINUOUS
 10
14.8186886007
 20
5.3089580378
 11
16.3020219341
 21
5.3089580378
  0
LINE
  5
390
100
AcDbEntity
  8
0
100
AcDbLine
 62
7
  6
CONTINUOUS
 10
15.6830407345
 20
4.9852558432
 11
15.6846739474
 21
4.9827958877
  0
LINE
  5
391
100
AcDbEntity
  8
0
100
AcDbLine
 62
7
  6
CONTINUOUS
 10
15.4353868388
 20
4.9802232884
 11
15.4362449585
 21
4.9832417599
  0
LINE
  5
392
100
AcDbEntity
  8
0
100
AcDbLine
 62
7
  6
CONTINUOUS
 10
15.6846739474
 20
4.9827958877
 11
15.6849567364
 21
4.9814274301
  0
LINE
  5
393
100
AcDbEntity
  8
0
100
AcDbLine
 62
7
  6
CONTINUOUS
 10
15.6853564205
 20
5.0746238836
 11
15.6853552674
 21
4.9539580378
  0
LWPOLYLINE
  5
394
100
AcDbEntity
  8
0
100
AcDbPolyline
 62
7
  6
CONTINUOUS
 90
5
 70
0
 10
15.4362449585
 20
4.9832417599
 10
15.4380050587
 20
4.985586068
 10
15.4402290665
 20
4.9870682129
 10
15.442412378
 20
4.9877142326
 10
15.4436103111
 20
4.9878039626
  0
LINE
  5
395
100
AcDbEntity
  8
0
100
AcDbLine
 62
7
  6
CONTINUOUS
 10
15.8170219341
 20
4.9539580378
 11
15.8170219341
 21
5.3006247044
  0
LINE
  5
396
100
AcDbEntity
  8
0
100
AcDbLine
 62
7
  6
CONTINUOUS
 10
15.9336886007
 20
4.9539580378
 11
15.9336886007
 21
5.2372913711
  0
LINE
  5
397
100
AcDbEntity
  8
0
100
AcDbLine
 62
7
  6
CONTINUOUS
 10
16.0586886007
 20
4.9539580378
 11
16.0586886007
 21
5.0072913711
  0
LINE
  5
398
100
AcDbEntity
  8
0
100
AcDbLine
 62
7
  6
CONTINUOUS
 10
16.2270655676
 20
5.9756247044
 11
14.8564088353
 21
5.9756247044
  0
LINE
  5
399
100
AcDbEntity
  8
0
100
AcDbLine
 62
7
  6
CONTINUOUS
 10
16.2270655676
 20
5.3089581957
 11
16.2270655676
 21
5.9756247044
  0
LINE
  5
39A
100
AcDbEntity
  8
0
100
AcDbLine
 62
7
  6
CONTINUOUS
 10
16.3103552674
 20
5.3006247044
 11
16.3103552674
 21
5.2539580378
  0
LINE
  5
39B
100
AcDbEntity
  8
0
100
AcDbLine
 62
7
  6
CONTINUOUS
 10
13.4006681797
 20
12.0501022846
 11
13.3902394314
 21
12.0713538391
  0
LWPOLYLINE
  5
39C
100
AcDbEntity
  8
0
100
AcDbPolyline
 62
7
  6
CONTINUOUS
 90
7
 70
0
 10
13.4029666017
 20
12.2144667073
 10
13.4011153412
 20
12.2068929852
 10
13.39982976
 20
12.1966048861
 10
13.3996915656
 20
12.1859829705
 10
13.4007015467
 20
12.1755838437
 10
13.4028797393
 20
12.165947613
 10
13.4054399873
 20
12.1592973849
  0
LINE
  5
39D
100
AcDbEntity
  8
0
100
AcDbLine
 62
7
  6
CONTINUOUS
 10
13.5874932294
 20
11.7799607106
 11
13.4054309542
 21
12.1593160916
  0
LWPOLYLINE
  5
39E
100
AcDbEntity
  8
0
100
AcDbPolyline
 62
7
  6
CONTINUOUS
 90
4
 70
0
 10
13.5874932294
 20
11.7799607106
 10
13.5877297766
 20
11.7793796928
 10
13.5878566756
 20
11.7787098549
 10
13.5878402829
 20
11.7786382477
  0
LINE
  5
39F
100
AcDbEntity
  8
0
100
AcDbLine
 62
7
  6
CONTINUOUS
 10
13.402964433
 20
12.2144597227
 11
13.7347542689
 21
13.288132025
  0
LINE
  5
3A0
100
AcDbEntity
  8
0
100
AcDbLine
 62
7
  6
CONTINUOUS
 10
13.4015453746
 20
12.1718507854
 11
13.3850055756
 21
12.1183279762
  0
LINE
  5
3A1
100
AcDbEntity
  8
0
100
AcDbLine
 62
7
  6
CONTINUOUS
 10
13.5267039255
 20
11.9066247702
 11
13.4909579334
 21
11.7732254907
  0
LWPOLYLINE
  5
3A2
100
AcDbEntity
  8
0
100
AcDbPolyline
 62
7
  6
CONTINUOUS
 90
7
 70
0
 10
13.8634970987
 20
12.2144667073
 10
13.8616458382
 20
12.2068929852
 10
13.860360257
 20
12.1966048861
 10
13.8602220626
 20
12.1859829705
 10
13.8612320437
 20
12.1755838437
 10
13.8634102363
 20
12.165947613
 10
13.8659704843
 20
12.1592973849
  0
LINE
  5
3A3
100
AcDbEntity
  8
0
100
AcDbLine
 62
7
  6
CONTINUOUS
 10
13.5769422738
 20
11.7732255889
 11
13.5823410557
 21
11.7906960535
  0
LINE
  5
3A4
100
AcDbEntity
  8
0
100
AcDbLine
 62
7
  6
CONTINUOUS
 10
13.9792669744
 20
12.876445166
 11
13.63834634
 21
11.7732255889
  0
LINE
  5
3A5
100
AcDbEntity
  8
0
100
AcDbLine
 62
7
  6
CONTINUOUS
 10
13.9818090381
 20
12.8712649847
 11
13.807383904
 21
12.3068250438
  0
LINE
  5
3A6
100
AcDbEntity
  8
0
100
AcDbLine
 62
7
  6
CONTINUOUS
 10
13.75084501
 20
12.1238651159
 11
13.6388711844
 21
11.7615176834
  0
LINE
  5
3A7
100
AcDbEntity
  8
0
100
AcDbLine
 62
7
  6
CONTINUOUS
 10
14.0480237264
 20
11.7799607106
 11
13.8659614512
 21
12.1593160916
  0
LWPOLYLINE
  5
3A8
100
AcDbEntity
  8
0
100
AcDbPolyline
 62
7
  6
CONTINUOUS
 90
4
 70
0
 10
14.0480237264
 20
11.7799607106
 10
14.0482602736
 20
11.7793796928
 10
14.0483871726
 20
11.7787098549
 10
14.0483707799
 20
11.7786382477
  0
LINE
  5
3A9
100
AcDbEntity
  8
0
100
AcDbLine
 62
7
  6
CONTINUOUS
 10
13.86349493
 20
12.2144597227
 11
14.1952847659
 21
13.288132025
  0
LWPOLYLINE
  5
3AA
100
AcDbEntity
  8
0
100
AcDbPolyline
 62
7
  6
CONTINUOUS
 90
4
 70
0
 10
13.510376128
 20
11.7617878883
 10
13.5322219824
 20
11.7530175149
 10
13.5524956909
 20
11.7425713077
 10
13.5686691789
 20
11.7322315721
  0
LINE
  5
3AB
100
AcDbEntity
  8
0
100
AcDbLine
 62
7
  6
CONTINUOUS
 10
13.9872344225
 20
11.9066247702
 11
13.9514884304
 21
11.7732254907
  0
LINE
  5
3AC
100
AcDbEntity
  8
0
100
AcDbLine
 62
7
  6
CONTINUOUS
 10
13.976493545
 20
11.7365765477
 11
13.982807933
 21
11.7570099147
  0
LINE
  5
3AD
100
AcDbEntity
  8
0
100
AcDbLine
 62
7
  6
CONTINUOUS
 10
13.4983773259
 20
11.7656643117
 11
13.510376128
 21
11.7617878883
  0
LINE
  5
3AE
100
AcDbEntity
  8
0
100
AcDbLine
 62
7
  6
CONTINUOUS
 10
13.9589078229
 20
11.7656643117
 11
13.970906625
 21
11.7617878883
  0
LWPOLYLINE
  5
3AF
100
AcDbEntity
  8
0
100
AcDbPolyline
 62
7
  6
CONTINUOUS
 90
4
 70
0
 10
13.970906625
 20
11.7617878883
 10
13.9927524794
 20
11.7530175149
 10
14.0130261879
 20
11.7425713077
 10
14.0291996759
 20
11.7322315721
  0
LINE
  5
3B0
100
AcDbEntity
  8
0
100
AcDbLine
 62
7
  6
CONTINUOUS
 10
13.9587874685
 20
12.8867600293
 11
13.7604397555
 21
13.2856942325
  0
LINE
  5
3B1
100
AcDbEntity
  8
0
100
AcDbLine
 62
7
  6
CONTINUOUS
 10
13.9818090381
 20
12.8712649847
 11
13.9792669744
 21
12.876445166
  0
LINE
  5
3B2
100
AcDbEntity
  8
0
100
AcDbLine
 62
7
  6
CONTINUOUS
 10
14.5085542234
 20
11.7799607106
 11
14.3264919482
 21
12.1593160916
  0
LWPOLYLINE
  5
3B3
100
AcDbEntity
  8
0
100
AcDbPolyline
 62
7
  6
CONTINUOUS
 90
7
 70
0
 10
14.3240275957
 20
12.2144667073
 10
14.3221763352
 20
12.2068929852
 10
14.320890754
 20
12.1966048861
 10
14.3207525596
 20
12.1859829705
 10
14.3217625407
 20
12.1755838437
 10
14.3239407333
 20
12.165947613
 10
14.3265009813
 20
12.1592973849
  0
LINE
  5
3B4
100
AcDbEntity
  8
0
100
AcDbLine
 62
7
  6
CONTINUOUS
 10
14.0374727708
 20
11.7732255889
 11
14.0428715527
 21
11.7906960535
  0
LINE
  5
3B5
100
AcDbEntity
  8
0
100
AcDbLine
 62
7
  6
CONTINUOUS
 10
14.4397974714
 20
12.876445166
 11
14.098876837
 21
11.7732255889
  0
LINE
  5
3B6
100
AcDbEntity
  8
0
100
AcDbLine
 62
7
  6
CONTINUOUS
 10
14.4423395351
 20
12.8712649847
 11
14.267914401
 21
12.3068250438
  0
LINE
  5
3B7
100
AcDbEntity
  8
0
100
AcDbLine
 62
7
  6
CONTINUOUS
 10
14.211375507
 20
12.1238651159
 11
14.0994016814
 21
11.7615176834
  0
LINE
  5
3B8
100
AcDbEntity
  8
0
100
AcDbLine
 62
7
  6
CONTINUOUS
 10
14.41943832
 20
11.7656643117
 11
14.431437122
 21
11.7617878883
  0
LWPOLYLINE
  5
3B9
100
AcDbEntity
  8
0
100
AcDbPolyline
 62
7
  6
CONTINUOUS
 90
4
 70
0
 10
14.431437122
 20
11.7617878883
 10
14.4532829764
 20
11.7530175149
 10
14.4735566849
 20
11.7425713077
 10
14.4897301729
 20
11.7322315721
  0
LWPOLYLINE
  5
3BA
100
AcDbEntity
  8
0
100
AcDbPolyline
 62
7
  6
CONTINUOUS
 90
4
 70
0
 10
14.5085542234
 20
11.7799607106
 10
14.5087907706
 20
11.7793796928
 10
14.5089176696
 20
11.7787098549
 10
14.5089012769
 20
11.7786382477
  0
LINE
  5
3BB
100
AcDbEntity
  8
0
100
AcDbLine
 62
7
  6
CONTINUOUS
 10
14.324025427
 20
12.2144597227
 11
14.6558152629
 21
13.288132025
  0
LINE
  5
3BC
100
AcDbEntity
  8
0
100
AcDbLine
 62
7
  6
CONTINUOUS
 10
14.879968817
 20
11.7656643117
 11
14.891967619
 21
11.7617878883
  0
LWPOLYLINE
  5
3BD
100
AcDbEntity
  8
0
100
AcDbPolyline
 62
7
  6
CONTINUOUS
 90
4
 70
0
 10
14.891967619
 20
11.7617878883
 10
14.9138134734
 20
11.7530175149
 10
14.9340871819
 20
11.7425713077
 10
14.9502606699
 20
11.7322315721
  0
LINE
  5
3BE
100
AcDbEntity
  8
0
100
AcDbLine
 62
7
  6
CONTINUOUS
 10
14.4477649195
 20
11.9066247702
 11
14.4120189274
 21
11.7732254907
  0
LINE
  5
3BF
100
AcDbEntity
  8
0
100
AcDbLine
 62
7
  6
CONTINUOUS
 10
14.437024042
 20
11.7365765477
 11
14.44333843
 21
11.7570099147
  0
LINE
  5
3C0
100
AcDbEntity
  8
0
100
AcDbLine
 62
7
  6
CONTINUOUS
 10
13.5734757229
 20
11.7307036091
 11
13.8009802828
 21
11.7307036091
  0
LINE
  5
3C1
100
AcDbEntity
  8
0
100
AcDbLine
 62
7
  6
CONTINUOUS
 10
13.9083935297
 20
11.7307036091
 11
13.9685317047
 21
11.7307036091
  0
LINE
  5
3C2
100
AcDbEntity
  8
0
100
AcDbLine
 62
7
  6
CONTINUOUS
 10
14.0340062199
 20
11.7307036091
 11
14.2615107798
 21
11.7307036091
  0
LINE
  5
3C3
100
AcDbEntity
  8
0
100
AcDbLine
 62
7
  6
CONTINUOUS
 10
14.3689240267
 20
11.7307036091
 11
14.4290622017
 21
11.7307036091
  0
LINE
  5
3C4
100
AcDbEntity
  8
0
100
AcDbLine
 62
7
  6
CONTINUOUS
 10
14.4945367169
 20
11.7307036091
 11
14.7220412768
 21
11.7307036091
  0
LINE
  5
3C5
100
AcDbEntity
  8
0
100
AcDbLine
 62
7
  6
CONTINUOUS
 10
14.8294545237
 20
11.7307036091
 11
14.8895926987
 21
11.7307036091
  0
LINE
  5
3C6
100
AcDbEntity
  8
0
100
AcDbLine
 62
7
  6
CONTINUOUS
 10
14.9550672139
 20
11.7307036091
 11
15.1825717738
 21
11.7307036091
  0
LINE
  5
3C7
100
AcDbEntity
  8
0
100
AcDbLine
 62
7
  6
CONTINUOUS
 10
15.2899850207
 20
11.7307036091
 11
15.3501231957
 21
11.7307036091
  0
LINE
  5
3C8
100
AcDbEntity
  8
0
100
AcDbLine
 62
7
  6
CONTINUOUS
 10
15.4155977109
 20
11.7307036091
 11
15.6431022708
 21
11.7307036091
  0
LINE
  5
3C9
100
AcDbEntity
  8
0
100
AcDbLine
 62
7
  6
CONTINUOUS
 10
15.7505155177
 20
11.7307036091
 11
15.8106536927
 21
11.7307036091
  0
LINE
  5
3CA
100
AcDbEntity
  8
0
100
AcDbLine
 62
7
  6
CONTINUOUS
 10
15.8761282079
 20
11.7307036091
 11
16.1036327678
 21
11.7307036091
  0
LINE
  5
3CB
100
AcDbEntity
  8
0
100
AcDbLine
 62
7
  6
CONTINUOUS
 10
16.2110460148
 20
11.7307036091
 11
16.2711841897
 21
11.7307036091
  0
LINE
  5
3CC
100
AcDbEntity
  8
0
100
AcDbLine
 62
7
  6
CONTINUOUS
 10
16.3366587049
 20
11.7307036091
 11
16.5641632648
 21
11.7307036091
  0
LINE
  5
3CD
100
AcDbEntity
  8
0
100
AcDbLine
 62
7
  6
CONTINUOUS
 10
16.6715765118
 20
11.7307036091
 11
16.7317146867
 21
11.7307036091
  0
LINE
  5
3CE
100
AcDbEntity
  8
0
100
AcDbLine
 62
7
  6
CONTINUOUS
 10
16.7971892019
 20
11.7307036091
 11
17.0246937618
 21
11.7307036091
  0
LINE
  5
3CF
100
AcDbEntity
  8
0
100
AcDbLine
 62
7
  6
CONTINUOUS
 10
17.1321070088
 20
11.7307036091
 11
17.1922451837
 21
11.7307036091
  0
LINE
  5
3D0
100
AcDbEntity
  8
0
100
AcDbLine
 62
7
  6
CONTINUOUS
 10
13.8145845409
 20
11.7413578909
 11
13.8850674793
 21
11.7413578909
  0
LINE
  5
3D1
100
AcDbEntity
  8
0
100
AcDbLine
 62
7
  6
CONTINUOUS
 10
14.2751150379
 20
11.7413578909
 11
14.3455979763
 21
11.7413578909
  0
LINE
  5
3D2
100
AcDbEntity
  8
0
100
AcDbLine
 62
7
  6
CONTINUOUS
 10
14.7356455349
 20
11.7413578909
 11
14.8061284733
 21
11.7413578909
  0
LINE
  5
3D3
100
AcDbEntity
  8
0
100
AcDbLine
 62
7
  6
CONTINUOUS
 10
15.1961760319
 20
11.7413578909
 11
15.2666589703
 21
11.7413578909
  0
LINE
  5
3D4
100
AcDbEntity
  8
0
100
AcDbLine
 62
7
  6
CONTINUOUS
 10
15.6567065289
 20
11.7413578909
 11
15.7271894673
 21
11.7413578909
  0
LINE
  5
3D5
100
AcDbEntity
  8
0
100
AcDbLine
 62
7
  6
CONTINUOUS
 10
16.1172370259
 20
11.7413578909
 11
16.1877199643
 21
11.7413578909
  0
LINE
  5
3D6
100
AcDbEntity
  8
0
100
AcDbLine
 62
7
  6
CONTINUOUS
 10
16.5777675229
 20
11.7413578909
 11
16.6482504613
 21
11.7413578909
  0
LINE
  5
3D7
100
AcDbEntity
  8
0
100
AcDbLine
 62
7
  6
CONTINUOUS
 10
17.0382980199
 20
11.7413578909
 11
17.1087809583
 21
11.7413578909
  0
LINE
  5
3D8
100
AcDbEntity
  8
0
100
AcDbLine
 62
7
  6
CONTINUOUS
 10
13.5774661574
 20
11.7615176834
 11
13.638906775
 21
11.7615176834
  0
LINE
  5
3D9
100
AcDbEntity
  8
0
100
AcDbLine
 62
7
  6
CONTINUOUS
 10
14.0379966544
 20
11.7615176834
 11
14.099437272
 21
11.7615176834
  0
LINE
  5
3DA
100
AcDbEntity
  8
0
100
AcDbLine
 62
7
  6
CONTINUOUS
 10
14.4985271514
 20
11.7615176834
 11
14.559967769
 21
11.7615176834
  0
LINE
  5
3DB
100
AcDbEntity
  8
0
100
AcDbLine
 62
7
  6
CONTINUOUS
 10
14.9590576484
 20
11.7615176834
 11
15.020498266
 21
11.7615176834
  0
LINE
  5
3DC
100
AcDbEntity
  8
0
100
AcDbLine
 62
7
  6
CONTINUOUS
 10
15.4195881454
 20
11.7615176834
 11
15.481028763
 21
11.7615176834
  0
LINE
  5
3DD
100
AcDbEntity
  8
0
100
AcDbLine
 62
7
  6
CONTINUOUS
 10
15.8801186424
 20
11.7615176834
 11
15.94155926
 21
11.7615176834
  0
LINE
  5
3DE
100
AcDbEntity
  8
0
100
AcDbLine
 62
7
  6
CONTINUOUS
 10
16.3406491394
 20
11.7615176834
 11
16.402089757
 21
11.7615176834
  0
LINE
  5
3DF
100
AcDbEntity
  8
0
100
AcDbLine
 62
7
  6
CONTINUOUS
 10
16.8011796364
 20
11.7615176834
 11
16.862620254
 21
11.7615176834
  0
LINE
  5
3E0
100
AcDbEntity
  8
0
100
AcDbLine
 62
7
  6
CONTINUOUS
 10
13.6191170448
 20
11.7666985398
 11
13.5921361403
 21
11.7666985478
  0
LINE
  5
3E1
100
AcDbEntity
  8
0
100
AcDbLine
 62
7
  6
CONTINUOUS
 10
14.0796475418
 20
11.7666985398
 11
14.0526666373
 21
11.7666985478
  0
LINE
  5
3E2
100
AcDbEntity
  8
0
100
AcDbLine
 62
7
  6
CONTINUOUS
 10
14.5401780388
 20
11.7666985398
 11
14.5131971343
 21
11.7666985478
  0
LINE
  5
3E3
100
AcDbEntity
  8
0
100
AcDbLine
 62
7
  6
CONTINUOUS
 10
15.0007085358
 20
11.7666985398
 11
14.9737276313
 21
11.7666985478
  0
LINE
  5
3E4
100
AcDbEntity
  8
0
100
AcDbLine
 62
7
  6
CONTINUOUS
 10
15.4612390328
 20
11.7666985398
 11
15.4342581283
 21
11.7666985478
  0
LINE
  5
3E5
100
AcDbEntity
  8
0
100
AcDbLine
 62
7
  6
CONTINUOUS
 10
15.9217695298
 20
11.7666985398
 11
15.8947886253
 21
11.7666985478
  0
LINE
  5
3E6
100
AcDbEntity
  8
0
100
AcDbLine
 62
7
  6
CONTINUOUS
 10
16.3823000268
 20
11.7666985398
 11
16.3553191223
 21
11.7666985478
  0
LINE
  5
3E7
100
AcDbEntity
  8
0
100
AcDbLine
 62
7
  6
CONTINUOUS
 10
16.8428305238
 20
11.7666985398
 11
16.8158496193
 21
11.7666985478
  0
LINE
  5
3E8
100
AcDbEntity
  8
0
100
AcDbLine
 62
7
  6
CONTINUOUS
 10
15.340499314
 20
11.7656643117
 11
15.352498116
 21
11.7617878883
  0
LWPOLYLINE
  5
3E9
100
AcDbEntity
  8
0
100
AcDbPolyline
 62
7
  6
CONTINUOUS
 90
4
 70
0
 10
15.352498116
 20
11.7617878883
 10
15.3743439704
 20
11.7530175149
 10
15.3946176789
 20
11.7425713077
 10
15.4107911669
 20
11.7322315721
  0
LINE
  5
3EA
100
AcDbEntity
  8
0
100
AcDbLine
 62
7
  6
CONTINUOUS
 10
14.4193179655
 20
12.8867600293
 11
14.2209702525
 21
13.2856942325
  0
LINE
  5
3EB
100
AcDbEntity
  8
0
100
AcDbLine
 62
7
  6
CONTINUOUS
 10
14.4423395351
 20
12.8712649847
 11
14.4397974714
 21
12.876445166
  0
LINE
  5
3EC
100
AcDbEntity
  8
0
100
AcDbLine
 62
7
  6
CONTINUOUS
 10
14.9690847204
 20
11.7799607106
 11
14.7870224452
 21
12.1593160916
  0
LWPOLYLINE
  5
3ED
100
AcDbEntity
  8
0
100
AcDbPolyline
 62
7
  6
CONTINUOUS
 90
4
 70
0
 10
14.9690847204
 20
11.7799607106
 10
14.9693212676
 20
11.7793796928
 10
14.9694481666
 20
11.7787098549
 10
14.9694317739
 20
11.7786382477
  0
LWPOLYLINE
  5
3EE
100
AcDbEntity
  8
0
100
AcDbPolyline
 62
7
  6
CONTINUOUS
 90
7
 70
0
 10
14.7845580927
 20
12.2144667073
 10
14.7827068322
 20
12.2068929852
 10
14.781421251
 20
12.1966048861
 10
14.7812830566
 20
12.1859829705
 10
14.7822930377
 20
12.1755838437
 10
14.7844712303
 20
12.165947613
 10
14.7870314783
 20
12.1592973849
  0
LINE
  5
3EF
100
AcDbEntity
  8
0
100
AcDbLine
 62
7
  6
CONTINUOUS
 10
14.4980032678
 20
11.7732255889
 11
14.5034020497
 21
11.7906960535
  0
LINE
  5
3F0
100
AcDbEntity
  8
0
100
AcDbLine
 62
7
  6
CONTINUOUS
 10
14.9003279684
 20
12.876445166
 11
14.559407334
 21
11.7732255889
  0
LINE
  5
3F1
100
AcDbEntity
  8
0
100
AcDbLine
 62
7
  6
CONTINUOUS
 10
14.9028700321
 20
12.8712649847
 11
14.728444898
 21
12.3068250438
  0
LINE
  5
3F2
100
AcDbEntity
  8
0
100
AcDbLine
 62
7
  6
CONTINUOUS
 10
14.671906004
 20
12.1238651159
 11
14.5599321784
 21
11.7615176834
  0
LINE
  5
3F3
100
AcDbEntity
  8
0
100
AcDbLine
 62
7
  6
CONTINUOUS
 10
17.308139137
 20
11.8392737546
 11
17.2526497943
 21
11.8392737546
  0
LINE
  5
3F4
100
AcDbEntity
  8
0
100
AcDbLine
 62
7
  6
CONTINUOUS
 10
15.801029811
 20
11.7656643117
 11
15.813028613
 21
11.7617878883
  0
LINE
  5
3F5
100
AcDbEntity
  8
0
100
AcDbLine
 62
7
  6
CONTINUOUS
 10
14.784555924
 20
12.2144597227
 11
15.1163457599
 21
13.288132025
  0
LINE
  5
3F6
100
AcDbEntity
  8
0
100
AcDbLine
 62
7
  6
CONTINUOUS
 10
17.2893130972
 20
12.0190077971
 11
17.2893107118
 21
12.019007797
  0
LINE
  5
3F7
100
AcDbEntity
  8
0
100
AcDbLine
 62
7
  6
CONTINUOUS
 10
16.261560308
 20
11.7656643117
 11
16.27355911
 21
11.7617878883
  0
LWPOLYLINE
  5
3F8
100
AcDbEntity
  8
0
100
AcDbPolyline
 62
7
  6
CONTINUOUS
 90
4
 70
0
 10
15.813028613
 20
11.7617878883
 10
15.8348744674
 20
11.7530175149
 10
15.8551481759
 20
11.7425713077
 10
15.8713216639
 20
11.7322315721
  0
LINE
  5
3F9
100
AcDbEntity
  8
0
100
AcDbLine
 62
7
  6
CONTINUOUS
 10
14.9082954165
 20
11.9066247702
 11
14.8725494244
 21
11.7732254907
  0
LINE
  5
3FA
100
AcDbEntity
  8
0
100
AcDbLine
 62
7
  6
CONTINUOUS
 10
14.897554539
 20
11.7365765477
 11
14.903868927
 21
11.7570099147
  0
LINE
  5
3FB
100
AcDbEntity
  8
0
100
AcDbLine
 62
7
  6
CONTINUOUS
 10
17.1192821964
 20
12.1497645679
 11
17.1979712655
 21
12.1497645679
  0
LINE
  5
3FC
100
AcDbEntity
  8
0
100
AcDbLine
 62
7
  6
CONTINUOUS
 10
16.722090805
 20
11.7656643117
 11
16.734089607
 21
11.7617878883
  0
LWPOLYLINE
  5
3FD
100
AcDbEntity
  8
0
100
AcDbPolyline
 62
7
  6
CONTINUOUS
 90
4
 70
0
 10
16.27355911
 20
11.7617878883
 10
16.2954049644
 20
11.7530175149
 10
16.3156786729
 20
11.7425713077
 10
16.3318521609
 20
11.7322315721
  0
LINE
  5
3FE
100
AcDbEntity
  8
0
100
AcDbLine
 62
7
  6
CONTINUOUS
 10
14.8798484625
 20
12.8867600293
 11
14.6815007495
 21
13.2856942325
  0
LINE
  5
3FF
100
AcDbEntity
  8
0
100
AcDbLine
 62
7
  6
CONTINUOUS
 10
14.9028700321
 20
12.8712649847
 11
14.9003279684
 21
12.876445166
  0
LINE
  5
400
100
AcDbEntity
  8
0
100
AcDbLine
 62
7
  6
CONTINUOUS
 10
15.4296152174
 20
11.7799607106
 11
15.2475529422
 21
12.1593160916
  0
LWPOLYLINE
  5
401
100
AcDbEntity
  8
0
100
AcDbPolyline
 62
7
  6
CONTINUOUS
 90
4
 70
0
 10
15.4296152174
 20
11.7799607106
 10
15.4298517646
 20
11.7793796928
 10
15.4299786636
 20
11.7787098549
 10
15.4299622709
 20
11.7786382477
  0
LWPOLYLINE
  5
402
100
AcDbEntity
  8
0
100
AcDbPolyline
 62
7
  6
CONTINUOUS
 90
7
 70
0
 10
15.2450885897
 20
12.2144667073
 10
15.2432373292
 20
12.2068929852
 10
15.241951748
 20
12.1966048861
 10
15.2418135536
 20
12.1859829705
 10
15.2428235347
 20
12.1755838437
 10
15.2450017273
 20
12.165947613
 10
15.2475619753
 20
12.1592973849
  0
LINE
  5
403
100
AcDbEntity
  8
0
100
AcDbLine
 62
7
  6
CONTINUOUS
 10
14.9585337648
 20
11.7732255889
 11
14.9639325467
 21
11.7906960535
  0
LINE
  5
404
100
AcDbEntity
  8
0
100
AcDbLine
 62
7
  6
CONTINUOUS
 10
15.3608584654
 20
12.876445166
 11
15.019937831
 21
11.7732255889
  0
LINE
  5
405
100
AcDbEntity
  8
0
100
AcDbLine
 62
7
  6
CONTINUOUS
 10
15.3634005291
 20
12.8712649847
 11
15.188975395
 21
12.3068250438
  0
LINE
  5
406
100
AcDbEntity
  8
0
100
AcDbLine
 62
7
  6
CONTINUOUS
 10
15.132436501
 20
12.1238651159
 11
15.0204626754
 21
11.7615176834
  0
LINE
  5
407
100
AcDbEntity
  8
0
100
AcDbLine
 62
7
  6
CONTINUOUS
 10
17.4606409208
 20
12.3327697077
 11
17.339781529
 21
12.3327697077
  0
LWPOLYLINE
  5
408
100
AcDbEntity
  8
0
100
AcDbPolyline
 62
7
  6
CONTINUOUS
 90
4
 70
0
 10
16.734089607
 20
11.7617878883
 10
16.7559354614
 20
11.7530175149
 10
16.7762091699
 20
11.7425713077
 10
16.7923826579
 20
11.7322315721
  0
LINE
  5
409
100
AcDbEntity
  8
0
100
AcDbLine
 62
7
  6
CONTINUOUS
 10
15.245086421
 20
12.2144597227
 11
15.5768762569
 21
13.288132025
  0
LINE
  5
40A
100
AcDbEntity
  8
0
100
AcDbLine
 62
7
  6
CONTINUOUS
 10
15.3688259135
 20
11.9066247702
 11
15.3330799214
 21
11.7732254907
  0
LINE
  5
40B
100
AcDbEntity
  8
0
100
AcDbLine
 62
7
  6
CONTINUOUS
 10
15.358085036
 20
11.7365765477
 11
15.364399424
 21
11.7570099147
  0
LINE
  5
40C
100
AcDbEntity
  8
0
100
AcDbLine
 62
7
  6
CONTINUOUS
 10
15.4190642618
 20
11.7732255889
 11
15.4244630437
 21
11.7906960535
  0
LINE
  5
40D
100
AcDbEntity
  8
0
100
AcDbLine
 62
7
  6
CONTINUOUS
 10
15.3403789595
 20
12.8867600293
 11
15.1420312465
 21
13.2856942325
  0
LINE
  5
40E
100
AcDbEntity
  8
0
100
AcDbLine
 62
7
  6
CONTINUOUS
 10
15.3634005291
 20
12.8712649847
 11
15.3608584654
 21
12.876445166
  0
LINE
  5
40F
100
AcDbEntity
  8
0
100
AcDbLine
 62
7
  6
CONTINUOUS
 10
15.8901457144
 20
11.7799607106
 11
15.7080834392
 21
12.1593160916
  0
LWPOLYLINE
  5
410
100
AcDbEntity
  8
0
100
AcDbPolyline
 62
7
  6
CONTINUOUS
 90
4
 70
0
 10
15.8901457144
 20
11.7799607106
 10
15.8903822616
 20
11.7793796928
 10
15.8905091606
 20
11.7787098549
 10
15.8904927679
 20
11.7786382477
  0
LWPOLYLINE
  5
411
100
AcDbEntity
  8
0
100
AcDbPolyline
 62
7
  6
CONTINUOUS
 90
7
 70
0
 10
15.7056190867
 20
12.2144667073
 10
15.7037678262
 20
12.2068929852
 10
15.702482245
 20
12.1966048861
 10
15.7023440506
 20
12.1859829705
 10
15.7033540317
 20
12.1755838437
 10
15.7055322243
 20
12.165947613
 10
15.7080924723
 20
12.1592973849
  0
LINE
  5
412
100
AcDbEntity
  8
0
100
AcDbLine
 62
7
  6
CONTINUOUS
 10
15.8213889624
 20
12.876445166
 11
15.480468328
 21
11.7732255889
  0
LINE
  5
413
100
AcDbEntity
  8
0
100
AcDbLine
 62
7
  6
CONTINUOUS
 10
15.8239310261
 20
12.8712649847
 11
15.649505892
 21
12.3068250438
  0
LINE
  5
414
100
AcDbEntity
  8
0
100
AcDbLine
 62
7
  6
CONTINUOUS
 10
15.592966998
 20
12.1238651159
 11
15.4809931724
 21
11.7615176834
  0
LINE
  5
415
100
AcDbEntity
  8
0
100
AcDbLine
 62
7
  6
CONTINUOUS
 10
15.705616918
 20
12.2144597227
 11
16.0374067539
 21
13.288132025
  0
LINE
  5
416
100
AcDbEntity
  8
0
100
AcDbLine
 62
7
  6
CONTINUOUS
 10
17.4416513644
 20
12.9383136569
 11
17.1568687905
 21
12.9383136569
  0
LINE
  5
417
100
AcDbEntity
  8
0
100
AcDbLine
 62
7
  6
CONTINUOUS
 10
16.850365696
 20
12.9383136569
 11
16.6963382935
 21
12.9383136569
  0
LINE
  5
418
100
AcDbEntity
  8
0
100
AcDbLine
 62
7
  6
CONTINUOUS
 10
16.389835199
 20
12.9383136569
 11
16.2358077965
 21
12.9383136569
  0
LINE
  5
419
100
AcDbEntity
  8
0
100
AcDbLine
 62
7
  6
CONTINUOUS
 10
15.929304702
 20
12.9383136569
 11
15.7752772995
 21
12.9383136569
  0
LINE
  5
41A
100
AcDbEntity
  8
0
100
AcDbLine
 62
7
  6
CONTINUOUS
 10
15.468774205
 20
12.9383136569
 11
15.3147468025
 21
12.9383136569
  0
LINE
  5
41B
100
AcDbEntity
  8
0
100
AcDbLine
 62
7
  6
CONTINUOUS
 10
15.008243708
 20
12.9383136569
 11
14.8542163055
 21
12.9383136569
  0
LINE
  5
41C
100
AcDbEntity
  8
0
100
AcDbLine
 62
7
  6
CONTINUOUS
 10
14.547713211
 20
12.9383136569
 11
14.3936858085
 21
12.9383136569
  0
LINE
  5
41D
100
AcDbEntity
  8
0
100
AcDbLine
 62
7
  6
CONTINUOUS
 10
14.087182714
 20
12.9383136569
 11
13.9331553114
 21
12.9383136569
  0
LINE
  5
41E
100
AcDbEntity
  8
0
100
AcDbLine
 62
7
  6
CONTINUOUS
 10
15.8009094565
 20
12.8867600293
 11
15.6025617435
 21
13.2856942325
  0
LINE
  5
41F
100
AcDbEntity
  8
0
100
AcDbLine
 62
7
  6
CONTINUOUS
 10
15.8293564105
 20
11.9066247702
 11
15.7936104184
 21
11.7732254907
  0
LINE
  5
420
100
AcDbEntity
  8
0
100
AcDbLine
 62
7
  6
CONTINUOUS
 10
15.818615533
 20
11.7365765477
 11
15.824929921
 21
11.7570099147
  0
LINE
  5
421
100
AcDbEntity
  8
0
100
AcDbLine
 62
7
  6
CONTINUOUS
 10
15.8795947588
 20
11.7732255889
 11
15.8849935407
 21
11.7906960535
  0
LINE
  5
422
100
AcDbEntity
  8
0
100
AcDbLine
 62
7
  6
CONTINUOUS
 10
15.8239310261
 20
12.8712649847
 11
15.8213889624
 21
12.876445166
  0
LINE
  5
423
100
AcDbEntity
  8
0
100
AcDbLine
 62
7
  6
CONTINUOUS
 10
16.3506762114
 20
11.7799607106
 11
16.1686139362
 21
12.1593160916
  0
LWPOLYLINE
  5
424
100
AcDbEntity
  8
0
100
AcDbPolyline
 62
7
  6
CONTINUOUS
 90
4
 70
0
 10
16.3506762114
 20
11.7799607106
 10
16.3509127586
 20
11.7793796928
 10
16.3510396576
 20
11.7787098549
 10
16.3510232649
 20
11.7786382477
  0
LWPOLYLINE
  5
425
100
AcDbEntity
  8
0
100
AcDbPolyline
 62
7
  6
CONTINUOUS
 90
7
 70
0
 10
16.1661495837
 20
12.2144667073
 10
16.1642983232
 20
12.2068929852
 10
16.163012742
 20
12.1966048861
 10
16.1628745476
 20
12.1859829705
 10
16.1638845287
 20
12.1755838437
 10
16.1660627213
 20
12.165947613
 10
16.1686229693
 20
12.1592973849
  0
LINE
  5
426
100
AcDbEntity
  8
0
100
AcDbLine
 62
7
  6
CONTINUOUS
 10
16.2819194594
 20
12.876445166
 11
15.9409988251
 21
11.7732255889
  0
LINE
  5
427
100
AcDbEntity
  8
0
100
AcDbLine
 62
7
  6
CONTINUOUS
 10
16.2844615231
 20
12.8712649847
 11
16.110036389
 21
12.3068250438
  0
LINE
  5
428
100
AcDbEntity
  8
0
100
AcDbLine
 62
7
  6
CONTINUOUS
 10
16.0534974951
 20
12.1238651159
 11
15.9415236694
 21
11.7615176834
  0
LINE
  5
429
100
AcDbEntity
  8
0
100
AcDbLine
 62
7
  6
CONTINUOUS
 10
16.166147415
 20
12.2144597227
 11
16.4979372509
 21
13.288132025
  0
LINE
  5
42A
100
AcDbEntity
  8
0
100
AcDbLine
 62
7
  6
CONTINUOUS
 10
13.7401740937
 20
13.2908517133
 11
13.7502333963
 21
13.2908517133
  0
LINE
  5
42B
100
AcDbEntity
  8
0
100
AcDbLine
 62
7
  6
CONTINUOUS
 10
14.2007045907
 20
13.2908517133
 11
14.2107638933
 21
13.2908517133
  0
LINE
  5
42C
100
AcDbEntity
  8
0
100
AcDbLine
 62
7
  6
CONTINUOUS
 10
14.6612350877
 20
13.2908517133
 11
14.6712943903
 21
13.2908517133
  0
LINE
  5
42D
100
AcDbEntity
  8
0
100
AcDbLine
 62
7
  6
CONTINUOUS
 10
15.1217655847
 20
13.2908517133
 11
15.1318248873
 21
13.2908517133
  0
LINE
  5
42E
100
AcDbEntity
  8
0
100
AcDbLine
 62
7
  6
CONTINUOUS
 10
15.5822960817
 20
13.2908517133
 11
15.5923553843
 21
13.2908517133
  0
LINE
  5
42F
100
AcDbEntity
  8
0
100
AcDbLine
 62
7
  6
CONTINUOUS
 10
16.0428265787
 20
13.2908517133
 11
16.0528858813
 21
13.2908517133
  0
LINE
  5
430
100
AcDbEntity
  8
0
100
AcDbLine
 62
7
  6
CONTINUOUS
 10
16.5033570757
 20
13.2908517133
 11
16.5134163783
 21
13.2908517133
  0
LINE
  5
431
100
AcDbEntity
  8
0
100
AcDbLine
 62
7
  6
CONTINUOUS
 10
16.9638875727
 20
13.2908517133
 11
16.9739468753
 21
13.2908517133
  0
LINE
  5
432
100
AcDbEntity
  8
0
100
AcDbLine
 62
7
  6
CONTINUOUS
 10
16.2614399535
 20
12.8867600293
 11
16.0630922405
 21
13.2856942325
  0
LINE
  5
433
100
AcDbEntity
  8
0
100
AcDbLine
 62
7
  6
CONTINUOUS
 10
16.2844615231
 20
12.8712649847
 11
16.2819194594
 21
12.876445166
  0
LINE
  5
434
100
AcDbEntity
  8
0
100
AcDbLine
 62
7
  6
CONTINUOUS
 10
16.8112067084
 20
11.7799607106
 11
16.6291444332
 21
12.1593160916
  0
LINE
  5
435
100
AcDbEntity
  8
0
100
AcDbLine
 62
7
  6
CONTINUOUS
 10
16.2898869075
 20
11.9066247702
 11
16.2541409154
 21
11.7732254907
  0
LINE
  5
436
100
AcDbEntity
  8
0
100
AcDbLine
 62
7
  6
CONTINUOUS
 10
16.2791460301
 20
11.7365765477
 11
16.285460418
 21
11.7570099147
  0
LINE
  5
437
100
AcDbEntity
  8
0
100
AcDbLine
 62
7
  6
CONTINUOUS
 10
16.3401252558
 20
11.7732255889
 11
16.3455240377
 21
11.7906960535
  0
LWPOLYLINE
  5
438
100
AcDbEntity
  8
0
100
AcDbPolyline
 62
7
  6
CONTINUOUS
 90
4
 70
0
 10
16.8112067084
 20
11.7799607106
 10
16.8114432556
 20
11.7793796928
 10
16.8115701546
 20
11.7787098549
 10
16.8115537619
 20
11.7786382477
  0
LWPOLYLINE
  5
439
100
AcDbEntity
  8
0
100
AcDbPolyline
 62
7
  6
CONTINUOUS
 90
7
 70
0
 10
16.6266800807
 20
12.2144667073
 10
16.6248288202
 20
12.2068929852
 10
16.623543239
 20
12.1966048861
 10
16.6234050446
 20
12.1859829705
 10
16.6244150257
 20
12.1755838437
 10
16.6265932183
 20
12.165947613
 10
16.6291534663
 20
12.1592973849
  0
LINE
  5
43A
100
AcDbEntity
  8
0
100
AcDbLine
 62
7
  6
CONTINUOUS
 10
16.7424499564
 20
12.876445166
 11
16.4015293221
 21
11.7732255889
  0
LINE
  5
43B
100
AcDbEntity
  8
0
100
AcDbLine
 62
7
  6
CONTINUOUS
 10
16.7449920201
 20
12.8712649847
 11
16.570566886
 21
12.3068250438
  0
LINE
  5
43C
100
AcDbEntity
  8
0
100
AcDbLine
 62
7
  6
CONTINUOUS
 10
16.5140279921
 20
12.1238651159
 11
16.4020541664
 21
11.7615176834
  0
LINE
  5
43D
100
AcDbEntity
  8
0
100
AcDbLine
 62
7
  6
CONTINUOUS
 10
16.626677912
 20
12.2144597227
 11
16.9584677479
 21
13.288132025
  0
LWPOLYLINE
  5
43E
100
AcDbEntity
  8
0
100
AcDbPolyline
 62
7
  6
CONTINUOUS
 90
10
 70
0
 10
17.4815918833
 20
12.6024139955
 10
17.4792788892
 20
12.604239174
 10
17.477327451
 20
12.6061521402
 10
17.4756083952
 20
12.6081909879
 10
17.474156734
 20
12.6103000086
 10
17.473035646
 20
12.6123933791
 10
17.4723310089
 20
12.6142971657
 10
17.4720748428
 20
12.6157278053
 10
17.4721108868
 20
12.6164474876
 10
17.4721275583
 20
12.6165118656
  0
LINE
  5
43F
100
AcDbEntity
  8
0
100
AcDbLine
 62
7
  6
CONTINUOUS
 10
16.7219704505
 20
12.8867600293
 11
16.5236227375
 21
13.2856942325
  0
LINE
  5
440
100
AcDbEntity
  8
0
100
AcDbLine
 62
7
  6
CONTINUOUS
 10
16.7449920201
 20
12.8712649847
 11
16.7424499564
 21
12.876445166
  0
LINE
  5
441
100
AcDbEntity
  8
0
100
AcDbLine
 62
7
  6
CONTINUOUS
 10
16.7504174045
 20
11.9066247702
 11
16.7146714124
 21
11.7732254907
  0
LINE
  5
442
100
AcDbEntity
  8
0
100
AcDbLine
 62
7
  6
CONTINUOUS
 10
16.7396765271
 20
11.7365765477
 11
16.745990915
 21
11.7570099147
  0
LINE
  5
443
100
AcDbEntity
  8
0
100
AcDbLine
 62
7
  6
CONTINUOUS
 10
16.8006557528
 20
11.7732255889
 11
16.8060545347
 21
11.7906960535
  0
LINE
  5
444
100
AcDbEntity
  8
0
100
AcDbLine
 62
7
  6
CONTINUOUS
 10
17.4902206704
 20
12.3561344907
 11
17.4661610224
 21
12.3348602114
  0
LINE
  5
445
100
AcDbEntity
  8
0
100
AcDbLine
 62
7
  6
CONTINUOUS
 10
17.2029804534
 20
12.876445166
 11
16.8620598191
 21
11.7732255889
  0
LINE
  5
446
100
AcDbEntity
  8
0
100
AcDbLine
 62
7
  6
CONTINUOUS
 10
17.2055225171
 20
12.8712649847
 11
17.031097383
 21
12.3068250438
  0
LINE
  5
447
100
AcDbEntity
  8
0
100
AcDbLine
 62
7
  6
CONTINUOUS
 10
16.9745584891
 20
12.1238651159
 11
16.8625846634
 21
11.7615176834
  0
LWPOLYLINE
  5
448
100
AcDbEntity
  8
0
100
AcDbPolyline
 62
7
  6
CONTINUOUS
 90
4
 70
0
 10
17.2873542832
 20
12.0185848021
 10
17.2873603644
 20
12.0185897841
 10
17.2879267182
 20
12.0188362382
 10
17.2893106942
 20
12.019007797
  0
LINE
  5
449
100
AcDbEntity
  8
0
100
AcDbLine
 62
7
  6
CONTINUOUS
 10
17.3750632584
 20
12.0591130449
 11
17.3857397237
 21
12.037356696
  0
LINE
  5
44A
100
AcDbEntity
  8
0
100
AcDbLine
 62
7
  6
CONTINUOUS
 10
17.2455601284
 20
12.5500667724
 11
17.2470929458
 21
12.5469432191
  0
LINE
  5
44B
100
AcDbEntity
  8
0
100
AcDbLine
 62
7
  6
CONTINUOUS
 10
17.1167401808
 20
12.1466113177
 11
17.2450353322
 21
12.5617745798
  0
LINE
  5
44C
100
AcDbEntity
  8
0
100
AcDbLine
 62
7
  6
CONTINUOUS
 10
17.2425261028
 20
12.5456110814
 11
17.1222998289
 21
12.1565587163
  0
LINE
  5
44D
100
AcDbEntity
  8
0
100
AcDbLine
 62
7
  6
CONTINUOUS
 10
17.181642062
 20
12.1497645679
 11
17.2877840842
 21
12.4932402777
  0
LINE
  5
44E
100
AcDbEntity
  8
0
100
AcDbLine
 62
7
  6
CONTINUOUS
 10
17.2286217262
 20
12.1473144574
 11
17.3407544696
 21
12.5101761479
  0
LINE
  5
44F
100
AcDbEntity
  8
0
100
AcDbLine
 62
7
  6
CONTINUOUS
 10
17.3377188867
 20
11.8626385377
 11
17.3136592387
 21
11.8413642583
  0
LINE
  5
450
100
AcDbEntity
  8
0
100
AcDbLine
 62
7
  6
CONTINUOUS
 10
17.1825009475
 20
12.8867600293
 11
16.9841532345
 21
13.2856942325
  0
LINE
  5
451
100
AcDbEntity
  8
0
100
AcDbLine
 62
7
  6
CONTINUOUS
 10
17.3407544696
 20
12.5101761479
 11
17.3737967607
 21
12.4428430378
  0
LINE
  5
452
100
AcDbEntity
  8
0
100
AcDbLine
 62
7
  6
CONTINUOUS
 10
17.2055225171
 20
12.8712649847
 11
17.2029804534
 21
12.876445166
  0
LINE
  5
453
100
AcDbEntity
  8
0
100
AcDbLine
 62
7
  6
CONTINUOUS
 10
17.3737967607
 20
12.4428430378
 11
17.278606059
 21
12.1348058141
  0
LINE
  5
454
100
AcDbEntity
  8
0
100
AcDbLine
 62
7
  6
CONTINUOUS
 10
17.2002070241
 20
11.7365765477
 11
17.2873508107
 21
12.0185739445
  0
LINE
  5
455
100
AcDbEntity
  8
0
100
AcDbLine
 62
7
  6
CONTINUOUS
 10
17.472128194
 20
12.6165137762
 11
17.5592720704
 21
12.8985114637
  0
LINE
  5
456
100
AcDbEntity
  8
0
100
AcDbLine
 62
7
  6
CONTINUOUS
 10
17.2873469772
 20
12.0185616457
 11
17.2873542832
 21
12.0185848021
  0
LINE
  5
457
100
AcDbEntity
  8
0
100
AcDbLine
 62
7
  6
CONTINUOUS
 10
17.2217122455
 20
11.8061674698
 11
17.2422782985
 21
11.8340728919
  0
LINE
  5
458
100
AcDbEntity
  8
0
100
AcDbLine
 62
7
  6
CONTINUOUS
 10
17.5275650421
 20
12.552608998
 11
17.5382415074
 21
12.5308526491
  0
LINE
  5
459
100
AcDbEntity
  8
0
100
AcDbLine
 62
7
  6
CONTINUOUS
 10
17.5446779581
 20
12.473544854
 11
17.5204713257
 21
12.395212163
  0
LINE
  5
45A
100
AcDbEntity
  8
0
100
AcDbLine
 62
7
  6
CONTINUOUS
 10
17.3921761743
 20
11.9800489009
 11
17.367969542
 21
11.90171621
  0
ARC
  5
45B
100
AcDbEntity
  8
0
100
AcDbCircle
 62
7
  6
CONTINUOUS
 10
4.189265882
 20
5.0628604305
 40
0.3107512796
100
AcDbArc
 50
73.05465974
 51
78.0040750917
  0
ARC
  5
45C
100
AcDbEntity
  8
0
100
AcDbCircle
 62
7
  6
CONTINUOUS
 10
4.689265882
 20
5.0628604305
 40
0.3107512796
100
AcDbArc
 50
73.05465974
 51
78.0040750917
  0
ARC
  5
45D
100
AcDbEntity
  8
0
100
AcDbCircle
 62
7
  6
CONTINUOUS
 10
4.1667653931
 20
4.9884532301
 40
0.05
100
AcDbArc
 50
41.8103148958
 51
90.0
  0
ARC
  5
45E
100
AcDbEntity
  8
0
100
AcDbCircle
 62
7
  6
CONTINUOUS
 10
4.2413009924
 20
5.0551198968
 40
0.05
100
AcDbArc
 50
221.8103148958
 51
270.0
  0
ARC
  5
45F
100
AcDbEntity
  8
0
100
AcDbCircle
 62
7
  6
CONTINUOUS
 10
4.6667653931
 20
4.9884532301
 40
0.05
100
AcDbArc
 50
41.8103148958
 51
42.6748987167
  0
ARC
  5
460
100
AcDbEntity
  8
0
100
AcDbCircle
 62
7
  6
CONTINUOUS
 10
4.7413009924
 20
5.0551198968
 40
0.05
100
AcDbArc
 50
221.8103148958
 51
270.0
  0
ARC
  5
461
100
AcDbEntity
  8
0
100
AcDbCircle
 62
7
  6
CONTINUOUS
 10
4.3387006147
 20
5.0134532301
 40
0.0083333333
100
AcDbArc
 50
180.0
 51
270.0
  0
ARC
  5
462
100
AcDbEntity
  8
0
100
AcDbCircle
 62
7
  6
CONTINUOUS
 10
4.7301460251
 20
5.0353737503
 40
0.0083333333
100
AcDbArc
 50
127.1640093615
 51
132.4184873
  0
ARC
  5
463
100
AcDbEntity
  8
0
100
AcDbCircle
 62
7
  6
CONTINUOUS
 10
4.6814473694
 20
5.0134532301
 40
0.0083333333
100
AcDbArc
 50
270.0
 51
312.4184873
  0
ARC
  5
464
100
AcDbEntity
  8
0
100
AcDbCircle
 62
7
  6
CONTINUOUS
 10
4.8387006147
 20
5.0134532301
 40
0.0083333333
100
AcDbArc
 50
180.0
 51
270.0
  0
ARC
  5
465
100
AcDbEntity
  8
0
100
AcDbCircle
 62
7
  6
CONTINUOUS
 10
4.1436635698
 20
5.221778647
 40
0.1833333333
100
AcDbArc
 50
191.2630865095
 51
270.5324557568
  0
ARC
  5
466
100
AcDbEntity
  8
0
100
AcDbCircle
 62
7
  6
CONTINUOUS
 10
4.1103672814
 20
5.2217865634
 40
0.1466666667
100
AcDbArc
 50
90.0
 51
180.0
  0
CIRCLE
  5
467
100
AcDbEntity
  8
0
100
AcDbCircle
 62
7
  6
CONTINUOUS
 10
4.1303672814
 20
5.2417865634
 40
0.0566666667
  0
ARC
  5
468
100
AcDbEntity
  8
0
100
AcDbCircle
 62
7
  6
CONTINUOUS
 10
3.972033948
 20
5.1875986391
 40
0.0083333333
100
AcDbArc
 50
180.0
 51
191.2630865095
  0
ARC
  5
469
100
AcDbEntity
  8
0
100
AcDbCircle
 62
7
  6
CONTINUOUS
 10
4.4136280508
 20
5.3851198968
 40
0.0166666667
100
AcDbArc
 50
180.25
 51
270.249456955
  0
ARC
  5
46A
100
AcDbEntity
  8
0
100
AcDbCircle
 62
7
  6
CONTINUOUS
 10
4.3471065119
 20
5.3851198968
 40
0.0166666667
100
AcDbArc
 50
269.750543045
 51
359.75
  0
ARC
  5
46B
100
AcDbEntity
  8
0
100
AcDbCircle
 62
7
  6
CONTINUOUS
 10
4.322033948
 20
5.2967865634
 40
0.0083333333
100
AcDbArc
 50
0.0
 51
90.0
  0
ARC
  5
46C
100
AcDbEntity
  8
0
100
AcDbCircle
 62
7
  6
CONTINUOUS
 10
4.6153672814
 20
5.1867865634
 40
0.1816666667
100
AcDbArc
 50
307.1640093615
 51
360.0
  0
ARC
  5
46D
100
AcDbEntity
  8
0
100
AcDbCircle
 62
7
  6
CONTINUOUS
 10
4.6503672814
 20
5.2217865634
 40
0.1466666667
100
AcDbArc
 50
0.0
 51
90.0
  0
ARC
  5
46E
100
AcDbEntity
  8
0
100
AcDbCircle
 62
7
  6
CONTINUOUS
 10
4.6303672814
 20
5.2717865634
 40
0.0633333333
100
AcDbArc
 50
35.5487440029
 51
144.4512559971
  0
ARC
  5
46F
100
AcDbEntity
  8
0
100
AcDbCircle
 62
7
  6
CONTINUOUS
 10
4.6303672814
 20
5.2417865634
 40
0.0566666667
100
AcDbArc
 50
72.8953648234
 51
287.1046351766
  0
ARC
  5
470
100
AcDbEntity
  8
0
100
AcDbCircle
 62
7
  6
CONTINUOUS
 10
4.6303672814
 20
5.2417865634
 40
0.0525
100
AcDbArc
 50
76.225853002
 51
283.774146998
  0
ARC
  5
471
100
AcDbEntity
  8
0
100
AcDbCircle
 62
7
  6
CONTINUOUS
 10
4.9136280508
 20
5.3851198968
 40
0.0166666667
100
AcDbArc
 50
180.25
 51
270.249456955
  0
ARC
  5
472
100
AcDbEntity
  8
0
100
AcDbCircle
 62
7
  6
CONTINUOUS
 10
4.8471065119
 20
5.3851198968
 40
0.0166666667
100
AcDbArc
 50
269.750543045
 51
359.75
  0
ARC
  5
473
100
AcDbEntity
  8
0
100
AcDbCircle
 62
7
  6
CONTINUOUS
 10
4.7539690831
 20
5.3134532301
 40
0.0083333333
100
AcDbArc
 50
270.0
 51
41.5023374652
  0
ARC
  5
474
100
AcDbEntity
  8
0
100
AcDbCircle
 62
7
  6
CONTINUOUS
 10
4.5720577624
 20
5.3134532301
 40
0.0083333333
100
AcDbArc
 50
270.0
 51
324.4512559971
  0
ARC
  5
475
100
AcDbEntity
  8
0
100
AcDbCircle
 62
7
  6
CONTINUOUS
 10
4.6886768003
 20
5.3134532301
 40
0.0083333333
100
AcDbArc
 50
215.5487440029
 51
270.0
  0
ARC
  5
476
100
AcDbEntity
  8
0
100
AcDbCircle
 62
7
  6
CONTINUOUS
 10
4.822033948
 20
5.2967865634
 40
0.0083333333
100
AcDbArc
 50
0.0
 51
90.0
  0
ARC
  5
477
100
AcDbEntity
  8
0
100
AcDbCircle
 62
7
  6
CONTINUOUS
 10
5.189265882
 20
5.0628604305
 40
0.3107512796
100
AcDbArc
 50
73.05465974
 51
78.0040750917
  0
ARC
  5
478
100
AcDbEntity
  8
0
100
AcDbCircle
 62
7
  6
CONTINUOUS
 10
5.689265882
 20
5.0628604305
 40
0.3107512796
100
AcDbArc
 50
73.05465974
 51
78.0040750917
  0
ARC
  5
479
100
AcDbEntity
  8
0
100
AcDbCircle
 62
7
  6
CONTINUOUS
 10
5.1667653931
 20
4.9884532301
 40
0.05
100
AcDbArc
 50
41.8103148958
 51
42.6748987167
  0
ARC
  5
47A
100
AcDbEntity
  8
0
100
AcDbCircle
 62
7
  6
CONTINUOUS
 10
5.2413009924
 20
5.0551198968
 40
0.05
100
AcDbArc
 50
221.8103148958
 51
270.0
  0
ARC
  5
47B
100
AcDbEntity
  8
0
100
AcDbCircle
 62
7
  6
CONTINUOUS
 10
5.6667653931
 20
4.9884532301
 40
0.05
100
AcDbArc
 50
41.8103148958
 51
42.6748987167
  0
ARC
  5
47C
100
AcDbEntity
  8
0
100
AcDbCircle
 62
7
  6
CONTINUOUS
 10
5.7413009924
 20
5.0551198968
 40
0.05
100
AcDbArc
 50
221.8103148958
 51
270.0
  0
ARC
  5
47D
100
AcDbEntity
  8
0
100
AcDbCircle
 62
7
  6
CONTINUOUS
 10
5.2301460251
 20
5.0353737503
 40
0.0083333333
100
AcDbArc
 50
127.1640093615
 51
132.4184873
  0
ARC
  5
47E
100
AcDbEntity
  8
0
100
AcDbCircle
 62
7
  6
CONTINUOUS
 10
5.1814473694
 20
5.0134532301
 40
0.0083333333
100
AcDbArc
 50
270.0
 51
312.4184873
  0
ARC
  5
47F
100
AcDbEntity
  8
0
100
AcDbCircle
 62
7
  6
CONTINUOUS
 10
5.3387006147
 20
5.0134532301
 40
0.0083333333
100
AcDbArc
 50
180.0
 51
270.0
  0
ARC
  5
480
100
AcDbEntity
  8
0
100
AcDbCircle
 62
7
  6
CONTINUOUS
 10
5.7301460251
 20
5.0353737503
 40
0.0083333333
100
AcDbArc
 50
127.1640093615
 51
132.4184873
  0
ARC
  5
481
100
AcDbEntity
  8
0
100
AcDbCircle
 62
7
  6
CONTINUOUS
 10
5.6814473694
 20
5.0134532301
 40
0.0083333333
100
AcDbArc
 50
270.0
 51
312.4184873
  0
ARC
  5
482
100
AcDbEntity
  8
0
100
AcDbCircle
 62
7
  6
CONTINUOUS
 10
5.8387006147
 20
5.0134532301
 40
0.0083333333
100
AcDbArc
 50
180.0
 51
270.0
  0
ARC
  5
483
100
AcDbEntity
  8
0
100
AcDbCircle
 62
7
  6
CONTINUOUS
 10
5.1153672814
 20
5.1867865634
 40
0.1816666667
100
AcDbArc
 50
307.1640093615
 51
360.0
  0
ARC
  5
484
100
AcDbEntity
  8
0
100
AcDbCircle
 62
7
  6
CONTINUOUS
 10
5.1503672814
 20
5.2217865634
 40
0.1466666667
100
AcDbArc
 50
0.0
 51
90.0
  0
ARC
  5
485
100
AcDbEntity
  8
0
100
AcDbCircle
 62
7
  6
CONTINUOUS
 10
5.1303672814
 20
5.2717865634
 40
0.0633333333
100
AcDbArc
 50
35.5487440029
 51
144.4512559971
  0
ARC
  5
486
100
AcDbEntity
  8
0
100
AcDbCircle
 62
7
  6
CONTINUOUS
 10
5.1303672814
 20
5.2417865634
 40
0.0566666667
100
AcDbArc
 50
72.8953648234
 51
287.1046351766
  0
ARC
  5
487
100
AcDbEntity
  8
0
100
AcDbCircle
 62
7
  6
CONTINUOUS
 10
5.1303672814
 20
5.2417865634
 40
0.0525
100
AcDbArc
 50
76.225853002
 51
283.774146998
  0
ARC
  5
488
100
AcDbEntity
  8
0
100
AcDbCircle
 62
7
  6
CONTINUOUS
 10
5.4136280508
 20
5.3851198968
 40
0.0166666667
100
AcDbArc
 50
180.25
 51
270.249456955
  0
ARC
  5
489
100
AcDbEntity
  8
0
100
AcDbCircle
 62
7
  6
CONTINUOUS
 10
5.3471065119
 20
5.3851198968
 40
0.0166666667
100
AcDbArc
 50
269.750543045
 51
359.75
  0
ARC
  5
48A
100
AcDbEntity
  8
0
100
AcDbCircle
 62
7
  6
CONTINUOUS
 10
5.2539690831
 20
5.3134532301
 40
0.0083333333
100
AcDbArc
 50
270.0
 51
41.5023374652
  0
ARC
  5
48B
100
AcDbEntity
  8
0
100
AcDbCircle
 62
7
  6
CONTINUOUS
 10
5.0720577624
 20
5.3134532301
 40
0.0083333333
100
AcDbArc
 50
270.0
 51
324.4512559971
  0
ARC
  5
48C
100
AcDbEntity
  8
0
100
AcDbCircle
 62
7
  6
CONTINUOUS
 10
5.1886768003
 20
5.3134532301
 40
0.0083333333
100
AcDbArc
 50
215.5487440029
 51
270.0
  0
ARC
  5
48D
100
AcDbEntity
  8
0
100
AcDbCircle
 62
7
  6
CONTINUOUS
 10
5.322033948
 20
5.2967865634
 40
0.0083333333
100
AcDbArc
 50
0.0
 51
90.0
  0
ARC
  5
48E
100
AcDbEntity
  8
0
100
AcDbCircle
 62
7
  6
CONTINUOUS
 10
5.6153672814
 20
5.1867865634
 40
0.1816666667
100
AcDbArc
 50
307.1640093615
 51
360.0
  0
ARC
  5
48F
100
AcDbEntity
  8
0
100
AcDbCircle
 62
7
  6
CONTINUOUS
 10
5.6503672814
 20
5.2217865634
 40
0.1466666667
100
AcDbArc
 50
0.0
 51
90.0
  0
ARC
  5
490
100
AcDbEntity
  8
0
100
AcDbCircle
 62
7
  6
CONTINUOUS
 10
5.6303672814
 20
5.2717865634
 40
0.0633333333
100
AcDbArc
 50
35.5487440029
 51
144.4512559971
  0
ARC
  5
491
100
AcDbEntity
  8
0
100
AcDbCircle
 62
7
  6
CONTINUOUS
 10
5.6303672814
 20
5.2417865634
 40
0.0566666667
100
AcDbArc
 50
72.8953648234
 51
287.1046351766
  0
ARC
  5
492
100
AcDbEntity
  8
0
100
AcDbCircle
 62
7
  6
CONTINUOUS
 10
5.6303672814
 20
5.2417865634
 40
0.0525
100
AcDbArc
 50
76.225853002
 51
283.774146998
  0
ARC
  5
493
100
AcDbEntity
  8
0
100
AcDbCircle
 62
7
  6
CONTINUOUS
 10
5.9136280508
 20
5.3851198968
 40
0.0166666667
100
AcDbArc
 50
180.25
 51
270.249456955
  0
ARC
  5
494
100
AcDbEntity
  8
0
100
AcDbCircle
 62
7
  6
CONTINUOUS
 10
5.8471065119
 20
5.3851198968
 40
0.0166666667
100
AcDbArc
 50
269.750543045
 51
359.75
  0
ARC
  5
495
100
AcDbEntity
  8
0
100
AcDbCircle
 62
7
  6
CONTINUOUS
 10
5.7539690831
 20
5.3134532301
 40
0.0083333333
100
AcDbArc
 50
270.0
 51
41.5023374652
  0
ARC
  5
496
100
AcDbEntity
  8
0
100
AcDbCircle
 62
7
  6
CONTINUOUS
 10
5.5720577624
 20
5.3134532301
 40
0.0083333333
100
AcDbArc
 50
270.0
 51
324.4512559971
  0
ARC
  5
497
100
AcDbEntity
  8
0
100
AcDbCircle
 62
7
  6
CONTINUOUS
 10
5.6886768003
 20
5.3134532301
 40
0.0083333333
100
AcDbArc
 50
215.5487440029
 51
270.0
  0
ARC
  5
498
100
AcDbEntity
  8
0
100
AcDbCircle
 62
7
  6
CONTINUOUS
 10
5.822033948
 20
5.2967865634
 40
0.0083333333
100
AcDbArc
 50
0.0
 51
90.0
  0
ARC
  5
499
100
AcDbEntity
  8
0
100
AcDbCircle
 62
7
  6
CONTINUOUS
 10
6.0720577624
 20
5.3134532301
 40
0.0083333333
100
AcDbArc
 50
270.0
 51
324.4512559971
  0
ARC
  5
49A
100
AcDbEntity
  8
0
100
AcDbCircle
 62
7
  6
CONTINUOUS
 10
5.8858279961
 20
6.0267865634
 40
0.0083333333
100
AcDbArc
 50
0.25
 51
90.0
  0
ARC
  5
49B
100
AcDbEntity
  8
0
100
AcDbCircle
 62
7
  6
CONTINUOUS
 10
5.8749065666
 20
6.0267865634
 40
0.0083333333
100
AcDbArc
 50
90.0
 51
179.75
  0
ARC
  5
49C
100
AcDbEntity
  8
0
100
AcDbCircle
 62
7
  6
CONTINUOUS
 10
5.3858279961
 20
6.0267865634
 40
0.0083333333
100
AcDbArc
 50
0.25
 51
90.0
  0
ARC
  5
49D
100
AcDbEntity
  8
0
100
AcDbCircle
 62
7
  6
CONTINUOUS
 10
5.3749065666
 20
6.0267865634
 40
0.0083333333
100
AcDbArc
 50
90.0
 51
179.75
  0
ARC
  5
49E
100
AcDbEntity
  8
0
100
AcDbCircle
 62
7
  6
CONTINUOUS
 10
4.8858279961
 20
6.0267865634
 40
0.0083333333
100
AcDbArc
 50
0.25
 51
90.0
  0
ARC
  5
49F
100
AcDbEntity
  8
0
100
AcDbCircle
 62
7
  6
CONTINUOUS
 10
4.8749065666
 20
6.0267865634
 40
0.0083333333
100
AcDbArc
 50
90.0
 51
179.75
  0
ARC
  5
4A0
100
AcDbEntity
  8
0
100
AcDbCircle
 62
7
  6
CONTINUOUS
 10
4.3858279961
 20
6.0267865634
 40
0.0083333333
100
AcDbArc
 50
0.25
 51
90.0
  0
ARC
  5
4A1
100
AcDbEntity
  8
0
100
AcDbCircle
 62
7
  6
CONTINUOUS
 10
4.3749065666
 20
6.0267865634
 40
0.0083333333
100
AcDbArc
 50
90.0
 51
179.75
  0
ARC
  5
4A2
100
AcDbEntity
  8
0
100
AcDbCircle
 62
7
  6
CONTINUOUS
 10
6.189265882
 20
5.0628604305
 40
0.3107512796
100
AcDbArc
 50
73.05465974
 51
78.0040750917
  0
ARC
  5
4A3
100
AcDbEntity
  8
0
100
AcDbCircle
 62
7
  6
CONTINUOUS
 10
6.689265882
 20
5.0628604305
 40
0.3107512796
100
AcDbArc
 50
73.05465974
 51
78.0040750917
  0
ARC
  5
4A4
100
AcDbEntity
  8
0
100
AcDbCircle
 62
7
  6
CONTINUOUS
 10
6.1667653931
 20
4.9884532301
 40
0.05
100
AcDbArc
 50
41.8103148958
 51
42.6748987167
  0
ARC
  5
4A5
100
AcDbEntity
  8
0
100
AcDbCircle
 62
7
  6
CONTINUOUS
 10
6.2413009924
 20
5.0551198968
 40
0.05
100
AcDbArc
 50
221.8103148958
 51
270.0
  0
ARC
  5
4A6
100
AcDbEntity
  8
0
100
AcDbCircle
 62
7
  6
CONTINUOUS
 10
6.6667653931
 20
4.9884532301
 40
0.05
100
AcDbArc
 50
41.8103148958
 51
42.6748987167
  0
ARC
  5
4A7
100
AcDbEntity
  8
0
100
AcDbCircle
 62
7
  6
CONTINUOUS
 10
6.7413009924
 20
5.0551198968
 40
0.05
100
AcDbArc
 50
221.8103148958
 51
270.0
  0
ARC
  5
4A8
100
AcDbEntity
  8
0
100
AcDbCircle
 62
7
  6
CONTINUOUS
 10
7.1667653931
 20
4.9884532301
 40
0.05
100
AcDbArc
 50
41.8103148958
 51
42.6748987167
  0
ARC
  5
4A9
100
AcDbEntity
  8
0
100
AcDbCircle
 62
7
  6
CONTINUOUS
 10
6.2301460251
 20
5.0353737503
 40
0.0083333333
100
AcDbArc
 50
127.1640093615
 51
132.4184873
  0
ARC
  5
4AA
100
AcDbEntity
  8
0
100
AcDbCircle
 62
7
  6
CONTINUOUS
 10
6.1814473694
 20
5.0134532301
 40
0.0083333333
100
AcDbArc
 50
270.0
 51
312.4184873
  0
ARC
  5
4AB
100
AcDbEntity
  8
0
100
AcDbCircle
 62
7
  6
CONTINUOUS
 10
6.3387006147
 20
5.0134532301
 40
0.0083333333
100
AcDbArc
 50
180.0
 51
270.0
  0
ARC
  5
4AC
100
AcDbEntity
  8
0
100
AcDbCircle
 62
7
  6
CONTINUOUS
 10
6.7301460251
 20
5.0353737503
 40
0.0083333333
100
AcDbArc
 50
127.1640093615
 51
132.4184873
  0
ARC
  5
4AD
100
AcDbEntity
  8
0
100
AcDbCircle
 62
7
  6
CONTINUOUS
 10
6.6814473694
 20
5.0134532301
 40
0.0083333333
100
AcDbArc
 50
270.0
 51
312.4184873
  0
ARC
  5
4AE
100
AcDbEntity
  8
0
100
AcDbCircle
 62
7
  6
CONTINUOUS
 10
6.8387006147
 20
5.0134532301
 40
0.0083333333
100
AcDbArc
 50
180.0
 51
270.0
  0
ARC
  5
4AF
100
AcDbEntity
  8
0
100
AcDbCircle
 62
7
  6
CONTINUOUS
 10
7.1814473694
 20
5.0134532301
 40
0.0083333333
100
AcDbArc
 50
270.0
 51
312.4184873
  0
ARC
  5
4B0
100
AcDbEntity
  8
0
100
AcDbCircle
 62
7
  6
CONTINUOUS
 10
6.1153672814
 20
5.1867865634
 40
0.1816666667
100
AcDbArc
 50
307.1640093615
 51
360.0
  0
ARC
  5
4B1
100
AcDbEntity
  8
0
100
AcDbCircle
 62
7
  6
CONTINUOUS
 10
6.6153672814
 20
5.1867865634
 40
0.1816666667
100
AcDbArc
 50
307.1640093615
 51
360.0
  0
ARC
  5
4B2
100
AcDbEntity
  8
0
100
AcDbCircle
 62
7
  6
CONTINUOUS
 10
6.1503672814
 20
5.2217865634
 40
0.1466666667
100
AcDbArc
 50
0.0
 51
90.0
  0
ARC
  5
4B3
100
AcDbEntity
  8
0
100
AcDbCircle
 62
7
  6
CONTINUOUS
 10
6.1303672814
 20
5.2717865634
 40
0.0633333333
100
AcDbArc
 50
35.5487440029
 51
144.4512559971
  0
ARC
  5
4B4
100
AcDbEntity
  8
0
100
AcDbCircle
 62
7
  6
CONTINUOUS
 10
6.6303672814
 20
5.2717865634
 40
0.0633333333
100
AcDbArc
 50
35.5487440029
 51
144.4512559971
  0
ARC
  5
4B5
100
AcDbEntity
  8
0
100
AcDbCircle
 62
7
  6
CONTINUOUS
 10
6.1303672814
 20
5.2417865634
 40
0.0566666667
100
AcDbArc
 50
72.8953648234
 51
287.1046351766
  0
ARC
  5
4B6
100
AcDbEntity
  8
0
100
AcDbCircle
 62
7
  6
CONTINUOUS
 10
6.6303672814
 20
5.2417865634
 40
0.0566666667
100
AcDbArc
 50
72.8953648234
 51
287.1046351766
  0
ARC
  5
4B7
100
AcDbEntity
  8
0
100
AcDbCircle
 62
7
  6
CONTINUOUS
 10
6.6303672814
 20
5.2417865634
 40
0.0525
100
AcDbArc
 50
76.225853002
 51
283.774146998
  0
ARC
  5
4B8
100
AcDbEntity
  8
0
100
AcDbCircle
 62
7
  6
CONTINUOUS
 10
6.1303672814
 20
5.2417865634
 40
0.0525
100
AcDbArc
 50
76.225853002
 51
283.774146998
  0
ARC
  5
4B9
100
AcDbEntity
  8
0
100
AcDbCircle
 62
7
  6
CONTINUOUS
 10
6.4136280508
 20
5.3851198968
 40
0.0166666667
100
AcDbArc
 50
180.25
 51
270.249456955
  0
ARC
  5
4BA
100
AcDbEntity
  8
0
100
AcDbCircle
 62
7
  6
CONTINUOUS
 10
6.3471065119
 20
5.3851198968
 40
0.0166666667
100
AcDbArc
 50
269.750543045
 51
359.75
  0
ARC
  5
4BB
100
AcDbEntity
  8
0
100
AcDbCircle
 62
7
  6
CONTINUOUS
 10
6.2539690831
 20
5.3134532301
 40
0.0083333333
100
AcDbArc
 50
270.0
 51
41.5023374652
  0
ARC
  5
4BC
100
AcDbEntity
  8
0
100
AcDbCircle
 62
7
  6
CONTINUOUS
 10
6.1886768003
 20
5.3134532301
 40
0.0083333333
100
AcDbArc
 50
215.5487440029
 51
270.0
  0
ARC
  5
4BD
100
AcDbEntity
  8
0
100
AcDbCircle
 62
7
  6
CONTINUOUS
 10
6.322033948
 20
5.2967865634
 40
0.0083333333
100
AcDbArc
 50
0.0
 51
90.0
  0
ARC
  5
4BE
100
AcDbEntity
  8
0
100
AcDbCircle
 62
7
  6
CONTINUOUS
 10
6.5720577624
 20
5.3134532301
 40
0.0083333333
100
AcDbArc
 50
270.0
 51
324.4512559971
  0
ARC
  5
4BF
100
AcDbEntity
  8
0
100
AcDbCircle
 62
7
  6
CONTINUOUS
 10
6.6503672814
 20
5.2217865634
 40
0.1466666667
100
AcDbArc
 50
0.0
 51
90.0
  0
ARC
  5
4C0
100
AcDbEntity
  8
0
100
AcDbCircle
 62
7
  6
CONTINUOUS
 10
7.1153672814
 20
5.1867865634
 40
0.1816666667
100
AcDbArc
 50
307.1640093615
 51
360.0
  0
ARC
  5
4C1
100
AcDbEntity
  8
0
100
AcDbCircle
 62
7
  6
CONTINUOUS
 10
7.1503672814
 20
5.2217865634
 40
0.1466666667
100
AcDbArc
 50
0.0
 51
90.0
  0
ARC
  5
4C2
100
AcDbEntity
  8
0
100
AcDbCircle
 62
7
  6
CONTINUOUS
 10
7.1303672814
 20
5.2717865634
 40
0.0633333333
100
AcDbArc
 50
35.5487440029
 51
144.4512559971
  0
ARC
  5
4C3
100
AcDbEntity
  8
0
100
AcDbCircle
 62
7
  6
CONTINUOUS
 10
7.1303672814
 20
5.2417865634
 40
0.0566666667
100
AcDbArc
 50
72.8953648234
 51
287.1046351766
  0
ARC
  5
4C4
100
AcDbEntity
  8
0
100
AcDbCircle
 62
7
  6
CONTINUOUS
 10
7.1303672814
 20
5.2417865634
 40
0.0525
100
AcDbArc
 50
76.225853002
 51
283.774146998
  0
ARC
  5
4C5
100
AcDbEntity
  8
0
100
AcDbCircle
 62
7
  6
CONTINUOUS
 10
6.9136280508
 20
5.3851198968
 40
0.0166666667
100
AcDbArc
 50
180.25
 51
270.249456955
  0
ARC
  5
4C6
100
AcDbEntity
  8
0
100
AcDbCircle
 62
7
  6
CONTINUOUS
 10
6.8471065119
 20
5.3851198968
 40
0.0166666667
100
AcDbArc
 50
269.750543045
 51
359.75
  0
ARC
  5
4C7
100
AcDbEntity
  8
0
100
AcDbCircle
 62
7
  6
CONTINUOUS
 10
6.7539690831
 20
5.3134532301
 40
0.0083333333
100
AcDbArc
 50
270.0
 51
41.5023374652
  0
ARC
  5
4C8
100
AcDbEntity
  8
0
100
AcDbCircle
 62
7
  6
CONTINUOUS
 10
6.6886768003
 20
5.3134532301
 40
0.0083333333
100
AcDbArc
 50
215.5487440029
 51
270.0
  0
ARC
  5
4C9
100
AcDbEntity
  8
0
100
AcDbCircle
 62
7
  6
CONTINUOUS
 10
6.822033948
 20
5.2967865634
 40
0.0083333333
100
AcDbArc
 50
0.0
 51
90.0
  0
ARC
  5
4CA
100
AcDbEntity
  8
0
100
AcDbCircle
 62
7
  6
CONTINUOUS
 10
7.0720577624
 20
5.3134532301
 40
0.0083333333
100
AcDbArc
 50
270.0
 51
324.4512559971
  0
ARC
  5
4CB
100
AcDbEntity
  8
0
100
AcDbCircle
 62
7
  6
CONTINUOUS
 10
7.6667653931
 20
4.9884532301
 40
0.05
100
AcDbArc
 50
41.8103148958
 51
42.6748987167
  0
ARC
  5
4CC
100
AcDbEntity
  8
0
100
AcDbCircle
 62
7
  6
CONTINUOUS
 10
7.3387006147
 20
5.0134532301
 40
0.0083333333
100
AcDbArc
 50
180.0
 51
270.0
  0
ARC
  5
4CD
100
AcDbEntity
  8
0
100
AcDbCircle
 62
7
  6
CONTINUOUS
 10
7.6814473694
 20
5.0134532301
 40
0.0083333333
100
AcDbArc
 50
270.0
 51
312.4184873
  0
ARC
  5
4CE
100
AcDbEntity
  8
0
100
AcDbCircle
 62
7
  6
CONTINUOUS
 10
7.189265882
 20
5.0628604305
 40
0.3107512796
100
AcDbArc
 50
73.05465974
 51
78.0040750917
  0
ARC
  5
4CF
100
AcDbEntity
  8
0
100
AcDbCircle
 62
7
  6
CONTINUOUS
 10
7.689265882
 20
5.0628604305
 40
0.3107512796
100
AcDbArc
 50
73.05465974
 51
78.0040750917
  0
ARC
  5
4D0
100
AcDbEntity
  8
0
100
AcDbCircle
 62
7
  6
CONTINUOUS
 10
7.2413009924
 20
5.0551198968
 40
0.05
100
AcDbArc
 50
221.8103148958
 51
270.0
  0
ARC
  5
4D1
100
AcDbEntity
  8
0
100
AcDbCircle
 62
7
  6
CONTINUOUS
 10
7.2301460251
 20
5.0353737503
 40
0.0083333333
100
AcDbArc
 50
127.1640093615
 51
132.4184873
  0
ARC
  5
4D2
100
AcDbEntity
  8
0
100
AcDbCircle
 62
7
  6
CONTINUOUS
 10
7.8387006147
 20
5.0134532301
 40
0.0083333333
100
AcDbArc
 50
180.0
 51
270.0
  0
ARC
  5
4D3
100
AcDbEntity
  8
0
100
AcDbCircle
 62
7
  6
CONTINUOUS
 10
8.1814473694
 20
5.0134532301
 40
0.0083333333
100
AcDbArc
 50
270.0
 51
312.4184873
  0
ARC
  5
4D4
100
AcDbEntity
  8
0
100
AcDbCircle
 62
7
  6
CONTINUOUS
 10
7.7413009924
 20
5.0551198968
 40
0.05
100
AcDbArc
 50
221.8103148958
 51
270.0
  0
ARC
  5
4D5
100
AcDbEntity
  8
0
100
AcDbCircle
 62
7
  6
CONTINUOUS
 10
7.7301460251
 20
5.0353737503
 40
0.0083333333
100
AcDbArc
 50
127.1640093615
 51
132.4184873
  0
ARC
  5
4D6
100
AcDbEntity
  8
0
100
AcDbCircle
 62
7
  6
CONTINUOUS
 10
8.2301460251
 20
5.0353737503
 40
0.0083333333
100
AcDbArc
 50
127.1640093615
 51
132.4184873
  0
ARC
  5
4D7
100
AcDbEntity
  8
0
100
AcDbCircle
 62
7
  6
CONTINUOUS
 10
7.6153672814
 20
5.1867865634
 40
0.1816666667
100
AcDbArc
 50
307.1640093615
 51
360.0
  0
ARC
  5
4D8
100
AcDbEntity
  8
0
100
AcDbCircle
 62
7
  6
CONTINUOUS
 10
7.6503672814
 20
5.2217865634
 40
0.1466666667
100
AcDbArc
 50
0.0
 51
90.0
  0
ARC
  5
4D9
100
AcDbEntity
  8
0
100
AcDbCircle
 62
7
  6
CONTINUOUS
 10
7.6303672814
 20
5.2717865634
 40
0.0633333333
100
AcDbArc
 50
35.5487440029
 51
144.4512559971
  0
ARC
  5
4DA
100
AcDbEntity
  8
0
100
AcDbCircle
 62
7
  6
CONTINUOUS
 10
7.6303672814
 20
5.2417865634
 40
0.0566666667
100
AcDbArc
 50
72.8953648234
 51
287.1046351766
  0
ARC
  5
4DB
100
AcDbEntity
  8
0
100
AcDbCircle
 62
7
  6
CONTINUOUS
 10
7.6303672814
 20
5.2417865634
 40
0.0525
100
AcDbArc
 50
76.225853002
 51
283.774146998
  0
ARC
  5
4DC
100
AcDbEntity
  8
0
100
AcDbCircle
 62
7
  6
CONTINUOUS
 10
7.4136280508
 20
5.3851198968
 40
0.0166666667
100
AcDbArc
 50
180.25
 51
270.249456955
  0
ARC
  5
4DD
100
AcDbEntity
  8
0
100
AcDbCircle
 62
7
  6
CONTINUOUS
 10
7.3471065119
 20
5.3851198968
 40
0.0166666667
100
AcDbArc
 50
269.750543045
 51
359.75
  0
ARC
  5
4DE
100
AcDbEntity
  8
0
100
AcDbCircle
 62
7
  6
CONTINUOUS
 10
7.2539690831
 20
5.3134532301
 40
0.0083333333
100
AcDbArc
 50
270.0
 51
41.5023374652
  0
ARC
  5
4DF
100
AcDbEntity
  8
0
100
AcDbCircle
 62
7
  6
CONTINUOUS
 10
7.1886768003
 20
5.3134532301
 40
0.0083333333
100
AcDbArc
 50
215.5487440029
 51
270.0
  0
ARC
  5
4E0
100
AcDbEntity
  8
0
100
AcDbCircle
 62
7
  6
CONTINUOUS
 10
7.322033948
 20
5.2967865634
 40
0.0083333333
100
AcDbArc
 50
0.0
 51
90.0
  0
ARC
  5
4E1
100
AcDbEntity
  8
0
100
AcDbCircle
 62
7
  6
CONTINUOUS
 10
7.5720577624
 20
5.3134532301
 40
0.0083333333
100
AcDbArc
 50
270.0
 51
324.4512559971
  0
ARC
  5
4E2
100
AcDbEntity
  8
0
100
AcDbCircle
 62
7
  6
CONTINUOUS
 10
7.6886768003
 20
5.3134532301
 40
0.0083333333
100
AcDbArc
 50
215.5487440029
 51
270.0
  0
ARC
  5
4E3
100
AcDbEntity
  8
0
100
AcDbCircle
 62
7
  6
CONTINUOUS
 10
8.1153672814
 20
5.1867865634
 40
0.1816666667
100
AcDbArc
 50
307.1640093615
 51
360.0
  0
ARC
  5
4E4
100
AcDbEntity
  8
0
100
AcDbCircle
 62
7
  6
CONTINUOUS
 10
8.1503672814
 20
5.2217865634
 40
0.1466666667
100
AcDbArc
 50
0.0
 51
90.0
  0
ARC
  5
4E5
100
AcDbEntity
  8
0
100
AcDbCircle
 62
7
  6
CONTINUOUS
 10
8.1303672814
 20
5.2717865634
 40
0.0633333333
100
AcDbArc
 50
35.5487440029
 51
144.4512559971
  0
ARC
  5
4E6
100
AcDbEntity
  8
0
100
AcDbCircle
 62
7
  6
CONTINUOUS
 10
8.1303672814
 20
5.2417865634
 40
0.0566666667
100
AcDbArc
 50
72.8953648234
 51
287.1046351766
  0
ARC
  5
4E7
100
AcDbEntity
  8
0
100
AcDbCircle
 62
7
  6
CONTINUOUS
 10
8.1303672814
 20
5.2417865634
 40
0.0525
100
AcDbArc
 50
76.225853002
 51
283.774146998
  0
ARC
  5
4E8
100
AcDbEntity
  8
0
100
AcDbCircle
 62
7
  6
CONTINUOUS
 10
7.9136280508
 20
5.3851198968
 40
0.0166666667
100
AcDbArc
 50
180.25
 51
270.249456955
  0
ARC
  5
4E9
100
AcDbEntity
  8
0
100
AcDbCircle
 62
7
  6
CONTINUOUS
 10
7.8471065119
 20
5.3851198968
 40
0.0166666667
100
AcDbArc
 50
269.750543045
 51
359.75
  0
ARC
  5
4EA
100
AcDbEntity
  8
0
100
AcDbCircle
 62
7
  6
CONTINUOUS
 10
7.7539690831
 20
5.3134532301
 40
0.0083333333
100
AcDbArc
 50
270.0
 51
41.5023374652
  0
ARC
  5
4EB
100
AcDbEntity
  8
0
100
AcDbCircle
 62
7
  6
CONTINUOUS
 10
8.0720577624
 20
5.3134532301
 40
0.0083333333
100
AcDbArc
 50
270.0
 51
324.4512559971
  0
ARC
  5
4EC
100
AcDbEntity
  8
0
100
AcDbCircle
 62
7
  6
CONTINUOUS
 10
8.2539690831
 20
5.3134532301
 40
0.0083333333
100
AcDbArc
 50
270.0
 51
41.5023374652
  0
ARC
  5
4ED
100
AcDbEntity
  8
0
100
AcDbCircle
 62
7
  6
CONTINUOUS
 10
7.822033948
 20
5.2967865634
 40
0.0083333333
100
AcDbArc
 50
0.0
 51
90.0
  0
ARC
  5
4EE
100
AcDbEntity
  8
0
100
AcDbCircle
 62
7
  6
CONTINUOUS
 10
8.1886768003
 20
5.3134532301
 40
0.0083333333
100
AcDbArc
 50
215.5487440029
 51
270.0
  0
ARC
  5
4EF
100
AcDbEntity
  8
0
100
AcDbCircle
 62
7
  6
CONTINUOUS
 10
6.8858279961
 20
6.0267865634
 40
0.0083333333
100
AcDbArc
 50
0.25
 51
90.0
  0
ARC
  5
4F0
100
AcDbEntity
  8
0
100
AcDbCircle
 62
7
  6
CONTINUOUS
 10
6.8749065666
 20
6.0267865634
 40
0.0083333333
100
AcDbArc
 50
90.0
 51
179.75
  0
ARC
  5
4F1
100
AcDbEntity
  8
0
100
AcDbCircle
 62
7
  6
CONTINUOUS
 10
7.3858279961
 20
6.0267865634
 40
0.0083333333
100
AcDbArc
 50
0.25
 51
90.0
  0
ARC
  5
4F2
100
AcDbEntity
  8
0
100
AcDbCircle
 62
7
  6
CONTINUOUS
 10
7.3749065666
 20
6.0267865634
 40
0.0083333333
100
AcDbArc
 50
90.0
 51
179.75
  0
ARC
  5
4F3
100
AcDbEntity
  8
0
100
AcDbCircle
 62
7
  6
CONTINUOUS
 10
7.8858279961
 20
6.0267865634
 40
0.0083333333
100
AcDbArc
 50
0.25
 51
90.0
  0
ARC
  5
4F4
100
AcDbEntity
  8
0
100
AcDbCircle
 62
7
  6
CONTINUOUS
 10
7.8749065666
 20
6.0267865634
 40
0.0083333333
100
AcDbArc
 50
90.0
 51
179.75
  0
ARC
  5
4F5
100
AcDbEntity
  8
0
100
AcDbCircle
 62
7
  6
CONTINUOUS
 10
6.3858279961
 20
6.0267865634
 40
0.0083333333
100
AcDbArc
 50
0.25
 51
90.0
  0
ARC
  5
4F6
100
AcDbEntity
  8
0
100
AcDbCircle
 62
7
  6
CONTINUOUS
 10
6.3749065666
 20
6.0267865634
 40
0.0083333333
100
AcDbArc
 50
90.0
 51
179.75
  0
ARC
  5
4F7
100
AcDbEntity
  8
0
100
AcDbCircle
 62
7
  6
CONTINUOUS
 10
4.6944738908
 20
13.3417144585
 40
0.0083333333
100
AcDbArc
 50
49.6162447729
 51
90.0
  0
ARC
  5
4F8
100
AcDbEntity
  8
0
100
AcDbCircle
 62
7
  6
CONTINUOUS
 10
3.9125387557
 20
12.3600477918
 40
0.0083333333
100
AcDbArc
 50
180.0
 51
270.0
  0
ARC
  5
4F9
100
AcDbEntity
  8
0
100
AcDbCircle
 62
7
  6
CONTINUOUS
 10
4.6944738908
 20
11.8583811252
 40
0.0083333333
100
AcDbArc
 50
270.0
 51
310.4432949439
  0
ARC
  5
4FA
100
AcDbEntity
  8
0
100
AcDbCircle
 62
7
  6
CONTINUOUS
 10
3.9125387557
 20
12.8400477918
 40
0.0083333333
100
AcDbArc
 50
90.0
 51
180.0
  0
ARC
  5
4FB
100
AcDbEntity
  8
0
100
AcDbCircle
 62
7
  6
CONTINUOUS
 10
5.1944738908
 20
13.3417144585
 40
0.0083333333
100
AcDbArc
 50
49.6162447729
 51
90.0
  0
ARC
  5
4FC
100
AcDbEntity
  8
0
100
AcDbCircle
 62
7
  6
CONTINUOUS
 10
5.1944738908
 20
11.8583811252
 40
0.0083333333
100
AcDbArc
 50
270.0
 51
310.4432949439
  0
ARC
  5
4FD
100
AcDbEntity
  8
0
100
AcDbCircle
 62
7
  6
CONTINUOUS
 10
5.6944738908
 20
13.3417144585
 40
0.0083333333
100
AcDbArc
 50
49.6162447729
 51
90.0
  0
ARC
  5
4FE
100
AcDbEntity
  8
0
100
AcDbCircle
 62
7
  6
CONTINUOUS
 10
5.6944738908
 20
11.8583811252
 40
0.0083333333
100
AcDbArc
 50
270.0
 51
310.4432949439
  0
ARC
  5
4FF
100
AcDbEntity
  8
0
100
AcDbCircle
 62
7
  6
CONTINUOUS
 10
6.1944738908
 20
13.3417144585
 40
0.0083333333
100
AcDbArc
 50
49.6162447729
 51
90.0
  0
ARC
  5
500
100
AcDbEntity
  8
0
100
AcDbCircle
 62
7
  6
CONTINUOUS
 10
6.1944738908
 20
11.8583811252
 40
0.0083333333
100
AcDbArc
 50
270.0
 51
310.4432949439
  0
ARC
  5
501
100
AcDbEntity
  8
0
100
AcDbCircle
 62
7
  6
CONTINUOUS
 10
6.6944738908
 20
13.3417144585
 40
0.0083333333
100
AcDbArc
 50
49.6162447729
 51
90.0
  0
ARC
  5
502
100
AcDbEntity
  8
0
100
AcDbCircle
 62
7
  6
CONTINUOUS
 10
6.6944738908
 20
11.8583811252
 40
0.0083333333
100
AcDbArc
 50
270.0
 51
310.4432949439
  0
ARC
  5
503
100
AcDbEntity
  8
0
100
AcDbCircle
 62
7
  6
CONTINUOUS
 10
7.1944738908
 20
13.3417144585
 40
0.0083333333
100
AcDbArc
 50
49.6162447729
 51
90.0
  0
ARC
  5
504
100
AcDbEntity
  8
0
100
AcDbCircle
 62
7
  6
CONTINUOUS
 10
7.1944738908
 20
11.8583811252
 40
0.0083333333
100
AcDbArc
 50
270.0
 51
310.4432949439
  0
ARC
  5
505
100
AcDbEntity
  8
0
100
AcDbCircle
 62
7
  6
CONTINUOUS
 10
7.6944738908
 20
13.3417144585
 40
0.0083333333
100
AcDbArc
 50
49.6162447729
 51
90.0
  0
ARC
  5
506
100
AcDbEntity
  8
0
100
AcDbCircle
 62
7
  6
CONTINUOUS
 10
7.6944738908
 20
11.8583811252
 40
0.0083333333
100
AcDbArc
 50
270.0
 51
310.4432949439
  0
ARC
  5
507
100
AcDbEntity
  8
0
100
AcDbCircle
 62
7
  6
CONTINUOUS
 10
8.1944738908
 20
13.3417144585
 40
0.0083333333
100
AcDbArc
 50
0.0
 51
90.0
  0
ARC
  5
508
100
AcDbEntity
  8
0
100
AcDbCircle
 62
7
  6
CONTINUOUS
 10
8.1944738908
 20
11.8583811252
 40
0.0083333333
100
AcDbArc
 50
270.0
 51
360.0
  0
ARC
  5
509
100
AcDbEntity
  8
0
100
AcDbCircle
 62
7
  6
CONTINUOUS
 10
8.2292054224
 20
12.2350477918
 40
0.0083333333
100
AcDbArc
 50
270.0
 51
360.0
  0
ARC
  5
50A
100
AcDbEntity
  8
0
100
AcDbCircle
 62
7
  6
CONTINUOUS
 10
8.2292054224
 20
12.3350477918
 40
0.0083333333
100
AcDbArc
 50
0.0
 51
90.0
  0
ARC
  5
50B
100
AcDbEntity
  8
0
100
AcDbCircle
 62
7
  6
CONTINUOUS
 10
8.2292054224
 20
12.8650477918
 40
0.0083333333
100
AcDbArc
 50
270.0
 51
360.0
  0
ARC
  5
50C
100
AcDbEntity
  8
0
100
AcDbCircle
 62
7
  6
CONTINUOUS
 10
8.2292054224
 20
12.9650477918
 40
0.0083333333
100
AcDbArc
 50
0.0
 51
90.0
  0
ARC
  5
50D
100
AcDbEntity
  8
0
100
AcDbCircle
 62
7
  6
CONTINUOUS
 10
15.3120990765
 20
5.2955975525
 40
0.0084104761
100
AcDbArc
 50
168.7735745448
 51
179.984937936
  0
ARC
  5
50E
100
AcDbEntity
  8
0
100
AcDbCircle
 62
7
  6
CONTINUOUS
 10
15.3120599964
 20
5.2956036433
 40
0.0083709581
100
AcDbArc
 50
146.2678479207
 51
168.7623894914
  0
ARC
  5
50F
100
AcDbEntity
  8
0
100
AcDbCircle
 62
7
  6
CONTINUOUS
 10
14.8186886007
 20
5.3006247044
 40
0.0083333333
100
AcDbArc
 50
90.0
 51
180.0
  0
ARC
  5
510
100
AcDbEntity
  8
0
100
AcDbCircle
 62
7
  6
CONTINUOUS
 10
14.8186886007
 20
5.2539580378
 40
0.0083333333
100
AcDbArc
 50
180.0
 51
270.0
  0
ARC
  5
511
100
AcDbEntity
  8
0
100
AcDbCircle
 62
7
  6
CONTINUOUS
 10
15.0703552674
 20
4.9539580378
 40
0.0083333333
100
AcDbArc
 50
180.0
 51
270.0
  0
ARC
  5
512
100
AcDbEntity
  8
0
100
AcDbCircle
 62
7
  6
CONTINUOUS
 10
15.0703552674
 20
5.0072913711
 40
0.0083333333
100
AcDbArc
 50
90.0
 51
180.0
  0
ARC
  5
513
100
AcDbEntity
  8
0
100
AcDbCircle
 62
7
  6
CONTINUOUS
 10
15.1786886007
 20
5.0239580378
 40
0.0083333333
100
AcDbArc
 50
270.0
 51
360.0
  0
ARC
  5
514
100
AcDbEntity
  8
0
100
AcDbCircle
 62
7
  6
CONTINUOUS
 10
15.4270219341
 20
4.9539580378
 40
0.0083333333
100
AcDbArc
 50
270.0
 51
360.0
  0
ARC
  5
515
100
AcDbEntity
  8
0
100
AcDbCircle
 62
7
  6
CONTINUOUS
 10
15.2953552674
 20
4.9539580378
 40
0.0083333333
100
AcDbArc
 50
270.0
 51
360.0
  0
ARC
  5
516
100
AcDbEntity
  8
0
100
AcDbCircle
 62
7
  6
CONTINUOUS
 10
15.1953552674
 20
4.9539580378
 40
0.0083333333
100
AcDbArc
 50
180.0
 51
270.0
  0
ARC
  5
517
100
AcDbEntity
  8
0
100
AcDbCircle
 62
7
  6
CONTINUOUS
 10
15.1786886007
 20
5.2372913711
 40
0.0083333333
100
AcDbArc
 50
0.0
 51
90.0
  0
ARC
  5
518
100
AcDbEntity
  8
0
100
AcDbCircle
 62
7
  6
CONTINUOUS
 10
15.3120219341
 20
5.2372913711
 40
0.0083333333
100
AcDbArc
 50
90.0
 51
166.6862377593
  0
ARC
  5
519
100
AcDbEntity
  8
0
100
AcDbCircle
 62
7
  6
CONTINUOUS
 10
15.2953552674
 20
5.3006247044
 40
0.0083333333
100
AcDbArc
 50
0.0
 51
90.0
  0
ARC
  5
51A
100
AcDbEntity
  8
0
100
AcDbCircle
 62
7
  6
CONTINUOUS
 10
15.3120256078
 20
5.2956314243
 40
0.00832677
100
AcDbArc
 50
90.0252789798
 51
146.295422485
  0
ARC
  5
51B
100
AcDbEntity
  8
0
100
AcDbCircle
 62
7
  6
CONTINUOUS
 10
14.8564088353
 20
5.9322913711
 40
0.0433333333
100
AcDbArc
 50
90.0
 51
179.75
  0
ARC
  5
51C
100
AcDbEntity
  8
0
100
AcDbCircle
 62
7
  6
CONTINUOUS
 10
15.8086116551
 20
5.2955975786
 40
0.0084102793
100
AcDbArc
 50
0.014884723
 51
11.1957462249
  0
ARC
  5
51D
100
AcDbEntity
  8
0
100
AcDbCircle
 62
7
  6
CONTINUOUS
 10
15.8086490064
 20
5.2956030632
 40
0.008372574
100
AcDbArc
 50
11.2085562956
 51
31.4433070314
  0
ARC
  5
51E
100
AcDbEntity
  8
0
100
AcDbCircle
 62
7
  6
CONTINUOUS
 10
15.8086886007
 20
5.2372913711
 40
0.0083333333
100
AcDbArc
 50
11.421523596
 51
90.0
  0
ARC
  5
51F
100
AcDbEntity
  8
0
100
AcDbCircle
 62
7
  6
CONTINUOUS
 10
15.6936886007
 20
4.9539580378
 40
0.0083333333
100
AcDbArc
 50
180.0
 51
270.0
  0
ARC
  5
520
100
AcDbEntity
  8
0
100
AcDbCircle
 62
7
  6
CONTINUOUS
 10
15.8253552674
 20
4.9539580378
 40
0.0083333333
100
AcDbArc
 50
180.0
 51
270.0
  0
ARC
  5
521
100
AcDbEntity
  8
0
100
AcDbCircle
 62
7
  6
CONTINUOUS
 10
16.3020219341
 20
5.3006247044
 40
0.0083333333
100
AcDbArc
 50
0.0
 51
90.0
  0
ARC
  5
522
100
AcDbEntity
  8
0
100
AcDbCircle
 62
7
  6
CONTINUOUS
 10
15.8253552674
 20
5.3006247044
 40
0.0083333333
100
AcDbArc
 50
90.0
 51
180.0
  0
ARC
  5
523
100
AcDbEntity
  8
0
100
AcDbCircle
 62
7
  6
CONTINUOUS
 10
15.9253552674
 20
4.9539580378
 40
0.0083333333
100
AcDbArc
 50
270.0
 51
360.0
  0
ARC
  5
524
100
AcDbEntity
  8
0
100
AcDbCircle
 62
7
  6
CONTINUOUS
 10
16.0503552674
 20
4.9539580378
 40
0.0083333333
100
AcDbArc
 50
270.0
 51
360.0
  0
ARC
  5
525
100
AcDbEntity
  8
0
100
AcDbCircle
 62
7
  6
CONTINUOUS
 10
15.9420219341
 20
5.2372913711
 40
0.0083333333
100
AcDbArc
 50
90.0
 51
180.0
  0
ARC
  5
526
100
AcDbEntity
  8
0
100
AcDbCircle
 62
7
  6
CONTINUOUS
 10
15.9420219341
 20
5.0239580378
 40
0.0083333333
100
AcDbArc
 50
180.0
 51
270.0
  0
ARC
  5
527
100
AcDbEntity
  8
0
100
AcDbCircle
 62
7
  6
CONTINUOUS
 10
16.0503552674
 20
5.0072913711
 40
0.0083333333
100
AcDbArc
 50
0.0
 51
90.0
  0
ARC
  5
528
100
AcDbEntity
  8
0
100
AcDbCircle
 62
7
  6
CONTINUOUS
 10
16.3020219341
 20
5.2539580378
 40
0.0083333333
100
AcDbArc
 50
270.0
 51
360.0
  0
ARC
  5
529
100
AcDbEntity
  8
0
100
AcDbCircle
 62
7
  6
CONTINUOUS
 10
15.8086845587
 20
5.2956304302
 40
0.0083277861
100
AcDbArc
 50
31.4102677881
 51
89.9721899246
  0
ARC
  5
52A
100
AcDbEntity
  8
0
100
AcDbCircle
 62
7
  6
CONTINUOUS
 10
13.5228099717
 20
12.1439045714
 40
0.1541780784
100
AcDbArc
 50
218.1692708104
 51
219.6346725397
  0
ARC
  5
52B
100
AcDbEntity
  8
0
100
AcDbCircle
 62
7
  6
CONTINUOUS
 10
13.4081687274
 20
12.0537856987
 40
0.0083561807
100
AcDbArc
 50
206.1550091512
 51
218.1443302008
  0
ARC
  5
52C
100
AcDbEntity
  8
0
100
AcDbCircle
 62
7
  6
CONTINUOUS
 10
13.8009793533
 20
11.7390380606
 40
0.0083344751
100
AcDbArc
 50
270.0063901056
 51
330.3961994963
  0
ARC
  5
52D
100
AcDbEntity
  8
0
100
AcDbCircle
 62
7
  6
CONTINUOUS
 10
14.2615098503
 20
11.7390380606
 40
0.0083344751
100
AcDbArc
 50
270.0063901056
 51
330.3961994963
  0
ARC
  5
52E
100
AcDbEntity
  8
0
100
AcDbCircle
 62
7
  6
CONTINUOUS
 10
14.7220403473
 20
11.7390380606
 40
0.0083344751
100
AcDbArc
 50
270.0063901056
 51
330.3961994963
  0
ARC
  5
52F
100
AcDbEntity
  8
0
100
AcDbCircle
 62
7
  6
CONTINUOUS
 10
15.1825708443
 20
11.7390380606
 40
0.0083344751
100
AcDbArc
 50
270.0063901056
 51
330.3961994963
  0
ARC
  5
530
100
AcDbEntity
  8
0
100
AcDbCircle
 62
7
  6
CONTINUOUS
 10
13.9083935888
 20
11.7390370897
 40
0.0083334891
100
AcDbArc
 50
237.16396591
 51
269.984322762
  0
ARC
  5
531
100
AcDbEntity
  8
0
100
AcDbCircle
 62
7
  6
CONTINUOUS
 10
14.3689240858
 20
11.7390370897
 40
0.0083334891
100
AcDbArc
 50
237.16396591
 51
269.984322762
  0
ARC
  5
532
100
AcDbEntity
  8
0
100
AcDbCircle
 62
7
  6
CONTINUOUS
 10
14.8294545828
 20
11.7390370897
 40
0.0083334891
100
AcDbArc
 50
237.16396591
 51
269.984322762
  0
ARC
  5
533
100
AcDbEntity
  8
0
100
AcDbCircle
 62
7
  6
CONTINUOUS
 10
15.2899850798
 20
11.7390370897
 40
0.0083334891
100
AcDbArc
 50
237.1639659102
 51
269.984322762
  0
ARC
  5
534
100
AcDbEntity
  8
0
100
AcDbCircle
 62
7
  6
CONTINUOUS
 10
13.9685316841
 20
11.7390369255
 40
0.0083333145
100
AcDbArc
 50
270.0001415949
 51
342.8277820121
  0
ARC
  5
535
100
AcDbEntity
  8
0
100
AcDbCircle
 62
7
  6
CONTINUOUS
 10
14.4290621811
 20
11.7390369255
 40
0.0083333145
100
AcDbArc
 50
270.0001415949
 51
342.8277820121
  0
ARC
  5
536
100
AcDbEntity
  8
0
100
AcDbCircle
 62
7
  6
CONTINUOUS
 10
14.8895926781
 20
11.7390369255
 40
0.0083333145
100
AcDbArc
 50
270.0001415949
 51
342.8277820121
  0
ARC
  5
537
100
AcDbEntity
  8
0
100
AcDbCircle
 62
7
  6
CONTINUOUS
 10
15.3501231751
 20
11.7390369255
 40
0.0083333145
100
AcDbArc
 50
270.0001415949
 51
342.8277820121
  0
ARC
  5
538
100
AcDbEntity
  8
0
100
AcDbCircle
 62
7
  6
CONTINUOUS
 10
13.5734754353
 20
11.7390360367
 40
0.0083324275
100
AcDbArc
 50
234.7774841169
 51
270.0019770596
  0
ARC
  5
539
100
AcDbEntity
  8
0
100
AcDbCircle
 62
7
  6
CONTINUOUS
 10
14.0340059323
 20
11.7390360367
 40
0.0083324275
100
AcDbArc
 50
234.7774841169
 51
270.0019770596
  0
ARC
  5
53A
100
AcDbEntity
  8
0
100
AcDbCircle
 62
7
  6
CONTINUOUS
 10
14.4945364293
 20
11.7390360367
 40
0.0083324275
100
AcDbArc
 50
234.7774841169
 51
270.0019770596
  0
ARC
  5
53B
100
AcDbEntity
  8
0
100
AcDbCircle
 62
7
  6
CONTINUOUS
 10
14.9550669263
 20
11.7390360367
 40
0.0083324275
100
AcDbArc
 50
234.7774841169
 51
270.0019770596
  0
ARC
  5
53C
100
AcDbEntity
  8
0
100
AcDbCircle
 62
7
  6
CONTINUOUS
 10
15.4155974233
 20
11.7390360367
 40
0.0083324275
100
AcDbArc
 50
234.7774841169
 51
270.0019770596
  0
ARC
  5
53D
100
AcDbEntity
  8
0
100
AcDbCircle
 62
7
  6
CONTINUOUS
 10
17.2993774906
 20
12.1011765791
 40
0.232489837
100
AcDbArc
 50
105.9128209538
 51
125.9641176224
  0
ARC
  5
53E
100
AcDbEntity
  8
0
100
AcDbCircle
 62
7
  6
CONTINUOUS
 10
17.2906677511
 20
11.9906801833
 40
0.1059121183
100
AcDbArc
 50
24.1864181549
 51
26.1491805026
  0
ARC
  5
53F
100
AcDbEntity
  8
0
100
AcDbCircle
 62
7
  6
CONTINUOUS
 10
15.6431013413
 20
11.7390380606
 40
0.0083344751
100
AcDbArc
 50
270.0063901056
 51
330.3961994963
  0
ARC
  5
540
100
AcDbEntity
  8
0
100
AcDbCircle
 62
7
  6
CONTINUOUS
 10
16.1036318383
 20
11.7390380606
 40
0.0083344751
100
AcDbArc
 50
270.0063901056
 51
330.3961994963
  0
ARC
  5
541
100
AcDbEntity
  8
0
100
AcDbCircle
 62
7
  6
CONTINUOUS
 10
16.5641623353
 20
11.7390380606
 40
0.0083344751
100
AcDbArc
 50
270.0063901056
 51
330.3961994963
  0
ARC
  5
542
100
AcDbEntity
  8
0
100
AcDbCircle
 62
7
  6
CONTINUOUS
 10
17.0246928323
 20
11.7390380606
 40
0.0083344751
100
AcDbArc
 50
270.0063901056
 51
330.3961994963
  0
ARC
  5
543
100
AcDbEntity
  8
0
100
AcDbCircle
 62
7
  6
CONTINUOUS
 10
15.7505155768
 20
11.7390370897
 40
0.0083334891
100
AcDbArc
 50
237.16396591
 51
269.984322762
  0
ARC
  5
544
100
AcDbEntity
  8
0
100
AcDbCircle
 62
7
  6
CONTINUOUS
 10
16.2110460738
 20
11.7390370897
 40
0.0083334891
100
AcDbArc
 50
237.16396591
 51
269.984322762
  0
ARC
  5
545
100
AcDbEntity
  8
0
100
AcDbCircle
 62
7
  6
CONTINUOUS
 10
16.6715765708
 20
11.7390370897
 40
0.0083334891
100
AcDbArc
 50
237.16396591
 51
269.984322762
  0
ARC
  5
546
100
AcDbEntity
  8
0
100
AcDbCircle
 62
7
  6
CONTINUOUS
 10
17.1321070678
 20
11.7390370897
 40
0.0083334891
100
AcDbArc
 50
237.16396591
 51
269.984322762
  0
ARC
  5
547
100
AcDbEntity
  8
0
100
AcDbCircle
 62
7
  6
CONTINUOUS
 10
15.8106536721
 20
11.7390369255
 40
0.0083333145
100
AcDbArc
 50
270.0001415949
 51
342.8277820121
  0
ARC
  5
548
100
AcDbEntity
  8
0
100
AcDbCircle
 62
7
  6
CONTINUOUS
 10
16.2711841691
 20
11.7390369255
 40
0.0083333145
100
AcDbArc
 50
270.0001415949
 51
342.8277820121
  0
ARC
  5
549
100
AcDbEntity
  8
0
100
AcDbCircle
 62
7
  6
CONTINUOUS
 10
16.7317146661
 20
11.7390369255
 40
0.0083333145
100
AcDbArc
 50
270.0001415949
 51
342.8277820121
  0
ARC
  5
54A
100
AcDbEntity
  8
0
100
AcDbCircle
 62
7
  6
CONTINUOUS
 10
17.1922451631
 20
11.7390369255
 40
0.0083333145
100
AcDbArc
 50
270.0001415949
 51
342.8277820121
  0
ARC
  5
54B
100
AcDbEntity
  8
0
100
AcDbCircle
 62
7
  6
CONTINUOUS
 10
15.8761279203
 20
11.7390360367
 40
0.0083324275
100
AcDbArc
 50
234.7774841169
 51
270.0019770596
  0
ARC
  5
54C
100
AcDbEntity
  8
0
100
AcDbCircle
 62
7
  6
CONTINUOUS
 10
16.3366584173
 20
11.7390360367
 40
0.0083324275
100
AcDbArc
 50
234.7774841169
 51
270.0019770596
  0
ARC
  5
54D
100
AcDbEntity
  8
0
100
AcDbCircle
 62
7
  6
CONTINUOUS
 10
16.7971889143
 20
11.7390360367
 40
0.0083324275
100
AcDbArc
 50
234.7774841169
 51
270.0019770596
  0
ARC
  5
54E
100
AcDbEntity
  8
0
100
AcDbCircle
 62
7
  6
CONTINUOUS
 10
17.3081395217
 20
11.8476060721
 40
0.0083323175
100
AcDbArc
 50
269.9973546949
 51
311.4867465248
  0
ARC
  5
54F
100
AcDbEntity
  8
0
100
AcDbCircle
 62
7
  6
CONTINUOUS
 10
17.3722328798
 20
12.4441825752
 40
0.1923449353
100
AcDbArc
 50
54.5004669981
 51
55.3502335783
  0
ARC
  5
550
100
AcDbEntity
  8
0
100
AcDbCircle
 62
7
  6
CONTINUOUS
 10
17.4431695349
 20
12.4841761363
 40
0.1059121183
100
AcDbArc
 50
24.186418155
 51
26.1491805027
  0
ARC
  5
551
100
AcDbEntity
  8
0
100
AcDbCircle
 62
7
  6
CONTINUOUS
 10
17.5512746452
 20
12.9009761947
 40
0.0083686146
100
AcDbArc
 50
342.871195603
 51
3.2335715085
  0
ARC
  5
552
100
AcDbEntity
  8
0
100
AcDbCircle
 62
7
  6
CONTINUOUS
 10
17.5513083354
 20
12.9009713921
 40
0.0083352516
100
AcDbArc
 50
3.2795942414
 51
60.9404923938
  0
ARC
  5
553
100
AcDbEntity
  8
0
100
AcDbCircle
 62
7
  6
CONTINUOUS
 10
17.4606413055
 20
12.3411020252
 40
0.0083323175
100
AcDbArc
 50
269.9973546948
 51
311.4867465249
  0
LINE
  5
554
100
AcDbEntity
  8
0
100
AcDbLine
 62
7
  6
CONTINUOUS
 10
4.2538531102
 20
5.3668253024
 11
4.2536803166
 21
5.3684532301
  0
LINE
  5
555
100
AcDbEntity
  8
0
100
AcDbLine
 62
7
  6
CONTINUOUS
 10
4.2536849676
 20
5.3651198968
 11
4.2538531102
 21
5.3668253024
  0
SPLINE
  5
556
100
AcDbEntity
  8
0
100
AcDbSpline
 62
7
  6
CONTINUOUS
 70
0
 71
3
 72
22
 73
18
 74
0
 42
0.0000001
 43
0.0000001
 44
0.0000000001
 40
0.0
 40
0.0
 40
0.0
 40
0.0
 40
0.1861526296
 40
0.3669600719
 40
0.5366235183
 40
0.6153543687
 40
0.688914904
 40
0.7564469676
 40
0.817138998
 40
0.8702256768
 40
0.9148423895
 40
0.9501065085
 40
0.9760233404
 40
0.9856551222
 40
0.9929703286
 40
0.9977448431
 40
1.0
 40
1.0
 40
1.0
 40
1.0
 10
4.236452737
 20
5.3560675533
 30
0.0
 10
4.236452737
 20
5.3566303519
 30
0.0
 10
4.2364559645
 20
5.3577397919
 30
0.0
 10
4.2364704169
 20
5.3593621204
 30
0.0
 10
4.2364907867
 20
5.3606595885
 30
0.0
 10
4.2365124008
 20
5.361632723
 30
0.0
 10
4.2365304572
 20
5.3622970784
 30
0.0
 10
4.2365506424
 20
5.3629068035
 30
0.0
 10
4.2365727939
 20
5.3634545357
 30
0.0
 10
4.2365966289
 20
5.3639327894
 30
0.0
 10
4.2366218212
 20
5.3643341376
 30
0.0
 10
4.236648069
 20
5.3646526342
 30
0.0
 10
4.2366728376
 20
5.3648660323
 30
0.0
 10
4.236693226
 20
5.3649930824
 30
0.0
 10
4.2367079198
 20
5.3650589314
 30
0.0
 10
4.2367190338
 20
5.3650972211
 30
0.0
 10
4.2367327628
 20
5.3651198988
 30
0.0
 10
4.2367395809
 20
5.3651198968
 30
0.0
  0
LINE
  5
557
100
AcDbEntity
  8
0
100
AcDbLine
 62
7
  6
CONTINUOUS
 10
4.7538531102
 20
5.3668253024
 11
4.7536803166
 21
5.3684532301
  0
LINE
  5
558
100
AcDbEntity
  8
0
100
AcDbLine
 62
7
  6
CONTINUOUS
 10
4.7536849676
 20
5.3651198968
 11
4.7538531102
 21
5.3668253024
  0
SPLINE
  5
559
100
AcDbEntity
  8
0
100
AcDbSpline
 62
7
  6
CONTINUOUS
 70
0
 71
3
 72
22
 73
18
 74
0
 42
0.0000001
 43
0.0000001
 44
0.0000000001
 40
0.0
 40
0.0
 40
0.0
 40
0.0
 40
0.1861526296
 40
0.3669600719
 40
0.5366235183
 40
0.6153543687
 40
0.688914904
 40
0.7564469676
 40
0.817138998
 40
0.8702256768
 40
0.9148423895
 40
0.9501065085
 40
0.9760233404
 40
0.9856551222
 40
0.9929703286
 40
0.9977448431
 40
1.0
 40
1.0
 40
1.0
 40
1.0
 10
4.736452737
 20
5.3560675533
 30
0.0
 10
4.736452737
 20
5.3566303519
 30
0.0
 10
4.7364559645
 20
5.3577397919
 30
0.0
 10
4.7364704169
 20
5.3593621204
 30
0.0
 10
4.7364907867
 20
5.3606595885
 30
0.0
 10
4.7365124008
 20
5.361632723
 30
0.0
 10
4.7365304572
 20
5.3622970784
 30
0.0
 10
4.7365506424
 20
5.3629068035
 30
0.0
 10
4.7365727939
 20
5.3634545357
 30
0.0
 10
4.7365966289
 20
5.3639327894
 30
0.0
 10
4.7366218212
 20
5.3643341376
 30
0.0
 10
4.736648069
 20
5.3646526342
 30
0.0
 10
4.7366728376
 20
5.3648660323
 30
0.0
 10
4.736693226
 20
5.3649930824
 30
0.0
 10
4.7367079198
 20
5.3650589314
 30
0.0
 10
4.7367190338
 20
5.3650972211
 30
0.0
 10
4.7367327628
 20
5.3651198988
 30
0.0
 10
4.7367395809
 20
5.3651198968
 30
0.0
  0
LINE
  5
55A
100
AcDbEntity
  8
0
100
AcDbLine
 62
7
  6
CONTINUOUS
 10
5.2538531102
 20
5.3668253024
 11
5.2536803166
 21
5.3684532301
  0
LINE
  5
55B
100
AcDbEntity
  8
0
100
AcDbLine
 62
7
  6
CONTINUOUS
 10
5.2536849676
 20
5.3651198968
 11
5.2538531102
 21
5.3668253024
  0
SPLINE
  5
55C
100
AcDbEntity
  8
0
100
AcDbSpline
 62
7
  6
CONTINUOUS
 70
0
 71
3
 72
22
 73
18
 74
0
 42
0.0000001
 43
0.0000001
 44
0.0000000001
 40
0.0
 40
0.0
 40
0.0
 40
0.0
 40
0.1861526296
 40
0.3669600719
 40
0.5366235183
 40
0.6153543687
 40
0.688914904
 40
0.7564469676
 40
0.817138998
 40
0.8702256768
 40
0.9148423895
 40
0.9501065085
 40
0.9760233404
 40
0.9856551222
 40
0.9929703286
 40
0.9977448431
 40
1.0
 40
1.0
 40
1.0
 40
1.0
 10
5.236452737
 20
5.3560675533
 30
0.0
 10
5.236452737
 20
5.3566303519
 30
0.0
 10
5.2364559645
 20
5.3577397919
 30
0.0
 10
5.2364704169
 20
5.3593621204
 30
0.0
 10
5.2364907867
 20
5.3606595885
 30
0.0
 10
5.2365124008
 20
5.361632723
 30
0.0
 10
5.2365304572
 20
5.3622970784
 30
0.0
 10
5.2365506424
 20
5.3629068035
 30
0.0
 10
5.2365727939
 20
5.3634545357
 30
0.0
 10
5.2365966289
 20
5.3639327894
 30
0.0
 10
5.2366218212
 20
5.3643341376
 30
0.0
 10
5.236648069
 20
5.3646526342
 30
0.0
 10
5.2366728376
 20
5.3648660323
 30
0.0
 10
5.236693226
 20
5.3649930824
 30
0.0
 10
5.2367079198
 20
5.3650589314
 30
0.0
 10
5.2367190338
 20
5.3650972211
 30
0.0
 10
5.2367327628
 20
5.3651198988
 30
0.0
 10
5.2367395809
 20
5.3651198968
 30
0.0
  0
LINE
  5
55D
100
AcDbEntity
  8
0
100
AcDbLine
 62
7
  6
CONTINUOUS
 10
5.7538531102
 20
5.3668253024
 11
5.7536803166
 21
5.3684532301
  0
LINE
  5
55E
100
AcDbEntity
  8
0
100
AcDbLine
 62
7
  6
CONTINUOUS
 10
5.7536849676
 20
5.3651198968
 11
5.7538531102
 21
5.3668253024
  0
SPLINE
  5
55F
100
AcDbEntity
  8
0
100
AcDbSpline
 62
7
  6
CONTINUOUS
 70
0
 71
3
 72
22
 73
18
 74
0
 42
0.0000001
 43
0.0000001
 44
0.0000000001
 40
0.0
 40
0.0
 40
0.0
 40
0.0
 40
0.1861526296
 40
0.3669600719
 40
0.5366235183
 40
0.6153543687
 40
0.688914904
 40
0.7564469676
 40
0.817138998
 40
0.8702256768
 40
0.9148423895
 40
0.9501065085
 40
0.9760233404
 40
0.9856551222
 40
0.9929703286
 40
0.9977448431
 40
1.0
 40
1.0
 40
1.0
 40
1.0
 10
5.736452737
 20
5.3560675533
 30
0.0
 10
5.736452737
 20
5.3566303519
 30
0.0
 10
5.7364559645
 20
5.3577397919
 30
0.0
 10
5.7364704169
 20
5.3593621204
 30
0.0
 10
5.7364907867
 20
5.3606595885
 30
0.0
 10
5.7365124008
 20
5.361632723
 30
0.0
 10
5.7365304572
 20
5.3622970784
 30
0.0
 10
5.7365506424
 20
5.3629068035
 30
0.0
 10
5.7365727939
 20
5.3634545357
 30
0.0
 10
5.7365966289
 20
5.3639327894
 30
0.0
 10
5.7366218212
 20
5.3643341376
 30
0.0
 10
5.736648069
 20
5.3646526342
 30
0.0
 10
5.7366728376
 20
5.3648660323
 30
0.0
 10
5.736693226
 20
5.3649930824
 30
0.0
 10
5.7367079198
 20
5.3650589314
 30
0.0
 10
5.7367190338
 20
5.3650972211
 30
0.0
 10
5.7367327628
 20
5.3651198988
 30
0.0
 10
5.7367395809
 20
5.3651198968
 30
0.0
  0
LINE
  5
560
100
AcDbEntity
  8
0
100
AcDbLine
 62
7
  6
CONTINUOUS
 10
6.2538531102
 20
5.3668253024
 11
6.2536803166
 21
5.3684532301
  0
LINE
  5
561
100
AcDbEntity
  8
0
100
AcDbLine
 62
7
  6
CONTINUOUS
 10
6.2536849676
 20
5.3651198968
 11
6.2538531102
 21
5.3668253024
  0
SPLINE
  5
562
100
AcDbEntity
  8
0
100
AcDbSpline
 62
7
  6
CONTINUOUS
 70
0
 71
3
 72
22
 73
18
 74
0
 42
0.0000001
 43
0.0000001
 44
0.0000000001
 40
0.0
 40
0.0
 40
0.0
 40
0.0
 40
0.1861526296
 40
0.3669600719
 40
0.5366235183
 40
0.6153543687
 40
0.688914904
 40
0.7564469676
 40
0.817138998
 40
0.8702256768
 40
0.9148423895
 40
0.9501065085
 40
0.9760233404
 40
0.9856551222
 40
0.9929703286
 40
0.9977448431
 40
1.0
 40
1.0
 40
1.0
 40
1.0
 10
6.236452737
 20
5.3560675533
 30
0.0
 10
6.236452737
 20
5.3566303519
 30
0.0
 10
6.2364559645
 20
5.3577397919
 30
0.0
 10
6.2364704169
 20
5.3593621204
 30
0.0
 10
6.2364907867
 20
5.3606595885
 30
0.0
 10
6.2365124008
 20
5.361632723
 30
0.0
 10
6.2365304572
 20
5.3622970784
 30
0.0
 10
6.2365506424
 20
5.3629068035
 30
0.0
 10
6.2365727939
 20
5.3634545357
 30
0.0
 10
6.2365966289
 20
5.3639327894
 30
0.0
 10
6.2366218212
 20
5.3643341376
 30
0.0
 10
6.236648069
 20
5.3646526342
 30
0.0
 10
6.2366728376
 20
5.3648660323
 30
0.0
 10
6.236693226
 20
5.3649930824
 30
0.0
 10
6.2367079198
 20
5.3650589314
 30
0.0
 10
6.2367190338
 20
5.3650972211
 30
0.0
 10
6.2367327628
 20
5.3651198988
 30
0.0
 10
6.2367395809
 20
5.3651198968
 30
0.0
  0
LINE
  5
563
100
AcDbEntity
  8
0
100
AcDbLine
 62
7
  6
CONTINUOUS
 10
6.7538531102
 20
5.3668253024
 11
6.7536803166
 21
5.3684532301
  0
LINE
  5
564
100
AcDbEntity
  8
0
100
AcDbLine
 62
7
  6
CONTINUOUS
 10
6.7536849676
 20
5.3651198968
 11
6.7538531102
 21
5.3668253024
  0
SPLINE
  5
565
100
AcDbEntity
  8
0
100
AcDbSpline
 62
7
  6
CONTINUOUS
 70
0
 71
3
 72
22
 73
18
 74
0
 42
0.0000001
 43
0.0000001
 44
0.0000000001
 40
0.0
 40
0.0
 40
0.0
 40
0.0
 40
0.1861526296
 40
0.3669600719
 40
0.5366235183
 40
0.6153543687
 40
0.688914904
 40
0.7564469676
 40
0.817138998
 40
0.8702256768
 40
0.9148423895
 40
0.9501065085
 40
0.9760233404
 40
0.9856551222
 40
0.9929703286
 40
0.9977448431
 40
1.0
 40
1.0
 40
1.0
 40
1.0
 10
6.736452737
 20
5.3560675533
 30
0.0
 10
6.736452737
 20
5.3566303519
 30
0.0
 10
6.7364559645
 20
5.3577397919
 30
0.0
 10
6.7364704169
 20
5.3593621204
 30
0.0
 10
6.7364907867
 20
5.3606595885
 30
0.0
 10
6.7365124008
 20
5.361632723
 30
0.0
 10
6.7365304572
 20
5.3622970784
 30
0.0
 10
6.7365506424
 20
5.3629068035
 30
0.0
 10
6.7365727939
 20
5.3634545357
 30
0.0
 10
6.7365966289
 20
5.3639327894
 30
0.0
 10
6.7366218212
 20
5.3643341376
 30
0.0
 10
6.736648069
 20
5.3646526342
 30
0.0
 10
6.7366728376
 20
5.3648660323
 30
0.0
 10
6.736693226
 20
5.3649930824
 30
0.0
 10
6.7367079198
 20
5.3650589314
 30
0.0
 10
6.7367190338
 20
5.3650972211
 30
0.0
 10
6.7367327628
 20
5.3651198988
 30
0.0
 10
6.7367395809
 20
5.3651198968
 30
0.0
  0
LINE
  5
566
100
AcDbEntity
  8
0
100
AcDbLine
 62
7
  6
CONTINUOUS
 10
7.2538531102
 20
5.3668253024
 11
7.2536803166
 21
5.3684532301
  0
LINE
  5
567
100
AcDbEntity
  8
0
100
AcDbLine
 62
7
  6
CONTINUOUS
 10
7.2536849676
 20
5.3651198968
 11
7.2538531102
 21
5.3668253024
  0
SPLINE
  5
568
100
AcDbEntity
  8
0
100
AcDbSpline
 62
7
  6
CONTINUOUS
 70
0
 71
3
 72
22
 73
18
 74
0
 42
0.0000001
 43
0.0000001
 44
0.0000000001
 40
0.0
 40
0.0
 40
0.0
 40
0.0
 40
0.1861526296
 40
0.3669600719
 40
0.5366235183
 40
0.6153543687
 40
0.688914904
 40
0.7564469676
 40
0.817138998
 40
0.8702256768
 40
0.9148423895
 40
0.9501065085
 40
0.9760233404
 40
0.9856551222
 40
0.9929703286
 40
0.9977448431
 40
1.0
 40
1.0
 40
1.0
 40
1.0
 10
7.236452737
 20
5.3560675533
 30
0.0
 10
7.236452737
 20
5.3566303519
 30
0.0
 10
7.2364559645
 20
5.3577397919
 30
0.0
 10
7.2364704169
 20
5.3593621204
 30
0.0
 10
7.2364907867
 20
5.3606595885
 30
0.0
 10
7.2365124008
 20
5.361632723
 30
0.0
 10
7.2365304572
 20
5.3622970784
 30
0.0
 10
7.2365506424
 20
5.3629068035
 30
0.0
 10
7.2365727939
 20
5.3634545357
 30
0.0
 10
7.2365966289
 20
5.3639327894
 30
0.0
 10
7.2366218212
 20
5.3643341376
 30
0.0
 10
7.236648069
 20
5.3646526342
 30
0.0
 10
7.2366728376
 20
5.3648660323
 30
0.0
 10
7.236693226
 20
5.3649930824
 30
0.0
 10
7.2367079198
 20
5.3650589314
 30
0.0
 10
7.2367190338
 20
5.3650972211
 30
0.0
 10
7.2367327628
 20
5.3651198988
 30
0.0
 10
7.2367395809
 20
5.3651198968
 30
0.0
  0
LINE
  5
569
100
AcDbEntity
  8
0
100
AcDbLine
 62
7
  6
CONTINUOUS
 10
7.7538531102
 20
5.3668253024
 11
7.7536803166
 21
5.3684532301
  0
LINE
  5
56A
100
AcDbEntity
  8
0
100
AcDbLine
 62
7
  6
CONTINUOUS
 10
7.7536849676
 20
5.3651198968
 11
7.7538531102
 21
5.3668253024
  0
SPLINE
  5
56B
100
AcDbEntity
  8
0
100
AcDbSpline
 62
7
  6
CONTINUOUS
 70
0
 71
3
 72
22
 73
18
 74
0
 42
0.0000001
 43
0.0000001
 44
0.0000000001
 40
0.0
 40
0.0
 40
0.0
 40
0.0
 40
0.1861526296
 40
0.3669600719
 40
0.5366235183
 40
0.6153543687
 40
0.688914904
 40
0.7564469676
 40
0.817138998
 40
0.8702256768
 40
0.9148423895
 40
0.9501065085
 40
0.9760233404
 40
0.9856551222
 40
0.9929703286
 40
0.9977448431
 40
1.0
 40
1.0
 40
1.0
 40
1.0
 10
7.736452737
 20
5.3560675533
 30
0.0
 10
7.736452737
 20
5.3566303519
 30
0.0
 10
7.7364559645
 20
5.3577397919
 30
0.0
 10
7.7364704169
 20
5.3593621204
 30
0.0
 10
7.7364907867
 20
5.3606595885
 30
0.0
 10
7.7365124008
 20
5.361632723
 30
0.0
 10
7.7365304572
 20
5.3622970784
 30
0.0
 10
7.7365506424
 20
5.3629068035
 30
0.0
 10
7.7365727939
 20
5.3634545357
 30
0.0
 10
7.7365966289
 20
5.3639327894
 30
0.0
 10
7.7366218212
 20
5.3643341376
 30
0.0
 10
7.736648069
 20
5.3646526342
 30
0.0
 10
7.7366728376
 20
5.3648660323
 30
0.0
 10
7.736693226
 20
5.3649930824
 30
0.0
 10
7.7367079198
 20
5.3650589314
 30
0.0
 10
7.7367190338
 20
5.3650972211
 30
0.0
 10
7.7367327628
 20
5.3651198988
 30
0.0
 10
7.7367395809
 20
5.3651198968
 30
0.0
  0
SPLINE
  5
56C
100
AcDbEntity
  8
0
100
AcDbSpline
 62
7
  6
CONTINUOUS
 70
0
 71
3
 72
11
 73
7
 74
0
 42
0.0000001
 43
0.0000001
 44
0.0000000001
 40
0.0
 40
0.0
 40
0.0
 40
0.0
 40
0.2477681254
 40
0.4971019925
 40
0.7478596734
 40
1.0
 40
1.0
 40
1.0
 40
1.0
 10
4.2198336348
 20
11.8500489995
 30
0.0
 10
4.2177057329
 20
11.8500600913
 30
0.0
 10
4.2134365606
 20
11.8502336726
 30
0.0
 10
4.2070414619
 20
11.8508668006
 30
0.0
 10
4.2006575831
 20
11.8518769986
 30
0.0
 10
4.1964390215
 20
11.8528351467
 30
0.0
 10
4.1943578947
 20
11.8534336607
 30
0.0
  0
SPLINE
  5
56D
100
AcDbEntity
  8
0
100
AcDbSpline
 62
7
  6
CONTINUOUS
 70
0
 71
3
 72
11
 73
7
 74
0
 42
0.0000001
 43
0.0000001
 44
0.0000000001
 40
0.0
 40
0.0
 40
0.0
 40
0.0
 40
0.2521776924
 40
0.502941736
 40
0.7522454806
 40
1.0
 40
1.0
 40
1.0
 40
1.0
 10
4.1943578968
 20
13.3466619792
 30
0.0
 10
4.1964803188
 20
13.3472726369
 30
0.0
 10
4.2007835604
 20
13.3482460651
 30
0.0
 10
4.2072954198
 20
13.3492641045
 30
0.0
 10
4.2138182345
 20
13.3498926727
 30
0.0
 10
4.2181722521
 20
13.3500477918
 30
0.0
 10
4.2203420388
 20
13.3500477918
 30
0.0
  0
SPLINE
  5
56E
100
AcDbEntity
  8
0
100
AcDbSpline
 62
7
  6
CONTINUOUS
 70
0
 71
3
 72
11
 73
7
 74
0
 42
0.0000001
 43
0.0000001
 44
0.0000000001
 40
0.0
 40
0.0
 40
0.0
 40
0.0
 40
0.2477681254
 40
0.4971019925
 40
0.7478596734
 40
1.0
 40
1.0
 40
1.0
 40
1.0
 10
4.7198336348
 20
11.8500489995
 30
0.0
 10
4.7177057329
 20
11.8500600913
 30
0.0
 10
4.7134365606
 20
11.8502336726
 30
0.0
 10
4.7070414619
 20
11.8508668006
 30
0.0
 10
4.7006575831
 20
11.8518769986
 30
0.0
 10
4.6964390215
 20
11.8528351467
 30
0.0
 10
4.6943578947
 20
11.8534336607
 30
0.0
  0
SPLINE
  5
56F
100
AcDbEntity
  8
0
100
AcDbSpline
 62
7
  6
CONTINUOUS
 70
0
 71
3
 72
11
 73
7
 74
0
 42
0.0000001
 43
0.0000001
 44
0.0000000001
 40
0.0
 40
0.0
 40
0.0
 40
0.0
 40
0.2521776924
 40
0.502941736
 40
0.7522454806
 40
1.0
 40
1.0
 40
1.0
 40
1.0
 10
4.6943578968
 20
13.3466619792
 30
0.0
 10
4.6964803188
 20
13.3472726369
 30
0.0
 10
4.7007835604
 20
13.3482460651
 30
0.0
 10
4.7072954198
 20
13.3492641045
 30
0.0
 10
4.7138182345
 20
13.3498926727
 30
0.0
 10
4.7181722521
 20
13.3500477918
 30
0.0
 10
4.7203420388
 20
13.3500477918
 30
0.0
  0
SPLINE
  5
570
100
AcDbEntity
  8
0
100
AcDbSpline
 62
7
  6
CONTINUOUS
 70
0
 71
3
 72
11
 73
7
 74
0
 42
0.0000001
 43
0.0000001
 44
0.0000000001
 40
0.0
 40
0.0
 40
0.0
 40
0.0
 40
0.2477681254
 40
0.4971019925
 40
0.7478596734
 40
1.0
 40
1.0
 40
1.0
 40
1.0
 10
5.2198336348
 20
11.8500489995
 30
0.0
 10
5.2177057329
 20
11.8500600913
 30
0.0
 10
5.2134365606
 20
11.8502336726
 30
0.0
 10
5.2070414619
 20
11.8508668006
 30
0.0
 10
5.2006575831
 20
11.8518769986
 30
0.0
 10
5.1964390215
 20
11.8528351467
 30
0.0
 10
5.1943578947
 20
11.8534336607
 30
0.0
  0
SPLINE
  5
571
100
AcDbEntity
  8
0
100
AcDbSpline
 62
7
  6
CONTINUOUS
 70
0
 71
3
 72
11
 73
7
 74
0
 42
0.0000001
 43
0.0000001
 44
0.0000000001
 40
0.0
 40
0.0
 40
0.0
 40
0.0
 40
0.2521776924
 40
0.502941736
 40
0.7522454806
 40
1.0
 40
1.0
 40
1.0
 40
1.0
 10
5.1943578968
 20
13.3466619792
 30
0.0
 10
5.1964803188
 20
13.3472726369
 30
0.0
 10
5.2007835604
 20
13.3482460651
 30
0.0
 10
5.2072954198
 20
13.3492641045
 30
0.0
 10
5.2138182345
 20
13.3498926727
 30
0.0
 10
5.2181722521
 20
13.3500477918
 30
0.0
 10
5.2203420388
 20
13.3500477918
 30
0.0
  0
SPLINE
  5
572
100
AcDbEntity
  8
0
100
AcDbSpline
 62
7
  6
CONTINUOUS
 70
0
 71
3
 72
11
 73
7
 74
0
 42
0.0000001
 43
0.0000001
 44
0.0000000001
 40
0.0
 40
0.0
 40
0.0
 40
0.0
 40
0.2477681254
 40
0.4971019925
 40
0.7478596734
 40
1.0
 40
1.0
 40
1.0
 40
1.0
 10
5.7198336348
 20
11.8500489995
 30
0.0
 10
5.7177057329
 20
11.8500600913
 30
0.0
 10
5.7134365606
 20
11.8502336726
 30
0.0
 10
5.7070414619
 20
11.8508668006
 30
0.0
 10
5.7006575831
 20
11.8518769986
 30
0.0
 10
5.6964390215
 20
11.8528351467
 30
0.0
 10
5.6943578947
 20
11.8534336607
 30
0.0
  0
SPLINE
  5
573
100
AcDbEntity
  8
0
100
AcDbSpline
 62
7
  6
CONTINUOUS
 70
0
 71
3
 72
11
 73
7
 74
0
 42
0.0000001
 43
0.0000001
 44
0.0000000001
 40
0.0
 40
0.0
 40
0.0
 40
0.0
 40
0.2521776924
 40
0.502941736
 40
0.7522454806
 40
1.0
 40
1.0
 40
1.0
 40
1.0
 10
5.6943578968
 20
13.3466619792
 30
0.0
 10
5.6964803188
 20
13.3472726369
 30
0.0
 10
5.7007835604
 20
13.3482460651
 30
0.0
 10
5.7072954198
 20
13.3492641045
 30
0.0
 10
5.7138182345
 20
13.3498926727
 30
0.0
 10
5.7181722521
 20
13.3500477918
 30
0.0
 10
5.7203420388
 20
13.3500477918
 30
0.0
  0
SPLINE
  5
574
100
AcDbEntity
  8
0
100
AcDbSpline
 62
7
  6
CONTINUOUS
 70
0
 71
3
 72
11
 73
7
 74
0
 42
0.0000001
 43
0.0000001
 44
0.0000000001
 40
0.0
 40
0.0
 40
0.0
 40
0.0
 40
0.2477681254
 40
0.4971019925
 40
0.7478596734
 40
1.0
 40
1.0
 40
1.0
 40
1.0
 10
6.2198336348
 20
11.8500489995
 30
0.0
 10
6.2177057329
 20
11.8500600913
 30
0.0
 10
6.2134365606
 20
11.8502336726
 30
0.0
 10
6.2070414619
 20
11.8508668006
 30
0.0
 10
6.2006575831
 20
11.8518769986
 30
0.0
 10
6.1964390215
 20
11.8528351467
 30
0.0
 10
6.1943578947
 20
11.8534336607
 30
0.0
  0
SPLINE
  5
575
100
AcDbEntity
  8
0
100
AcDbSpline
 62
7
  6
CONTINUOUS
 70
0
 71
3
 72
11
 73
7
 74
0
 42
0.0000001
 43
0.0000001
 44
0.0000000001
 40
0.0
 40
0.0
 40
0.0
 40
0.0
 40
0.2521776924
 40
0.502941736
 40
0.7522454806
 40
1.0
 40
1.0
 40
1.0
 40
1.0
 10
6.1943578968
 20
13.3466619792
 30
0.0
 10
6.1964803188
 20
13.3472726369
 30
0.0
 10
6.2007835604
 20
13.3482460651
 30
0.0
 10
6.2072954198
 20
13.3492641045
 30
0.0
 10
6.2138182345
 20
13.3498926727
 30
0.0
 10
6.2181722521
 20
13.3500477918
 30
0.0
 10
6.2203420388
 20
13.3500477918
 30
0.0
  0
SPLINE
  5
576
100
AcDbEntity
  8
0
100
AcDbSpline
 62
7
  6
CONTINUOUS
 70
0
 71
3
 72
11
 73
7
 74
0
 42
0.0000001
 43
0.0000001
 44
0.0000000001
 40
0.0
 40
0.0
 40
0.0
 40
0.0
 40
0.2477681254
 40
0.4971019925
 40
0.7478596734
 40
1.0
 40
1.0
 40
1.0
 40
1.0
 10
6.7198336348
 20
11.8500489995
 30
0.0
 10
6.7177057329
 20
11.8500600913
 30
0.0
 10
6.7134365606
 20
11.8502336726
 30
0.0
 10
6.7070414619
 20
11.8508668006
 30
0.0
 10
6.7006575831
 20
11.8518769986
 30
0.0
 10
6.6964390215
 20
11.8528351467
 30
0.0
 10
6.6943578947
 20
11.8534336607
 30
0.0
  0
SPLINE
  5
577
100
AcDbEntity
  8
0
100
AcDbSpline
 62
7
  6
CONTINUOUS
 70
0
 71
3
 72
11
 73
7
 74
0
 42
0.0000001
 43
0.0000001
 44
0.0000000001
 40
0.0
 40
0.0
 40
0.0
 40
0.0
 40
0.2521776924
 40
0.502941736
 40
0.7522454806
 40
1.0
 40
1.0
 40
1.0
 40
1.0
 10
6.6943578968
 20
13.3466619792
 30
0.0
 10
6.6964803188
 20
13.3472726369
 30
0.0
 10
6.7007835604
 20
13.3482460651
 30
0.0
 10
6.7072954198
 20
13.3492641045
 30
0.0
 10
6.7138182345
 20
13.3498926727
 30
0.0
 10
6.7181722521
 20
13.3500477918
 30
0.0
 10
6.7203420388
 20
13.3500477918
 30
0.0
  0
SPLINE
  5
578
100
AcDbEntity
  8
0
100
AcDbSpline
 62
7
  6
CONTINUOUS
 70
0
 71
3
 72
11
 73
7
 74
0
 42
0.0000001
 43
0.0000001
 44
0.0000000001
 40
0.0
 40
0.0
 40
0.0
 40
0.0
 40
0.2477681254
 40
0.4971019925
 40
0.7478596734
 40
1.0
 40
1.0
 40
1.0
 40
1.0
 10
7.2198336348
 20
11.8500489995
 30
0.0
 10
7.2177057329
 20
11.8500600913
 30
0.0
 10
7.2134365606
 20
11.8502336726
 30
0.0
 10
7.2070414619
 20
11.8508668006
 30
0.0
 10
7.2006575831
 20
11.8518769986
 30
0.0
 10
7.1964390215
 20
11.8528351467
 30
0.0
 10
7.1943578947
 20
11.8534336607
 30
0.0
  0
SPLINE
  5
579
100
AcDbEntity
  8
0
100
AcDbSpline
 62
7
  6
CONTINUOUS
 70
0
 71
3
 72
11
 73
7
 74
0
 42
0.0000001
 43
0.0000001
 44
0.0000000001
 40
0.0
 40
0.0
 40
0.0
 40
0.0
 40
0.2521776924
 40
0.502941736
 40
0.7522454806
 40
1.0
 40
1.0
 40
1.0
 40
1.0
 10
7.1943578968
 20
13.3466619792
 30
0.0
 10
7.1964803188
 20
13.3472726369
 30
0.0
 10
7.2007835604
 20
13.3482460651
 30
0.0
 10
7.2072954198
 20
13.3492641045
 30
0.0
 10
7.2138182345
 20
13.3498926727
 30
0.0
 10
7.2181722521
 20
13.3500477918
 30
0.0
 10
7.2203420388
 20
13.3500477918
 30
0.0
  0
SPLINE
  5
57A
100
AcDbEntity
  8
0
100
AcDbSpline
 62
7
  6
CONTINUOUS
 70
0
 71
3
 72
11
 73
7
 74
0
 42
0.0000001
 43
0.0000001
 44
0.0000000001
 40
0.0
 40
0.0
 40
0.0
 40
0.0
 40
0.2477681254
 40
0.4971019925
 40
0.7478596734
 40
1.0
 40
1.0
 40
1.0
 40
1.0
 10
7.7198336348
 20
11.8500489995
 30
0.0
 10
7.7177057329
 20
11.8500600913
 30
0.0
 10
7.7134365606
 20
11.8502336726
 30
0.0
 10
7.7070414619
 20
11.8508668006
 30
0.0
 10
7.7006575831
 20
11.8518769986
 30
0.0
 10
7.6964390215
 20
11.8528351467
 30
0.0
 10
7.6943578947
 20
11.8534336607
 30
0.0
  0
SPLINE
  5
57B
100
AcDbEntity
  8
0
100
AcDbSpline
 62
7
  6
CONTINUOUS
 70
0
 71
3
 72
11
 73
7
 74
0
 42
0.0000001
 43
0.0000001
 44
0.0000000001
 40
0.0
 40
0.0
 40
0.0
 40
0.0
 40
0.2521776924
 40
0.502941736
 40
0.7522454806
 40
1.0
 40
1.0
 40
1.0
 40
1.0
 10
7.6943578968
 20
13.3466619792
 30
0.0
 10
7.6964803188
 20
13.3472726369
 30
0.0
 10
7.7007835604
 20
13.3482460651
 30
0.0
 10
7.7072954198
 20
13.3492641045
 30
0.0
 10
7.7138182345
 20
13.3498926727
 30
0.0
 10
7.7181722521
 20
13.3500477918
 30
0.0
 10
7.7203420388
 20
13.3500477918
 30
0.0
  0
SPLINE
  5
57C
100
AcDbEntity
  8
0
100
AcDbSpline
 62
7
  6
CONTINUOUS
 70
0
 71
3
 72
14
 73
10
 74
0
 42
0.0000001
 43
0.0000001
 44
0.0000000001
 40
0.0
 40
0.0
 40
0.0
 40
0.0
 40
0.1024483045
 40
0.2191904172
 40
0.3466402753
 40
0.4808489955
 40
0.7525542051
 40
0.8815785914
 40
1.0
 40
1.0
 40
1.0
 40
1.0
 10
13.5774671131
 20
11.761517667
 30
0.0
 10
13.5772875854
 20
11.761883506
 30
0.0
 10
13.5769697464
 20
11.7626988842
 30
0.0
 10
13.5766163144
 20
11.7640337075
 30
0.0
 10
13.5763703741
 20
11.7655208819
 30
0.0
 10
13.5761955882
 20
11.7676366506
 30
0.0
 10
13.5762588115
 20
11.7697740707
 30
0.0
 10
13.5765685521
 20
11.7718174583
 30
0.0
 10
13.5768031969
 20
11.772775536
 30
0.0
 10
13.5769422738
 20
11.7732255889
 30
0.0
  0
SPLINE
  5
57D
100
AcDbEntity
  8
0
100
AcDbSpline
 62
7
  6
CONTINUOUS
 70
0
 71
3
 72
15
 73
11
 74
0
 42
0.0000001
 43
0.0000001
 44
0.0000000001
 40
0.0
 40
0.0
 40
0.0
 40
0.0
 40
0.1003710209
 40
0.2122513675
 40
0.3342542175
 40
0.4642564827
 40
0.5992461729
 40
0.7358379374
 40
0.8706712666
 40
1.0
 40
1.0
 40
1.0
 40
1.0
 10
13.9587874685
 20
12.8867600293
 30
0.0
 10
13.9591436875
 20
12.8860435705
 30
0.0
 10
13.9600844191
 20
12.8846195828
 30
0.0
 10
13.9619391587
 20
12.882691653
 30
0.0
 10
13.9642497198
 20
12.8809216886
 30
0.0
 10
13.9669276496
 20
12.879374836
 30
0.0
 10
13.9698736861
 20
12.8781046538
 30
0.0
 10
13.9729801607
 20
12.8771606871
 30
0.0
 10
13.9761281424
 20
12.8765797503
 30
0.0
 10
13.9782360082
 20
12.8764421322
 30
0.0
 10
13.9792669744
 20
12.876445166
 30
0.0
  0
SPLINE
  5
57E
100
AcDbEntity
  8
0
100
AcDbSpline
 62
7
  6
CONTINUOUS
 70
0
 71
3
 72
13
 73
9
 74
0
 42
0.0000001
 43
0.0000001
 44
0.0000000001
 40
0.0
 40
0.0
 40
0.0
 40
0.0
 40
0.0997837837
 40
0.2030423038
 40
0.3128154785
 40
0.4312012888
 40
0.6971572347
 40
1.0
 40
1.0
 40
1.0
 40
1.0
 10
13.7347542787
 20
13.288132016
 30
0.0
 10
13.7348177941
 20
13.2883371434
 30
0.0
 10
13.7349976705
 20
13.2887404954
 30
0.0
 10
13.7354069228
 20
13.2892814048
 30
0.0
 10
13.7359484954
 20
13.2897523725
 30
0.0
 10
13.7368654931
 20
13.2902998025
 30
0.0
 10
13.7382948694
 20
13.2907474854
 30
0.0
 10
13.7395223727
 20
13.2908517133
 30
0.0
 10
13.7401740937
 20
13.2908517133
 30
0.0
  0
SPLINE
  5
57F
100
AcDbEntity
  8
0
100
AcDbSpline
 62
7
  6
CONTINUOUS
 70
0
 71
3
 72
14
 73
10
 74
0
 42
0.0000001
 43
0.0000001
 44
0.0000000001
 40
0.0
 40
0.0
 40
0.0
 40
0.0
 40
0.1003000731
 40
0.2122566843
 40
0.3343410648
 40
0.4642694682
 40
0.7355421905
 40
0.8706126685
 40
1.0
 40
1.0
 40
1.0
 40
1.0
 10
13.7604397555
 20
13.2856942325
 30
0.0
 10
13.7602623468
 20
13.2860510524
 30
0.0
 10
13.7597931022
 20
13.2867604325
 30
0.0
 10
13.7588701962
 20
13.2877230279
 30
0.0
 10
13.7577186187
 20
13.2886060786
 30
0.0
 10
13.7559165923
 20
13.2896506622
 30
0.0
 10
13.7538943732
 20
13.2903894698
 30
0.0
 10
13.7517991115
 20
13.2907797968
 30
0.0
 10
13.7507474493
 20
13.2908517133
 30
0.0
 10
13.7502333963
 20
13.2908517133
 30
0.0
  0
SPLINE
  5
580
100
AcDbEntity
  8
0
100
AcDbSpline
 62
7
  6
CONTINUOUS
 70
0
 71
3
 72
14
 73
10
 74
0
 42
0.0000001
 43
0.0000001
 44
0.0000000001
 40
0.0
 40
0.0
 40
0.0
 40
0.0
 40
0.1184215193
 40
0.2474460112
 40
0.5191514655
 40
0.653360451
 40
0.7808103008
 40
0.8975519475
 40
1.0
 40
1.0
 40
1.0
 40
1.0
 10
13.63834634
 20
11.7732255889
 30
0.0
 10
13.6382072632
 20
11.7727755361
 30
0.0
 10
13.6379726185
 20
11.7718174587
 30
0.0
 10
13.6376628778
 20
11.7697740717
 30
0.0
 10
13.6375996552
 20
11.7676366517
 30
0.0
 10
13.637774439
 20
11.7655208834
 30
0.0
 10
13.6380203786
 20
11.7640337113
 30
0.0
 10
13.6383738155
 20
11.7626988937
 30
0.0
 10
13.6386916574
 20
11.761883521
 30
0.0
 10
13.6388711844
 20
11.7615176834
 30
0.0
  0
SPLINE
  5
581
100
AcDbEntity
  8
0
100
AcDbSpline
 62
7
  6
CONTINUOUS
 70
0
 71
3
 72
14
 73
10
 74
0
 42
0.0000001
 43
0.0000001
 44
0.0000000001
 40
0.0
 40
0.0
 40
0.0
 40
0.0
 40
0.1024483045
 40
0.2191904172
 40
0.3466402753
 40
0.4808489955
 40
0.7525542051
 40
0.8815785914
 40
1.0
 40
1.0
 40
1.0
 40
1.0
 10
14.0379976101
 20
11.761517667
 30
0.0
 10
14.0378180824
 20
11.761883506
 30
0.0
 10
14.0375002434
 20
11.7626988842
 30
0.0
 10
14.0371468114
 20
11.7640337075
 30
0.0
 10
14.0369008711
 20
11.7655208819
 30
0.0
 10
14.0367260852
 20
11.7676366506
 30
0.0
 10
14.0367893085
 20
11.7697740707
 30
0.0
 10
14.0370990491
 20
11.7718174583
 30
0.0
 10
14.0373336939
 20
11.772775536
 30
0.0
 10
14.0374727708
 20
11.7732255889
 30
0.0
  0
SPLINE
  5
582
100
AcDbEntity
  8
0
100
AcDbSpline
 62
7
  6
CONTINUOUS
 70
0
 71
3
 72
15
 73
11
 74
0
 42
0.0000001
 43
0.0000001
 44
0.0000000001
 40
0.0
 40
0.0
 40
0.0
 40
0.0
 40
0.1003710209
 40
0.2122513675
 40
0.3342542175
 40
0.4642564827
 40
0.5992461729
 40
0.7358379374
 40
0.8706712666
 40
1.0
 40
1.0
 40
1.0
 40
1.0
 10
14.4193179655
 20
12.8867600293
 30
0.0
 10
14.4196741845
 20
12.8860435705
 30
0.0
 10
14.4206149161
 20
12.8846195828
 30
0.0
 10
14.4224696557
 20
12.882691653
 30
0.0
 10
14.4247802168
 20
12.8809216886
 30
0.0
 10
14.4274581466
 20
12.879374836
 30
0.0
 10
14.4304041831
 20
12.8781046538
 30
0.0
 10
14.4335106577
 20
12.8771606871
 30
0.0
 10
14.4366586394
 20
12.8765797503
 30
0.0
 10
14.4387665052
 20
12.8764421322
 30
0.0
 10
14.4397974714
 20
12.876445166
 30
0.0
  0
SPLINE
  5
583
100
AcDbEntity
  8
0
100
AcDbSpline
 62
7
  6
CONTINUOUS
 70
0
 71
3
 72
13
 73
9
 74
0
 42
0.0000001
 43
0.0000001
 44
0.0000000001
 40
0.0
 40
0.0
 40
0.0
 40
0.0
 40
0.0997837837
 40
0.2030423038
 40
0.3128154785
 40
0.4312012888
 40
0.6971572347
 40
1.0
 40
1.0
 40
1.0
 40
1.0
 10
14.1952847757
 20
13.288132016
 30
0.0
 10
14.1953482911
 20
13.2883371434
 30
0.0
 10
14.1955281675
 20
13.2887404954
 30
0.0
 10
14.1959374198
 20
13.2892814048
 30
0.0
 10
14.1964789924
 20
13.2897523725
 30
0.0
 10
14.1973959901
 20
13.2902998025
 30
0.0
 10
14.1988253664
 20
13.2907474854
 30
0.0
 10
14.2000528697
 20
13.2908517133
 30
0.0
 10
14.2007045907
 20
13.2908517133
 30
0.0
  0
SPLINE
  5
584
100
AcDbEntity
  8
0
100
AcDbSpline
 62
7
  6
CONTINUOUS
 70
0
 71
3
 72
14
 73
10
 74
0
 42
0.0000001
 43
0.0000001
 44
0.0000000001
 40
0.0
 40
0.0
 40
0.0
 40
0.0
 40
0.1003000731
 40
0.2122566843
 40
0.3343410648
 40
0.4642694682
 40
0.7355421905
 40
0.8706126685
 40
1.0
 40
1.0
 40
1.0
 40
1.0
 10
14.2209702525
 20
13.2856942325
 30
0.0
 10
14.2207928438
 20
13.2860510524
 30
0.0
 10
14.2203235992
 20
13.2867604325
 30
0.0
 10
14.2194006932
 20
13.2877230279
 30
0.0
 10
14.2182491157
 20
13.2886060786
 30
0.0
 10
14.2164470893
 20
13.2896506622
 30
0.0
 10
14.2144248702
 20
13.2903894698
 30
0.0
 10
14.2123296085
 20
13.2907797968
 30
0.0
 10
14.2112779463
 20
13.2908517133
 30
0.0
 10
14.2107638933
 20
13.2908517133
 30
0.0
  0
SPLINE
  5
585
100
AcDbEntity
  8
0
100
AcDbSpline
 62
7
  6
CONTINUOUS
 70
0
 71
3
 72
14
 73
10
 74
0
 42
0.0000001
 43
0.0000001
 44
0.0000000001
 40
0.0
 40
0.0
 40
0.0
 40
0.0
 40
0.1184215193
 40
0.2474460112
 40
0.5191514655
 40
0.653360451
 40
0.7808103008
 40
0.8975519475
 40
1.0
 40
1.0
 40
1.0
 40
1.0
 10
14.098876837
 20
11.7732255889
 30
0.0
 10
14.0987377602
 20
11.7727755361
 30
0.0
 10
14.0985031155
 20
11.7718174587
 30
0.0
 10
14.0981933748
 20
11.7697740717
 30
0.0
 10
14.0981301522
 20
11.7676366517
 30
0.0
 10
14.098304936
 20
11.7655208834
 30
0.0
 10
14.0985508756
 20
11.7640337113
 30
0.0
 10
14.0989043125
 20
11.7626988937
 30
0.0
 10
14.0992221544
 20
11.761883521
 30
0.0
 10
14.0994016814
 20
11.7615176834
 30
0.0
  0
SPLINE
  5
586
100
AcDbEntity
  8
0
100
AcDbSpline
 62
7
  6
CONTINUOUS
 70
0
 71
3
 72
20
 73
16
 74
0
 42
0.0000001
 43
0.0000001
 44
0.0000000001
 40
0.0
 40
0.0
 40
0.0
 40
0.0
 40
0.0714635474
 40
0.145270886
 40
0.2964299024
 40
0.4471882284
 40
0.5911436115
 40
0.6587254772
 40
0.7224139984
 40
0.7815927999
 40
0.8357493155
 40
0.8845063803
 40
0.927815475
 40
0.9659637311
 40
1.0
 40
1.0
 40
1.0
 40
1.0
 10
13.9038748648
 20
11.7320350776
 30
0.0
 10
13.9018084367
 20
11.7333686504
 30
0.0
 10
13.8974988266
 20
11.7359140714
 30
0.0
 10
13.8883581291
 20
11.7404586213
 30
0.0
 10
13.8762027657
 20
11.7449950029
 30
0.0
 10
13.8612045887
 20
11.7484300227
 30
0.0
 10
13.8487335507
 20
11.7495227692
 30
0.0
 10
13.8392571626
 20
11.7492198036
 30
0.0
 10
13.8327395034
 20
11.7484463244
 30
0.0
 10
13.8267758312
 20
11.7471522881
 30
0.0
 10
13.821471355
 20
11.7453856977
 30
0.0
 10
13.8169188789
 20
11.7432070884
 30
0.0
 10
13.8131775319
 20
11.7407079918
 30
0.0
 10
13.8102684332
 20
11.7379704666
 30
0.0
 10
13.8088046326
 20
11.7359391964
 30
0.0
 10
13.8082260542
 20
11.7349207256
 30
0.0
  0
SPLINE
  5
587
100
AcDbEntity
  8
0
100
AcDbSpline
 62
7
  6
CONTINUOUS
 70
0
 71
3
 72
9
 73
5
 74
0
 42
0.0000001
 43
0.0000001
 44
0.0000000001
 40
0.0
 40
0.0
 40
0.0
 40
0.0
 40
0.525752389
 40
1.0
 40
1.0
 40
1.0
 40
1.0
 10
13.4904158899
 20
11.7683375273
 30
0.0
 10
13.4904053496
 20
11.7692012378
 30
0.0
 10
13.4904780342
 20
11.7708463469
 30
0.0
 10
13.4907562637
 20
11.7724728863
 30
0.0
 10
13.4909579334
 20
11.7732254907
 30
0.0
  0
LINE
  5
588
100
AcDbEntity
  8
0
100
AcDbLine
 62
7
  6
CONTINUOUS
 10
13.4983773075
 20
11.7656642025
 11
13.490415933
 21
11.7683382847
  0
SPLINE
  5
589
100
AcDbEntity
  8
0
100
AcDbSpline
 62
7
  6
CONTINUOUS
 70
0
 71
3
 72
11
 73
7
 74
0
 42
0.0000001
 43
0.0000001
 44
0.0000000001
 40
0.0
 40
0.0
 40
0.0
 40
0.0
 40
0.2649321549
 40
0.5174093436
 40
0.760874909
 40
1.0
 40
1.0
 40
1.0
 40
1.0
 10
13.3902394314
 20
12.0713538391
 30
0.0
 10
13.3883579699
 20
12.0751878547
 30
0.0
 10
13.3852163255
 20
12.082958561
 30
0.0
 10
13.3826125868
 20
12.0950129143
 30
0.0
 10
13.3823752158
 20
12.1069378603
 30
0.0
 10
13.3838674666
 20
12.1146450542
 30
0.0
 10
13.3850055756
 20
12.1183279762
 30
0.0
  0
SPLINE
  5
58A
100
AcDbEntity
  8
0
100
AcDbSpline
 62
7
  6
CONTINUOUS
 70
0
 71
3
 72
11
 73
7
 74
0
 42
0.0000001
 43
0.0000001
 44
0.0000000001
 40
0.0
 40
0.0
 40
0.0
 40
0.0
 40
0.267926844
 40
0.526010683
 40
0.7708120787
 40
1.0
 40
1.0
 40
1.0
 40
1.0
 10
13.4892964637
 20
11.9842547512
 30
0.0
 10
13.4806619396
 20
11.9880968976
 30
0.0
 10
13.4640509126
 20
11.996440181
 30
0.0
 10
13.4410628975
 20
12.0110519048
 30
0.0
 10
13.4208884748
 20
12.0272585637
 30
0.0
 10
13.4092298141
 20
12.0393296994
 30
0.0
 10
13.4040732145
 20
12.0455558939
 30
0.0
  0
SPLINE
  5
58B
100
AcDbEntity
  8
0
100
AcDbSpline
 62
7
  6
CONTINUOUS
 70
0
 71
3
 72
9
 73
5
 74
0
 42
0.0000001
 43
0.0000001
 44
0.0000000001
 40
0.0
 40
0.0
 40
0.0
 40
0.0
 40
0.5041547307
 40
1.0
 40
1.0
 40
1.0
 40
1.0
 10
13.5155748343
 20
11.7615176834
 30
0.0
 10
13.512651475
 20
11.762063207
 30
0.0
 10
13.5068843409
 20
11.7633153216
 30
0.0
 10
13.5011811148
 20
11.7648316333
 30
0.0
 10
13.4983773075
 20
11.7656642025
 30
0.0
  0
SPLINE
  5
58C
100
AcDbEntity
  8
0
100
AcDbSpline
 62
7
  6
CONTINUOUS
 70
0
 71
3
 72
14
 73
10
 74
0
 42
0.0000001
 43
0.0000001
 44
0.0000000001
 40
0.0
 40
0.0
 40
0.0
 40
0.0
 40
0.1024483045
 40
0.2191904172
 40
0.3466402753
 40
0.4808489955
 40
0.7525542051
 40
0.8815785914
 40
1.0
 40
1.0
 40
1.0
 40
1.0
 10
14.4985281071
 20
11.761517667
 30
0.0
 10
14.4983485794
 20
11.761883506
 30
0.0
 10
14.4980307404
 20
11.7626988842
 30
0.0
 10
14.4976773084
 20
11.7640337075
 30
0.0
 10
14.4974313681
 20
11.7655208819
 30
0.0
 10
14.4972565822
 20
11.7676366506
 30
0.0
 10
14.4973198055
 20
11.7697740707
 30
0.0
 10
14.4976295461
 20
11.7718174583
 30
0.0
 10
14.4978641909
 20
11.772775536
 30
0.0
 10
14.4980032678
 20
11.7732255889
 30
0.0
  0
SPLINE
  5
58D
100
AcDbEntity
  8
0
100
AcDbSpline
 62
7
  6
CONTINUOUS
 70
0
 71
3
 72
15
 73
11
 74
0
 42
0.0000001
 43
0.0000001
 44
0.0000000001
 40
0.0
 40
0.0
 40
0.0
 40
0.0
 40
0.1003710209
 40
0.2122513675
 40
0.3342542175
 40
0.4642564827
 40
0.5992461729
 40
0.7358379374
 40
0.8706712666
 40
1.0
 40
1.0
 40
1.0
 40
1.0
 10
14.8798484625
 20
12.8867600293
 30
0.0
 10
14.8802046815
 20
12.8860435705
 30
0.0
 10
14.8811454131
 20
12.8846195828
 30
0.0
 10
14.8830001527
 20
12.882691653
 30
0.0
 10
14.8853107138
 20
12.8809216886
 30
0.0
 10
14.8879886436
 20
12.879374836
 30
0.0
 10
14.8909346801
 20
12.8781046538
 30
0.0
 10
14.8940411547
 20
12.8771606871
 30
0.0
 10
14.8971891364
 20
12.8765797503
 30
0.0
 10
14.8992970022
 20
12.8764421322
 30
0.0
 10
14.9003279684
 20
12.876445166
 30
0.0
  0
SPLINE
  5
58E
100
AcDbEntity
  8
0
100
AcDbSpline
 62
7
  6
CONTINUOUS
 70
0
 71
3
 72
13
 73
9
 74
0
 42
0.0000001
 43
0.0000001
 44
0.0000000001
 40
0.0
 40
0.0
 40
0.0
 40
0.0
 40
0.0997837837
 40
0.2030423038
 40
0.3128154785
 40
0.4312012888
 40
0.6971572347
 40
1.0
 40
1.0
 40
1.0
 40
1.0
 10
14.6558152727
 20
13.288132016
 30
0.0
 10
14.6558787881
 20
13.2883371434
 30
0.0
 10
14.6560586645
 20
13.2887404954
 30
0.0
 10
14.6564679168
 20
13.2892814048
 30
0.0
 10
14.6570094894
 20
13.2897523725
 30
0.0
 10
14.6579264871
 20
13.2902998025
 30
0.0
 10
14.6593558634
 20
13.2907474854
 30
0.0
 10
14.6605833667
 20
13.2908517133
 30
0.0
 10
14.6612350877
 20
13.2908517133
 30
0.0
  0
SPLINE
  5
58F
100
AcDbEntity
  8
0
100
AcDbSpline
 62
7
  6
CONTINUOUS
 70
0
 71
3
 72
14
 73
10
 74
0
 42
0.0000001
 43
0.0000001
 44
0.0000000001
 40
0.0
 40
0.0
 40
0.0
 40
0.0
 40
0.1003000731
 40
0.2122566843
 40
0.3343410648
 40
0.4642694682
 40
0.7355421905
 40
0.8706126685
 40
1.0
 40
1.0
 40
1.0
 40
1.0
 10
14.6815007495
 20
13.2856942325
 30
0.0
 10
14.6813233408
 20
13.2860510524
 30
0.0
 10
14.6808540962
 20
13.2867604325
 30
0.0
 10
14.6799311902
 20
13.2877230279
 30
0.0
 10
14.6787796127
 20
13.2886060786
 30
0.0
 10
14.6769775863
 20
13.2896506622
 30
0.0
 10
14.6749553672
 20
13.2903894698
 30
0.0
 10
14.6728601055
 20
13.2907797968
 30
0.0
 10
14.6718084433
 20
13.2908517133
 30
0.0
 10
14.6712943903
 20
13.2908517133
 30
0.0
  0
SPLINE
  5
590
100
AcDbEntity
  8
0
100
AcDbSpline
 62
7
  6
CONTINUOUS
 70
0
 71
3
 72
14
 73
10
 74
0
 42
0.0000001
 43
0.0000001
 44
0.0000000001
 40
0.0
 40
0.0
 40
0.0
 40
0.0
 40
0.1184215193
 40
0.2474460112
 40
0.5191514655
 40
0.653360451
 40
0.7808103008
 40
0.8975519475
 40
1.0
 40
1.0
 40
1.0
 40
1.0
 10
14.559407334
 20
11.7732255889
 30
0.0
 10
14.5592682572
 20
11.7727755361
 30
0.0
 10
14.5590336125
 20
11.7718174587
 30
0.0
 10
14.5587238718
 20
11.7697740717
 30
0.0
 10
14.5586606492
 20
11.7676366517
 30
0.0
 10
14.558835433
 20
11.7655208834
 30
0.0
 10
14.5590813726
 20
11.7640337113
 30
0.0
 10
14.5594348095
 20
11.7626988937
 30
0.0
 10
14.5597526514
 20
11.761883521
 30
0.0
 10
14.5599321784
 20
11.7615176834
 30
0.0
  0
SPLINE
  5
591
100
AcDbEntity
  8
0
100
AcDbSpline
 62
7
  6
CONTINUOUS
 70
0
 71
3
 72
14
 73
10
 74
0
 42
0.0000001
 43
0.0000001
 44
0.0000000001
 40
0.0
 40
0.0
 40
0.0
 40
0.0
 40
0.1024483045
 40
0.2191904172
 40
0.3466402753
 40
0.4808489955
 40
0.7525542051
 40
0.8815785914
 40
1.0
 40
1.0
 40
1.0
 40
1.0
 10
14.9590586041
 20
11.761517667
 30
0.0
 10
14.9588790764
 20
11.761883506
 30
0.0
 10
14.9585612374
 20
11.7626988842
 30
0.0
 10
14.9582078054
 20
11.7640337075
 30
0.0
 10
14.9579618651
 20
11.7655208819
 30
0.0
 10
14.9577870792
 20
11.7676366506
 30
0.0
 10
14.9578503025
 20
11.7697740707
 30
0.0
 10
14.9581600431
 20
11.7718174583
 30
0.0
 10
14.9583946879
 20
11.772775536
 30
0.0
 10
14.9585337648
 20
11.7732255889
 30
0.0
  0
SPLINE
  5
592
100
AcDbEntity
  8
0
100
AcDbSpline
 62
7
  6
CONTINUOUS
 70
0
 71
3
 72
15
 73
11
 74
0
 42
0.0000001
 43
0.0000001
 44
0.0000000001
 40
0.0
 40
0.0
 40
0.0
 40
0.0
 40
0.1003710209
 40
0.2122513675
 40
0.3342542175
 40
0.4642564827
 40
0.5992461729
 40
0.7358379374
 40
0.8706712666
 40
1.0
 40
1.0
 40
1.0
 40
1.0
 10
15.3403789595
 20
12.8867600293
 30
0.0
 10
15.3407351785
 20
12.8860435705
 30
0.0
 10
15.3416759102
 20
12.8846195828
 30
0.0
 10
15.3435306497
 20
12.882691653
 30
0.0
 10
15.3458412108
 20
12.8809216886
 30
0.0
 10
15.3485191406
 20
12.879374836
 30
0.0
 10
15.3514651771
 20
12.8781046538
 30
0.0
 10
15.3545716517
 20
12.8771606871
 30
0.0
 10
15.3577196334
 20
12.8765797503
 30
0.0
 10
15.3598274992
 20
12.8764421322
 30
0.0
 10
15.3608584654
 20
12.876445166
 30
0.0
  0
SPLINE
  5
593
100
AcDbEntity
  8
0
100
AcDbSpline
 62
7
  6
CONTINUOUS
 70
0
 71
3
 72
13
 73
9
 74
0
 42
0.0000001
 43
0.0000001
 44
0.0000000001
 40
0.0
 40
0.0
 40
0.0
 40
0.0
 40
0.0997837837
 40
0.2030423038
 40
0.3128154785
 40
0.4312012888
 40
0.6971572347
 40
1.0
 40
1.0
 40
1.0
 40
1.0
 10
15.1163457697
 20
13.288132016
 30
0.0
 10
15.1164092851
 20
13.2883371434
 30
0.0
 10
15.1165891615
 20
13.2887404954
 30
0.0
 10
15.1169984138
 20
13.2892814048
 30
0.0
 10
15.1175399864
 20
13.2897523725
 30
0.0
 10
15.1184569841
 20
13.2902998025
 30
0.0
 10
15.1198863604
 20
13.2907474854
 30
0.0
 10
15.1211138637
 20
13.2908517133
 30
0.0
 10
15.1217655847
 20
13.2908517133
 30
0.0
  0
SPLINE
  5
594
100
AcDbEntity
  8
0
100
AcDbSpline
 62
7
  6
CONTINUOUS
 70
0
 71
3
 72
14
 73
10
 74
0
 42
0.0000001
 43
0.0000001
 44
0.0000000001
 40
0.0
 40
0.0
 40
0.0
 40
0.0
 40
0.1003000731
 40
0.2122566843
 40
0.3343410648
 40
0.4642694682
 40
0.7355421905
 40
0.8706126685
 40
1.0
 40
1.0
 40
1.0
 40
1.0
 10
15.1420312465
 20
13.2856942325
 30
0.0
 10
15.1418538378
 20
13.2860510524
 30
0.0
 10
15.1413845932
 20
13.2867604325
 30
0.0
 10
15.1404616872
 20
13.2877230279
 30
0.0
 10
15.1393101097
 20
13.2886060786
 30
0.0
 10
15.1375080833
 20
13.2896506622
 30
0.0
 10
15.1354858642
 20
13.2903894698
 30
0.0
 10
15.1333906025
 20
13.2907797968
 30
0.0
 10
15.1323389404
 20
13.2908517133
 30
0.0
 10
15.1318248873
 20
13.2908517133
 30
0.0
  0
SPLINE
  5
595
100
AcDbEntity
  8
0
100
AcDbSpline
 62
7
  6
CONTINUOUS
 70
0
 71
3
 72
14
 73
10
 74
0
 42
0.0000001
 43
0.0000001
 44
0.0000000001
 40
0.0
 40
0.0
 40
0.0
 40
0.0
 40
0.1184215193
 40
0.2474460112
 40
0.5191514655
 40
0.653360451
 40
0.7808103008
 40
0.8975519475
 40
1.0
 40
1.0
 40
1.0
 40
1.0
 10
15.019937831
 20
11.7732255889
 30
0.0
 10
15.0197987542
 20
11.7727755361
 30
0.0
 10
15.0195641095
 20
11.7718174587
 30
0.0
 10
15.0192543688
 20
11.7697740717
 30
0.0
 10
15.0191911462
 20
11.7676366517
 30
0.0
 10
15.01936593
 20
11.7655208834
 30
0.0
 10
15.0196118696
 20
11.7640337113
 30
0.0
 10
15.0199653065
 20
11.7626988937
 30
0.0
 10
15.0202831484
 20
11.761883521
 30
0.0
 10
15.0204626754
 20
11.7615176834
 30
0.0
  0
SPLINE
  5
596
100
AcDbEntity
  8
0
100
AcDbSpline
 62
7
  6
CONTINUOUS
 70
0
 71
3
 72
20
 73
16
 74
0
 42
0.0000001
 43
0.0000001
 44
0.0000000001
 40
0.0
 40
0.0
 40
0.0
 40
0.0
 40
0.0714635474
 40
0.145270886
 40
0.2964299024
 40
0.4471882284
 40
0.5911436115
 40
0.6587254772
 40
0.7224139984
 40
0.7815927999
 40
0.8357493155
 40
0.8845063803
 40
0.927815475
 40
0.9659637311
 40
1.0
 40
1.0
 40
1.0
 40
1.0
 10
14.3644053618
 20
11.7320350776
 30
0.0
 10
14.3623389337
 20
11.7333686504
 30
0.0
 10
14.3580293236
 20
11.7359140714
 30
0.0
 10
14.3488886261
 20
11.7404586213
 30
0.0
 10
14.3367332627
 20
11.7449950029
 30
0.0
 10
14.3217350857
 20
11.7484300227
 30
0.0
 10
14.3092640477
 20
11.7495227692
 30
0.0
 10
14.2997876596
 20
11.7492198036
 30
0.0
 10
14.2932700004
 20
11.7484463244
 30
0.0
 10
14.2873063282
 20
11.7471522881
 30
0.0
 10
14.282001852
 20
11.7453856977
 30
0.0
 10
14.277449376
 20
11.7432070884
 30
0.0
 10
14.2737080289
 20
11.7407079918
 30
0.0
 10
14.2707989302
 20
11.7379704666
 30
0.0
 10
14.2693351296
 20
11.7359391964
 30
0.0
 10
14.2687565512
 20
11.7349207256
 30
0.0
  0
SPLINE
  5
597
100
AcDbEntity
  8
0
100
AcDbSpline
 62
7
  6
CONTINUOUS
 70
0
 71
3
 72
9
 73
5
 74
0
 42
0.0000001
 43
0.0000001
 44
0.0000000001
 40
0.0
 40
0.0
 40
0.0
 40
0.0
 40
0.525752389
 40
1.0
 40
1.0
 40
1.0
 40
1.0
 10
13.9509463869
 20
11.7683375273
 30
0.0
 10
13.9509358466
 20
11.7692012378
 30
0.0
 10
13.9510085312
 20
11.7708463469
 30
0.0
 10
13.9512867607
 20
11.7724728863
 30
0.0
 10
13.9514884304
 20
11.7732254907
 30
0.0
  0
LINE
  5
598
100
AcDbEntity
  8
0
100
AcDbLine
 62
7
  6
CONTINUOUS
 10
13.9589078045
 20
11.7656642025
 11
13.95094643
 21
11.7683382847
  0
SPLINE
  5
599
100
AcDbEntity
  8
0
100
AcDbSpline
 62
7
  6
CONTINUOUS
 70
0
 71
3
 72
9
 73
5
 74
0
 42
0.0000001
 43
0.0000001
 44
0.0000000001
 40
0.0
 40
0.0
 40
0.0
 40
0.0
 40
0.5041547307
 40
1.0
 40
1.0
 40
1.0
 40
1.0
 10
13.9761053313
 20
11.7615176834
 30
0.0
 10
13.973181972
 20
11.762063207
 30
0.0
 10
13.9674148379
 20
11.7633153216
 30
0.0
 10
13.9617116118
 20
11.7648316333
 30
0.0
 10
13.9589078045
 20
11.7656642025
 30
0.0
  0
SPLINE
  5
59A
100
AcDbEntity
  8
0
100
AcDbSpline
 62
7
  6
CONTINUOUS
 70
0
 71
3
 72
14
 73
10
 74
0
 42
0.0000001
 43
0.0000001
 44
0.0000000001
 40
0.0
 40
0.0
 40
0.0
 40
0.0
 40
0.1024483045
 40
0.2191904172
 40
0.3466402753
 40
0.4808489955
 40
0.7525542051
 40
0.8815785914
 40
1.0
 40
1.0
 40
1.0
 40
1.0
 10
15.4195891011
 20
11.761517667
 30
0.0
 10
15.4194095734
 20
11.761883506
 30
0.0
 10
15.4190917344
 20
11.7626988842
 30
0.0
 10
15.4187383024
 20
11.7640337075
 30
0.0
 10
15.4184923621
 20
11.7655208819
 30
0.0
 10
15.4183175762
 20
11.7676366506
 30
0.0
 10
15.4183807995
 20
11.7697740707
 30
0.0
 10
15.4186905401
 20
11.7718174583
 30
0.0
 10
15.4189251849
 20
11.772775536
 30
0.0
 10
15.4190642618
 20
11.7732255889
 30
0.0
  0
SPLINE
  5
59B
100
AcDbEntity
  8
0
100
AcDbSpline
 62
7
  6
CONTINUOUS
 70
0
 71
3
 72
15
 73
11
 74
0
 42
0.0000001
 43
0.0000001
 44
0.0000000001
 40
0.0
 40
0.0
 40
0.0
 40
0.0
 40
0.1003710209
 40
0.2122513675
 40
0.3342542175
 40
0.4642564827
 40
0.5992461729
 40
0.7358379374
 40
0.8706712666
 40
1.0
 40
1.0
 40
1.0
 40
1.0
 10
15.8009094565
 20
12.8867600293
 30
0.0
 10
15.8012656755
 20
12.8860435705
 30
0.0
 10
15.8022064072
 20
12.8846195828
 30
0.0
 10
15.8040611467
 20
12.882691653
 30
0.0
 10
15.8063717078
 20
12.8809216886
 30
0.0
 10
15.8090496376
 20
12.879374836
 30
0.0
 10
15.8119956741
 20
12.8781046538
 30
0.0
 10
15.8151021487
 20
12.8771606871
 30
0.0
 10
15.8182501304
 20
12.8765797503
 30
0.0
 10
15.8203579962
 20
12.8764421322
 30
0.0
 10
15.8213889624
 20
12.876445166
 30
0.0
  0
SPLINE
  5
59C
100
AcDbEntity
  8
0
100
AcDbSpline
 62
7
  6
CONTINUOUS
 70
0
 71
3
 72
13
 73
9
 74
0
 42
0.0000001
 43
0.0000001
 44
0.0000000001
 40
0.0
 40
0.0
 40
0.0
 40
0.0
 40
0.0997837837
 40
0.2030423038
 40
0.3128154785
 40
0.4312012888
 40
0.6971572347
 40
1.0
 40
1.0
 40
1.0
 40
1.0
 10
15.5768762667
 20
13.288132016
 30
0.0
 10
15.5769397821
 20
13.2883371434
 30
0.0
 10
15.5771196585
 20
13.2887404954
 30
0.0
 10
15.5775289108
 20
13.2892814048
 30
0.0
 10
15.5780704834
 20
13.2897523725
 30
0.0
 10
15.5789874811
 20
13.2902998025
 30
0.0
 10
15.5804168574
 20
13.2907474854
 30
0.0
 10
15.5816443607
 20
13.2908517133
 30
0.0
 10
15.5822960817
 20
13.2908517133
 30
0.0
  0
SPLINE
  5
59D
100
AcDbEntity
  8
0
100
AcDbSpline
 62
7
  6
CONTINUOUS
 70
0
 71
3
 72
14
 73
10
 74
0
 42
0.0000001
 43
0.0000001
 44
0.0000000001
 40
0.0
 40
0.0
 40
0.0
 40
0.0
 40
0.1003000731
 40
0.2122566843
 40
0.3343410648
 40
0.4642694682
 40
0.7355421905
 40
0.8706126685
 40
1.0
 40
1.0
 40
1.0
 40
1.0
 10
15.6025617435
 20
13.2856942325
 30
0.0
 10
15.6023843348
 20
13.2860510524
 30
0.0
 10
15.6019150902
 20
13.2867604325
 30
0.0
 10
15.6009921842
 20
13.2877230279
 30
0.0
 10
15.5998406067
 20
13.2886060786
 30
0.0
 10
15.5980385803
 20
13.2896506622
 30
0.0
 10
15.5960163612
 20
13.2903894698
 30
0.0
 10
15.5939210995
 20
13.2907797968
 30
0.0
 10
15.5928694374
 20
13.2908517133
 30
0.0
 10
15.5923553843
 20
13.2908517133
 30
0.0
  0
SPLINE
  5
59E
100
AcDbEntity
  8
0
100
AcDbSpline
 62
7
  6
CONTINUOUS
 70
0
 71
3
 72
14
 73
10
 74
0
 42
0.0000001
 43
0.0000001
 44
0.0000000001
 40
0.0
 40
0.0
 40
0.0
 40
0.0
 40
0.1184215193
 40
0.2474460112
 40
0.5191514655
 40
0.653360451
 40
0.7808103008
 40
0.8975519475
 40
1.0
 40
1.0
 40
1.0
 40
1.0
 10
15.480468328
 20
11.7732255889
 30
0.0
 10
15.4803292512
 20
11.7727755361
 30
0.0
 10
15.4800946065
 20
11.7718174587
 30
0.0
 10
15.4797848658
 20
11.7697740717
 30
0.0
 10
15.4797216432
 20
11.7676366517
 30
0.0
 10
15.479896427
 20
11.7655208834
 30
0.0
 10
15.4801423666
 20
11.7640337113
 30
0.0
 10
15.4804958035
 20
11.7626988937
 30
0.0
 10
15.4808136454
 20
11.761883521
 30
0.0
 10
15.4809931724
 20
11.7615176834
 30
0.0
  0
SPLINE
  5
59F
100
AcDbEntity
  8
0
100
AcDbSpline
 62
7
  6
CONTINUOUS
 70
0
 71
3
 72
20
 73
16
 74
0
 42
0.0000001
 43
0.0000001
 44
0.0000000001
 40
0.0
 40
0.0
 40
0.0
 40
0.0
 40
0.0714635474
 40
0.145270886
 40
0.2964299024
 40
0.4471882284
 40
0.5911436115
 40
0.6587254772
 40
0.7224139984
 40
0.7815927999
 40
0.8357493155
 40
0.8845063803
 40
0.927815475
 40
0.9659637311
 40
1.0
 40
1.0
 40
1.0
 40
1.0
 10
14.8249358588
 20
11.7320350776
 30
0.0
 10
14.8228694307
 20
11.7333686504
 30
0.0
 10
14.8185598206
 20
11.7359140714
 30
0.0
 10
14.8094191231
 20
11.7404586213
 30
0.0
 10
14.7972637597
 20
11.7449950029
 30
0.0
 10
14.7822655827
 20
11.7484300227
 30
0.0
 10
14.7697945447
 20
11.7495227692
 30
0.0
 10
14.7603181566
 20
11.7492198036
 30
0.0
 10
14.7538004974
 20
11.7484463244
 30
0.0
 10
14.7478368252
 20
11.7471522881
 30
0.0
 10
14.742532349
 20
11.7453856977
 30
0.0
 10
14.737979873
 20
11.7432070884
 30
0.0
 10
14.7342385259
 20
11.7407079918
 30
0.0
 10
14.7313294272
 20
11.7379704666
 30
0.0
 10
14.7298656266
 20
11.7359391964
 30
0.0
 10
14.7292870482
 20
11.7349207256
 30
0.0
  0
SPLINE
  5
5A0
100
AcDbEntity
  8
0
100
AcDbSpline
 62
7
  6
CONTINUOUS
 70
0
 71
3
 72
9
 73
5
 74
0
 42
0.0000001
 43
0.0000001
 44
0.0000000001
 40
0.0
 40
0.0
 40
0.0
 40
0.0
 40
0.525752389
 40
1.0
 40
1.0
 40
1.0
 40
1.0
 10
14.4114768839
 20
11.7683375273
 30
0.0
 10
14.4114663436
 20
11.7692012378
 30
0.0
 10
14.4115390282
 20
11.7708463469
 30
0.0
 10
14.4118172577
 20
11.7724728863
 30
0.0
 10
14.4120189274
 20
11.7732254907
 30
0.0
  0
LINE
  5
5A1
100
AcDbEntity
  8
0
100
AcDbLine
 62
7
  6
CONTINUOUS
 10
14.4194383015
 20
11.7656642025
 11
14.411476927
 21
11.7683382847
  0
SPLINE
  5
5A2
100
AcDbEntity
  8
0
100
AcDbSpline
 62
7
  6
CONTINUOUS
 70
0
 71
3
 72
9
 73
5
 74
0
 42
0.0000001
 43
0.0000001
 44
0.0000000001
 40
0.0
 40
0.0
 40
0.0
 40
0.0
 40
0.5041547307
 40
1.0
 40
1.0
 40
1.0
 40
1.0
 10
14.4366358283
 20
11.7615176834
 30
0.0
 10
14.433712469
 20
11.762063207
 30
0.0
 10
14.4279453349
 20
11.7633153216
 30
0.0
 10
14.4222421088
 20
11.7648316333
 30
0.0
 10
14.4194383015
 20
11.7656642025
 30
0.0
  0
SPLINE
  5
5A3
100
AcDbEntity
  8
0
100
AcDbSpline
 62
7
  6
CONTINUOUS
 70
0
 71
3
 72
14
 73
10
 74
0
 42
0.0000001
 43
0.0000001
 44
0.0000000001
 40
0.0
 40
0.0
 40
0.0
 40
0.0
 40
0.1024483045
 40
0.2191904172
 40
0.3466402753
 40
0.4808489955
 40
0.7525542051
 40
0.8815785914
 40
1.0
 40
1.0
 40
1.0
 40
1.0
 10
15.8801195981
 20
11.761517667
 30
0.0
 10
15.8799400704
 20
11.761883506
 30
0.0
 10
15.8796222314
 20
11.7626988842
 30
0.0
 10
15.8792687994
 20
11.7640337075
 30
0.0
 10
15.8790228591
 20
11.7655208819
 30
0.0
 10
15.8788480732
 20
11.7676366506
 30
0.0
 10
15.8789112965
 20
11.7697740707
 30
0.0
 10
15.8792210371
 20
11.7718174583
 30
0.0
 10
15.8794556819
 20
11.772775536
 30
0.0
 10
15.8795947588
 20
11.7732255889
 30
0.0
  0
SPLINE
  5
5A4
100
AcDbEntity
  8
0
100
AcDbSpline
 62
7
  6
CONTINUOUS
 70
0
 71
3
 72
15
 73
11
 74
0
 42
0.0000001
 43
0.0000001
 44
0.0000000001
 40
0.0
 40
0.0
 40
0.0
 40
0.0
 40
0.1003710209
 40
0.2122513675
 40
0.3342542175
 40
0.4642564827
 40
0.5992461729
 40
0.7358379374
 40
0.8706712666
 40
1.0
 40
1.0
 40
1.0
 40
1.0
 10
16.2614399535
 20
12.8867600293
 30
0.0
 10
16.2617961725
 20
12.8860435705
 30
0.0
 10
16.2627369042
 20
12.8846195828
 30
0.0
 10
16.2645916437
 20
12.882691653
 30
0.0
 10
16.2669022048
 20
12.8809216886
 30
0.0
 10
16.2695801346
 20
12.879374836
 30
0.0
 10
16.2725261711
 20
12.8781046538
 30
0.0
 10
16.2756326457
 20
12.8771606871
 30
0.0
 10
16.2787806274
 20
12.8765797503
 30
0.0
 10
16.2808884932
 20
12.8764421322
 30
0.0
 10
16.2819194594
 20
12.876445166
 30
0.0
  0
SPLINE
  5
5A5
100
AcDbEntity
  8
0
100
AcDbSpline
 62
7
  6
CONTINUOUS
 70
0
 71
3
 72
13
 73
9
 74
0
 42
0.0000001
 43
0.0000001
 44
0.0000000001
 40
0.0
 40
0.0
 40
0.0
 40
0.0
 40
0.0997837837
 40
0.2030423038
 40
0.3128154785
 40
0.4312012888
 40
0.6971572347
 40
1.0
 40
1.0
 40
1.0
 40
1.0
 10
16.0374067637
 20
13.288132016
 30
0.0
 10
16.0374702791
 20
13.2883371434
 30
0.0
 10
16.0376501555
 20
13.2887404954
 30
0.0
 10
16.0380594078
 20
13.2892814048
 30
0.0
 10
16.0386009804
 20
13.2897523725
 30
0.0
 10
16.0395179781
 20
13.2902998025
 30
0.0
 10
16.0409473544
 20
13.2907474854
 30
0.0
 10
16.0421748577
 20
13.2908517133
 30
0.0
 10
16.0428265787
 20
13.2908517133
 30
0.0
  0
SPLINE
  5
5A6
100
AcDbEntity
  8
0
100
AcDbSpline
 62
7
  6
CONTINUOUS
 70
0
 71
3
 72
14
 73
10
 74
0
 42
0.0000001
 43
0.0000001
 44
0.0000000001
 40
0.0
 40
0.0
 40
0.0
 40
0.0
 40
0.1003000731
 40
0.2122566843
 40
0.3343410648
 40
0.4642694682
 40
0.7355421905
 40
0.8706126685
 40
1.0
 40
1.0
 40
1.0
 40
1.0
 10
16.0630922405
 20
13.2856942325
 30
0.0
 10
16.0629148318
 20
13.2860510524
 30
0.0
 10
16.0624455872
 20
13.2867604325
 30
0.0
 10
16.0615226812
 20
13.2877230279
 30
0.0
 10
16.0603711037
 20
13.2886060786
 30
0.0
 10
16.0585690773
 20
13.2896506622
 30
0.0
 10
16.0565468582
 20
13.2903894698
 30
0.0
 10
16.0544515965
 20
13.2907797968
 30
0.0
 10
16.0533999344
 20
13.2908517133
 30
0.0
 10
16.0528858813
 20
13.2908517133
 30
0.0
  0
SPLINE
  5
5A7
100
AcDbEntity
  8
0
100
AcDbSpline
 62
7
  6
CONTINUOUS
 70
0
 71
3
 72
14
 73
10
 74
0
 42
0.0000001
 43
0.0000001
 44
0.0000000001
 40
0.0
 40
0.0
 40
0.0
 40
0.0
 40
0.1184215193
 40
0.2474460112
 40
0.5191514655
 40
0.653360451
 40
0.7808103008
 40
0.8975519475
 40
1.0
 40
1.0
 40
1.0
 40
1.0
 10
15.9409988251
 20
11.7732255889
 30
0.0
 10
15.9408597482
 20
11.7727755361
 30
0.0
 10
15.9406251035
 20
11.7718174587
 30
0.0
 10
15.9403153628
 20
11.7697740717
 30
0.0
 10
15.9402521402
 20
11.7676366517
 30
0.0
 10
15.940426924
 20
11.7655208834
 30
0.0
 10
15.9406728636
 20
11.7640337113
 30
0.0
 10
15.9410263005
 20
11.7626988937
 30
0.0
 10
15.9413441424
 20
11.761883521
 30
0.0
 10
15.9415236694
 20
11.7615176834
 30
0.0
  0
SPLINE
  5
5A8
100
AcDbEntity
  8
0
100
AcDbSpline
 62
7
  6
CONTINUOUS
 70
0
 71
3
 72
20
 73
16
 74
0
 42
0.0000001
 43
0.0000001
 44
0.0000000001
 40
0.0
 40
0.0
 40
0.0
 40
0.0
 40
0.0714635474
 40
0.145270886
 40
0.2964299024
 40
0.4471882284
 40
0.5911436115
 40
0.6587254772
 40
0.7224139984
 40
0.7815927999
 40
0.8357493155
 40
0.8845063803
 40
0.927815475
 40
0.9659637311
 40
1.0
 40
1.0
 40
1.0
 40
1.0
 10
15.2854663558
 20
11.7320350776
 30
0.0
 10
15.2833999277
 20
11.7333686504
 30
0.0
 10
15.2790903176
 20
11.7359140714
 30
0.0
 10
15.2699496201
 20
11.7404586213
 30
0.0
 10
15.2577942567
 20
11.7449950029
 30
0.0
 10
15.2427960797
 20
11.7484300227
 30
0.0
 10
15.2303250417
 20
11.7495227692
 30
0.0
 10
15.2208486536
 20
11.7492198036
 30
0.0
 10
15.2143309944
 20
11.7484463244
 30
0.0
 10
15.2083673222
 20
11.7471522881
 30
0.0
 10
15.203062846
 20
11.7453856977
 30
0.0
 10
15.19851037
 20
11.7432070884
 30
0.0
 10
15.1947690229
 20
11.7407079918
 30
0.0
 10
15.1918599242
 20
11.7379704666
 30
0.0
 10
15.1903961236
 20
11.7359391964
 30
0.0
 10
15.1898175452
 20
11.7349207256
 30
0.0
  0
SPLINE
  5
5A9
100
AcDbEntity
  8
0
100
AcDbSpline
 62
7
  6
CONTINUOUS
 70
0
 71
3
 72
9
 73
5
 74
0
 42
0.0000001
 43
0.0000001
 44
0.0000000001
 40
0.0
 40
0.0
 40
0.0
 40
0.0
 40
0.525752389
 40
1.0
 40
1.0
 40
1.0
 40
1.0
 10
14.8720073809
 20
11.7683375273
 30
0.0
 10
14.8719968406
 20
11.7692012378
 30
0.0
 10
14.8720695252
 20
11.7708463469
 30
0.0
 10
14.8723477547
 20
11.7724728863
 30
0.0
 10
14.8725494244
 20
11.7732254907
 30
0.0
  0
LINE
  5
5AA
100
AcDbEntity
  8
0
100
AcDbLine
 62
7
  6
CONTINUOUS
 10
14.8799687985
 20
11.7656642025
 11
14.872007424
 21
11.7683382847
  0
SPLINE
  5
5AB
100
AcDbEntity
  8
0
100
AcDbSpline
 62
7
  6
CONTINUOUS
 70
0
 71
3
 72
9
 73
5
 74
0
 42
0.0000001
 43
0.0000001
 44
0.0000000001
 40
0.0
 40
0.0
 40
0.0
 40
0.0
 40
0.5041547307
 40
1.0
 40
1.0
 40
1.0
 40
1.0
 10
14.8971663253
 20
11.7615176834
 30
0.0
 10
14.894242966
 20
11.762063207
 30
0.0
 10
14.8884758319
 20
11.7633153216
 30
0.0
 10
14.8827726058
 20
11.7648316333
 30
0.0
 10
14.8799687985
 20
11.7656642025
 30
0.0
  0
SPLINE
  5
5AC
100
AcDbEntity
  8
0
100
AcDbSpline
 62
7
  6
CONTINUOUS
 70
0
 71
3
 72
14
 73
10
 74
0
 42
0.0000001
 43
0.0000001
 44
0.0000000001
 40
0.0
 40
0.0
 40
0.0
 40
0.0
 40
0.1024483045
 40
0.2191904172
 40
0.3466402753
 40
0.4808489955
 40
0.7525542051
 40
0.8815785914
 40
1.0
 40
1.0
 40
1.0
 40
1.0
 10
16.3406500951
 20
11.761517667
 30
0.0
 10
16.3404705674
 20
11.761883506
 30
0.0
 10
16.3401527284
 20
11.7626988842
 30
0.0
 10
16.3397992964
 20
11.7640337075
 30
0.0
 10
16.3395533561
 20
11.7655208819
 30
0.0
 10
16.3393785702
 20
11.7676366506
 30
0.0
 10
16.3394417935
 20
11.7697740707
 30
0.0
 10
16.3397515341
 20
11.7718174583
 30
0.0
 10
16.3399861789
 20
11.772775536
 30
0.0
 10
16.3401252558
 20
11.7732255889
 30
0.0
  0
SPLINE
  5
5AD
100
AcDbEntity
  8
0
100
AcDbSpline
 62
7
  6
CONTINUOUS
 70
0
 71
3
 72
15
 73
11
 74
0
 42
0.0000001
 43
0.0000001
 44
0.0000000001
 40
0.0
 40
0.0
 40
0.0
 40
0.0
 40
0.1003710209
 40
0.2122513675
 40
0.3342542175
 40
0.4642564827
 40
0.5992461729
 40
0.7358379374
 40
0.8706712666
 40
1.0
 40
1.0
 40
1.0
 40
1.0
 10
16.7219704505
 20
12.8867600293
 30
0.0
 10
16.7223266695
 20
12.8860435705
 30
0.0
 10
16.7232674012
 20
12.8846195828
 30
0.0
 10
16.7251221407
 20
12.882691653
 30
0.0
 10
16.7274327018
 20
12.8809216886
 30
0.0
 10
16.7301106316
 20
12.879374836
 30
0.0
 10
16.7330566681
 20
12.8781046538
 30
0.0
 10
16.7361631427
 20
12.8771606871
 30
0.0
 10
16.7393111244
 20
12.8765797503
 30
0.0
 10
16.7414189902
 20
12.8764421322
 30
0.0
 10
16.7424499564
 20
12.876445166
 30
0.0
  0
SPLINE
  5
5AE
100
AcDbEntity
  8
0
100
AcDbSpline
 62
7
  6
CONTINUOUS
 70
0
 71
3
 72
13
 73
9
 74
0
 42
0.0000001
 43
0.0000001
 44
0.0000000001
 40
0.0
 40
0.0
 40
0.0
 40
0.0
 40
0.0997837837
 40
0.2030423038
 40
0.3128154785
 40
0.4312012888
 40
0.6971572347
 40
1.0
 40
1.0
 40
1.0
 40
1.0
 10
16.4979372607
 20
13.288132016
 30
0.0
 10
16.4980007761
 20
13.2883371434
 30
0.0
 10
16.4981806525
 20
13.2887404954
 30
0.0
 10
16.4985899048
 20
13.2892814048
 30
0.0
 10
16.4991314774
 20
13.2897523725
 30
0.0
 10
16.5000484751
 20
13.2902998025
 30
0.0
 10
16.5014778514
 20
13.2907474854
 30
0.0
 10
16.5027053547
 20
13.2908517133
 30
0.0
 10
16.5033570757
 20
13.2908517133
 30
0.0
  0
SPLINE
  5
5AF
100
AcDbEntity
  8
0
100
AcDbSpline
 62
7
  6
CONTINUOUS
 70
0
 71
3
 72
14
 73
10
 74
0
 42
0.0000001
 43
0.0000001
 44
0.0000000001
 40
0.0
 40
0.0
 40
0.0
 40
0.0
 40
0.1003000731
 40
0.2122566843
 40
0.3343410648
 40
0.4642694682
 40
0.7355421905
 40
0.8706126685
 40
1.0
 40
1.0
 40
1.0
 40
1.0
 10
16.5236227375
 20
13.2856942325
 30
0.0
 10
16.5234453288
 20
13.2860510524
 30
0.0
 10
16.5229760842
 20
13.2867604325
 30
0.0
 10
16.5220531782
 20
13.2877230279
 30
0.0
 10
16.5209016007
 20
13.2886060786
 30
0.0
 10
16.5190995743
 20
13.2896506622
 30
0.0
 10
16.5170773552
 20
13.2903894698
 30
0.0
 10
16.5149820935
 20
13.2907797968
 30
0.0
 10
16.5139304314
 20
13.2908517133
 30
0.0
 10
16.5134163783
 20
13.2908517133
 30
0.0
  0
SPLINE
  5
5B0
100
AcDbEntity
  8
0
100
AcDbSpline
 62
7
  6
CONTINUOUS
 70
0
 71
3
 72
14
 73
10
 74
0
 42
0.0000001
 43
0.0000001
 44
0.0000000001
 40
0.0
 40
0.0
 40
0.0
 40
0.0
 40
0.1184215193
 40
0.2474460112
 40
0.5191514655
 40
0.653360451
 40
0.7808103008
 40
0.8975519475
 40
1.0
 40
1.0
 40
1.0
 40
1.0
 10
16.4015293221
 20
11.7732255889
 30
0.0
 10
16.4013902452
 20
11.7727755361
 30
0.0
 10
16.4011556005
 20
11.7718174587
 30
0.0
 10
16.4008458598
 20
11.7697740717
 30
0.0
 10
16.4007826372
 20
11.7676366517
 30
0.0
 10
16.400957421
 20
11.7655208834
 30
0.0
 10
16.4012033606
 20
11.7640337113
 30
0.0
 10
16.4015567975
 20
11.7626988937
 30
0.0
 10
16.4018746394
 20
11.761883521
 30
0.0
 10
16.4020541664
 20
11.7615176834
 30
0.0
  0
SPLINE
  5
5B1
100
AcDbEntity
  8
0
100
AcDbSpline
 62
7
  6
CONTINUOUS
 70
0
 71
3
 72
20
 73
16
 74
0
 42
0.0000001
 43
0.0000001
 44
0.0000000001
 40
0.0
 40
0.0
 40
0.0
 40
0.0
 40
0.0714635474
 40
0.145270886
 40
0.2964299024
 40
0.4471882284
 40
0.5911436115
 40
0.6587254772
 40
0.7224139984
 40
0.7815927999
 40
0.8357493155
 40
0.8845063803
 40
0.927815475
 40
0.9659637311
 40
1.0
 40
1.0
 40
1.0
 40
1.0
 10
15.7459968528
 20
11.7320350776
 30
0.0
 10
15.7439304247
 20
11.7333686504
 30
0.0
 10
15.7396208146
 20
11.7359140714
 30
0.0
 10
15.7304801171
 20
11.7404586213
 30
0.0
 10
15.7183247537
 20
11.7449950029
 30
0.0
 10
15.7033265767
 20
11.7484300227
 30
0.0
 10
15.6908555387
 20
11.7495227692
 30
0.0
 10
15.6813791506
 20
11.7492198036
 30
0.0
 10
15.6748614914
 20
11.7484463244
 30
0.0
 10
15.6688978192
 20
11.7471522881
 30
0.0
 10
15.663593343
 20
11.7453856977
 30
0.0
 10
15.659040867
 20
11.7432070884
 30
0.0
 10
15.6552995199
 20
11.7407079918
 30
0.0
 10
15.6523904212
 20
11.7379704666
 30
0.0
 10
15.6509266206
 20
11.7359391964
 30
0.0
 10
15.6503480422
 20
11.7349207256
 30
0.0
  0
SPLINE
  5
5B2
100
AcDbEntity
  8
0
100
AcDbSpline
 62
7
  6
CONTINUOUS
 70
0
 71
3
 72
9
 73
5
 74
0
 42
0.0000001
 43
0.0000001
 44
0.0000000001
 40
0.0
 40
0.0
 40
0.0
 40
0.0
 40
0.525752389
 40
1.0
 40
1.0
 40
1.0
 40
1.0
 10
15.3325378779
 20
11.7683375273
 30
0.0
 10
15.3325273376
 20
11.7692012378
 30
0.0
 10
15.3326000222
 20
11.7708463469
 30
0.0
 10
15.3328782517
 20
11.7724728863
 30
0.0
 10
15.3330799214
 20
11.7732254907
 30
0.0
  0
LINE
  5
5B3
100
AcDbEntity
  8
0
100
AcDbLine
 62
7
  6
CONTINUOUS
 10
15.3404992955
 20
11.7656642025
 11
15.332537921
 21
11.7683382847
  0
SPLINE
  5
5B4
100
AcDbEntity
  8
0
100
AcDbSpline
 62
7
  6
CONTINUOUS
 70
0
 71
3
 72
9
 73
5
 74
0
 42
0.0000001
 43
0.0000001
 44
0.0000000001
 40
0.0
 40
0.0
 40
0.0
 40
0.0
 40
0.5041547307
 40
1.0
 40
1.0
 40
1.0
 40
1.0
 10
15.3576968223
 20
11.7615176834
 30
0.0
 10
15.354773463
 20
11.762063207
 30
0.0
 10
15.3490063289
 20
11.7633153216
 30
0.0
 10
15.3433031028
 20
11.7648316333
 30
0.0
 10
15.3404992955
 20
11.7656642025
 30
0.0
  0
SPLINE
  5
5B5
100
AcDbEntity
  8
0
100
AcDbSpline
 62
7
  6
CONTINUOUS
 70
0
 71
3
 72
14
 73
10
 74
0
 42
0.0000001
 43
0.0000001
 44
0.0000000001
 40
0.0
 40
0.0
 40
0.0
 40
0.0
 40
0.1024483045
 40
0.2191904172
 40
0.3466402753
 40
0.4808489955
 40
0.7525542051
 40
0.8815785914
 40
1.0
 40
1.0
 40
1.0
 40
1.0
 10
16.8011805921
 20
11.761517667
 30
0.0
 10
16.8010010644
 20
11.761883506
 30
0.0
 10
16.8006832254
 20
11.7626988842
 30
0.0
 10
16.8003297934
 20
11.7640337075
 30
0.0
 10
16.8000838531
 20
11.7655208819
 30
0.0
 10
16.7999090672
 20
11.7676366506
 30
0.0
 10
16.7999722905
 20
11.7697740707
 30
0.0
 10
16.8002820311
 20
11.7718174583
 30
0.0
 10
16.8005166759
 20
11.772775536
 30
0.0
 10
16.8006557528
 20
11.7732255889
 30
0.0
  0
SPLINE
  5
5B6
100
AcDbEntity
  8
0
100
AcDbSpline
 62
7
  6
CONTINUOUS
 70
0
 71
3
 72
15
 73
11
 74
0
 42
0.0000001
 43
0.0000001
 44
0.0000000001
 40
0.0
 40
0.0
 40
0.0
 40
0.0
 40
0.1003710209
 40
0.2122513675
 40
0.3342542175
 40
0.4642564827
 40
0.5992461729
 40
0.7358379374
 40
0.8706712666
 40
1.0
 40
1.0
 40
1.0
 40
1.0
 10
17.1825009475
 20
12.8867600293
 30
0.0
 10
17.1828571665
 20
12.8860435705
 30
0.0
 10
17.1837978982
 20
12.8846195828
 30
0.0
 10
17.1856526377
 20
12.882691653
 30
0.0
 10
17.1879631988
 20
12.8809216886
 30
0.0
 10
17.1906411286
 20
12.879374836
 30
0.0
 10
17.1935871651
 20
12.8781046538
 30
0.0
 10
17.1966936397
 20
12.8771606871
 30
0.0
 10
17.1998416214
 20
12.8765797503
 30
0.0
 10
17.2019494872
 20
12.8764421322
 30
0.0
 10
17.2029804534
 20
12.876445166
 30
0.0
  0
SPLINE
  5
5B7
100
AcDbEntity
  8
0
100
AcDbSpline
 62
7
  6
CONTINUOUS
 70
0
 71
3
 72
13
 73
9
 74
0
 42
0.0000001
 43
0.0000001
 44
0.0000000001
 40
0.0
 40
0.0
 40
0.0
 40
0.0
 40
0.0997837837
 40
0.2030423038
 40
0.3128154785
 40
0.4312012888
 40
0.6971572347
 40
1.0
 40
1.0
 40
1.0
 40
1.0
 10
16.9584677577
 20
13.288132016
 30
0.0
 10
16.9585312731
 20
13.2883371434
 30
0.0
 10
16.9587111495
 20
13.2887404954
 30
0.0
 10
16.9591204018
 20
13.2892814048
 30
0.0
 10
16.9596619744
 20
13.2897523725
 30
0.0
 10
16.9605789721
 20
13.2902998025
 30
0.0
 10
16.9620083484
 20
13.2907474854
 30
0.0
 10
16.9632358517
 20
13.2908517133
 30
0.0
 10
16.9638875727
 20
13.2908517133
 30
0.0
  0
SPLINE
  5
5B8
100
AcDbEntity
  8
0
100
AcDbSpline
 62
7
  6
CONTINUOUS
 70
0
 71
3
 72
14
 73
10
 74
0
 42
0.0000001
 43
0.0000001
 44
0.0000000001
 40
0.0
 40
0.0
 40
0.0
 40
0.0
 40
0.1003000731
 40
0.2122566843
 40
0.3343410648
 40
0.4642694682
 40
0.7355421905
 40
0.8706126685
 40
1.0
 40
1.0
 40
1.0
 40
1.0
 10
16.9841532345
 20
13.2856942325
 30
0.0
 10
16.9839758258
 20
13.2860510524
 30
0.0
 10
16.9835065812
 20
13.2867604325
 30
0.0
 10
16.9825836752
 20
13.2877230279
 30
0.0
 10
16.9814320977
 20
13.2886060786
 30
0.0
 10
16.9796300713
 20
13.2896506622
 30
0.0
 10
16.9776078522
 20
13.2903894698
 30
0.0
 10
16.9755125905
 20
13.2907797968
 30
0.0
 10
16.9744609284
 20
13.2908517133
 30
0.0
 10
16.9739468753
 20
13.2908517133
 30
0.0
  0
SPLINE
  5
5B9
100
AcDbEntity
  8
0
100
AcDbSpline
 62
7
  6
CONTINUOUS
 70
0
 71
3
 72
14
 73
10
 74
0
 42
0.0000001
 43
0.0000001
 44
0.0000000001
 40
0.0
 40
0.0
 40
0.0
 40
0.0
 40
0.1184215193
 40
0.2474460112
 40
0.5191514655
 40
0.653360451
 40
0.7808103008
 40
0.8975519475
 40
1.0
 40
1.0
 40
1.0
 40
1.0
 10
16.8620598191
 20
11.7732255889
 30
0.0
 10
16.8619207422
 20
11.7727755361
 30
0.0
 10
16.8616860975
 20
11.7718174587
 30
0.0
 10
16.8613763568
 20
11.7697740717
 30
0.0
 10
16.8613131342
 20
11.7676366517
 30
0.0
 10
16.861487918
 20
11.7655208834
 30
0.0
 10
16.8617338576
 20
11.7640337113
 30
0.0
 10
16.8620872945
 20
11.7626988937
 30
0.0
 10
16.8624051364
 20
11.761883521
 30
0.0
 10
16.8625846634
 20
11.7615176834
 30
0.0
  0
SPLINE
  5
5BA
100
AcDbEntity
  8
0
100
AcDbSpline
 62
7
  6
CONTINUOUS
 70
0
 71
3
 72
20
 73
16
 74
0
 42
0.0000001
 43
0.0000001
 44
0.0000000001
 40
0.0
 40
0.0
 40
0.0
 40
0.0
 40
0.0714635474
 40
0.145270886
 40
0.2964299024
 40
0.4471882284
 40
0.5911436115
 40
0.6587254772
 40
0.7224139984
 40
0.7815927999
 40
0.8357493155
 40
0.8845063803
 40
0.927815475
 40
0.9659637311
 40
1.0
 40
1.0
 40
1.0
 40
1.0
 10
16.2065273498
 20
11.7320350776
 30
0.0
 10
16.2044609217
 20
11.7333686504
 30
0.0
 10
16.2001513116
 20
11.7359140714
 30
0.0
 10
16.1910106141
 20
11.7404586213
 30
0.0
 10
16.1788552507
 20
11.7449950029
 30
0.0
 10
16.1638570737
 20
11.7484300227
 30
0.0
 10
16.1513860357
 20
11.7495227692
 30
0.0
 10
16.1419096476
 20
11.7492198036
 30
0.0
 10
16.1353919884
 20
11.7484463244
 30
0.0
 10
16.1294283162
 20
11.7471522881
 30
0.0
 10
16.12412384
 20
11.7453856977
 30
0.0
 10
16.119571364
 20
11.7432070884
 30
0.0
 10
16.1158300169
 20
11.7407079918
 30
0.0
 10
16.1129209182
 20
11.7379704666
 30
0.0
 10
16.1114571176
 20
11.7359391964
 30
0.0
 10
16.1108785392
 20
11.7349207256
 30
0.0
  0
SPLINE
  5
5BB
100
AcDbEntity
  8
0
100
AcDbSpline
 62
7
  6
CONTINUOUS
 70
0
 71
3
 72
9
 73
5
 74
0
 42
0.0000001
 43
0.0000001
 44
0.0000000001
 40
0.0
 40
0.0
 40
0.0
 40
0.0
 40
0.525752389
 40
1.0
 40
1.0
 40
1.0
 40
1.0
 10
15.7930683749
 20
11.7683375273
 30
0.0
 10
15.7930578346
 20
11.7692012378
 30
0.0
 10
15.7931305192
 20
11.7708463469
 30
0.0
 10
15.7934087487
 20
11.7724728863
 30
0.0
 10
15.7936104184
 20
11.7732254907
 30
0.0
  0
LINE
  5
5BC
100
AcDbEntity
  8
0
100
AcDbLine
 62
7
  6
CONTINUOUS
 10
15.8010297925
 20
11.7656642025
 11
15.793068418
 21
11.7683382847
  0
SPLINE
  5
5BD
100
AcDbEntity
  8
0
100
AcDbSpline
 62
7
  6
CONTINUOUS
 70
0
 71
3
 72
9
 73
5
 74
0
 42
0.0000001
 43
0.0000001
 44
0.0000000001
 40
0.0
 40
0.0
 40
0.0
 40
0.0
 40
0.5041547307
 40
1.0
 40
1.0
 40
1.0
 40
1.0
 10
15.8182273193
 20
11.7615176834
 30
0.0
 10
15.81530396
 20
11.762063207
 30
0.0
 10
15.8095368259
 20
11.7633153216
 30
0.0
 10
15.8038335998
 20
11.7648316333
 30
0.0
 10
15.8010297925
 20
11.7656642025
 30
0.0
  0
SPLINE
  5
5BE
100
AcDbEntity
  8
0
100
AcDbSpline
 62
7
  6
CONTINUOUS
 70
0
 71
3
 72
20
 73
16
 74
0
 42
0.0000001
 43
0.0000001
 44
0.0000000001
 40
0.0
 40
0.0
 40
0.0
 40
0.0
 40
0.0714635474
 40
0.145270886
 40
0.2964299024
 40
0.4471882284
 40
0.5911436115
 40
0.6587254772
 40
0.7224139984
 40
0.7815927999
 40
0.8357493155
 40
0.8845063803
 40
0.927815475
 40
0.9659637311
 40
1.0
 40
1.0
 40
1.0
 40
1.0
 10
16.6670578468
 20
11.7320350776
 30
0.0
 10
16.6649914187
 20
11.7333686504
 30
0.0
 10
16.6606818086
 20
11.7359140714
 30
0.0
 10
16.6515411111
 20
11.7404586213
 30
0.0
 10
16.6393857477
 20
11.7449950029
 30
0.0
 10
16.6243875707
 20
11.7484300227
 30
0.0
 10
16.6119165327
 20
11.7495227692
 30
0.0
 10
16.6024401446
 20
11.7492198036
 30
0.0
 10
16.5959224854
 20
11.7484463244
 30
0.0
 10
16.5899588132
 20
11.7471522881
 30
0.0
 10
16.584654337
 20
11.7453856977
 30
0.0
 10
16.580101861
 20
11.7432070884
 30
0.0
 10
16.5763605139
 20
11.7407079918
 30
0.0
 10
16.5734514152
 20
11.7379704666
 30
0.0
 10
16.5719876146
 20
11.7359391964
 30
0.0
 10
16.5714090362
 20
11.7349207256
 30
0.0
  0
SPLINE
  5
5BF
100
AcDbEntity
  8
0
100
AcDbSpline
 62
7
  6
CONTINUOUS
 70
0
 71
3
 72
9
 73
5
 74
0
 42
0.0000001
 43
0.0000001
 44
0.0000000001
 40
0.0
 40
0.0
 40
0.0
 40
0.0
 40
0.525752389
 40
1.0
 40
1.0
 40
1.0
 40
1.0
 10
16.2535988719
 20
11.7683375273
 30
0.0
 10
16.2535883316
 20
11.7692012378
 30
0.0
 10
16.2536610162
 20
11.7708463469
 30
0.0
 10
16.2539392457
 20
11.7724728863
 30
0.0
 10
16.2541409154
 20
11.7732254907
 30
0.0
  0
LINE
  5
5C0
100
AcDbEntity
  8
0
100
AcDbLine
 62
7
  6
CONTINUOUS
 10
16.2615602895
 20
11.7656642025
 11
16.253598915
 21
11.7683382847
  0
SPLINE
  5
5C1
100
AcDbEntity
  8
0
100
AcDbSpline
 62
7
  6
CONTINUOUS
 70
0
 71
3
 72
9
 73
5
 74
0
 42
0.0000001
 43
0.0000001
 44
0.0000000001
 40
0.0
 40
0.0
 40
0.0
 40
0.0
 40
0.5041547307
 40
1.0
 40
1.0
 40
1.0
 40
1.0
 10
16.2787578163
 20
11.7615176834
 30
0.0
 10
16.275834457
 20
11.762063207
 30
0.0
 10
16.2700673229
 20
11.7633153216
 30
0.0
 10
16.2643640968
 20
11.7648316333
 30
0.0
 10
16.2615602895
 20
11.7656642025
 30
0.0
  0
SPLINE
  5
5C2
100
AcDbEntity
  8
0
100
AcDbSpline
 62
7
  6
CONTINUOUS
 70
0
 71
3
 72
20
 73
16
 74
0
 42
0.0000001
 43
0.0000001
 44
0.0000000001
 40
0.0
 40
0.0
 40
0.0
 40
0.0
 40
0.0714635474
 40
0.145270886
 40
0.2964299024
 40
0.4471882284
 40
0.5911436115
 40
0.6587254772
 40
0.7224139984
 40
0.7815927999
 40
0.8357493155
 40
0.8845063803
 40
0.927815475
 40
0.9659637311
 40
1.0
 40
1.0
 40
1.0
 40
1.0
 10
17.1275883438
 20
11.7320350776
 30
0.0
 10
17.1255219157
 20
11.7333686504
 30
0.0
 10
17.1212123056
 20
11.7359140714
 30
0.0
 10
17.1120716081
 20
11.7404586213
 30
0.0
 10
17.0999162447
 20
11.7449950029
 30
0.0
 10
17.0849180677
 20
11.7484300227
 30
0.0
 10
17.0724470297
 20
11.7495227692
 30
0.0
 10
17.0629706417
 20
11.7492198036
 30
0.0
 10
17.0564529824
 20
11.7484463244
 30
0.0
 10
17.0504893102
 20
11.7471522881
 30
0.0
 10
17.045184834
 20
11.7453856977
 30
0.0
 10
17.040632358
 20
11.7432070884
 30
0.0
 10
17.0368910109
 20
11.7407079918
 30
0.0
 10
17.0339819122
 20
11.7379704666
 30
0.0
 10
17.0325181116
 20
11.7359391964
 30
0.0
 10
17.0319395332
 20
11.7349207256
 30
0.0
  0
SPLINE
  5
5C3
100
AcDbEntity
  8
0
100
AcDbSpline
 62
7
  6
CONTINUOUS
 70
0
 71
3
 72
9
 73
5
 74
0
 42
0.0000001
 43
0.0000001
 44
0.0000000001
 40
0.0
 40
0.0
 40
0.0
 40
0.0
 40
0.525752389
 40
1.0
 40
1.0
 40
1.0
 40
1.0
 10
16.7141293689
 20
11.7683375273
 30
0.0
 10
16.7141188286
 20
11.7692012378
 30
0.0
 10
16.7141915132
 20
11.7708463469
 30
0.0
 10
16.7144697427
 20
11.7724728863
 30
0.0
 10
16.7146714124
 20
11.7732254907
 30
0.0
  0
SPLINE
  5
5C4
100
AcDbEntity
  8
0
100
AcDbSpline
 62
7
  6
CONTINUOUS
 70
0
 71
3
 72
11
 73
7
 74
0
 42
0.0000001
 43
0.0000001
 44
0.0000000001
 40
0.0
 40
0.0
 40
0.0
 40
0.0
 40
0.2409507058
 40
0.4855439049
 40
0.7375598123
 40
1.0
 40
1.0
 40
1.0
 40
1.0
 10
17.367969542
 20
11.90171621
 30
0.0
 10
17.3667751996
 20
11.8978513165
 30
0.0
 10
17.3636296258
 20
11.8902709352
 30
0.0
 10
17.3568421384
 20
11.8798394838
 30
0.0
 10
17.3481359529
 20
11.8704573367
 30
0.0
 10
17.3413205084
 20
11.8650932958
 30
0.0
 10
17.3376823043
 20
11.8626080698
 30
0.0
  0
SPLINE
  5
5C5
100
AcDbEntity
  8
0
100
AcDbSpline
 62
7
  6
CONTINUOUS
 70
0
 71
3
 72
11
 73
7
 74
0
 42
0.0000001
 43
0.0000001
 44
0.0000000001
 40
0.0
 40
0.0
 40
0.0
 40
0.0
 40
0.2393722067
 40
0.4830113215
 40
0.7354351767
 40
1.0
 40
1.0
 40
1.0
 40
1.0
 10
17.3921761743
 20
11.9800489009
 30
0.0
 10
17.3934810506
 20
11.9842714822
 30
0.0
 10
17.3952431313
 20
11.993087528
 30
0.0
 10
17.3952088353
 20
12.0067465589
 30
0.0
 10
17.3925893359
 20
12.0206154688
 30
0.0
 10
17.3892836469
 20
12.0296170271
 30
0.0
 10
17.3872826137
 20
12.034073099
 30
0.0
  0
SPLINE
  5
5C6
100
AcDbEntity
  8
0
100
AcDbSpline
 62
7
  6
CONTINUOUS
 70
0
 71
3
 72
20
 73
16
 74
0
 42
0.0000001
 43
0.0000001
 44
0.0000000001
 40
0.0
 40
0.0
 40
0.0
 40
0.0
 40
0.0504202615
 40
0.1032689796
 40
0.1585191788
 40
0.2161522802
 40
0.2760896151
 40
0.3381331964
 40
0.40202379
 40
0.4674475545
 40
0.6014147816
 40
0.7369769082
 40
0.8708548982
 40
0.9362373436
 40
1.0
 40
1.0
 40
1.0
 40
1.0
 10
17.3750632584
 20
12.0591130449
 30
0.0
 10
17.373525188
 20
12.0622473027
 30
0.0
 10
17.3699917897
 20
12.0684837683
 30
0.0
 10
17.3636178294
 20
12.0774399422
 30
0.0
 10
17.3561141661
 20
12.0861430114
 30
0.0
 10
17.3475583975
 20
12.0945279103
 30
0.0
 10
17.338027453
 20
12.1025356233
 30
0.0
 10
17.3276072942
 20
12.1101068755
 30
0.0
 10
17.3163893748
 20
12.1171765541
 30
0.0
 10
17.3003835311
 20
12.1259240591
 30
0.0
 10
17.2790643479
 20
12.1352027021
 30
0.0
 10
17.2523117132
 20
12.1434250601
 30
0.0
 10
17.2294696254
 20
12.1477195044
 30
0.0
 10
17.2113315152
 20
12.1494633849
 30
0.0
 10
17.2023864565
 20
12.1497645679
 30
0.0
 10
17.1979712655
 20
12.1497645679
 30
0.0
  0
SPLINE
  5
5C7
100
AcDbEntity
  8
0
100
AcDbSpline
 62
7
  6
CONTINUOUS
 70
0
 71
3
 72
11
 73
7
 74
0
 42
0.0000001
 43
0.0000001
 44
0.0000000001
 40
0.0
 40
0.0
 40
0.0
 40
0.0
 40
0.2409507058
 40
0.4855439049
 40
0.7375598123
 40
1.0
 40
1.0
 40
1.0
 40
1.0
 10
17.5204713257
 20
12.395212163
 30
0.0
 10
17.5192769833
 20
12.3913472695
 30
0.0
 10
17.5161314096
 20
12.3837668883
 30
0.0
 10
17.5093439222
 20
12.3733354369
 30
0.0
 10
17.5006377366
 20
12.3639532897
 30
0.0
 10
17.4938222922
 20
12.3585892489
 30
0.0
 10
17.4901840881
 20
12.3561040228
 30
0.0
  0
SPLINE
  5
5C8
100
AcDbEntity
  8
0
100
AcDbSpline
 62
7
  6
CONTINUOUS
 70
0
 71
3
 72
11
 73
7
 74
0
 42
0.0000001
 43
0.0000001
 44
0.0000000001
 40
0.0
 40
0.0
 40
0.0
 40
0.0
 40
0.2274615423
 40
0.470128219
 40
0.7279596982
 40
1.0
 40
1.0
 40
1.0
 40
1.0
 10
17.5275650421
 20
12.552608998
 30
0.0
 10
17.5253738011
 20
12.5570742777
 30
0.0
 10
17.520061536
 20
12.5659305304
 30
0.0
 10
17.5100372375
 20
12.5783486106
 30
0.0
 10
17.4978985491
 20
12.5901481599
 30
0.0
 10
17.488769854
 20
12.5973199975
 30
0.0
 10
17.4839268759
 20
12.6007744823
 30
0.0
  0
SPLINE
  5
5C9
100
AcDbEntity
  8
0
100
AcDbSpline
 62
7
  6
CONTINUOUS
 70
0
 71
3
 72
11
 73
7
 74
0
 42
0.0000001
 43
0.0000001
 44
0.0000000001
 40
0.0
 40
0.0
 40
0.0
 40
0.0
 40
0.2393722067
 40
0.4830113215
 40
0.7354351767
 40
1.0
 40
1.0
 40
1.0
 40
1.0
 10
17.5446779581
 20
12.473544854
 30
0.0
 10
17.5459828344
 20
12.4777674353
 30
0.0
 10
17.547744915
 20
12.4865834811
 30
0.0
 10
17.5477106191
 20
12.5002425119
 30
0.0
 10
17.5450911197
 20
12.5141114219
 30
0.0
 10
17.5417854306
 20
12.5231129802
 30
0.0
 10
17.5397843975
 20
12.5275690521
 30
0.0
  0
SPLINE
  5
5CA
100
AcDbEntity
  8
0
100
AcDbSpline
 62
7
  6
CONTINUOUS
 70
0
 71
3
 72
16
 73
12
 74
0
 42
0.0000001
 43
0.0000001
 44
0.0000000001
 40
0.0
 40
0.0
 40
0.0
 40
0.0
 40
0.0464147009
 40
0.0935197564
 40
0.1920623412
 40
0.2998385015
 40
0.4189734662
 40
0.5498916003
 40
0.6916866243
 40
0.8426494359
 40
1.0
 40
1.0
 40
1.0
 40
1.0
 10
17.2877848581
 20
12.4932400385
 30
0.0
 10
17.2880595511
 20
12.4941289696
 30
0.0
 10
17.2887491438
 20
12.4958812817
 30
0.0
 10
17.2906807059
 20
12.4992254641
 30
0.0
 10
17.2941547893
 20
12.5030232595
 30
0.0
 10
17.2996364302
 20
12.5066528384
 30
0.0
 10
17.3063149552
 20
12.5093733469
 30
0.0
 10
17.3140004777
 20
12.5111276193
 30
0.0
 10
17.3224829514
 20
12.5118780019
 30
0.0
 10
17.3315194696
 20
12.5116040878
 30
0.0
 10
17.3376548712
 20
12.5107603389
 30
0.0
 10
17.3407544696
 20
12.5101761479
 30
0.0
  0
SPLINE
  5
5CB
100
AcDbEntity
  8
0
100
AcDbSpline
 62
7
  6
CONTINUOUS
 70
0
 71
3
 72
12
 73
8
 74
0
 42
0.0000001
 43
0.0000001
 44
0.0000000001
 40
0.0
 40
0.0
 40
0.0
 40
0.0
 40
0.2499850758
 40
0.5046278521
 40
0.7568536404
 40
0.8800056455
 40
1.0
 40
1.0
 40
1.0
 40
1.0
 10
17.5553542248
 20
12.9082581847
 30
0.0
 10
17.5467019944
 20
12.9130602719
 30
0.0
 10
17.5285742328
 20
12.9216007589
 30
0.0
 10
17.5000631914
 20
12.9310129307
 30
0.0
 10
17.4755455874
 20
12.9359524933
 30
0.0
 10
17.4560291959
 20
12.9379657567
 30
0.0
 10
17.4464012697
 20
12.9383136569
 30
0.0
 10
17.4416513644
 20
12.9383136569
 30
0.0
  0
SPLINE
  5
5CC
100
AcDbEntity
  8
0
100
AcDbSpline
 62
7
  6
CONTINUOUS
 70
0
 71
3
 72
13
 73
9
 74
0
 42
0.0000001
 43
0.0000001
 44
0.0000000001
 40
0.0
 40
0.0
 40
0.0
 40
0.0
 40
0.3301128869
 40
0.6037874452
 40
0.7193294922
 40
0.8219204487
 40
0.9141251347
 40
1.0
 40
1.0
 40
1.0
 40
1.0
 10
17.2425261028
 20
12.5456110814
 30
0.0
 10
17.2426629963
 20
12.5460540688
 30
0.0
 10
17.2429600814
 20
12.5468510085
 30
0.0
 10
17.2434697872
 20
12.547733723
 30
0.0
 10
17.2439311403
 20
12.5482511833
 30
0.0
 10
17.2442739998
 20
12.5485246162
 30
0.0
 10
17.2446304246
 20
12.5487011304
 30
0.0
 10
17.2448793849
 20
12.5487508417
 30
0.0
 10
17.2449998342
 20
12.5487571547
 30
0.0
  0
SPLINE
  5
5CD
100
AcDbEntity
  8
0
100
AcDbSpline
 62
7
  6
CONTINUOUS
 70
0
 71
3
 72
11
 73
7
 74
0
 42
0.0000001
 43
0.0000001
 44
0.0000000001
 40
0.0
 40
0.0
 40
0.0
 40
0.0
 40
0.2266877774
 40
0.4801132427
 40
0.7433152484
 40
1.0
 40
1.0
 40
1.0
 40
1.0
 10
17.2526497943
 20
11.8392737546
 30
0.0
 10
17.2519538412
 20
11.8392737546
 30
0.0
 10
17.250478143
 20
11.8391172466
 30
0.0
 10
17.2482734092
 20
11.838490774
 30
0.0
 10
17.2461164724
 20
11.8374748743
 30
0.0
 10
17.2447935339
 20
11.8365661375
 30
0.0
 10
17.2441865516
 20
11.8360635543
 30
0.0
  0
LINE
  5
5CE
100
AcDbEntity
  8
0
100
AcDbLine
 62
7
  6
CONTINUOUS
 10
17.2441865516
 20
11.8360635543
 11
17.2422782985
 21
11.8340728919
  0
SPLINE
  5
5CF
100
AcDbEntity
  8
0
100
AcDbSpline
 62
7
  6
CONTINUOUS
 70
0
 71
3
 72
10
 73
6
 74
0
 42
0.0000001
 43
0.0000001
 44
0.0000000001
 40
0.0
 40
0.0
 40
0.0
 40
0.0
 40
0.5218651137
 40
0.7713002968
 40
1.0
 40
1.0
 40
1.0
 40
1.0
 10
17.1216608196
 20
12.1497569539
 30
0.0
 10
17.1215684563
 20
12.1509473351
 30
0.0
 10
17.1215802319
 20
12.152723423
 30
0.0
 10
17.1218903263
 20
12.1549920772
 30
0.0
 10
17.1221453451
 20
12.1560588067
 30
0.0
 10
17.1222998289
 20
12.1565587163
 30
0.0
  0
LINE
  5
5D0
100
AcDbEntity
  8
0
100
AcDbLine
 62
7
  6
CONTINUOUS
 10
16.7220907865
 20
11.7656642025
 11
16.714129412
 21
11.7683382847
  0
SPLINE
  5
5D1
100
AcDbEntity
  8
0
100
AcDbSpline
 62
7
  6
CONTINUOUS
 70
0
 71
3
 72
13
 73
9
 74
0
 42
0.0000001
 43
0.0000001
 44
0.0000000001
 40
0.0
 40
0.0
 40
0.0
 40
0.0
 40
0.3313112862
 40
0.6057681108
 40
0.7207567584
 40
0.8225781482
 40
0.914154074
 40
1.0
 40
1.0
 40
1.0
 40
1.0
 10
17.1167401808
 20
12.1466113177
 30
0.0
 10
17.1168798802
 20
12.1470633849
 30
0.0
 10
17.1171849947
 20
12.1478755196
 30
0.0
 10
17.11770798
 20
12.1487736291
 30
0.0
 10
17.1181848549
 20
12.1492921154
 30
0.0
 10
17.1185379143
 20
12.1495602792
 30
0.0
 10
17.1189048721
 20
12.1497264135
 30
0.0
 10
17.1191595942
 20
12.1497642561
 30
0.0
 10
17.1192821946
 20
12.1497642039
 30
0.0
  0
SPLINE
  5
5D2
100
AcDbEntity
  8
0
100
AcDbSpline
 62
7
  6
CONTINUOUS
 70
0
 71
3
 72
14
 73
10
 74
0
 42
0.0000001
 43
0.0000001
 44
0.0000000001
 40
0.0
 40
0.0
 40
0.0
 40
0.0
 40
0.1024592622
 40
0.2192167295
 40
0.3466617895
 40
0.480851513
 40
0.7525290595
 40
0.8815682417
 40
1.0
 40
1.0
 40
1.0
 40
1.0
 10
17.2455601284
 20
12.5500667724
 30
0.0
 10
17.2453805838
 20
12.5504326458
 30
0.0
 10
17.245062782
 20
12.5512481415
 30
0.0
 10
17.2447093514
 20
12.5525830311
 30
0.0
 10
17.2444634357
 20
12.5540701582
 30
0.0
 10
17.2442887454
 20
12.5561857003
 30
0.0
 10
17.2443519062
 20
12.5583229647
 30
0.0
 10
17.2446616403
 20
12.5603663149
 30
0.0
 10
17.244896245
 20
12.5613244933
 30
0.0
 10
17.2450353322
 20
12.5617745798
 30
0.0
  0
SPLINE
  5
5D3
100
AcDbEntity
  8
0
100
AcDbSpline
 62
7
  6
CONTINUOUS
 70
0
 71
3
 72
11
 73
7
 74
0
 42
0.0000001
 43
0.0000001
 44
0.0000000001
 40
0.0
 40
0.0
 40
0.0
 40
0.0
 40
0.195401588
 40
0.4166798361
 40
0.6826022868
 40
1.0
 40
1.0
 40
1.0
 40
1.0
 10
17.2449998342
 20
12.5487571547
 30
0.0
 10
17.2451894319
 20
12.5487670918
 30
0.0
 10
17.2456025521
 20
12.5486905071
 30
0.0
 10
17.2461633726
 20
12.5483141001
 30
0.0
 10
17.2466748004
 20
12.5477146973
 30
0.0
 10
17.2469570855
 20
12.5472200731
 30
0.0
 10
17.2470929458
 20
12.5469432191
 30
0.0
  0
SPLINE
  5
5D4
100
AcDbEntity
  8
0
100
AcDbSpline
 62
7
  6
CONTINUOUS
 70
0
 71
3
 72
9
 73
5
 74
0
 42
0.0000001
 43
0.0000001
 44
0.0000000001
 40
0.0
 40
0.0
 40
0.0
 40
0.0
 40
0.5041547307
 40
1.0
 40
1.0
 40
1.0
 40
1.0
 10
16.7392883133
 20
11.7615176834
 30
0.0
 10
16.736364954
 20
11.762063207
 30
0.0
 10
16.7305978199
 20
11.7633153216
 30
0.0
 10
16.7248945938
 20
11.7648316333
 30
0.0
 10
16.7220907865
 20
11.7656642025
 30
0.0
  0
ELLIPSE
  5
5D5
100
AcDbEntity
  8
0
100
AcDbEllipse
 62
7
  6
CONTINUOUS
 10
4.2361617306
 20
5.3601198968
 30
0.0
 11
0.0
 21
0.0083333333
 31
0.0
 40
0.0349207695
 41
-1.5707963268
 42
0.0
  0
ELLIPSE
  5
5D6
100
AcDbEntity
  8
0
100
AcDbEllipse
 62
7
  6
CONTINUOUS
 10
4.7361617306
 20
5.3601198968
 30
0.0
 11
0.0
 21
0.0083333333
 31
0.0
 40
0.0349207695
 41
-1.5707963268
 42
-0.0
  0
ELLIPSE
  5
5D7
100
AcDbEntity
  8
0
100
AcDbEllipse
 62
7
  6
CONTINUOUS
 10
5.2361617306
 20
5.3601198968
 30
0.0
 11
0.0
 21
0.0083333333
 31
0.0
 40
0.0349207695
 41
-1.5707963268
 42
-0.0
  0
ELLIPSE
  5
5D8
100
AcDbEntity
  8
0
100
AcDbEllipse
 62
7
  6
CONTINUOUS
 10
5.7361617306
 20
5.3601198968
 30
0.0
 11
0.0
 21
0.0083333333
 31
0.0
 40
0.0349207695
 41
-1.5707963268
 42
-0.0
  0
ELLIPSE
  5
5D9
100
AcDbEntity
  8
0
100
AcDbEllipse
 62
7
  6
CONTINUOUS
 10
6.2361617306
 20
5.3601198968
 30
0.0
 11
0.0
 21
0.0083333333
 31
0.0
 40
0.0349207695
 41
-1.5707963268
 42
-0.0
  0
ELLIPSE
  5
5DA
100
AcDbEntity
  8
0
100
AcDbEllipse
 62
7
  6
CONTINUOUS
 10
6.7361617306
 20
5.3601198968
 30
0.0
 11
0.0
 21
0.0083333333
 31
0.0
 40
0.0349207695
 41
-1.5707963268
 42
-0.0
  0
ELLIPSE
  5
5DB
100
AcDbEntity
  8
0
100
AcDbEllipse
 62
7
  6
CONTINUOUS
 10
7.2361617306
 20
5.3601198968
 30
0.0
 11
-0.0
 21
0.0083333333
 31
0.0
 40
0.0349207695
 41
-1.5707963268
 42
-0.0
  0
ELLIPSE
  5
5DC
100
AcDbEntity
  8
0
100
AcDbEllipse
 62
7
  6
CONTINUOUS
 10
7.7361617306
 20
5.3601198968
 30
0.0
 11
0.0
 21
0.0083333333
 31
0.0
 40
0.0349207695
 41
-1.5707963268
 42
-0.0
  0
ENDSEC
  0
SECTION
  2
OBJECTS
  0
DICTIONARY
  5
C
100
AcDbDictionary
280
0
281
1
  3
ACAD_GROUP
350
D
  3
ACAD_MLINESTYLE
350
17
  3
ACAD_LAYOUT
350
1A
  3
ACAD_PLOTSETTINGS
350
19
  3
ACAD_PLOTSTYLENAME
350
E
  0
DICTIONARY
  5
D
102
{ACAD_REACTORS
330
C
102
}
100
AcDbDictionary
280
0
281
1
  0
ACDBDICTIONARYWDFLT
  5
E
102
{ACAD_REACTORS
330
C
102
}
100
AcDbDictionary
281
1
  3
Normal
350
F
100
AcDbDictionaryWithDefault
340
F
  0
DICTIONARY
  5
17
102
{ACAD_REACTORS
330
C
102
}
100
AcDbDictionary
280
0
281
1
  3
Standard
350
18
  0
DICTIONARY
  5
19
102
{ACAD_REACTORS
330
C
102
}
100
AcDbDictionary
281
1
  0
DICTIONARY
  5
1A
102
{ACAD_REACTORS
330
C
102
}
100
AcDbDictionary
281
1
  3
Model
350
5DD
  3
Layout1
350
5DE
  0
ACDBPLACEHOLDER
  5
F
102
{ACAD_REACTORS
330
E
102
}
  0
MLINESTYLE
  5
18
102
{ACAD_REACTORS
330
17
102
}
100
AcDbMlineStyle
  2
STANDARD
 70
0
  3

 62
256
 51
90.0
 52
90.0
 71
2
 49
0.5
 62
256
  6
BYLAYER
 49
-0.5
 62
256
  6
BYLAYER
  0
LAYOUT
  5
5DD
102
{ACAD_REACTORS
330
1A
102
}
100
AcDbPlotSettings
  1

  2
none_device
  4
ANSI_C_(22.00_x_17.00_Inches)
  6

 40
0.0
 41
0.0
 42
0.0
 43
0.0
 44
558.8
 45
431.8
 46
0.0
 47
0.0
 48
0.0
 49
0.0
140
0.0
141
0.0
142
1.0
143
1.0
 70
1024
 72
0
 73
0
 74
0
  7

 75
0
147
1.0
148
0.0
149
0.0
100
AcDbLayout
  1
Model
 70
0
 71
0
 10
0.0
 20
0.0
 11
22.0
 21
17.0
 12
0.0
 22
0.0
 32
0.0
 14
0.0
 24
0.0
 34
0.0
 15
0.0
 25
0.0
 35
0.0
146
0.0
 13
0.0
 23
0.0
 33
0.0
 16
1.0
 26
0.0
 36
0.0
 17
0.0
 27
1.0
 37
0.0
 76
0
330
218
345
0
346
0
  0
LAYOUT
  5
5DE
102
{ACAD_REACTORS
330
1A
102
}
100
AcDbPlotSettings
  1

  2
none_device
  4
ANSI_C_(22.00_x_17.00_Inches)
  6

 40
0.0
 41
0.0
 42
0.0
 43
0.0
 44
558.8
 45
431.8
 46
0.0
 47
0.0
 48
0.0
 49
0.0
140
0.0
141
0.0
142
1.0
143
1.0
 70
0
 72
0
 73
0
 74
0
  7

 75
0
147
1.0
148
0.0
149
0.0
100
AcDbLayout
  1
Layout1
 70
0
 71
1
 10
0.0
 20
0.0
 11
22.0
 21
17.0
 12
0.0
 22
0.0
 32
0.0
 14
0.0
 24
0.0
 34
0.0
 15
0.0
 25
0.0
 35
0.0
146
0.0
 13
0.0
 23
0.0
 33
0.0
 16
1.0
 26
0.0
 36
0.0
 17
0.0
 27
1.0
 37
0.0
 76
0
330
219
345
0
346
0
  0
ENDSEC
  0
EOF