999
DXF file: _cgs_temp_output.dxf
999
Pro/ENGINEER 2016360 by Parametric Technology Corporation
  0
SECTION
  2
HEADER
  9
$ACADVER
  1
AC1021
  9
$DWGCODEPAGE
  3
ANSI_1252
  9
$EXTMAX
 10
22.0
 20
17.0
 30
0.0
  9
$EXTMIN
 10
0.0
 20
0.0
 30
0.0
  9
$LIMMIN
 10
0.0
 20
0.0
  9
$LIMMAX
 10
22.0
 20
17.0
  9
$VIEWCTR
 10
11.0
 20
8.5
  9
$VIEWSIZE
 40
17.0
  9
$CLAYER
  8
0
  9
$LTSCALE
 40
1.21
  9
$CELTYPE
  6
BYLAYER
  9
$DIMSCALE
 40
1.0
  9
$DIMASZ
 40
0.1875
  9
$DIMEXO
 40
0.0625
  9
$DIMDLI
 40
0.836
  9
$DIMEXE
 40
0.125
  9
$DIMCEN
 40
0.198
  9
$DIMLFAC
 40
1.0
  9
$DIMBLK
  1
_CLOSED
  9
$DIMALT
 70
0
  9
$DIMALTF
 40
25.4
  9
$DIMTXT
 40
0.15625
  9
$DIMTOL
 70
0
  9
$DIMLIM
 70
0
  9
$DIMTFAC
 40
1.0
  9
$DIMGAP
 40
0.09
  9
$DIMDSEP
 70
46
  9
$AUNITS
 70
0
  9
$PDMODE
 70
3
  9
$PDSIZE
 40
0.3125
  9
$HANDSEED
  5
5F0
  9
$TILEMODE
 70
1
  9
$MEASUREMENT
 70
0
  9
$INSUNITS
 70
1
  0
ENDSEC
  0
SECTION
  2
CLASSES
  0
CLASS
  1
ACDBDICTIONARYWDFLT
  2
AcDbDictionaryWithDefault
  3
AutoCAD 2000
 90
0
 91
1
280
0
281
0
  0
CLASS
  1
ACDBPLACEHOLDER
  2
AcDbPlaceHolder
  3
AutoCAD 2000
 90
0
 91
1
280
0
281
0
  0
CLASS
  1
LAYOUT
  2
AcDbLayout
  3
AutoCAD 2000
 90
0
 91
0
280
0
281
0
  0
ENDSEC
  0
SECTION
  2
TABLES
  0
TABLE
  2
VPORT
  5
8
100
AcDbSymbolTable
 70
2
  0
VPORT
  5
1F4
100
AcDbSymbolTableRecord
100
AcDbViewportTableRecord
  2
*ACTIVE
 70
0
 10
0.0
 20
0.0
 11
1.0
 21
1.0
 12
11.0
 22
8.5
 13
0.0
 23
0.0
 14
1.0
 24
1.0
 15
0.0
 25
0.0
 16
0.0
 26
0.0
 36
1.0
 17
0.0
 27
0.0
 37
0.0
 40
17.0
 41
1.2941176471
 42
50.0
 43
0.0
 44
0.0
 50
0.0
 51
0.0
 71
0
 72
100
 73
1
 74
1
 75
0
 76
0
 77
0
 78
0
  0
ENDTAB
  0
TABLE
  2
LTYPE
  5
5
100
AcDbSymbolTable
 70
6
  0
LTYPE
  5
14
100
AcDbSymbolTableRecord
100
AcDbLinetypeTableRecord
  2
BYBLOCK
 70
0
  3

 72
65
 73
0
 40
0.0
  0
LTYPE
  5
15
100
AcDbSymbolTableRecord
100
AcDbLinetypeTableRecord
  2
BYLAYER
 70
0
  3

 72
65
 73
0
 40
0.0
  0
LTYPE
  5
16
100
AcDbSymbolTableRecord
100
AcDbLinetypeTableRecord
  2
CONTINUOUS
 70
64
  3
Solid line
 72
65
 73
0
 40
0.0
  0
LTYPE
  5
1F5
100
AcDbSymbolTableRecord
100
AcDbLinetypeTableRecord
  2
CENTER
 70
64
  3
____ _ ____ _ ____ _ ____ _ ____ _ ____ _ ____
 72
65
 73
4
 40
0.6
 49
0.375
 74
0
 49
-0.075
 74
0
 49
0.075
 74
0
 49
-0.075
 74
0
  0
LTYPE
  5
1F6
100
AcDbSymbolTableRecord
100
AcDbLinetypeTableRecord
  2
HIDDEN
 70
64
  3
- - - - - - - - - - - - - - - - - - - -
 72
65
 73
2
 40
0.2
 49
0.1
 74
0
 49
-0.1
 74
0
  0
LTYPE
  5
1F7
100
AcDbSymbolTableRecord
100
AcDbLinetypeTableRecord
  2
PHANTOM
 70
64
  3
_____ _ _ _____ _ _ _____ _ _ _____
 72
65
 73
6
 40
0.8
 49
0.45
 74
0
 49
-0.05
 74
0
 49
0.1
 74
0
 49
-0.05
 74
0
 49
0.1
 74
0
 49
-0.05
 74
0
  0
LTYPE
  5
1F8
100
AcDbSymbolTableRecord
100
AcDbLinetypeTableRecord
  2
DOT
 70
64
  3
. . . . . . . . . . . . . . . . . . . .
 72
65
 73
2
 40
0.2
 49
0.1
 74
0
 49
-0.1
 74
0
  0
LTYPE
  5
1F9
100
AcDbSymbolTableRecord
100
AcDbLinetypeTableRecord
  2
DASHED
 70
64
  3
- - - - - - - - - - - - - - - - - - - -
 72
65
 73
2
 40
0.2
 49
0.1
 74
0
 49
-0.1
 74
0
  0
ENDTAB
  0
TABLE
  2
LAYER
  5
2
100
AcDbSymbolTable
 70
36
  0
LAYER
  5
10
100
AcDbSymbolTableRecord
100
AcDbLayerTableRecord
  2
0
 70
0
 62
7
  6
CONTINUOUS
370
-3
390
F
  0
LAYER
  5
1FA
100
AcDbSymbolTableRecord
100
AcDbLayerTableRecord
  2
DEFAULT_1
 70
0
 62
7
  6
CENTER
370
-3
390
F
  0
LAYER
  5
1FB
100
AcDbSymbolTableRecord
100
AcDbLayerTableRecord
  2
DEFAULT_2
 70
0
 62
8
  6
HIDDEN
370
-3
390
F
  0
LAYER
  5
1FC
100
AcDbSymbolTableRecord
100
AcDbLayerTableRecord
  2
DEFAULT_3
 70
0
 62
7
  6
PHANTOM
370
-3
390
F
  0
LAYER
  5
1FD
100
AcDbSymbolTableRecord
100
AcDbLayerTableRecord
  2
01_ALL_DTM_PLN
 70
0
 62
7
  6
CONTINUOUS
370
-3
390
F
  0
LAYER
  5
1FE
100
AcDbSymbolTableRecord
100
AcDbLayerTableRecord
  2
01__ASM_ALL_DTM_PLN
 70
0
 62
7
  6
CONTINUOUS
370
-3
390
F
  0
LAYER
  5
1FF
100
AcDbSymbolTableRecord
100
AcDbLayerTableRecord
  2
01__ASM_DEF_DTM_PLN
 70
0
 62
7
  6
CONTINUOUS
370
-3
390
F
  0
LAYER
  5
200
100
AcDbSymbolTableRecord
100
AcDbLayerTableRecord
  2
01___PRT_ALL_DTM_PLN
 70
0
 62
7
  6
CONTINUOUS
370
-3
390
F
  0
LAYER
  5
201
100
AcDbSymbolTableRecord
100
AcDbLayerTableRecord
  2
01___PRT_DEF_DTM_PLN
 70
0
 62
7
  6
CONTINUOUS
370
-3
390
F
  0
LAYER
  5
202
100
AcDbSymbolTableRecord
100
AcDbLayerTableRecord
  2
02_ALL_AXES
 70
0
 62
7
  6
CONTINUOUS
370
-3
390
F
  0
LAYER
  5
203
100
AcDbSymbolTableRecord
100
AcDbLayerTableRecord
  2
02__ASM_ALL_AXES
 70
0
 62
7
  6
CONTINUOUS
370
-3
390
F
  0
LAYER
  5
204
100
AcDbSymbolTableRecord
100
AcDbLayerTableRecord
  2
02___PRT_ALL_AXES
 70
0
 62
7
  6
CONTINUOUS
370
-3
390
F
  0
LAYER
  5
205
100
AcDbSymbolTableRecord
100
AcDbLayerTableRecord
  2
03_ALL_CURVES
 70
0
 62
7
  6
CONTINUOUS
370
-3
390
F
  0
LAYER
  5
206
100
AcDbSymbolTableRecord
100
AcDbLayerTableRecord
  2
03__ASM_ALL_CURVES
 70
0
 62
7
  6
CONTINUOUS
370
-3
390
F
  0
LAYER
  5
207
100
AcDbSymbolTableRecord
100
AcDbLayerTableRecord
  2
03___PRT_ALL_CURVES
 70
0
 62
7
  6
CONTINUOUS
370
-3
390
F
  0
LAYER
  5
208
100
AcDbSymbolTableRecord
100
AcDbLayerTableRecord
  2
04_ALL_DTM_PNT
 70
0
 62
7
  6
CONTINUOUS
370
-3
390
F
  0
LAYER
  5
209
100
AcDbSymbolTableRecord
100
AcDbLayerTableRecord
  2
04__ASM_ALL_DTM_PNT
 70
0
 62
7
  6
CONTINUOUS
370
-3
390
F
  0
LAYER
  5
20A
100
AcDbSymbolTableRecord
100
AcDbLayerTableRecord
  2
04___PRT_ALL_DTM_PNT
 70
0
 62
7
  6
CONTINUOUS
370
-3
390
F
  0
LAYER
  5
20B
100
AcDbSymbolTableRecord
100
AcDbLayerTableRecord
  2
05_ALL_DTM_CSYS
 70
0
 62
7
  6
CONTINUOUS
370
-3
390
F
  0
LAYER
  5
20C
100
AcDbSymbolTableRecord
100
AcDbLayerTableRecord
  2
05__ASM_ALL_DTM_CSYS
 70
0
 62
7
  6
CONTINUOUS
370
-3
390
F
  0
LAYER
  5
20D
100
AcDbSymbolTableRecord
100
AcDbLayerTableRecord
  2
05__ASM_DEF_DTM_CSYS
 70
0
 62
7
  6
CONTINUOUS
370
-3
390
F
  0
LAYER
  5
20E
100
AcDbSymbolTableRecord
100
AcDbLayerTableRecord
  2
05___PRT_ALL_DTM_CSYS
 70
0
 62
7
  6
CONTINUOUS
370
-3
390
F
  0
LAYER
  5
20F
100
AcDbSymbolTableRecord
100
AcDbLayerTableRecord
  2
05___PRT_DEF_DTM_CSYS
 70
0
 62
7
  6
CONTINUOUS
370
-3
390
F
  0
LAYER
  5
210
100
AcDbSymbolTableRecord
100
AcDbLayerTableRecord
  2
06_ALL_SURFS
 70
0
 62
7
  6
CONTINUOUS
370
-3
390
F
  0
LAYER
  5
211
100
AcDbSymbolTableRecord
100
AcDbLayerTableRecord
  2
06__ASM_ALL_SURFS
 70
0
 62
7
  6
CONTINUOUS
370
-3
390
F
  0
LAYER
  5
212
100
AcDbSymbolTableRecord
100
AcDbLayerTableRecord
  2
06___PRT_ALL_SURFS
 70
0
 62
7
  6
CONTINUOUS
370
-3
390
F
  0
LAYER
  5
213
100
AcDbSymbolTableRecord
100
AcDbLayerTableRecord
  2
07__ASM_ALL_SKELETONS
 70
0
 62
7
  6
CONTINUOUS
370
-3
390
F
  0
LAYER
  5
214
100
AcDbSymbolTableRecord
100
AcDbLayerTableRecord
  2
DRAWINGS
 70
0
 62
7
  6
CONTINUOUS
370
-3
390
F
  0
LAYER
  5
215
100
AcDbSymbolTableRecord
100
AcDbLayerTableRecord
  2
SHELL
 70
0
 62
7
  6
CONTINUOUS
370
-3
390
F
  0
ENDTAB
  0
TABLE
  2
STYLE
  5
3
100
AcDbSymbolTable
 70
1
  0
STYLE
  5
11
100
AcDbSymbolTableRecord
100
AcDbTextStyleTableRecord
  2
STANDARD
 70
0
 40
0.0
 41
0.8
 50
0.0
 71
0
 42
0.2
  3
txt
  4

  0
STYLE
  5
216
100
AcDbSymbolTableRecord
100
AcDbTextStyleTableRecord
  2
TEXTSTYLE_1
 70
0
 40
0.0
 41
0.8
 50
0.0
 71
0
 42
0.2
  3
gdt
  4

  0
ENDTAB
  0
TABLE
  2
VIEW
  5
6
100
AcDbSymbolTable
 70
0
  0
ENDTAB
  0
TABLE
  2
UCS
  5
7
100
AcDbSymbolTable
 70
0
  0
ENDTAB
  0
TABLE
  2
APPID
  5
9
100
AcDbSymbolTable
 70
1
  0
APPID
  5
217
100
AcDbSymbolTableRecord
100
AcDbRegAppTableRecord
  2
ACAD
 70
0
  0
ENDTAB
  0
TABLE
  2
BLOCK_RECORD
  5
1
100
AcDbSymbolTable
 70
0
  0
BLOCK_RECORD
  5
218
100
AcDbSymbolTableRecord
100
AcDbBlockTableRecord
  2
*Model_Space
  0
BLOCK_RECORD
  5
219
100
AcDbSymbolTableRecord
100
AcDbBlockTableRecord
  2
*Paper_Space
  0
ENDTAB
  0
TABLE
  2
DIMSTYLE
  5
A
100
AcDbSymbolTable
 70
1
100
AcDbDimStyleTable
 71
0
  0
DIMSTYLE
105
21A
100
AcDbSymbolTableRecord
100
AcDbDimStyleTableRecord
  2
STANDARD
 70
0
  3

  4

 40
1.0
 41
0.1875
 42
0.0625
 43
0.38
 44
0.125
 45
0.0
 46
0.0
 47
0.0001
 48
0.0001
140
0.15625
141
0.09
142
0.0
143
25.4
144
1.0
145
0.0
146
1.0
147
0.09
 71
0.0
 72
0.0
 73
1
 74
1
 75
0
 76
0
 77
0
 78
4
 79
1
170
0
171
3
172
0
173
0
174
0
175
0
176
0
177
0
178
0
270
2
179
4
271
4
272
4
273
2
274
2
275
0
280
0
281
0
282
0
283
1
284
4
285
0
286
0
287
3
288
0
340
11
278
46
  0
ENDTAB
  0
ENDSEC
  0
SECTION
  2
BLOCKS
  0
BLOCK
  5
20
100
AcDbEntity
  8
0
100
AcDbBlockBegin
  2
*Model_Space
 70
0
 10
0.0
 20
0.0
 30
0.0
  3
*Model_Space
  1

  0
ENDBLK
  5
21
100
AcDbEntity
  8
0
100
AcDbBlockEnd
  0
BLOCK
  5
1C
100
AcDbEntity
  8
0
100
AcDbBlockBegin
  2
*Paper_Space
 70
0
 10
0.0
 20
0.0
 30
0.0
  3
*Paper_Space
  1

  0
ENDBLK
  5
1D
100
AcDbEntity
  8
0
100
AcDbBlockEnd
  0
ENDSEC
  0
SECTION
  2
ENTITIES
  0
MTEXT
  5
21B
100
AcDbEntity
  8
0
100
AcDbMText
 62
7
  6
CONTINUOUS
  7
STANDARD
 71
1
 72
1
 10
15.9560215477
 20
0.9479130325
 30
0.0
 11
1.0
 21
0.0
 31
0.0
 44
0.9
  1
SCALE: 1:0.333
 40
0.3
 41
3.36
  0
LINE
  5
21C
100
AcDbEntity
  8
0
100
AcDbLine
 62
7
  6
CONTINUOUS
 10
0.0
 20
0.0
 11
0.0
 21
17.0
  0
LINE
  5
21D
100
AcDbEntity
  8
0
100
AcDbLine
 62
7
  6
CONTINUOUS
 10
0.0
 20
0.0
 11
22.0
 21
0.0
  0
LINE
  5
21E
100
AcDbEntity
  8
0
100
AcDbLine
 62
7
  6
CONTINUOUS
 10
0.0
 20
17.0
 11
22.0
 21
17.0
  0
LINE
  5
21F
100
AcDbEntity
  8
0
100
AcDbLine
 62
7
  6
CONTINUOUS
 10
22.0
 20
0.0
 11
22.0
 21
17.0
  0
LINE
  5
220
100
AcDbEntity
  8
0
100
AcDbLine
 62
7
  6
CONTINUOUS
 10
3.9637006157
 20
5.2217865634
 11
3.9637006157
 21
5.1875986391
  0
LINE
  5
221
100
AcDbEntity
  8
0
100
AcDbLine
 62
7
  6
CONTINUOUS
 10
4.1453672824
 20
5.0384532301
 11
4.1453281105
 21
5.0467865634
  0
LINE
  5
222
100
AcDbEntity
  8
0
100
AcDbLine
 62
7
  6
CONTINUOUS
 10
4.1928017762
 20
5.3560675533
 11
4.1928017762
 21
5.3601198968
  0
LINE
  5
223
100
AcDbEntity
  8
0
100
AcDbLine
 62
7
  6
CONTINUOUS
 10
4.3303672824
 20
5.0134532301
 11
4.3303672824
 21
5.2967865634
  0
LINE
  5
224
100
AcDbEntity
  8
0
100
AcDbLine
 62
7
  6
CONTINUOUS
 10
4.347033949
 20
5.3601198968
 11
4.347033949
 21
5.3684533881
  0
LINE
  5
225
100
AcDbEntity
  8
0
100
AcDbLine
 62
7
  6
CONTINUOUS
 10
4.3637730209
 20
5.3850471749
 11
4.3665733137
 21
6.0268229243
  0
LINE
  5
226
100
AcDbEntity
  8
0
100
AcDbLine
 62
7
  6
CONTINUOUS
 10
4.3941612511
 20
6.0268229243
 11
4.3969615438
 21
5.3850471749
  0
LINE
  5
227
100
AcDbEntity
  8
0
100
AcDbLine
 62
7
  6
CONTINUOUS
 10
4.4137006157
 20
5.3684533881
 11
4.4137006157
 21
5.3601198968
  0
LINE
  5
228
100
AcDbEntity
  8
0
100
AcDbLine
 62
7
  6
CONTINUOUS
 10
4.6428672824
 20
5.1907963683
 11
4.6428672824
 21
5.2927767586
  0
LINE
  5
229
100
AcDbEntity
  8
0
100
AcDbLine
 62
7
  6
CONTINUOUS
 10
4.647033949
 20
5.2959416933
 11
4.647033949
 21
5.1876263074
  0
LINE
  5
22A
100
AcDbEntity
  8
0
100
AcDbLine
 62
7
  6
CONTINUOUS
 10
4.797033949
 20
5.1867865634
 11
4.797033949
 21
5.2217865634
  0
LINE
  5
22B
100
AcDbEntity
  8
0
100
AcDbLine
 62
7
  6
CONTINUOUS
 10
4.8941612511
 20
6.0268229243
 11
4.8969615438
 21
5.3850471749
  0
LINE
  5
22C
100
AcDbEntity
  8
0
100
AcDbLine
 62
7
  6
CONTINUOUS
 10
4.8303672824
 20
5.0134532301
 11
4.8303672824
 21
5.2967865634
  0
LINE
  5
22D
100
AcDbEntity
  8
0
100
AcDbLine
 62
7
  6
CONTINUOUS
 10
4.847033949
 20
5.3601198968
 11
4.847033949
 21
5.3684533881
  0
LINE
  5
22E
100
AcDbEntity
  8
0
100
AcDbLine
 62
7
  6
CONTINUOUS
 10
4.9137006157
 20
5.3684533881
 11
4.9137006157
 21
5.3601198968
  0
LINE
  5
22F
100
AcDbEntity
  8
0
100
AcDbLine
 62
7
  6
CONTINUOUS
 10
4.8637730209
 20
5.3850471749
 11
4.8665733137
 21
6.0268229243
  0
LINE
  5
230
100
AcDbEntity
  8
0
100
AcDbLine
 62
7
  6
CONTINUOUS
 10
4.647033949
 20
5.1876263074
 11
4.6428672824
 21
5.1907963683
  0
LINE
  5
231
100
AcDbEntity
  8
0
100
AcDbLine
 62
7
  6
CONTINUOUS
 10
5.1428672824
 20
5.1907963683
 11
5.1428672824
 21
5.2927767586
  0
LINE
  5
232
100
AcDbEntity
  8
0
100
AcDbLine
 62
7
  6
CONTINUOUS
 10
5.147033949
 20
5.2959416933
 11
5.147033949
 21
5.1876263074
  0
LINE
  5
233
100
AcDbEntity
  8
0
100
AcDbLine
 62
7
  6
CONTINUOUS
 10
5.3941612511
 20
6.0268229243
 11
5.3969615438
 21
5.3850471749
  0
LINE
  5
234
100
AcDbEntity
  8
0
100
AcDbLine
 62
7
  6
CONTINUOUS
 10
5.297033949
 20
5.1867865634
 11
5.297033949
 21
5.2217865634
  0
LINE
  5
235
100
AcDbEntity
  8
0
100
AcDbLine
 62
7
  6
CONTINUOUS
 10
5.3303672824
 20
5.0134532301
 11
5.3303672824
 21
5.2967865634
  0
LINE
  5
236
100
AcDbEntity
  8
0
100
AcDbLine
 62
7
  6
CONTINUOUS
 10
5.347033949
 20
5.3601198968
 11
5.347033949
 21
5.3684533881
  0
LINE
  5
237
100
AcDbEntity
  8
0
100
AcDbLine
 62
7
  6
CONTINUOUS
 10
5.3637730209
 20
5.3850471749
 11
5.3665733137
 21
6.0268229243
  0
LINE
  5
238
100
AcDbEntity
  8
0
100
AcDbLine
 62
7
  6
CONTINUOUS
 10
5.147033949
 20
5.1876263074
 11
5.1428672824
 21
5.1907963683
  0
LINE
  5
239
100
AcDbEntity
  8
0
100
AcDbLine
 62
7
  6
CONTINUOUS
 10
5.4137006157
 20
5.3684533881
 11
5.4137006157
 21
5.3601198968
  0
LINE
  5
23A
100
AcDbEntity
  8
0
100
AcDbLine
 62
7
  6
CONTINUOUS
 10
4.6870685423
 20
5.007301249
 11
4.7245248542
 21
5.0415257313
  0
LINE
  5
23B
100
AcDbEntity
  8
0
100
AcDbLine
 62
7
  6
CONTINUOUS
 10
4.6428672824
 20
5.2927767586
 11
4.647033949
 21
5.2959468195
  0
LINE
  5
23C
100
AcDbEntity
  8
0
100
AcDbLine
 62
7
  6
CONTINUOUS
 10
5.6428672824
 20
5.1907963683
 11
5.6428672824
 21
5.2927767586
  0
LINE
  5
23D
100
AcDbEntity
  8
0
100
AcDbLine
 62
7
  6
CONTINUOUS
 10
5.647033949
 20
5.2959416933
 11
5.647033949
 21
5.1876263074
  0
LINE
  5
23E
100
AcDbEntity
  8
0
100
AcDbLine
 62
7
  6
CONTINUOUS
 10
4.2413009934
 20
5.0051198968
 11
4.6814473704
 21
5.0051198968
  0
LINE
  5
23F
100
AcDbEntity
  8
0
100
AcDbLine
 62
7
  6
CONTINUOUS
 10
4.7413009934
 20
5.0051198968
 11
5.1814473704
 21
5.0051198968
  0
LINE
  5
240
100
AcDbEntity
  8
0
100
AcDbLine
 62
7
  6
CONTINUOUS
 10
5.2413009934
 20
5.0051198968
 11
5.6814473704
 21
5.0051198968
  0
LINE
  5
241
100
AcDbEntity
  8
0
100
AcDbLine
 62
7
  6
CONTINUOUS
 10
5.7413009934
 20
5.0051198968
 11
6.1814473704
 21
5.0051198968
  0
LINE
  5
242
100
AcDbEntity
  8
0
100
AcDbLine
 62
7
  6
CONTINUOUS
 10
6.2413009934
 20
5.0051198968
 11
6.6814473704
 21
5.0051198968
  0
LINE
  5
243
100
AcDbEntity
  8
0
100
AcDbLine
 62
7
  6
CONTINUOUS
 10
6.7413009934
 20
5.0051198968
 11
7.1814473704
 21
5.0051198968
  0
LINE
  5
244
100
AcDbEntity
  8
0
100
AcDbLine
 62
7
  6
CONTINUOUS
 10
7.2413009934
 20
5.0051198968
 11
7.6814473704
 21
5.0051198968
  0
LINE
  5
245
100
AcDbEntity
  8
0
100
AcDbLine
 62
7
  6
CONTINUOUS
 10
7.7413009934
 20
5.0051198968
 11
8.1814473704
 21
5.0051198968
  0
LINE
  5
246
100
AcDbEntity
  8
0
100
AcDbLine
 62
7
  6
CONTINUOUS
 10
4.1453672824
 20
5.0384532301
 11
4.1667653941
 21
5.0384532301
  0
LINE
  5
247
100
AcDbEntity
  8
0
100
AcDbLine
 62
7
  6
CONTINUOUS
 10
4.344539376
 20
5.0751198968
 11
4.603466049
 21
5.0751198968
  0
LINE
  5
248
100
AcDbEntity
  8
0
100
AcDbLine
 62
7
  6
CONTINUOUS
 10
4.844539376
 20
5.0751198968
 11
5.103466049
 21
5.0751198968
  0
LINE
  5
249
100
AcDbEntity
  8
0
100
AcDbLine
 62
7
  6
CONTINUOUS
 10
5.344539376
 20
5.0751198968
 11
5.603466049
 21
5.0751198968
  0
LINE
  5
24A
100
AcDbEntity
  8
0
100
AcDbLine
 62
7
  6
CONTINUOUS
 10
5.844539376
 20
5.0751198968
 11
6.103466049
 21
5.0751198968
  0
LINE
  5
24B
100
AcDbEntity
  8
0
100
AcDbLine
 62
7
  6
CONTINUOUS
 10
6.344539376
 20
5.0751198968
 11
6.603466049
 21
5.0751198968
  0
LINE
  5
24C
100
AcDbEntity
  8
0
100
AcDbLine
 62
7
  6
CONTINUOUS
 10
6.844539376
 20
5.0751198968
 11
7.103466049
 21
5.0751198968
  0
LINE
  5
24D
100
AcDbEntity
  8
0
100
AcDbLine
 62
7
  6
CONTINUOUS
 10
7.344539376
 20
5.0751198968
 11
7.603466049
 21
5.0751198968
  0
LINE
  5
24E
100
AcDbEntity
  8
0
100
AcDbLine
 62
7
  6
CONTINUOUS
 10
7.844539376
 20
5.0751198968
 11
8.103466049
 21
5.0751198968
  0
LINE
  5
24F
100
AcDbEntity
  8
0
100
AcDbLine
 62
7
  6
CONTINUOUS
 10
4.2644675202
 20
5.3051198968
 11
4.2621042284
 21
5.3054607496
  0
LINE
  5
250
100
AcDbEntity
  8
0
100
AcDbLine
 62
7
  6
CONTINUOUS
 10
5.647033949
 20
5.1876263074
 11
5.6428672824
 21
5.1907963683
  0
LINE
  5
251
100
AcDbEntity
  8
0
100
AcDbLine
 62
7
  6
CONTINUOUS
 10
5.797033949
 20
5.1867865634
 11
5.797033949
 21
5.2217865634
  0
LINE
  5
252
100
AcDbEntity
  8
0
100
AcDbLine
 62
7
  6
CONTINUOUS
 10
5.8303672824
 20
5.0134532301
 11
5.8303672824
 21
5.2967865634
  0
LINE
  5
253
100
AcDbEntity
  8
0
100
AcDbLine
 62
7
  6
CONTINUOUS
 10
5.847033949
 20
5.3601198968
 11
5.847033949
 21
5.3684533881
  0
LINE
  5
254
100
AcDbEntity
  8
0
100
AcDbLine
 62
7
  6
CONTINUOUS
 10
5.1428672824
 20
5.2927767586
 11
5.147033949
 21
5.2959468195
  0
LINE
  5
255
100
AcDbEntity
  8
0
100
AcDbLine
 62
7
  6
CONTINUOUS
 10
5.8941612511
 20
6.0268229243
 11
5.8969615438
 21
5.3850471749
  0
LINE
  5
256
100
AcDbEntity
  8
0
100
AcDbLine
 62
7
  6
CONTINUOUS
 10
5.9137006157
 20
5.3684533881
 11
5.9137006157
 21
5.3601198968
  0
LINE
  5
257
100
AcDbEntity
  8
0
100
AcDbLine
 62
7
  6
CONTINUOUS
 10
5.8637730209
 20
5.3850471749
 11
5.8665733137
 21
6.0268229243
  0
LINE
  5
258
100
AcDbEntity
  8
0
100
AcDbLine
 62
7
  6
CONTINUOUS
 10
5.1870685423
 20
5.007301249
 11
5.2245248542
 21
5.0415257313
  0
LINE
  5
259
100
AcDbEntity
  8
0
100
AcDbLine
 62
7
  6
CONTINUOUS
 10
4.2644675202
 20
5.3051198968
 11
4.5720577634
 21
5.3051198968
  0
LINE
  5
25A
100
AcDbEntity
  8
0
100
AcDbLine
 62
7
  6
CONTINUOUS
 10
4.6886768013
 20
5.3051198968
 11
4.7539690842
 21
5.3051198968
  0
LINE
  5
25B
100
AcDbEntity
  8
0
100
AcDbLine
 62
7
  6
CONTINUOUS
 10
4.7736068348
 20
5.3051198968
 11
5.0720577634
 21
5.3051198968
  0
LINE
  5
25C
100
AcDbEntity
  8
0
100
AcDbLine
 62
7
  6
CONTINUOUS
 10
5.1886768013
 20
5.3051198968
 11
5.2539690842
 21
5.3051198968
  0
LINE
  5
25D
100
AcDbEntity
  8
0
100
AcDbLine
 62
7
  6
CONTINUOUS
 10
5.2736068348
 20
5.3051198968
 11
5.5720577634
 21
5.3051198968
  0
LINE
  5
25E
100
AcDbEntity
  8
0
100
AcDbLine
 62
7
  6
CONTINUOUS
 10
5.6886768013
 20
5.3051198968
 11
5.7539690842
 21
5.3051198968
  0
LINE
  5
25F
100
AcDbEntity
  8
0
100
AcDbLine
 62
7
  6
CONTINUOUS
 10
5.7736068348
 20
5.3051198968
 11
6.0720577634
 21
5.3051198968
  0
LINE
  5
260
100
AcDbEntity
  8
0
100
AcDbLine
 62
7
  6
CONTINUOUS
 10
6.1886768013
 20
5.3051198968
 11
6.2539690842
 21
5.3051198968
  0
LINE
  5
261
100
AcDbEntity
  8
0
100
AcDbLine
 62
7
  6
CONTINUOUS
 10
6.2736068348
 20
5.3051198968
 11
6.5720577634
 21
5.3051198968
  0
LINE
  5
262
100
AcDbEntity
  8
0
100
AcDbLine
 62
7
  6
CONTINUOUS
 10
6.6886768013
 20
5.3051198968
 11
6.7539690842
 21
5.3051198968
  0
LINE
  5
263
100
AcDbEntity
  8
0
100
AcDbLine
 62
7
  6
CONTINUOUS
 10
6.7736068348
 20
5.3051198968
 11
7.0720577634
 21
5.3051198968
  0
LINE
  5
264
100
AcDbEntity
  8
0
100
AcDbLine
 62
7
  6
CONTINUOUS
 10
7.1886768013
 20
5.3051198968
 11
7.2539690842
 21
5.3051198968
  0
LINE
  5
265
100
AcDbEntity
  8
0
100
AcDbLine
 62
7
  6
CONTINUOUS
 10
7.2736068348
 20
5.3051198968
 11
7.5720577634
 21
5.3051198968
  0
LINE
  5
266
100
AcDbEntity
  8
0
100
AcDbLine
 62
7
  6
CONTINUOUS
 10
7.6886768013
 20
5.3051198968
 11
7.7539690842
 21
5.3051198968
  0
LINE
  5
267
100
AcDbEntity
  8
0
100
AcDbLine
 62
7
  6
CONTINUOUS
 10
7.7736068348
 20
5.3051198968
 11
8.0720577634
 21
5.3051198968
  0
LINE
  5
268
100
AcDbEntity
  8
0
100
AcDbLine
 62
7
  6
CONTINUOUS
 10
8.1886768013
 20
5.3051198968
 11
8.2539690842
 21
5.3051198968
  0
LINE
  5
269
100
AcDbEntity
  8
0
100
AcDbLine
 62
7
  6
CONTINUOUS
 10
4.3470327816
 20
5.3601198968
 11
4.4136280558
 21
5.3601198968
  0
LINE
  5
26A
100
AcDbEntity
  8
0
100
AcDbLine
 62
7
  6
CONTINUOUS
 10
4.8470327816
 20
5.3601198968
 11
4.9136280558
 21
5.3601198968
  0
LINE
  5
26B
100
AcDbEntity
  8
0
100
AcDbLine
 62
7
  6
CONTINUOUS
 10
5.3470327816
 20
5.3601198968
 11
5.4136280558
 21
5.3601198968
  0
LINE
  5
26C
100
AcDbEntity
  8
0
100
AcDbLine
 62
7
  6
CONTINUOUS
 10
5.8470327816
 20
5.3601198968
 11
5.9136280558
 21
5.3601198968
  0
LINE
  5
26D
100
AcDbEntity
  8
0
100
AcDbLine
 62
7
  6
CONTINUOUS
 10
6.3470327816
 20
5.3601198968
 11
6.4136280558
 21
5.3601198968
  0
LINE
  5
26E
100
AcDbEntity
  8
0
100
AcDbLine
 62
7
  6
CONTINUOUS
 10
6.8470327816
 20
5.3601198968
 11
6.9136280558
 21
5.3601198968
  0
LINE
  5
26F
100
AcDbEntity
  8
0
100
AcDbLine
 62
7
  6
CONTINUOUS
 10
7.3470327816
 20
5.3601198968
 11
7.4136280558
 21
5.3601198968
  0
LINE
  5
270
100
AcDbEntity
  8
0
100
AcDbLine
 62
7
  6
CONTINUOUS
 10
7.8470327816
 20
5.3601198968
 11
7.9136280558
 21
5.3601198968
  0
LINE
  5
271
100
AcDbEntity
  8
0
100
AcDbLine
 62
7
  6
CONTINUOUS
 10
7.7536848243
 20
5.3651198968
 11
7.69308862
 21
5.3651198968
  0
LINE
  5
272
100
AcDbEntity
  8
0
100
AcDbLine
 62
7
  6
CONTINUOUS
 10
7.2536848243
 20
5.3651198968
 11
7.19308862
 21
5.3651198968
  0
LINE
  5
273
100
AcDbEntity
  8
0
100
AcDbLine
 62
7
  6
CONTINUOUS
 10
6.7536848243
 20
5.3651198968
 11
6.69308862
 21
5.3651198968
  0
LINE
  5
274
100
AcDbEntity
  8
0
100
AcDbLine
 62
7
  6
CONTINUOUS
 10
6.2536848243
 20
5.3651198968
 11
6.19308862
 21
5.3651198968
  0
LINE
  5
275
100
AcDbEntity
  8
0
100
AcDbLine
 62
7
  6
CONTINUOUS
 10
5.7536848243
 20
5.3651198968
 11
5.69308862
 21
5.3651198968
  0
LINE
  5
276
100
AcDbEntity
  8
0
100
AcDbLine
 62
7
  6
CONTINUOUS
 10
5.2536848243
 20
5.3651198968
 11
5.19308862
 21
5.3651198968
  0
LINE
  5
277
100
AcDbEntity
  8
0
100
AcDbLine
 62
7
  6
CONTINUOUS
 10
4.7536848243
 20
5.3651198968
 11
4.69308862
 21
5.3651198968
  0
LINE
  5
278
100
AcDbEntity
  8
0
100
AcDbLine
 62
7
  6
CONTINUOUS
 10
4.2536848243
 20
5.3651198968
 11
4.19308862
 21
5.3651198968
  0
LINE
  5
279
100
AcDbEntity
  8
0
100
AcDbLine
 62
7
  6
CONTINUOUS
 10
8.1503672824
 20
5.3684532301
 11
7.9137006157
 21
5.3684532301
  0
LINE
  5
27A
100
AcDbEntity
  8
0
100
AcDbLine
 62
7
  6
CONTINUOUS
 10
4.1103672824
 20
5.3684532301
 11
4.347033949
 21
5.3684532301
  0
LINE
  5
27B
100
AcDbEntity
  8
0
100
AcDbLine
 62
7
  6
CONTINUOUS
 10
4.4137006157
 20
5.3684532301
 11
4.847033949
 21
5.3684532301
  0
LINE
  5
27C
100
AcDbEntity
  8
0
100
AcDbLine
 62
7
  6
CONTINUOUS
 10
4.9137006157
 20
5.3684532301
 11
5.347033949
 21
5.3684532301
  0
LINE
  5
27D
100
AcDbEntity
  8
0
100
AcDbLine
 62
7
  6
CONTINUOUS
 10
5.4137006157
 20
5.3684532301
 11
5.847033949
 21
5.3684532301
  0
LINE
  5
27E
100
AcDbEntity
  8
0
100
AcDbLine
 62
7
  6
CONTINUOUS
 10
5.9137006157
 20
5.3684532301
 11
6.347033949
 21
5.3684532301
  0
LINE
  5
27F
100
AcDbEntity
  8
0
100
AcDbLine
 62
7
  6
CONTINUOUS
 10
6.4137006157
 20
5.3684532301
 11
6.847033949
 21
5.3684532301
  0
LINE
  5
280
100
AcDbEntity
  8
0
100
AcDbLine
 62
7
  6
CONTINUOUS
 10
6.9137006157
 20
5.3684532301
 11
7.347033949
 21
5.3684532301
  0
LINE
  5
281
100
AcDbEntity
  8
0
100
AcDbLine
 62
7
  6
CONTINUOUS
 10
7.4137006157
 20
5.3684532301
 11
7.847033949
 21
5.3684532301
  0
LINE
  5
282
100
AcDbEntity
  8
0
100
AcDbLine
 62
7
  6
CONTINUOUS
 10
6.3950143358
 20
5.3684544695
 11
6.3657202348
 21
5.3684544696
  0
LINE
  5
283
100
AcDbEntity
  8
0
100
AcDbLine
 62
7
  6
CONTINUOUS
 10
5.8950143358
 20
5.3684544695
 11
5.8657202348
 21
5.3684544696
  0
LINE
  5
284
100
AcDbEntity
  8
0
100
AcDbLine
 62
7
  6
CONTINUOUS
 10
5.3950143358
 20
5.3684544695
 11
5.3657202348
 21
5.3684544696
  0
LINE
  5
285
100
AcDbEntity
  8
0
100
AcDbLine
 62
7
  6
CONTINUOUS
 10
4.8950143358
 20
5.3684544695
 11
4.8657202348
 21
5.3684544696
  0
LINE
  5
286
100
AcDbEntity
  8
0
100
AcDbLine
 62
7
  6
CONTINUOUS
 10
4.3950143358
 20
5.3684544695
 11
4.3657202348
 21
5.3684544696
  0
LINE
  5
287
100
AcDbEntity
  8
0
100
AcDbLine
 62
7
  6
CONTINUOUS
 10
7.8950143358
 20
5.3684544695
 11
7.8657202348
 21
5.3684544696
  0
LINE
  5
288
100
AcDbEntity
  8
0
100
AcDbLine
 62
7
  6
CONTINUOUS
 10
7.3950143358
 20
5.3684544695
 11
7.3657202348
 21
5.3684544696
  0
LINE
  5
289
100
AcDbEntity
  8
0
100
AcDbLine
 62
7
  6
CONTINUOUS
 10
6.8950143358
 20
5.3684544695
 11
6.8657202348
 21
5.3684544696
  0
LINE
  5
28A
100
AcDbEntity
  8
0
100
AcDbLine
 62
7
  6
CONTINUOUS
 10
6.147033949
 20
5.1876263074
 11
6.1428672824
 21
5.1907963683
  0
LINE
  5
28B
100
AcDbEntity
  8
0
100
AcDbLine
 62
7
  6
CONTINUOUS
 10
6.1428672824
 20
5.1907963683
 11
6.1428672824
 21
5.2927767586
  0
LINE
  5
28C
100
AcDbEntity
  8
0
100
AcDbLine
 62
7
  6
CONTINUOUS
 10
6.147033949
 20
5.2959416933
 11
6.147033949
 21
5.1876263074
  0
LINE
  5
28D
100
AcDbEntity
  8
0
100
AcDbLine
 62
7
  6
CONTINUOUS
 10
5.6428672824
 20
5.2927767586
 11
5.647033949
 21
5.2959468195
  0
LINE
  5
28E
100
AcDbEntity
  8
0
100
AcDbLine
 62
7
  6
CONTINUOUS
 10
6.297033949
 20
5.1867865634
 11
6.297033949
 21
5.2217865634
  0
LINE
  5
28F
100
AcDbEntity
  8
0
100
AcDbLine
 62
7
  6
CONTINUOUS
 10
5.6870685423
 20
5.007301249
 11
5.7245248542
 21
5.0415257313
  0
LINE
  5
290
100
AcDbEntity
  8
0
100
AcDbLine
 62
7
  6
CONTINUOUS
 10
6.647033949
 20
5.1876263074
 11
6.6428672824
 21
5.1907963683
  0
LINE
  5
291
100
AcDbEntity
  8
0
100
AcDbLine
 62
7
  6
CONTINUOUS
 10
6.3941612511
 20
6.0268229243
 11
6.3969615438
 21
5.3850471749
  0
LINE
  5
292
100
AcDbEntity
  8
0
100
AcDbLine
 62
7
  6
CONTINUOUS
 10
6.3303672824
 20
5.0134532301
 11
6.3303672824
 21
5.2967865634
  0
LINE
  5
293
100
AcDbEntity
  8
0
100
AcDbLine
 62
7
  6
CONTINUOUS
 10
6.347033949
 20
5.3601198968
 11
6.347033949
 21
5.3684533881
  0
LINE
  5
294
100
AcDbEntity
  8
0
100
AcDbLine
 62
7
  6
CONTINUOUS
 10
6.4137006157
 20
5.3684533881
 11
6.4137006157
 21
5.3601198968
  0
LINE
  5
295
100
AcDbEntity
  8
0
100
AcDbLine
 62
7
  6
CONTINUOUS
 10
6.3637730209
 20
5.3850471749
 11
6.3665733137
 21
6.0268229243
  0
LINE
  5
296
100
AcDbEntity
  8
0
100
AcDbLine
 62
7
  6
CONTINUOUS
 10
6.1428672824
 20
5.2927767586
 11
6.147033949
 21
5.2959468195
  0
LINE
  5
297
100
AcDbEntity
  8
0
100
AcDbLine
 62
7
  6
CONTINUOUS
 10
6.1870685423
 20
5.007301249
 11
6.2245248542
 21
5.0415257313
  0
LINE
  5
298
100
AcDbEntity
  8
0
100
AcDbLine
 62
7
  6
CONTINUOUS
 10
7.147033949
 20
5.1876263074
 11
7.1428672824
 21
5.1907963683
  0
LINE
  5
299
100
AcDbEntity
  8
0
100
AcDbLine
 62
7
  6
CONTINUOUS
 10
6.6428672824
 20
5.1907963683
 11
6.6428672824
 21
5.2927767586
  0
LINE
  5
29A
100
AcDbEntity
  8
0
100
AcDbLine
 62
7
  6
CONTINUOUS
 10
6.647033949
 20
5.2959416933
 11
6.647033949
 21
5.1876263074
  0
LINE
  5
29B
100
AcDbEntity
  8
0
100
AcDbLine
 62
7
  6
CONTINUOUS
 10
6.6428672824
 20
5.2927767586
 11
6.647033949
 21
5.2959468195
  0
LINE
  5
29C
100
AcDbEntity
  8
0
100
AcDbLine
 62
7
  6
CONTINUOUS
 10
7.8858279971
 20
6.0351198968
 11
7.8749065677
 21
6.0351198968
  0
LINE
  5
29D
100
AcDbEntity
  8
0
100
AcDbLine
 62
7
  6
CONTINUOUS
 10
7.3858279971
 20
6.0351198968
 11
7.3749065677
 21
6.0351198968
  0
LINE
  5
29E
100
AcDbEntity
  8
0
100
AcDbLine
 62
7
  6
CONTINUOUS
 10
6.8858279971
 20
6.0351198968
 11
6.8749065677
 21
6.0351198968
  0
LINE
  5
29F
100
AcDbEntity
  8
0
100
AcDbLine
 62
7
  6
CONTINUOUS
 10
6.3858279971
 20
6.0351198968
 11
6.3749065677
 21
6.0351198968
  0
LINE
  5
2A0
100
AcDbEntity
  8
0
100
AcDbLine
 62
7
  6
CONTINUOUS
 10
5.8858279971
 20
6.0351198968
 11
5.8749065677
 21
6.0351198968
  0
LINE
  5
2A1
100
AcDbEntity
  8
0
100
AcDbLine
 62
7
  6
CONTINUOUS
 10
5.3858279971
 20
6.0351198968
 11
5.3749065677
 21
6.0351198968
  0
LINE
  5
2A2
100
AcDbEntity
  8
0
100
AcDbLine
 62
7
  6
CONTINUOUS
 10
4.8858279971
 20
6.0351198968
 11
4.8749065677
 21
6.0351198968
  0
LINE
  5
2A3
100
AcDbEntity
  8
0
100
AcDbLine
 62
7
  6
CONTINUOUS
 10
4.3858279971
 20
6.0351198968
 11
4.3749065677
 21
6.0351198968
  0
LINE
  5
2A4
100
AcDbEntity
  8
0
100
AcDbLine
 62
7
  6
CONTINUOUS
 10
6.797033949
 20
5.1867865634
 11
6.797033949
 21
5.2217865634
  0
LINE
  5
2A5
100
AcDbEntity
  8
0
100
AcDbLine
 62
7
  6
CONTINUOUS
 10
6.8303672824
 20
5.0134532301
 11
6.8303672824
 21
5.2967865634
  0
LINE
  5
2A6
100
AcDbEntity
  8
0
100
AcDbLine
 62
7
  6
CONTINUOUS
 10
6.847033949
 20
5.3601198968
 11
6.847033949
 21
5.3684533881
  0
LINE
  5
2A7
100
AcDbEntity
  8
0
100
AcDbLine
 62
7
  6
CONTINUOUS
 10
6.8637730209
 20
5.3850471749
 11
6.8665733137
 21
6.0268229243
  0
LINE
  5
2A8
100
AcDbEntity
  8
0
100
AcDbLine
 62
7
  6
CONTINUOUS
 10
6.6870685423
 20
5.007301249
 11
6.7245248542
 21
5.0415257313
  0
LINE
  5
2A9
100
AcDbEntity
  8
0
100
AcDbLine
 62
7
  6
CONTINUOUS
 10
7.647033949
 20
5.1876263074
 11
7.6428672824
 21
5.1907963683
  0
LINE
  5
2AA
100
AcDbEntity
  8
0
100
AcDbLine
 62
7
  6
CONTINUOUS
 10
6.8941612511
 20
6.0268229243
 11
6.8969615438
 21
5.3850471749
  0
LINE
  5
2AB
100
AcDbEntity
  8
0
100
AcDbLine
 62
7
  6
CONTINUOUS
 10
6.9137006157
 20
5.3684533881
 11
6.9137006157
 21
5.3601198968
  0
LINE
  5
2AC
100
AcDbEntity
  8
0
100
AcDbLine
 62
7
  6
CONTINUOUS
 10
7.1428672824
 20
5.2927767586
 11
7.147033949
 21
5.2959468195
  0
LINE
  5
2AD
100
AcDbEntity
  8
0
100
AcDbLine
 62
7
  6
CONTINUOUS
 10
7.1428672824
 20
5.1907963683
 11
7.1428672824
 21
5.2927767586
  0
LINE
  5
2AE
100
AcDbEntity
  8
0
100
AcDbLine
 62
7
  6
CONTINUOUS
 10
7.147033949
 20
5.2959416933
 11
7.147033949
 21
5.1876263074
  0
LINE
  5
2AF
100
AcDbEntity
  8
0
100
AcDbLine
 62
7
  6
CONTINUOUS
 10
8.147033949
 20
5.1876263074
 11
8.1428672824
 21
5.1907963683
  0
LINE
  5
2B0
100
AcDbEntity
  8
0
100
AcDbLine
 62
7
  6
CONTINUOUS
 10
7.297033949
 20
5.1867865634
 11
7.297033949
 21
5.2217865634
  0
LINE
  5
2B1
100
AcDbEntity
  8
0
100
AcDbLine
 62
7
  6
CONTINUOUS
 10
7.3303672824
 20
5.0134532301
 11
7.3303672824
 21
5.2967865634
  0
LINE
  5
2B2
100
AcDbEntity
  8
0
100
AcDbLine
 62
7
  6
CONTINUOUS
 10
7.1870685423
 20
5.007301249
 11
7.2245248542
 21
5.0415257313
  0
LINE
  5
2B3
100
AcDbEntity
  8
0
100
AcDbLine
 62
7
  6
CONTINUOUS
 10
7.6428672824
 20
5.2927767586
 11
7.647033949
 21
5.2959468195
  0
LINE
  5
2B4
100
AcDbEntity
  8
0
100
AcDbLine
 62
7
  6
CONTINUOUS
 10
7.3941612511
 20
6.0268229243
 11
7.3969615438
 21
5.3850471749
  0
LINE
  5
2B5
100
AcDbEntity
  8
0
100
AcDbLine
 62
7
  6
CONTINUOUS
 10
7.347033949
 20
5.3601198968
 11
7.347033949
 21
5.3684533881
  0
LINE
  5
2B6
100
AcDbEntity
  8
0
100
AcDbLine
 62
7
  6
CONTINUOUS
 10
7.4137006157
 20
5.3684533881
 11
7.4137006157
 21
5.3601198968
  0
LINE
  5
2B7
100
AcDbEntity
  8
0
100
AcDbLine
 62
7
  6
CONTINUOUS
 10
7.3637730209
 20
5.3850471749
 11
7.3665733137
 21
6.0268229243
  0
LINE
  5
2B8
100
AcDbEntity
  8
0
100
AcDbLine
 62
7
  6
CONTINUOUS
 10
7.6870685423
 20
5.007301249
 11
7.7245248542
 21
5.0415257313
  0
LINE
  5
2B9
100
AcDbEntity
  8
0
100
AcDbLine
 62
7
  6
CONTINUOUS
 10
8.1428672824
 20
5.2927767586
 11
8.147033949
 21
5.2959468195
  0
LINE
  5
2BA
100
AcDbEntity
  8
0
100
AcDbLine
 62
7
  6
CONTINUOUS
 10
7.6428672824
 20
5.1907963683
 11
7.6428672824
 21
5.2927767586
  0
LINE
  5
2BB
100
AcDbEntity
  8
0
100
AcDbLine
 62
7
  6
CONTINUOUS
 10
7.647033949
 20
5.2959416933
 11
7.647033949
 21
5.1876263074
  0
LINE
  5
2BC
100
AcDbEntity
  8
0
100
AcDbLine
 62
7
  6
CONTINUOUS
 10
7.8941612511
 20
6.0268229243
 11
7.8969615438
 21
5.3850471749
  0
LINE
  5
2BD
100
AcDbEntity
  8
0
100
AcDbLine
 62
7
  6
CONTINUOUS
 10
7.797033949
 20
5.1867865634
 11
7.797033949
 21
5.2217865634
  0
LINE
  5
2BE
100
AcDbEntity
  8
0
100
AcDbLine
 62
7
  6
CONTINUOUS
 10
7.8303672824
 20
5.0134532301
 11
7.8303672824
 21
5.2967865634
  0
LINE
  5
2BF
100
AcDbEntity
  8
0
100
AcDbLine
 62
7
  6
CONTINUOUS
 10
7.847033949
 20
5.3601198968
 11
7.847033949
 21
5.3684533881
  0
LINE
  5
2C0
100
AcDbEntity
  8
0
100
AcDbLine
 62
7
  6
CONTINUOUS
 10
7.9137006157
 20
5.3684533881
 11
7.9137006157
 21
5.3601198968
  0
LINE
  5
2C1
100
AcDbEntity
  8
0
100
AcDbLine
 62
7
  6
CONTINUOUS
 10
7.8637730209
 20
5.3850471749
 11
7.8665733137
 21
6.0268229243
  0
LINE
  5
2C2
100
AcDbEntity
  8
0
100
AcDbLine
 62
7
  6
CONTINUOUS
 10
8.1870685423
 20
5.007301249
 11
8.2245248542
 21
5.0415257313
  0
LINE
  5
2C3
100
AcDbEntity
  8
0
100
AcDbLine
 62
7
  6
CONTINUOUS
 10
8.1428672824
 20
5.1907963683
 11
8.1428672824
 21
5.2927767586
  0
LINE
  5
2C4
100
AcDbEntity
  8
0
100
AcDbLine
 62
7
  6
CONTINUOUS
 10
8.147033949
 20
5.2959416933
 11
8.147033949
 21
5.1876263074
  0
LINE
  5
2C5
100
AcDbEntity
  8
0
100
AcDbLine
 62
7
  6
CONTINUOUS
 10
8.297033949
 20
5.1867865634
 11
8.297033949
 21
5.2217865634
  0
LINE
  5
2C6
100
AcDbEntity
  8
0
100
AcDbLine
 62
7
  6
CONTINUOUS
 10
3.9042054234
 20
12.8400477918
 11
3.9042054234
 21
12.3600477918
  0
LINE
  5
2C7
100
AcDbEntity
  8
0
100
AcDbLine
 62
7
  6
CONTINUOUS
 10
4.1943578968
 20
10.6034335963
 11
4.1330155774
 21
12.3600477918
  0
LINE
  5
2C8
100
AcDbEntity
  8
0
100
AcDbLine
 62
7
  6
CONTINUOUS
 10
4.1330155774
 20
12.8400477918
 11
4.194357891
 21
14.5966618185
  0
LINE
  5
2C9
100
AcDbEntity
  8
0
100
AcDbLine
 62
7
  6
CONTINUOUS
 10
4.2203070829
 20
10.6000477918
 11
4.6944875808
 21
10.6000477918
  0
LINE
  5
2CA
100
AcDbEntity
  8
0
100
AcDbLine
 62
7
  6
CONTINUOUS
 10
4.7203070829
 20
10.6000477918
 11
5.1944875808
 21
10.6000477918
  0
LINE
  5
2CB
100
AcDbEntity
  8
0
100
AcDbLine
 62
7
  6
CONTINUOUS
 10
5.2203070829
 20
10.6000477918
 11
5.6944875808
 21
10.6000477918
  0
LINE
  5
2CC
100
AcDbEntity
  8
0
100
AcDbLine
 62
7
  6
CONTINUOUS
 10
5.7203070829
 20
10.6000477918
 11
6.1944875808
 21
10.6000477918
  0
LINE
  5
2CD
100
AcDbEntity
  8
0
100
AcDbLine
 62
7
  6
CONTINUOUS
 10
6.2203070829
 20
10.6000477918
 11
6.6944875808
 21
10.6000477918
  0
LINE
  5
2CE
100
AcDbEntity
  8
0
100
AcDbLine
 62
7
  6
CONTINUOUS
 10
6.7203070829
 20
10.6000477918
 11
7.1944875808
 21
10.6000477918
  0
LINE
  5
2CF
100
AcDbEntity
  8
0
100
AcDbLine
 62
7
  6
CONTINUOUS
 10
7.2203070829
 20
10.6000477918
 11
7.6944875808
 21
10.6000477918
  0
LINE
  5
2D0
100
AcDbEntity
  8
0
100
AcDbLine
 62
7
  6
CONTINUOUS
 10
7.7203070829
 20
10.6000477918
 11
8.1944875808
 21
10.6000477918
  0
LINE
  5
2D1
100
AcDbEntity
  8
0
100
AcDbLine
 62
7
  6
CONTINUOUS
 10
7.8264848557
 20
10.6027684389
 11
7.8152593244
 21
10.6027684389
  0
LINE
  5
2D2
100
AcDbEntity
  8
0
100
AcDbLine
 62
7
  6
CONTINUOUS
 10
7.3264848557
 20
10.6027684389
 11
7.3152593244
 21
10.6027684389
  0
LINE
  5
2D3
100
AcDbEntity
  8
0
100
AcDbLine
 62
7
  6
CONTINUOUS
 10
6.8264848557
 20
10.6027684389
 11
6.8152593244
 21
10.6027684389
  0
LINE
  5
2D4
100
AcDbEntity
  8
0
100
AcDbLine
 62
7
  6
CONTINUOUS
 10
6.3264848557
 20
10.6027684389
 11
6.3152593244
 21
10.6027684389
  0
LINE
  5
2D5
100
AcDbEntity
  8
0
100
AcDbLine
 62
7
  6
CONTINUOUS
 10
5.8264848557
 20
10.6027684389
 11
5.8152593244
 21
10.6027684389
  0
LINE
  5
2D6
100
AcDbEntity
  8
0
100
AcDbLine
 62
7
  6
CONTINUOUS
 10
5.3264848557
 20
10.6027684389
 11
5.3152593244
 21
10.6027684389
  0
LINE
  5
2D7
100
AcDbEntity
  8
0
100
AcDbLine
 62
7
  6
CONTINUOUS
 10
4.8264848557
 20
10.6027684389
 11
4.8152593244
 21
10.6027684389
  0
LINE
  5
2D8
100
AcDbEntity
  8
0
100
AcDbLine
 62
7
  6
CONTINUOUS
 10
4.3264848557
 20
10.6027684389
 11
4.3152593244
 21
10.6027684389
  0
LINE
  5
2D9
100
AcDbEntity
  8
0
100
AcDbLine
 62
7
  6
CONTINUOUS
 10
4.2875387567
 20
10.6000477709
 11
4.2875387567
 21
14.516758092
  0
LINE
  5
2DA
100
AcDbEntity
  8
0
100
AcDbLine
 62
7
  6
CONTINUOUS
 10
4.3042778286
 20
10.6084534511
 11
4.3042778286
 21
14.516758092
  0
LINE
  5
2DB
100
AcDbEntity
  8
0
100
AcDbLine
 62
7
  6
CONTINUOUS
 10
4.3070781213
 20
10.6461013597
 11
4.3070781213
 21
14.516758092
  0
LINE
  5
2DC
100
AcDbEntity
  8
0
100
AcDbLine
 62
7
  6
CONTINUOUS
 10
4.3346660588
 20
14.516758092
 11
4.3346660588
 21
10.6461013597
  0
LINE
  5
2DD
100
AcDbEntity
  8
0
100
AcDbLine
 62
7
  6
CONTINUOUS
 10
4.3374663515
 20
14.516758092
 11
4.3374663515
 21
10.6084534511
  0
LINE
  5
2DE
100
AcDbEntity
  8
0
100
AcDbLine
 62
7
  6
CONTINUOUS
 10
4.3542054234
 20
14.516758092
 11
4.3542054234
 21
10.6000477918
  0
LINE
  5
2DF
100
AcDbEntity
  8
0
100
AcDbLine
 62
7
  6
CONTINUOUS
 10
4.5054390192
 20
12.3350477918
 11
4.5054390192
 21
12.8650477918
  0
LINE
  5
2E0
100
AcDbEntity
  8
0
100
AcDbLine
 62
7
  6
CONTINUOUS
 10
4.5142054234
 20
12.3433811252
 11
4.5142054234
 21
12.3517144585
  0
LINE
  5
2E1
100
AcDbEntity
  8
0
100
AcDbLine
 62
7
  6
CONTINUOUS
 10
4.5142054234
 20
12.8483811252
 11
4.5142054234
 21
12.8567144585
  0
LINE
  5
2E2
100
AcDbEntity
  8
0
100
AcDbLine
 62
7
  6
CONTINUOUS
 10
4.6943578968
 20
10.6034335963
 11
4.6330155774
 21
12.3600477918
  0
LINE
  5
2E3
100
AcDbEntity
  8
0
100
AcDbLine
 62
7
  6
CONTINUOUS
 10
4.5875387567
 20
12.3433811252
 11
4.5875387567
 21
12.3517144585
  0
LINE
  5
2E4
100
AcDbEntity
  8
0
100
AcDbLine
 62
7
  6
CONTINUOUS
 10
4.5875387567
 20
12.8483811252
 11
4.5875387567
 21
12.8567144585
  0
LINE
  5
2E5
100
AcDbEntity
  8
0
100
AcDbLine
 62
7
  6
CONTINUOUS
 10
4.6330155774
 20
12.8400477918
 11
4.694357891
 21
14.5966618185
  0
LINE
  5
2E6
100
AcDbEntity
  8
0
100
AcDbLine
 62
7
  6
CONTINUOUS
 10
4.7875387567
 20
10.6000477709
 11
4.7875387567
 21
14.516758092
  0
LINE
  5
2E7
100
AcDbEntity
  8
0
100
AcDbLine
 62
7
  6
CONTINUOUS
 10
4.8042778286
 20
10.6084534511
 11
4.8042778286
 21
14.516758092
  0
LINE
  5
2E8
100
AcDbEntity
  8
0
100
AcDbLine
 62
7
  6
CONTINUOUS
 10
4.8070781213
 20
10.6461013597
 11
4.8070781213
 21
14.516758092
  0
LINE
  5
2E9
100
AcDbEntity
  8
0
100
AcDbLine
 62
7
  6
CONTINUOUS
 10
4.8346660588
 20
14.516758092
 11
4.8346660588
 21
10.6461013597
  0
LINE
  5
2EA
100
AcDbEntity
  8
0
100
AcDbLine
 62
7
  6
CONTINUOUS
 10
4.8374663515
 20
14.516758092
 11
4.8374663515
 21
10.6084534511
  0
LINE
  5
2EB
100
AcDbEntity
  8
0
100
AcDbLine
 62
7
  6
CONTINUOUS
 10
4.8542054234
 20
14.516758092
 11
4.8542054234
 21
10.6000477918
  0
LINE
  5
2EC
100
AcDbEntity
  8
0
100
AcDbLine
 62
7
  6
CONTINUOUS
 10
5.0054390192
 20
12.3350477918
 11
5.0054390192
 21
12.8650477918
  0
LINE
  5
2ED
100
AcDbEntity
  8
0
100
AcDbLine
 62
7
  6
CONTINUOUS
 10
5.0142054234
 20
12.3433811252
 11
5.0142054234
 21
12.3517144585
  0
LINE
  5
2EE
100
AcDbEntity
  8
0
100
AcDbLine
 62
7
  6
CONTINUOUS
 10
5.0142054234
 20
12.8483811252
 11
5.0142054234
 21
12.8567144585
  0
LINE
  5
2EF
100
AcDbEntity
  8
0
100
AcDbLine
 62
7
  6
CONTINUOUS
 10
5.0875387567
 20
12.3433811252
 11
5.0875387567
 21
12.3517144585
  0
LINE
  5
2F0
100
AcDbEntity
  8
0
100
AcDbLine
 62
7
  6
CONTINUOUS
 10
5.0875387567
 20
12.8483811252
 11
5.0875387567
 21
12.8567144585
  0
LINE
  5
2F1
100
AcDbEntity
  8
0
100
AcDbLine
 62
7
  6
CONTINUOUS
 10
5.1943578968
 20
10.6034335963
 11
5.1330155774
 21
12.3600477918
  0
LINE
  5
2F2
100
AcDbEntity
  8
0
100
AcDbLine
 62
7
  6
CONTINUOUS
 10
5.2875387567
 20
10.6000477709
 11
5.2875387567
 21
14.516758092
  0
LINE
  5
2F3
100
AcDbEntity
  8
0
100
AcDbLine
 62
7
  6
CONTINUOUS
 10
5.3042778286
 20
10.6084534511
 11
5.3042778286
 21
14.516758092
  0
LINE
  5
2F4
100
AcDbEntity
  8
0
100
AcDbLine
 62
7
  6
CONTINUOUS
 10
5.3070781213
 20
10.6461013597
 11
5.3070781213
 21
14.516758092
  0
LINE
  5
2F5
100
AcDbEntity
  8
0
100
AcDbLine
 62
7
  6
CONTINUOUS
 10
5.1330155774
 20
12.8400477918
 11
5.194357891
 21
14.5966618185
  0
LINE
  5
2F6
100
AcDbEntity
  8
0
100
AcDbLine
 62
7
  6
CONTINUOUS
 10
5.3346660588
 20
14.516758092
 11
5.3346660588
 21
10.6461013597
  0
LINE
  5
2F7
100
AcDbEntity
  8
0
100
AcDbLine
 62
7
  6
CONTINUOUS
 10
5.3374663515
 20
14.516758092
 11
5.3374663515
 21
10.6084534511
  0
LINE
  5
2F8
100
AcDbEntity
  8
0
100
AcDbLine
 62
7
  6
CONTINUOUS
 10
5.3542054234
 20
14.516758092
 11
5.3542054234
 21
10.6000477918
  0
LINE
  5
2F9
100
AcDbEntity
  8
0
100
AcDbLine
 62
7
  6
CONTINUOUS
 10
5.5054390192
 20
12.3350477918
 11
5.5054390192
 21
12.8650477918
  0
LINE
  5
2FA
100
AcDbEntity
  8
0
100
AcDbLine
 62
7
  6
CONTINUOUS
 10
5.6943578968
 20
10.6034335963
 11
5.6330155774
 21
12.3600477918
  0
LINE
  5
2FB
100
AcDbEntity
  8
0
100
AcDbLine
 62
7
  6
CONTINUOUS
 10
5.5142054234
 20
12.3433811252
 11
5.5142054234
 21
12.3517144585
  0
LINE
  5
2FC
100
AcDbEntity
  8
0
100
AcDbLine
 62
7
  6
CONTINUOUS
 10
5.5142054234
 20
12.8483811252
 11
5.5142054234
 21
12.8567144585
  0
LINE
  5
2FD
100
AcDbEntity
  8
0
100
AcDbLine
 62
7
  6
CONTINUOUS
 10
5.5875387567
 20
12.3433811252
 11
5.5875387567
 21
12.3517144585
  0
LINE
  5
2FE
100
AcDbEntity
  8
0
100
AcDbLine
 62
7
  6
CONTINUOUS
 10
5.5875387567
 20
12.8483811252
 11
5.5875387567
 21
12.8567144585
  0
LINE
  5
2FF
100
AcDbEntity
  8
0
100
AcDbLine
 62
7
  6
CONTINUOUS
 10
5.6330155774
 20
12.8400477918
 11
5.694357891
 21
14.5966618185
  0
LINE
  5
300
100
AcDbEntity
  8
0
100
AcDbLine
 62
7
  6
CONTINUOUS
 10
8.207259257
 20
12.2267217176
 11
8.2071039276
 21
12.2267144562
  0
LINE
  5
301
100
AcDbEntity
  8
0
100
AcDbLine
 62
7
  6
CONTINUOUS
 10
8.2292054234
 20
12.2267144585
 11
8.2071093952
 21
12.2267144585
  0
LINE
  5
302
100
AcDbEntity
  8
0
100
AcDbLine
 62
7
  6
CONTINUOUS
 10
5.7875387567
 20
10.6000477709
 11
5.7875387567
 21
14.516758092
  0
LINE
  5
303
100
AcDbEntity
  8
0
100
AcDbLine
 62
7
  6
CONTINUOUS
 10
5.8042778286
 20
10.6084534511
 11
5.8042778286
 21
14.516758092
  0
LINE
  5
304
100
AcDbEntity
  8
0
100
AcDbLine
 62
7
  6
CONTINUOUS
 10
5.8070781213
 20
10.6461013597
 11
5.8070781213
 21
14.516758092
  0
LINE
  5
305
100
AcDbEntity
  8
0
100
AcDbLine
 62
7
  6
CONTINUOUS
 10
5.8346660588
 20
14.516758092
 11
5.8346660588
 21
10.6461013597
  0
LINE
  5
306
100
AcDbEntity
  8
0
100
AcDbLine
 62
7
  6
CONTINUOUS
 10
5.8374663515
 20
14.516758092
 11
5.8374663515
 21
10.6084534511
  0
LINE
  5
307
100
AcDbEntity
  8
0
100
AcDbLine
 62
7
  6
CONTINUOUS
 10
5.8542054234
 20
14.516758092
 11
5.8542054234
 21
10.6000477918
  0
LINE
  5
308
100
AcDbEntity
  8
0
100
AcDbLine
 62
7
  6
CONTINUOUS
 10
4.5054390192
 20
12.3433811252
 11
4.6335975903
 21
12.3433811252
  0
LINE
  5
309
100
AcDbEntity
  8
0
100
AcDbLine
 62
7
  6
CONTINUOUS
 10
5.0054390192
 20
12.3433811252
 11
5.1335975903
 21
12.3433811252
  0
LINE
  5
30A
100
AcDbEntity
  8
0
100
AcDbLine
 62
7
  6
CONTINUOUS
 10
5.5054390192
 20
12.3433811252
 11
5.6335975903
 21
12.3433811252
  0
LINE
  5
30B
100
AcDbEntity
  8
0
100
AcDbLine
 62
7
  6
CONTINUOUS
 10
6.0054390192
 20
12.3433811252
 11
6.1335975903
 21
12.3433811252
  0
LINE
  5
30C
100
AcDbEntity
  8
0
100
AcDbLine
 62
7
  6
CONTINUOUS
 10
6.5054390192
 20
12.3433811252
 11
6.6335975903
 21
12.3433811252
  0
LINE
  5
30D
100
AcDbEntity
  8
0
100
AcDbLine
 62
7
  6
CONTINUOUS
 10
7.0054390192
 20
12.3433811252
 11
7.1335975903
 21
12.3433811252
  0
LINE
  5
30E
100
AcDbEntity
  8
0
100
AcDbLine
 62
7
  6
CONTINUOUS
 10
7.5054390192
 20
12.3433811252
 11
7.6335975903
 21
12.3433811252
  0
LINE
  5
30F
100
AcDbEntity
  8
0
100
AcDbLine
 62
7
  6
CONTINUOUS
 10
8.0054390192
 20
12.3433811252
 11
8.2292054234
 21
12.3433811252
  0
LINE
  5
310
100
AcDbEntity
  8
0
100
AcDbLine
 62
7
  6
CONTINUOUS
 10
3.9125387567
 20
12.3517144585
 11
4.1333065839
 21
12.3517144585
  0
LINE
  5
311
100
AcDbEntity
  8
0
100
AcDbLine
 62
7
  6
CONTINUOUS
 10
4.5054390192
 20
12.3517144585
 11
4.6333065839
 21
12.3517144585
  0
LINE
  5
312
100
AcDbEntity
  8
0
100
AcDbLine
 62
7
  6
CONTINUOUS
 10
5.0054390192
 20
12.3517144585
 11
5.1333065839
 21
12.3517144585
  0
LINE
  5
313
100
AcDbEntity
  8
0
100
AcDbLine
 62
7
  6
CONTINUOUS
 10
5.5054390192
 20
12.3517144585
 11
5.6333065839
 21
12.3517144585
  0
LINE
  5
314
100
AcDbEntity
  8
0
100
AcDbLine
 62
7
  6
CONTINUOUS
 10
6.0054390192
 20
12.3517144585
 11
6.1333065839
 21
12.3517144585
  0
LINE
  5
315
100
AcDbEntity
  8
0
100
AcDbLine
 62
7
  6
CONTINUOUS
 10
6.5054390192
 20
12.3517144585
 11
6.6333065839
 21
12.3517144585
  0
LINE
  5
316
100
AcDbEntity
  8
0
100
AcDbLine
 62
7
  6
CONTINUOUS
 10
7.0054390192
 20
12.3517144585
 11
7.1333065839
 21
12.3517144585
  0
LINE
  5
317
100
AcDbEntity
  8
0
100
AcDbLine
 62
7
  6
CONTINUOUS
 10
7.5054390192
 20
12.3517144585
 11
7.6333065839
 21
12.3517144585
  0
LINE
  5
318
100
AcDbEntity
  8
0
100
AcDbLine
 62
7
  6
CONTINUOUS
 10
6.0054390192
 20
12.3350477918
 11
6.0054390192
 21
12.8650477918
  0
LINE
  5
319
100
AcDbEntity
  8
0
100
AcDbLine
 62
7
  6
CONTINUOUS
 10
6.0142054234
 20
12.3433811252
 11
6.0142054234
 21
12.3517144585
  0
LINE
  5
31A
100
AcDbEntity
  8
0
100
AcDbLine
 62
7
  6
CONTINUOUS
 10
6.0142054234
 20
12.8483811252
 11
6.0142054234
 21
12.8567144585
  0
LINE
  5
31B
100
AcDbEntity
  8
0
100
AcDbLine
 62
7
  6
CONTINUOUS
 10
6.0875387567
 20
12.3433811252
 11
6.0875387567
 21
12.3517144585
  0
LINE
  5
31C
100
AcDbEntity
  8
0
100
AcDbLine
 62
7
  6
CONTINUOUS
 10
6.0875387567
 20
12.8483811252
 11
6.0875387567
 21
12.8567144585
  0
LINE
  5
31D
100
AcDbEntity
  8
0
100
AcDbLine
 62
7
  6
CONTINUOUS
 10
6.1943578968
 20
10.6034335963
 11
6.1330155774
 21
12.3600477918
  0
LINE
  5
31E
100
AcDbEntity
  8
0
100
AcDbLine
 62
7
  6
CONTINUOUS
 10
6.2875387567
 20
10.6000477709
 11
6.2875387567
 21
14.516758092
  0
LINE
  5
31F
100
AcDbEntity
  8
0
100
AcDbLine
 62
7
  6
CONTINUOUS
 10
6.1330155774
 20
12.8400477918
 11
6.194357891
 21
14.5966618185
  0
LINE
  5
320
100
AcDbEntity
  8
0
100
AcDbLine
 62
7
  6
CONTINUOUS
 10
6.3042778286
 20
10.6084534511
 11
6.3042778286
 21
14.516758092
  0
LINE
  5
321
100
AcDbEntity
  8
0
100
AcDbLine
 62
7
  6
CONTINUOUS
 10
6.3070781213
 20
10.6461013597
 11
6.3070781213
 21
14.516758092
  0
LINE
  5
322
100
AcDbEntity
  8
0
100
AcDbLine
 62
7
  6
CONTINUOUS
 10
6.3346660588
 20
14.516758092
 11
6.3346660588
 21
10.6461013597
  0
LINE
  5
323
100
AcDbEntity
  8
0
100
AcDbLine
 62
7
  6
CONTINUOUS
 10
6.3374663515
 20
14.516758092
 11
6.3374663515
 21
10.6084534511
  0
LINE
  5
324
100
AcDbEntity
  8
0
100
AcDbLine
 62
7
  6
CONTINUOUS
 10
6.3542054234
 20
14.516758092
 11
6.3542054234
 21
10.6000477918
  0
LINE
  5
325
100
AcDbEntity
  8
0
100
AcDbLine
 62
7
  6
CONTINUOUS
 10
3.9125387567
 20
12.8483811252
 11
4.1333065839
 21
12.8483811252
  0
LINE
  5
326
100
AcDbEntity
  8
0
100
AcDbLine
 62
7
  6
CONTINUOUS
 10
4.5054390192
 20
12.8483811252
 11
4.6333065839
 21
12.8483811252
  0
LINE
  5
327
100
AcDbEntity
  8
0
100
AcDbLine
 62
7
  6
CONTINUOUS
 10
5.0054390192
 20
12.8483811252
 11
5.1333065839
 21
12.8483811252
  0
LINE
  5
328
100
AcDbEntity
  8
0
100
AcDbLine
 62
7
  6
CONTINUOUS
 10
5.5054390192
 20
12.8483811252
 11
5.6333065839
 21
12.8483811252
  0
LINE
  5
329
100
AcDbEntity
  8
0
100
AcDbLine
 62
7
  6
CONTINUOUS
 10
6.0054390192
 20
12.8483811252
 11
6.1333065839
 21
12.8483811252
  0
LINE
  5
32A
100
AcDbEntity
  8
0
100
AcDbLine
 62
7
  6
CONTINUOUS
 10
6.5054390192
 20
12.8483811252
 11
6.6333065839
 21
12.8483811252
  0
LINE
  5
32B
100
AcDbEntity
  8
0
100
AcDbLine
 62
7
  6
CONTINUOUS
 10
7.0054390192
 20
12.8483811252
 11
7.1333065839
 21
12.8483811252
  0
LINE
  5
32C
100
AcDbEntity
  8
0
100
AcDbLine
 62
7
  6
CONTINUOUS
 10
7.5054390192
 20
12.8483811252
 11
7.6333065839
 21
12.8483811252
  0
LINE
  5
32D
100
AcDbEntity
  8
0
100
AcDbLine
 62
7
  6
CONTINUOUS
 10
4.5054390192
 20
12.8567144585
 11
4.6335975903
 21
12.8567144585
  0
LINE
  5
32E
100
AcDbEntity
  8
0
100
AcDbLine
 62
7
  6
CONTINUOUS
 10
5.0054390192
 20
12.8567144585
 11
5.1335975903
 21
12.8567144585
  0
LINE
  5
32F
100
AcDbEntity
  8
0
100
AcDbLine
 62
7
  6
CONTINUOUS
 10
5.5054390192
 20
12.8567144585
 11
5.6335975903
 21
12.8567144585
  0
LINE
  5
330
100
AcDbEntity
  8
0
100
AcDbLine
 62
7
  6
CONTINUOUS
 10
6.0054390192
 20
12.8567144585
 11
6.1335975903
 21
12.8567144585
  0
LINE
  5
331
100
AcDbEntity
  8
0
100
AcDbLine
 62
7
  6
CONTINUOUS
 10
6.5054390192
 20
12.8567144585
 11
6.6335975903
 21
12.8567144585
  0
LINE
  5
332
100
AcDbEntity
  8
0
100
AcDbLine
 62
7
  6
CONTINUOUS
 10
7.0054390192
 20
12.8567144585
 11
7.1335975903
 21
12.8567144585
  0
LINE
  5
333
100
AcDbEntity
  8
0
100
AcDbLine
 62
7
  6
CONTINUOUS
 10
7.5054390192
 20
12.8567144585
 11
7.6335975903
 21
12.8567144585
  0
LINE
  5
334
100
AcDbEntity
  8
0
100
AcDbLine
 62
7
  6
CONTINUOUS
 10
8.0054390192
 20
12.8567144585
 11
8.2292054234
 21
12.8567144585
  0
LINE
  5
335
100
AcDbEntity
  8
0
100
AcDbLine
 62
7
  6
CONTINUOUS
 10
8.2071093952
 20
12.9733811252
 11
8.2292054234
 21
12.9733811252
  0
LINE
  5
336
100
AcDbEntity
  8
0
100
AcDbLine
 62
7
  6
CONTINUOUS
 10
6.6943578968
 20
10.6034335963
 11
6.6330155774
 21
12.3600477918
  0
LINE
  5
337
100
AcDbEntity
  8
0
100
AcDbLine
 62
7
  6
CONTINUOUS
 10
6.5054390192
 20
12.3350477918
 11
6.5054390192
 21
12.8650477918
  0
LINE
  5
338
100
AcDbEntity
  8
0
100
AcDbLine
 62
7
  6
CONTINUOUS
 10
6.5142054234
 20
12.3433811252
 11
6.5142054234
 21
12.3517144585
  0
LINE
  5
339
100
AcDbEntity
  8
0
100
AcDbLine
 62
7
  6
CONTINUOUS
 10
6.5142054234
 20
12.8483811252
 11
6.5142054234
 21
12.8567144585
  0
LINE
  5
33A
100
AcDbEntity
  8
0
100
AcDbLine
 62
7
  6
CONTINUOUS
 10
6.5875387567
 20
12.3433811252
 11
6.5875387567
 21
12.3517144585
  0
LINE
  5
33B
100
AcDbEntity
  8
0
100
AcDbLine
 62
7
  6
CONTINUOUS
 10
6.5875387567
 20
12.8483811252
 11
6.5875387567
 21
12.8567144585
  0
LINE
  5
33C
100
AcDbEntity
  8
0
100
AcDbLine
 62
7
  6
CONTINUOUS
 10
6.6330155774
 20
12.8400477918
 11
6.694357891
 21
14.5966618185
  0
LINE
  5
33D
100
AcDbEntity
  8
0
100
AcDbLine
 62
7
  6
CONTINUOUS
 10
8.2071291314
 20
12.9733810157
 11
8.2071772652
 21
12.9733793772
  0
LINE
  5
33E
100
AcDbEntity
  8
0
100
AcDbLine
 62
7
  6
CONTINUOUS
 10
6.7875387567
 20
10.6000477709
 11
6.7875387567
 21
14.516758092
  0
LINE
  5
33F
100
AcDbEntity
  8
0
100
AcDbLine
 62
7
  6
CONTINUOUS
 10
6.8042778286
 20
10.6084534511
 11
6.8042778286
 21
14.516758092
  0
LINE
  5
340
100
AcDbEntity
  8
0
100
AcDbLine
 62
7
  6
CONTINUOUS
 10
6.8070781213
 20
10.6461013597
 11
6.8070781213
 21
14.516758092
  0
LINE
  5
341
100
AcDbEntity
  8
0
100
AcDbLine
 62
7
  6
CONTINUOUS
 10
6.8346660588
 20
14.516758092
 11
6.8346660588
 21
10.6461013597
  0
LINE
  5
342
100
AcDbEntity
  8
0
100
AcDbLine
 62
7
  6
CONTINUOUS
 10
6.8374663515
 20
14.516758092
 11
6.8374663515
 21
10.6084534511
  0
LINE
  5
343
100
AcDbEntity
  8
0
100
AcDbLine
 62
7
  6
CONTINUOUS
 10
6.8542054234
 20
14.516758092
 11
6.8542054234
 21
10.6000477918
  0
LINE
  5
344
100
AcDbEntity
  8
0
100
AcDbLine
 62
7
  6
CONTINUOUS
 10
7.0054390192
 20
12.3350477918
 11
7.0054390192
 21
12.8650477918
  0
LINE
  5
345
100
AcDbEntity
  8
0
100
AcDbLine
 62
7
  6
CONTINUOUS
 10
7.0142054234
 20
12.3433811252
 11
7.0142054234
 21
12.3517144585
  0
LINE
  5
346
100
AcDbEntity
  8
0
100
AcDbLine
 62
7
  6
CONTINUOUS
 10
7.0142054234
 20
12.8483811252
 11
7.0142054234
 21
12.8567144585
  0
LINE
  5
347
100
AcDbEntity
  8
0
100
AcDbLine
 62
7
  6
CONTINUOUS
 10
7.1943578968
 20
10.6034335963
 11
7.1330155774
 21
12.3600477918
  0
LINE
  5
348
100
AcDbEntity
  8
0
100
AcDbLine
 62
7
  6
CONTINUOUS
 10
7.0875387567
 20
12.3433811252
 11
7.0875387567
 21
12.3517144585
  0
LINE
  5
349
100
AcDbEntity
  8
0
100
AcDbLine
 62
7
  6
CONTINUOUS
 10
7.0875387567
 20
12.8483811252
 11
7.0875387567
 21
12.8567144585
  0
LINE
  5
34A
100
AcDbEntity
  8
0
100
AcDbLine
 62
7
  6
CONTINUOUS
 10
7.1330155774
 20
12.8400477918
 11
7.194357891
 21
14.5966618185
  0
LINE
  5
34B
100
AcDbEntity
  8
0
100
AcDbLine
 62
7
  6
CONTINUOUS
 10
8.2069480927
 20
12.2265857113
 11
8.2072426491
 21
12.2267144585
  0
LINE
  5
34C
100
AcDbEntity
  8
0
100
AcDbLine
 62
7
  6
CONTINUOUS
 10
7.2875387567
 20
10.6000477709
 11
7.2875387567
 21
14.516758092
  0
LINE
  5
34D
100
AcDbEntity
  8
0
100
AcDbLine
 62
7
  6
CONTINUOUS
 10
7.3042778286
 20
10.6084534511
 11
7.3042778286
 21
14.516758092
  0
LINE
  5
34E
100
AcDbEntity
  8
0
100
AcDbLine
 62
7
  6
CONTINUOUS
 10
7.3070781213
 20
10.6461013597
 11
7.3070781213
 21
14.516758092
  0
LINE
  5
34F
100
AcDbEntity
  8
0
100
AcDbLine
 62
7
  6
CONTINUOUS
 10
7.3346660588
 20
14.516758092
 11
7.3346660588
 21
10.6461013597
  0
LINE
  5
350
100
AcDbEntity
  8
0
100
AcDbLine
 62
7
  6
CONTINUOUS
 10
7.3374663515
 20
14.516758092
 11
7.3374663515
 21
10.6084534511
  0
LINE
  5
351
100
AcDbEntity
  8
0
100
AcDbLine
 62
7
  6
CONTINUOUS
 10
7.3542054234
 20
14.516758092
 11
7.3542054234
 21
10.6000477918
  0
LINE
  5
352
100
AcDbEntity
  8
0
100
AcDbLine
 62
7
  6
CONTINUOUS
 10
8.2067225737
 20
12.2264550276
 11
8.2069480927
 21
12.2265857113
  0
LINE
  5
353
100
AcDbEntity
  8
0
100
AcDbLine
 62
7
  6
CONTINUOUS
 10
7.6943578968
 20
10.6034335963
 11
7.6330155774
 21
12.3600477918
  0
LINE
  5
354
100
AcDbEntity
  8
0
100
AcDbLine
 62
7
  6
CONTINUOUS
 10
7.5054390192
 20
12.3350477918
 11
7.5054390192
 21
12.8650477918
  0
LINE
  5
355
100
AcDbEntity
  8
0
100
AcDbLine
 62
7
  6
CONTINUOUS
 10
7.5142054234
 20
12.3433811252
 11
7.5142054234
 21
12.3517144585
  0
LINE
  5
356
100
AcDbEntity
  8
0
100
AcDbLine
 62
7
  6
CONTINUOUS
 10
7.5142054234
 20
12.8483811252
 11
7.5142054234
 21
12.8567144585
  0
LINE
  5
357
100
AcDbEntity
  8
0
100
AcDbLine
 62
7
  6
CONTINUOUS
 10
7.5875387567
 20
12.3433811252
 11
7.5875387567
 21
12.3517144585
  0
LINE
  5
358
100
AcDbEntity
  8
0
100
AcDbLine
 62
7
  6
CONTINUOUS
 10
7.5875387567
 20
12.8483811252
 11
7.5875387567
 21
12.8567144585
  0
LINE
  5
359
100
AcDbEntity
  8
0
100
AcDbLine
 62
7
  6
CONTINUOUS
 10
7.6330155774
 20
12.8400477918
 11
7.694357891
 21
14.5966618185
  0
LWPOLYLINE
  5
35A
100
AcDbEntity
  8
0
100
AcDbPolyline
 62
7
  6
CONTINUOUS
 90
7
 70
0
 10
8.2071749859
 20
12.9733811252
 10
8.2071098711
 20
12.9734310613
 10
8.206165737
 20
12.9740474261
 10
8.2048649288
 20
12.9754422929
 10
8.2036425969
 20
12.9775941417
 10
8.2029052021
 20
12.980282045
 10
8.2028071883
 20
12.9817144842
  0
LINE
  5
35B
100
AcDbEntity
  8
0
100
AcDbLine
 62
7
  6
CONTINUOUS
 10
7.7875387567
 20
10.6000477709
 11
7.7875387567
 21
14.516758092
  0
LINE
  5
35C
100
AcDbEntity
  8
0
100
AcDbLine
 62
7
  6
CONTINUOUS
 10
7.8042778286
 20
10.6084534511
 11
7.8042778286
 21
14.516758092
  0
LINE
  5
35D
100
AcDbEntity
  8
0
100
AcDbLine
 62
7
  6
CONTINUOUS
 10
7.8070781213
 20
10.6461013597
 11
7.8070781213
 21
14.516758092
  0
LINE
  5
35E
100
AcDbEntity
  8
0
100
AcDbLine
 62
7
  6
CONTINUOUS
 10
7.8346660588
 20
14.516758092
 11
7.8346660588
 21
10.6461013597
  0
LINE
  5
35F
100
AcDbEntity
  8
0
100
AcDbLine
 62
7
  6
CONTINUOUS
 10
7.8374663515
 20
14.516758092
 11
7.8374663515
 21
10.6084534511
  0
LINE
  5
360
100
AcDbEntity
  8
0
100
AcDbLine
 62
7
  6
CONTINUOUS
 10
7.8542054234
 20
14.516758092
 11
7.8542054234
 21
10.6000477918
  0
LINE
  5
361
100
AcDbEntity
  8
0
100
AcDbLine
 62
7
  6
CONTINUOUS
 10
8.0054390192
 20
12.3350477918
 11
8.0054390192
 21
12.8650477918
  0
LINE
  5
362
100
AcDbEntity
  8
0
100
AcDbLine
 62
7
  6
CONTINUOUS
 10
8.0142054234
 20
12.3433811252
 11
8.0142054234
 21
12.8567144585
  0
LINE
  5
363
100
AcDbEntity
  8
0
100
AcDbLine
 62
7
  6
CONTINUOUS
 10
4.2875387567
 20
14.516758092
 11
4.3542054234
 21
14.516758092
  0
LINE
  5
364
100
AcDbEntity
  8
0
100
AcDbLine
 62
7
  6
CONTINUOUS
 10
4.7875387567
 20
14.516758092
 11
4.8542054234
 21
14.516758092
  0
LINE
  5
365
100
AcDbEntity
  8
0
100
AcDbLine
 62
7
  6
CONTINUOUS
 10
5.2875387567
 20
14.516758092
 11
5.3542054234
 21
14.516758092
  0
LINE
  5
366
100
AcDbEntity
  8
0
100
AcDbLine
 62
7
  6
CONTINUOUS
 10
5.7875387567
 20
14.516758092
 11
5.8542054234
 21
14.516758092
  0
LINE
  5
367
100
AcDbEntity
  8
0
100
AcDbLine
 62
7
  6
CONTINUOUS
 10
6.2875387567
 20
14.516758092
 11
6.3542054234
 21
14.516758092
  0
LINE
  5
368
100
AcDbEntity
  8
0
100
AcDbLine
 62
7
  6
CONTINUOUS
 10
6.7875387567
 20
14.516758092
 11
6.8542054234
 21
14.516758092
  0
LINE
  5
369
100
AcDbEntity
  8
0
100
AcDbLine
 62
7
  6
CONTINUOUS
 10
7.2875387567
 20
14.516758092
 11
7.3542054234
 21
14.516758092
  0
LINE
  5
36A
100
AcDbEntity
  8
0
100
AcDbLine
 62
7
  6
CONTINUOUS
 10
7.7875387567
 20
14.516758092
 11
7.8542054234
 21
14.516758092
  0
LINE
  5
36B
100
AcDbEntity
  8
0
100
AcDbLine
 62
7
  6
CONTINUOUS
 10
8.0875387567
 20
12.3433811252
 11
8.0875387567
 21
12.8567144585
  0
LINE
  5
36C
100
AcDbEntity
  8
0
100
AcDbLine
 62
7
  6
CONTINUOUS
 10
8.2028072252
 20
10.6083811252
 11
8.2028072252
 21
12.2183810366
  0
LINE
  5
36D
100
AcDbEntity
  8
0
100
AcDbLine
 62
7
  6
CONTINUOUS
 10
8.2028072252
 20
12.9817144585
 11
8.2028072252
 21
14.5917144585
  0
LINE
  5
36E
100
AcDbEntity
  8
0
100
AcDbLine
 62
7
  6
CONTINUOUS
 10
8.2375387567
 20
12.2350477918
 11
8.2375387567
 21
12.3350477918
  0
LINE
  5
36F
100
AcDbEntity
  8
0
100
AcDbLine
 62
7
  6
CONTINUOUS
 10
8.2375387567
 20
12.8650477918
 11
8.2375387567
 21
12.9650477918
  0
LWPOLYLINE
  5
370
100
AcDbEntity
  8
0
100
AcDbPolyline
 62
7
  6
CONTINUOUS
 90
3
 70
0
 10
8.2028072251
 20
12.2183810366
 10
8.2029379385
 20
12.2200342151
 10
8.2035850773
 20
12.222362005
  0
LWPOLYLINE
  5
371
100
AcDbEntity
  8
0
100
AcDbPolyline
 62
7
  6
CONTINUOUS
 90
4
 70
0
 10
8.2035850773
 20
12.222362005
 10
8.2046027959
 20
12.2242829712
 10
8.2057333816
 20
12.2256562212
 10
8.2067225737
 20
12.2264550276
  0
LINE
  5
372
100
AcDbEntity
  8
0
100
AcDbLine
 62
7
  6
CONTINUOUS
 10
4.2203235187
 20
14.6000477918
 11
4.6944875808
 21
14.6000477918
  0
LINE
  5
373
100
AcDbEntity
  8
0
100
AcDbLine
 62
7
  6
CONTINUOUS
 10
4.7203235187
 20
14.6000477918
 11
5.1944875808
 21
14.6000477918
  0
LINE
  5
374
100
AcDbEntity
  8
0
100
AcDbLine
 62
7
  6
CONTINUOUS
 10
5.2203235187
 20
14.6000477918
 11
5.6944875808
 21
14.6000477918
  0
LINE
  5
375
100
AcDbEntity
  8
0
100
AcDbLine
 62
7
  6
CONTINUOUS
 10
5.7203235187
 20
14.6000477918
 11
6.1944875808
 21
14.6000477918
  0
LINE
  5
376
100
AcDbEntity
  8
0
100
AcDbLine
 62
7
  6
CONTINUOUS
 10
6.2203235187
 20
14.6000477918
 11
6.6944875808
 21
14.6000477918
  0
LINE
  5
377
100
AcDbEntity
  8
0
100
AcDbLine
 62
7
  6
CONTINUOUS
 10
6.7203235187
 20
14.6000477918
 11
7.1944875808
 21
14.6000477918
  0
LINE
  5
378
100
AcDbEntity
  8
0
100
AcDbLine
 62
7
  6
CONTINUOUS
 10
7.2203235187
 20
14.6000477918
 11
7.6944875808
 21
14.6000477918
  0
LINE
  5
379
100
AcDbEntity
  8
0
100
AcDbLine
 62
7
  6
CONTINUOUS
 10
7.7203235187
 20
14.6000477918
 11
8.1944875808
 21
14.6000477918
  0
LINE
  5
37A
100
AcDbEntity
  8
0
100
AcDbLine
 62
7
  6
CONTINUOUS
 10
13.5603552674
 20
5.2539580378
 11
13.5603552674
 21
5.3006247044
  0
LINE
  5
37B
100
AcDbEntity
  8
0
100
AcDbLine
 62
7
  6
CONTINUOUS
 10
13.5630759144
 20
5.9324804478
 11
13.5603552728
 21
5.3089592771
  0
LINE
  5
37C
100
AcDbEntity
  8
0
100
AcDbLine
 62
7
  6
CONTINUOUS
 10
15.0620219341
 20
5.0072913711
 11
15.0620219341
 21
4.9539580378
  0
LINE
  5
37D
100
AcDbEntity
  8
0
100
AcDbLine
 62
7
  6
CONTINUOUS
 10
15.0703552674
 20
4.9456247044
 11
15.4270219341
 21
4.9456247044
  0
LINE
  5
37E
100
AcDbEntity
  8
0
100
AcDbLine
 62
7
  6
CONTINUOUS
 10
15.6936886007
 20
4.9456247044
 11
16.0503552674
 21
4.9456247044
  0
LINE
  5
37F
100
AcDbEntity
  8
0
100
AcDbLine
 62
7
  6
CONTINUOUS
 10
15.4436111157
 20
4.9878039611
 11
15.6770994303
 21
4.9878039611
  0
LINE
  5
380
100
AcDbEntity
  8
0
100
AcDbLine
 62
7
  6
CONTINUOUS
 10
15.0703552674
 20
5.0156247044
 11
15.1786886007
 21
5.0156247044
  0
LINE
  5
381
100
AcDbEntity
  8
0
100
AcDbLine
 62
7
  6
CONTINUOUS
 10
15.9420219341
 20
5.0156247044
 11
16.0503552674
 21
5.0156247044
  0
LWPOLYLINE
  5
382
100
AcDbEntity
  8
0
100
AcDbPolyline
 62
7
  6
CONTINUOUS
 90
5
 70
0
 10
15.6771002586
 20
4.987803982
 10
15.6788621965
 20
4.9876093433
 10
15.6815368536
 20
4.9864936293
 10
15.683964388
 20
4.9841035254
 10
15.68527851
 20
4.9806265845
  0
LINE
  5
383
100
AcDbEntity
  8
0
100
AcDbLine
 62
7
  6
CONTINUOUS
 10
15.1870219341
 20
4.9539580378
 11
15.1870219341
 21
5.2372913711
  0
LINE
  5
384
100
AcDbEntity
  8
0
100
AcDbLine
 62
7
  6
CONTINUOUS
 10
15.3036886007
 20
5.1256247044
 11
15.8170219341
 21
5.1256247044
  0
LINE
  5
385
100
AcDbEntity
  8
0
100
AcDbLine
 62
7
  6
CONTINUOUS
 10
15.8170219341
 20
5.1281311151
 11
15.3036886007
 21
5.1281311151
  0
LINE
  5
386
100
AcDbEntity
  8
0
100
AcDbLine
 62
7
  6
CONTINUOUS
 10
15.3036886007
 20
4.9539580378
 11
15.3036886007
 21
5.3006247044
  0
LINE
  5
387
100
AcDbEntity
  8
0
100
AcDbLine
 62
7
  6
CONTINUOUS
 10
15.4353552674
 20
4.9539580378
 11
15.4353542722
 21
5.0745810362
  0
LINE
  5
388
100
AcDbEntity
  8
0
100
AcDbLine
 62
7
  6
CONTINUOUS
 10
15.3036886007
 20
5.2364516271
 11
15.8170219341
 21
5.2364516271
  0
LINE
  5
389
100
AcDbEntity
  8
0
100
AcDbLine
 62
7
  6
CONTINUOUS
 10
15.3036886007
 20
5.2389580378
 11
15.8170219341
 21
5.2389580378
  0
LINE
  5
38A
100
AcDbEntity
  8
0
100
AcDbLine
 62
7
  6
CONTINUOUS
 10
13.5686886007
 20
5.2456247044
 11
15.1786886007
 21
5.2456247044
  0
LINE
  5
38B
100
AcDbEntity
  8
0
100
AcDbLine
 62
7
  6
CONTINUOUS
 10
15.3120219341
 20
5.2456247044
 11
15.8086886007
 21
5.2456247044
  0
LINE
  5
38C
100
AcDbEntity
  8
0
100
AcDbLine
 62
7
  6
CONTINUOUS
 10
15.9420219341
 20
5.2456247044
 11
17.5520219341
 21
5.2456247044
  0
LINE
  5
38D
100
AcDbEntity
  8
0
100
AcDbLine
 62
7
  6
CONTINUOUS
 10
15.8086886007
 20
5.3039580378
 11
15.3120219341
 21
5.3039580378
  0
LINE
  5
38E
100
AcDbEntity
  8
0
100
AcDbLine
 62
7
  6
CONTINUOUS
 10
13.5686886007
 20
5.3089580378
 11
17.5520219341
 21
5.3089580378
  0
LINE
  5
38F
100
AcDbEntity
  8
0
100
AcDbLine
 62
7
  6
CONTINUOUS
 10
15.6853562635
 20
5.0745813837
 11
15.6853552674
 21
4.9539580378
  0
LINE
  5
390
100
AcDbEntity
  8
0
100
AcDbLine
 62
7
  6
CONTINUOUS
 10
15.8170219341
 20
4.9539580378
 11
15.8170219341
 21
5.3006247044
  0
LINE
  5
391
100
AcDbEntity
  8
0
100
AcDbLine
 62
7
  6
CONTINUOUS
 10
15.435926547
 20
4.9825284446
 11
15.4380437812
 21
4.9856218849
  0
LINE
  5
392
100
AcDbEntity
  8
0
100
AcDbLine
 62
7
  6
CONTINUOUS
 10
15.9336886007
 20
4.9539580378
 11
15.9336886007
 21
5.2372913711
  0
LWPOLYLINE
  5
393
100
AcDbEntity
  8
0
100
AcDbPolyline
 62
7
  6
CONTINUOUS
 90
3
 70
0
 10
15.4380437812
 20
4.9856218849
 10
15.440923935
 20
4.9873463564
 10
15.4436111099
 20
4.987803962
  0
LINE
  5
394
100
AcDbEntity
  8
0
100
AcDbLine
 62
7
  6
CONTINUOUS
 10
16.0586886007
 20
4.9539580378
 11
16.0586886007
 21
5.0072913711
  0
LINE
  5
395
100
AcDbEntity
  8
0
100
AcDbLine
 62
7
  6
CONTINUOUS
 10
17.4770655676
 20
5.9756247044
 11
13.6064088353
 21
5.9756247044
  0
LINE
  5
396
100
AcDbEntity
  8
0
100
AcDbLine
 62
7
  6
CONTINUOUS
 10
17.4770655676
 20
5.3089581957
 11
17.4770655676
 21
5.9756247044
  0
LINE
  5
397
100
AcDbEntity
  8
0
100
AcDbLine
 62
7
  6
CONTINUOUS
 10
17.5603552674
 20
5.3006247044
 11
17.5603552674
 21
5.2539580378
  0
LINE
  5
398
100
AcDbEntity
  8
0
100
AcDbLine
 62
7
  6
CONTINUOUS
 10
13.2763969648
 20
10.8008011293
 11
13.0943342343
 21
11.1801574536
  0
LWPOLYLINE
  5
399
100
AcDbEntity
  8
0
100
AcDbPolyline
 62
7
  6
CONTINUOUS
 90
4
 70
0
 10
13.2763969648
 20
10.8008011293
 10
13.2766230945
 20
10.8002514198
 10
13.2767588706
 20
10.7995376519
 10
13.2767404528
 20
10.7994694848
  0
LINE
  5
39A
100
AcDbEntity
  8
0
100
AcDbLine
 62
7
  6
CONTINUOUS
 10
13.1872833408
 20
10.7865049364
 11
13.2057126833
 21
10.7802845214
  0
LWPOLYLINE
  5
39B
100
AcDbEntity
  8
0
100
AcDbPolyline
 62
7
  6
CONTINUOUS
 90
3
 70
0
 10
13.2057126833
 20
10.7802845214
 10
13.2359934836
 20
10.7664462268
 10
13.2575720466
 20
10.7530731488
  0
LINE
  5
39C
100
AcDbEntity
  8
0
100
AcDbLine
 62
7
  6
CONTINUOUS
 10
13.6478138378
 20
10.7865049364
 11
13.6662431803
 21
10.7802845214
  0
LWPOLYLINE
  5
39D
100
AcDbEntity
  8
0
100
AcDbPolyline
 62
7
  6
CONTINUOUS
 90
3
 70
0
 10
13.6662431803
 20
10.7802845214
 10
13.6965239806
 20
10.7664462268
 10
13.7181025436
 20
10.7530731488
  0
LINE
  5
39E
100
AcDbEntity
  8
0
100
AcDbLine
 62
7
  6
CONTINUOUS
 10
13.7369274618
 20
10.8008011293
 11
13.5548647313
 21
11.1801574536
  0
LWPOLYLINE
  5
39F
100
AcDbEntity
  8
0
100
AcDbPolyline
 62
7
  6
CONTINUOUS
 90
4
 70
0
 10
13.7369274618
 20
10.8008011293
 10
13.7371535915
 20
10.8002514198
 10
13.7372893676
 20
10.7995376519
 10
13.7372709498
 20
10.7994694848
  0
LWPOLYLINE
  5
3A0
100
AcDbEntity
  8
0
100
AcDbPolyline
 62
7
  6
CONTINUOUS
 90
7
 70
0
 10
13.0918723237
 20
11.2353158586
 10
13.0904213613
 20
11.2297339154
 10
13.0887937671
 20
11.2182922122
 10
13.0886179548
 20
11.2062991402
 10
13.0898922314
 20
11.1947148351
 10
13.0925764391
 20
11.1843980624
 10
13.0943509249
 20
11.1801230662
  0
LINE
  5
3A1
100
AcDbEntity
  8
0
100
AcDbLine
 62
7
  6
CONTINUOUS
 10
14.1083443348
 20
10.7865049364
 11
14.1267736773
 21
10.7802845214
  0
LWPOLYLINE
  5
3A2
100
AcDbEntity
  8
0
100
AcDbPolyline
 62
7
  6
CONTINUOUS
 90
3
 70
0
 10
14.1267736773
 20
10.7802845214
 10
14.1570544776
 20
10.7664462268
 10
14.1786330406
 20
10.7530731488
  0
LINE
  5
3A3
100
AcDbEntity
  8
0
100
AcDbLine
 62
7
  6
CONTINUOUS
 10
13.2156072052
 20
10.9274661331
 11
13.1798612131
 21
10.7940668537
  0
LINE
  5
3A4
100
AcDbEntity
  8
0
100
AcDbLine
 62
7
  6
CONTINUOUS
 10
13.0918677127
 20
11.2353010856
 11
14.028823357
 21
14.267290662
  0
LINE
  5
3A5
100
AcDbEntity
  8
0
100
AcDbLine
 62
7
  6
CONTINUOUS
 10
13.2623790025
 20
10.7515449721
 11
13.4898835624
 21
10.7515449721
  0
LINE
  5
3A6
100
AcDbEntity
  8
0
100
AcDbLine
 62
7
  6
CONTINUOUS
 10
13.5972968094
 20
10.7515449721
 11
13.6574349843
 21
10.7515449721
  0
LINE
  5
3A7
100
AcDbEntity
  8
0
100
AcDbLine
 62
7
  6
CONTINUOUS
 10
13.7229094995
 20
10.7515449721
 11
13.9504140594
 21
10.7515449721
  0
LINE
  5
3A8
100
AcDbEntity
  8
0
100
AcDbLine
 62
7
  6
CONTINUOUS
 10
14.0578273064
 20
10.7515449721
 11
14.1179654813
 21
10.7515449721
  0
LINE
  5
3A9
100
AcDbEntity
  8
0
100
AcDbLine
 62
7
  6
CONTINUOUS
 10
14.1834399965
 20
10.7515449721
 11
14.4109445564
 21
10.7515449721
  0
LINE
  5
3AA
100
AcDbEntity
  8
0
100
AcDbLine
 62
7
  6
CONTINUOUS
 10
14.5183578034
 20
10.7515449721
 11
14.5784959783
 21
10.7515449721
  0
LINE
  5
3AB
100
AcDbEntity
  8
0
100
AcDbLine
 62
7
  6
CONTINUOUS
 10
14.6439704935
 20
10.7515449721
 11
14.8714750534
 21
10.7515449721
  0
LINE
  5
3AC
100
AcDbEntity
  8
0
100
AcDbLine
 62
7
  6
CONTINUOUS
 10
14.9788883004
 20
10.7515449721
 11
15.0390264753
 21
10.7515449721
  0
LINE
  5
3AD
100
AcDbEntity
  8
0
100
AcDbLine
 62
7
  6
CONTINUOUS
 10
15.1045009905
 20
10.7515449721
 11
15.3320055504
 21
10.7515449721
  0
LINE
  5
3AE
100
AcDbEntity
  8
0
100
AcDbLine
 62
7
  6
CONTINUOUS
 10
15.4394187974
 20
10.7515449721
 11
15.4995569723
 21
10.7515449721
  0
LINE
  5
3AF
100
AcDbEntity
  8
0
100
AcDbLine
 62
7
  6
CONTINUOUS
 10
15.5650314875
 20
10.7515449721
 11
15.7925360474
 21
10.7515449721
  0
LINE
  5
3B0
100
AcDbEntity
  8
0
100
AcDbLine
 62
7
  6
CONTINUOUS
 10
15.8999492944
 20
10.7515449721
 11
15.9600874693
 21
10.7515449721
  0
LINE
  5
3B1
100
AcDbEntity
  8
0
100
AcDbLine
 62
7
  6
CONTINUOUS
 10
16.0255619845
 20
10.7515449721
 11
16.2530665444
 21
10.7515449721
  0
LINE
  5
3B2
100
AcDbEntity
  8
0
100
AcDbLine
 62
7
  6
CONTINUOUS
 10
16.3604797914
 20
10.7515449721
 11
16.4206179663
 21
10.7515449721
  0
LINE
  5
3B3
100
AcDbEntity
  8
0
100
AcDbLine
 62
7
  6
CONTINUOUS
 10
16.4860924815
 20
10.7515449721
 11
16.7135970414
 21
10.7515449721
  0
LINE
  5
3B4
100
AcDbEntity
  8
0
100
AcDbLine
 62
7
  6
CONTINUOUS
 10
16.8210102884
 20
10.7515449721
 11
16.8811484633
 21
10.7515449721
  0
LINE
  5
3B5
100
AcDbEntity
  8
0
100
AcDbLine
 62
7
  6
CONTINUOUS
 10
14.5688748318
 20
10.7865049364
 11
14.5873041743
 21
10.7802845214
  0
LINE
  5
3B6
100
AcDbEntity
  8
0
100
AcDbLine
 62
7
  6
CONTINUOUS
 10
15.0294053288
 20
10.7865049364
 11
15.0478346713
 21
10.7802845214
  0
LWPOLYLINE
  5
3B7
100
AcDbEntity
  8
0
100
AcDbPolyline
 62
7
  6
CONTINUOUS
 90
3
 70
0
 10
14.5873041743
 20
10.7802845214
 10
14.6175849746
 20
10.7664462268
 10
14.6391635376
 20
10.7530731488
  0
LINE
  5
3B8
100
AcDbEntity
  8
0
100
AcDbLine
 62
7
  6
CONTINUOUS
 10
14.1974579588
 20
10.8008011293
 11
14.0153952283
 21
11.1801574536
  0
LWPOLYLINE
  5
3B9
100
AcDbEntity
  8
0
100
AcDbPolyline
 62
7
  6
CONTINUOUS
 90
4
 70
0
 10
14.1974579588
 20
10.8008011293
 10
14.1976840885
 20
10.8002514198
 10
14.1978198646
 20
10.7995376519
 10
14.1978014468
 20
10.7994694848
  0
LINE
  5
3BA
100
AcDbEntity
  8
0
100
AcDbLine
 62
7
  6
CONTINUOUS
 10
15.4899358258
 20
10.7865049364
 11
15.5083651683
 21
10.7802845214
  0
LWPOLYLINE
  5
3BB
100
AcDbEntity
  8
0
100
AcDbPolyline
 62
7
  6
CONTINUOUS
 90
3
 70
0
 10
15.0478346713
 20
10.7802845214
 10
15.0781154716
 20
10.7664462268
 10
15.0996940346
 20
10.7530731488
  0
LWPOLYLINE
  5
3BC
100
AcDbEntity
  8
0
100
AcDbPolyline
 62
7
  6
CONTINUOUS
 90
3
 70
0
 10
15.5083651683
 20
10.7802845214
 10
15.5386459686
 20
10.7664462268
 10
15.5602245316
 20
10.7530731488
  0
LWPOLYLINE
  5
3BD
100
AcDbEntity
  8
0
100
AcDbPolyline
 62
7
  6
CONTINUOUS
 90
7
 70
0
 10
13.5524028207
 20
11.2353158586
 10
13.5509518583
 20
11.2297339154
 10
13.5493242641
 20
11.2182922122
 10
13.5491484518
 20
11.2062991402
 10
13.5504227284
 20
11.1947148351
 10
13.5531069361
 20
11.1843980624
 10
13.5548814219
 20
11.1801230662
  0
LINE
  5
3BE
100
AcDbEntity
  8
0
100
AcDbLine
 62
7
  6
CONTINUOUS
 10
14.2733360625
 20
13.855603803
 11
13.7385494737
 21
12.1250337672
  0
LINE
  5
3BF
100
AcDbEntity
  8
0
100
AcDbLine
 62
7
  6
CONTINUOUS
 10
14.2758781263
 20
13.8504236217
 11
13.7988700738
 21
12.3068249983
  0
LINE
  5
3C0
100
AcDbEntity
  8
0
100
AcDbLine
 62
7
  6
CONTINUOUS
 10
13.5523982097
 20
11.2353010856
 11
14.489353854
 21
14.267290662
  0
LINE
  5
3C1
100
AcDbEntity
  8
0
100
AcDbLine
 62
7
  6
CONTINUOUS
 10
15.9504663228
 20
10.7865049364
 11
15.9688956653
 21
10.7802845214
  0
LWPOLYLINE
  5
3C2
100
AcDbEntity
  8
0
100
AcDbPolyline
 62
7
  6
CONTINUOUS
 90
3
 70
0
 10
15.9688956653
 20
10.7802845214
 10
15.9991764656
 20
10.7664462268
 10
16.0207550286
 20
10.7530731488
  0
LINE
  5
3C3
100
AcDbEntity
  8
0
100
AcDbLine
 62
7
  6
CONTINUOUS
 10
14.6579884558
 20
10.8008011293
 11
14.4759257253
 21
11.1801574536
  0
LWPOLYLINE
  5
3C4
100
AcDbEntity
  8
0
100
AcDbPolyline
 62
7
  6
CONTINUOUS
 90
4
 70
0
 10
14.6579884558
 20
10.8008011293
 10
14.6582145855
 20
10.8002514198
 10
14.6583503616
 20
10.7995376519
 10
14.6583319438
 20
10.7994694848
  0
LINE
  5
3C5
100
AcDbEntity
  8
0
100
AcDbLine
 62
7
  6
CONTINUOUS
 10
13.6761377022
 20
10.9274661331
 11
13.6403917101
 21
10.7940668537
  0
LINE
  5
3C6
100
AcDbEntity
  8
0
100
AcDbLine
 62
7
  6
CONTINUOUS
 10
13.6653968247
 20
10.7574179107
 11
13.6716934381
 21
10.7777937592
  0
LINE
  5
3C7
100
AcDbEntity
  8
0
100
AcDbLine
 62
7
  6
CONTINUOUS
 10
16.4109968198
 20
10.7865049364
 11
16.4294261623
 21
10.7802845214
  0
LWPOLYLINE
  5
3C8
100
AcDbEntity
  8
0
100
AcDbPolyline
 62
7
  6
CONTINUOUS
 90
3
 70
0
 10
16.4294261623
 20
10.7802845214
 10
16.4597069626
 20
10.7664462268
 10
16.4812855256
 20
10.7530731488
  0
LWPOLYLINE
  5
3C9
100
AcDbEntity
  8
0
100
AcDbPolyline
 62
7
  6
CONTINUOUS
 90
7
 70
0
 10
14.0129333177
 20
11.2353158586
 10
14.0114823553
 20
11.2297339154
 10
14.0098547611
 20
11.2182922122
 10
14.0096789488
 20
11.2062991402
 10
14.0109532254
 20
11.1947148351
 10
14.0136374331
 20
11.1843980624
 10
14.0154119189
 20
11.1801230662
  0
LINE
  5
3CA
100
AcDbEntity
  8
0
100
AcDbLine
 62
7
  6
CONTINUOUS
 10
14.7338665595
 20
13.855603803
 11
14.1990799707
 21
12.1250337672
  0
LINE
  5
3CB
100
AcDbEntity
  8
0
100
AcDbLine
 62
7
  6
CONTINUOUS
 10
14.7364086233
 20
13.8504236217
 11
14.2594005708
 21
12.3068249983
  0
LINE
  5
3CC
100
AcDbEntity
  8
0
100
AcDbLine
 62
7
  6
CONTINUOUS
 10
14.0129287067
 20
11.2353010856
 11
14.949884351
 21
14.267290662
  0
LINE
  5
3CD
100
AcDbEntity
  8
0
100
AcDbLine
 62
7
  6
CONTINUOUS
 10
15.1185189528
 20
10.8008011293
 11
14.9364562223
 21
11.1801574536
  0
LWPOLYLINE
  5
3CE
100
AcDbEntity
  8
0
100
AcDbPolyline
 62
7
  6
CONTINUOUS
 90
4
 70
0
 10
15.1185189528
 20
10.8008011293
 10
15.1187450825
 20
10.8002514198
 10
15.1188808586
 20
10.7995376519
 10
15.1188624408
 20
10.7994694848
  0
LINE
  5
3CF
100
AcDbEntity
  8
0
100
AcDbLine
 62
7
  6
CONTINUOUS
 10
14.1366681992
 20
10.9274661331
 11
14.1009222071
 21
10.7940668537
  0
LINE
  5
3D0
100
AcDbEntity
  8
0
100
AcDbLine
 62
7
  6
CONTINUOUS
 10
14.1259273217
 20
10.7574179107
 11
14.1322239351
 21
10.7777937592
  0
LINE
  5
3D1
100
AcDbEntity
  8
0
100
AcDbLine
 62
7
  6
CONTINUOUS
 10
17.2791331101
 20
12.0187404919
 11
17.2808010448
 21
12.0190077971
  0
LWPOLYLINE
  5
3D2
100
AcDbEntity
  8
0
100
AcDbPolyline
 62
7
  6
CONTINUOUS
 90
7
 70
0
 10
14.4734638147
 20
11.2353158586
 10
14.4720128523
 20
11.2297339154
 10
14.4703852581
 20
11.2182922122
 10
14.4702094458
 20
11.2062991402
 10
14.4714837224
 20
11.1947148351
 10
14.4741679301
 20
11.1843980624
 10
14.4759424159
 20
11.1801230662
  0
LINE
  5
3D3
100
AcDbEntity
  8
0
100
AcDbLine
 62
7
  6
CONTINUOUS
 10
15.1943970565
 20
13.855603803
 11
14.6596104677
 21
12.1250337672
  0
LINE
  5
3D4
100
AcDbEntity
  8
0
100
AcDbLine
 62
7
  6
CONTINUOUS
 10
15.1969391203
 20
13.8504236217
 11
14.7199310678
 21
12.3068249983
  0
LINE
  5
3D5
100
AcDbEntity
  8
0
100
AcDbLine
 62
7
  6
CONTINUOUS
 10
14.4734592037
 20
11.2353010856
 11
15.410414848
 21
14.267290662
  0
LINE
  5
3D6
100
AcDbEntity
  8
0
100
AcDbLine
 62
7
  6
CONTINUOUS
 10
17.299625321
 20
11.8392737546
 11
17.2441359782
 21
11.8392737546
  0
LINE
  5
3D7
100
AcDbEntity
  8
0
100
AcDbLine
 62
7
  6
CONTINUOUS
 10
15.5790494498
 20
10.8008011293
 11
15.3969867193
 21
11.1801574536
  0
LINE
  5
3D8
100
AcDbEntity
  8
0
100
AcDbLine
 62
7
  6
CONTINUOUS
 10
14.5971986962
 20
10.9274661331
 11
14.5614527041
 21
10.7940668537
  0
LINE
  5
3D9
100
AcDbEntity
  8
0
100
AcDbLine
 62
7
  6
CONTINUOUS
 10
14.2528565566
 20
13.8659186663
 11
14.0545088437
 21
14.2648528695
  0
LINE
  5
3DA
100
AcDbEntity
  8
0
100
AcDbLine
 62
7
  6
CONTINUOUS
 10
14.2758781263
 20
13.8504236217
 11
14.2733360625
 21
13.855603803
  0
LWPOLYLINE
  5
3DB
100
AcDbEntity
  8
0
100
AcDbPolyline
 62
7
  6
CONTINUOUS
 90
4
 70
0
 10
15.5790494498
 20
10.8008011293
 10
15.5792755795
 20
10.8002514198
 10
15.5794113556
 20
10.7995376519
 10
15.5793929378
 20
10.7994694848
  0
LWPOLYLINE
  5
3DC
100
AcDbEntity
  8
0
100
AcDbPolyline
 62
7
  6
CONTINUOUS
 90
7
 70
0
 10
14.9339943117
 20
11.2353158586
 10
14.9325433493
 20
11.2297339154
 10
14.9309157551
 20
11.2182922122
 10
14.9307399428
 20
11.2062991402
 10
14.9320142194
 20
11.1947148351
 10
14.9346984271
 20
11.1843980624
 10
14.9364729129
 20
11.1801230662
  0
LINE
  5
3DD
100
AcDbEntity
  8
0
100
AcDbLine
 62
7
  6
CONTINUOUS
 10
14.5864578187
 20
10.7574179107
 11
14.5927544321
 21
10.7777937592
  0
LINE
  5
3DE
100
AcDbEntity
  8
0
100
AcDbLine
 62
7
  6
CONTINUOUS
 10
15.6549275535
 20
13.855603803
 11
15.1201409647
 21
12.1250337672
  0
LINE
  5
3DF
100
AcDbEntity
  8
0
100
AcDbLine
 62
7
  6
CONTINUOUS
 10
15.6574696173
 20
13.8504236217
 11
15.1804615648
 21
12.3068249983
  0
LINE
  5
3E0
100
AcDbEntity
  8
0
100
AcDbLine
 62
7
  6
CONTINUOUS
 10
17.1107683803
 20
12.1497645679
 11
17.1894574494
 21
12.1497645679
  0
LINE
  5
3E1
100
AcDbEntity
  8
0
100
AcDbLine
 62
7
  6
CONTINUOUS
 10
17.4521271047
 20
12.3327697077
 11
17.3312677129
 21
12.3327697077
  0
LINE
  5
3E2
100
AcDbEntity
  8
0
100
AcDbLine
 62
7
  6
CONTINUOUS
 10
16.0395799468
 20
10.8008011293
 11
15.8575172163
 21
11.1801574536
  0
LINE
  5
3E3
100
AcDbEntity
  8
0
100
AcDbLine
 62
7
  6
CONTINUOUS
 10
15.0577291932
 20
10.9274661331
 11
15.0219832011
 21
10.7940668537
  0
LINE
  5
3E4
100
AcDbEntity
  8
0
100
AcDbLine
 62
7
  6
CONTINUOUS
 10
14.9339897007
 20
11.2353010856
 11
15.870945345
 21
14.267290662
  0
LINE
  5
3E5
100
AcDbEntity
  8
0
100
AcDbLine
 62
7
  6
CONTINUOUS
 10
14.7133870536
 20
13.8659186663
 11
14.5150393407
 21
14.2648528695
  0
LINE
  5
3E6
100
AcDbEntity
  8
0
100
AcDbLine
 62
7
  6
CONTINUOUS
 10
14.7364086233
 20
13.8504236217
 11
14.7338665595
 21
13.855603803
  0
LWPOLYLINE
  5
3E7
100
AcDbEntity
  8
0
100
AcDbPolyline
 62
7
  6
CONTINUOUS
 90
4
 70
0
 10
16.0395799468
 20
10.8008011293
 10
16.0398060765
 20
10.8002514198
 10
16.0399418526
 20
10.7995376519
 10
16.0399234348
 20
10.7994694848
  0
LINE
  5
3E8
100
AcDbEntity
  8
0
100
AcDbLine
 62
7
  6
CONTINUOUS
 10
15.0469883157
 20
10.7574179107
 11
15.0532849291
 21
10.7777937592
  0
LINE
  5
3E9
100
AcDbEntity
  8
0
100
AcDbLine
 62
7
  6
CONTINUOUS
 10
16.1154580506
 20
13.855603803
 11
15.5806714617
 21
12.1250337672
  0
LINE
  5
3EA
100
AcDbEntity
  8
0
100
AcDbLine
 62
7
  6
CONTINUOUS
 10
16.1180001143
 20
13.8504236217
 11
15.6409920618
 21
12.3068249983
  0
LINE
  5
3EB
100
AcDbEntity
  8
0
100
AcDbLine
 62
7
  6
CONTINUOUS
 10
16.5001104438
 20
10.8008011293
 11
16.3180477133
 21
11.1801574536
  0
LWPOLYLINE
  5
3EC
100
AcDbEntity
  8
0
100
AcDbPolyline
 62
7
  6
CONTINUOUS
 90
7
 70
0
 10
15.3945248087
 20
11.2353158586
 10
15.3930738463
 20
11.2297339154
 10
15.3914462521
 20
11.2182922122
 10
15.3912704398
 20
11.2062991402
 10
15.3925447164
 20
11.1947148351
 10
15.3952289242
 20
11.1843980624
 10
15.3970034099
 20
11.1801230662
  0
LINE
  5
3ED
100
AcDbEntity
  8
0
100
AcDbLine
 62
7
  6
CONTINUOUS
 10
15.3945201977
 20
11.2353010856
 11
16.331475842
 21
14.267290662
  0
LINE
  5
3EE
100
AcDbEntity
  8
0
100
AcDbLine
 62
7
  6
CONTINUOUS
 10
15.1739175506
 20
13.8659186663
 11
14.9755698377
 21
14.2648528695
  0
LINE
  5
3EF
100
AcDbEntity
  8
0
100
AcDbLine
 62
7
  6
CONTINUOUS
 10
15.1969391203
 20
13.8504236217
 11
15.1943970565
 21
13.855603803
  0
LWPOLYLINE
  5
3F0
100
AcDbEntity
  8
0
100
AcDbPolyline
 62
7
  6
CONTINUOUS
 90
4
 70
0
 10
16.5001104438
 20
10.8008011293
 10
16.5003365735
 20
10.8002514198
 10
16.5004723496
 20
10.7995376519
 10
16.5004539318
 20
10.7994694848
  0
LINE
  5
3F1
100
AcDbEntity
  8
0
100
AcDbLine
 62
7
  6
CONTINUOUS
 10
15.5182596902
 20
10.9274661331
 11
15.4825136981
 21
10.7940668537
  0
LINE
  5
3F2
100
AcDbEntity
  8
0
100
AcDbLine
 62
7
  6
CONTINUOUS
 10
15.5075188127
 20
10.7574179107
 11
15.5138154261
 21
10.7777937592
  0
LWPOLYLINE
  5
3F3
100
AcDbEntity
  8
0
100
AcDbPolyline
 62
7
  6
CONTINUOUS
 90
7
 70
0
 10
15.8550553057
 20
11.2353158586
 10
15.8536043433
 20
11.2297339154
 10
15.8519767491
 20
11.2182922122
 10
15.8518009368
 20
11.2062991402
 10
15.8530752134
 20
11.1947148351
 10
15.8557594212
 20
11.1843980624
 10
15.8575339069
 20
11.1801230662
  0
LINE
  5
3F4
100
AcDbEntity
  8
0
100
AcDbLine
 62
7
  6
CONTINUOUS
 10
16.5759885476
 20
13.855603803
 11
16.0412019587
 21
12.1250337672
  0
LINE
  5
3F5
100
AcDbEntity
  8
0
100
AcDbLine
 62
7
  6
CONTINUOUS
 10
16.5785306113
 20
13.8504236217
 11
16.1015225588
 21
12.3068249983
  0
LINE
  5
3F6
100
AcDbEntity
  8
0
100
AcDbLine
 62
7
  6
CONTINUOUS
 10
15.8550506947
 20
11.2353010856
 11
16.792006339
 21
14.267290662
  0
LINE
  5
3F7
100
AcDbEntity
  8
0
100
AcDbLine
 62
7
  6
CONTINUOUS
 10
15.6344480477
 20
13.8659186663
 11
15.4361003347
 21
14.2648528695
  0
LINE
  5
3F8
100
AcDbEntity
  8
0
100
AcDbLine
 62
7
  6
CONTINUOUS
 10
15.6574696173
 20
13.8504236217
 11
15.6549275535
 21
13.855603803
  0
LINE
  5
3F9
100
AcDbEntity
  8
0
100
AcDbLine
 62
7
  6
CONTINUOUS
 10
15.9787901872
 20
10.9274661331
 11
15.9430441951
 21
10.7940668537
  0
LINE
  5
3FA
100
AcDbEntity
  8
0
100
AcDbLine
 62
7
  6
CONTINUOUS
 10
15.9680493097
 20
10.7574179107
 11
15.9743459231
 21
10.7777937592
  0
LWPOLYLINE
  5
3FB
100
AcDbEntity
  8
0
100
AcDbPolyline
 62
7
  6
CONTINUOUS
 90
7
 70
0
 10
16.3155858027
 20
11.2353158586
 10
16.3141348403
 20
11.2297339154
 10
16.3125072461
 20
11.2182922122
 10
16.3123314338
 20
11.2062991402
 10
16.3136057104
 20
11.1947148351
 10
16.3162899182
 20
11.1843980624
 10
16.3180644039
 20
11.1801230662
  0
LINE
  5
3FC
100
AcDbEntity
  8
0
100
AcDbLine
 62
7
  6
CONTINUOUS
 10
17.0365190446
 20
13.855603803
 11
16.5017324557
 21
12.1250337672
  0
LINE
  5
3FD
100
AcDbEntity
  8
0
100
AcDbLine
 62
7
  6
CONTINUOUS
 10
17.0390611083
 20
13.8504236217
 11
16.5620530558
 21
12.3068249983
  0
LINE
  5
3FE
100
AcDbEntity
  8
0
100
AcDbLine
 62
7
  6
CONTINUOUS
 10
16.3155811917
 20
11.2353010856
 11
17.252536836
 21
14.267290662
  0
LINE
  5
3FF
100
AcDbEntity
  8
0
100
AcDbLine
 62
7
  6
CONTINUOUS
 10
16.0949785447
 20
13.8659186663
 11
15.8966308317
 21
14.2648528695
  0
LINE
  5
400
100
AcDbEntity
  8
0
100
AcDbLine
 62
7
  6
CONTINUOUS
 10
16.1180001143
 20
13.8504236217
 11
16.1154580506
 21
13.855603803
  0
LINE
  5
401
100
AcDbEntity
  8
0
100
AcDbLine
 62
7
  6
CONTINUOUS
 10
16.4393206842
 20
10.9274661331
 11
16.4035746921
 21
10.7940668537
  0
LINE
  5
402
100
AcDbEntity
  8
0
100
AcDbLine
 62
7
  6
CONTINUOUS
 10
17.7357204526
 20
13.917472294
 11
17.4509378786
 21
13.917472294
  0
LINE
  5
403
100
AcDbEntity
  8
0
100
AcDbLine
 62
7
  6
CONTINUOUS
 10
17.1444347842
 20
13.917472294
 11
16.9904073816
 21
13.917472294
  0
LINE
  5
404
100
AcDbEntity
  8
0
100
AcDbLine
 62
7
  6
CONTINUOUS
 10
16.6839042872
 20
13.917472294
 11
16.5298768846
 21
13.917472294
  0
LINE
  5
405
100
AcDbEntity
  8
0
100
AcDbLine
 62
7
  6
CONTINUOUS
 10
16.2233737902
 20
13.917472294
 11
16.0693463876
 21
13.917472294
  0
LINE
  5
406
100
AcDbEntity
  8
0
100
AcDbLine
 62
7
  6
CONTINUOUS
 10
15.7628432932
 20
13.917472294
 11
15.6088158906
 21
13.917472294
  0
LINE
  5
407
100
AcDbEntity
  8
0
100
AcDbLine
 62
7
  6
CONTINUOUS
 10
15.3023127962
 20
13.917472294
 11
15.1482853936
 21
13.917472294
  0
LINE
  5
408
100
AcDbEntity
  8
0
100
AcDbLine
 62
7
  6
CONTINUOUS
 10
14.8417822992
 20
13.917472294
 11
14.6877548966
 21
13.917472294
  0
LINE
  5
409
100
AcDbEntity
  8
0
100
AcDbLine
 62
7
  6
CONTINUOUS
 10
14.3812518022
 20
13.917472294
 11
14.2272243996
 21
13.917472294
  0
LINE
  5
40A
100
AcDbEntity
  8
0
100
AcDbLine
 62
7
  6
CONTINUOUS
 10
17.4730813467
 20
12.6024117232
 11
17.4730784111
 21
12.6024137582
  0
LWPOLYLINE
  5
40B
100
AcDbEntity
  8
0
100
AcDbPolyline
 62
7
  6
CONTINUOUS
 90
3
 70
0
 10
17.4730810955
 20
12.6024118965
 10
17.4716033446
 20
12.6035251086
 10
17.4689141302
 20
12.6060442472
  0
LINE
  5
40C
100
AcDbEntity
  8
0
100
AcDbLine
 62
7
  6
CONTINUOUS
 10
16.4285798067
 20
10.7574179107
 11
16.4348764201
 21
10.7777937592
  0
LINE
  5
40D
100
AcDbEntity
  8
0
100
AcDbLine
 62
7
  6
CONTINUOUS
 10
17.4970495416
 20
13.855603803
 11
16.9622629527
 21
12.1250337672
  0
LINE
  5
40E
100
AcDbEntity
  8
0
100
AcDbLine
 62
7
  6
CONTINUOUS
 10
17.4995916053
 20
13.8504236217
 11
17.0225835528
 21
12.3068249983
  0
LINE
  5
40F
100
AcDbEntity
  8
0
100
AcDbLine
 62
7
  6
CONTINUOUS
 10
17.4817068543
 20
12.3561344907
 11
17.4576472064
 21
12.3348602114
  0
LWPOLYLINE
  5
410
100
AcDbEntity
  8
0
100
AcDbPolyline
 62
7
  6
CONTINUOUS
 90
6
 70
0
 10
17.4689141302
 20
12.6060442472
 10
17.4666200472
 20
12.6088313318
 10
17.4648364749
 20
12.6117392333
 10
17.4637816218
 20
12.6144299194
 10
17.4635608463
 20
12.616180972
 10
17.4635779766
 20
12.61634235
  0
LINE
  5
411
100
AcDbEntity
  8
0
100
AcDbLine
 62
7
  6
CONTINUOUS
 10
16.5555090417
 20
13.8659186663
 11
16.3571613287
 21
14.2648528695
  0
LINE
  5
412
100
AcDbEntity
  8
0
100
AcDbLine
 62
7
  6
CONTINUOUS
 10
17.3665494423
 20
12.0591130449
 11
17.3772259076
 21
12.037356696
  0
LINE
  5
413
100
AcDbEntity
  8
0
100
AcDbLine
 62
7
  6
CONTINUOUS
 10
16.5785306113
 20
13.8504236217
 11
16.5759885476
 21
13.855603803
  0
LINE
  5
414
100
AcDbEntity
  8
0
100
AcDbLine
 62
7
  6
CONTINUOUS
 10
17.2370463123
 20
12.5500667724
 11
17.2385791297
 21
12.5469432191
  0
LINE
  5
415
100
AcDbEntity
  8
0
100
AcDbLine
 62
7
  6
CONTINUOUS
 10
17.1082263647
 20
12.1466113177
 11
17.2365215161
 21
12.5617745798
  0
LINE
  5
416
100
AcDbEntity
  8
0
100
AcDbLine
 62
7
  6
CONTINUOUS
 10
17.2340122867
 20
12.5456110814
 11
17.1137860128
 21
12.1565587163
  0
LINE
  5
417
100
AcDbEntity
  8
0
100
AcDbLine
 62
7
  6
CONTINUOUS
 10
17.1731282459
 20
12.1497645679
 11
17.2792702666
 21
12.4932402727
  0
LINE
  5
418
100
AcDbEntity
  8
0
100
AcDbLine
 62
7
  6
CONTINUOUS
 10
17.2201653286
 20
12.1475002637
 11
17.3322406535
 21
12.5101761479
  0
LINE
  5
419
100
AcDbEntity
  8
0
100
AcDbLine
 62
7
  6
CONTINUOUS
 10
17.3292050706
 20
11.8626385377
 11
17.3051454226
 21
11.8413642583
  0
LINE
  5
41A
100
AcDbEntity
  8
0
100
AcDbLine
 62
7
  6
CONTINUOUS
 10
14.0342431819
 20
14.2700103503
 11
14.0443024845
 21
14.2700103503
  0
LINE
  5
41B
100
AcDbEntity
  8
0
100
AcDbLine
 62
7
  6
CONTINUOUS
 10
14.4947736789
 20
14.2700103503
 11
14.5048329815
 21
14.2700103503
  0
LINE
  5
41C
100
AcDbEntity
  8
0
100
AcDbLine
 62
7
  6
CONTINUOUS
 10
14.9553041759
 20
14.2700103503
 11
14.9653634785
 21
14.2700103503
  0
LINE
  5
41D
100
AcDbEntity
  8
0
100
AcDbLine
 62
7
  6
CONTINUOUS
 10
15.4158346729
 20
14.2700103503
 11
15.4258939755
 21
14.2700103503
  0
LINE
  5
41E
100
AcDbEntity
  8
0
100
AcDbLine
 62
7
  6
CONTINUOUS
 10
15.8763651699
 20
14.2700103503
 11
15.8864244725
 21
14.2700103503
  0
LINE
  5
41F
100
AcDbEntity
  8
0
100
AcDbLine
 62
7
  6
CONTINUOUS
 10
16.3368956669
 20
14.2700103503
 11
16.3469549695
 21
14.2700103503
  0
LINE
  5
420
100
AcDbEntity
  8
0
100
AcDbLine
 62
7
  6
CONTINUOUS
 10
16.7974261639
 20
14.2700103503
 11
16.8074854665
 21
14.2700103503
  0
LINE
  5
421
100
AcDbEntity
  8
0
100
AcDbLine
 62
7
  6
CONTINUOUS
 10
17.2579566609
 20
14.2700103503
 11
17.2680159635
 21
14.2700103503
  0
LINE
  5
422
100
AcDbEntity
  8
0
100
AcDbLine
 62
7
  6
CONTINUOUS
 10
17.3322406535
 20
12.5101761479
 11
17.3652829447
 21
12.4428430378
  0
LINE
  5
423
100
AcDbEntity
  8
0
100
AcDbLine
 62
7
  6
CONTINUOUS
 10
17.4635779766
 20
12.61634235
 11
17.4636113868
 21
12.6165042986
  0
LINE
  5
424
100
AcDbEntity
  8
0
100
AcDbLine
 62
7
  6
CONTINUOUS
 10
17.3652829447
 20
12.4428430378
 11
17.2699508236
 21
12.1343481811
  0
LINE
  5
425
100
AcDbEntity
  8
0
100
AcDbLine
 62
7
  6
CONTINUOUS
 10
16.8891103037
 20
10.7574179107
 11
17.2788370456
 21
12.0185741095
  0
LINE
  5
426
100
AcDbEntity
  8
0
100
AcDbLine
 62
7
  6
CONTINUOUS
 10
17.4636143779
 20
12.6165137762
 11
17.8533411586
 21
13.8776701007
  0
LINE
  5
427
100
AcDbEntity
  8
0
100
AcDbLine
 62
7
  6
CONTINUOUS
 10
17.536164142
 20
12.473544854
 11
17.5119575096
 21
12.395212163
  0
LINE
  5
428
100
AcDbEntity
  8
0
100
AcDbLine
 62
7
  6
CONTINUOUS
 10
17.3836623582
 20
11.9800489009
 11
17.3594557259
 21
11.90171621
  0
LINE
  5
429
100
AcDbEntity
  8
0
100
AcDbLine
 62
7
  6
CONTINUOUS
 10
17.2131984294
 20
11.8061674698
 11
17.2337644825
 21
11.8340728919
  0
LINE
  5
42A
100
AcDbEntity
  8
0
100
AcDbLine
 62
7
  6
CONTINUOUS
 10
17.0160395387
 20
13.8659186663
 11
16.8176918257
 21
14.2648528695
  0
LINE
  5
42B
100
AcDbEntity
  8
0
100
AcDbLine
 62
7
  6
CONTINUOUS
 10
17.519051226
 20
12.552608998
 11
17.5297276914
 21
12.5308526491
  0
LINE
  5
42C
100
AcDbEntity
  8
0
100
AcDbLine
 62
7
  6
CONTINUOUS
 10
17.0390611083
 20
13.8504236217
 11
17.0365190446
 21
13.855603803
  0
LINE
  5
42D
100
AcDbEntity
  8
0
100
AcDbLine
 62
7
  6
CONTINUOUS
 10
17.4765700357
 20
13.8659186663
 11
17.2782223227
 21
14.2648528695
  0
LINE
  5
42E
100
AcDbEntity
  8
0
100
AcDbLine
 62
7
  6
CONTINUOUS
 10
17.4995916053
 20
13.8504236217
 11
17.4970495416
 21
13.855603803
  0
ARC
  5
42F
100
AcDbEntity
  8
0
100
AcDbCircle
 62
7
  6
CONTINUOUS
 10
4.1891152733
 20
5.0619699226
 40
0.3116521193
100
AcDbArc
 50
73.0758897996
 51
76.262243401
  0
ARC
  5
430
100
AcDbEntity
  8
0
100
AcDbCircle
 62
7
  6
CONTINUOUS
 10
4.689115273
 20
5.0619699227
 40
0.3116521193
100
AcDbArc
 50
73.0758897452
 51
76.2622433467
  0
ARC
  5
431
100
AcDbEntity
  8
0
100
AcDbCircle
 62
7
  6
CONTINUOUS
 10
4.1903388252
 20
5.0675660807
 40
0.3059259156
100
AcDbArc
 50
76.2359452447
 51
78.0174881241
  0
ARC
  5
432
100
AcDbEntity
  8
0
100
AcDbCircle
 62
7
  6
CONTINUOUS
 10
4.6903388252
 20
5.0675660807
 40
0.3059259156
100
AcDbArc
 50
76.2359452447
 51
78.0174881241
  0
ARC
  5
433
100
AcDbEntity
  8
0
100
AcDbCircle
 62
7
  6
CONTINUOUS
 10
4.1667653941
 20
4.9884532301
 40
0.05
100
AcDbArc
 50
41.8103148958
 51
90.0
  0
ARC
  5
434
100
AcDbEntity
  8
0
100
AcDbCircle
 62
7
  6
CONTINUOUS
 10
4.2413009934
 20
5.0551198968
 40
0.05
100
AcDbArc
 50
221.8103148958
 51
270.0
  0
ARC
  5
435
100
AcDbEntity
  8
0
100
AcDbCircle
 62
7
  6
CONTINUOUS
 10
4.6667653941
 20
4.9884532301
 40
0.05
100
AcDbArc
 50
41.8103148958
 51
42.6795606504
  0
ARC
  5
436
100
AcDbEntity
  8
0
100
AcDbCircle
 62
7
  6
CONTINUOUS
 10
4.7413009934
 20
5.0551198968
 40
0.05
100
AcDbArc
 50
221.8103148958
 51
270.0
  0
ARC
  5
437
100
AcDbEntity
  8
0
100
AcDbCircle
 62
7
  6
CONTINUOUS
 10
4.3387006157
 20
5.0134532301
 40
0.0083333333
100
AcDbArc
 50
180.0
 51
270.0
  0
ARC
  5
438
100
AcDbEntity
  8
0
100
AcDbCircle
 62
7
  6
CONTINUOUS
 10
4.7301460261
 20
5.0353737503
 40
0.0083333333
100
AcDbArc
 50
127.1640093615
 51
132.4184873
  0
ARC
  5
439
100
AcDbEntity
  8
0
100
AcDbCircle
 62
7
  6
CONTINUOUS
 10
4.6814473704
 20
5.0134532301
 40
0.0083333333
100
AcDbArc
 50
270.0
 51
312.4184873
  0
ARC
  5
43A
100
AcDbEntity
  8
0
100
AcDbCircle
 62
7
  6
CONTINUOUS
 10
4.8387006157
 20
5.0134532301
 40
0.0083333333
100
AcDbArc
 50
180.0
 51
270.0
  0
ARC
  5
43B
100
AcDbEntity
  8
0
100
AcDbCircle
 62
7
  6
CONTINUOUS
 10
4.1436635708
 20
5.221778647
 40
0.1833333333
100
AcDbArc
 50
191.2630865095
 51
270.5324557568
  0
ARC
  5
43C
100
AcDbEntity
  8
0
100
AcDbCircle
 62
7
  6
CONTINUOUS
 10
4.1103672824
 20
5.2217865634
 40
0.1466666667
100
AcDbArc
 50
90.0
 51
180.0
  0
CIRCLE
  5
43D
100
AcDbEntity
  8
0
100
AcDbCircle
 62
7
  6
CONTINUOUS
 10
4.1303672824
 20
5.2417865634
 40
0.0566666667
  0
ARC
  5
43E
100
AcDbEntity
  8
0
100
AcDbCircle
 62
7
  6
CONTINUOUS
 10
3.972033949
 20
5.1875986391
 40
0.0083333333
100
AcDbArc
 50
180.0
 51
191.2630865095
  0
ARC
  5
43F
100
AcDbEntity
  8
0
100
AcDbCircle
 62
7
  6
CONTINUOUS
 10
4.3471065129
 20
5.3851198968
 40
0.0166666667
100
AcDbArc
 50
269.750543045
 51
359.75
  0
ARC
  5
440
100
AcDbEntity
  8
0
100
AcDbCircle
 62
7
  6
CONTINUOUS
 10
4.4136280518
 20
5.3851198968
 40
0.0166666667
100
AcDbArc
 50
180.25
 51
270.249456955
  0
ARC
  5
441
100
AcDbEntity
  8
0
100
AcDbCircle
 62
7
  6
CONTINUOUS
 10
4.322033949
 20
5.2967865634
 40
0.0083333333
100
AcDbArc
 50
0.0
 51
90.0
  0
ARC
  5
442
100
AcDbEntity
  8
0
100
AcDbCircle
 62
7
  6
CONTINUOUS
 10
4.3250549744
 20
5.3134453216
 40
0.0083254249
100
AcDbArc
 50
211.9511564896
 51
270.0005562073
  0
ARC
  5
443
100
AcDbEntity
  8
0
100
AcDbCircle
 62
7
  6
CONTINUOUS
 10
4.6153672824
 20
5.1867865634
 40
0.1816666667
100
AcDbArc
 50
307.1640093615
 51
360.0
  0
ARC
  5
444
100
AcDbEntity
  8
0
100
AcDbCircle
 62
7
  6
CONTINUOUS
 10
4.6303672824
 20
5.2717865634
 40
0.0633333333
100
AcDbArc
 50
35.5487440029
 51
144.4512559971
  0
ARC
  5
445
100
AcDbEntity
  8
0
100
AcDbCircle
 62
7
  6
CONTINUOUS
 10
4.6303672824
 20
5.2417865634
 40
0.0566666667
100
AcDbArc
 50
72.8938402673
 51
287.1046351766
  0
ARC
  5
446
100
AcDbEntity
  8
0
100
AcDbCircle
 62
7
  6
CONTINUOUS
 10
4.6303672824
 20
5.2417865634
 40
0.0525
100
AcDbArc
 50
76.225853002
 51
283.774146998
  0
ARC
  5
447
100
AcDbEntity
  8
0
100
AcDbCircle
 62
7
  6
CONTINUOUS
 10
4.6503672824
 20
5.2217865634
 40
0.1466666667
100
AcDbArc
 50
41.5023374652
 51
90.0
  0
ARC
  5
448
100
AcDbEntity
  8
0
100
AcDbCircle
 62
7
  6
CONTINUOUS
 10
4.6503672824
 20
5.2217865634
 40
0.1466666667
100
AcDbArc
 50
0.0
 51
34.8210071081
  0
ARC
  5
449
100
AcDbEntity
  8
0
100
AcDbCircle
 62
7
  6
CONTINUOUS
 10
4.8471065129
 20
5.3851198968
 40
0.0166666667
100
AcDbArc
 50
269.750543045
 51
359.75
  0
ARC
  5
44A
100
AcDbEntity
  8
0
100
AcDbCircle
 62
7
  6
CONTINUOUS
 10
4.9136280518
 20
5.3851198968
 40
0.0166666667
100
AcDbArc
 50
180.25
 51
270.249456955
  0
ARC
  5
44B
100
AcDbEntity
  8
0
100
AcDbCircle
 62
7
  6
CONTINUOUS
 10
4.7539690842
 20
5.3134532301
 40
0.0083333333
100
AcDbArc
 50
270.0
 51
41.5023374652
  0
ARC
  5
44C
100
AcDbEntity
  8
0
100
AcDbCircle
 62
7
  6
CONTINUOUS
 10
4.5720577634
 20
5.3134532301
 40
0.0083333333
100
AcDbArc
 50
270.0
 51
324.4512559971
  0
ARC
  5
44D
100
AcDbEntity
  8
0
100
AcDbCircle
 62
7
  6
CONTINUOUS
 10
4.6886768013
 20
5.3134532301
 40
0.0083333333
100
AcDbArc
 50
215.5487440029
 51
270.0
  0
ARC
  5
44E
100
AcDbEntity
  8
0
100
AcDbCircle
 62
7
  6
CONTINUOUS
 10
4.822033949
 20
5.2967865634
 40
0.0083333333
100
AcDbArc
 50
0.0
 51
90.0
  0
ARC
  5
44F
100
AcDbEntity
  8
0
100
AcDbCircle
 62
7
  6
CONTINUOUS
 10
4.8250549744
 20
5.3134453216
 40
0.0083254249
100
AcDbArc
 50
211.9511564896
 51
270.0005562073
  0
ARC
  5
450
100
AcDbEntity
  8
0
100
AcDbCircle
 62
7
  6
CONTINUOUS
 10
5.1891152733
 20
5.0619699226
 40
0.3116521193
100
AcDbArc
 50
73.0758897996
 51
76.262243401
  0
ARC
  5
451
100
AcDbEntity
  8
0
100
AcDbCircle
 62
7
  6
CONTINUOUS
 10
5.6891152733
 20
5.0619699226
 40
0.3116521193
100
AcDbArc
 50
73.0758897996
 51
76.2622434011
  0
ARC
  5
452
100
AcDbEntity
  8
0
100
AcDbCircle
 62
7
  6
CONTINUOUS
 10
5.1903388252
 20
5.0675660807
 40
0.3059259156
100
AcDbArc
 50
76.2359452447
 51
78.0174881241
  0
ARC
  5
453
100
AcDbEntity
  8
0
100
AcDbCircle
 62
7
  6
CONTINUOUS
 10
5.6903388252
 20
5.0675660807
 40
0.3059259156
100
AcDbArc
 50
76.2359452447
 51
78.0174881241
  0
ARC
  5
454
100
AcDbEntity
  8
0
100
AcDbCircle
 62
7
  6
CONTINUOUS
 10
5.1667653941
 20
4.9884532301
 40
0.05
100
AcDbArc
 50
41.8103148958
 51
42.6795606504
  0
ARC
  5
455
100
AcDbEntity
  8
0
100
AcDbCircle
 62
7
  6
CONTINUOUS
 10
5.2413009934
 20
5.0551198968
 40
0.05
100
AcDbArc
 50
221.8103148958
 51
270.0
  0
ARC
  5
456
100
AcDbEntity
  8
0
100
AcDbCircle
 62
7
  6
CONTINUOUS
 10
5.6667653941
 20
4.9884532301
 40
0.05
100
AcDbArc
 50
41.8103148958
 51
42.6795606504
  0
ARC
  5
457
100
AcDbEntity
  8
0
100
AcDbCircle
 62
7
  6
CONTINUOUS
 10
5.7413009934
 20
5.0551198968
 40
0.05
100
AcDbArc
 50
221.8103148958
 51
270.0
  0
ARC
  5
458
100
AcDbEntity
  8
0
100
AcDbCircle
 62
7
  6
CONTINUOUS
 10
5.2301460261
 20
5.0353737503
 40
0.0083333333
100
AcDbArc
 50
127.1640093615
 51
132.4184873
  0
ARC
  5
459
100
AcDbEntity
  8
0
100
AcDbCircle
 62
7
  6
CONTINUOUS
 10
5.1814473704
 20
5.0134532301
 40
0.0083333333
100
AcDbArc
 50
270.0
 51
312.4184873
  0
ARC
  5
45A
100
AcDbEntity
  8
0
100
AcDbCircle
 62
7
  6
CONTINUOUS
 10
5.3387006157
 20
5.0134532301
 40
0.0083333333
100
AcDbArc
 50
180.0
 51
270.0
  0
ARC
  5
45B
100
AcDbEntity
  8
0
100
AcDbCircle
 62
7
  6
CONTINUOUS
 10
5.7301460261
 20
5.0353737503
 40
0.0083333333
100
AcDbArc
 50
127.1640093615
 51
132.4184873
  0
ARC
  5
45C
100
AcDbEntity
  8
0
100
AcDbCircle
 62
7
  6
CONTINUOUS
 10
5.6814473704
 20
5.0134532301
 40
0.0083333333
100
AcDbArc
 50
270.0
 51
312.4184873
  0
ARC
  5
45D
100
AcDbEntity
  8
0
100
AcDbCircle
 62
7
  6
CONTINUOUS
 10
5.8387006157
 20
5.0134532301
 40
0.0083333333
100
AcDbArc
 50
180.0
 51
270.0
  0
ARC
  5
45E
100
AcDbEntity
  8
0
100
AcDbCircle
 62
7
  6
CONTINUOUS
 10
5.1153672824
 20
5.1867865634
 40
0.1816666667
100
AcDbArc
 50
307.1640093615
 51
360.0
  0
ARC
  5
45F
100
AcDbEntity
  8
0
100
AcDbCircle
 62
7
  6
CONTINUOUS
 10
5.1303672824
 20
5.2717865634
 40
0.0633333333
100
AcDbArc
 50
35.5487440029
 51
144.4512559971
  0
ARC
  5
460
100
AcDbEntity
  8
0
100
AcDbCircle
 62
7
  6
CONTINUOUS
 10
5.1303672824
 20
5.2417865634
 40
0.0566666667
100
AcDbArc
 50
72.8938402673
 51
287.1046351766
  0
ARC
  5
461
100
AcDbEntity
  8
0
100
AcDbCircle
 62
7
  6
CONTINUOUS
 10
5.1303672824
 20
5.2417865634
 40
0.0525
100
AcDbArc
 50
76.225853002
 51
283.774146998
  0
ARC
  5
462
100
AcDbEntity
  8
0
100
AcDbCircle
 62
7
  6
CONTINUOUS
 10
5.1503672824
 20
5.2217865634
 40
0.1466666667
100
AcDbArc
 50
41.5023374652
 51
90.0
  0
ARC
  5
463
100
AcDbEntity
  8
0
100
AcDbCircle
 62
7
  6
CONTINUOUS
 10
5.1503672824
 20
5.2217865634
 40
0.1466666667
100
AcDbArc
 50
0.0
 51
34.8210071081
  0
ARC
  5
464
100
AcDbEntity
  8
0
100
AcDbCircle
 62
7
  6
CONTINUOUS
 10
5.3471065129
 20
5.3851198968
 40
0.0166666667
100
AcDbArc
 50
269.750543045
 51
359.75
  0
ARC
  5
465
100
AcDbEntity
  8
0
100
AcDbCircle
 62
7
  6
CONTINUOUS
 10
5.4136280518
 20
5.3851198968
 40
0.0166666667
100
AcDbArc
 50
180.25
 51
270.249456955
  0
ARC
  5
466
100
AcDbEntity
  8
0
100
AcDbCircle
 62
7
  6
CONTINUOUS
 10
5.2539690842
 20
5.3134532301
 40
0.0083333333
100
AcDbArc
 50
270.0
 51
41.5023374652
  0
ARC
  5
467
100
AcDbEntity
  8
0
100
AcDbCircle
 62
7
  6
CONTINUOUS
 10
5.0720577634
 20
5.3134532301
 40
0.0083333333
100
AcDbArc
 50
270.0
 51
324.4512559971
  0
ARC
  5
468
100
AcDbEntity
  8
0
100
AcDbCircle
 62
7
  6
CONTINUOUS
 10
5.1886768013
 20
5.3134532301
 40
0.0083333333
100
AcDbArc
 50
215.5487440029
 51
270.0
  0
ARC
  5
469
100
AcDbEntity
  8
0
100
AcDbCircle
 62
7
  6
CONTINUOUS
 10
5.322033949
 20
5.2967865634
 40
0.0083333333
100
AcDbArc
 50
0.0
 51
90.0
  0
ARC
  5
46A
100
AcDbEntity
  8
0
100
AcDbCircle
 62
7
  6
CONTINUOUS
 10
5.3250549744
 20
5.3134453216
 40
0.0083254249
100
AcDbArc
 50
211.9511564896
 51
270.0005562073
  0
ARC
  5
46B
100
AcDbEntity
  8
0
100
AcDbCircle
 62
7
  6
CONTINUOUS
 10
5.6153672824
 20
5.1867865634
 40
0.1816666667
100
AcDbArc
 50
307.1640093615
 51
360.0
  0
ARC
  5
46C
100
AcDbEntity
  8
0
100
AcDbCircle
 62
7
  6
CONTINUOUS
 10
5.6303672824
 20
5.2717865634
 40
0.0633333333
100
AcDbArc
 50
35.5487440029
 51
144.4512559971
  0
ARC
  5
46D
100
AcDbEntity
  8
0
100
AcDbCircle
 62
7
  6
CONTINUOUS
 10
5.6303672824
 20
5.2417865634
 40
0.0566666667
100
AcDbArc
 50
72.8938402673
 51
287.1046351766
  0
ARC
  5
46E
100
AcDbEntity
  8
0
100
AcDbCircle
 62
7
  6
CONTINUOUS
 10
5.6303672824
 20
5.2417865634
 40
0.0525
100
AcDbArc
 50
76.225853002
 51
283.774146998
  0
ARC
  5
46F
100
AcDbEntity
  8
0
100
AcDbCircle
 62
7
  6
CONTINUOUS
 10
5.6503672824
 20
5.2217865634
 40
0.1466666667
100
AcDbArc
 50
41.5023374652
 51
90.0
  0
ARC
  5
470
100
AcDbEntity
  8
0
100
AcDbCircle
 62
7
  6
CONTINUOUS
 10
5.6503672824
 20
5.2217865634
 40
0.1466666667
100
AcDbArc
 50
0.0
 51
34.8210071081
  0
ARC
  5
471
100
AcDbEntity
  8
0
100
AcDbCircle
 62
7
  6
CONTINUOUS
 10
5.8471065129
 20
5.3851198968
 40
0.0166666667
100
AcDbArc
 50
269.750543045
 51
359.75
  0
ARC
  5
472
100
AcDbEntity
  8
0
100
AcDbCircle
 62
7
  6
CONTINUOUS
 10
5.9136280518
 20
5.3851198968
 40
0.0166666667
100
AcDbArc
 50
180.25
 51
270.249456955
  0
ARC
  5
473
100
AcDbEntity
  8
0
100
AcDbCircle
 62
7
  6
CONTINUOUS
 10
5.7539690842
 20
5.3134532301
 40
0.0083333333
100
AcDbArc
 50
270.0
 51
41.5023374652
  0
ARC
  5
474
100
AcDbEntity
  8
0
100
AcDbCircle
 62
7
  6
CONTINUOUS
 10
5.5720577634
 20
5.3134532301
 40
0.0083333333
100
AcDbArc
 50
270.0
 51
324.4512559971
  0
ARC
  5
475
100
AcDbEntity
  8
0
100
AcDbCircle
 62
7
  6
CONTINUOUS
 10
5.6886768013
 20
5.3134532301
 40
0.0083333333
100
AcDbArc
 50
215.5487440029
 51
270.0
  0
ARC
  5
476
100
AcDbEntity
  8
0
100
AcDbCircle
 62
7
  6
CONTINUOUS
 10
5.822033949
 20
5.2967865634
 40
0.0083333333
100
AcDbArc
 50
0.0
 51
90.0
  0
ARC
  5
477
100
AcDbEntity
  8
0
100
AcDbCircle
 62
7
  6
CONTINUOUS
 10
6.0720577634
 20
5.3134532301
 40
0.0083333333
100
AcDbArc
 50
270.0
 51
324.4512559971
  0
ARC
  5
478
100
AcDbEntity
  8
0
100
AcDbCircle
 62
7
  6
CONTINUOUS
 10
5.8250549744
 20
5.3134453216
 40
0.0083254249
100
AcDbArc
 50
211.9511564896
 51
270.0005562073
  0
ARC
  5
479
100
AcDbEntity
  8
0
100
AcDbCircle
 62
7
  6
CONTINUOUS
 10
5.8858279971
 20
6.0267865634
 40
0.0083333333
100
AcDbArc
 50
0.2499999985
 51
90.0
  0
ARC
  5
47A
100
AcDbEntity
  8
0
100
AcDbCircle
 62
7
  6
CONTINUOUS
 10
5.8749065677
 20
6.0267865634
 40
0.0083333333
100
AcDbArc
 50
90.0
 51
179.75
  0
ARC
  5
47B
100
AcDbEntity
  8
0
100
AcDbCircle
 62
7
  6
CONTINUOUS
 10
5.3858279971
 20
6.0267865634
 40
0.0083333333
100
AcDbArc
 50
0.2499999985
 51
90.0
  0
ARC
  5
47C
100
AcDbEntity
  8
0
100
AcDbCircle
 62
7
  6
CONTINUOUS
 10
5.3749065677
 20
6.0267865634
 40
0.0083333333
100
AcDbArc
 50
90.0
 51
179.75
  0
ARC
  5
47D
100
AcDbEntity
  8
0
100
AcDbCircle
 62
7
  6
CONTINUOUS
 10
4.8858279971
 20
6.0267865634
 40
0.0083333333
100
AcDbArc
 50
0.2499999985
 51
90.0
  0
ARC
  5
47E
100
AcDbEntity
  8
0
100
AcDbCircle
 62
7
  6
CONTINUOUS
 10
4.8749065677
 20
6.0267865634
 40
0.0083333333
100
AcDbArc
 50
90.0
 51
179.75
  0
ARC
  5
47F
100
AcDbEntity
  8
0
100
AcDbCircle
 62
7
  6
CONTINUOUS
 10
4.3858279971
 20
6.0267865634
 40
0.0083333333
100
AcDbArc
 50
0.2499999985
 51
90.0
  0
ARC
  5
480
100
AcDbEntity
  8
0
100
AcDbCircle
 62
7
  6
CONTINUOUS
 10
4.3749065677
 20
6.0267865634
 40
0.0083333333
100
AcDbArc
 50
90.0
 51
179.75
  0
ARC
  5
481
100
AcDbEntity
  8
0
100
AcDbCircle
 62
7
  6
CONTINUOUS
 10
6.1667653941
 20
4.9884532301
 40
0.05
100
AcDbArc
 50
41.8103148958
 51
42.6795606504
  0
ARC
  5
482
100
AcDbEntity
  8
0
100
AcDbCircle
 62
7
  6
CONTINUOUS
 10
6.6667653941
 20
4.9884532301
 40
0.05
100
AcDbArc
 50
41.8103148958
 51
42.6795606504
  0
ARC
  5
483
100
AcDbEntity
  8
0
100
AcDbCircle
 62
7
  6
CONTINUOUS
 10
6.1814473704
 20
5.0134532301
 40
0.0083333333
100
AcDbArc
 50
270.0
 51
312.4184873
  0
ARC
  5
484
100
AcDbEntity
  8
0
100
AcDbCircle
 62
7
  6
CONTINUOUS
 10
6.3387006157
 20
5.0134532301
 40
0.0083333333
100
AcDbArc
 50
180.0
 51
270.0
  0
ARC
  5
485
100
AcDbEntity
  8
0
100
AcDbCircle
 62
7
  6
CONTINUOUS
 10
6.1891152733
 20
5.0619699226
 40
0.3116521193
100
AcDbArc
 50
73.0758897996
 51
76.2622434011
  0
ARC
  5
486
100
AcDbEntity
  8
0
100
AcDbCircle
 62
7
  6
CONTINUOUS
 10
6.1903388252
 20
5.0675660807
 40
0.3059259156
100
AcDbArc
 50
76.2359452447
 51
78.0174881241
  0
ARC
  5
487
100
AcDbEntity
  8
0
100
AcDbCircle
 62
7
  6
CONTINUOUS
 10
6.2413009934
 20
5.0551198968
 40
0.05
100
AcDbArc
 50
221.8103148958
 51
270.0
  0
ARC
  5
488
100
AcDbEntity
  8
0
100
AcDbCircle
 62
7
  6
CONTINUOUS
 10
6.2301460261
 20
5.0353737503
 40
0.0083333333
100
AcDbArc
 50
127.1640093615
 51
132.4184873
  0
ARC
  5
489
100
AcDbEntity
  8
0
100
AcDbCircle
 62
7
  6
CONTINUOUS
 10
7.1667653941
 20
4.9884532301
 40
0.05
100
AcDbArc
 50
41.8103148958
 51
42.6795606504
  0
ARC
  5
48A
100
AcDbEntity
  8
0
100
AcDbCircle
 62
7
  6
CONTINUOUS
 10
6.6814473704
 20
5.0134532301
 40
0.0083333333
100
AcDbArc
 50
270.0
 51
312.4184873
  0
ARC
  5
48B
100
AcDbEntity
  8
0
100
AcDbCircle
 62
7
  6
CONTINUOUS
 10
6.8387006157
 20
5.0134532301
 40
0.0083333333
100
AcDbArc
 50
180.0
 51
270.0
  0
ARC
  5
48C
100
AcDbEntity
  8
0
100
AcDbCircle
 62
7
  6
CONTINUOUS
 10
7.1814473704
 20
5.0134532301
 40
0.0083333333
100
AcDbArc
 50
270.0
 51
312.4184873
  0
ARC
  5
48D
100
AcDbEntity
  8
0
100
AcDbCircle
 62
7
  6
CONTINUOUS
 10
6.6891152733
 20
5.0619699226
 40
0.3116521193
100
AcDbArc
 50
73.0758897996
 51
76.2622434011
  0
ARC
  5
48E
100
AcDbEntity
  8
0
100
AcDbCircle
 62
7
  6
CONTINUOUS
 10
6.6903388252
 20
5.0675660807
 40
0.3059259156
100
AcDbArc
 50
76.2359452447
 51
78.0174881241
  0
ARC
  5
48F
100
AcDbEntity
  8
0
100
AcDbCircle
 62
7
  6
CONTINUOUS
 10
6.7413009934
 20
5.0551198968
 40
0.05
100
AcDbArc
 50
221.8103148958
 51
270.0
  0
ARC
  5
490
100
AcDbEntity
  8
0
100
AcDbCircle
 62
7
  6
CONTINUOUS
 10
6.7301460261
 20
5.0353737503
 40
0.0083333333
100
AcDbArc
 50
127.1640093615
 51
132.4184873
  0
ARC
  5
491
100
AcDbEntity
  8
0
100
AcDbCircle
 62
7
  6
CONTINUOUS
 10
6.1153672824
 20
5.1867865634
 40
0.1816666667
100
AcDbArc
 50
307.1640093615
 51
360.0
  0
ARC
  5
492
100
AcDbEntity
  8
0
100
AcDbCircle
 62
7
  6
CONTINUOUS
 10
6.1503672824
 20
5.2217865634
 40
0.1466666667
100
AcDbArc
 50
41.5023374652
 51
90.0
  0
ARC
  5
493
100
AcDbEntity
  8
0
100
AcDbCircle
 62
7
  6
CONTINUOUS
 10
6.1503672824
 20
5.2217865634
 40
0.1466666667
100
AcDbArc
 50
0.0
 51
34.8210071081
  0
ARC
  5
494
100
AcDbEntity
  8
0
100
AcDbCircle
 62
7
  6
CONTINUOUS
 10
6.1303672824
 20
5.2717865634
 40
0.0633333333
100
AcDbArc
 50
35.5487440029
 51
144.4512559971
  0
ARC
  5
495
100
AcDbEntity
  8
0
100
AcDbCircle
 62
7
  6
CONTINUOUS
 10
6.1303672824
 20
5.2417865634
 40
0.0566666667
100
AcDbArc
 50
72.8938402673
 51
287.1046351766
  0
ARC
  5
496
100
AcDbEntity
  8
0
100
AcDbCircle
 62
7
  6
CONTINUOUS
 10
6.1303672824
 20
5.2417865634
 40
0.0525
100
AcDbArc
 50
76.225853002
 51
283.774146998
  0
ARC
  5
497
100
AcDbEntity
  8
0
100
AcDbCircle
 62
7
  6
CONTINUOUS
 10
6.6153672824
 20
5.1867865634
 40
0.1816666667
100
AcDbArc
 50
307.1640093615
 51
360.0
  0
ARC
  5
498
100
AcDbEntity
  8
0
100
AcDbCircle
 62
7
  6
CONTINUOUS
 10
6.6303672824
 20
5.2717865634
 40
0.0633333333
100
AcDbArc
 50
35.5487440029
 51
144.4512559971
  0
ARC
  5
499
100
AcDbEntity
  8
0
100
AcDbCircle
 62
7
  6
CONTINUOUS
 10
6.6303672824
 20
5.2417865634
 40
0.0566666667
100
AcDbArc
 50
72.8938402673
 51
287.1046351766
  0
ARC
  5
49A
100
AcDbEntity
  8
0
100
AcDbCircle
 62
7
  6
CONTINUOUS
 10
6.6303672824
 20
5.2417865634
 40
0.0525
100
AcDbArc
 50
76.225853002
 51
283.774146998
  0
ARC
  5
49B
100
AcDbEntity
  8
0
100
AcDbCircle
 62
7
  6
CONTINUOUS
 10
6.3471065129
 20
5.3851198968
 40
0.0166666667
100
AcDbArc
 50
269.750543045
 51
359.75
  0
ARC
  5
49C
100
AcDbEntity
  8
0
100
AcDbCircle
 62
7
  6
CONTINUOUS
 10
6.4136280518
 20
5.3851198968
 40
0.0166666667
100
AcDbArc
 50
180.25
 51
270.249456955
  0
ARC
  5
49D
100
AcDbEntity
  8
0
100
AcDbCircle
 62
7
  6
CONTINUOUS
 10
6.2539690842
 20
5.3134532301
 40
0.0083333333
100
AcDbArc
 50
270.0
 51
41.5023374652
  0
ARC
  5
49E
100
AcDbEntity
  8
0
100
AcDbCircle
 62
7
  6
CONTINUOUS
 10
6.1886768013
 20
5.3134532301
 40
0.0083333333
100
AcDbArc
 50
215.5487440029
 51
270.0
  0
ARC
  5
49F
100
AcDbEntity
  8
0
100
AcDbCircle
 62
7
  6
CONTINUOUS
 10
6.322033949
 20
5.2967865634
 40
0.0083333333
100
AcDbArc
 50
0.0
 51
90.0
  0
ARC
  5
4A0
100
AcDbEntity
  8
0
100
AcDbCircle
 62
7
  6
CONTINUOUS
 10
6.5720577634
 20
5.3134532301
 40
0.0083333333
100
AcDbArc
 50
270.0
 51
324.4512559971
  0
ARC
  5
4A1
100
AcDbEntity
  8
0
100
AcDbCircle
 62
7
  6
CONTINUOUS
 10
6.3250549744
 20
5.3134453216
 40
0.0083254249
100
AcDbArc
 50
211.9511564896
 51
270.0005562073
  0
ARC
  5
4A2
100
AcDbEntity
  8
0
100
AcDbCircle
 62
7
  6
CONTINUOUS
 10
6.6503672824
 20
5.2217865634
 40
0.1466666667
100
AcDbArc
 50
41.5023374652
 51
90.0
  0
ARC
  5
4A3
100
AcDbEntity
  8
0
100
AcDbCircle
 62
7
  6
CONTINUOUS
 10
6.6503672824
 20
5.2217865634
 40
0.1466666667
100
AcDbArc
 50
0.0
 51
34.8210071081
  0
ARC
  5
4A4
100
AcDbEntity
  8
0
100
AcDbCircle
 62
7
  6
CONTINUOUS
 10
7.1153672824
 20
5.1867865634
 40
0.1816666667
100
AcDbArc
 50
307.1640093615
 51
360.0
  0
ARC
  5
4A5
100
AcDbEntity
  8
0
100
AcDbCircle
 62
7
  6
CONTINUOUS
 10
7.1503672824
 20
5.2217865634
 40
0.1466666667
100
AcDbArc
 50
41.5023374652
 51
90.0
  0
ARC
  5
4A6
100
AcDbEntity
  8
0
100
AcDbCircle
 62
7
  6
CONTINUOUS
 10
7.1503672824
 20
5.2217865634
 40
0.1466666667
100
AcDbArc
 50
0.0
 51
34.8210071081
  0
ARC
  5
4A7
100
AcDbEntity
  8
0
100
AcDbCircle
 62
7
  6
CONTINUOUS
 10
7.1303672824
 20
5.2717865634
 40
0.0633333333
100
AcDbArc
 50
35.5487440029
 51
144.4512559971
  0
ARC
  5
4A8
100
AcDbEntity
  8
0
100
AcDbCircle
 62
7
  6
CONTINUOUS
 10
7.1303672824
 20
5.2417865634
 40
0.0566666667
100
AcDbArc
 50
72.8938402673
 51
287.1046351766
  0
ARC
  5
4A9
100
AcDbEntity
  8
0
100
AcDbCircle
 62
7
  6
CONTINUOUS
 10
7.1303672824
 20
5.2417865634
 40
0.0525
100
AcDbArc
 50
76.225853002
 51
283.774146998
  0
ARC
  5
4AA
100
AcDbEntity
  8
0
100
AcDbCircle
 62
7
  6
CONTINUOUS
 10
6.8471065129
 20
5.3851198968
 40
0.0166666667
100
AcDbArc
 50
269.750543045
 51
359.75
  0
ARC
  5
4AB
100
AcDbEntity
  8
0
100
AcDbCircle
 62
7
  6
CONTINUOUS
 10
6.9136280518
 20
5.3851198968
 40
0.0166666667
100
AcDbArc
 50
180.25
 51
270.249456955
  0
ARC
  5
4AC
100
AcDbEntity
  8
0
100
AcDbCircle
 62
7
  6
CONTINUOUS
 10
6.7539690842
 20
5.3134532301
 40
0.0083333333
100
AcDbArc
 50
270.0
 51
41.5023374652
  0
ARC
  5
4AD
100
AcDbEntity
  8
0
100
AcDbCircle
 62
7
  6
CONTINUOUS
 10
6.6886768013
 20
5.3134532301
 40
0.0083333333
100
AcDbArc
 50
215.5487440029
 51
270.0
  0
ARC
  5
4AE
100
AcDbEntity
  8
0
100
AcDbCircle
 62
7
  6
CONTINUOUS
 10
6.822033949
 20
5.2967865634
 40
0.0083333333
100
AcDbArc
 50
0.0
 51
90.0
  0
ARC
  5
4AF
100
AcDbEntity
  8
0
100
AcDbCircle
 62
7
  6
CONTINUOUS
 10
7.0720577634
 20
5.3134532301
 40
0.0083333333
100
AcDbArc
 50
270.0
 51
324.4512559971
  0
ARC
  5
4B0
100
AcDbEntity
  8
0
100
AcDbCircle
 62
7
  6
CONTINUOUS
 10
6.8250549744
 20
5.3134453216
 40
0.0083254249
100
AcDbArc
 50
211.9511564896
 51
270.0005562073
  0
ARC
  5
4B1
100
AcDbEntity
  8
0
100
AcDbCircle
 62
7
  6
CONTINUOUS
 10
7.1891152733
 20
5.0619699226
 40
0.3116521193
100
AcDbArc
 50
73.0758897996
 51
76.2622434011
  0
ARC
  5
4B2
100
AcDbEntity
  8
0
100
AcDbCircle
 62
7
  6
CONTINUOUS
 10
7.6891152733
 20
5.0619699226
 40
0.3116521193
100
AcDbArc
 50
73.0758897996
 51
76.2622434011
  0
ARC
  5
4B3
100
AcDbEntity
  8
0
100
AcDbCircle
 62
7
  6
CONTINUOUS
 10
7.1903388252
 20
5.0675660807
 40
0.3059259156
100
AcDbArc
 50
76.2359452447
 51
78.0174881241
  0
ARC
  5
4B4
100
AcDbEntity
  8
0
100
AcDbCircle
 62
7
  6
CONTINUOUS
 10
7.6903388252
 20
5.0675660807
 40
0.3059259156
100
AcDbArc
 50
76.2359452447
 51
78.0174881241
  0
ARC
  5
4B5
100
AcDbEntity
  8
0
100
AcDbCircle
 62
7
  6
CONTINUOUS
 10
7.2413009934
 20
5.0551198968
 40
0.05
100
AcDbArc
 50
221.8103148958
 51
270.0
  0
ARC
  5
4B6
100
AcDbEntity
  8
0
100
AcDbCircle
 62
7
  6
CONTINUOUS
 10
7.6667653941
 20
4.9884532301
 40
0.05
100
AcDbArc
 50
41.8103148958
 51
42.6795606504
  0
ARC
  5
4B7
100
AcDbEntity
  8
0
100
AcDbCircle
 62
7
  6
CONTINUOUS
 10
7.7413009934
 20
5.0551198968
 40
0.05
100
AcDbArc
 50
221.8103148958
 51
270.0
  0
ARC
  5
4B8
100
AcDbEntity
  8
0
100
AcDbCircle
 62
7
  6
CONTINUOUS
 10
7.2301460261
 20
5.0353737503
 40
0.0083333333
100
AcDbArc
 50
127.1640093615
 51
132.4184873
  0
ARC
  5
4B9
100
AcDbEntity
  8
0
100
AcDbCircle
 62
7
  6
CONTINUOUS
 10
7.3387006157
 20
5.0134532301
 40
0.0083333333
100
AcDbArc
 50
180.0
 51
270.0
  0
ARC
  5
4BA
100
AcDbEntity
  8
0
100
AcDbCircle
 62
7
  6
CONTINUOUS
 10
7.7301460261
 20
5.0353737503
 40
0.0083333333
100
AcDbArc
 50
127.1640093615
 51
132.4184873
  0
ARC
  5
4BB
100
AcDbEntity
  8
0
100
AcDbCircle
 62
7
  6
CONTINUOUS
 10
7.6814473704
 20
5.0134532301
 40
0.0083333333
100
AcDbArc
 50
270.0
 51
312.4184873
  0
ARC
  5
4BC
100
AcDbEntity
  8
0
100
AcDbCircle
 62
7
  6
CONTINUOUS
 10
7.8387006157
 20
5.0134532301
 40
0.0083333333
100
AcDbArc
 50
180.0
 51
270.0
  0
ARC
  5
4BD
100
AcDbEntity
  8
0
100
AcDbCircle
 62
7
  6
CONTINUOUS
 10
8.2301460261
 20
5.0353737503
 40
0.0083333333
100
AcDbArc
 50
127.1640093615
 51
132.4184873
  0
ARC
  5
4BE
100
AcDbEntity
  8
0
100
AcDbCircle
 62
7
  6
CONTINUOUS
 10
8.1814473704
 20
5.0134532301
 40
0.0083333333
100
AcDbArc
 50
270.0
 51
312.4184873
  0
ARC
  5
4BF
100
AcDbEntity
  8
0
100
AcDbCircle
 62
7
  6
CONTINUOUS
 10
7.6153672824
 20
5.1867865634
 40
0.1816666667
100
AcDbArc
 50
307.1640093615
 51
360.0
  0
ARC
  5
4C0
100
AcDbEntity
  8
0
100
AcDbCircle
 62
7
  6
CONTINUOUS
 10
7.6303672824
 20
5.2717865634
 40
0.0633333333
100
AcDbArc
 50
35.5487440029
 51
144.4512559971
  0
ARC
  5
4C1
100
AcDbEntity
  8
0
100
AcDbCircle
 62
7
  6
CONTINUOUS
 10
7.6303672824
 20
5.2417865634
 40
0.0566666667
100
AcDbArc
 50
72.8938402673
 51
287.1046351766
  0
ARC
  5
4C2
100
AcDbEntity
  8
0
100
AcDbCircle
 62
7
  6
CONTINUOUS
 10
7.6303672824
 20
5.2417865634
 40
0.0525
100
AcDbArc
 50
76.225853002
 51
283.774146998
  0
ARC
  5
4C3
100
AcDbEntity
  8
0
100
AcDbCircle
 62
7
  6
CONTINUOUS
 10
7.6503672824
 20
5.2217865634
 40
0.1466666667
100
AcDbArc
 50
41.5023374652
 51
90.0
  0
ARC
  5
4C4
100
AcDbEntity
  8
0
100
AcDbCircle
 62
7
  6
CONTINUOUS
 10
7.6503672824
 20
5.2217865634
 40
0.1466666667
100
AcDbArc
 50
0.0
 51
34.8210071081
  0
ARC
  5
4C5
100
AcDbEntity
  8
0
100
AcDbCircle
 62
7
  6
CONTINUOUS
 10
7.3471065129
 20
5.3851198968
 40
0.0166666667
100
AcDbArc
 50
269.750543045
 51
359.75
  0
ARC
  5
4C6
100
AcDbEntity
  8
0
100
AcDbCircle
 62
7
  6
CONTINUOUS
 10
7.4136280518
 20
5.3851198968
 40
0.0166666667
100
AcDbArc
 50
180.25
 51
270.249456955
  0
ARC
  5
4C7
100
AcDbEntity
  8
0
100
AcDbCircle
 62
7
  6
CONTINUOUS
 10
7.2539690842
 20
5.3134532301
 40
0.0083333333
100
AcDbArc
 50
270.0
 51
41.5023374652
  0
ARC
  5
4C8
100
AcDbEntity
  8
0
100
AcDbCircle
 62
7
  6
CONTINUOUS
 10
7.1886768013
 20
5.3134532301
 40
0.0083333333
100
AcDbArc
 50
215.5487440029
 51
270.0
  0
ARC
  5
4C9
100
AcDbEntity
  8
0
100
AcDbCircle
 62
7
  6
CONTINUOUS
 10
7.322033949
 20
5.2967865634
 40
0.0083333333
100
AcDbArc
 50
0.0
 51
90.0
  0
ARC
  5
4CA
100
AcDbEntity
  8
0
100
AcDbCircle
 62
7
  6
CONTINUOUS
 10
7.5720577634
 20
5.3134532301
 40
0.0083333333
100
AcDbArc
 50
270.0
 51
324.4512559971
  0
ARC
  5
4CB
100
AcDbEntity
  8
0
100
AcDbCircle
 62
7
  6
CONTINUOUS
 10
7.6886768013
 20
5.3134532301
 40
0.0083333333
100
AcDbArc
 50
215.5487440029
 51
270.0
  0
ARC
  5
4CC
100
AcDbEntity
  8
0
100
AcDbCircle
 62
7
  6
CONTINUOUS
 10
7.3250549744
 20
5.3134453216
 40
0.0083254249
100
AcDbArc
 50
211.9511564896
 51
270.0005562073
  0
ARC
  5
4CD
100
AcDbEntity
  8
0
100
AcDbCircle
 62
7
  6
CONTINUOUS
 10
8.1153672824
 20
5.1867865634
 40
0.1816666667
100
AcDbArc
 50
307.1640093615
 51
360.0
  0
ARC
  5
4CE
100
AcDbEntity
  8
0
100
AcDbCircle
 62
7
  6
CONTINUOUS
 10
8.1303672824
 20
5.2717865634
 40
0.0633333333
100
AcDbArc
 50
35.5487440029
 51
144.4512559971
  0
ARC
  5
4CF
100
AcDbEntity
  8
0
100
AcDbCircle
 62
7
  6
CONTINUOUS
 10
8.1303672824
 20
5.2417865634
 40
0.0566666667
100
AcDbArc
 50
72.8938402673
 51
287.1046351766
  0
ARC
  5
4D0
100
AcDbEntity
  8
0
100
AcDbCircle
 62
7
  6
CONTINUOUS
 10
8.1303672824
 20
5.2417865634
 40
0.0525
100
AcDbArc
 50
76.225853002
 51
283.774146998
  0
ARC
  5
4D1
100
AcDbEntity
  8
0
100
AcDbCircle
 62
7
  6
CONTINUOUS
 10
8.1503672824
 20
5.2217865634
 40
0.1466666667
100
AcDbArc
 50
0.0
 51
90.0
  0
ARC
  5
4D2
100
AcDbEntity
  8
0
100
AcDbCircle
 62
7
  6
CONTINUOUS
 10
7.8471065129
 20
5.3851198968
 40
0.0166666667
100
AcDbArc
 50
269.750543045
 51
359.75
  0
ARC
  5
4D3
100
AcDbEntity
  8
0
100
AcDbCircle
 62
7
  6
CONTINUOUS
 10
7.9136280518
 20
5.3851198968
 40
0.0166666667
100
AcDbArc
 50
180.25
 51
270.249456955
  0
ARC
  5
4D4
100
AcDbEntity
  8
0
100
AcDbCircle
 62
7
  6
CONTINUOUS
 10
7.7539690842
 20
5.3134532301
 40
0.0083333333
100
AcDbArc
 50
270.0
 51
41.5023374652
  0
ARC
  5
4D5
100
AcDbEntity
  8
0
100
AcDbCircle
 62
7
  6
CONTINUOUS
 10
8.2539690842
 20
5.3134532301
 40
0.0083333333
100
AcDbArc
 50
270.0
 51
41.5023374652
  0
ARC
  5
4D6
100
AcDbEntity
  8
0
100
AcDbCircle
 62
7
  6
CONTINUOUS
 10
7.822033949
 20
5.2967865634
 40
0.0083333333
100
AcDbArc
 50
0.0
 51
90.0
  0
ARC
  5
4D7
100
AcDbEntity
  8
0
100
AcDbCircle
 62
7
  6
CONTINUOUS
 10
8.0720577634
 20
5.3134532301
 40
0.0083333333
100
AcDbArc
 50
270.0
 51
324.4512559971
  0
ARC
  5
4D8
100
AcDbEntity
  8
0
100
AcDbCircle
 62
7
  6
CONTINUOUS
 10
8.1886768013
 20
5.3134532301
 40
0.0083333333
100
AcDbArc
 50
215.5487440029
 51
270.0
  0
ARC
  5
4D9
100
AcDbEntity
  8
0
100
AcDbCircle
 62
7
  6
CONTINUOUS
 10
7.8250549744
 20
5.3134453216
 40
0.0083254249
100
AcDbArc
 50
211.9511564896
 51
270.0005562073
  0
ARC
  5
4DA
100
AcDbEntity
  8
0
100
AcDbCircle
 62
7
  6
CONTINUOUS
 10
6.8858279971
 20
6.0267865634
 40
0.0083333333
100
AcDbArc
 50
0.2499999985
 51
90.0
  0
ARC
  5
4DB
100
AcDbEntity
  8
0
100
AcDbCircle
 62
7
  6
CONTINUOUS
 10
6.8749065677
 20
6.0267865634
 40
0.0083333333
100
AcDbArc
 50
90.0
 51
179.75
  0
ARC
  5
4DC
100
AcDbEntity
  8
0
100
AcDbCircle
 62
7
  6
CONTINUOUS
 10
7.3858279971
 20
6.0267865634
 40
0.0083333333
100
AcDbArc
 50
0.2499999985
 51
90.0
  0
ARC
  5
4DD
100
AcDbEntity
  8
0
100
AcDbCircle
 62
7
  6
CONTINUOUS
 10
7.3749065677
 20
6.0267865634
 40
0.0083333333
100
AcDbArc
 50
90.0
 51
179.75
  0
ARC
  5
4DE
100
AcDbEntity
  8
0
100
AcDbCircle
 62
7
  6
CONTINUOUS
 10
7.8858279971
 20
6.0267865634
 40
0.0083333333
100
AcDbArc
 50
0.2499999985
 51
90.0
  0
ARC
  5
4DF
100
AcDbEntity
  8
0
100
AcDbCircle
 62
7
  6
CONTINUOUS
 10
7.8749065677
 20
6.0267865634
 40
0.0083333333
100
AcDbArc
 50
90.0
 51
179.75
  0
ARC
  5
4E0
100
AcDbEntity
  8
0
100
AcDbCircle
 62
7
  6
CONTINUOUS
 10
6.3858279971
 20
6.0267865634
 40
0.0083333333
100
AcDbArc
 50
0.2499999985
 51
90.0
  0
ARC
  5
4E1
100
AcDbEntity
  8
0
100
AcDbCircle
 62
7
  6
CONTINUOUS
 10
6.3749065677
 20
6.0267865634
 40
0.0083333333
100
AcDbArc
 50
90.0
 51
179.75
  0
ARC
  5
4E2
100
AcDbEntity
  8
0
100
AcDbCircle
 62
7
  6
CONTINUOUS
 10
5.7099415835
 20
10.6576406774
 40
0.0564018955
100
AcDbArc
 50
253.9606352976
 51
254.9844528242
  0
ARC
  5
4E3
100
AcDbEntity
  8
0
100
AcDbCircle
 62
7
  6
CONTINUOUS
 10
4.7099415835
 20
10.6576406773
 40
0.0564018955
100
AcDbArc
 50
253.9606352975
 51
254.9844528247
  0
ARC
  5
4E4
100
AcDbEntity
  8
0
100
AcDbCircle
 62
7
  6
CONTINUOUS
 10
5.2099415835
 20
10.6576406773
 40
0.0564018955
100
AcDbArc
 50
253.9606352975
 51
254.9844528246
  0
ARC
  5
4E5
100
AcDbEntity
  8
0
100
AcDbCircle
 62
7
  6
CONTINUOUS
 10
3.9125387567
 20
12.3600477918
 40
0.0083333333
100
AcDbArc
 50
180.0
 51
270.0
  0
ARC
  5
4E6
100
AcDbEntity
  8
0
100
AcDbCircle
 62
7
  6
CONTINUOUS
 10
4.6944738919
 20
10.6083811252
 40
0.0083333333
100
AcDbArc
 50
270.0
 51
310.4017654803
  0
ARC
  5
4E7
100
AcDbEntity
  8
0
100
AcDbCircle
 62
7
  6
CONTINUOUS
 10
5.1944738919
 20
10.6083811252
 40
0.0083333333
100
AcDbArc
 50
270.0
 51
310.4017654803
  0
ARC
  5
4E8
100
AcDbEntity
  8
0
100
AcDbCircle
 62
7
  6
CONTINUOUS
 10
5.6944738919
 20
10.6083811252
 40
0.0083333333
100
AcDbArc
 50
270.0
 51
310.4017654803
  0
ARC
  5
4E9
100
AcDbEntity
  8
0
100
AcDbCircle
 62
7
  6
CONTINUOUS
 10
4.6944738919
 20
14.5917144585
 40
0.0083333333
100
AcDbArc
 50
49.6056665868
 51
90.0
  0
ARC
  5
4EA
100
AcDbEntity
  8
0
100
AcDbCircle
 62
7
  6
CONTINUOUS
 10
3.9125387567
 20
12.8400477918
 40
0.0083333333
100
AcDbArc
 50
90.0
 51
180.0
  0
ARC
  5
4EB
100
AcDbEntity
  8
0
100
AcDbCircle
 62
7
  6
CONTINUOUS
 10
5.1944738919
 20
14.5917144585
 40
0.0083333333
100
AcDbArc
 50
49.6056665868
 51
90.0
  0
ARC
  5
4EC
100
AcDbEntity
  8
0
100
AcDbCircle
 62
7
  6
CONTINUOUS
 10
5.6944738919
 20
14.5917144585
 40
0.0083333333
100
AcDbArc
 50
49.6056665868
 51
90.0
  0
ARC
  5
4ED
100
AcDbEntity
  8
0
100
AcDbCircle
 62
7
  6
CONTINUOUS
 10
7.2099415835
 20
10.6576406774
 40
0.0564018955
100
AcDbArc
 50
253.9606352976
 51
254.9844528242
  0
ARC
  5
4EE
100
AcDbEntity
  8
0
100
AcDbCircle
 62
7
  6
CONTINUOUS
 10
6.2099415835
 20
10.6576406773
 40
0.0564018955
100
AcDbArc
 50
253.9606352975
 51
254.9844528247
  0
ARC
  5
4EF
100
AcDbEntity
  8
0
100
AcDbCircle
 62
7
  6
CONTINUOUS
 10
6.7099415835
 20
10.6576406773
 40
0.0564018955
100
AcDbArc
 50
253.9606352976
 51
254.9844528245
  0
ARC
  5
4F0
100
AcDbEntity
  8
0
100
AcDbCircle
 62
7
  6
CONTINUOUS
 10
7.7099415835
 20
10.6576406773
 40
0.0564018955
100
AcDbArc
 50
253.9606352975
 51
254.9844528246
  0
ARC
  5
4F1
100
AcDbEntity
  8
0
100
AcDbCircle
 62
7
  6
CONTINUOUS
 10
6.1944738919
 20
10.6083811252
 40
0.0083333333
100
AcDbArc
 50
270.0
 51
310.4017654803
  0
ARC
  5
4F2
100
AcDbEntity
  8
0
100
AcDbCircle
 62
7
  6
CONTINUOUS
 10
6.6944738919
 20
10.6083811252
 40
0.0083333333
100
AcDbArc
 50
270.0
 51
310.4017654803
  0
ARC
  5
4F3
100
AcDbEntity
  8
0
100
AcDbCircle
 62
7
  6
CONTINUOUS
 10
7.1944738919
 20
10.6083811252
 40
0.0083333333
100
AcDbArc
 50
270.0
 51
310.4017654803
  0
ARC
  5
4F4
100
AcDbEntity
  8
0
100
AcDbCircle
 62
7
  6
CONTINUOUS
 10
7.6944738919
 20
10.6083811252
 40
0.0083333333
100
AcDbArc
 50
270.0
 51
310.4017654803
  0
ARC
  5
4F5
100
AcDbEntity
  8
0
100
AcDbCircle
 62
7
  6
CONTINUOUS
 10
8.1944738919
 20
10.6083811252
 40
0.0083333333
100
AcDbArc
 50
270.0
 51
360.0
  0
ARC
  5
4F6
100
AcDbEntity
  8
0
100
AcDbCircle
 62
7
  6
CONTINUOUS
 10
8.2292054234
 20
12.2350477918
 40
0.0083333333
100
AcDbArc
 50
270.0
 51
360.0
  0
ARC
  5
4F7
100
AcDbEntity
  8
0
100
AcDbCircle
 62
7
  6
CONTINUOUS
 10
8.2292054234
 20
12.3350477918
 40
0.0083333333
100
AcDbArc
 50
0.0
 51
90.0
  0
ARC
  5
4F8
100
AcDbEntity
  8
0
100
AcDbCircle
 62
7
  6
CONTINUOUS
 10
6.1944738919
 20
14.5917144585
 40
0.0083333333
100
AcDbArc
 50
49.6056665868
 51
90.0
  0
ARC
  5
4F9
100
AcDbEntity
  8
0
100
AcDbCircle
 62
7
  6
CONTINUOUS
 10
6.6944738919
 20
14.5917144585
 40
0.0083333333
100
AcDbArc
 50
49.6056665868
 51
90.0
  0
ARC
  5
4FA
100
AcDbEntity
  8
0
100
AcDbCircle
 62
7
  6
CONTINUOUS
 10
7.1944738919
 20
14.5917144585
 40
0.0083333333
100
AcDbArc
 50
49.6056665868
 51
90.0
  0
ARC
  5
4FB
100
AcDbEntity
  8
0
100
AcDbCircle
 62
7
  6
CONTINUOUS
 10
7.6944738919
 20
14.5917144585
 40
0.0083333333
100
AcDbArc
 50
49.6056665868
 51
90.0
  0
ARC
  5
4FC
100
AcDbEntity
  8
0
100
AcDbCircle
 62
7
  6
CONTINUOUS
 10
8.1944738919
 20
14.5917144585
 40
0.0083333333
100
AcDbArc
 50
0.0
 51
90.0
  0
ARC
  5
4FD
100
AcDbEntity
  8
0
100
AcDbCircle
 62
7
  6
CONTINUOUS
 10
8.2292054234
 20
12.8650477918
 40
0.0083333333
100
AcDbArc
 50
270.0
 51
360.0
  0
ARC
  5
4FE
100
AcDbEntity
  8
0
100
AcDbCircle
 62
7
  6
CONTINUOUS
 10
8.2292054234
 20
12.9650477918
 40
0.0083333333
100
AcDbArc
 50
0.0
 51
90.0
  0
ARC
  5
4FF
100
AcDbEntity
  8
0
100
AcDbCircle
 62
7
  6
CONTINUOUS
 10
15.3120551766
 20
5.295603781
 40
0.0083665769
100
AcDbArc
 50
128.6103197754
 51
180.0275126147
  0
ARC
  5
500
100
AcDbEntity
  8
0
100
AcDbCircle
 62
7
  6
CONTINUOUS
 10
13.5686886007
 20
5.2539580378
 40
0.0083333333
100
AcDbArc
 50
180.0
 51
270.0
  0
ARC
  5
501
100
AcDbEntity
  8
0
100
AcDbCircle
 62
7
  6
CONTINUOUS
 10
13.5686886007
 20
5.3006247044
 40
0.0083333333
100
AcDbArc
 50
90.0
 51
180.0
  0
ARC
  5
502
100
AcDbEntity
  8
0
100
AcDbCircle
 62
7
  6
CONTINUOUS
 10
15.0703552674
 20
4.9539580378
 40
0.0083333333
100
AcDbArc
 50
180.0
 51
270.0
  0
ARC
  5
503
100
AcDbEntity
  8
0
100
AcDbCircle
 62
7
  6
CONTINUOUS
 10
15.0703552674
 20
5.0072913711
 40
0.0083333333
100
AcDbArc
 50
90.0
 51
180.0
  0
ARC
  5
504
100
AcDbEntity
  8
0
100
AcDbCircle
 62
7
  6
CONTINUOUS
 10
15.4270219341
 20
4.9539580378
 40
0.0083333333
100
AcDbArc
 50
270.0
 51
360.0
  0
ARC
  5
505
100
AcDbEntity
  8
0
100
AcDbCircle
 62
7
  6
CONTINUOUS
 10
15.1786886007
 20
5.0239580378
 40
0.0083333333
100
AcDbArc
 50
270.0
 51
360.0
  0
ARC
  5
506
100
AcDbEntity
  8
0
100
AcDbCircle
 62
7
  6
CONTINUOUS
 10
15.2953552674
 20
4.9539580378
 40
0.0083333333
100
AcDbArc
 50
270.0
 51
360.0
  0
ARC
  5
507
100
AcDbEntity
  8
0
100
AcDbCircle
 62
7
  6
CONTINUOUS
 10
15.1953552674
 20
4.9539580378
 40
0.0083333333
100
AcDbArc
 50
180.0
 51
270.0
  0
ARC
  5
508
100
AcDbEntity
  8
0
100
AcDbCircle
 62
7
  6
CONTINUOUS
 10
15.1786886007
 20
5.2372913711
 40
0.0083333333
100
AcDbArc
 50
0.0
 51
90.0
  0
ARC
  5
509
100
AcDbEntity
  8
0
100
AcDbCircle
 62
7
  6
CONTINUOUS
 10
15.2953552674
 20
5.3006247044
 40
0.0083333333
100
AcDbArc
 50
0.0
 51
90.0
  0
ARC
  5
50A
100
AcDbEntity
  8
0
100
AcDbCircle
 62
7
  6
CONTINUOUS
 10
15.3120219341
 20
5.2372913711
 40
0.0083333333
100
AcDbArc
 50
90.0
 51
168.3280020862
  0
ARC
  5
50B
100
AcDbEntity
  8
0
100
AcDbCircle
 62
7
  6
CONTINUOUS
 10
15.3120230202
 20
5.2956392157
 40
0.0083188222
100
AcDbArc
 50
90.0074805409
 51
128.5895515587
  0
ARC
  5
50C
100
AcDbEntity
  8
0
100
AcDbCircle
 62
7
  6
CONTINUOUS
 10
13.6064088353
 20
5.9322913711
 40
0.0433333333
100
AcDbArc
 50
90.0
 51
179.75
  0
ARC
  5
50D
100
AcDbEntity
  8
0
100
AcDbCircle
 62
7
  6
CONTINUOUS
 10
15.8086051321
 20
5.2955964924
 40
0.0084168026
100
AcDbArc
 50
0.0222672089
 51
12.7871515416
  0
ARC
  5
50E
100
AcDbEntity
  8
0
100
AcDbCircle
 62
7
  6
CONTINUOUS
 10
15.8086802519
 20
5.2956209309
 40
0.0083375775
100
AcDbArc
 50
12.7376341398
 51
89.9426233353
  0
ARC
  5
50F
100
AcDbEntity
  8
0
100
AcDbCircle
 62
7
  6
CONTINUOUS
 10
15.8253552674
 20
5.3006247044
 40
0.0083333333
100
AcDbArc
 50
90.0
 51
180.0
  0
ARC
  5
510
100
AcDbEntity
  8
0
100
AcDbCircle
 62
7
  6
CONTINUOUS
 10
17.5520219341
 20
5.3006247044
 40
0.0083333333
100
AcDbArc
 50
0.0
 51
90.0
  0
ARC
  5
511
100
AcDbEntity
  8
0
100
AcDbCircle
 62
7
  6
CONTINUOUS
 10
15.8086886007
 20
5.2372913711
 40
0.0083333333
100
AcDbArc
 50
11.4757122295
 51
90.0
  0
ARC
  5
512
100
AcDbEntity
  8
0
100
AcDbCircle
 62
7
  6
CONTINUOUS
 10
15.6936886007
 20
4.9539580378
 40
0.0083333333
100
AcDbArc
 50
180.0
 51
270.0
  0
ARC
  5
513
100
AcDbEntity
  8
0
100
AcDbCircle
 62
7
  6
CONTINUOUS
 10
15.8253552674
 20
4.9539580378
 40
0.0083333333
100
AcDbArc
 50
180.0
 51
270.0
  0
ARC
  5
514
100
AcDbEntity
  8
0
100
AcDbCircle
 62
7
  6
CONTINUOUS
 10
17.5520219341
 20
5.2539580378
 40
0.0083333333
100
AcDbArc
 50
270.0
 51
360.0
  0
ARC
  5
515
100
AcDbEntity
  8
0
100
AcDbCircle
 62
7
  6
CONTINUOUS
 10
16.0503552674
 20
5.0072913711
 40
0.0083333333
100
AcDbArc
 50
0.0
 51
90.0
  0
ARC
  5
516
100
AcDbEntity
  8
0
100
AcDbCircle
 62
7
  6
CONTINUOUS
 10
16.0503552674
 20
4.9539580378
 40
0.0083333333
100
AcDbArc
 50
270.0
 51
360.0
  0
ARC
  5
517
100
AcDbEntity
  8
0
100
AcDbCircle
 62
7
  6
CONTINUOUS
 10
15.9420219341
 20
5.2372913711
 40
0.0083333333
100
AcDbArc
 50
90.0
 51
180.0
  0
ARC
  5
518
100
AcDbEntity
  8
0
100
AcDbCircle
 62
7
  6
CONTINUOUS
 10
15.9253552674
 20
4.9539580378
 40
0.0083333333
100
AcDbArc
 50
270.0
 51
360.0
  0
ARC
  5
519
100
AcDbEntity
  8
0
100
AcDbCircle
 62
7
  6
CONTINUOUS
 10
15.9420219341
 20
5.0239580378
 40
0.0083333333
100
AcDbArc
 50
180.0
 51
270.0
  0
ARC
  5
51A
100
AcDbEntity
  8
0
100
AcDbCircle
 62
7
  6
CONTINUOUS
 10
17.2908533197
 20
12.1011944542
 40
0.2324677087
100
AcDbArc
 50
105.9858745554
 51
126.0572029793
  0
ARC
  5
51B
100
AcDbEntity
  8
0
100
AcDbCircle
 62
7
  6
CONTINUOUS
 10
17.3635567188
 20
12.4439513644
 40
0.1926274418
100
AcDbArc
 50
54.5010901414
 51
55.3496104349
  0
ARC
  5
51C
100
AcDbEntity
  8
0
100
AcDbCircle
 62
7
  6
CONTINUOUS
 10
17.282153935
 20
11.9906801833
 40
0.1059121183
100
AcDbArc
 50
24.1864181549
 51
26.1491805026
  0
ARC
  5
51D
100
AcDbEntity
  8
0
100
AcDbCircle
 62
7
  6
CONTINUOUS
 10
17.4346557188
 20
12.4841761363
 40
0.1059121184
100
AcDbArc
 50
24.1864181551
 51
26.1491805025
  0
ARC
  5
51E
100
AcDbEntity
  8
0
100
AcDbCircle
 62
7
  6
CONTINUOUS
 10
17.1342185726
 20
12.1513857801
 40
0.0211344386
100
AcDbArc
 50
175.0223924668
 51
184.4126887895
  0
ARC
  5
51F
100
AcDbEntity
  8
0
100
AcDbCircle
 62
7
  6
CONTINUOUS
 10
17.2437043245
 20
11.8263617278
 40
0.012594914
100
AcDbArc
 50
129.6194188961
 51
134.0935500119
  0
ARC
  5
520
100
AcDbEntity
  8
0
100
AcDbCircle
 62
7
  6
CONTINUOUS
 10
17.4521022935
 20
12.3411397216
 40
0.0083772494
100
AcDbArc
 50
296.7048910693
 51
311.4450440568
  0
ARC
  5
521
100
AcDbEntity
  8
0
100
AcDbCircle
 62
7
  6
CONTINUOUS
 10
17.2996005097
 20
11.8476437685
 40
0.0083772494
100
AcDbArc
 50
296.7048910695
 51
311.4450440566
  0
ARC
  5
522
100
AcDbEntity
  8
0
100
AcDbCircle
 62
7
  6
CONTINUOUS
 10
13.2623817868
 20
10.759905677
 40
0.0083607054
100
AcDbArc
 50
258.4027518172
 51
269.9809196346
  0
ARC
  5
523
100
AcDbEntity
  8
0
100
AcDbCircle
 62
7
  6
CONTINUOUS
 10
13.7229122838
 20
10.759905677
 40
0.0083607054
100
AcDbArc
 50
258.4027518172
 51
269.9809196346
  0
ARC
  5
524
100
AcDbEntity
  8
0
100
AcDbCircle
 62
7
  6
CONTINUOUS
 10
14.1834427808
 20
10.759905677
 40
0.0083607054
100
AcDbArc
 50
258.4027518172
 51
269.9809196346
  0
ARC
  5
525
100
AcDbEntity
  8
0
100
AcDbCircle
 62
7
  6
CONTINUOUS
 10
14.6439732778
 20
10.759905677
 40
0.0083607054
100
AcDbArc
 50
258.4027518172
 51
269.9809196346
  0
ARC
  5
526
100
AcDbEntity
  8
0
100
AcDbCircle
 62
7
  6
CONTINUOUS
 10
15.1045037748
 20
10.759905677
 40
0.0083607054
100
AcDbArc
 50
258.4027518172
 51
269.9809196346
  0
ARC
  5
527
100
AcDbEntity
  8
0
100
AcDbCircle
 62
7
  6
CONTINUOUS
 10
15.5650342718
 20
10.759905677
 40
0.0083607054
100
AcDbArc
 50
258.4027518172
 51
269.9809196346
  0
ARC
  5
528
100
AcDbEntity
  8
0
100
AcDbCircle
 62
7
  6
CONTINUOUS
 10
16.0255647688
 20
10.759905677
 40
0.0083607054
100
AcDbArc
 50
258.4027518172
 51
269.9809196346
  0
ARC
  5
529
100
AcDbEntity
  8
0
100
AcDbCircle
 62
7
  6
CONTINUOUS
 10
16.4860952658
 20
10.759905677
 40
0.0083607054
100
AcDbArc
 50
258.4027518172
 51
269.9809196346
  0
ARC
  5
52A
100
AcDbEntity
  8
0
100
AcDbCircle
 62
7
  6
CONTINUOUS
 10
13.5972990976
 20
10.7599023121
 40
0.0083573403
100
AcDbArc
 50
259.1264417667
 51
269.9843129503
  0
ARC
  5
52B
100
AcDbEntity
  8
0
100
AcDbCircle
 62
7
  6
CONTINUOUS
 10
14.0578295946
 20
10.7599023121
 40
0.0083573403
100
AcDbArc
 50
259.1264417667
 51
269.9843129503
  0
ARC
  5
52C
100
AcDbEntity
  8
0
100
AcDbCircle
 62
7
  6
CONTINUOUS
 10
14.5183600916
 20
10.7599023121
 40
0.0083573403
100
AcDbArc
 50
259.1264417667
 51
269.9843129503
  0
ARC
  5
52D
100
AcDbEntity
  8
0
100
AcDbCircle
 62
7
  6
CONTINUOUS
 10
14.9788905886
 20
10.7599023121
 40
0.0083573403
100
AcDbArc
 50
259.1264417667
 51
269.9843129503
  0
ARC
  5
52E
100
AcDbEntity
  8
0
100
AcDbCircle
 62
7
  6
CONTINUOUS
 10
15.4394210856
 20
10.7599023121
 40
0.0083573403
100
AcDbArc
 50
259.1264417667
 51
269.9843129503
  0
ARC
  5
52F
100
AcDbEntity
  8
0
100
AcDbCircle
 62
7
  6
CONTINUOUS
 10
15.8999515826
 20
10.7599023121
 40
0.0083573403
100
AcDbArc
 50
259.1264417667
 51
269.9843129503
  0
ARC
  5
530
100
AcDbEntity
  8
0
100
AcDbCircle
 62
7
  6
CONTINUOUS
 10
16.3604820796
 20
10.7599023121
 40
0.0083573403
100
AcDbArc
 50
259.1264417667
 51
269.9843129503
  0
ARC
  5
531
100
AcDbEntity
  8
0
100
AcDbCircle
 62
7
  6
CONTINUOUS
 10
16.8210125766
 20
10.7599023121
 40
0.0083573403
100
AcDbArc
 50
259.1264417667
 51
269.9843129503
  0
ARC
  5
532
100
AcDbEntity
  8
0
100
AcDbCircle
 62
7
  6
CONTINUOUS
 10
17.4521224466
 20
12.3411160247
 40
0.0083470267
100
AcDbArc
 50
270.0255418732
 51
296.6544103257
  0
ARC
  5
533
100
AcDbEntity
  8
0
100
AcDbCircle
 62
7
  6
CONTINUOUS
 10
17.2996206628
 20
11.8476200717
 40
0.0083470267
100
AcDbArc
 50
270.0255418732
 51
296.6544103259
  0
ARC
  5
534
100
AcDbEntity
  8
0
100
AcDbCircle
 62
7
  6
CONTINUOUS
 10
13.4898839839
 20
10.7598771149
 40
0.0083321428
100
AcDbArc
 50
269.9971020509
 51
308.9896888168
  0
ARC
  5
535
100
AcDbEntity
  8
0
100
AcDbCircle
 62
7
  6
CONTINUOUS
 10
13.9504144809
 20
10.7598771149
 40
0.0083321428
100
AcDbArc
 50
269.9971020511
 51
308.9896888166
  0
ARC
  5
536
100
AcDbEntity
  8
0
100
AcDbCircle
 62
7
  6
CONTINUOUS
 10
14.4109449779
 20
10.7598771149
 40
0.0083321428
100
AcDbArc
 50
269.9971020509
 51
308.9896888167
  0
ARC
  5
537
100
AcDbEntity
  8
0
100
AcDbCircle
 62
7
  6
CONTINUOUS
 10
14.8714754749
 20
10.7598771149
 40
0.0083321428
100
AcDbArc
 50
269.997102051
 51
308.9896888167
  0
ARC
  5
538
100
AcDbEntity
  8
0
100
AcDbCircle
 62
7
  6
CONTINUOUS
 10
15.3320059719
 20
10.7598771149
 40
0.0083321428
100
AcDbArc
 50
269.9971020509
 51
308.9896888168
  0
ARC
  5
539
100
AcDbEntity
  8
0
100
AcDbCircle
 62
7
  6
CONTINUOUS
 10
15.7925364689
 20
10.7598771149
 40
0.0083321428
100
AcDbArc
 50
269.997102051
 51
308.9896888167
  0
ARC
  5
53A
100
AcDbEntity
  8
0
100
AcDbCircle
 62
7
  6
CONTINUOUS
 10
16.2530669659
 20
10.7598771149
 40
0.0083321428
100
AcDbArc
 50
269.997102051
 51
308.9896888167
  0
ARC
  5
53B
100
AcDbEntity
  8
0
100
AcDbCircle
 62
7
  6
CONTINUOUS
 10
16.7135974629
 20
10.7598771149
 40
0.0083321428
100
AcDbArc
 50
269.997102051
 51
308.9896888166
  0
ARC
  5
53C
100
AcDbEntity
  8
0
100
AcDbCircle
 62
7
  6
CONTINUOUS
 10
17.8453872579
 20
13.880122591
 40
0.0083318603
100
AcDbArc
 50
342.8324998269
 51
43.4632403633
  0
SPLINE
  5
53D
100
AcDbEntity
  8
0
100
AcDbSpline
 62
7
  6
CONTINUOUS
 70
0
 71
3
 72
20
 73
16
 74
0
 42
0.0000001
 43
0.0000001
 44
0.0000000001
 40
0.0
 40
0.0
 40
0.0
 40
0.0
 40
0.186164016
 40
0.3670495359
 40
0.5367610358
 40
0.6891063768
 40
0.7566859907
 40
0.8174472659
 40
0.8705464563
 40
0.9150975339
 40
0.9504601941
 40
0.9765731291
 40
0.9932453627
 40
0.9978137835
 40
1.0
 40
1.0
 40
1.0
 40
1.0
 10
4.1928017762
 20
5.3560675533
 30
0.0
 10
4.1928017762
 20
5.3566304107
 30
0.0
 10
4.1928049981
 20
5.3577401693
 30
0.0
 10
4.192819429
 20
5.3593629848
 30
0.0
 10
4.1928433247
 20
5.3608834333
 30
0.0
 10
4.1928715991
 20
5.3620611532
 30
0.0
 10
4.1928996473
 20
5.3629093527
 30
0.0
 10
4.1929217659
 20
5.3634574453
 30
0.0
 10
4.1929456413
 20
5.3639359385
 30
0.0
 10
4.192970744
 20
5.3643369533
 30
0.0
 10
4.1929974911
 20
5.3646574333
 30
0.0
 10
4.1930234916
 20
5.3648899393
 30
0.0
 10
4.1930490234
 20
5.3650353922
 30
0.0
 10
4.1930680178
 20
5.3650990701
 30
0.0
 10
4.1930820101
 20
5.3651198924
 30
0.0
 10
4.19308862
 20
5.3651198968
 30
0.0
  0
SPLINE
  5
53E
100
AcDbEntity
  8
0
100
AcDbSpline
 62
7
  6
CONTINUOUS
 70
0
 71
3
 72
10
 73
6
 74
0
 42
0.0000001
 43
0.0000001
 44
0.0000000001
 40
0.0
 40
0.0
 40
0.0
 40
0.0
 40
0.2596499981
 40
0.5110484482
 40
1.0
 40
1.0
 40
1.0
 40
1.0
 10
4.3387006157
 20
5.0769797046
 30
0.0
 10
4.3391375017
 20
5.0766659747
 30
0.0
 10
4.3400480114
 20
5.0761140336
 30
0.0
 10
4.3419795853
 20
5.0753483401
 30
0.0
 10
4.3435265179
 20
5.0751198968
 30
0.0
 10
4.344539376
 20
5.0751198968
 30
0.0
  0
LINE
  5
53F
100
AcDbEntity
  8
0
100
AcDbLine
 62
7
  6
CONTINUOUS
 10
4.2538530892
 20
5.3668256723
 11
4.2536803176
 21
5.3684532301
  0
LINE
  5
540
100
AcDbEntity
  8
0
100
AcDbLine
 62
7
  6
CONTINUOUS
 10
4.2536848243
 20
5.3651198968
 11
4.2538530892
 21
5.3668256723
  0
LINE
  5
541
100
AcDbEntity
  8
0
100
AcDbLine
 62
7
  6
CONTINUOUS
 10
4.6928557116
 20
5.3613705499
 11
4.69308862
 21
5.3651198968
  0
SPLINE
  5
542
100
AcDbEntity
  8
0
100
AcDbSpline
 62
7
  6
CONTINUOUS
 70
0
 71
3
 72
10
 73
6
 74
0
 42
0.0000001
 43
0.0000001
 44
0.0000000001
 40
0.0
 40
0.0
 40
0.0
 40
0.0
 40
0.2596499981
 40
0.5110484482
 40
1.0
 40
1.0
 40
1.0
 40
1.0
 10
4.8387006157
 20
5.0769797046
 30
0.0
 10
4.8391375017
 20
5.0766659747
 30
0.0
 10
4.8400480114
 20
5.0761140336
 30
0.0
 10
4.8419795853
 20
5.0753483401
 30
0.0
 10
4.8435265179
 20
5.0751198968
 30
0.0
 10
4.844539376
 20
5.0751198968
 30
0.0
  0
LINE
  5
543
100
AcDbEntity
  8
0
100
AcDbLine
 62
7
  6
CONTINUOUS
 10
4.7538530892
 20
5.3668256723
 11
4.7536803176
 21
5.3684532301
  0
LINE
  5
544
100
AcDbEntity
  8
0
100
AcDbLine
 62
7
  6
CONTINUOUS
 10
4.7536848243
 20
5.3651198968
 11
4.7538530892
 21
5.3668256723
  0
LINE
  5
545
100
AcDbEntity
  8
0
100
AcDbLine
 62
7
  6
CONTINUOUS
 10
5.1928557116
 20
5.3613705499
 11
5.19308862
 21
5.3651198968
  0
SPLINE
  5
546
100
AcDbEntity
  8
0
100
AcDbSpline
 62
7
  6
CONTINUOUS
 70
0
 71
3
 72
10
 73
6
 74
0
 42
0.0000001
 43
0.0000001
 44
0.0000000001
 40
0.0
 40
0.0
 40
0.0
 40
0.0
 40
0.2596499981
 40
0.5110484482
 40
1.0
 40
1.0
 40
1.0
 40
1.0
 10
5.3387006157
 20
5.0769797046
 30
0.0
 10
5.3391375017
 20
5.0766659747
 30
0.0
 10
5.3400480114
 20
5.0761140336
 30
0.0
 10
5.3419795853
 20
5.0753483401
 30
0.0
 10
5.3435265179
 20
5.0751198968
 30
0.0
 10
5.344539376
 20
5.0751198968
 30
0.0
  0
LINE
  5
547
100
AcDbEntity
  8
0
100
AcDbLine
 62
7
  6
CONTINUOUS
 10
5.2538530892
 20
5.3668256723
 11
5.2536803176
 21
5.3684532301
  0
LINE
  5
548
100
AcDbEntity
  8
0
100
AcDbLine
 62
7
  6
CONTINUOUS
 10
5.2536848243
 20
5.3651198968
 11
5.2538530892
 21
5.3668256723
  0
LINE
  5
549
100
AcDbEntity
  8
0
100
AcDbLine
 62
7
  6
CONTINUOUS
 10
5.6928557116
 20
5.3613705499
 11
5.69308862
 21
5.3651198968
  0
SPLINE
  5
54A
100
AcDbEntity
  8
0
100
AcDbSpline
 62
7
  6
CONTINUOUS
 70
0
 71
3
 72
10
 73
6
 74
0
 42
0.0000001
 43
0.0000001
 44
0.0000000001
 40
0.0
 40
0.0
 40
0.0
 40
0.0
 40
0.2596499981
 40
0.5110484482
 40
1.0
 40
1.0
 40
1.0
 40
1.0
 10
5.8387006157
 20
5.0769797046
 30
0.0
 10
5.8391375017
 20
5.0766659747
 30
0.0
 10
5.8400480114
 20
5.0761140336
 30
0.0
 10
5.8419795853
 20
5.0753483401
 30
0.0
 10
5.8435265179
 20
5.0751198968
 30
0.0
 10
5.844539376
 20
5.0751198968
 30
0.0
  0
LINE
  5
54B
100
AcDbEntity
  8
0
100
AcDbLine
 62
7
  6
CONTINUOUS
 10
5.7538530892
 20
5.3668256723
 11
5.7536803176
 21
5.3684532301
  0
LINE
  5
54C
100
AcDbEntity
  8
0
100
AcDbLine
 62
7
  6
CONTINUOUS
 10
5.7536848243
 20
5.3651198968
 11
5.7538530892
 21
5.3668256723
  0
LINE
  5
54D
100
AcDbEntity
  8
0
100
AcDbLine
 62
7
  6
CONTINUOUS
 10
6.1928557116
 20
5.3613705499
 11
6.19308862
 21
5.3651198968
  0
SPLINE
  5
54E
100
AcDbEntity
  8
0
100
AcDbSpline
 62
7
  6
CONTINUOUS
 70
0
 71
3
 72
10
 73
6
 74
0
 42
0.0000001
 43
0.0000001
 44
0.0000000001
 40
0.0
 40
0.0
 40
0.0
 40
0.0
 40
0.2596499981
 40
0.5110484482
 40
1.0
 40
1.0
 40
1.0
 40
1.0
 10
6.3387006157
 20
5.0769797046
 30
0.0
 10
6.3391375017
 20
5.0766659747
 30
0.0
 10
6.3400480114
 20
5.0761140336
 30
0.0
 10
6.3419795853
 20
5.0753483401
 30
0.0
 10
6.3435265179
 20
5.0751198968
 30
0.0
 10
6.344539376
 20
5.0751198968
 30
0.0
  0
LINE
  5
54F
100
AcDbEntity
  8
0
100
AcDbLine
 62
7
  6
CONTINUOUS
 10
6.2538530892
 20
5.3668256723
 11
6.2536803176
 21
5.3684532301
  0
LINE
  5
550
100
AcDbEntity
  8
0
100
AcDbLine
 62
7
  6
CONTINUOUS
 10
6.2536848243
 20
5.3651198968
 11
6.2538530892
 21
5.3668256723
  0
LINE
  5
551
100
AcDbEntity
  8
0
100
AcDbLine
 62
7
  6
CONTINUOUS
 10
6.6928557116
 20
5.3613705499
 11
6.69308862
 21
5.3651198968
  0
SPLINE
  5
552
100
AcDbEntity
  8
0
100
AcDbSpline
 62
7
  6
CONTINUOUS
 70
0
 71
3
 72
10
 73
6
 74
0
 42
0.0000001
 43
0.0000001
 44
0.0000000001
 40
0.0
 40
0.0
 40
0.0
 40
0.0
 40
0.2596499981
 40
0.5110484482
 40
1.0
 40
1.0
 40
1.0
 40
1.0
 10
6.8387006157
 20
5.0769797046
 30
0.0
 10
6.8391375017
 20
5.0766659747
 30
0.0
 10
6.8400480114
 20
5.0761140336
 30
0.0
 10
6.8419795853
 20
5.0753483401
 30
0.0
 10
6.8435265179
 20
5.0751198968
 30
0.0
 10
6.844539376
 20
5.0751198968
 30
0.0
  0
LINE
  5
553
100
AcDbEntity
  8
0
100
AcDbLine
 62
7
  6
CONTINUOUS
 10
6.7538530892
 20
5.3668256723
 11
6.7536803176
 21
5.3684532301
  0
LINE
  5
554
100
AcDbEntity
  8
0
100
AcDbLine
 62
7
  6
CONTINUOUS
 10
6.7536848243
 20
5.3651198968
 11
6.7538530892
 21
5.3668256723
  0
LINE
  5
555
100
AcDbEntity
  8
0
100
AcDbLine
 62
7
  6
CONTINUOUS
 10
7.1928557116
 20
5.3613705499
 11
7.19308862
 21
5.3651198968
  0
SPLINE
  5
556
100
AcDbEntity
  8
0
100
AcDbSpline
 62
7
  6
CONTINUOUS
 70
0
 71
3
 72
10
 73
6
 74
0
 42
0.0000001
 43
0.0000001
 44
0.0000000001
 40
0.0
 40
0.0
 40
0.0
 40
0.0
 40
0.2596499981
 40
0.5110484482
 40
1.0
 40
1.0
 40
1.0
 40
1.0
 10
7.3387006157
 20
5.0769797046
 30
0.0
 10
7.3391375017
 20
5.0766659747
 30
0.0
 10
7.3400480114
 20
5.0761140336
 30
0.0
 10
7.3419795853
 20
5.0753483401
 30
0.0
 10
7.3435265179
 20
5.0751198968
 30
0.0
 10
7.344539376
 20
5.0751198968
 30
0.0
  0
LINE
  5
557
100
AcDbEntity
  8
0
100
AcDbLine
 62
7
  6
CONTINUOUS
 10
7.2538530892
 20
5.3668256723
 11
7.2536803176
 21
5.3684532301
  0
LINE
  5
558
100
AcDbEntity
  8
0
100
AcDbLine
 62
7
  6
CONTINUOUS
 10
7.2536848243
 20
5.3651198968
 11
7.2538530892
 21
5.3668256723
  0
LINE
  5
559
100
AcDbEntity
  8
0
100
AcDbLine
 62
7
  6
CONTINUOUS
 10
7.6928557116
 20
5.3613705499
 11
7.69308862
 21
5.3651198968
  0
SPLINE
  5
55A
100
AcDbEntity
  8
0
100
AcDbSpline
 62
7
  6
CONTINUOUS
 70
0
 71
3
 72
10
 73
6
 74
0
 42
0.0000001
 43
0.0000001
 44
0.0000000001
 40
0.0
 40
0.0
 40
0.0
 40
0.0
 40
0.2596499981
 40
0.5110484482
 40
1.0
 40
1.0
 40
1.0
 40
1.0
 10
7.8387006157
 20
5.0769797046
 30
0.0
 10
7.8391375017
 20
5.0766659747
 30
0.0
 10
7.8400480114
 20
5.0761140336
 30
0.0
 10
7.8419795853
 20
5.0753483401
 30
0.0
 10
7.8435265179
 20
5.0751198968
 30
0.0
 10
7.844539376
 20
5.0751198968
 30
0.0
  0
LINE
  5
55B
100
AcDbEntity
  8
0
100
AcDbLine
 62
7
  6
CONTINUOUS
 10
7.7538530892
 20
5.3668256723
 11
7.7536803176
 21
5.3684532301
  0
LINE
  5
55C
100
AcDbEntity
  8
0
100
AcDbLine
 62
7
  6
CONTINUOUS
 10
7.7536848243
 20
5.3651198968
 11
7.7538530892
 21
5.3668256723
  0
SPLINE
  5
55D
100
AcDbEntity
  8
0
100
AcDbSpline
 62
7
  6
CONTINUOUS
 70
0
 71
3
 72
11
 73
7
 74
0
 42
0.0000001
 43
0.0000001
 44
0.0000000001
 40
0.0
 40
0.0
 40
0.0
 40
0.0
 40
0.2477075266
 40
0.4970436311
 40
0.7478320216
 40
1.0
 40
1.0
 40
1.0
 40
1.0
 10
4.2203420302
 20
10.6000477918
 30
0.0
 10
4.2181726528
 20
10.6000467606
 30
0.0
 10
4.2138188227
 20
10.6002050935
 30
0.0
 10
4.2072958468
 20
10.6008318668
 30
0.0
 10
4.2007835498
 20
10.6018502461
 30
0.0
 10
4.1964802283
 20
10.602823814
 30
0.0
 10
4.1943578684
 20
10.6034343895
 30
0.0
  0
SPLINE
  5
55E
100
AcDbEntity
  8
0
100
AcDbSpline
 62
7
  6
CONTINUOUS
 70
0
 71
3
 72
11
 73
7
 74
0
 42
0.0000001
 43
0.0000001
 44
0.0000000001
 40
0.0
 40
0.0
 40
0.0
 40
0.0
 40
0.2521611873
 40
0.5029419783
 40
0.7522437977
 40
1.0
 40
1.0
 40
1.0
 40
1.0
 10
4.1943578995
 20
14.5966620259
 30
0.0
 10
4.19648018
 20
14.5972726495
 30
0.0
 10
4.200783392
 20
14.5982462241
 30
0.0
 10
4.2072952859
 20
14.5992639508
 30
0.0
 10
4.2138182239
 20
14.5998926369
 30
0.0
 10
4.2181722394
 20
14.6000477918
 30
0.0
 10
4.2203420398
 20
14.6000477918
 30
0.0
  0
SPLINE
  5
55F
100
AcDbEntity
  8
0
100
AcDbSpline
 62
7
  6
CONTINUOUS
 70
0
 71
3
 72
11
 73
7
 74
0
 42
0.0000001
 43
0.0000001
 44
0.0000000001
 40
0.0
 40
0.0
 40
0.0
 40
0.0
 40
0.2477728266
 40
0.4971380422
 40
0.7478978534
 40
1.0
 40
1.0
 40
1.0
 40
1.0
 10
4.7203420302
 20
10.6000477918
 30
0.0
 10
4.7182552467
 20
10.6000467998
 30
0.0
 10
4.7140675181
 20
10.6001937274
 30
0.0
 10
4.7077923335
 20
10.6007754426
 30
0.0
 10
4.7015245999
 20
10.6017184546
 30
0.0
 10
4.6973795646
 20
10.6026141257
 30
0.0
 10
4.6953289162
 20
10.6031645929
 30
0.0
  0
LINE
  5
560
100
AcDbEntity
  8
0
100
AcDbLine
 62
7
  6
CONTINUOUS
 10
4.6943578995
 20
14.5966620259
 11
4.6978091364
 21
14.5975466836
  0
SPLINE
  5
561
100
AcDbEntity
  8
0
100
AcDbSpline
 62
7
  6
CONTINUOUS
 70
0
 71
3
 72
10
 73
6
 74
0
 42
0.0000001
 43
0.0000001
 44
0.0000000001
 40
0.0
 40
0.0
 40
0.0
 40
0.0
 40
0.2519617612
 40
0.502685081
 40
1.0
 40
1.0
 40
1.0
 40
1.0
 10
4.6978091364
 20
14.5975466836
 30
0.0
 10
4.6996681961
 20
14.5979725827
 30
0.0
 10
4.7034085907
 20
14.5986888589
 30
0.0
 10
4.7109106772
 20
14.5997059838
 30
0.0
 10
4.7165776209
 20
14.6000477918
 30
0.0
 10
4.7203420398
 20
14.6000477918
 30
0.0
  0
SPLINE
  5
562
100
AcDbEntity
  8
0
100
AcDbSpline
 62
7
  6
CONTINUOUS
 70
0
 71
3
 72
11
 73
7
 74
0
 42
0.0000001
 43
0.0000001
 44
0.0000000001
 40
0.0
 40
0.0
 40
0.0
 40
0.0
 40
0.2477728266
 40
0.4971380422
 40
0.7478978534
 40
1.0
 40
1.0
 40
1.0
 40
1.0
 10
5.2203420302
 20
10.6000477918
 30
0.0
 10
5.2182552467
 20
10.6000467998
 30
0.0
 10
5.2140675181
 20
10.6001937274
 30
0.0
 10
5.2077923335
 20
10.6007754426
 30
0.0
 10
5.2015245999
 20
10.6017184546
 30
0.0
 10
5.1973795646
 20
10.6026141257
 30
0.0
 10
5.1953289162
 20
10.6031645929
 30
0.0
  0
LINE
  5
563
100
AcDbEntity
  8
0
100
AcDbLine
 62
7
  6
CONTINUOUS
 10
5.1943578995
 20
14.5966620259
 11
5.1978091364
 21
14.5975466836
  0
SPLINE
  5
564
100
AcDbEntity
  8
0
100
AcDbSpline
 62
7
  6
CONTINUOUS
 70
0
 71
3
 72
10
 73
6
 74
0
 42
0.0000001
 43
0.0000001
 44
0.0000000001
 40
0.0
 40
0.0
 40
0.0
 40
0.0
 40
0.2519617612
 40
0.502685081
 40
1.0
 40
1.0
 40
1.0
 40
1.0
 10
5.1978091364
 20
14.5975466836
 30
0.0
 10
5.1996681961
 20
14.5979725827
 30
0.0
 10
5.2034085907
 20
14.5986888589
 30
0.0
 10
5.2109106772
 20
14.5997059838
 30
0.0
 10
5.2165776209
 20
14.6000477918
 30
0.0
 10
5.2203420398
 20
14.6000477918
 30
0.0
  0
SPLINE
  5
565
100
AcDbEntity
  8
0
100
AcDbSpline
 62
7
  6
CONTINUOUS
 70
0
 71
3
 72
11
 73
7
 74
0
 42
0.0000001
 43
0.0000001
 44
0.0000000001
 40
0.0
 40
0.0
 40
0.0
 40
0.0
 40
0.2477728266
 40
0.4971380422
 40
0.7478978534
 40
1.0
 40
1.0
 40
1.0
 40
1.0
 10
5.7203420302
 20
10.6000477918
 30
0.0
 10
5.7182552467
 20
10.6000467998
 30
0.0
 10
5.7140675181
 20
10.6001937274
 30
0.0
 10
5.7077923335
 20
10.6007754426
 30
0.0
 10
5.7015245999
 20
10.6017184546
 30
0.0
 10
5.6973795646
 20
10.6026141257
 30
0.0
 10
5.6953289162
 20
10.6031645929
 30
0.0
  0
LINE
  5
566
100
AcDbEntity
  8
0
100
AcDbLine
 62
7
  6
CONTINUOUS
 10
5.6943578995
 20
14.5966620259
 11
5.6978091364
 21
14.5975466836
  0
SPLINE
  5
567
100
AcDbEntity
  8
0
100
AcDbSpline
 62
7
  6
CONTINUOUS
 70
0
 71
3
 72
10
 73
6
 74
0
 42
0.0000001
 43
0.0000001
 44
0.0000000001
 40
0.0
 40
0.0
 40
0.0
 40
0.0
 40
0.2519617612
 40
0.502685081
 40
1.0
 40
1.0
 40
1.0
 40
1.0
 10
5.6978091364
 20
14.5975466836
 30
0.0
 10
5.6996681961
 20
14.5979725827
 30
0.0
 10
5.7034085907
 20
14.5986888589
 30
0.0
 10
5.7109106772
 20
14.5997059838
 30
0.0
 10
5.7165776209
 20
14.6000477918
 30
0.0
 10
5.7203420398
 20
14.6000477918
 30
0.0
  0
SPLINE
  5
568
100
AcDbEntity
  8
0
100
AcDbSpline
 62
7
  6
CONTINUOUS
 70
0
 71
3
 72
11
 73
7
 74
0
 42
0.0000001
 43
0.0000001
 44
0.0000000001
 40
0.0
 40
0.0
 40
0.0
 40
0.0
 40
0.2477728266
 40
0.4971380422
 40
0.7478978534
 40
1.0
 40
1.0
 40
1.0
 40
1.0
 10
6.2203420302
 20
10.6000477918
 30
0.0
 10
6.2182552467
 20
10.6000467998
 30
0.0
 10
6.2140675181
 20
10.6001937274
 30
0.0
 10
6.2077923335
 20
10.6007754426
 30
0.0
 10
6.2015245999
 20
10.6017184546
 30
0.0
 10
6.1973795646
 20
10.6026141257
 30
0.0
 10
6.1953289162
 20
10.6031645929
 30
0.0
  0
LINE
  5
569
100
AcDbEntity
  8
0
100
AcDbLine
 62
7
  6
CONTINUOUS
 10
6.1943578995
 20
14.5966620259
 11
6.1978091364
 21
14.5975466836
  0
SPLINE
  5
56A
100
AcDbEntity
  8
0
100
AcDbSpline
 62
7
  6
CONTINUOUS
 70
0
 71
3
 72
10
 73
6
 74
0
 42
0.0000001
 43
0.0000001
 44
0.0000000001
 40
0.0
 40
0.0
 40
0.0
 40
0.0
 40
0.2519617612
 40
0.502685081
 40
1.0
 40
1.0
 40
1.0
 40
1.0
 10
6.1978091364
 20
14.5975466836
 30
0.0
 10
6.1996681961
 20
14.5979725827
 30
0.0
 10
6.2034085907
 20
14.5986888589
 30
0.0
 10
6.2109106772
 20
14.5997059838
 30
0.0
 10
6.2165776209
 20
14.6000477918
 30
0.0
 10
6.2203420398
 20
14.6000477918
 30
0.0
  0
SPLINE
  5
56B
100
AcDbEntity
  8
0
100
AcDbSpline
 62
7
  6
CONTINUOUS
 70
0
 71
3
 72
11
 73
7
 74
0
 42
0.0000001
 43
0.0000001
 44
0.0000000001
 40
0.0
 40
0.0
 40
0.0
 40
0.0
 40
0.2477728266
 40
0.4971380422
 40
0.7478978534
 40
1.0
 40
1.0
 40
1.0
 40
1.0
 10
6.7203420302
 20
10.6000477918
 30
0.0
 10
6.7182552467
 20
10.6000467998
 30
0.0
 10
6.7140675181
 20
10.6001937274
 30
0.0
 10
6.7077923335
 20
10.6007754426
 30
0.0
 10
6.7015245999
 20
10.6017184546
 30
0.0
 10
6.6973795646
 20
10.6026141257
 30
0.0
 10
6.6953289162
 20
10.6031645929
 30
0.0
  0
LINE
  5
56C
100
AcDbEntity
  8
0
100
AcDbLine
 62
7
  6
CONTINUOUS
 10
6.6943578995
 20
14.5966620259
 11
6.6978091364
 21
14.5975466836
  0
SPLINE
  5
56D
100
AcDbEntity
  8
0
100
AcDbSpline
 62
7
  6
CONTINUOUS
 70
0
 71
3
 72
10
 73
6
 74
0
 42
0.0000001
 43
0.0000001
 44
0.0000000001
 40
0.0
 40
0.0
 40
0.0
 40
0.0
 40
0.2519617612
 40
0.502685081
 40
1.0
 40
1.0
 40
1.0
 40
1.0
 10
6.6978091364
 20
14.5975466836
 30
0.0
 10
6.6996681961
 20
14.5979725827
 30
0.0
 10
6.7034085907
 20
14.5986888589
 30
0.0
 10
6.7109106772
 20
14.5997059838
 30
0.0
 10
6.7165776209
 20
14.6000477918
 30
0.0
 10
6.7203420398
 20
14.6000477918
 30
0.0
  0
SPLINE
  5
56E
100
AcDbEntity
  8
0
100
AcDbSpline
 62
7
  6
CONTINUOUS
 70
0
 71
3
 72
11
 73
7
 74
0
 42
0.0000001
 43
0.0000001
 44
0.0000000001
 40
0.0
 40
0.0
 40
0.0
 40
0.0
 40
0.2477728266
 40
0.4971380422
 40
0.7478978534
 40
1.0
 40
1.0
 40
1.0
 40
1.0
 10
7.2203420302
 20
10.6000477918
 30
0.0
 10
7.2182552467
 20
10.6000467998
 30
0.0
 10
7.2140675181
 20
10.6001937274
 30
0.0
 10
7.2077923335
 20
10.6007754426
 30
0.0
 10
7.2015245999
 20
10.6017184546
 30
0.0
 10
7.1973795646
 20
10.6026141257
 30
0.0
 10
7.1953289162
 20
10.6031645929
 30
0.0
  0
LINE
  5
56F
100
AcDbEntity
  8
0
100
AcDbLine
 62
7
  6
CONTINUOUS
 10
7.1943578995
 20
14.5966620259
 11
7.1978091364
 21
14.5975466836
  0
SPLINE
  5
570
100
AcDbEntity
  8
0
100
AcDbSpline
 62
7
  6
CONTINUOUS
 70
0
 71
3
 72
10
 73
6
 74
0
 42
0.0000001
 43
0.0000001
 44
0.0000000001
 40
0.0
 40
0.0
 40
0.0
 40
0.0
 40
0.2519617612
 40
0.502685081
 40
1.0
 40
1.0
 40
1.0
 40
1.0
 10
7.1978091364
 20
14.5975466836
 30
0.0
 10
7.1996681961
 20
14.5979725827
 30
0.0
 10
7.2034085907
 20
14.5986888589
 30
0.0
 10
7.2109106772
 20
14.5997059838
 30
0.0
 10
7.2165776209
 20
14.6000477918
 30
0.0
 10
7.2203420398
 20
14.6000477918
 30
0.0
  0
SPLINE
  5
571
100
AcDbEntity
  8
0
100
AcDbSpline
 62
7
  6
CONTINUOUS
 70
0
 71
3
 72
11
 73
7
 74
0
 42
0.0000001
 43
0.0000001
 44
0.0000000001
 40
0.0
 40
0.0
 40
0.0
 40
0.0
 40
0.2477728266
 40
0.4971380422
 40
0.7478978534
 40
1.0
 40
1.0
 40
1.0
 40
1.0
 10
7.7203420302
 20
10.6000477918
 30
0.0
 10
7.7182552467
 20
10.6000467998
 30
0.0
 10
7.7140675181
 20
10.6001937274
 30
0.0
 10
7.7077923335
 20
10.6007754426
 30
0.0
 10
7.7015245999
 20
10.6017184546
 30
0.0
 10
7.6973795646
 20
10.6026141257
 30
0.0
 10
7.6953289162
 20
10.6031645929
 30
0.0
  0
LINE
  5
572
100
AcDbEntity
  8
0
100
AcDbLine
 62
7
  6
CONTINUOUS
 10
7.6943578995
 20
14.5966620259
 11
7.6978091364
 21
14.5975466836
  0
SPLINE
  5
573
100
AcDbEntity
  8
0
100
AcDbSpline
 62
7
  6
CONTINUOUS
 70
0
 71
3
 72
10
 73
6
 74
0
 42
0.0000001
 43
0.0000001
 44
0.0000000001
 40
0.0
 40
0.0
 40
0.0
 40
0.0
 40
0.2519617612
 40
0.502685081
 40
1.0
 40
1.0
 40
1.0
 40
1.0
 10
7.6978091364
 20
14.5975466836
 30
0.0
 10
7.6996681961
 20
14.5979725827
 30
0.0
 10
7.7034085907
 20
14.5986888589
 30
0.0
 10
7.7109106772
 20
14.5997059838
 30
0.0
 10
7.7165776209
 20
14.6000477918
 30
0.0
 10
7.7203420398
 20
14.6000477918
 30
0.0
  0
SPLINE
  5
574
100
AcDbEntity
  8
0
100
AcDbSpline
 62
7
  6
CONTINUOUS
 70
0
 71
3
 72
13
 73
9
 74
0
 42
0.0000001
 43
0.0000001
 44
0.0000000001
 40
0.0
 40
0.0
 40
0.0
 40
0.0
 40
0.1003598295
 40
0.2124130802
 40
0.3346166095
 40
0.4646668268
 40
0.7360987451
 40
1.0
 40
1.0
 40
1.0
 40
1.0
 10
14.2528565566
 20
13.8659186663
 30
0.0
 10
14.2532124101
 20
13.8652029429
 30
0.0
 10
14.2541543122
 20
13.8637801237
 30
0.0
 10
14.2560074004
 20
13.8618501475
 30
0.0
 10
14.2583196131
 20
13.8600806973
 30
0.0
 10
14.2619385545
 20
13.8579887389
 30
0.0
 10
14.2669616615
 20
13.8561639694
 30
0.0
 10
14.2712342534
 20
13.8555976182
 30
0.0
 10
14.2733360625
 20
13.855603803
 30
0.0
  0
SPLINE
  5
575
100
AcDbEntity
  8
0
100
AcDbSpline
 62
7
  6
CONTINUOUS
 70
0
 71
3
 72
11
 73
7
 74
0
 42
0.0000001
 43
0.0000001
 44
0.0000000001
 40
0.0
 40
0.0
 40
0.0
 40
0.0
 40
0.2021992833
 40
0.4299532744
 40
0.6964927603
 40
1.0
 40
1.0
 40
1.0
 40
1.0
 10
14.0288233668
 20
14.267290653
 30
0.0
 10
14.028951791
 20
14.2677054079
 30
0.0
 10
14.0294523302
 20
14.2685258456
 30
0.0
 10
14.0307115393
 20
14.2693881375
 30
0.0
 10
14.0323627636
 20
14.2699059042
 30
0.0
 10
14.0335914609
 20
14.2700103503
 30
0.0
 10
14.0342431819
 20
14.2700103503
 30
0.0
  0
SPLINE
  5
576
100
AcDbEntity
  8
0
100
AcDbSpline
 62
7
  6
CONTINUOUS
 70
0
 71
3
 72
11
 73
7
 74
0
 42
0.0000001
 43
0.0000001
 44
0.0000000001
 40
0.0
 40
0.0
 40
0.0
 40
0.0
 40
0.2117562204
 40
0.4637078818
 40
0.7355003645
 40
1.0
 40
1.0
 40
1.0
 40
1.0
 10
14.0545088437
 20
14.2648528695
 30
0.0
 10
14.0541350099
 20
14.2656047566
 30
0.0
 10
14.0529076936
 20
14.2670425022
 30
0.0
 10
14.0504403575
 20
14.2686412692
 30
0.0
 10
14.0474822318
 20
14.2697237223
 30
0.0
 10
14.0453513261
 20
14.2700103503
 30
0.0
 10
14.0443024845
 20
14.2700103503
 30
0.0
  0
SPLINE
  5
577
100
AcDbEntity
  8
0
100
AcDbSpline
 62
7
  6
CONTINUOUS
 70
0
 71
3
 72
17
 73
13
 74
0
 42
0.0000001
 43
0.0000001
 44
0.0000000001
 40
0.0
 40
0.0
 40
0.0
 40
0.0
 40
0.1452107826
 40
0.2964632408
 40
0.4472652708
 40
0.5912823979
 40
0.7224843162
 40
0.8356850144
 40
0.8844910564
 40
0.9277504786
 40
0.9658972446
 40
1.0
 40
1.0
 40
1.0
 40
1.0
 10
13.5927781445
 20
10.7528764406
 30
0.0
 10
13.5885809149
 20
10.7555851295
 30
0.0
 10
13.579562951
 20
10.7604390729
 30
0.0
 10
13.5651089581
 20
10.7658363158
 30
0.0
 10
13.5501055803
 20
10.7692713769
 30
0.0
 10
13.535453092
 20
10.7705533917
 30
0.0
 10
13.5220651725
 20
10.7696536388
 30
0.0
 10
13.5122122259
 20
10.7670999076
 30
0.0
 10
13.505824055
 20
10.7640457946
 30
0.0
 10
13.502080089
 20
10.7615532005
 30
0.0
 10
13.4991741729
 20
10.7588136866
 30
0.0
 10
13.497708813
 20
10.7567821451
 30
0.0
 10
13.4971293338
 20
10.7557620886
 30
0.0
  0
SPLINE
  5
578
100
AcDbEntity
  8
0
100
AcDbSpline
 62
7
  6
CONTINUOUS
 70
0
 71
3
 72
9
 73
5
 74
0
 42
0.0000001
 43
0.0000001
 44
0.0000000001
 40
0.0
 40
0.0
 40
0.0
 40
0.0
 40
0.2510319562
 40
1.0
 40
1.0
 40
1.0
 40
1.0
 10
13.4951264058
 20
10.7534008802
 30
0.0
 10
13.4953283041
 20
10.7535645869
 30
0.0
 10
13.496101337
 20
10.7542543093
 30
0.0
 10
13.4967462732
 20
10.7550877874
 30
0.0
 10
13.4971293338
 20
10.7557620886
 30
0.0
  0
SPLINE
  5
579
100
AcDbEntity
  8
0
100
AcDbSpline
 62
7
  6
CONTINUOUS
 70
0
 71
3
 72
9
 73
5
 74
0
 42
0.0000001
 43
0.0000001
 44
0.0000000001
 40
0.0
 40
0.0
 40
0.0
 40
0.0
 40
0.5257528333
 40
1.0
 40
1.0
 40
1.0
 40
1.0
 10
13.1793191893
 20
10.789179615
 30
0.0
 10
13.1793086853
 20
10.7900431998
 30
0.0
 10
13.1793813399
 20
10.7916880672
 30
0.0
 10
13.1796595732
 20
10.7933143606
 30
0.0
 10
13.1798612131
 20
10.7940668537
 30
0.0
  0
SPLINE
  5
57A
100
AcDbEntity
  8
0
100
AcDbSpline
 62
7
  6
CONTINUOUS
 70
0
 71
3
 72
9
 73
5
 74
0
 42
0.0000001
 43
0.0000001
 44
0.0000000001
 40
0.0
 40
0.0
 40
0.0
 40
0.0
 40
0.4996535196
 40
1.0
 40
1.0
 40
1.0
 40
1.0
 10
13.6574349843
 20
10.7515449721
 30
0.0
 10
13.6585660967
 20
10.7515449721
 30
0.0
 10
13.660853926
 20
10.752016399
 30
0.0
 10
13.6627609778
 20
10.7533675417
 30
0.0
 10
13.6635318667
 20
10.7541974191
 30
0.0
  0
SPLINE
  5
57B
100
AcDbEntity
  8
0
100
AcDbSpline
 62
7
  6
CONTINUOUS
 70
0
 71
3
 72
9
 73
5
 74
0
 42
0.0000001
 43
0.0000001
 44
0.0000000001
 40
0.0
 40
0.0
 40
0.0
 40
0.0
 40
0.2514907712
 40
1.0
 40
1.0
 40
1.0
 40
1.0
 10
13.6635318667
 20
10.7541974191
 30
0.0
 10
13.6637451866
 20
10.7544270622
 30
0.0
 10
13.6645404955
 20
10.7553878941
 30
0.0
 10
13.6651213966
 20
10.756526625
 30
0.0
 10
13.6653968247
 20
10.7574179107
 30
0.0
  0
SPLINE
  5
57C
100
AcDbEntity
  8
0
100
AcDbSpline
 62
7
  6
CONTINUOUS
 70
0
 71
3
 72
8
 73
4
 74
0
 42
0.0000001
 43
0.0000001
 44
0.0000000001
 40
0.0
 40
0.0
 40
0.0
 40
0.0
 40
1.0
 40
1.0
 40
1.0
 40
1.0
 10
13.5927781445
 20
10.7528764406
 30
0.0
 10
13.5936667041
 20
10.7523030071
 30
0.0
 10
13.5946840403
 20
10.7518946743
 30
0.0
 10
13.5957225501
 20
10.7516950205
 30
0.0
  0
SPLINE
  5
57D
100
AcDbEntity
  8
0
100
AcDbSpline
 62
7
  6
CONTINUOUS
 70
0
 71
3
 72
8
 73
4
 74
0
 42
0.0000001
 43
0.0000001
 44
0.0000000001
 40
0.0
 40
0.0
 40
0.0
 40
0.0
 40
1.0
 40
1.0
 40
1.0
 40
1.0
 10
13.2575729592
 20
10.753070487
 30
0.0
 10
13.2585012371
 20
10.7524151605
 30
0.0
 10
13.2595879777
 20
10.7519442917
 30
0.0
 10
13.2607010269
 20
10.7517156562
 30
0.0
  0
LINE
  5
57E
100
AcDbEntity
  8
0
100
AcDbLine
 62
7
  6
CONTINUOUS
 10
13.1872833392
 20
10.7865049307
 11
13.1793191999
 21
10.7891805527
  0
SPLINE
  5
57F
100
AcDbEntity
  8
0
100
AcDbSpline
 62
7
  6
CONTINUOUS
 70
0
 71
3
 72
11
 73
7
 74
0
 42
0.0000001
 43
0.0000001
 44
0.0000000001
 40
0.0
 40
0.0
 40
0.0
 40
0.0
 40
0.2530662027
 40
0.3788190087
 40
0.5041417264
 40
1.0
 40
1.0
 40
1.0
 40
1.0
 10
13.204478114
 20
10.7823590464
 30
0.0
 10
13.2030108681
 20
10.7826328227
 30
0.0
 10
13.2008230871
 20
10.7830877742
 30
0.0
 10
13.1979176593
 20
10.7837200619
 30
0.0
 10
13.1936293229
 20
10.7847289954
 30
0.0
 10
13.1900869569
 20
10.7856726568
 30
0.0
 10
13.1872833392
 20
10.7865049307
 30
0.0
  0
SPLINE
  5
580
100
AcDbEntity
  8
0
100
AcDbSpline
 62
7
  6
CONTINUOUS
 70
0
 71
3
 72
13
 73
9
 74
0
 42
0.0000001
 43
0.0000001
 44
0.0000000001
 40
0.0
 40
0.0
 40
0.0
 40
0.0
 40
0.1003598295
 40
0.2124130802
 40
0.3346166095
 40
0.4646668268
 40
0.7360987451
 40
1.0
 40
1.0
 40
1.0
 40
1.0
 10
14.7133870536
 20
13.8659186663
 30
0.0
 10
14.7137429071
 20
13.8652029429
 30
0.0
 10
14.7146848092
 20
13.8637801237
 30
0.0
 10
14.7165378974
 20
13.8618501475
 30
0.0
 10
14.7188501101
 20
13.8600806973
 30
0.0
 10
14.7224690515
 20
13.8579887389
 30
0.0
 10
14.7274921585
 20
13.8561639694
 30
0.0
 10
14.7317647505
 20
13.8555976182
 30
0.0
 10
14.7338665595
 20
13.855603803
 30
0.0
  0
SPLINE
  5
581
100
AcDbEntity
  8
0
100
AcDbSpline
 62
7
  6
CONTINUOUS
 70
0
 71
3
 72
11
 73
7
 74
0
 42
0.0000001
 43
0.0000001
 44
0.0000000001
 40
0.0
 40
0.0
 40
0.0
 40
0.0
 40
0.2021992833
 40
0.4299532744
 40
0.6964927603
 40
1.0
 40
1.0
 40
1.0
 40
1.0
 10
14.4893538638
 20
14.267290653
 30
0.0
 10
14.489482288
 20
14.2677054079
 30
0.0
 10
14.4899828272
 20
14.2685258456
 30
0.0
 10
14.4912420363
 20
14.2693881375
 30
0.0
 10
14.4928932606
 20
14.2699059042
 30
0.0
 10
14.4941219579
 20
14.2700103503
 30
0.0
 10
14.4947736789
 20
14.2700103503
 30
0.0
  0
SPLINE
  5
582
100
AcDbEntity
  8
0
100
AcDbSpline
 62
7
  6
CONTINUOUS
 70
0
 71
3
 72
11
 73
7
 74
0
 42
0.0000001
 43
0.0000001
 44
0.0000000001
 40
0.0
 40
0.0
 40
0.0
 40
0.0
 40
0.2117562204
 40
0.4637078818
 40
0.7355003645
 40
1.0
 40
1.0
 40
1.0
 40
1.0
 10
14.5150393407
 20
14.2648528695
 30
0.0
 10
14.5146655069
 20
14.2656047566
 30
0.0
 10
14.5134381906
 20
14.2670425022
 30
0.0
 10
14.5109708545
 20
14.2686412692
 30
0.0
 10
14.5080127288
 20
14.2697237223
 30
0.0
 10
14.5058818231
 20
14.2700103503
 30
0.0
 10
14.5048329815
 20
14.2700103503
 30
0.0
  0
SPLINE
  5
583
100
AcDbEntity
  8
0
100
AcDbSpline
 62
7
  6
CONTINUOUS
 70
0
 71
3
 72
17
 73
13
 74
0
 42
0.0000001
 43
0.0000001
 44
0.0000000001
 40
0.0
 40
0.0
 40
0.0
 40
0.0
 40
0.1452107826
 40
0.2964632408
 40
0.4472652708
 40
0.5912823979
 40
0.7224843162
 40
0.8356850144
 40
0.8844910564
 40
0.9277504786
 40
0.9658972446
 40
1.0
 40
1.0
 40
1.0
 40
1.0
 10
14.0533086415
 20
10.7528764406
 30
0.0
 10
14.0491114119
 20
10.7555851295
 30
0.0
 10
14.040093448
 20
10.7604390729
 30
0.0
 10
14.0256394551
 20
10.7658363158
 30
0.0
 10
14.0106360773
 20
10.7692713769
 30
0.0
 10
13.995983589
 20
10.7705533917
 30
0.0
 10
13.9825956695
 20
10.7696536388
 30
0.0
 10
13.9727427229
 20
10.7670999076
 30
0.0
 10
13.966354552
 20
10.7640457946
 30
0.0
 10
13.962610586
 20
10.7615532005
 30
0.0
 10
13.9597046699
 20
10.7588136866
 30
0.0
 10
13.95823931
 20
10.7567821451
 30
0.0
 10
13.9576598308
 20
10.7557620886
 30
0.0
  0
SPLINE
  5
584
100
AcDbEntity
  8
0
100
AcDbSpline
 62
7
  6
CONTINUOUS
 70
0
 71
3
 72
9
 73
5
 74
0
 42
0.0000001
 43
0.0000001
 44
0.0000000001
 40
0.0
 40
0.0
 40
0.0
 40
0.0
 40
0.2510319562
 40
1.0
 40
1.0
 40
1.0
 40
1.0
 10
13.9556569028
 20
10.7534008802
 30
0.0
 10
13.9558588011
 20
10.7535645869
 30
0.0
 10
13.956631834
 20
10.7542543093
 30
0.0
 10
13.9572767702
 20
10.7550877874
 30
0.0
 10
13.9576598308
 20
10.7557620886
 30
0.0
  0
SPLINE
  5
585
100
AcDbEntity
  8
0
100
AcDbSpline
 62
7
  6
CONTINUOUS
 70
0
 71
3
 72
9
 73
5
 74
0
 42
0.0000001
 43
0.0000001
 44
0.0000000001
 40
0.0
 40
0.0
 40
0.0
 40
0.0
 40
0.5257528333
 40
1.0
 40
1.0
 40
1.0
 40
1.0
 10
13.6398496863
 20
10.789179615
 30
0.0
 10
13.6398391823
 20
10.7900431998
 30
0.0
 10
13.6399118369
 20
10.7916880672
 30
0.0
 10
13.6401900702
 20
10.7933143606
 30
0.0
 10
13.6403917101
 20
10.7940668537
 30
0.0
  0
SPLINE
  5
586
100
AcDbEntity
  8
0
100
AcDbSpline
 62
7
  6
CONTINUOUS
 70
0
 71
3
 72
9
 73
5
 74
0
 42
0.0000001
 43
0.0000001
 44
0.0000000001
 40
0.0
 40
0.0
 40
0.0
 40
0.0
 40
0.4996535196
 40
1.0
 40
1.0
 40
1.0
 40
1.0
 10
14.1179654813
 20
10.7515449721
 30
0.0
 10
14.1190965937
 20
10.7515449721
 30
0.0
 10
14.121384423
 20
10.752016399
 30
0.0
 10
14.1232914748
 20
10.7533675417
 30
0.0
 10
14.1240623637
 20
10.7541974191
 30
0.0
  0
SPLINE
  5
587
100
AcDbEntity
  8
0
100
AcDbSpline
 62
7
  6
CONTINUOUS
 70
0
 71
3
 72
9
 73
5
 74
0
 42
0.0000001
 43
0.0000001
 44
0.0000000001
 40
0.0
 40
0.0
 40
0.0
 40
0.0
 40
0.2514907712
 40
1.0
 40
1.0
 40
1.0
 40
1.0
 10
14.1240623637
 20
10.7541974191
 30
0.0
 10
14.1242756836
 20
10.7544270622
 30
0.0
 10
14.1250709925
 20
10.7553878941
 30
0.0
 10
14.1256518936
 20
10.756526625
 30
0.0
 10
14.1259273217
 20
10.7574179107
 30
0.0
  0
SPLINE
  5
588
100
AcDbEntity
  8
0
100
AcDbSpline
 62
7
  6
CONTINUOUS
 70
0
 71
3
 72
8
 73
4
 74
0
 42
0.0000001
 43
0.0000001
 44
0.0000000001
 40
0.0
 40
0.0
 40
0.0
 40
0.0
 40
1.0
 40
1.0
 40
1.0
 40
1.0
 10
14.0533086415
 20
10.7528764406
 30
0.0
 10
14.0541972011
 20
10.7523030071
 30
0.0
 10
14.0552145373
 20
10.7518946743
 30
0.0
 10
14.0562530471
 20
10.7516950205
 30
0.0
  0
SPLINE
  5
589
100
AcDbEntity
  8
0
100
AcDbSpline
 62
7
  6
CONTINUOUS
 70
0
 71
3
 72
8
 73
4
 74
0
 42
0.0000001
 43
0.0000001
 44
0.0000000001
 40
0.0
 40
0.0
 40
0.0
 40
0.0
 40
1.0
 40
1.0
 40
1.0
 40
1.0
 10
13.7181034562
 20
10.753070487
 30
0.0
 10
13.7190317341
 20
10.7524151605
 30
0.0
 10
13.7201184747
 20
10.7519442917
 30
0.0
 10
13.7212315239
 20
10.7517156562
 30
0.0
  0
LINE
  5
58A
100
AcDbEntity
  8
0
100
AcDbLine
 62
7
  6
CONTINUOUS
 10
13.6478138362
 20
10.7865049307
 11
13.6398496969
 21
10.7891805527
  0
SPLINE
  5
58B
100
AcDbEntity
  8
0
100
AcDbSpline
 62
7
  6
CONTINUOUS
 70
0
 71
3
 72
11
 73
7
 74
0
 42
0.0000001
 43
0.0000001
 44
0.0000000001
 40
0.0
 40
0.0
 40
0.0
 40
0.0
 40
0.2530662027
 40
0.3788190087
 40
0.5041417264
 40
1.0
 40
1.0
 40
1.0
 40
1.0
 10
13.665008611
 20
10.7823590464
 30
0.0
 10
13.6635413651
 20
10.7826328227
 30
0.0
 10
13.6613535841
 20
10.7830877742
 30
0.0
 10
13.6584481563
 20
10.7837200619
 30
0.0
 10
13.6541598199
 20
10.7847289954
 30
0.0
 10
13.6506174539
 20
10.7856726568
 30
0.0
 10
13.6478138362
 20
10.7865049307
 30
0.0
  0
SPLINE
  5
58C
100
AcDbEntity
  8
0
100
AcDbSpline
 62
7
  6
CONTINUOUS
 70
0
 71
3
 72
13
 73
9
 74
0
 42
0.0000001
 43
0.0000001
 44
0.0000000001
 40
0.0
 40
0.0
 40
0.0
 40
0.0
 40
0.1003598295
 40
0.2124130802
 40
0.3346166095
 40
0.4646668268
 40
0.7360987451
 40
1.0
 40
1.0
 40
1.0
 40
1.0
 10
15.1739175506
 20
13.8659186663
 30
0.0
 10
15.1742734041
 20
13.8652029429
 30
0.0
 10
15.1752153062
 20
13.8637801237
 30
0.0
 10
15.1770683944
 20
13.8618501475
 30
0.0
 10
15.1793806071
 20
13.8600806973
 30
0.0
 10
15.1829995485
 20
13.8579887389
 30
0.0
 10
15.1880226555
 20
13.8561639694
 30
0.0
 10
15.1922952475
 20
13.8555976182
 30
0.0
 10
15.1943970565
 20
13.855603803
 30
0.0
  0
SPLINE
  5
58D
100
AcDbEntity
  8
0
100
AcDbSpline
 62
7
  6
CONTINUOUS
 70
0
 71
3
 72
11
 73
7
 74
0
 42
0.0000001
 43
0.0000001
 44
0.0000000001
 40
0.0
 40
0.0
 40
0.0
 40
0.0
 40
0.2021992833
 40
0.4299532744
 40
0.6964927603
 40
1.0
 40
1.0
 40
1.0
 40
1.0
 10
14.9498843608
 20
14.267290653
 30
0.0
 10
14.950012785
 20
14.2677054079
 30
0.0
 10
14.9505133242
 20
14.2685258456
 30
0.0
 10
14.9517725333
 20
14.2693881375
 30
0.0
 10
14.9534237576
 20
14.2699059042
 30
0.0
 10
14.9546524549
 20
14.2700103503
 30
0.0
 10
14.9553041759
 20
14.2700103503
 30
0.0
  0
SPLINE
  5
58E
100
AcDbEntity
  8
0
100
AcDbSpline
 62
7
  6
CONTINUOUS
 70
0
 71
3
 72
11
 73
7
 74
0
 42
0.0000001
 43
0.0000001
 44
0.0000000001
 40
0.0
 40
0.0
 40
0.0
 40
0.0
 40
0.2117562204
 40
0.4637078818
 40
0.7355003645
 40
1.0
 40
1.0
 40
1.0
 40
1.0
 10
14.9755698377
 20
14.2648528695
 30
0.0
 10
14.9751960039
 20
14.2656047566
 30
0.0
 10
14.9739686876
 20
14.2670425022
 30
0.0
 10
14.9715013515
 20
14.2686412692
 30
0.0
 10
14.9685432258
 20
14.2697237223
 30
0.0
 10
14.9664123201
 20
14.2700103503
 30
0.0
 10
14.9653634785
 20
14.2700103503
 30
0.0
  0
SPLINE
  5
58F
100
AcDbEntity
  8
0
100
AcDbSpline
 62
7
  6
CONTINUOUS
 70
0
 71
3
 72
17
 73
13
 74
0
 42
0.0000001
 43
0.0000001
 44
0.0000000001
 40
0.0
 40
0.0
 40
0.0
 40
0.0
 40
0.1452107826
 40
0.2964632408
 40
0.4472652708
 40
0.5912823979
 40
0.7224843162
 40
0.8356850144
 40
0.8844910564
 40
0.9277504786
 40
0.9658972446
 40
1.0
 40
1.0
 40
1.0
 40
1.0
 10
14.5138391385
 20
10.7528764406
 30
0.0
 10
14.5096419089
 20
10.7555851295
 30
0.0
 10
14.500623945
 20
10.7604390729
 30
0.0
 10
14.4861699521
 20
10.7658363158
 30
0.0
 10
14.4711665743
 20
10.7692713769
 30
0.0
 10
14.456514086
 20
10.7705533917
 30
0.0
 10
14.4431261665
 20
10.7696536388
 30
0.0
 10
14.4332732199
 20
10.7670999076
 30
0.0
 10
14.426885049
 20
10.7640457946
 30
0.0
 10
14.423141083
 20
10.7615532005
 30
0.0
 10
14.4202351669
 20
10.7588136866
 30
0.0
 10
14.418769807
 20
10.7567821451
 30
0.0
 10
14.4181903278
 20
10.7557620886
 30
0.0
  0
SPLINE
  5
590
100
AcDbEntity
  8
0
100
AcDbSpline
 62
7
  6
CONTINUOUS
 70
0
 71
3
 72
9
 73
5
 74
0
 42
0.0000001
 43
0.0000001
 44
0.0000000001
 40
0.0
 40
0.0
 40
0.0
 40
0.0
 40
0.2510319562
 40
1.0
 40
1.0
 40
1.0
 40
1.0
 10
14.4161873998
 20
10.7534008802
 30
0.0
 10
14.4163892981
 20
10.7535645869
 30
0.0
 10
14.417162331
 20
10.7542543093
 30
0.0
 10
14.4178072672
 20
10.7550877874
 30
0.0
 10
14.4181903278
 20
10.7557620886
 30
0.0
  0
SPLINE
  5
591
100
AcDbEntity
  8
0
100
AcDbSpline
 62
7
  6
CONTINUOUS
 70
0
 71
3
 72
9
 73
5
 74
0
 42
0.0000001
 43
0.0000001
 44
0.0000000001
 40
0.0
 40
0.0
 40
0.0
 40
0.0
 40
0.5257528333
 40
1.0
 40
1.0
 40
1.0
 40
1.0
 10
14.1003801833
 20
10.789179615
 30
0.0
 10
14.1003696793
 20
10.7900431998
 30
0.0
 10
14.1004423339
 20
10.7916880672
 30
0.0
 10
14.1007205672
 20
10.7933143606
 30
0.0
 10
14.1009222071
 20
10.7940668537
 30
0.0
  0
SPLINE
  5
592
100
AcDbEntity
  8
0
100
AcDbSpline
 62
7
  6
CONTINUOUS
 70
0
 71
3
 72
9
 73
5
 74
0
 42
0.0000001
 43
0.0000001
 44
0.0000000001
 40
0.0
 40
0.0
 40
0.0
 40
0.0
 40
0.4996535196
 40
1.0
 40
1.0
 40
1.0
 40
1.0
 10
14.5784959783
 20
10.7515449721
 30
0.0
 10
14.5796270907
 20
10.7515449721
 30
0.0
 10
14.58191492
 20
10.752016399
 30
0.0
 10
14.5838219718
 20
10.7533675417
 30
0.0
 10
14.5845928607
 20
10.7541974191
 30
0.0
  0
SPLINE
  5
593
100
AcDbEntity
  8
0
100
AcDbSpline
 62
7
  6
CONTINUOUS
 70
0
 71
3
 72
9
 73
5
 74
0
 42
0.0000001
 43
0.0000001
 44
0.0000000001
 40
0.0
 40
0.0
 40
0.0
 40
0.0
 40
0.2514907712
 40
1.0
 40
1.0
 40
1.0
 40
1.0
 10
14.5845928607
 20
10.7541974191
 30
0.0
 10
14.5848061806
 20
10.7544270622
 30
0.0
 10
14.5856014895
 20
10.7553878941
 30
0.0
 10
14.5861823906
 20
10.756526625
 30
0.0
 10
14.5864578187
 20
10.7574179107
 30
0.0
  0
SPLINE
  5
594
100
AcDbEntity
  8
0
100
AcDbSpline
 62
7
  6
CONTINUOUS
 70
0
 71
3
 72
8
 73
4
 74
0
 42
0.0000001
 43
0.0000001
 44
0.0000000001
 40
0.0
 40
0.0
 40
0.0
 40
0.0
 40
1.0
 40
1.0
 40
1.0
 40
1.0
 10
14.5138391385
 20
10.7528764406
 30
0.0
 10
14.5147276981
 20
10.7523030071
 30
0.0
 10
14.5157450343
 20
10.7518946743
 30
0.0
 10
14.5167835441
 20
10.7516950205
 30
0.0
  0
SPLINE
  5
595
100
AcDbEntity
  8
0
100
AcDbSpline
 62
7
  6
CONTINUOUS
 70
0
 71
3
 72
8
 73
4
 74
0
 42
0.0000001
 43
0.0000001
 44
0.0000000001
 40
0.0
 40
0.0
 40
0.0
 40
0.0
 40
1.0
 40
1.0
 40
1.0
 40
1.0
 10
14.1786339532
 20
10.753070487
 30
0.0
 10
14.1795622311
 20
10.7524151605
 30
0.0
 10
14.1806489717
 20
10.7519442917
 30
0.0
 10
14.1817620209
 20
10.7517156562
 30
0.0
  0
LINE
  5
596
100
AcDbEntity
  8
0
100
AcDbLine
 62
7
  6
CONTINUOUS
 10
14.1083443332
 20
10.7865049307
 11
14.1003801939
 21
10.7891805527
  0
SPLINE
  5
597
100
AcDbEntity
  8
0
100
AcDbSpline
 62
7
  6
CONTINUOUS
 70
0
 71
3
 72
11
 73
7
 74
0
 42
0.0000001
 43
0.0000001
 44
0.0000000001
 40
0.0
 40
0.0
 40
0.0
 40
0.0
 40
0.2530662027
 40
0.3788190087
 40
0.5041417264
 40
1.0
 40
1.0
 40
1.0
 40
1.0
 10
14.1255391081
 20
10.7823590464
 30
0.0
 10
14.1240718621
 20
10.7826328227
 30
0.0
 10
14.1218840811
 20
10.7830877742
 30
0.0
 10
14.1189786533
 20
10.7837200619
 30
0.0
 10
14.1146903169
 20
10.7847289954
 30
0.0
 10
14.1111479509
 20
10.7856726568
 30
0.0
 10
14.1083443332
 20
10.7865049307
 30
0.0
  0
SPLINE
  5
598
100
AcDbEntity
  8
0
100
AcDbSpline
 62
7
  6
CONTINUOUS
 70
0
 71
3
 72
13
 73
9
 74
0
 42
0.0000001
 43
0.0000001
 44
0.0000000001
 40
0.0
 40
0.0
 40
0.0
 40
0.0
 40
0.1003598295
 40
0.2124130802
 40
0.3346166095
 40
0.4646668268
 40
0.7360987451
 40
1.0
 40
1.0
 40
1.0
 40
1.0
 10
15.6344480477
 20
13.8659186663
 30
0.0
 10
15.6348039011
 20
13.8652029429
 30
0.0
 10
15.6357458032
 20
13.8637801237
 30
0.0
 10
15.6375988914
 20
13.8618501475
 30
0.0
 10
15.6399111041
 20
13.8600806973
 30
0.0
 10
15.6435300455
 20
13.8579887389
 30
0.0
 10
15.6485531525
 20
13.8561639694
 30
0.0
 10
15.6528257445
 20
13.8555976182
 30
0.0
 10
15.6549275535
 20
13.855603803
 30
0.0
  0
SPLINE
  5
599
100
AcDbEntity
  8
0
100
AcDbSpline
 62
7
  6
CONTINUOUS
 70
0
 71
3
 72
11
 73
7
 74
0
 42
0.0000001
 43
0.0000001
 44
0.0000000001
 40
0.0
 40
0.0
 40
0.0
 40
0.0
 40
0.2021992833
 40
0.4299532744
 40
0.6964927603
 40
1.0
 40
1.0
 40
1.0
 40
1.0
 10
15.4104148578
 20
14.267290653
 30
0.0
 10
15.410543282
 20
14.2677054079
 30
0.0
 10
15.4110438212
 20
14.2685258456
 30
0.0
 10
15.4123030303
 20
14.2693881375
 30
0.0
 10
15.4139542547
 20
14.2699059042
 30
0.0
 10
15.4151829519
 20
14.2700103503
 30
0.0
 10
15.4158346729
 20
14.2700103503
 30
0.0
  0
SPLINE
  5
59A
100
AcDbEntity
  8
0
100
AcDbSpline
 62
7
  6
CONTINUOUS
 70
0
 71
3
 72
11
 73
7
 74
0
 42
0.0000001
 43
0.0000001
 44
0.0000000001
 40
0.0
 40
0.0
 40
0.0
 40
0.0
 40
0.2117562204
 40
0.4637078818
 40
0.7355003645
 40
1.0
 40
1.0
 40
1.0
 40
1.0
 10
15.4361003347
 20
14.2648528695
 30
0.0
 10
15.4357265009
 20
14.2656047566
 30
0.0
 10
15.4344991846
 20
14.2670425022
 30
0.0
 10
15.4320318485
 20
14.2686412692
 30
0.0
 10
15.4290737228
 20
14.2697237223
 30
0.0
 10
15.4269428171
 20
14.2700103503
 30
0.0
 10
15.4258939755
 20
14.2700103503
 30
0.0
  0
SPLINE
  5
59B
100
AcDbEntity
  8
0
100
AcDbSpline
 62
7
  6
CONTINUOUS
 70
0
 71
3
 72
13
 73
9
 74
0
 42
0.0000001
 43
0.0000001
 44
0.0000000001
 40
0.0
 40
0.0
 40
0.0
 40
0.0
 40
0.1003598295
 40
0.2124130802
 40
0.3346166095
 40
0.4646668268
 40
0.7360987451
 40
1.0
 40
1.0
 40
1.0
 40
1.0
 10
16.0949785447
 20
13.8659186663
 30
0.0
 10
16.0953343981
 20
13.8652029429
 30
0.0
 10
16.0962763002
 20
13.8637801237
 30
0.0
 10
16.0981293884
 20
13.8618501475
 30
0.0
 10
16.1004416011
 20
13.8600806973
 30
0.0
 10
16.1040605425
 20
13.8579887389
 30
0.0
 10
16.1090836495
 20
13.8561639694
 30
0.0
 10
16.1133562415
 20
13.8555976182
 30
0.0
 10
16.1154580506
 20
13.855603803
 30
0.0
  0
SPLINE
  5
59C
100
AcDbEntity
  8
0
100
AcDbSpline
 62
7
  6
CONTINUOUS
 70
0
 71
3
 72
11
 73
7
 74
0
 42
0.0000001
 43
0.0000001
 44
0.0000000001
 40
0.0
 40
0.0
 40
0.0
 40
0.0
 40
0.2021992833
 40
0.4299532744
 40
0.6964927603
 40
1.0
 40
1.0
 40
1.0
 40
1.0
 10
15.8709453548
 20
14.267290653
 30
0.0
 10
15.871073779
 20
14.2677054079
 30
0.0
 10
15.8715743182
 20
14.2685258456
 30
0.0
 10
15.8728335273
 20
14.2693881375
 30
0.0
 10
15.8744847517
 20
14.2699059042
 30
0.0
 10
15.8757134489
 20
14.2700103503
 30
0.0
 10
15.8763651699
 20
14.2700103503
 30
0.0
  0
SPLINE
  5
59D
100
AcDbEntity
  8
0
100
AcDbSpline
 62
7
  6
CONTINUOUS
 70
0
 71
3
 72
11
 73
7
 74
0
 42
0.0000001
 43
0.0000001
 44
0.0000000001
 40
0.0
 40
0.0
 40
0.0
 40
0.0
 40
0.2117562204
 40
0.4637078818
 40
0.7355003645
 40
1.0
 40
1.0
 40
1.0
 40
1.0
 10
15.8966308317
 20
14.2648528695
 30
0.0
 10
15.8962569979
 20
14.2656047566
 30
0.0
 10
15.8950296816
 20
14.2670425022
 30
0.0
 10
15.8925623455
 20
14.2686412692
 30
0.0
 10
15.8896042198
 20
14.2697237223
 30
0.0
 10
15.8874733141
 20
14.2700103503
 30
0.0
 10
15.8864244725
 20
14.2700103503
 30
0.0
  0
SPLINE
  5
59E
100
AcDbEntity
  8
0
100
AcDbSpline
 62
7
  6
CONTINUOUS
 70
0
 71
3
 72
17
 73
13
 74
0
 42
0.0000001
 43
0.0000001
 44
0.0000000001
 40
0.0
 40
0.0
 40
0.0
 40
0.0
 40
0.1452107826
 40
0.2964632408
 40
0.4472652708
 40
0.5912823979
 40
0.7224843162
 40
0.8356850144
 40
0.8844910564
 40
0.9277504786
 40
0.9658972446
 40
1.0
 40
1.0
 40
1.0
 40
1.0
 10
14.9743696355
 20
10.7528764406
 30
0.0
 10
14.9701724059
 20
10.7555851295
 30
0.0
 10
14.961154442
 20
10.7604390729
 30
0.0
 10
14.9467004491
 20
10.7658363158
 30
0.0
 10
14.9316970713
 20
10.7692713769
 30
0.0
 10
14.917044583
 20
10.7705533917
 30
0.0
 10
14.9036566635
 20
10.7696536388
 30
0.0
 10
14.8938037169
 20
10.7670999076
 30
0.0
 10
14.887415546
 20
10.7640457946
 30
0.0
 10
14.88367158
 20
10.7615532005
 30
0.0
 10
14.8807656639
 20
10.7588136866
 30
0.0
 10
14.879300304
 20
10.7567821451
 30
0.0
 10
14.8787208248
 20
10.7557620886
 30
0.0
  0
SPLINE
  5
59F
100
AcDbEntity
  8
0
100
AcDbSpline
 62
7
  6
CONTINUOUS
 70
0
 71
3
 72
9
 73
5
 74
0
 42
0.0000001
 43
0.0000001
 44
0.0000000001
 40
0.0
 40
0.0
 40
0.0
 40
0.0
 40
0.2510319562
 40
1.0
 40
1.0
 40
1.0
 40
1.0
 10
14.8767178968
 20
10.7534008802
 30
0.0
 10
14.8769197951
 20
10.7535645869
 30
0.0
 10
14.877692828
 20
10.7542543093
 30
0.0
 10
14.8783377642
 20
10.7550877874
 30
0.0
 10
14.8787208248
 20
10.7557620886
 30
0.0
  0
SPLINE
  5
5A0
100
AcDbEntity
  8
0
100
AcDbSpline
 62
7
  6
CONTINUOUS
 70
0
 71
3
 72
9
 73
5
 74
0
 42
0.0000001
 43
0.0000001
 44
0.0000000001
 40
0.0
 40
0.0
 40
0.0
 40
0.0
 40
0.5257528333
 40
1.0
 40
1.0
 40
1.0
 40
1.0
 10
14.5609106803
 20
10.789179615
 30
0.0
 10
14.5609001763
 20
10.7900431998
 30
0.0
 10
14.5609728309
 20
10.7916880672
 30
0.0
 10
14.5612510642
 20
10.7933143606
 30
0.0
 10
14.5614527041
 20
10.7940668537
 30
0.0
  0
SPLINE
  5
5A1
100
AcDbEntity
  8
0
100
AcDbSpline
 62
7
  6
CONTINUOUS
 70
0
 71
3
 72
9
 73
5
 74
0
 42
0.0000001
 43
0.0000001
 44
0.0000000001
 40
0.0
 40
0.0
 40
0.0
 40
0.0
 40
0.4996535196
 40
1.0
 40
1.0
 40
1.0
 40
1.0
 10
15.0390264753
 20
10.7515449721
 30
0.0
 10
15.0401575877
 20
10.7515449721
 30
0.0
 10
15.042445417
 20
10.752016399
 30
0.0
 10
15.0443524688
 20
10.7533675417
 30
0.0
 10
15.0451233577
 20
10.7541974191
 30
0.0
  0
SPLINE
  5
5A2
100
AcDbEntity
  8
0
100
AcDbSpline
 62
7
  6
CONTINUOUS
 70
0
 71
3
 72
9
 73
5
 74
0
 42
0.0000001
 43
0.0000001
 44
0.0000000001
 40
0.0
 40
0.0
 40
0.0
 40
0.0
 40
0.2514907712
 40
1.0
 40
1.0
 40
1.0
 40
1.0
 10
15.0451233577
 20
10.7541974191
 30
0.0
 10
15.0453366776
 20
10.7544270622
 30
0.0
 10
15.0461319865
 20
10.7553878941
 30
0.0
 10
15.0467128876
 20
10.756526625
 30
0.0
 10
15.0469883157
 20
10.7574179107
 30
0.0
  0
SPLINE
  5
5A3
100
AcDbEntity
  8
0
100
AcDbSpline
 62
7
  6
CONTINUOUS
 70
0
 71
3
 72
8
 73
4
 74
0
 42
0.0000001
 43
0.0000001
 44
0.0000000001
 40
0.0
 40
0.0
 40
0.0
 40
0.0
 40
1.0
 40
1.0
 40
1.0
 40
1.0
 10
14.9743696355
 20
10.7528764406
 30
0.0
 10
14.9752581951
 20
10.7523030071
 30
0.0
 10
14.9762755313
 20
10.7518946743
 30
0.0
 10
14.9773140411
 20
10.7516950205
 30
0.0
  0
SPLINE
  5
5A4
100
AcDbEntity
  8
0
100
AcDbSpline
 62
7
  6
CONTINUOUS
 70
0
 71
3
 72
8
 73
4
 74
0
 42
0.0000001
 43
0.0000001
 44
0.0000000001
 40
0.0
 40
0.0
 40
0.0
 40
0.0
 40
1.0
 40
1.0
 40
1.0
 40
1.0
 10
14.6391644502
 20
10.753070487
 30
0.0
 10
14.6400927281
 20
10.7524151605
 30
0.0
 10
14.6411794687
 20
10.7519442917
 30
0.0
 10
14.6422925179
 20
10.7517156562
 30
0.0
  0
LINE
  5
5A5
100
AcDbEntity
  8
0
100
AcDbLine
 62
7
  6
CONTINUOUS
 10
14.5688748302
 20
10.7865049307
 11
14.5609106909
 21
10.7891805527
  0
SPLINE
  5
5A6
100
AcDbEntity
  8
0
100
AcDbSpline
 62
7
  6
CONTINUOUS
 70
0
 71
3
 72
11
 73
7
 74
0
 42
0.0000001
 43
0.0000001
 44
0.0000000001
 40
0.0
 40
0.0
 40
0.0
 40
0.0
 40
0.2530662027
 40
0.3788190087
 40
0.5041417264
 40
1.0
 40
1.0
 40
1.0
 40
1.0
 10
14.5860696051
 20
10.7823590464
 30
0.0
 10
14.5846023591
 20
10.7826328227
 30
0.0
 10
14.5824145781
 20
10.7830877742
 30
0.0
 10
14.5795091503
 20
10.7837200619
 30
0.0
 10
14.5752208139
 20
10.7847289954
 30
0.0
 10
14.5716784479
 20
10.7856726568
 30
0.0
 10
14.5688748302
 20
10.7865049307
 30
0.0
  0
SPLINE
  5
5A7
100
AcDbEntity
  8
0
100
AcDbSpline
 62
7
  6
CONTINUOUS
 70
0
 71
3
 72
13
 73
9
 74
0
 42
0.0000001
 43
0.0000001
 44
0.0000000001
 40
0.0
 40
0.0
 40
0.0
 40
0.0
 40
0.1003598295
 40
0.2124130802
 40
0.3346166095
 40
0.4646668268
 40
0.7360987451
 40
1.0
 40
1.0
 40
1.0
 40
1.0
 10
16.5555090417
 20
13.8659186663
 30
0.0
 10
16.5558648951
 20
13.8652029429
 30
0.0
 10
16.5568067972
 20
13.8637801237
 30
0.0
 10
16.5586598854
 20
13.8618501475
 30
0.0
 10
16.5609720981
 20
13.8600806973
 30
0.0
 10
16.5645910395
 20
13.8579887389
 30
0.0
 10
16.5696141465
 20
13.8561639694
 30
0.0
 10
16.5738867385
 20
13.8555976182
 30
0.0
 10
16.5759885476
 20
13.855603803
 30
0.0
  0
SPLINE
  5
5A8
100
AcDbEntity
  8
0
100
AcDbSpline
 62
7
  6
CONTINUOUS
 70
0
 71
3
 72
11
 73
7
 74
0
 42
0.0000001
 43
0.0000001
 44
0.0000000001
 40
0.0
 40
0.0
 40
0.0
 40
0.0
 40
0.2021992833
 40
0.4299532744
 40
0.6964927603
 40
1.0
 40
1.0
 40
1.0
 40
1.0
 10
16.3314758518
 20
14.267290653
 30
0.0
 10
16.331604276
 20
14.2677054079
 30
0.0
 10
16.3321048152
 20
14.2685258456
 30
0.0
 10
16.3333640243
 20
14.2693881375
 30
0.0
 10
16.3350152487
 20
14.2699059042
 30
0.0
 10
16.3362439459
 20
14.2700103503
 30
0.0
 10
16.3368956669
 20
14.2700103503
 30
0.0
  0
SPLINE
  5
5A9
100
AcDbEntity
  8
0
100
AcDbSpline
 62
7
  6
CONTINUOUS
 70
0
 71
3
 72
11
 73
7
 74
0
 42
0.0000001
 43
0.0000001
 44
0.0000000001
 40
0.0
 40
0.0
 40
0.0
 40
0.0
 40
0.2117562204
 40
0.4637078818
 40
0.7355003645
 40
1.0
 40
1.0
 40
1.0
 40
1.0
 10
16.3571613287
 20
14.2648528695
 30
0.0
 10
16.3567874949
 20
14.2656047566
 30
0.0
 10
16.3555601786
 20
14.2670425022
 30
0.0
 10
16.3530928425
 20
14.2686412692
 30
0.0
 10
16.3501347168
 20
14.2697237223
 30
0.0
 10
16.3480038111
 20
14.2700103503
 30
0.0
 10
16.3469549695
 20
14.2700103503
 30
0.0
  0
SPLINE
  5
5AA
100
AcDbEntity
  8
0
100
AcDbSpline
 62
7
  6
CONTINUOUS
 70
0
 71
3
 72
17
 73
13
 74
0
 42
0.0000001
 43
0.0000001
 44
0.0000000001
 40
0.0
 40
0.0
 40
0.0
 40
0.0
 40
0.1452107826
 40
0.2964632408
 40
0.4472652708
 40
0.5912823979
 40
0.7224843162
 40
0.8356850144
 40
0.8844910564
 40
0.9277504786
 40
0.9658972446
 40
1.0
 40
1.0
 40
1.0
 40
1.0
 10
15.4349001325
 20
10.7528764406
 30
0.0
 10
15.4307029029
 20
10.7555851295
 30
0.0
 10
15.421684939
 20
10.7604390729
 30
0.0
 10
15.4072309461
 20
10.7658363158
 30
0.0
 10
15.3922275683
 20
10.7692713769
 30
0.0
 10
15.37757508
 20
10.7705533917
 30
0.0
 10
15.3641871605
 20
10.7696536388
 30
0.0
 10
15.3543342139
 20
10.7670999076
 30
0.0
 10
15.347946043
 20
10.7640457946
 30
0.0
 10
15.344202077
 20
10.7615532005
 30
0.0
 10
15.3412961609
 20
10.7588136866
 30
0.0
 10
15.339830801
 20
10.7567821451
 30
0.0
 10
15.3392513218
 20
10.7557620886
 30
0.0
  0
SPLINE
  5
5AB
100
AcDbEntity
  8
0
100
AcDbSpline
 62
7
  6
CONTINUOUS
 70
0
 71
3
 72
9
 73
5
 74
0
 42
0.0000001
 43
0.0000001
 44
0.0000000001
 40
0.0
 40
0.0
 40
0.0
 40
0.0
 40
0.2510319562
 40
1.0
 40
1.0
 40
1.0
 40
1.0
 10
15.3372483938
 20
10.7534008802
 30
0.0
 10
15.3374502921
 20
10.7535645869
 30
0.0
 10
15.338223325
 20
10.7542543093
 30
0.0
 10
15.3388682612
 20
10.7550877874
 30
0.0
 10
15.3392513218
 20
10.7557620886
 30
0.0
  0
SPLINE
  5
5AC
100
AcDbEntity
  8
0
100
AcDbSpline
 62
7
  6
CONTINUOUS
 70
0
 71
3
 72
9
 73
5
 74
0
 42
0.0000001
 43
0.0000001
 44
0.0000000001
 40
0.0
 40
0.0
 40
0.0
 40
0.0
 40
0.5257528333
 40
1.0
 40
1.0
 40
1.0
 40
1.0
 10
15.0214411773
 20
10.789179615
 30
0.0
 10
15.0214306733
 20
10.7900431998
 30
0.0
 10
15.0215033279
 20
10.7916880672
 30
0.0
 10
15.0217815612
 20
10.7933143606
 30
0.0
 10
15.0219832011
 20
10.7940668537
 30
0.0
  0
SPLINE
  5
5AD
100
AcDbEntity
  8
0
100
AcDbSpline
 62
7
  6
CONTINUOUS
 70
0
 71
3
 72
9
 73
5
 74
0
 42
0.0000001
 43
0.0000001
 44
0.0000000001
 40
0.0
 40
0.0
 40
0.0
 40
0.0
 40
0.4996535196
 40
1.0
 40
1.0
 40
1.0
 40
1.0
 10
15.4995569723
 20
10.7515449721
 30
0.0
 10
15.5006880847
 20
10.7515449721
 30
0.0
 10
15.502975914
 20
10.752016399
 30
0.0
 10
15.5048829658
 20
10.7533675417
 30
0.0
 10
15.5056538547
 20
10.7541974191
 30
0.0
  0
SPLINE
  5
5AE
100
AcDbEntity
  8
0
100
AcDbSpline
 62
7
  6
CONTINUOUS
 70
0
 71
3
 72
9
 73
5
 74
0
 42
0.0000001
 43
0.0000001
 44
0.0000000001
 40
0.0
 40
0.0
 40
0.0
 40
0.0
 40
0.2514907712
 40
1.0
 40
1.0
 40
1.0
 40
1.0
 10
15.5056538547
 20
10.7541974191
 30
0.0
 10
15.5058671746
 20
10.7544270622
 30
0.0
 10
15.5066624835
 20
10.7553878941
 30
0.0
 10
15.5072433846
 20
10.756526625
 30
0.0
 10
15.5075188127
 20
10.7574179107
 30
0.0
  0
SPLINE
  5
5AF
100
AcDbEntity
  8
0
100
AcDbSpline
 62
7
  6
CONTINUOUS
 70
0
 71
3
 72
8
 73
4
 74
0
 42
0.0000001
 43
0.0000001
 44
0.0000000001
 40
0.0
 40
0.0
 40
0.0
 40
0.0
 40
1.0
 40
1.0
 40
1.0
 40
1.0
 10
15.4349001325
 20
10.7528764406
 30
0.0
 10
15.4357886921
 20
10.7523030071
 30
0.0
 10
15.4368060283
 20
10.7518946743
 30
0.0
 10
15.4378445381
 20
10.7516950205
 30
0.0
  0
SPLINE
  5
5B0
100
AcDbEntity
  8
0
100
AcDbSpline
 62
7
  6
CONTINUOUS
 70
0
 71
3
 72
8
 73
4
 74
0
 42
0.0000001
 43
0.0000001
 44
0.0000000001
 40
0.0
 40
0.0
 40
0.0
 40
0.0
 40
1.0
 40
1.0
 40
1.0
 40
1.0
 10
15.0996949472
 20
10.753070487
 30
0.0
 10
15.1006232251
 20
10.7524151605
 30
0.0
 10
15.1017099657
 20
10.7519442917
 30
0.0
 10
15.1028230149
 20
10.7517156562
 30
0.0
  0
LINE
  5
5B1
100
AcDbEntity
  8
0
100
AcDbLine
 62
7
  6
CONTINUOUS
 10
15.0294053272
 20
10.7865049307
 11
15.0214411879
 21
10.7891805527
  0
SPLINE
  5
5B2
100
AcDbEntity
  8
0
100
AcDbSpline
 62
7
  6
CONTINUOUS
 70
0
 71
3
 72
11
 73
7
 74
0
 42
0.0000001
 43
0.0000001
 44
0.0000000001
 40
0.0
 40
0.0
 40
0.0
 40
0.0
 40
0.2530662027
 40
0.3788190087
 40
0.5041417264
 40
1.0
 40
1.0
 40
1.0
 40
1.0
 10
15.0466001021
 20
10.7823590464
 30
0.0
 10
15.0451328561
 20
10.7826328227
 30
0.0
 10
15.0429450751
 20
10.7830877742
 30
0.0
 10
15.0400396473
 20
10.7837200619
 30
0.0
 10
15.0357513109
 20
10.7847289954
 30
0.0
 10
15.0322089449
 20
10.7856726568
 30
0.0
 10
15.0294053272
 20
10.7865049307
 30
0.0
  0
SPLINE
  5
5B3
100
AcDbEntity
  8
0
100
AcDbSpline
 62
7
  6
CONTINUOUS
 70
0
 71
3
 72
13
 73
9
 74
0
 42
0.0000001
 43
0.0000001
 44
0.0000000001
 40
0.0
 40
0.0
 40
0.0
 40
0.0
 40
0.1003598295
 40
0.2124130802
 40
0.3346166095
 40
0.4646668268
 40
0.7360987451
 40
1.0
 40
1.0
 40
1.0
 40
1.0
 10
17.0160395387
 20
13.8659186663
 30
0.0
 10
17.0163953921
 20
13.8652029429
 30
0.0
 10
17.0173372942
 20
13.8637801237
 30
0.0
 10
17.0191903824
 20
13.8618501475
 30
0.0
 10
17.0215025951
 20
13.8600806973
 30
0.0
 10
17.0251215365
 20
13.8579887389
 30
0.0
 10
17.0301446435
 20
13.8561639694
 30
0.0
 10
17.0344172355
 20
13.8555976182
 30
0.0
 10
17.0365190446
 20
13.855603803
 30
0.0
  0
SPLINE
  5
5B4
100
AcDbEntity
  8
0
100
AcDbSpline
 62
7
  6
CONTINUOUS
 70
0
 71
3
 72
11
 73
7
 74
0
 42
0.0000001
 43
0.0000001
 44
0.0000000001
 40
0.0
 40
0.0
 40
0.0
 40
0.0
 40
0.2021992833
 40
0.4299532744
 40
0.6964927603
 40
1.0
 40
1.0
 40
1.0
 40
1.0
 10
16.7920063488
 20
14.267290653
 30
0.0
 10
16.792134773
 20
14.2677054079
 30
0.0
 10
16.7926353122
 20
14.2685258456
 30
0.0
 10
16.7938945213
 20
14.2693881375
 30
0.0
 10
16.7955457457
 20
14.2699059042
 30
0.0
 10
16.7967744429
 20
14.2700103503
 30
0.0
 10
16.7974261639
 20
14.2700103503
 30
0.0
  0
SPLINE
  5
5B5
100
AcDbEntity
  8
0
100
AcDbSpline
 62
7
  6
CONTINUOUS
 70
0
 71
3
 72
11
 73
7
 74
0
 42
0.0000001
 43
0.0000001
 44
0.0000000001
 40
0.0
 40
0.0
 40
0.0
 40
0.0
 40
0.2117562204
 40
0.4637078818
 40
0.7355003645
 40
1.0
 40
1.0
 40
1.0
 40
1.0
 10
16.8176918257
 20
14.2648528695
 30
0.0
 10
16.8173179919
 20
14.2656047566
 30
0.0
 10
16.8160906756
 20
14.2670425022
 30
0.0
 10
16.8136233395
 20
14.2686412692
 30
0.0
 10
16.8106652138
 20
14.2697237223
 30
0.0
 10
16.8085343081
 20
14.2700103503
 30
0.0
 10
16.8074854665
 20
14.2700103503
 30
0.0
  0
SPLINE
  5
5B6
100
AcDbEntity
  8
0
100
AcDbSpline
 62
7
  6
CONTINUOUS
 70
0
 71
3
 72
17
 73
13
 74
0
 42
0.0000001
 43
0.0000001
 44
0.0000000001
 40
0.0
 40
0.0
 40
0.0
 40
0.0
 40
0.1452107826
 40
0.2964632408
 40
0.4472652708
 40
0.5912823979
 40
0.7224843162
 40
0.8356850144
 40
0.8844910564
 40
0.9277504786
 40
0.9658972446
 40
1.0
 40
1.0
 40
1.0
 40
1.0
 10
15.8954306295
 20
10.7528764406
 30
0.0
 10
15.8912333999
 20
10.7555851295
 30
0.0
 10
15.882215436
 20
10.7604390729
 30
0.0
 10
15.8677614431
 20
10.7658363158
 30
0.0
 10
15.8527580653
 20
10.7692713769
 30
0.0
 10
15.838105577
 20
10.7705533917
 30
0.0
 10
15.8247176575
 20
10.7696536388
 30
0.0
 10
15.8148647109
 20
10.7670999076
 30
0.0
 10
15.80847654
 20
10.7640457946
 30
0.0
 10
15.804732574
 20
10.7615532005
 30
0.0
 10
15.8018266579
 20
10.7588136866
 30
0.0
 10
15.800361298
 20
10.7567821451
 30
0.0
 10
15.7997818188
 20
10.7557620886
 30
0.0
  0
SPLINE
  5
5B7
100
AcDbEntity
  8
0
100
AcDbSpline
 62
7
  6
CONTINUOUS
 70
0
 71
3
 72
9
 73
5
 74
0
 42
0.0000001
 43
0.0000001
 44
0.0000000001
 40
0.0
 40
0.0
 40
0.0
 40
0.0
 40
0.2510319562
 40
1.0
 40
1.0
 40
1.0
 40
1.0
 10
15.7977788908
 20
10.7534008802
 30
0.0
 10
15.7979807891
 20
10.7535645869
 30
0.0
 10
15.798753822
 20
10.7542543093
 30
0.0
 10
15.7993987582
 20
10.7550877874
 30
0.0
 10
15.7997818188
 20
10.7557620886
 30
0.0
  0
SPLINE
  5
5B8
100
AcDbEntity
  8
0
100
AcDbSpline
 62
7
  6
CONTINUOUS
 70
0
 71
3
 72
9
 73
5
 74
0
 42
0.0000001
 43
0.0000001
 44
0.0000000001
 40
0.0
 40
0.0
 40
0.0
 40
0.0
 40
0.5257528333
 40
1.0
 40
1.0
 40
1.0
 40
1.0
 10
15.4819716743
 20
10.789179615
 30
0.0
 10
15.4819611703
 20
10.7900431998
 30
0.0
 10
15.4820338249
 20
10.7916880672
 30
0.0
 10
15.4823120582
 20
10.7933143606
 30
0.0
 10
15.4825136981
 20
10.7940668537
 30
0.0
  0
SPLINE
  5
5B9
100
AcDbEntity
  8
0
100
AcDbSpline
 62
7
  6
CONTINUOUS
 70
0
 71
3
 72
9
 73
5
 74
0
 42
0.0000001
 43
0.0000001
 44
0.0000000001
 40
0.0
 40
0.0
 40
0.0
 40
0.0
 40
0.4996535196
 40
1.0
 40
1.0
 40
1.0
 40
1.0
 10
15.9600874693
 20
10.7515449721
 30
0.0
 10
15.9612185817
 20
10.7515449721
 30
0.0
 10
15.963506411
 20
10.752016399
 30
0.0
 10
15.9654134628
 20
10.7533675417
 30
0.0
 10
15.9661843517
 20
10.7541974191
 30
0.0
  0
SPLINE
  5
5BA
100
AcDbEntity
  8
0
100
AcDbSpline
 62
7
  6
CONTINUOUS
 70
0
 71
3
 72
9
 73
5
 74
0
 42
0.0000001
 43
0.0000001
 44
0.0000000001
 40
0.0
 40
0.0
 40
0.0
 40
0.0
 40
0.2514907712
 40
1.0
 40
1.0
 40
1.0
 40
1.0
 10
15.9661843517
 20
10.7541974191
 30
0.0
 10
15.9663976716
 20
10.7544270622
 30
0.0
 10
15.9671929805
 20
10.7553878941
 30
0.0
 10
15.9677738816
 20
10.756526625
 30
0.0
 10
15.9680493097
 20
10.7574179107
 30
0.0
  0
SPLINE
  5
5BB
100
AcDbEntity
  8
0
100
AcDbSpline
 62
7
  6
CONTINUOUS
 70
0
 71
3
 72
8
 73
4
 74
0
 42
0.0000001
 43
0.0000001
 44
0.0000000001
 40
0.0
 40
0.0
 40
0.0
 40
0.0
 40
1.0
 40
1.0
 40
1.0
 40
1.0
 10
15.8954306295
 20
10.7528764406
 30
0.0
 10
15.8963191891
 20
10.7523030071
 30
0.0
 10
15.8973365253
 20
10.7518946743
 30
0.0
 10
15.8983750351
 20
10.7516950205
 30
0.0
  0
SPLINE
  5
5BC
100
AcDbEntity
  8
0
100
AcDbSpline
 62
7
  6
CONTINUOUS
 70
0
 71
3
 72
8
 73
4
 74
0
 42
0.0000001
 43
0.0000001
 44
0.0000000001
 40
0.0
 40
0.0
 40
0.0
 40
0.0
 40
1.0
 40
1.0
 40
1.0
 40
1.0
 10
15.5602254442
 20
10.753070487
 30
0.0
 10
15.5611537221
 20
10.7524151605
 30
0.0
 10
15.5622404627
 20
10.7519442917
 30
0.0
 10
15.5633535119
 20
10.7517156562
 30
0.0
  0
LINE
  5
5BD
100
AcDbEntity
  8
0
100
AcDbLine
 62
7
  6
CONTINUOUS
 10
15.4899358242
 20
10.7865049307
 11
15.4819716849
 21
10.7891805527
  0
SPLINE
  5
5BE
100
AcDbEntity
  8
0
100
AcDbSpline
 62
7
  6
CONTINUOUS
 70
0
 71
3
 72
11
 73
7
 74
0
 42
0.0000001
 43
0.0000001
 44
0.0000000001
 40
0.0
 40
0.0
 40
0.0
 40
0.0
 40
0.2530662027
 40
0.3788190087
 40
0.5041417264
 40
1.0
 40
1.0
 40
1.0
 40
1.0
 10
15.5071305991
 20
10.7823590464
 30
0.0
 10
15.5056633531
 20
10.7826328227
 30
0.0
 10
15.5034755721
 20
10.7830877742
 30
0.0
 10
15.5005701443
 20
10.7837200619
 30
0.0
 10
15.4962818079
 20
10.7847289954
 30
0.0
 10
15.4927394419
 20
10.7856726568
 30
0.0
 10
15.4899358242
 20
10.7865049307
 30
0.0
  0
SPLINE
  5
5BF
100
AcDbEntity
  8
0
100
AcDbSpline
 62
7
  6
CONTINUOUS
 70
0
 71
3
 72
13
 73
9
 74
0
 42
0.0000001
 43
0.0000001
 44
0.0000000001
 40
0.0
 40
0.0
 40
0.0
 40
0.0
 40
0.1003598295
 40
0.2124130802
 40
0.3346166095
 40
0.4646668268
 40
0.7360987451
 40
1.0
 40
1.0
 40
1.0
 40
1.0
 10
17.4765700357
 20
13.8659186663
 30
0.0
 10
17.4769258891
 20
13.8652029429
 30
0.0
 10
17.4778677912
 20
13.8637801237
 30
0.0
 10
17.4797208794
 20
13.8618501475
 30
0.0
 10
17.4820330922
 20
13.8600806973
 30
0.0
 10
17.4856520335
 20
13.8579887389
 30
0.0
 10
17.4906751405
 20
13.8561639694
 30
0.0
 10
17.4949477325
 20
13.8555976182
 30
0.0
 10
17.4970495416
 20
13.855603803
 30
0.0
  0
SPLINE
  5
5C0
100
AcDbEntity
  8
0
100
AcDbSpline
 62
7
  6
CONTINUOUS
 70
0
 71
3
 72
11
 73
7
 74
0
 42
0.0000001
 43
0.0000001
 44
0.0000000001
 40
0.0
 40
0.0
 40
0.0
 40
0.0
 40
0.2021992833
 40
0.4299532744
 40
0.6964927603
 40
1.0
 40
1.0
 40
1.0
 40
1.0
 10
17.2525368458
 20
14.267290653
 30
0.0
 10
17.25266527
 20
14.2677054079
 30
0.0
 10
17.2531658092
 20
14.2685258456
 30
0.0
 10
17.2544250183
 20
14.2693881375
 30
0.0
 10
17.2560762427
 20
14.2699059042
 30
0.0
 10
17.2573049399
 20
14.2700103503
 30
0.0
 10
17.2579566609
 20
14.2700103503
 30
0.0
  0
SPLINE
  5
5C1
100
AcDbEntity
  8
0
100
AcDbSpline
 62
7
  6
CONTINUOUS
 70
0
 71
3
 72
11
 73
7
 74
0
 42
0.0000001
 43
0.0000001
 44
0.0000000001
 40
0.0
 40
0.0
 40
0.0
 40
0.0
 40
0.2117562204
 40
0.4637078818
 40
0.7355003645
 40
1.0
 40
1.0
 40
1.0
 40
1.0
 10
17.2782223227
 20
14.2648528695
 30
0.0
 10
17.2778484889
 20
14.2656047566
 30
0.0
 10
17.2766211726
 20
14.2670425022
 30
0.0
 10
17.2741538365
 20
14.2686412692
 30
0.0
 10
17.2711957108
 20
14.2697237223
 30
0.0
 10
17.2690648051
 20
14.2700103503
 30
0.0
 10
17.2680159635
 20
14.2700103503
 30
0.0
  0
SPLINE
  5
5C2
100
AcDbEntity
  8
0
100
AcDbSpline
 62
7
  6
CONTINUOUS
 70
0
 71
3
 72
17
 73
13
 74
0
 42
0.0000001
 43
0.0000001
 44
0.0000000001
 40
0.0
 40
0.0
 40
0.0
 40
0.0
 40
0.1452107826
 40
0.2964632408
 40
0.4472652708
 40
0.5912823979
 40
0.7224843162
 40
0.8356850144
 40
0.8844910564
 40
0.9277504786
 40
0.9658972446
 40
1.0
 40
1.0
 40
1.0
 40
1.0
 10
16.3559611265
 20
10.7528764406
 30
0.0
 10
16.3517638969
 20
10.7555851295
 30
0.0
 10
16.342745933
 20
10.7604390729
 30
0.0
 10
16.3282919401
 20
10.7658363158
 30
0.0
 10
16.3132885623
 20
10.7692713769
 30
0.0
 10
16.298636074
 20
10.7705533917
 30
0.0
 10
16.2852481545
 20
10.7696536388
 30
0.0
 10
16.2753952079
 20
10.7670999076
 30
0.0
 10
16.269007037
 20
10.7640457946
 30
0.0
 10
16.265263071
 20
10.7615532005
 30
0.0
 10
16.2623571549
 20
10.7588136866
 30
0.0
 10
16.260891795
 20
10.7567821451
 30
0.0
 10
16.2603123158
 20
10.7557620886
 30
0.0
  0
SPLINE
  5
5C3
100
AcDbEntity
  8
0
100
AcDbSpline
 62
7
  6
CONTINUOUS
 70
0
 71
3
 72
9
 73
5
 74
0
 42
0.0000001
 43
0.0000001
 44
0.0000000001
 40
0.0
 40
0.0
 40
0.0
 40
0.0
 40
0.2510319562
 40
1.0
 40
1.0
 40
1.0
 40
1.0
 10
16.2583093878
 20
10.7534008802
 30
0.0
 10
16.2585112862
 20
10.7535645869
 30
0.0
 10
16.259284319
 20
10.7542543093
 30
0.0
 10
16.2599292552
 20
10.7550877874
 30
0.0
 10
16.2603123158
 20
10.7557620886
 30
0.0
  0
SPLINE
  5
5C4
100
AcDbEntity
  8
0
100
AcDbSpline
 62
7
  6
CONTINUOUS
 70
0
 71
3
 72
9
 73
5
 74
0
 42
0.0000001
 43
0.0000001
 44
0.0000000001
 40
0.0
 40
0.0
 40
0.0
 40
0.0
 40
0.5257528333
 40
1.0
 40
1.0
 40
1.0
 40
1.0
 10
15.9425021713
 20
10.789179615
 30
0.0
 10
15.9424916673
 20
10.7900431998
 30
0.0
 10
15.9425643219
 20
10.7916880672
 30
0.0
 10
15.9428425552
 20
10.7933143606
 30
0.0
 10
15.9430441951
 20
10.7940668537
 30
0.0
  0
SPLINE
  5
5C5
100
AcDbEntity
  8
0
100
AcDbSpline
 62
7
  6
CONTINUOUS
 70
0
 71
3
 72
9
 73
5
 74
0
 42
0.0000001
 43
0.0000001
 44
0.0000000001
 40
0.0
 40
0.0
 40
0.0
 40
0.0
 40
0.4996535196
 40
1.0
 40
1.0
 40
1.0
 40
1.0
 10
16.4206179663
 20
10.7515449721
 30
0.0
 10
16.4217490787
 20
10.7515449721
 30
0.0
 10
16.424036908
 20
10.752016399
 30
0.0
 10
16.4259439598
 20
10.7533675417
 30
0.0
 10
16.4267148487
 20
10.7541974191
 30
0.0
  0
SPLINE
  5
5C6
100
AcDbEntity
  8
0
100
AcDbSpline
 62
7
  6
CONTINUOUS
 70
0
 71
3
 72
9
 73
5
 74
0
 42
0.0000001
 43
0.0000001
 44
0.0000000001
 40
0.0
 40
0.0
 40
0.0
 40
0.0
 40
0.2514907712
 40
1.0
 40
1.0
 40
1.0
 40
1.0
 10
16.4267148487
 20
10.7541974191
 30
0.0
 10
16.4269281686
 20
10.7544270622
 30
0.0
 10
16.4277234775
 20
10.7553878941
 30
0.0
 10
16.4283043786
 20
10.756526625
 30
0.0
 10
16.4285798067
 20
10.7574179107
 30
0.0
  0
SPLINE
  5
5C7
100
AcDbEntity
  8
0
100
AcDbSpline
 62
7
  6
CONTINUOUS
 70
0
 71
3
 72
8
 73
4
 74
0
 42
0.0000001
 43
0.0000001
 44
0.0000000001
 40
0.0
 40
0.0
 40
0.0
 40
0.0
 40
1.0
 40
1.0
 40
1.0
 40
1.0
 10
16.3559611265
 20
10.7528764406
 30
0.0
 10
16.3568496861
 20
10.7523030071
 30
0.0
 10
16.3578670223
 20
10.7518946743
 30
0.0
 10
16.3589055321
 20
10.7516950205
 30
0.0
  0
SPLINE
  5
5C8
100
AcDbEntity
  8
0
100
AcDbSpline
 62
7
  6
CONTINUOUS
 70
0
 71
3
 72
8
 73
4
 74
0
 42
0.0000001
 43
0.0000001
 44
0.0000000001
 40
0.0
 40
0.0
 40
0.0
 40
0.0
 40
1.0
 40
1.0
 40
1.0
 40
1.0
 10
16.0207559412
 20
10.753070487
 30
0.0
 10
16.0216842191
 20
10.7524151605
 30
0.0
 10
16.0227709597
 20
10.7519442917
 30
0.0
 10
16.0238840089
 20
10.7517156562
 30
0.0
  0
LINE
  5
5C9
100
AcDbEntity
  8
0
100
AcDbLine
 62
7
  6
CONTINUOUS
 10
15.9504663212
 20
10.7865049307
 11
15.9425021819
 21
10.7891805527
  0
SPLINE
  5
5CA
100
AcDbEntity
  8
0
100
AcDbSpline
 62
7
  6
CONTINUOUS
 70
0
 71
3
 72
11
 73
7
 74
0
 42
0.0000001
 43
0.0000001
 44
0.0000000001
 40
0.0
 40
0.0
 40
0.0
 40
0.0
 40
0.2530662027
 40
0.3788190087
 40
0.5041417264
 40
1.0
 40
1.0
 40
1.0
 40
1.0
 10
15.9676610961
 20
10.7823590464
 30
0.0
 10
15.9661938501
 20
10.7826328227
 30
0.0
 10
15.9640060691
 20
10.7830877742
 30
0.0
 10
15.9611006413
 20
10.7837200619
 30
0.0
 10
15.9568123049
 20
10.7847289954
 30
0.0
 10
15.9532699389
 20
10.7856726568
 30
0.0
 10
15.9504663212
 20
10.7865049307
 30
0.0
  0
SPLINE
  5
5CB
100
AcDbEntity
  8
0
100
AcDbSpline
 62
7
  6
CONTINUOUS
 70
0
 71
3
 72
17
 73
13
 74
0
 42
0.0000001
 43
0.0000001
 44
0.0000000001
 40
0.0
 40
0.0
 40
0.0
 40
0.0
 40
0.1452107826
 40
0.2964632408
 40
0.4472652708
 40
0.5912823979
 40
0.7224843162
 40
0.8356850144
 40
0.8844910564
 40
0.9277504786
 40
0.9658972446
 40
1.0
 40
1.0
 40
1.0
 40
1.0
 10
16.8164916235
 20
10.7528764406
 30
0.0
 10
16.8122943939
 20
10.7555851295
 30
0.0
 10
16.80327643
 20
10.7604390729
 30
0.0
 10
16.7888224371
 20
10.7658363158
 30
0.0
 10
16.7738190593
 20
10.7692713769
 30
0.0
 10
16.759166571
 20
10.7705533917
 30
0.0
 10
16.7457786515
 20
10.7696536388
 30
0.0
 10
16.7359257049
 20
10.7670999076
 30
0.0
 10
16.729537534
 20
10.7640457946
 30
0.0
 10
16.725793568
 20
10.7615532005
 30
0.0
 10
16.7228876519
 20
10.7588136866
 30
0.0
 10
16.721422292
 20
10.7567821451
 30
0.0
 10
16.7208428129
 20
10.7557620886
 30
0.0
  0
SPLINE
  5
5CC
100
AcDbEntity
  8
0
100
AcDbSpline
 62
7
  6
CONTINUOUS
 70
0
 71
3
 72
9
 73
5
 74
0
 42
0.0000001
 43
0.0000001
 44
0.0000000001
 40
0.0
 40
0.0
 40
0.0
 40
0.0
 40
0.2510319562
 40
1.0
 40
1.0
 40
1.0
 40
1.0
 10
16.7188398848
 20
10.7534008802
 30
0.0
 10
16.7190417832
 20
10.7535645869
 30
0.0
 10
16.719814816
 20
10.7542543093
 30
0.0
 10
16.7204597522
 20
10.7550877874
 30
0.0
 10
16.7208428129
 20
10.7557620886
 30
0.0
  0
SPLINE
  5
5CD
100
AcDbEntity
  8
0
100
AcDbSpline
 62
7
  6
CONTINUOUS
 70
0
 71
3
 72
9
 73
5
 74
0
 42
0.0000001
 43
0.0000001
 44
0.0000000001
 40
0.0
 40
0.0
 40
0.0
 40
0.0
 40
0.5257528333
 40
1.0
 40
1.0
 40
1.0
 40
1.0
 10
16.4030326683
 20
10.789179615
 30
0.0
 10
16.4030221643
 20
10.7900431998
 30
0.0
 10
16.4030948189
 20
10.7916880672
 30
0.0
 10
16.4033730522
 20
10.7933143606
 30
0.0
 10
16.4035746921
 20
10.7940668537
 30
0.0
  0
SPLINE
  5
5CE
100
AcDbEntity
  8
0
100
AcDbSpline
 62
7
  6
CONTINUOUS
 70
0
 71
3
 72
11
 73
7
 74
0
 42
0.0000001
 43
0.0000001
 44
0.0000000001
 40
0.0
 40
0.0
 40
0.0
 40
0.0
 40
0.2409507058
 40
0.4855439049
 40
0.7375598123
 40
1.0
 40
1.0
 40
1.0
 40
1.0
 10
17.3594557259
 20
11.90171621
 30
0.0
 10
17.3582613835
 20
11.8978513165
 30
0.0
 10
17.3551158097
 20
11.8902709352
 30
0.0
 10
17.3483283224
 20
11.8798394838
 30
0.0
 10
17.3396221368
 20
11.8704573367
 30
0.0
 10
17.3328066923
 20
11.8650932958
 30
0.0
 10
17.3291684882
 20
11.8626080698
 30
0.0
  0
SPLINE
  5
5CF
100
AcDbEntity
  8
0
100
AcDbSpline
 62
7
  6
CONTINUOUS
 70
0
 71
3
 72
11
 73
7
 74
0
 42
0.0000001
 43
0.0000001
 44
0.0000000001
 40
0.0
 40
0.0
 40
0.0
 40
0.0
 40
0.2393722067
 40
0.4830113215
 40
0.7354351767
 40
1.0
 40
1.0
 40
1.0
 40
1.0
 10
17.3836623582
 20
11.9800489009
 30
0.0
 10
17.3849672346
 20
11.9842714822
 30
0.0
 10
17.3867293152
 20
11.993087528
 30
0.0
 10
17.3866950192
 20
12.0067465589
 30
0.0
 10
17.3840755198
 20
12.0206154688
 30
0.0
 10
17.3807698308
 20
12.0296170271
 30
0.0
 10
17.3787687976
 20
12.034073099
 30
0.0
  0
SPLINE
  5
5D0
100
AcDbEntity
  8
0
100
AcDbSpline
 62
7
  6
CONTINUOUS
 70
0
 71
3
 72
15
 73
11
 74
0
 42
0.0000001
 43
0.0000001
 44
0.0000000001
 40
0.0
 40
0.0
 40
0.0
 40
0.0
 40
0.1031606528
 40
0.2160182321
 40
0.3379658039
 40
0.4672763118
 40
0.6013040244
 40
0.7369164024
 40
0.8708726228
 40
1.0
 40
1.0
 40
1.0
 40
1.0
 10
17.3665494423
 20
12.0591130449
 30
0.0
 10
17.3634039187
 20
12.0655229479
 30
0.0
 10
17.3551880235
 20
12.078169046
 30
0.0
 10
17.33900203
 20
12.0951894871
 30
0.0
 10
17.3190108373
 20
12.1106736442
 30
0.0
 10
17.295926743
 20
12.1241576818
 30
0.0
 10
17.2705524951
 20
12.1352008203
 30
0.0
 10
17.2437947648
 20
12.1434266682
 30
0.0
 10
17.216618807
 20
12.1485331008
 30
0.0
 10
17.1983948077
 20
12.1497645679
 30
0.0
 10
17.1894574494
 20
12.1497645679
 30
0.0
  0
SPLINE
  5
5D1
100
AcDbEntity
  8
0
100
AcDbSpline
 62
7
  6
CONTINUOUS
 70
0
 71
3
 72
11
 73
7
 74
0
 42
0.0000001
 43
0.0000001
 44
0.0000000001
 40
0.0
 40
0.0
 40
0.0
 40
0.0
 40
0.2409507058
 40
0.4855439049
 40
0.7375598123
 40
1.0
 40
1.0
 40
1.0
 40
1.0
 10
17.5119575096
 20
12.395212163
 30
0.0
 10
17.5107631672
 20
12.3913472695
 30
0.0
 10
17.5076175935
 20
12.3837668883
 30
0.0
 10
17.5008301061
 20
12.3733354369
 30
0.0
 10
17.4921239205
 20
12.3639532897
 30
0.0
 10
17.4853084761
 20
12.3585892489
 30
0.0
 10
17.481670272
 20
12.3561040228
 30
0.0
  0
SPLINE
  5
5D2
100
AcDbEntity
  8
0
100
AcDbSpline
 62
7
  6
CONTINUOUS
 70
0
 71
3
 72
11
 73
7
 74
0
 42
0.0000001
 43
0.0000001
 44
0.0000000001
 40
0.0
 40
0.0
 40
0.0
 40
0.0
 40
0.2393722067
 40
0.4830113215
 40
0.7354351767
 40
1.0
 40
1.0
 40
1.0
 40
1.0
 10
17.536164142
 20
12.473544854
 30
0.0
 10
17.5374690183
 20
12.4777674353
 30
0.0
 10
17.5392310989
 20
12.4865834811
 30
0.0
 10
17.539196803
 20
12.5002425119
 30
0.0
 10
17.5365773036
 20
12.5141114219
 30
0.0
 10
17.5332716145
 20
12.5231129802
 30
0.0
 10
17.5312705814
 20
12.5275690521
 30
0.0
  0
SPLINE
  5
5D3
100
AcDbEntity
  8
0
100
AcDbSpline
 62
7
  6
CONTINUOUS
 70
0
 71
3
 72
15
 73
11
 74
0
 42
0.0000001
 43
0.0000001
 44
0.0000000001
 40
0.0
 40
0.0
 40
0.0
 40
0.0
 40
0.0932918479
 40
0.1918590059
 40
0.2996609854
 40
0.4188402309
 40
0.5497568194
 40
0.6915951371
 40
0.8426665906
 40
1.0
 40
1.0
 40
1.0
 40
1.0
 10
17.2792711695
 20
12.4932399941
 30
0.0
 10
17.2798237703
 20
12.4950260531
 30
0.0
 10
17.2815359833
 20
12.4985439057
 30
0.0
 10
17.2856415131
 20
12.5030193633
 30
0.0
 10
17.2911227126
 20
12.5066549496
 30
0.0
 10
17.2978016325
 20
12.509371767
 30
0.0
 10
17.3054862917
 20
12.5111280087
 30
0.0
 10
17.3139697188
 20
12.5118785233
 30
0.0
 10
17.3230064507
 20
12.5116026081
 30
0.0
 10
17.329142204
 20
12.5107601223
 30
0.0
 10
17.3322406535
 20
12.5101761479
 30
0.0
  0
LINE
  5
5D4
100
AcDbEntity
  8
0
100
AcDbLine
 62
7
  6
CONTINUOUS
 10
17.8514346542
 20
13.8858539865
 11
17.849423313
 21
13.8874168218
  0
SPLINE
  5
5D5
100
AcDbEntity
  8
0
100
AcDbSpline
 62
7
  6
CONTINUOUS
 70
0
 71
3
 72
11
 73
7
 74
0
 42
0.0000001
 43
0.0000001
 44
0.0000000001
 40
0.0
 40
0.0
 40
0.0
 40
0.0
 40
0.2274615423
 40
0.470128219
 40
0.7279596982
 40
1.0
 40
1.0
 40
1.0
 40
1.0
 10
17.519051226
 20
12.552608998
 30
0.0
 10
17.516859985
 20
12.5570742777
 30
0.0
 10
17.5115477199
 20
12.5659305304
 30
0.0
 10
17.5015234214
 20
12.5783486106
 30
0.0
 10
17.4893847331
 20
12.5901481599
 30
0.0
 10
17.4802560379
 20
12.5973199975
 30
0.0
 10
17.4754130599
 20
12.6007744823
 30
0.0
  0
SPLINE
  5
5D6
100
AcDbEntity
  8
0
100
AcDbSpline
 62
7
  6
CONTINUOUS
 70
0
 71
3
 72
11
 73
7
 74
0
 42
0.0000001
 43
0.0000001
 44
0.0000000001
 40
0.0
 40
0.0
 40
0.0
 40
0.0
 40
0.2500100276
 40
0.5046969902
 40
0.7569670605
 40
1.0
 40
1.0
 40
1.0
 40
1.0
 10
17.849423313
 20
13.8874168218
 30
0.0
 10
17.8407713978
 20
13.892218734
 30
0.0
 10
17.8226444223
 20
13.9007587724
 30
0.0
 10
17.7941292979
 20
13.9101730149
 30
0.0
 10
17.7649610977
 20
13.9160477844
 30
0.0
 10
17.7453394566
 20
13.917472294
 30
0.0
 10
17.7357204526
 20
13.917472294
 30
0.0
  0
LINE
  5
5D7
100
AcDbEntity
  8
0
100
AcDbLine
 62
7
  6
CONTINUOUS
 10
17.2441359782
 20
11.8392737546
 11
17.2413576593
 21
11.8389191271
  0
LINE
  5
5D8
100
AcDbEntity
  8
0
100
AcDbLine
 62
7
  6
CONTINUOUS
 10
17.2413576593
 20
11.8389191271
 11
17.2383516117
 21
11.8378042459
  0
LINE
  5
5D9
100
AcDbEntity
  8
0
100
AcDbLine
 62
7
  6
CONTINUOUS
 10
17.2383516117
 20
11.8378042459
 11
17.2356727355
 21
11.8360635543
  0
LINE
  5
5DA
100
AcDbEntity
  8
0
100
AcDbLine
 62
7
  6
CONTINUOUS
 10
17.2349403809
 20
11.8354074534
 11
17.2337644825
 21
11.8340728919
  0
SPLINE
  5
5DB
100
AcDbEntity
  8
0
100
AcDbSpline
 62
7
  6
CONTINUOUS
 70
0
 71
3
 72
9
 73
5
 74
0
 42
0.0000001
 43
0.0000001
 44
0.0000000001
 40
0.0
 40
0.0
 40
0.0
 40
0.0
 40
0.4996535196
 40
1.0
 40
1.0
 40
1.0
 40
1.0
 10
16.8811484633
 20
10.7515449721
 30
0.0
 10
16.8822795757
 20
10.7515449721
 30
0.0
 10
16.884567405
 20
10.752016399
 30
0.0
 10
16.8864744568
 20
10.7533675417
 30
0.0
 10
16.8872453457
 20
10.7541974191
 30
0.0
  0
SPLINE
  5
5DC
100
AcDbEntity
  8
0
100
AcDbSpline
 62
7
  6
CONTINUOUS
 70
0
 71
3
 72
9
 73
5
 74
0
 42
0.0000001
 43
0.0000001
 44
0.0000000001
 40
0.0
 40
0.0
 40
0.0
 40
0.0
 40
0.2514907712
 40
1.0
 40
1.0
 40
1.0
 40
1.0
 10
16.8872453457
 20
10.7541974191
 30
0.0
 10
16.8874586656
 20
10.7544270622
 30
0.0
 10
16.8882539745
 20
10.7553878941
 30
0.0
 10
16.8888348756
 20
10.756526625
 30
0.0
 10
16.8891103037
 20
10.7574179107
 30
0.0
  0
SPLINE
  5
5DD
100
AcDbEntity
  8
0
100
AcDbSpline
 62
7
  6
CONTINUOUS
 70
0
 71
3
 72
8
 73
4
 74
0
 42
0.0000001
 43
0.0000001
 44
0.0000000001
 40
0.0
 40
0.0
 40
0.0
 40
0.0
 40
1.0
 40
1.0
 40
1.0
 40
1.0
 10
16.8164916235
 20
10.7528764406
 30
0.0
 10
16.8173801831
 20
10.7523030071
 30
0.0
 10
16.8183975193
 20
10.7518946743
 30
0.0
 10
16.8194360291
 20
10.7516950205
 30
0.0
  0
SPLINE
  5
5DE
100
AcDbEntity
  8
0
100
AcDbSpline
 62
7
  6
CONTINUOUS
 70
0
 71
3
 72
11
 73
7
 74
0
 42
0.0000001
 43
0.0000001
 44
0.0000000001
 40
0.0
 40
0.0
 40
0.0
 40
0.0
 40
0.330844272
 40
0.60516213
 40
0.8229839198
 40
1.0
 40
1.0
 40
1.0
 40
1.0
 10
17.2340122867
 20
12.5456110814
 30
0.0
 10
17.2341491777
 20
12.5460540608
 30
0.0
 10
17.234446198
 20
12.5468521687
 30
0.0
 10
17.2350283691
 20
12.5478557163
 30
0.0
 10
17.235693834
 20
12.548538622
 30
0.0
 10
17.2362383824
 20
12.5487441995
 30
0.0
 10
17.2364861141
 20
12.5487571892
 30
0.0
  0
SPLINE
  5
5DF
100
AcDbEntity
  8
0
100
AcDbSpline
 62
7
  6
CONTINUOUS
 70
0
 71
3
 72
8
 73
4
 74
0
 42
0.0000001
 43
0.0000001
 44
0.0000000001
 40
0.0
 40
0.0
 40
0.0
 40
0.0
 40
1.0
 40
1.0
 40
1.0
 40
1.0
 10
16.4812864382
 20
10.753070487
 30
0.0
 10
16.4822147161
 20
10.7524151605
 30
0.0
 10
16.4833014567
 20
10.7519442917
 30
0.0
 10
16.4844145059
 20
10.7517156562
 30
0.0
  0
LINE
  5
5E0
100
AcDbEntity
  8
0
100
AcDbLine
 62
7
  6
CONTINUOUS
 10
16.4109968182
 20
10.7865049307
 11
16.4030326789
 21
10.7891805527
  0
LINE
  5
5E1
100
AcDbEntity
  8
0
100
AcDbLine
 62
7
  6
CONTINUOUS
 10
17.1131638386
 20
12.1532195393
 11
17.1137860128
 21
12.1565587163
  0
SPLINE
  5
5E2
100
AcDbEntity
  8
0
100
AcDbSpline
 62
7
  6
CONTINUOUS
 70
0
 71
3
 72
12
 73
8
 74
0
 42
0.0000001
 43
0.0000001
 44
0.0000000001
 40
0.0
 40
0.0
 40
0.0
 40
0.0
 40
0.102509622
 40
0.219324477
 40
0.4808614571
 40
0.7526725362
 40
1.0
 40
1.0
 40
1.0
 40
1.0
 10
17.2370463123
 20
12.5500667724
 30
0.0
 10
17.2368667677
 20
12.5504326458
 30
0.0
 10
17.2365488318
 20
12.5512481334
 30
0.0
 10
17.2360597861
 20
12.5530989337
 30
0.0
 10
17.2357607952
 20
12.5556807037
 30
0.0
 10
17.2358535488
 20
12.5587909938
 30
0.0
 10
17.2362311954
 20
12.5608351015
 30
0.0
 10
17.2365215161
 20
12.5617745798
 30
0.0
  0
SPLINE
  5
5E3
100
AcDbEntity
  8
0
100
AcDbSpline
 62
7
  6
CONTINUOUS
 70
0
 71
3
 72
11
 73
7
 74
0
 42
0.0000001
 43
0.0000001
 44
0.0000000001
 40
0.0
 40
0.0
 40
0.0
 40
0.0
 40
0.3321328128
 40
0.6072701865
 40
0.8237494676
 40
1.0
 40
1.0
 40
1.0
 40
1.0
 10
17.1082263647
 20
12.1466113177
 30
0.0
 10
17.1083660641
 20
12.1470633849
 30
0.0
 10
17.1086710842
 20
12.1478768999
 30
0.0
 10
17.1092676635
 20
12.1488958318
 30
0.0
 10
17.1099557946
 20
12.1495791243
 30
0.0
 10
17.1105172899
 20
12.1497643109
 30
0.0
 10
17.1107683785
 20
12.1497642039
 30
0.0
  0
SPLINE
  5
5E4
100
AcDbEntity
  8
0
100
AcDbSpline
 62
7
  6
CONTINUOUS
 70
0
 71
3
 72
11
 73
7
 74
0
 42
0.0000001
 43
0.0000001
 44
0.0000000001
 40
0.0
 40
0.0
 40
0.0
 40
0.0
 40
0.195406567
 40
0.4166659067
 40
0.682655281
 40
1.0
 40
1.0
 40
1.0
 40
1.0
 10
17.2364861141
 20
12.5487571892
 30
0.0
 10
17.2366757094
 20
12.5487671306
 30
0.0
 10
17.237088775
 20
12.5486904027
 30
0.0
 10
17.2376496456
 20
12.5483140667
 30
0.0
 10
17.2381609639
 20
12.5477145903
 30
0.0
 10
17.2384432972
 20
12.5472200166
 30
0.0
 10
17.2385791297
 20
12.5469432191
 30
0.0
  0
SPLINE
  5
5E5
100
AcDbEntity
  8
0
100
AcDbSpline
 62
7
  6
CONTINUOUS
 70
0
 71
3
 72
11
 73
7
 74
0
 42
0.0000001
 43
0.0000001
 44
0.0000000001
 40
0.0
 40
0.0
 40
0.0
 40
0.0
 40
0.2530662027
 40
0.3788190087
 40
0.5041417264
 40
1.0
 40
1.0
 40
1.0
 40
1.0
 10
16.4281915931
 20
10.7823590464
 30
0.0
 10
16.4267243471
 20
10.7826328227
 30
0.0
 10
16.4245365661
 20
10.7830877742
 30
0.0
 10
16.4216311383
 20
10.7837200619
 30
0.0
 10
16.4173428019
 20
10.7847289954
 30
0.0
 10
16.4138004359
 20
10.7856726568
 30
0.0
 10
16.4109968182
 20
10.7865049307
 30
0.0
  0
ELLIPSE
  5
5E6
100
AcDbEntity
  8
0
100
AcDbEllipse
 62
7
  6
CONTINUOUS
 10
4.1925107697
 20
5.3601198968
 30
0.0
 11
0.0
 21
0.0083333333
 31
0.0
 40
0.0349207695
 41
-1.5707963268
 42
0.0
  0
ELLIPSE
  5
5E7
100
AcDbEntity
  8
0
100
AcDbEllipse
 62
7
  6
CONTINUOUS
 10
4.6925107697
 20
5.3601198968
 30
0.0
 11
0.0
 21
0.0083333333
 31
0.0
 40
0.0349207695
 41
-1.4180310764
 42
-0.0
  0
ELLIPSE
  5
5E8
100
AcDbEntity
  8
0
100
AcDbEllipse
 62
7
  6
CONTINUOUS
 10
5.1925107697
 20
5.3601198968
 30
0.0
 11
-0.0
 21
0.0083333333
 31
0.0
 40
0.0349207695
 41
-1.4180310764
 42
-0.0
  0
ELLIPSE
  5
5E9
100
AcDbEntity
  8
0
100
AcDbEllipse
 62
7
  6
CONTINUOUS
 10
5.6925107697
 20
5.3601198968
 30
0.0
 11
0.0
 21
0.0083333333
 31
0.0
 40
0.0349207695
 41
-1.4180310764
 42
-0.0
  0
ELLIPSE
  5
5EA
100
AcDbEntity
  8
0
100
AcDbEllipse
 62
7
  6
CONTINUOUS
 10
6.1925107697
 20
5.3601198968
 30
0.0
 11
0.0
 21
0.0083333333
 31
0.0
 40
0.0349207695
 41
-1.4180310764
 42
-0.0
  0
ELLIPSE
  5
5EB
100
AcDbEntity
  8
0
100
AcDbEllipse
 62
7
  6
CONTINUOUS
 10
6.6925107697
 20
5.3601198968
 30
0.0
 11
0.0
 21
0.0083333333
 31
0.0
 40
0.0349207695
 41
-1.4180310764
 42
-0.0
  0
ELLIPSE
  5
5EC
100
AcDbEntity
  8
0
100
AcDbEllipse
 62
7
  6
CONTINUOUS
 10
7.1925107697
 20
5.3601198968
 30
0.0
 11
-0.0
 21
0.0083333333
 31
0.0
 40
0.0349207695
 41
-1.4180310764
 42
-0.0
  0
ELLIPSE
  5
5ED
100
AcDbEntity
  8
0
100
AcDbEllipse
 62
7
  6
CONTINUOUS
 10
7.6925107697
 20
5.3601198968
 30
0.0
 11
-0.0
 21
0.0083333333
 31
0.0
 40
0.0349207695
 41
-1.4180310764
 42
-0.0
  0
ENDSEC
  0
SECTION
  2
OBJECTS
  0
DICTIONARY
  5
C
100
AcDbDictionary
280
0
281
1
  3
ACAD_GROUP
350
D
  3
ACAD_MLINESTYLE
350
17
  3
ACAD_LAYOUT
350
1A
  3
ACAD_PLOTSETTINGS
350
19
  3
ACAD_PLOTSTYLENAME
350
E
  0
DICTIONARY
  5
D
102
{ACAD_REACTORS
330
C
102
}
100
AcDbDictionary
280
0
281
1
  0
ACDBDICTIONARYWDFLT
  5
E
102
{ACAD_REACTORS
330
C
102
}
100
AcDbDictionary
281
1
  3
Normal
350
F
100
AcDbDictionaryWithDefault
340
F
  0
DICTIONARY
  5
17
102
{ACAD_REACTORS
330
C
102
}
100
AcDbDictionary
280
0
281
1
  3
Standard
350
18
  0
DICTIONARY
  5
19
102
{ACAD_REACTORS
330
C
102
}
100
AcDbDictionary
281
1
  0
DICTIONARY
  5
1A
102
{ACAD_REACTORS
330
C
102
}
100
AcDbDictionary
281
1
  3
Model
350
5EE
  3
Layout1
350
5EF
  0
ACDBPLACEHOLDER
  5
F
102
{ACAD_REACTORS
330
E
102
}
  0
MLINESTYLE
  5
18
102
{ACAD_REACTORS
330
17
102
}
100
AcDbMlineStyle
  2
STANDARD
 70
0
  3

 62
256
 51
90.0
 52
90.0
 71
2
 49
0.5
 62
256
  6
BYLAYER
 49
-0.5
 62
256
  6
BYLAYER
  0
LAYOUT
  5
5EE
102
{ACAD_REACTORS
330
1A
102
}
100
AcDbPlotSettings
  1

  2
none_device
  4
ANSI_C_(22.00_x_17.00_Inches)
  6

 40
0.0
 41
0.0
 42
0.0
 43
0.0
 44
558.8
 45
431.8
 46
0.0
 47
0.0
 48
0.0
 49
0.0
140
0.0
141
0.0
142
1.0
143
1.0
 70
1024
 72
0
 73
0
 74
0
  7

 75
0
147
1.0
148
0.0
149
0.0
100
AcDbLayout
  1
Model
 70
0
 71
0
 10
0.0
 20
0.0
 11
22.0
 21
17.0
 12
0.0
 22
0.0
 32
0.0
 14
0.0
 24
0.0
 34
0.0
 15
0.0
 25
0.0
 35
0.0
146
0.0
 13
0.0
 23
0.0
 33
0.0
 16
1.0
 26
0.0
 36
0.0
 17
0.0
 27
1.0
 37
0.0
 76
0
330
218
345
0
346
0
  0
LAYOUT
  5
5EF
102
{ACAD_REACTORS
330
1A
102
}
100
AcDbPlotSettings
  1

  2
none_device
  4
ANSI_C_(22.00_x_17.00_Inches)
  6

 40
0.0
 41
0.0
 42
0.0
 43
0.0
 44
558.8
 45
431.8
 46
0.0
 47
0.0
 48
0.0
 49
0.0
140
0.0
141
0.0
142
1.0
143
1.0
 70
0
 72
0
 73
0
 74
0
  7

 75
0
147
1.0
148
0.0
149
0.0
100
AcDbLayout
  1
Layout1
 70
0
 71
1
 10
0.0
 20
0.0
 11
22.0
 21
17.0
 12
0.0
 22
0.0
 32
0.0
 14
0.0
 24
0.0
 34
0.0
 15
0.0
 25
0.0
 35
0.0
146
0.0
 13
0.0
 23
0.0
 33
0.0
 16
1.0
 26
0.0
 36
0.0
 17
0.0
 27
1.0
 37
0.0
 76
0
330
219
345
0
346
0
  0
ENDSEC
  0
EOF