999
DXF file: _cgs_temp_output.dxf
999
Pro/ENGINEER 2016360 by Parametric Technology Corporation
  0
SECTION
  2
HEADER
  9
$ACADVER
  1
AC1021
  9
$DWGCODEPAGE
  3
ANSI_1252
  9
$EXTMAX
 10
22.0
 20
17.0
 30
0.0
  9
$EXTMIN
 10
0.0
 20
0.0
 30
0.0
  9
$LIMMIN
 10
0.0
 20
0.0
  9
$LIMMAX
 10
22.0
 20
17.0
  9
$VIEWCTR
 10
11.0
 20
8.5
  9
$VIEWSIZE
 40
17.0
  9
$CLAYER
  8
0
  9
$LTSCALE
 40
1.21
  9
$CELTYPE
  6
BYLAYER
  9
$DIMSCALE
 40
1.0
  9
$DIMASZ
 40
0.1875
  9
$DIMEXO
 40
0.0625
  9
$DIMDLI
 40
0.836
  9
$DIMEXE
 40
0.125
  9
$DIMCEN
 40
0.198
  9
$DIMLFAC
 40
1.0
  9
$DIMBLK
  1
_CLOSED
  9
$DIMALT
 70
0
  9
$DIMALTF
 40
25.4
  9
$DIMTXT
 40
0.15625
  9
$DIMTOL
 70
0
  9
$DIMLIM
 70
0
  9
$DIMTFAC
 40
1.0
  9
$DIMGAP
 40
0.09
  9
$DIMDSEP
 70
46
  9
$AUNITS
 70
0
  9
$PDMODE
 70
3
  9
$PDSIZE
 40
0.3125
  9
$HANDSEED
  5
34B
  9
$TILEMODE
 70
1
  9
$MEASUREMENT
 70
0
  9
$INSUNITS
 70
1
  0
ENDSEC
  0
SECTION
  2
CLASSES
  0
CLASS
  1
ACDBDICTIONARYWDFLT
  2
AcDbDictionaryWithDefault
  3
AutoCAD 2000
 90
0
 91
1
280
0
281
0
  0
CLASS
  1
ACDBPLACEHOLDER
  2
AcDbPlaceHolder
  3
AutoCAD 2000
 90
0
 91
1
280
0
281
0
  0
CLASS
  1
LAYOUT
  2
AcDbLayout
  3
AutoCAD 2000
 90
0
 91
0
280
0
281
0
  0
ENDSEC
  0
SECTION
  2
TABLES
  0
TABLE
  2
VPORT
  5
8
100
AcDbSymbolTable
 70
2
  0
VPORT
  5
1F4
100
AcDbSymbolTableRecord
100
AcDbViewportTableRecord
  2
*ACTIVE
 70
0
 10
0.0
 20
0.0
 11
1.0
 21
1.0
 12
11.0
 22
8.5
 13
0.0
 23
0.0
 14
1.0
 24
1.0
 15
0.0
 25
0.0
 16
0.0
 26
0.0
 36
1.0
 17
0.0
 27
0.0
 37
0.0
 40
17.0
 41
1.2941176471
 42
50.0
 43
0.0
 44
0.0
 50
0.0
 51
0.0
 71
0
 72
100
 73
1
 74
1
 75
0
 76
0
 77
0
 78
0
  0
ENDTAB
  0
TABLE
  2
LTYPE
  5
5
100
AcDbSymbolTable
 70
6
  0
LTYPE
  5
14
100
AcDbSymbolTableRecord
100
AcDbLinetypeTableRecord
  2
BYBLOCK
 70
0
  3

 72
65
 73
0
 40
0.0
  0
LTYPE
  5
15
100
AcDbSymbolTableRecord
100
AcDbLinetypeTableRecord
  2
BYLAYER
 70
0
  3

 72
65
 73
0
 40
0.0
  0
LTYPE
  5
16
100
AcDbSymbolTableRecord
100
AcDbLinetypeTableRecord
  2
CONTINUOUS
 70
64
  3
Solid line
 72
65
 73
0
 40
0.0
  0
LTYPE
  5
1F5
100
AcDbSymbolTableRecord
100
AcDbLinetypeTableRecord
  2
CENTER
 70
64
  3
____ _ ____ _ ____ _ ____ _ ____ _ ____ _ ____
 72
65
 73
4
 40
0.6
 49
0.375
 74
0
 49
-0.075
 74
0
 49
0.075
 74
0
 49
-0.075
 74
0
  0
LTYPE
  5
1F6
100
AcDbSymbolTableRecord
100
AcDbLinetypeTableRecord
  2
HIDDEN
 70
64
  3
- - - - - - - - - - - - - - - - - - - -
 72
65
 73
2
 40
0.2
 49
0.1
 74
0
 49
-0.1
 74
0
  0
LTYPE
  5
1F7
100
AcDbSymbolTableRecord
100
AcDbLinetypeTableRecord
  2
PHANTOM
 70
64
  3
_____ _ _ _____ _ _ _____ _ _ _____
 72
65
 73
6
 40
0.8
 49
0.45
 74
0
 49
-0.05
 74
0
 49
0.1
 74
0
 49
-0.05
 74
0
 49
0.1
 74
0
 49
-0.05
 74
0
  0
LTYPE
  5
1F8
100
AcDbSymbolTableRecord
100
AcDbLinetypeTableRecord
  2
DOT
 70
64
  3
. . . . . . . . . . . . . . . . . . . .
 72
65
 73
2
 40
0.2
 49
0.1
 74
0
 49
-0.1
 74
0
  0
LTYPE
  5
1F9
100
AcDbSymbolTableRecord
100
AcDbLinetypeTableRecord
  2
DASHED
 70
64
  3
- - - - - - - - - - - - - - - - - - - -
 72
65
 73
2
 40
0.2
 49
0.1
 74
0
 49
-0.1
 74
0
  0
ENDTAB
  0
TABLE
  2
LAYER
  5
2
100
AcDbSymbolTable
 70
36
  0
LAYER
  5
10
100
AcDbSymbolTableRecord
100
AcDbLayerTableRecord
  2
0
 70
0
 62
7
  6
CONTINUOUS
370
-3
390
F
  0
LAYER
  5
1FA
100
AcDbSymbolTableRecord
100
AcDbLayerTableRecord
  2
DEFAULT_1
 70
0
 62
7
  6
CENTER
370
-3
390
F
  0
LAYER
  5
1FB
100
AcDbSymbolTableRecord
100
AcDbLayerTableRecord
  2
DEFAULT_2
 70
0
 62
8
  6
HIDDEN
370
-3
390
F
  0
LAYER
  5
1FC
100
AcDbSymbolTableRecord
100
AcDbLayerTableRecord
  2
DEFAULT_3
 70
0
 62
7
  6
PHANTOM
370
-3
390
F
  0
LAYER
  5
1FD
100
AcDbSymbolTableRecord
100
AcDbLayerTableRecord
  2
01_ALL_DTM_PLN
 70
0
 62
7
  6
CONTINUOUS
370
-3
390
F
  0
LAYER
  5
1FE
100
AcDbSymbolTableRecord
100
AcDbLayerTableRecord
  2
01__ASM_ALL_DTM_PLN
 70
0
 62
7
  6
CONTINUOUS
370
-3
390
F
  0
LAYER
  5
1FF
100
AcDbSymbolTableRecord
100
AcDbLayerTableRecord
  2
01__ASM_DEF_DTM_PLN
 70
0
 62
7
  6
CONTINUOUS
370
-3
390
F
  0
LAYER
  5
200
100
AcDbSymbolTableRecord
100
AcDbLayerTableRecord
  2
01___PRT_ALL_DTM_PLN
 70
0
 62
7
  6
CONTINUOUS
370
-3
390
F
  0
LAYER
  5
201
100
AcDbSymbolTableRecord
100
AcDbLayerTableRecord
  2
01___PRT_DEF_DTM_PLN
 70
0
 62
7
  6
CONTINUOUS
370
-3
390
F
  0
LAYER
  5
202
100
AcDbSymbolTableRecord
100
AcDbLayerTableRecord
  2
02_ALL_AXES
 70
0
 62
7
  6
CONTINUOUS
370
-3
390
F
  0
LAYER
  5
203
100
AcDbSymbolTableRecord
100
AcDbLayerTableRecord
  2
02__ASM_ALL_AXES
 70
0
 62
7
  6
CONTINUOUS
370
-3
390
F
  0
LAYER
  5
204
100
AcDbSymbolTableRecord
100
AcDbLayerTableRecord
  2
02___PRT_ALL_AXES
 70
0
 62
7
  6
CONTINUOUS
370
-3
390
F
  0
LAYER
  5
205
100
AcDbSymbolTableRecord
100
AcDbLayerTableRecord
  2
03_ALL_CURVES
 70
0
 62
7
  6
CONTINUOUS
370
-3
390
F
  0
LAYER
  5
206
100
AcDbSymbolTableRecord
100
AcDbLayerTableRecord
  2
03__ASM_ALL_CURVES
 70
0
 62
7
  6
CONTINUOUS
370
-3
390
F
  0
LAYER
  5
207
100
AcDbSymbolTableRecord
100
AcDbLayerTableRecord
  2
03___PRT_ALL_CURVES
 70
0
 62
7
  6
CONTINUOUS
370
-3
390
F
  0
LAYER
  5
208
100
AcDbSymbolTableRecord
100
AcDbLayerTableRecord
  2
04_ALL_DTM_PNT
 70
0
 62
7
  6
CONTINUOUS
370
-3
390
F
  0
LAYER
  5
209
100
AcDbSymbolTableRecord
100
AcDbLayerTableRecord
  2
04__ASM_ALL_DTM_PNT
 70
0
 62
7
  6
CONTINUOUS
370
-3
390
F
  0
LAYER
  5
20A
100
AcDbSymbolTableRecord
100
AcDbLayerTableRecord
  2
04___PRT_ALL_DTM_PNT
 70
0
 62
7
  6
CONTINUOUS
370
-3
390
F
  0
LAYER
  5
20B
100
AcDbSymbolTableRecord
100
AcDbLayerTableRecord
  2
05_ALL_DTM_CSYS
 70
0
 62
7
  6
CONTINUOUS
370
-3
390
F
  0
LAYER
  5
20C
100
AcDbSymbolTableRecord
100
AcDbLayerTableRecord
  2
05__ASM_ALL_DTM_CSYS
 70
0
 62
7
  6
CONTINUOUS
370
-3
390
F
  0
LAYER
  5
20D
100
AcDbSymbolTableRecord
100
AcDbLayerTableRecord
  2
05__ASM_DEF_DTM_CSYS
 70
0
 62
7
  6
CONTINUOUS
370
-3
390
F
  0
LAYER
  5
20E
100
AcDbSymbolTableRecord
100
AcDbLayerTableRecord
  2
05___PRT_ALL_DTM_CSYS
 70
0
 62
7
  6
CONTINUOUS
370
-3
390
F
  0
LAYER
  5
20F
100
AcDbSymbolTableRecord
100
AcDbLayerTableRecord
  2
05___PRT_DEF_DTM_CSYS
 70
0
 62
7
  6
CONTINUOUS
370
-3
390
F
  0
LAYER
  5
210
100
AcDbSymbolTableRecord
100
AcDbLayerTableRecord
  2
06_ALL_SURFS
 70
0
 62
7
  6
CONTINUOUS
370
-3
390
F
  0
LAYER
  5
211
100
AcDbSymbolTableRecord
100
AcDbLayerTableRecord
  2
06__ASM_ALL_SURFS
 70
0
 62
7
  6
CONTINUOUS
370
-3
390
F
  0
LAYER
  5
212
100
AcDbSymbolTableRecord
100
AcDbLayerTableRecord
  2
06___PRT_ALL_SURFS
 70
0
 62
7
  6
CONTINUOUS
370
-3
390
F
  0
LAYER
  5
213
100
AcDbSymbolTableRecord
100
AcDbLayerTableRecord
  2
07__ASM_ALL_SKELETONS
 70
0
 62
7
  6
CONTINUOUS
370
-3
390
F
  0
LAYER
  5
214
100
AcDbSymbolTableRecord
100
AcDbLayerTableRecord
  2
DRAWINGS
 70
0
 62
7
  6
CONTINUOUS
370
-3
390
F
  0
LAYER
  5
215
100
AcDbSymbolTableRecord
100
AcDbLayerTableRecord
  2
SHELL
 70
0
 62
7
  6
CONTINUOUS
370
-3
390
F
  0
ENDTAB
  0
TABLE
  2
STYLE
  5
3
100
AcDbSymbolTable
 70
1
  0
STYLE
  5
11
100
AcDbSymbolTableRecord
100
AcDbTextStyleTableRecord
  2
STANDARD
 70
0
 40
0.0
 41
0.8
 50
0.0
 71
0
 42
0.2
  3
txt
  4

  0
STYLE
  5
216
100
AcDbSymbolTableRecord
100
AcDbTextStyleTableRecord
  2
TEXTSTYLE_1
 70
0
 40
0.0
 41
0.8
 50
0.0
 71
0
 42
0.2
  3
gdt
  4

  0
ENDTAB
  0
TABLE
  2
VIEW
  5
6
100
AcDbSymbolTable
 70
0
  0
ENDTAB
  0
TABLE
  2
UCS
  5
7
100
AcDbSymbolTable
 70
0
  0
ENDTAB
  0
TABLE
  2
APPID
  5
9
100
AcDbSymbolTable
 70
1
  0
APPID
  5
217
100
AcDbSymbolTableRecord
100
AcDbRegAppTableRecord
  2
ACAD
 70
0
  0
ENDTAB
  0
TABLE
  2
BLOCK_RECORD
  5
1
100
AcDbSymbolTable
 70
0
  0
BLOCK_RECORD
  5
218
100
AcDbSymbolTableRecord
100
AcDbBlockTableRecord
  2
*Model_Space
  0
BLOCK_RECORD
  5
219
100
AcDbSymbolTableRecord
100
AcDbBlockTableRecord
  2
*Paper_Space
  0
ENDTAB
  0
TABLE
  2
DIMSTYLE
  5
A
100
AcDbSymbolTable
 70
1
100
AcDbDimStyleTable
 71
0
  0
DIMSTYLE
105
21A
100
AcDbSymbolTableRecord
100
AcDbDimStyleTableRecord
  2
STANDARD
 70
0
  3

  4

 40
1.0
 41
0.1875
 42
0.0625
 43
0.38
 44
0.125
 45
0.0
 46
0.0
 47
0.0001
 48
0.0001
140
0.15625
141
0.09
142
0.0
143
25.4
144
1.0
145
0.0
146
1.0
147
0.09
 71
0.0
 72
0.0
 73
1
 74
1
 75
0
 76
0
 77
0
 78
4
 79
1
170
0
171
3
172
0
173
0
174
0
175
0
176
0
177
0
178
0
270
2
179
4
271
4
272
4
273
2
274
2
275
0
280
0
281
0
282
0
283
1
284
4
285
0
286
0
287
3
288
0
340
11
278
46
  0
ENDTAB
  0
ENDSEC
  0
SECTION
  2
BLOCKS
  0
BLOCK
  5
20
100
AcDbEntity
  8
0
100
AcDbBlockBegin
  2
*Model_Space
 70
0
 10
0.0
 20
0.0
 30
0.0
  3
*Model_Space
  1

  0
ENDBLK
  5
21
100
AcDbEntity
  8
0
100
AcDbBlockEnd
  0
BLOCK
  5
1C
100
AcDbEntity
  8
0
100
AcDbBlockBegin
  2
*Paper_Space
 70
0
 10
0.0
 20
0.0
 30
0.0
  3
*Paper_Space
  1

  0
ENDBLK
  5
1D
100
AcDbEntity
  8
0
100
AcDbBlockEnd
  0
ENDSEC
  0
SECTION
  2
ENTITIES
  0
MTEXT
  5
21B
100
AcDbEntity
  8
0
100
AcDbMText
 62
7
  6
CONTINUOUS
  7
STANDARD
 71
1
 72
1
 10
15.9560215477
 20
0.9479130325
 30
0.0
 11
1.0
 21
0.0
 31
0.0
 44
0.9
  1
SCALE: 1:1.000
 40
0.3
 41
3.36
  0
LINE
  5
21C
100
AcDbEntity
  8
0
100
AcDbLine
 62
7
  6
CONTINUOUS
 10
0.0
 20
0.0
 11
0.0
 21
17.0
  0
LINE
  5
21D
100
AcDbEntity
  8
0
100
AcDbLine
 62
7
  6
CONTINUOUS
 10
0.0
 20
0.0
 11
22.0
 21
0.0
  0
LINE
  5
21E
100
AcDbEntity
  8
0
100
AcDbLine
 62
7
  6
CONTINUOUS
 10
0.0
 20
17.0
 11
22.0
 21
17.0
  0
LINE
  5
21F
100
AcDbEntity
  8
0
100
AcDbLine
 62
7
  6
CONTINUOUS
 10
22.0
 20
0.0
 11
22.0
 21
17.0
  0
LINE
  5
220
100
AcDbEntity
  8
0
100
AcDbLine
 62
7
  6
CONTINUOUS
 10
5.1303672762
 20
5.6051198968
 11
5.1303672762
 21
5.4851198968
  0
LINE
  5
221
100
AcDbEntity
  8
0
100
AcDbLine
 62
7
  6
CONTINUOUS
 10
5.6303672762
 20
5.4851198968
 11
5.6303672762
 21
5.6451198968
  0
LINE
  5
222
100
AcDbEntity
  8
0
100
AcDbLine
 62
7
  6
CONTINUOUS
 10
5.3803672762
 20
5.2351198968
 11
6.8803672762
 21
5.2351198968
  0
LINE
  5
223
100
AcDbEntity
  8
0
100
AcDbLine
 62
7
  6
CONTINUOUS
 10
5.6303672762
 20
5.6451198968
 11
5.6453672762
 21
5.6301198968
  0
LINE
  5
224
100
AcDbEntity
  8
0
100
AcDbLine
 62
7
  6
CONTINUOUS
 10
6.7558682802
 20
5.6451198968
 11
6.7420609635
 21
5.6451198968
  0
LINE
  5
225
100
AcDbEntity
  8
0
100
AcDbLine
 62
7
  6
CONTINUOUS
 10
5.6256561989
 20
5.6451198968
 11
6.7418032116
 21
5.6451198968
  0
LINE
  5
226
100
AcDbEntity
  8
0
100
AcDbLine
 62
7
  6
CONTINUOUS
 10
7.0048662721
 20
5.6451198968
 11
7.0882439104
 21
5.6451198968
  0
LINE
  5
227
100
AcDbEntity
  8
0
100
AcDbLine
 62
7
  6
CONTINUOUS
 10
5.3303672762
 20
5.8051198968
 11
6.8742672762
 21
5.8051198968
  0
LINE
  5
228
100
AcDbEntity
  8
0
100
AcDbLine
 62
7
  6
CONTINUOUS
 10
6.6303672762
 20
5.6451198968
 11
6.6303672762
 21
5.4851198968
  0
LINE
  5
229
100
AcDbEntity
  8
0
100
AcDbLine
 62
7
  6
CONTINUOUS
 10
7.1303672762
 20
5.4851198968
 11
7.1303672762
 21
5.5490198968
  0
LINE
  5
22A
100
AcDbEntity
  8
0
100
AcDbLine
 62
7
  6
CONTINUOUS
 10
5.5087206096
 20
9.6000477814
 11
7.0287487181
 21
9.6000477814
  0
LINE
  5
22B
100
AcDbEntity
  8
0
100
AcDbLine
 62
7
  6
CONTINUOUS
 10
5.0708720839
 20
13.0850477814
 11
5.0708720839
 21
12.7350477814
  0
LINE
  5
22C
100
AcDbEntity
  8
0
100
AcDbLine
 62
7
  6
CONTINUOUS
 10
5.0708720839
 20
12.4650477814
 11
5.0708720839
 21
12.1150477814
  0
LINE
  5
22D
100
AcDbEntity
  8
0
100
AcDbLine
 62
7
  6
CONTINUOUS
 10
7.0558720839
 20
11.7800477814
 11
7.0437487181
 21
11.7800477814
  0
LWPOLYLINE
  5
22E
100
AcDbEntity
  8
0
100
AcDbPolyline
 62
7
  6
CONTINUOUS
 90
8
 70
0
 10
5.4937206779
 20
13.130047729
 10
5.4934854771
 20
13.1271601828
 10
5.4898642122
 20
13.1185279121
 10
5.4828304514
 20
13.111371886
 10
5.4737862873
 20
13.1061165475
 10
5.4632036235
 20
13.1025229969
 10
5.4516411521
 20
13.1005467299
 10
5.4414624091
 20
13.1000477963
  0
LINE
  5
22F
100
AcDbEntity
  8
0
100
AcDbLine
 62
7
  6
CONTINUOUS
 10
5.4937206096
 20
12.0700458128
 11
5.4937206096
 21
9.6150477814
  0
LINE
  5
230
100
AcDbEntity
  8
0
100
AcDbLine
 62
7
  6
CONTINUOUS
 10
5.4937206096
 20
13.1300477814
 11
5.4937206096
 21
15.5850477814
  0
LINE
  5
231
100
AcDbEntity
  8
0
100
AcDbLine
 62
7
  6
CONTINUOUS
 10
5.5708720839
 20
12.6900477814
 11
5.5708720839
 21
12.5100477814
  0
LINE
  5
232
100
AcDbEntity
  8
0
100
AcDbLine
 62
7
  6
CONTINUOUS
 10
5.0858720839
 20
12.1000477814
 11
5.4414673316
 21
12.1000477814
  0
LINE
  5
233
100
AcDbEntity
  8
0
100
AcDbLine
 62
7
  6
CONTINUOUS
 10
6.5858720839
 20
12.1000477814
 11
7.0558720839
 21
12.1000477814
  0
LWPOLYLINE
  5
234
100
AcDbEntity
  8
0
100
AcDbPolyline
 62
7
  6
CONTINUOUS
 90
8
 70
0
 10
5.4414653001
 20
12.1000478085
 10
5.4498138858
 20
12.0997157014
 10
5.4616577233
 20
12.0979388468
 10
5.4725500997
 20
12.0945127082
 10
5.481914663
 20
12.0893933458
 10
5.4893387805
 20
12.0822971576
 10
5.4933645189
 20
12.0736019823
 10
5.4937209692
 20
12.0700458128
  0
LINE
  5
235
100
AcDbEntity
  8
0
100
AcDbLine
 62
7
  6
CONTINUOUS
 10
5.0858720839
 20
12.4800477814
 11
5.5408720839
 21
12.4800477814
  0
LINE
  5
236
100
AcDbEntity
  8
0
100
AcDbLine
 62
7
  6
CONTINUOUS
 10
6.5708720839
 20
12.4800477814
 11
7.0558720839
 21
12.4800477814
  0
LINE
  5
237
100
AcDbEntity
  8
0
100
AcDbLine
 62
7
  6
CONTINUOUS
 10
5.0858720839
 20
12.7200477814
 11
5.5408720839
 21
12.7200477814
  0
LINE
  5
238
100
AcDbEntity
  8
0
100
AcDbLine
 62
7
  6
CONTINUOUS
 10
6.5708720839
 20
12.7200477814
 11
7.0558720839
 21
12.7200477814
  0
LINE
  5
239
100
AcDbEntity
  8
0
100
AcDbLine
 62
7
  6
CONTINUOUS
 10
6.5708720839
 20
12.1110285435
 11
6.5708720839
 21
12.4950477814
  0
LINE
  5
23A
100
AcDbEntity
  8
0
100
AcDbLine
 62
7
  6
CONTINUOUS
 10
6.5708720839
 20
12.7050477814
 11
6.5708720839
 21
13.0890670193
  0
LINE
  5
23B
100
AcDbEntity
  8
0
100
AcDbLine
 62
7
  6
CONTINUOUS
 10
6.6958720839
 20
12.1000477814
 11
6.6958720839
 21
12.4800477814
  0
LINE
  5
23C
100
AcDbEntity
  8
0
100
AcDbLine
 62
7
  6
CONTINUOUS
 10
6.6958720839
 20
12.7200477814
 11
6.6958720839
 21
13.1000477814
  0
LINE
  5
23D
100
AcDbEntity
  8
0
100
AcDbLine
 62
7
  6
CONTINUOUS
 10
5.0858720839
 20
13.1000477814
 11
5.4414673316
 21
13.1000477814
  0
LINE
  5
23E
100
AcDbEntity
  8
0
100
AcDbLine
 62
7
  6
CONTINUOUS
 10
6.5858720839
 20
13.1000477814
 11
7.0558720839
 21
13.1000477814
  0
LINE
  5
23F
100
AcDbEntity
  8
0
100
AcDbLine
 62
7
  6
CONTINUOUS
 10
7.0468514078
 20
13.4200477814
 11
7.0558720839
 21
13.4200477814
  0
LINE
  5
240
100
AcDbEntity
  8
0
100
AcDbLine
 62
7
  6
CONTINUOUS
 10
6.9458720839
 20
12.1000477814
 11
6.9458720839
 21
12.4800477814
  0
LINE
  5
241
100
AcDbEntity
  8
0
100
AcDbLine
 62
7
  6
CONTINUOUS
 10
6.9458720839
 20
12.7200477814
 11
6.9458720839
 21
13.1000477814
  0
LINE
  5
242
100
AcDbEntity
  8
0
100
AcDbLine
 62
7
  6
CONTINUOUS
 10
7.0437487181
 20
9.6150477814
 11
7.0437487181
 21
11.7883196043
  0
LINE
  5
243
100
AcDbEntity
  8
0
100
AcDbLine
 62
7
  6
CONTINUOUS
 10
7.0437487181
 20
13.4350477814
 11
7.0437487181
 21
15.5850477814
  0
LINE
  5
244
100
AcDbEntity
  8
0
100
AcDbLine
 62
7
  6
CONTINUOUS
 10
7.0708720839
 20
11.7950477814
 11
7.0708720839
 21
12.0850477814
  0
LINE
  5
245
100
AcDbEntity
  8
0
100
AcDbLine
 62
7
  6
CONTINUOUS
 10
7.0708720839
 20
12.4950477814
 11
7.0708720839
 21
12.7050477814
  0
LINE
  5
246
100
AcDbEntity
  8
0
100
AcDbLine
 62
7
  6
CONTINUOUS
 10
7.0708720839
 20
13.1150477814
 11
7.0708720839
 21
13.4050477814
  0
LWPOLYLINE
  5
247
100
AcDbEntity
  8
0
100
AcDbPolyline
 62
7
  6
CONTINUOUS
 90
4
 70
0
 10
7.0475594567
 20
13.4183107322
 10
7.047936547
 20
13.4179954626
 10
7.0473556039
 20
13.4188839436
 10
7.0455624182
 20
13.4230231611
  0
LWPOLYLINE
  5
248
100
AcDbEntity
  8
0
100
AcDbPolyline
 62
7
  6
CONTINUOUS
 90
3
 70
0
 10
7.0455624182
 20
13.4230231611
 10
7.0440984961
 20
13.4296107787
 10
7.0437487014
 20
13.4350473492
  0
LINE
  5
249
100
AcDbEntity
  8
0
100
AcDbLine
 62
7
  6
CONTINUOUS
 10
5.5087206096
 20
15.6000477814
 11
7.0287487181
 21
15.6000477814
  0
LINE
  5
24A
100
AcDbEntity
  8
0
100
AcDbLine
 62
7
  6
CONTINUOUS
 10
12.5603552569
 20
5.6006247044
 11
12.5603552569
 21
5.7306247044
  0
LINE
  5
24B
100
AcDbEntity
  8
0
100
AcDbLine
 62
7
  6
CONTINUOUS
 10
14.7403552569
 20
5.1906247044
 11
14.7403552569
 21
5.5871036065
  0
LINE
  5
24C
100
AcDbEntity
  8
0
100
AcDbLine
 62
7
  6
CONTINUOUS
 10
15.0603552569
 20
5.1906411407
 11
15.0603552569
 21
5.7306247044
  0
LINE
  5
24D
100
AcDbEntity
  8
0
100
AcDbLine
 62
7
  6
CONTINUOUS
 10
15.1903552569
 20
5.3306247044
 11
15.1903552569
 21
5.1906247044
  0
LINE
  5
24E
100
AcDbEntity
  8
0
100
AcDbLine
 62
7
  6
CONTINUOUS
 10
16.3653552569
 20
5.1756247044
 11
16.0753552569
 21
5.1756247044
  0
LINE
  5
24F
100
AcDbEntity
  8
0
100
AcDbLine
 62
7
  6
CONTINUOUS
 10
15.0453552569
 20
5.1756247044
 11
14.7553552569
 21
5.1756247044
  0
LINE
  5
250
100
AcDbEntity
  8
0
100
AcDbLine
 62
7
  6
CONTINUOUS
 10
15.0753552569
 20
5.1756247044
 11
16.0453552569
 21
5.1756247044
  0
LINE
  5
251
100
AcDbEntity
  8
0
100
AcDbLine
 62
7
  6
CONTINUOUS
 10
15.4403552569
 20
5.1906247044
 11
15.4403552569
 21
5.7306247044
  0
LINE
  5
252
100
AcDbEntity
  8
0
100
AcDbLine
 62
7
  6
CONTINUOUS
 10
15.0603552569
 20
5.3306247044
 11
15.4403552569
 21
5.3306247044
  0
LINE
  5
253
100
AcDbEntity
  8
0
100
AcDbLine
 62
7
  6
CONTINUOUS
 10
15.6803552569
 20
5.3306247044
 11
16.0603552569
 21
5.3306247044
  0
LINE
  5
254
100
AcDbEntity
  8
0
100
AcDbLine
 62
7
  6
CONTINUOUS
 10
15.6803552569
 20
5.1906247044
 11
15.6803552569
 21
5.7306247044
  0
LINE
  5
255
100
AcDbEntity
  8
0
100
AcDbLine
 62
7
  6
CONTINUOUS
 10
15.0603552569
 20
5.5806247044
 11
15.4403552569
 21
5.5806247044
  0
LINE
  5
256
100
AcDbEntity
  8
0
100
AcDbLine
 62
7
  6
CONTINUOUS
 10
15.6803552569
 20
5.5806247044
 11
16.0603552569
 21
5.5806247044
  0
LINE
  5
257
100
AcDbEntity
  8
0
100
AcDbLine
 62
7
  6
CONTINUOUS
 10
16.0603552569
 20
5.5856247044
 11
15.7195438686
 21
5.5856247044
  0
LINE
  5
258
100
AcDbEntity
  8
0
100
AcDbLine
 62
7
  6
CONTINUOUS
 10
15.4011666452
 20
5.5856247044
 11
15.0603552569
 21
5.5856247044
  0
LINE
  5
259
100
AcDbEntity
  8
0
100
AcDbLine
 62
7
  6
CONTINUOUS
 10
12.5753552569
 20
5.5856247044
 11
14.7403552569
 21
5.5856247044
  0
LINE
  5
25A
100
AcDbEntity
  8
0
100
AcDbLine
 62
7
  6
CONTINUOUS
 10
16.3953552569
 20
5.5856247044
 11
18.5453552569
 21
5.5856247044
  0
LINE
  5
25B
100
AcDbEntity
  8
0
100
AcDbLine
 62
7
  6
CONTINUOUS
 10
15.9303552569
 20
5.1906247044
 11
15.9303552569
 21
5.3306247044
  0
LINE
  5
25C
100
AcDbEntity
  8
0
100
AcDbLine
 62
7
  6
CONTINUOUS
 10
12.5753552569
 20
5.7456247044
 11
18.5453552569
 21
5.7456247044
  0
LINE
  5
25D
100
AcDbEntity
  8
0
100
AcDbLine
 62
7
  6
CONTINUOUS
 10
16.0603552569
 20
5.1906247044
 11
16.0603552569
 21
5.7306247044
  0
LINE
  5
25E
100
AcDbEntity
  8
0
100
AcDbLine
 62
7
  6
CONTINUOUS
 10
16.3803552569
 20
5.1906411407
 11
16.3803552569
 21
5.5706247044
  0
LINE
  5
25F
100
AcDbEntity
  8
0
100
AcDbLine
 62
7
  6
CONTINUOUS
 10
18.5603552569
 20
5.7306247044
 11
18.5603552569
 21
5.6006247044
  0
LINE
  5
260
100
AcDbEntity
  8
0
100
AcDbLine
 62
7
  6
CONTINUOUS
 10
14.1362442105
 20
10.1172161774
 11
15.1509874376
 21
10.1172161774
  0
LINE
  5
261
100
AcDbEntity
  8
0
100
AcDbLine
 62
7
  6
CONTINUOUS
 10
15.4028614731
 20
10.1172161774
 11
15.4683915147
 21
10.1172161774
  0
LINE
  5
262
100
AcDbEntity
  8
0
100
AcDbLine
 62
7
  6
CONTINUOUS
 10
14.2873607671
 20
12.0497367626
 11
14.3239657911
 21
11.9751435664
  0
LINE
  5
263
100
AcDbEntity
  8
0
100
AcDbLine
 62
7
  6
CONTINUOUS
 10
14.280138857
 20
12.1153943776
 11
14.3648620701
 21
12.3895587959
  0
LINE
  5
264
100
AcDbEntity
  8
0
100
AcDbLine
 62
7
  6
CONTINUOUS
 10
14.4302199775
 20
12.6010570615
 11
14.5149431907
 21
12.8752214799
  0
LINE
  5
265
100
AcDbEntity
  8
0
100
AcDbLine
 62
7
  6
CONTINUOUS
 10
14.4740469116
 20
12.4608062504
 11
14.4374418876
 21
12.5353994466
  0
LWPOLYLINE
  5
266
100
AcDbEntity
  8
0
100
AcDbPolyline
 62
7
  6
CONTINUOUS
 90
8
 70
0
 10
14.865224926
 20
12.9708338936
 10
14.8635046211
 20
12.9673133274
 10
14.8585126934
 20
12.9617258148
 10
14.851251575
 20
12.956590118
 10
14.8426672709
 20
12.9524642965
 10
14.833385055
 20
12.949437229
 10
14.8235346012
 20
12.947410761
 10
14.8134722541
 20
12.9463628736
  0
LWPOLYLINE
  5
267
100
AcDbEntity
  8
0
100
AcDbPolyline
 62
7
  6
CONTINUOUS
 90
6
 70
0
 10
14.6009743047
 20
12.1511656447
 10
14.604308913
 20
12.1492611978
 10
14.6077917377
 20
12.1460639699
 10
14.6089008455
 20
12.1437194202
 10
14.6087977836
 20
12.1410988355
 10
14.6086386151
 20
12.140519534
  0
LINE
  5
268
100
AcDbEntity
  8
0
100
AcDbLine
 62
7
  6
CONTINUOUS
 10
14.6086389828
 20
12.140521747
 11
14.0143661589
 21
10.2174541839
  0
LINE
  5
269
100
AcDbEntity
  8
0
100
AcDbLine
 62
7
  6
CONTINUOUS
 10
14.8652248828
 20
12.9708339464
 11
15.4595021096
 21
14.8939158344
  0
LINE
  5
26A
100
AcDbEntity
  8
0
100
AcDbLine
 62
7
  6
CONTINUOUS
 10
14.8297813169
 20
12.626184431
 11
14.7862093787
 21
12.4851855873
  0
LINE
  5
26B
100
AcDbEntity
  8
0
100
AcDbLine
 62
7
  6
CONTINUOUS
 10
14.6009736206
 20
12.1511659529
 11
14.6009667781
 21
12.1511692613
  0
LINE
  5
26C
100
AcDbEntity
  8
0
100
AcDbLine
 62
7
  6
CONTINUOUS
 10
16.0935992023
 20
12.1183375902
 11
16.0991426321
 21
12.1183375902
  0
LINE
  5
26D
100
AcDbEntity
  8
0
100
AcDbLine
 62
7
  6
CONTINUOUS
 10
15.6187234979
 20
12.1628429401
 11
15.8295543594
 21
12.1628429401
  0
LINE
  5
26E
100
AcDbEntity
  8
0
100
AcDbLine
 62
7
  6
CONTINUOUS
 10
14.4995134937
 20
12.4605071658
 11
14.7481999621
 21
12.4605071658
  0
LINE
  5
26F
100
AcDbEntity
  8
0
100
AcDbLine
 62
7
  6
CONTINUOUS
 10
15.7549887035
 20
12.6485056241
 11
15.9796354799
 21
12.6485056241
  0
LINE
  5
270
100
AcDbEntity
  8
0
100
AcDbLine
 62
7
  6
CONTINUOUS
 10
15.7935615501
 20
12.2676660291
 11
15.7005237807
 21
12.4572570694
  0
LINE
  5
271
100
AcDbEntity
  8
0
100
AcDbLine
 62
7
  6
CONTINUOUS
 10
15.6066210225
 20
12.1775185197
 11
15.6995791476
 21
12.4783311226
  0
LINE
  5
272
100
AcDbEntity
  8
0
100
AcDbLine
 62
7
  6
CONTINUOUS
 10
15.7504130755
 20
12.6428297736
 11
15.8433712005
 21
12.9436423764
  0
LINE
  5
273
100
AcDbEntity
  8
0
100
AcDbLine
 62
7
  6
CONTINUOUS
 10
15.8912049771
 20
12.8410364043
 11
15.831708466
 21
12.6485056241
  0
LINE
  5
274
100
AcDbEntity
  8
0
100
AcDbLine
 62
7
  6
CONTINUOUS
 10
15.7352686082
 20
12.3364261299
 11
15.6816273455
 21
12.1628429401
  0
LINE
  5
275
100
AcDbEntity
  8
0
100
AcDbLine
 62
7
  6
CONTINUOUS
 10
16.1386337339
 20
12.0045809174
 11
16.1581259092
 21
11.9648600404
  0
LINE
  5
276
100
AcDbEntity
  8
0
100
AcDbLine
 62
7
  6
CONTINUOUS
 10
15.8453305456
 20
12.1616875117
 11
15.8976686003
 21
12.3310535187
  0
LINE
  5
277
100
AcDbEntity
  8
0
100
AcDbLine
 62
7
  6
CONTINUOUS
 10
15.9954116661
 20
12.6473501956
 11
16.0477497208
 21
12.8167162026
  0
LINE
  5
278
100
AcDbEntity
  8
0
100
AcDbLine
 62
7
  6
CONTINUOUS
 10
14.8134722541
 20
12.9463628736
 11
14.8067219928
 21
12.9461698604
  0
LINE
  5
279
100
AcDbEntity
  8
0
100
AcDbLine
 62
7
  6
CONTINUOUS
 10
14.8067232427
 20
12.9461698497
 11
14.6495946142
 21
12.9461698497
  0
LINE
  5
27A
100
AcDbEntity
  8
0
100
AcDbLine
 62
7
  6
CONTINUOUS
 10
15.9020277518
 20
12.851385057
 11
15.9476236055
 21
12.7584704761
  0
LINE
  5
27B
100
AcDbEntity
  8
0
100
AcDbLine
 62
7
  6
CONTINUOUS
 10
16.0802022819
 20
12.0749851398
 11
16.1365238113
 21
12.2572416758
  0
LINE
  5
27C
100
AcDbEntity
  8
0
100
AcDbLine
 62
7
  6
CONTINUOUS
 10
16.2302834024
 20
12.5606478238
 11
16.2866049318
 21
12.7429043598
  0
LINE
  5
27D
100
AcDbEntity
  8
0
100
AcDbLine
 62
7
  6
CONTINUOUS
 10
15.4827228274
 20
10.1277874669
 11
16.0074764938
 21
11.8258909537
  0
LINE
  5
27E
100
AcDbEntity
  8
0
100
AcDbLine
 62
7
  6
CONTINUOUS
 10
16.4074161828
 20
13.1200962617
 11
16.9278587781
 21
14.8042491174
  0
LINE
  5
27F
100
AcDbEntity
  8
0
100
AcDbLine
 62
7
  6
CONTINUOUS
 10
16.2887148544
 20
12.4902436014
 11
16.3082070297
 21
12.4505227244
  0
LINE
  5
280
100
AcDbEntity
  8
0
100
AcDbLine
 62
7
  6
CONTINUOUS
 10
16.4865933588
 20
12.9184315776
 11
16.416394125
 21
12.6912667738
  0
LINE
  5
281
100
AcDbEntity
  8
0
100
AcDbLine
 62
7
  6
CONTINUOUS
 10
16.3171469324
 20
12.3701027409
 11
16.2663130045
 21
12.2056040899
  0
LINE
  5
282
100
AcDbEntity
  8
0
100
AcDbLine
 62
7
  6
CONTINUOUS
 10
16.1670658119
 20
11.8844400569
 11
16.0968665781
 21
11.6572752531
  0
LWPOLYLINE
  5
283
100
AcDbEntity
  8
0
100
AcDbPolyline
 62
7
  6
CONTINUOUS
 90
7
 70
0
 10
16.4175167386
 20
13.0930883903
 10
16.4159597064
 20
13.0947613759
 10
16.4121826487
 20
13.100113911
 10
16.4091097014
 20
13.1065114447
 10
16.4073840838
 20
13.1125787754
 10
16.4070067464
 20
13.1175664815
 10
16.4074120677
 20
13.1200830163
  0
LINE
  5
284
100
AcDbEntity
  8
0
100
AcDbLine
 62
7
  6
CONTINUOUS
 10
16.4581612808
 20
13.0385724381
 11
16.4776534561
 21
12.9988515611
  0
LINE
  5
285
100
AcDbEntity
  8
0
100
AcDbLine
 62
7
  6
CONTINUOUS
 10
16.6767864913
 20
14.9044871238
 11
15.4738334223
 21
14.9044871238
  0
ARC
  5
286
100
AcDbEntity
  8
0
100
AcDbCircle
 62
7
  6
CONTINUOUS
 10
5.3388737957
 20
5.5741864714
 40
0.3
100
AcDbArc
 50
15.8312208051
 51
43.2751731783
  0
ARC
  5
287
100
AcDbEntity
  8
0
100
AcDbCircle
 62
7
  6
CONTINUOUS
 10
5.3803672762
 20
5.4851198968
 40
0.25
100
AcDbArc
 50
180.0
 51
360.0
  0
ARC
  5
288
100
AcDbEntity
  8
0
100
AcDbCircle
 62
7
  6
CONTINUOUS
 10
5.3303672762
 20
5.6051198968
 40
0.2
100
AcDbArc
 50
90.0
 51
180.0
  0
CIRCLE
  5
289
100
AcDbEntity
  8
0
100
AcDbCircle
 62
7
  6
CONTINUOUS
 10
5.3803672762
 20
5.5151198968
 40
0.135
  0
CIRCLE
  5
28A
100
AcDbEntity
  8
0
100
AcDbCircle
 62
7
  6
CONTINUOUS
 10
5.3803672762
 20
5.5151198968
 40
0.125
  0
ARC
  5
28B
100
AcDbEntity
  8
0
100
AcDbCircle
 62
7
  6
CONTINUOUS
 10
5.641925683
 20
5.6601198968
 40
0.015
100
AcDbArc
 50
195.8312208051
 51
270.0
  0
ARC
  5
28C
100
AcDbEntity
  8
0
100
AcDbCircle
 62
7
  6
CONTINUOUS
 10
5.5682158019
 20
5.7901198968
 40
0.015
100
AcDbArc
 50
90.0
 51
223.2751731782
  0
ARC
  5
28D
100
AcDbEntity
  8
0
100
AcDbCircle
 62
7
  6
CONTINUOUS
 10
6.8742672762
 20
5.5490198968
 40
0.2561
100
AcDbArc
 50
0.0
 51
90.0
  0
ARC
  5
28E
100
AcDbEntity
  8
0
100
AcDbCircle
 62
7
  6
CONTINUOUS
 10
6.8803672762
 20
5.4851198968
 40
0.25
100
AcDbArc
 50
180.0
 51
360.0
  0
ARC
  5
28F
100
AcDbEntity
  8
0
100
AcDbCircle
 62
7
  6
CONTINUOUS
 10
6.8803672762
 20
5.5151198968
 40
0.19
100
AcDbArc
 50
43.1735511073
 51
136.8264488927
  0
CIRCLE
  5
290
100
AcDbEntity
  8
0
100
AcDbCircle
 62
7
  6
CONTINUOUS
 10
6.8803672762
 20
5.5151198968
 40
0.135
  0
CIRCLE
  5
291
100
AcDbEntity
  8
0
100
AcDbCircle
 62
7
  6
CONTINUOUS
 10
6.8803672762
 20
5.5151198968
 40
0.125
  0
CIRCLE
  5
292
100
AcDbEntity
  8
0
100
AcDbCircle
 62
7
  6
CONTINUOUS
 10
6.8803672762
 20
5.5151198968
 40
0.115
  0
ARC
  5
293
100
AcDbEntity
  8
0
100
AcDbCircle
 62
7
  6
CONTINUOUS
 10
7.0882439104
 20
5.6601198968
 40
0.015
100
AcDbArc
 50
270.0
 51
27.4390419944
  0
ARC
  5
294
100
AcDbEntity
  8
0
100
AcDbCircle
 62
7
  6
CONTINUOUS
 10
5.5408720839
 20
12.6900477814
 40
0.03
100
AcDbArc
 50
0.0
 51
90.0
  0
ARC
  5
295
100
AcDbEntity
  8
0
100
AcDbCircle
 62
7
  6
CONTINUOUS
 10
5.5408720839
 20
12.5100477814
 40
0.03
100
AcDbArc
 50
270.0
 51
360.0
  0
ARC
  5
296
100
AcDbEntity
  8
0
100
AcDbCircle
 62
7
  6
CONTINUOUS
 10
7.0287487181
 20
9.6150477814
 40
0.015
100
AcDbArc
 50
270.0
 51
360.0
  0
ARC
  5
297
100
AcDbEntity
  8
0
100
AcDbCircle
 62
7
  6
CONTINUOUS
 10
5.5087206096
 20
15.5850477814
 40
0.015
100
AcDbArc
 50
90.0
 51
180.0
  0
ARC
  5
298
100
AcDbEntity
  8
0
100
AcDbCircle
 62
7
  6
CONTINUOUS
 10
7.0287487181
 20
15.5850477814
 40
0.015
100
AcDbArc
 50
0.0
 51
90.0
  0
ARC
  5
299
100
AcDbEntity
  8
0
100
AcDbCircle
 62
7
  6
CONTINUOUS
 10
5.5087206096
 20
9.6150477814
 40
0.015
100
AcDbArc
 50
180.0
 51
270.0
  0
ARC
  5
29A
100
AcDbEntity
  8
0
100
AcDbCircle
 62
7
  6
CONTINUOUS
 10
6.5858720839
 20
13.0850477814
 40
0.015
100
AcDbArc
 50
90.0
 51
157.5
  0
ARC
  5
29B
100
AcDbEntity
  8
0
100
AcDbCircle
 62
7
  6
CONTINUOUS
 10
7.0558720839
 20
13.4050477814
 40
0.015
100
AcDbArc
 50
0.0
 51
90.0
  0
ARC
  5
29C
100
AcDbEntity
  8
0
100
AcDbCircle
 62
7
  6
CONTINUOUS
 10
7.0558720839
 20
13.1150477814
 40
0.015
100
AcDbArc
 50
270.0
 51
360.0
  0
ARC
  5
29D
100
AcDbEntity
  8
0
100
AcDbCircle
 62
7
  6
CONTINUOUS
 10
5.0858720839
 20
13.0850477814
 40
0.015
100
AcDbArc
 50
90.0
 51
180.0
  0
ARC
  5
29E
100
AcDbEntity
  8
0
100
AcDbCircle
 62
7
  6
CONTINUOUS
 10
7.0558720839
 20
12.7050477814
 40
0.015
100
AcDbArc
 50
0.0
 51
90.0
  0
ARC
  5
29F
100
AcDbEntity
  8
0
100
AcDbCircle
 62
7
  6
CONTINUOUS
 10
5.0858720839
 20
12.7350477814
 40
0.015
100
AcDbArc
 50
180.0
 51
270.0
  0
ARC
  5
2A0
100
AcDbEntity
  8
0
100
AcDbCircle
 62
7
  6
CONTINUOUS
 10
5.0858720839
 20
12.4650477814
 40
0.015
100
AcDbArc
 50
90.0
 51
180.0
  0
ARC
  5
2A1
100
AcDbEntity
  8
0
100
AcDbCircle
 62
7
  6
CONTINUOUS
 10
5.0858720839
 20
12.1150477814
 40
0.015
100
AcDbArc
 50
180.0
 51
270.0
  0
ARC
  5
2A2
100
AcDbEntity
  8
0
100
AcDbCircle
 62
7
  6
CONTINUOUS
 10
7.0558720839
 20
12.0850477814
 40
0.015
100
AcDbArc
 50
0.0
 51
90.0
  0
ARC
  5
2A3
100
AcDbEntity
  8
0
100
AcDbCircle
 62
7
  6
CONTINUOUS
 10
7.0558720839
 20
12.4950477814
 40
0.015
100
AcDbArc
 50
270.0
 51
360.0
  0
ARC
  5
2A4
100
AcDbEntity
  8
0
100
AcDbCircle
 62
7
  6
CONTINUOUS
 10
6.5858720839
 20
12.1150477814
 40
0.015
100
AcDbArc
 50
195.1545550162
 51
270.0
  0
ARC
  5
2A5
100
AcDbEntity
  8
0
100
AcDbCircle
 62
7
  6
CONTINUOUS
 10
7.0558720839
 20
11.7950477814
 40
0.015
100
AcDbArc
 50
270.0
 51
360.0
  0
ARC
  5
2A6
100
AcDbEntity
  8
0
100
AcDbCircle
 62
7
  6
CONTINUOUS
 10
16.0753552569
 20
5.1906247044
 40
0.015
100
AcDbArc
 50
180.0
 51
270.0
  0
ARC
  5
2A7
100
AcDbEntity
  8
0
100
AcDbCircle
 62
7
  6
CONTINUOUS
 10
16.3653552569
 20
5.1906247044
 40
0.015
100
AcDbArc
 50
270.0
 51
360.0
  0
ARC
  5
2A8
100
AcDbEntity
  8
0
100
AcDbCircle
 62
7
  6
CONTINUOUS
 10
16.0453552569
 20
5.1906247044
 40
0.015
100
AcDbArc
 50
270.0
 51
360.0
  0
ARC
  5
2A9
100
AcDbEntity
  8
0
100
AcDbCircle
 62
7
  6
CONTINUOUS
 10
14.7553552569
 20
5.1906247044
 40
0.015
100
AcDbArc
 50
180.0
 51
270.0
  0
ARC
  5
2AA
100
AcDbEntity
  8
0
100
AcDbCircle
 62
7
  6
CONTINUOUS
 10
15.0453552569
 20
5.1906247044
 40
0.015
100
AcDbArc
 50
270.0
 51
360.0
  0
ARC
  5
2AB
100
AcDbEntity
  8
0
100
AcDbCircle
 62
7
  6
CONTINUOUS
 10
15.0753552569
 20
5.1906247044
 40
0.015
100
AcDbArc
 50
180.0
 51
270.0
  0
ARC
  5
2AC
100
AcDbEntity
  8
0
100
AcDbCircle
 62
7
  6
CONTINUOUS
 10
12.5753552569
 20
5.6006247044
 40
0.015
100
AcDbArc
 50
180.0
 51
270.0
  0
ARC
  5
2AD
100
AcDbEntity
  8
0
100
AcDbCircle
 62
7
  6
CONTINUOUS
 10
15.9153552569
 20
5.1906247044
 40
0.015
100
AcDbArc
 50
270.0
 51
360.0
  0
ARC
  5
2AE
100
AcDbEntity
  8
0
100
AcDbCircle
 62
7
  6
CONTINUOUS
 10
12.5753552569
 20
5.7306247044
 40
0.015
100
AcDbArc
 50
90.0
 51
180.0
  0
ARC
  5
2AF
100
AcDbEntity
  8
0
100
AcDbCircle
 62
7
  6
CONTINUOUS
 10
15.0453552569
 20
5.7306247044
 40
0.015
100
AcDbArc
 50
0.0
 51
90.0
  0
ARC
  5
2B0
100
AcDbEntity
  8
0
100
AcDbCircle
 62
7
  6
CONTINUOUS
 10
18.5453552569
 20
5.7306247044
 40
0.015
100
AcDbArc
 50
0.0
 51
90.0
  0
ARC
  5
2B1
100
AcDbEntity
  8
0
100
AcDbCircle
 62
7
  6
CONTINUOUS
 10
18.5453552569
 20
5.6006247044
 40
0.015
100
AcDbArc
 50
270.0
 51
360.0
  0
ARC
  5
2B2
100
AcDbEntity
  8
0
100
AcDbCircle
 62
7
  6
CONTINUOUS
 10
15.4553552569
 20
5.7306247044
 40
0.015
100
AcDbArc
 50
90.0
 51
180.0
  0
ARC
  5
2B3
100
AcDbEntity
  8
0
100
AcDbCircle
 62
7
  6
CONTINUOUS
 10
15.4553552569
 20
5.1906247044
 40
0.015
100
AcDbArc
 50
180.0
 51
270.0
  0
ARC
  5
2B4
100
AcDbEntity
  8
0
100
AcDbCircle
 62
7
  6
CONTINUOUS
 10
15.2053552569
 20
5.1906247044
 40
0.015
100
AcDbArc
 50
180.0
 51
270.0
  0
ARC
  5
2B5
100
AcDbEntity
  8
0
100
AcDbCircle
 62
7
  6
CONTINUOUS
 10
15.1753552569
 20
5.5706247044
 40
0.015
100
AcDbArc
 50
42.1953233946
 51
90.0
  0
ARC
  5
2B6
100
AcDbEntity
  8
0
100
AcDbCircle
 62
7
  6
CONTINUOUS
 10
16.0753552569
 20
5.7306247044
 40
0.015
100
AcDbArc
 50
90.0
 51
180.0
  0
ARC
  5
2B7
100
AcDbEntity
  8
0
100
AcDbCircle
 62
7
  6
CONTINUOUS
 10
15.6653552569
 20
5.1906247044
 40
0.015
100
AcDbArc
 50
270.0
 51
360.0
  0
ARC
  5
2B8
100
AcDbEntity
  8
0
100
AcDbCircle
 62
7
  6
CONTINUOUS
 10
15.6653552569
 20
5.7306247044
 40
0.015
100
AcDbArc
 50
0.0
 51
90.0
  0
ARC
  5
2B9
100
AcDbEntity
  8
0
100
AcDbCircle
 62
7
  6
CONTINUOUS
 10
16.3953552569
 20
5.5706247044
 40
0.015
100
AcDbArc
 50
90.0
 51
180.0
  0
ARC
  5
2BA
100
AcDbEntity
  8
0
100
AcDbCircle
 62
7
  6
CONTINUOUS
 10
15.9453552569
 20
5.5706247044
 40
0.015
100
AcDbArc
 50
90.0
 51
137.8046766054
  0
ARC
  5
2BB
100
AcDbEntity
  8
0
100
AcDbCircle
 62
7
  6
CONTINUOUS
 10
13.7978260514
 20
9.7776390317
 40
0.4778112886
100
AcDbArc
 50
61.8023856736
 51
62.064434243
  0
ARC
  5
2BC
100
AcDbEntity
  8
0
100
AcDbCircle
 62
7
  6
CONTINUOUS
 10
15.8731151339
 20
12.3819519833
 40
0.3429173257
100
AcDbArc
 50
220.7241058725
 51
220.9581457701
  0
ARC
  5
2BD
100
AcDbEntity
  8
0
100
AcDbCircle
 62
7
  6
CONTINUOUS
 10
16.2492483563
 20
12.945682345
 40
0.3416812384
100
AcDbArc
 50
269.1968084058
 51
269.4677694388
  0
ARC
  5
2BE
100
AcDbEntity
  8
0
100
AcDbCircle
 62
7
  6
CONTINUOUS
 10
15.2614599072
 20
9.8387900166
 40
0.3120759021
100
AcDbArc
 50
63.2253740191
 51
63.7536811712
  0
ARC
  5
2BF
100
AcDbEntity
  8
0
100
AcDbCircle
 62
7
  6
CONTINUOUS
 10
14.6495897533
 20
12.6831903121
 40
0.2629795377
100
AcDbArc
 50
89.9989409478
 51
91.122013583
  0
ARC
  5
2C0
100
AcDbEntity
  8
0
100
AcDbCircle
 62
7
  6
CONTINUOUS
 10
14.4995086328
 20
12.1975276281
 40
0.2629795377
100
AcDbArc
 50
89.9989409478
 51
91.122013583
  0
ARC
  5
2C1
100
AcDbEntity
  8
0
100
AcDbCircle
 62
7
  6
CONTINUOUS
 10
16.239115202
 20
12.9110769062
 40
0.2548632737
100
AcDbArc
 50
44.1505669374
 51
45.5736889047
  0
ARC
  5
2C2
100
AcDbEntity
  8
0
100
AcDbCircle
 62
7
  6
CONTINUOUS
 10
16.0894374686
 20
12.8281802935
 40
0.1580209809
100
AcDbArc
 50
206.17681881
 51
209.5482549183
  0
ARC
  5
2C3
100
AcDbEntity
  8
0
100
AcDbCircle
 62
7
  6
CONTINUOUS
 10
14.4657796542
 20
12.0448533839
 40
0.1580209809
100
AcDbArc
 50
206.17681881
 51
209.5482549183
  0
ARC
  5
2C4
100
AcDbEntity
  8
0
100
AcDbCircle
 62
7
  6
CONTINUOUS
 10
14.6105916766
 20
12.5278213133
 40
0.1521035551
100
AcDbArc
 50
206.1414297615
 51
207.0843696791
  0
ARC
  5
2C5
100
AcDbEntity
  8
0
100
AcDbCircle
 62
7
  6
CONTINUOUS
 10
16.3463336979
 20
12.9343587633
 40
0.1463017426
100
AcDbArc
 50
23.6060403528
 51
26.1562398565
  0
ARC
  5
2C6
100
AcDbEntity
  8
0
100
AcDbCircle
 62
7
  6
CONTINUOUS
 10
16.1768872715
 20
12.3860299265
 40
0.1463017426
100
AcDbArc
 50
23.6060403528
 51
26.1562398566
  0
ARC
  5
2C7
100
AcDbEntity
  8
0
100
AcDbCircle
 62
7
  6
CONTINUOUS
 10
16.026806151
 20
11.9003672426
 40
0.1463017426
100
AcDbArc
 50
23.6060403528
 51
26.1562398565
  0
ARC
  5
2C8
100
AcDbEntity
  8
0
100
AcDbCircle
 62
7
  6
CONTINUOUS
 10
16.0215199202
 20
12.2161526724
 40
0.1377368755
100
AcDbArc
 50
44.7447852817
 51
45.9497604161
  0
ARC
  5
2C9
100
AcDbEntity
  8
0
100
AcDbCircle
 62
7
  6
CONTINUOUS
 10
16.1716010407
 20
12.7018153564
 40
0.1377368755
100
AcDbArc
 50
44.7447852816
 51
45.9497604161
  0
ARC
  5
2CA
100
AcDbEntity
  8
0
100
AcDbCircle
 62
7
  6
CONTINUOUS
 10
16.1193143919
 20
12.7191407607
 40
0.1364948977
100
AcDbArc
 50
99.7277478899
 51
100.7187742005
  0
ARC
  5
2CB
100
AcDbEntity
  8
0
100
AcDbCircle
 62
7
  6
CONTINUOUS
 10
15.9692332714
 20
12.2334780768
 40
0.1364948977
100
AcDbArc
 50
99.7277478898
 51
100.7187742006
  0
ARC
  5
2CC
100
AcDbEntity
  8
0
100
AcDbCircle
 62
7
  6
CONTINUOUS
 10
14.645737698
 20
12.421476535
 40
0.1364948977
100
AcDbArc
 50
99.7277478899
 51
100.7187742005
  0
ARC
  5
2CD
100
AcDbEntity
  8
0
100
AcDbCircle
 62
7
  6
CONTINUOUS
 10
14.4956578687
 20
11.9359302468
 40
0.1363804985
100
AcDbArc
 50
99.7388834584
 51
100.7572657637
  0
ARC
  5
2CE
100
AcDbEntity
  8
0
100
AcDbCircle
 62
7
  6
CONTINUOUS
 10
16.0265737636
 20
12.2211581335
 40
0.1306237913
100
AcDbArc
 50
42.4681686553
 51
44.7458939545
  0
ARC
  5
2CF
100
AcDbEntity
  8
0
100
AcDbCircle
 62
7
  6
CONTINUOUS
 10
16.1766548841
 20
12.7068208174
 40
0.1306237913
100
AcDbArc
 50
42.4681686553
 51
44.7458939545
  0
ARC
  5
2D0
100
AcDbEntity
  8
0
100
AcDbCircle
 62
7
  6
CONTINUOUS
 10
14.4941896385
 20
11.9434060414
 40
0.1287620434
100
AcDbArc
 50
100.7363155604
 51
103.2336605991
  0
ARC
  5
2D1
100
AcDbEntity
  8
0
100
AcDbCircle
 62
7
  6
CONTINUOUS
 10
16.1178100264
 20
12.7268246278
 40
0.1286653139
100
AcDbArc
 50
100.6969515615
 51
103.2270626547
  0
ARC
  5
2D2
100
AcDbEntity
  8
0
100
AcDbCircle
 62
7
  6
CONTINUOUS
 10
15.9677289059
 20
12.2411619439
 40
0.1286653139
100
AcDbArc
 50
100.6969515615
 51
103.2270626548
  0
ARC
  5
2D3
100
AcDbEntity
  8
0
100
AcDbCircle
 62
7
  6
CONTINUOUS
 10
14.6442333325
 20
12.4291604022
 40
0.1286653139
100
AcDbArc
 50
100.6969515615
 51
103.2270626548
  0
ARC
  5
2D4
100
AcDbEntity
  8
0
100
AcDbCircle
 62
7
  6
CONTINUOUS
 10
16.0341221989
 20
12.2280985149
 40
0.1203696607
100
AcDbArc
 50
39.6774132157
 51
42.4572046112
  0
ARC
  5
2D5
100
AcDbEntity
  8
0
100
AcDbCircle
 62
7
  6
CONTINUOUS
 10
16.1842033194
 20
12.7137611989
 40
0.1203696607
100
AcDbArc
 50
39.6774132155
 51
42.4572046113
  0
ARC
  5
2D6
100
AcDbEntity
  8
0
100
AcDbCircle
 62
7
  6
CONTINUOUS
 10
15.9227240692
 20
11.7112244831
 40
0.0535076379
100
AcDbArc
 50
5.3472586574
 51
9.5679251305
  0
ARC
  5
2D7
100
AcDbEntity
  8
0
100
AcDbCircle
 62
7
  6
CONTINUOUS
 10
16.9134463497
 20
14.8086075373
 40
0.0151054966
100
AcDbArc
 50
30.3320063028
 51
51.4889470506
  0
ARC
  5
2D8
100
AcDbEntity
  8
0
100
AcDbCircle
 62
7
  6
CONTINUOUS
 10
15.4738532185
 20
14.8894025629
 40
0.0150845739
100
AcDbArc
 50
90.0751920844
 51
118.5724683614
  0
ARC
  5
2D9
100
AcDbEntity
  8
0
100
AcDbCircle
 62
7
  6
CONTINUOUS
 10
14.1362521158
 20
10.132275621
 40
0.0150594456
100
AcDbArc
 50
254.8796175928
 51
269.9699231487
  0
ARC
  5
2DA
100
AcDbEntity
  8
0
100
AcDbCircle
 62
7
  6
CONTINUOUS
 10
14.1362455067
 20
10.1322183001
 40
0.0150023877
100
AcDbArc
 50
222.3327214084
 51
254.8468811491
  0
ARC
  5
2DB
100
AcDbEntity
  8
0
100
AcDbCircle
 62
7
  6
CONTINUOUS
 10
16.9135368492
 20
14.8086790266
 40
0.0149911325
100
AcDbArc
 50
342.8126628303
 51
30.270854363
  0
ARC
  5
2DC
100
AcDbEntity
  8
0
100
AcDbCircle
 62
7
  6
CONTINUOUS
 10
15.4737819837
 20
14.8895576638
 40
0.0149142974
100
AcDbArc
 50
118.6171117245
 51
137.1193676713
  0
SPLINE
  5
2DD
100
AcDbEntity
  8
0
100
AcDbSpline
 62
7
  6
CONTINUOUS
 70
0
 71
3
 72
15
 73
11
 74
0
 42
0.0000001
 43
0.0000001
 44
0.0000000001
 40
0.0
 40
0.0
 40
0.0
 40
0.0
 40
0.3175998246
 40
0.4670875575
 40
0.6055394195
 40
0.7295268829
 40
0.8363588879
 40
0.8830458943
 40
0.925440133
 40
1.0
 40
1.0
 40
1.0
 40
1.0
 10
7.0181170493
 20
5.6601198968
 30
0.0
 10
7.0179163693
 20
5.6586092594
 30
0.0
 10
7.0176069733
 20
5.6563893914
 30
0.0
 10
7.0172753063
 20
5.6535026826
 30
0.0
 10
7.0171123807
 20
5.6515322268
 30
0.0
 10
7.0170635501
 20
5.6497600452
 30
0.0
 10
7.0171520811
 20
5.648427273
 30
0.0
 10
7.0173365513
 20
5.6475033505
 30
0.0
 10
7.0175726481
 20
5.6467548676
 30
0.0
 10
7.0178600037
 20
5.6462529388
 30
0.0
 10
7.0181063977
 20
5.6459935596
 30
0.0
  0
SPLINE
  5
2DE
100
AcDbEntity
  8
0
100
AcDbSpline
 62
7
  6
CONTINUOUS
 70
0
 71
3
 72
10
 73
6
 74
0
 42
0.0000001
 43
0.0000001
 44
0.0000000001
 40
0.0
 40
0.0
 40
0.0
 40
0.0
 40
0.4150043016
 40
0.6859957044
 40
1.0
 40
1.0
 40
1.0
 40
1.0
 10
6.7426263791
 20
5.6459917067
 30
0.0
 10
6.7431312113
 20
5.6465231441
 30
0.0
 10
6.7435194055
 20
5.6477686062
 30
0.0
 10
6.7436632438
 20
5.6495117435
 30
0.0
 10
6.7436488998
 20
5.6505505164
 30
0.0
 10
6.7436257194
 20
5.6511046368
 30
0.0
  0
LINE
  5
2DF
100
AcDbEntity
  8
0
100
AcDbLine
 62
7
  6
CONTINUOUS
 10
6.7436257194
 20
5.6511046368
 11
6.742617503
 21
5.6601198968
  0
SPLINE
  5
2E0
100
AcDbEntity
  8
0
100
AcDbSpline
 62
7
  6
CONTINUOUS
 70
0
 71
3
 72
11
 73
7
 74
0
 42
0.0000001
 43
0.0000001
 44
0.0000000001
 40
0.0
 40
0.0
 40
0.0
 40
0.0
 40
0.2168153104
 40
0.4632838136
 40
0.7276779888
 40
1.0
 40
1.0
 40
1.0
 40
1.0
 10
5.6256561989
 20
5.6451198968
 30
0.0
 10
5.6248719501
 20
5.6451198968
 30
0.0
 10
5.6231972329
 20
5.6453563821
 30
0.0
 10
5.6206777397
 20
5.6461320632
 30
0.0
 10
5.6180534929
 20
5.6472040016
 30
0.0
 10
5.6162779498
 20
5.6479888631
 30
0.0
 10
5.6153672762
 20
5.6483642895
 30
0.0
  0
SPLINE
  5
2E1
100
AcDbEntity
  8
0
100
AcDbSpline
 62
7
  6
CONTINUOUS
 70
0
 71
3
 72
9
 73
5
 74
0
 42
0.0000001
 43
0.0000001
 44
0.0000000001
 40
0.0
 40
0.0
 40
0.0
 40
0.0
 40
0.4998727743
 40
1.0
 40
1.0
 40
1.0
 40
1.0
 10
5.6153672762
 20
5.6483642895
 30
0.0
 10
5.6117185528
 20
5.6498684807
 30
0.0
 10
5.604732648
 20
5.6536235655
 30
0.0
 10
5.5981379677
 20
5.6579581588
 30
0.0
 10
5.5948336488
 20
5.6601198968
 30
0.0
  0
SPLINE
  5
2E2
100
AcDbEntity
  8
0
100
AcDbSpline
 62
7
  6
CONTINUOUS
 70
0
 71
3
 72
10
 73
6
 74
0
 42
0.0000001
 43
0.0000001
 44
0.0000000001
 40
0.0
 40
0.0
 40
0.0
 40
0.0
 40
0.210437645
 40
0.4569738612
 40
1.0
 40
1.0
 40
1.0
 40
1.0
 10
6.8199795991
 20
5.2385183721
 30
0.0
 10
6.8199282508
 20
5.2387936246
 30
0.0
 10
6.8195974432
 20
5.2393388078
 30
0.0
 10
6.8186173645
 20
5.240236052
 30
0.0
 10
6.8177183823
 20
5.2407977608
 30
0.0
 10
6.8170915662
 20
5.2411571404
 30
0.0
  0
SPLINE
  5
2E3
100
AcDbEntity
  8
0
100
AcDbSpline
 62
7
  6
CONTINUOUS
 70
0
 71
3
 72
13
 73
9
 74
0
 42
0.0000001
 43
0.0000001
 44
0.0000000001
 40
0.0
 40
0.0
 40
0.0
 40
0.0
 40
0.1209302509
 40
0.2445035251
 40
0.3693345767
 40
0.4948765402
 40
0.7471039281
 40
1.0
 40
1.0
 40
1.0
 40
1.0
 10
6.8170915662
 20
5.2411571404
 30
0.0
 10
6.8162595948
 20
5.241634144
 30
0.0
 10
6.8145238548
 20
5.2425039063
 30
0.0
 10
6.8118472808
 20
5.2436932765
 30
0.0
 10
6.8091062617
 20
5.2448259952
 30
0.0
 10
6.8053990245
 20
5.2462899655
 30
0.0
 10
6.800719878
 20
5.248056777
 30
0.0
 10
6.7969588775
 20
5.2494356562
 30
0.0
 10
6.7950736656
 20
5.2501198968
 30
0.0
  0
SPLINE
  5
2E4
100
AcDbEntity
  8
0
100
AcDbSpline
 62
7
  6
CONTINUOUS
 70
0
 71
3
 72
14
 73
10
 74
0
 42
0.0000001
 43
0.0000001
 44
0.0000000001
 40
0.0
 40
0.0
 40
0.0
 40
0.0
 40
0.053542136
 40
0.1203140121
 40
0.2074473656
 40
0.317889122
 40
0.4526188633
 40
0.6117810341
 40
1.0
 40
1.0
 40
1.0
 40
1.0
 10
6.8214419934
 20
5.2351198968
 30
0.0
 10
6.8213734161
 20
5.2351198968
 30
0.0
 10
6.8212189873
 20
5.2351691411
 30
0.0
 10
6.8210207596
 20
5.2353523695
 30
0.0
 10
6.8208302965
 20
5.2356341557
 30
0.0
 10
6.8206452925
 20
5.2360185861
 30
0.0
 10
6.820465224
 20
5.2365046597
 30
0.0
 10
6.8202174585
 20
5.2373429169
 30
0.0
 10
6.8200707874
 20
5.23802957
 30
0.0
 10
6.8199795991
 20
5.2385183721
 30
0.0
  0
SPLINE
  5
2E5
100
AcDbEntity
  8
0
100
AcDbSpline
 62
7
  6
CONTINUOUS
 70
0
 71
3
 72
12
 73
8
 74
0
 42
0.0000001
 43
0.0000001
 44
0.0000000001
 40
0.0
 40
0.0
 40
0.0
 40
0.0
 40
0.1250621428
 40
0.2501573029
 40
0.499885655
 40
0.74989233
 40
1.0
 40
1.0
 40
1.0
 40
1.0
 10
6.5708720839
 20
13.0890670193
 30
0.0
 10
6.5708720839
 20
13.0903511897
 30
0.0
 10
6.5711212477
 20
13.0929250194
 30
0.0
 10
6.5724818108
 20
13.0978945408
 30
0.0
 10
6.5755272635
 20
13.1036279492
 30
0.0
 10
6.5804238439
 20
13.1095988995
 30
0.0
 10
6.5840561133
 20
13.1132318108
 30
0.0
 10
6.5858720839
 20
13.1150477814
 30
0.0
  0
SPLINE
  5
2E6
100
AcDbEntity
  8
0
100
AcDbSpline
 62
7
  6
CONTINUOUS
 70
0
 71
3
 72
12
 73
8
 74
0
 42
0.0000001
 43
0.0000001
 44
0.0000000001
 40
0.0
 40
0.0
 40
0.0
 40
0.0
 40
0.25010767
 40
0.500114345
 40
0.7498426971
 40
0.8749378572
 40
1.0
 40
1.0
 40
1.0
 40
1.0
 10
6.5858720839
 20
12.0850477814
 30
0.0
 10
6.5840561133
 20
12.0868637519
 30
0.0
 10
6.5804238439
 20
12.0904966632
 30
0.0
 10
6.5755272635
 20
12.0964676135
 30
0.0
 10
6.5724818108
 20
12.1022010219
 30
0.0
 10
6.5711212477
 20
12.1071705434
 30
0.0
 10
6.5708720839
 20
12.1097443731
 30
0.0
 10
6.5708720839
 20
12.1110285435
 30
0.0
  0
SPLINE
  5
2E7
100
AcDbEntity
  8
0
100
AcDbSpline
 62
7
  6
CONTINUOUS
 70
0
 71
3
 72
9
 73
5
 74
0
 42
0.0000001
 43
0.0000001
 44
0.0000000001
 40
0.0
 40
0.0
 40
0.0
 40
0.0
 40
0.5207245072
 40
1.0
 40
1.0
 40
1.0
 40
1.0
 10
7.042061242
 20
11.7950477814
 30
0.0
 10
7.0425777778
 20
11.7939521593
 30
0.0
 10
7.0434092046
 20
11.7917647691
 30
0.0
 10
7.0437487933
 20
11.7894344929
 30
0.0
 10
7.0437487181
 20
11.7883196301
 30
0.0
  0
SPLINE
  5
2E8
100
AcDbEntity
  8
0
100
AcDbSpline
 62
7
  6
CONTINUOUS
 70
0
 71
3
 72
12
 73
8
 74
0
 42
0.0000001
 43
0.0000001
 44
0.0000000001
 40
0.0
 40
0.0
 40
0.0
 40
0.0
 40
0.2500343977
 40
0.5000412722
 40
0.7499574739
 40
0.8749861908
 40
1.0
 40
1.0
 40
1.0
 40
1.0
 10
15.4011666452
 20
5.5856247044
 30
0.0
 10
15.4038724185
 20
5.5856247044
 30
0.0
 10
15.4092848954
 20
5.5855768969
 30
0.0
 10
15.4173899859
 20
5.5850854278
 30
0.0
 10
15.4240915417
 20
5.5840025517
 30
0.0
 10
15.4292777614
 20
5.5824330207
 30
0.0
 10
15.431763451
 20
5.581334635
 30
0.0
 10
15.4329501001
 20
5.5806849682
 30
0.0
  0
SPLINE
  5
2E9
100
AcDbEntity
  8
0
100
AcDbSpline
 62
7
  6
CONTINUOUS
 70
0
 71
3
 72
12
 73
8
 74
0
 42
0.0000001
 43
0.0000001
 44
0.0000000001
 40
0.0
 40
0.0
 40
0.0
 40
0.0
 40
0.1250131218
 40
0.2500415656
 40
0.4999567676
 40
0.7499644176
 40
1.0
 40
1.0
 40
1.0
 40
1.0
 10
15.687762662
 20
5.5806862096
 30
0.0
 10
15.6889492644
 20
5.581335724
 30
0.0
 10
15.6914348586
 20
5.5824337657
 30
0.0
 10
15.696620722
 20
5.5840028943
 30
0.0
 10
15.7033217608
 20
5.5850855326
 30
0.0
 10
15.711426225
 20
5.5855768994
 30
0.0
 10
15.7168382959
 20
5.5856247044
 30
0.0
 10
15.7195438686
 20
5.5856247044
 30
0.0
  0
SPLINE
  5
2EA
100
AcDbEntity
  8
0
100
AcDbSpline
 62
7
  6
CONTINUOUS
 70
0
 71
3
 72
14
 73
10
 74
0
 42
0.0000001
 43
0.0000001
 44
0.0000000001
 40
0.0
 40
0.0
 40
0.0
 40
0.0
 40
0.296916486
 40
0.5801132612
 40
0.7098009659
 40
0.8260806732
 40
0.9240454812
 40
0.9648974016
 40
1.0
 40
1.0
 40
1.0
 40
1.0
 10
14.7486271057
 20
5.600623818
 30
0.0
 10
14.7475853648
 20
5.5994263112
 30
0.0
 10
14.7456145043
 20
5.5970297437
 30
0.0
 10
14.7434014069
 20
5.5939417291
 30
0.0
 10
14.7419359755
 20
5.5915198775
 30
0.0
 10
14.7410982158
 20
5.5898818766
 30
0.0
 10
14.7406032938
 20
5.5886049522
 30
0.0
 10
14.7403951808
 20
5.5876973184
 30
0.0
 10
14.7403552569
 20
5.5872912529
 30
0.0
 10
14.7403552569
 20
5.5871036065
 30
0.0
  0
SPLINE
  5
2EB
100
AcDbEntity
  8
0
100
AcDbSpline
 62
7
  6
CONTINUOUS
 70
0
 71
3
 72
11
 73
7
 74
0
 42
0.0000001
 43
0.0000001
 44
0.0000000001
 40
0.0
 40
0.0
 40
0.0
 40
0.0
 40
0.2437354632
 40
0.4927088412
 40
0.7453737228
 40
1.0
 40
1.0
 40
1.0
 40
1.0
 10
14.7553552569
 20
5.6075367741
 30
0.0
 10
14.7547747351
 20
5.6070096529
 30
0.0
 10
14.753623096
 20
5.6059199513
 30
0.0
 10
14.7519266064
 20
5.6042248807
 30
0.0
 10
14.7502532312
 20
5.602458199
 30
0.0
 10
14.7491667232
 20
5.6012401382
 30
0.0
 10
14.7486271057
 20
5.600623818
 30
0.0
  0
SPLINE
  5
2EC
100
AcDbEntity
  8
0
100
AcDbSpline
 62
7
  6
CONTINUOUS
 70
0
 71
3
 72
9
 73
5
 74
0
 42
0.0000001
 43
0.0000001
 44
0.0000000001
 40
0.0
 40
0.0
 40
0.0
 40
0.0
 40
0.4996514149
 40
1.0
 40
1.0
 40
1.0
 40
1.0
 10
15.4683915147
 20
10.1172161774
 30
0.0
 10
15.4704289066
 20
10.1172161774
 30
0.0
 10
15.4745498969
 20
10.1180659282
 30
0.0
 10
15.4779840277
 20
10.1205012666
 30
0.0
 10
15.4793717471
 20
10.1219968577
 30
0.0
  0
SPLINE
  5
2ED
100
AcDbEntity
  8
0
100
AcDbSpline
 62
7
  6
CONTINUOUS
 70
0
 71
3
 72
9
 73
5
 74
0
 42
0.0000001
 43
0.0000001
 44
0.0000000001
 40
0.0
 40
0.0
 40
0.0
 40
0.0
 40
0.5014971219
 40
1.0
 40
1.0
 40
1.0
 40
1.0
 10
15.4793717471
 20
10.1219968577
 30
0.0
 10
15.4801371769
 20
10.1228217867
 30
0.0
 10
15.4814792865
 20
10.1246460142
 30
0.0
 10
15.4823925574
 20
10.1267187128
 30
0.0
 10
15.4827228274
 20
10.1277874669
 30
0.0
  0
SPLINE
  5
2EE
100
AcDbEntity
  8
0
100
AcDbSpline
 62
7
  6
CONTINUOUS
 70
0
 71
3
 72
9
 73
5
 74
0
 42
0.0000001
 43
0.0000001
 44
0.0000000001
 40
0.0
 40
0.0
 40
0.0
 40
0.0
 40
0.5014971219
 40
1.0
 40
1.0
 40
1.0
 40
1.0
 10
15.4628531899
 20
14.8997064436
 30
0.0
 10
15.46208776
 20
14.8988815145
 30
0.0
 10
15.4607456504
 20
14.8970572871
 30
0.0
 10
15.4598323796
 20
14.8949845885
 30
0.0
 10
15.4595021096
 20
14.8939158344
 30
0.0
  0
SPLINE
  5
2EF
100
AcDbEntity
  8
0
100
AcDbSpline
 62
7
  6
CONTINUOUS
 70
0
 71
3
 72
15
 73
11
 74
0
 42
0.0000001
 43
0.0000001
 44
0.0000000001
 40
0.0
 40
0.0
 40
0.0
 40
0.0
 40
0.1182078307
 40
0.241151412
 40
0.3674330834
 40
0.4957615493
 40
0.6246536313
 40
0.7525993712
 40
0.8782241882
 40
1.0
 40
1.0
 40
1.0
 40
1.0
 10
16.9228520228
 20
14.8204274079
 30
0.0
 10
16.914688213
 20
14.8269062704
 30
0.0
 10
16.8973575642
 20
14.8392882321
 30
0.0
 10
16.8693933962
 20
14.8557178979
 30
0.0
 10
16.8393503884
 20
14.8701418019
 30
0.0
 10
16.8077672243
 20
14.8823139348
 30
0.0
 10
16.7751935192
 20
14.8920368449
 30
0.0
 10
16.7421902468
 20
14.899132045
 30
0.0
 10
16.7093461171
 20
14.9034656862
 30
0.0
 10
16.6875233338
 20
14.9044871238
 30
0.0
 10
16.6767864913
 20
14.9044871238
 30
0.0
  0
SPLINE
  5
2F0
100
AcDbEntity
  8
0
100
AcDbSpline
 62
7
  6
CONTINUOUS
 70
0
 71
3
 72
17
 73
13
 74
0
 42
0.0000001
 43
0.0000001
 44
0.0000000001
 40
0.0
 40
0.0
 40
0.0
 40
0.0
 40
0.0529457022
 40
0.1060503582
 40
0.1596865336
 40
0.2141839287
 40
0.3267947643
 40
0.4457821284
 40
0.572330766
 40
0.70706928
 40
0.849854845
 40
1.0
 40
1.0
 40
1.0
 40
1.0
 10
16.416394125
 20
12.6912667738
 30
0.0
 10
16.4153285674
 20
12.6878186282
 30
0.0
 10
16.4127820618
 20
12.6810319323
 30
0.0
 10
16.4077885129
 20
12.6713345348
 30
0.0
 10
16.4016731784
 20
12.6621737901
 30
0.0
 10
16.3919873214
 20
12.6506254985
 30
0.0
 10
16.377179163
 20
12.6377285741
 30
0.0
 10
16.3561064504
 20
12.6251905105
 30
0.0
 10
16.3319782637
 20
12.6154779821
 30
0.0
 10
16.3052319796
 20
12.6086187045
 30
0.0
 10
16.2762997147
 20
12.6046302293
 30
0.0
 10
16.2563086382
 20
12.6039208039
 30
0.0
 10
16.2460744649
 20
12.6040158481
 30
0.0
  0
SPLINE
  5
2F1
100
AcDbEntity
  8
0
100
AcDbSpline
 62
7
  6
CONTINUOUS
 70
0
 71
3
 72
11
 73
7
 74
0
 42
0.0000001
 43
0.0000001
 44
0.0000000001
 40
0.0
 40
0.0
 40
0.0
 40
0.0
 40
0.266833655
 40
0.5226849513
 40
0.7671952247
 40
1.0
 40
1.0
 40
1.0
 40
1.0
 10
16.0075146839
 20
12.6873204087
 30
0.0
 10
16.0016666233
 20
12.69202723
 30
0.0
 10
15.9905524604
 20
12.7016835928
 30
0.0
 10
15.9754832777
 20
12.7171747291
 30
0.0
 10
15.9625191658
 20
12.7332575086
 30
0.0
 10
15.955197321
 20
12.7445527851
 30
0.0
 10
15.9519685914
 20
12.7502512346
 30
0.0
  0
SPLINE
  5
2F2
100
AcDbEntity
  8
0
100
AcDbSpline
 62
7
  6
CONTINUOUS
 70
0
 71
3
 72
11
 73
7
 74
0
 42
0.0000001
 43
0.0000001
 44
0.0000000001
 40
0.0
 40
0.0
 40
0.0
 40
0.0
 40
0.2407970699
 40
0.4851553925
 40
0.7372142833
 40
1.0
 40
1.0
 40
1.0
 40
1.0
 10
16.4865933588
 20
12.9184315776
 30
0.0
 10
16.4884015988
 20
12.9242830444
 30
0.0
 10
16.4908640155
 20
12.936472995
 30
0.0
 10
16.4909213413
 20
12.9553309039
 30
0.0
 10
16.4874803718
 20
12.974427481
 30
0.0
 10
16.4830688291
 20
12.986819916
 30
0.0
 10
16.4803929864
 20
12.9929446578
 30
0.0
  0
SPLINE
  5
2F3
100
AcDbEntity
  8
0
100
AcDbSpline
 62
7
  6
CONTINUOUS
 70
0
 71
3
 72
9
 73
5
 74
0
 42
0.0000001
 43
0.0000001
 44
0.0000000001
 40
0.0
 40
0.0
 40
0.0
 40
0.0
 40
0.4818993192
 40
1.0
 40
1.0
 40
1.0
 40
1.0
 10
16.4581612808
 20
13.0385724381
 30
0.0
 10
16.4537788631
 20
13.0475028664
 30
0.0
 10
16.4428929892
 20
13.0651798174
 30
0.0
 10
16.4294319184
 20
13.080926841
 30
0.0
 10
16.4219826168
 20
13.0886009802
 30
0.0
  0
SPLINE
  5
2F4
100
AcDbEntity
  8
0
100
AcDbSpline
 62
7
  6
CONTINUOUS
 70
0
 71
3
 72
9
 73
5
 74
0
 42
0.0000001
 43
0.0000001
 44
0.0000000001
 40
0.0
 40
0.0
 40
0.0
 40
0.0
 40
0.4888525795
 40
1.0
 40
1.0
 40
1.0
 40
1.0
 10
16.0962512956
 20
12.8536731014
 30
0.0
 10
16.1006582141
 20
12.8544289158
 30
0.0
 10
16.1097503343
 20
12.8555437302
 30
0.0
 10
16.1189008304
 20
12.8558943578
 30
0.0
 10
16.1235760111
 20
12.8558943578
 30
0.0
  0
SPLINE
  5
2F5
100
AcDbEntity
  8
0
100
AcDbSpline
 62
7
  6
CONTINUOUS
 70
0
 71
3
 72
9
 73
5
 74
0
 42
0.0000001
 43
0.0000001
 44
0.0000000001
 40
0.0
 40
0.0
 40
0.0
 40
0.0
 40
0.2608092746
 40
1.0
 40
1.0
 40
1.0
 40
1.0
 10
16.2730056339
 20
12.7945218954
 30
0.0
 10
16.2739342901
 20
12.7933252445
 30
0.0
 10
16.2773907236
 20
12.788658368
 30
0.0
 10
16.2804186796
 20
12.7836642861
 30
0.0
 10
16.2823099505
 20
12.7798102812
 30
0.0
  0
SPLINE
  5
2F6
100
AcDbEntity
  8
0
100
AcDbSpline
 62
7
  6
CONTINUOUS
 70
0
 71
3
 72
12
 73
8
 74
0
 42
0.0000001
 43
0.0000001
 44
0.0000000001
 40
0.0
 40
0.0
 40
0.0
 40
0.0
 40
0.1148322022
 40
0.2307938998
 40
0.469815348
 40
0.7246105644
 40
1.0
 40
1.0
 40
1.0
 40
1.0
 10
16.0477495642
 20
12.816716251
 30
0.0
 10
16.0482362123
 20
12.8182910251
 30
0.0
 10
16.0494084117
 20
12.8213999277
 30
0.0
 10
16.0525302385
 20
12.8273920396
 30
0.0
 10
16.0579224147
 20
12.8343890684
 30
0.0
 10
16.066398886
 20
12.841565968
 30
0.0
 10
16.0730281288
 20
12.8453859739
 30
0.0
 10
16.0765892635
 20
12.8471015342
 30
0.0
  0
SPLINE
  5
2F7
100
AcDbEntity
  8
0
100
AcDbSpline
 62
7
  6
CONTINUOUS
 70
0
 71
3
 72
9
 73
5
 74
0
 42
0.0000001
 43
0.0000001
 44
0.0000000001
 40
0.0
 40
0.0
 40
0.0
 40
0.0
 40
0.2428763973
 40
1.0
 40
1.0
 40
1.0
 40
1.0
 10
16.0765892635
 20
12.8471015342
 30
0.0
 10
16.077499812
 20
12.8475401867
 30
0.0
 10
16.0812830366
 20
12.849274888
 30
0.0
 10
16.0851919419
 20
12.8507312277
 30
0.0
 10
16.0881922547
 20
12.8516929368
 30
0.0
  0
SPLINE
  5
2F8
100
AcDbEntity
  8
0
100
AcDbSpline
 62
7
  6
CONTINUOUS
 70
0
 71
3
 72
17
 73
13
 74
0
 42
0.0000001
 43
0.0000001
 44
0.0000000001
 40
0.0
 40
0.0
 40
0.0
 40
0.0
 40
0.1480857717
 40
0.2891691455
 40
0.42258762
 40
0.5485571714
 40
0.667817811
 40
0.7816276739
 40
0.8369971658
 40
0.8916363912
 40
0.9458548188
 40
1.0
 40
1.0
 40
1.0
 40
1.0
 10
14.6444401985
 20
12.9461194267
 30
0.0
 10
14.6366714074
 20
12.9459668276
 30
0.0
 10
14.6215027328
 20
12.9449912255
 30
0.0
 10
14.5995889432
 20
12.9413477772
 30
0.0
 10
14.5793379495
 20
12.9355477555
 30
0.0
 10
14.56105129
 20
12.9276123222
 30
0.0
 10
14.5450346186
 20
12.9175402781
 30
0.0
 10
14.533762497
 20
12.9072923547
 30
0.0
 10
14.5263453713
 20
12.8981632836
 30
0.0
 10
14.5216362593
 20
12.8909259617
 30
0.0
 10
14.517770444
 20
12.8832781315
 30
0.0
 10
14.5157820125
 20
12.8779359084
 30
0.0
 10
14.5149431907
 20
12.8752214799
 30
0.0
  0
SPLINE
  5
2F9
100
AcDbEntity
  8
0
100
AcDbSpline
 62
7
  6
CONTINUOUS
 70
0
 71
3
 72
19
 73
15
 74
0
 42
0.0000001
 43
0.0000001
 44
0.0000000001
 40
0.0
 40
0.0
 40
0.0
 40
0.0
 40
0.0504507487
 40
0.1033477399
 40
0.1586470034
 40
0.2163004435
 40
0.2762349667
 40
0.3382802765
 40
0.4675226483
 40
0.6014693857
 40
0.7369973683
 40
0.870874389
 40
0.9362575302
 40
1.0
 40
1.0
 40
1.0
 40
1.0
 10
16.2887148544
 20
12.4902436014
 30
0.0
 10
16.2860287885
 20
12.4957172282
 30
0.0
 10
16.2798566159
 20
12.5066099206
 30
0.0
 10
16.2687243815
 20
12.5222548753
 30
0.0
 10
16.2556216542
 20
12.5374580182
 30
0.0
 10
16.2406843454
 20
12.5520991083
 30
0.0
 10
16.2240479915
 20
12.5660776367
 30
0.0
 10
16.1994678276
 20
12.5839346515
 30
0.0
 10
16.165430842
 20
12.603817552
 30
0.0
 10
16.121154582
 20
12.6230890128
 30
0.0
 10
16.0744656614
 20
12.637443508
 30
0.0
 10
16.0346034008
 20
12.6449364263
 30
0.0
 10
16.0029486971
 20
12.6479791163
 30
0.0
 10
15.9873390125
 20
12.6485056241
 30
0.0
 10
15.9796354799
 20
12.6485056241
 30
0.0
  0
SPLINE
  5
2FA
100
AcDbEntity
  8
0
100
AcDbSpline
 62
7
  6
CONTINUOUS
 70
0
 71
3
 72
11
 73
7
 74
0
 42
0.0000001
 43
0.0000001
 44
0.0000000001
 40
0.0
 40
0.0
 40
0.0
 40
0.0
 40
0.2407970699
 40
0.4851553925
 40
0.7372142833
 40
1.0
 40
1.0
 40
1.0
 40
1.0
 10
16.3171469324
 20
12.3701027409
 30
0.0
 10
16.3189551724
 20
12.3759542077
 30
0.0
 10
16.3214175892
 20
12.3881441583
 30
0.0
 10
16.3214749149
 20
12.4070020671
 30
0.0
 10
16.3180339454
 20
12.4260986443
 30
0.0
 10
16.3136224027
 20
12.4384910793
 30
0.0
 10
16.31094656
 20
12.444615821
 30
0.0
  0
SPLINE
  5
2FB
100
AcDbEntity
  8
0
100
AcDbSpline
 62
7
  6
CONTINUOUS
 70
0
 71
3
 72
12
 73
8
 74
0
 42
0.0000001
 43
0.0000001
 44
0.0000000001
 40
0.0
 40
0.0
 40
0.0
 40
0.0
 40
0.1148322022
 40
0.2307938998
 40
0.469815348
 40
0.7246105644
 40
1.0
 40
1.0
 40
1.0
 40
1.0
 10
15.8976684437
 20
12.331053567
 30
0.0
 10
15.8981550918
 20
12.3326283412
 30
0.0
 10
15.8993272912
 20
12.3357372438
 30
0.0
 10
15.902449118
 20
12.3417293556
 30
0.0
 10
15.9078412942
 20
12.3487263844
 30
0.0
 10
15.9163177655
 20
12.3559032841
 30
0.0
 10
15.9229470083
 20
12.35972329
 30
0.0
 10
15.9265081429
 20
12.3614388502
 30
0.0
  0
SPLINE
  5
2FC
100
AcDbEntity
  8
0
100
AcDbSpline
 62
7
  6
CONTINUOUS
 70
0
 71
3
 72
9
 73
5
 74
0
 42
0.0000001
 43
0.0000001
 44
0.0000000001
 40
0.0
 40
0.0
 40
0.0
 40
0.0
 40
0.2428763973
 40
1.0
 40
1.0
 40
1.0
 40
1.0
 10
15.9265081429
 20
12.3614388502
 30
0.0
 10
15.9274186915
 20
12.3618775028
 30
0.0
 10
15.9312019161
 20
12.363612204
 30
0.0
 10
15.9351108214
 20
12.3650685437
 30
0.0
 10
15.9381111342
 20
12.3660302528
 30
0.0
  0
SPLINE
  5
2FD
100
AcDbEntity
  8
0
100
AcDbSpline
 62
7
  6
CONTINUOUS
 70
0
 71
3
 72
9
 73
5
 74
0
 42
0.0000001
 43
0.0000001
 44
0.0000000001
 40
0.0
 40
0.0
 40
0.0
 40
0.0
 40
0.4888525795
 40
1.0
 40
1.0
 40
1.0
 40
1.0
 10
15.9461701751
 20
12.3680104174
 30
0.0
 10
15.9505770936
 20
12.3687662318
 30
0.0
 10
15.9596692138
 20
12.3698810462
 30
0.0
 10
15.9688197098
 20
12.3702316738
 30
0.0
 10
15.9734948906
 20
12.3702316738
 30
0.0
  0
SPLINE
  5
2FE
100
AcDbEntity
  8
0
100
AcDbSpline
 62
7
  6
CONTINUOUS
 70
0
 71
3
 72
9
 73
5
 74
0
 42
0.0000001
 43
0.0000001
 44
0.0000000001
 40
0.0
 40
0.0
 40
0.0
 40
0.0
 40
0.2608092746
 40
1.0
 40
1.0
 40
1.0
 40
1.0
 10
16.1229245134
 20
12.3088592114
 30
0.0
 10
16.1238531695
 20
12.3076625605
 30
0.0
 10
16.1273096031
 20
12.302995684
 30
0.0
 10
16.1303375591
 20
12.2980016022
 30
0.0
 10
16.13222883
 20
12.2941475972
 30
0.0
  0
SPLINE
  5
2FF
100
AcDbEntity
  8
0
100
AcDbSpline
 62
7
  6
CONTINUOUS
 70
0
 71
3
 72
9
 73
5
 74
0
 42
0.0000001
 43
0.0000001
 44
0.0000000001
 40
0.0
 40
0.0
 40
0.0
 40
0.0
 40
0.4893809719
 40
1.0
 40
1.0
 40
1.0
 40
1.0
 10
15.9086518868
 20
12.852786308
 30
0.0
 10
15.9075411606
 20
12.852786308
 30
0.0
 10
15.9052683239
 20
12.852551099
 30
0.0
 10
15.9030746288
 20
12.8519221062
 30
0.0
 10
15.9019919574
 20
12.8515086575
 30
0.0
  0
SPLINE
  5
300
100
AcDbEntity
  8
0
100
AcDbSpline
 62
7
  6
CONTINUOUS
 70
0
 71
3
 72
9
 73
5
 74
0
 42
0.0000001
 43
0.0000001
 44
0.0000000001
 40
0.0
 40
0.0
 40
0.0
 40
0.0
 40
0.25634824
 40
1.0
 40
1.0
 40
1.0
 40
1.0
 10
15.9019919574
 20
12.8515086575
 30
0.0
 10
15.9011708207
 20
12.8511950832
 30
0.0
 10
15.898051304
 20
12.8497703929
 30
0.0
 10
15.895266678
 20
12.8475589953
 30
0.0
 10
15.893674111
 20
12.8455676448
 30
0.0
  0
SPLINE
  5
301
100
AcDbEntity
  8
0
100
AcDbSpline
 62
7
  6
CONTINUOUS
 70
0
 71
3
 72
9
 73
5
 74
0
 42
0.0000001
 43
0.0000001
 44
0.0000000001
 40
0.0
 40
0.0
 40
0.0
 40
0.0
 40
0.262377861
 40
1.0
 40
1.0
 40
1.0
 40
1.0
 10
15.893674111
 20
12.8455676448
 30
0.0
 10
15.8933913433
 20
12.8452140713
 30
0.0
 10
15.8923710728
 20
12.843822986
 30
0.0
 10
15.8915807624
 20
12.8422524461
 30
0.0
 10
15.8912049771
 20
12.8410364043
 30
0.0
  0
SPLINE
  5
302
100
AcDbEntity
  8
0
100
AcDbSpline
 62
7
  6
CONTINUOUS
 70
0
 71
3
 72
15
 73
11
 74
0
 42
0.0000001
 43
0.0000001
 44
0.0000000001
 40
0.0
 40
0.0
 40
0.0
 40
0.0
 40
0.1229384786
 40
0.2503376011
 40
0.3801819389
 40
0.5106034274
 40
0.6396356092
 40
0.765342555
 40
0.8859520677
 40
1.0
 40
1.0
 40
1.0
 40
1.0
 10
14.6499993172
 20
12.5582301322
 30
0.0
 10
14.6563746909
 20
12.5582301322
 30
0.0
 10
14.669363569
 20
12.5575571561
 30
0.0
 10
14.6888988783
 20
12.5547187378
 30
0.0
 10
14.7084872763
 20
12.5500837363
 30
0.0
 10
14.7276862279
 20
12.5437624329
 30
0.0
 10
14.7460758809
 20
12.5359028812
 30
0.0
 10
14.7632466238
 20
12.5266745183
 30
0.0
 10
14.7788022775
 20
12.5162657208
 30
0.0
 10
14.7881757215
 20
12.5084578088
 30
0.0
 10
14.7924787634
 20
12.5044003371
 30
0.0
  0
SPLINE
  5
303
100
AcDbEntity
  8
0
100
AcDbSpline
 62
7
  6
CONTINUOUS
 70
0
 71
3
 72
17
 73
13
 74
0
 42
0.0000001
 43
0.0000001
 44
0.0000000001
 40
0.0
 40
0.0
 40
0.0
 40
0.0
 40
0.0530808775
 40
0.1063222288
 40
0.1600908213
 40
0.2147159635
 40
0.3275033372
 40
0.4465001805
 40
0.5729541795
 40
0.707493921
 40
0.8501611259
 40
1.0
 40
1.0
 40
1.0
 40
1.0
 10
16.2663130045
 20
12.2056040899
 30
0.0
 10
16.2652611551
 20
12.2022003042
 30
0.0
 10
16.2627532306
 20
12.1954992277
 30
0.0
 10
16.2578465746
 20
12.1859157775
 30
0.0
 10
16.2518420789
 20
12.1768531817
 30
0.0
 10
16.2423388674
 20
12.1654170639
 30
0.0
 10
16.2278279372
 20
12.1526103024
 30
0.0
 10
16.2071637625
 20
12.1401136187
 30
0.0
 10
16.1835054684
 20
12.130362169
 30
0.0
 10
16.1572576468
 20
12.123383663
 30
0.0
 10
16.12884642
 20
12.1192211064
 30
0.0
 10
16.1091992951
 20
12.1183375902
 30
0.0
 10
16.0991426321
 20
12.1183375902
 30
0.0
  0
SPLINE
  5
304
100
AcDbEntity
  8
0
100
AcDbSpline
 62
7
  6
CONTINUOUS
 70
0
 71
3
 72
11
 73
7
 74
0
 42
0.0000001
 43
0.0000001
 44
0.0000000001
 40
0.0
 40
0.0
 40
0.0
 40
0.0
 40
0.0833596437
 40
0.2941405778
 40
0.611481833
 40
1.0
 40
1.0
 40
1.0
 40
1.0
 10
15.6121071056
 20
12.1654676758
 30
0.0
 10
15.6121698445
 20
12.1653907763
 30
0.0
 10
15.6124004814
 20
12.1651266791
 30
0.0
 10
15.612954394
 20
12.164649216
 30
0.0
 10
15.6138694705
 20
12.1640501897
 30
0.0
 10
15.6146296663
 20
12.1636832415
 30
0.0
 10
15.6150606064
 20
12.1635151599
 30
0.0
  0
SPLINE
  5
305
100
AcDbEntity
  8
0
100
AcDbSpline
 62
7
  6
CONTINUOUS
 70
0
 71
3
 72
9
 73
5
 74
0
 42
0.0000001
 43
0.0000001
 44
0.0000000001
 40
0.0
 40
0.0
 40
0.0
 40
0.0
 40
0.2372338416
 40
1.0
 40
1.0
 40
1.0
 40
1.0
 10
15.6150606064
 20
12.1635151599
 30
0.0
 10
15.6153358287
 20
12.1634078136
 30
0.0
 10
15.6165180011
 20
12.1630136902
 30
0.0
 10
15.6177736621
 20
12.1628429401
 30
0.0
 10
15.6187234979
 20
12.1628429401
 30
0.0
  0
SPLINE
  5
306
100
AcDbEntity
  8
0
100
AcDbSpline
 62
7
  6
CONTINUOUS
 70
0
 71
3
 72
17
 73
13
 74
0
 42
0.0000001
 43
0.0000001
 44
0.0000000001
 40
0.0
 40
0.0
 40
0.0
 40
0.0
 40
0.0530759831
 40
0.106305411
 40
0.1600544782
 40
0.2146474082
 40
0.3273839932
 40
0.4464003349
 40
0.5728722392
 40
0.7074532294
 40
0.8500417894
 40
1.0
 40
1.0
 40
1.0
 40
1.0
 10
16.0968665781
 20
11.6572752531
 30
0.0
 10
16.0958125003
 20
11.6538642561
 30
0.0
 10
16.0932980168
 20
11.6471498283
 30
0.0
 10
16.0883772274
 20
11.6375495755
 30
0.0
 10
16.0823577797
 20
11.6284732562
 30
0.0
 10
16.0728320653
 20
11.6170217237
 30
0.0
 10
16.0582759647
 20
11.6042076664
 30
0.0
 10
16.0375579808
 20
11.5916991808
 30
0.0
 10
16.0138295275
 20
11.5819533051
 30
0.0
 10
15.9875152396
 20
11.5749982164
 30
0.0
 10
15.9590320764
 20
11.5708503612
 30
0.0
 10
15.9393370377
 20
11.5699968091
 30
0.0
 10
15.9292501205
 20
11.5700099897
 30
0.0
  0
SPLINE
  5
307
100
AcDbEntity
  8
0
100
AcDbSpline
 62
7
  6
CONTINUOUS
 70
0
 71
3
 72
11
 73
7
 74
0
 42
0.0000001
 43
0.0000001
 44
0.0000000001
 40
0.0
 40
0.0
 40
0.0
 40
0.0
 40
0.2407970699
 40
0.4851553925
 40
0.7372142833
 40
1.0
 40
1.0
 40
1.0
 40
1.0
 10
16.1670658119
 20
11.8844400569
 30
0.0
 10
16.1688740519
 20
11.8902915237
 30
0.0
 10
16.1713364686
 20
11.9024814743
 30
0.0
 10
16.1713937944
 20
11.9213393832
 30
0.0
 10
16.1679528249
 20
11.9404359603
 30
0.0
 10
16.1635412822
 20
11.9528283953
 30
0.0
 10
16.1608654395
 20
11.9589531371
 30
0.0
  0
SPLINE
  5
308
100
AcDbEntity
  8
0
100
AcDbSpline
 62
7
  6
CONTINUOUS
 70
0
 71
3
 72
19
 73
15
 74
0
 42
0.0000001
 43
0.0000001
 44
0.0000000001
 40
0.0
 40
0.0
 40
0.0
 40
0.0
 40
0.0504507487
 40
0.1033477399
 40
0.1586470034
 40
0.2163004435
 40
0.2762349667
 40
0.3382802765
 40
0.4675226483
 40
0.6014693857
 40
0.7369973683
 40
0.870874389
 40
0.9362575302
 40
1.0
 40
1.0
 40
1.0
 40
1.0
 10
16.1386337339
 20
12.0045809174
 30
0.0
 10
16.135947668
 20
12.0100545442
 30
0.0
 10
16.1297754954
 20
12.0209472366
 30
0.0
 10
16.118643261
 20
12.0365921914
 30
0.0
 10
16.1055405337
 20
12.0517953342
 30
0.0
 10
16.0906032249
 20
12.0664364244
 30
0.0
 10
16.073966871
 20
12.0804149527
 30
0.0
 10
16.0493867071
 20
12.0982719676
 30
0.0
 10
16.0153497214
 20
12.118154868
 30
0.0
 10
15.9710734615
 20
12.1374263288
 30
0.0
 10
15.9243845409
 20
12.1517808241
 30
0.0
 10
15.8845222803
 20
12.1592737424
 30
0.0
 10
15.8528675766
 20
12.1623164324
 30
0.0
 10
15.8372578919
 20
12.1628429401
 30
0.0
 10
15.8295543594
 20
12.1628429401
 30
0.0
  0
SPLINE
  5
309
100
AcDbEntity
  8
0
100
AcDbSpline
 62
7
  6
CONTINUOUS
 70
0
 71
3
 72
9
 73
5
 74
0
 42
0.0000001
 43
0.0000001
 44
0.0000000001
 40
0.0
 40
0.0
 40
0.0
 40
0.0
 40
0.4980862674
 40
1.0
 40
1.0
 40
1.0
 40
1.0
 10
14.0143661589
 20
10.2174541839
 30
0.0
 10
14.0140034534
 20
10.2162804687
 30
0.0
 10
14.0135760614
 20
10.2138231217
 30
0.0
 10
14.0137441893
 20
10.2113348979
 30
0.0
 10
14.013981564
 20
10.2101199499
 30
0.0
  0
SPLINE
  5
30A
100
AcDbEntity
  8
0
100
AcDbSpline
 62
7
  6
CONTINUOUS
 70
0
 71
3
 72
11
 73
7
 74
0
 42
0.0000001
 43
0.0000001
 44
0.0000000001
 40
0.0
 40
0.0
 40
0.0
 40
0.0
 40
0.2504617087
 40
0.5005697767
 40
0.750905443
 40
1.0
 40
1.0
 40
1.0
 40
1.0
 10
14.013981564
 20
10.2101199499
 30
0.0
 10
14.0141944312
 20
10.2090304379
 30
0.0
 10
14.0148705283
 20
10.2068943597
 30
0.0
 10
14.0165621032
 20
10.2039969799
 30
0.0
 10
14.0188511154
 20
10.2015532415
 30
0.0
 10
14.0206948755
 20
10.2002905847
 30
0.0
 10
14.0216702775
 20
10.1997733586
 30
0.0
  0
SPLINE
  5
30B
100
AcDbEntity
  8
0
100
AcDbSpline
 62
7
  6
CONTINUOUS
 70
0
 71
3
 72
15
 73
11
 74
0
 42
0.0000001
 43
0.0000001
 44
0.0000000001
 40
0.0
 40
0.0
 40
0.0
 40
0.0
 40
0.1377076616
 40
0.2741848838
 40
0.4080137855
 40
0.5378805953
 40
0.6626475447
 40
0.7814865568
 40
0.8940197925
 40
1.0
 40
1.0
 40
1.0
 40
1.0
 10
14.514973267
 20
11.8372885868
 30
0.0
 10
14.5047429233
 20
11.8403062886
 30
0.0
 10
14.4845900499
 20
11.8470797417
 30
0.0
 10
14.4554550075
 20
11.859397785
 30
0.0
 10
14.427899582
 20
11.873662193
 30
0.0
 10
14.4023761405
 20
11.8896634547
 30
0.0
 10
14.3792819746
 20
11.9071507477
 30
0.0
 10
14.3589801818
 20
11.9259000213
 30
0.0
 10
14.3418081307
 20
11.9456673918
 30
0.0
 10
14.3323573919
 20
11.9597823732
 30
0.0
 10
14.328310777
 20
11.966924325
 30
0.0
  0
SPLINE
  5
30C
100
AcDbEntity
  8
0
100
AcDbSpline
 62
7
  6
CONTINUOUS
 70
0
 71
3
 72
11
 73
7
 74
0
 42
0.0000001
 43
0.0000001
 44
0.0000000001
 40
0.0
 40
0.0
 40
0.0
 40
0.0
 40
0.2631663897
 40
0.5152405157
 40
0.7594300989
 40
1.0
 40
1.0
 40
1.0
 40
1.0
 10
14.2873607671
 20
12.0497367626
 30
0.0
 10
14.2847489104
 20
12.0550591669
 30
0.0
 10
14.2803802417
 20
12.0658751838
 30
0.0
 10
14.2767628362
 20
12.082692635
 30
0.0
 10
14.2764401313
 20
12.0993979388
 30
0.0
 10
14.278538716
 20
12.1102163196
 30
0.0
 10
14.280138857
 20
12.1153943776
 30
0.0
  0
SPLINE
  5
30D
100
AcDbEntity
  8
0
100
AcDbSpline
 62
7
  6
CONTINUOUS
 70
0
 71
3
 72
17
 73
13
 74
0
 42
0.0000001
 43
0.0000001
 44
0.0000000001
 40
0.0
 40
0.0
 40
0.0
 40
0.0
 40
0.1480857717
 40
0.2891691455
 40
0.42258762
 40
0.5485571714
 40
0.667817811
 40
0.7816276739
 40
0.8369971658
 40
0.8916363912
 40
0.9458548188
 40
1.0
 40
1.0
 40
1.0
 40
1.0
 10
14.494359078
 20
12.4604567428
 30
0.0
 10
14.4865902868
 20
12.4603041436
 30
0.0
 10
14.4714216123
 20
12.4593285415
 30
0.0
 10
14.4495078227
 20
12.4556850932
 30
0.0
 10
14.429256829
 20
12.4498850715
 30
0.0
 10
14.4109701695
 20
12.4419496382
 30
0.0
 10
14.3949534981
 20
12.4318775941
 30
0.0
 10
14.3836813765
 20
12.4216296708
 30
0.0
 10
14.3762642508
 20
12.4125005996
 30
0.0
 10
14.3715551388
 20
12.4052632778
 30
0.0
 10
14.3676893235
 20
12.3976154476
 30
0.0
 10
14.365700892
 20
12.3922732244
 30
0.0
 10
14.3648620701
 20
12.3895587959
 30
0.0
  0
SPLINE
  5
30E
100
AcDbEntity
  8
0
100
AcDbSpline
 62
7
  6
CONTINUOUS
 70
0
 71
3
 72
15
 73
11
 74
0
 42
0.0000001
 43
0.0000001
 44
0.0000000001
 40
0.0
 40
0.0
 40
0.0
 40
0.0
 40
0.0948576199
 40
0.2030321333
 40
0.3228988488
 40
0.4517652941
 40
0.5866864178
 40
0.7248785542
 40
0.8635638943
 40
1.0
 40
1.0
 40
1.0
 40
1.0
 10
14.7862093787
 20
12.4851855873
 30
0.0
 10
14.7858525269
 20
12.4840308144
 30
0.0
 10
14.7848551395
 20
12.4816291584
 30
0.0
 10
14.7827231237
 20
12.4780949742
 30
0.0
 10
14.77984497
 20
12.474556499
 30
0.0
 10
14.7763090159
 20
12.4711639218
 30
0.0
 10
14.772204964
 20
12.4680800971
 30
0.0
 10
14.7676747017
 20
12.4654109255
 30
0.0
 10
14.7628563124
 20
12.4632598772
 30
0.0
 10
14.7595078688
 20
12.4621920035
 30
0.0
 10
14.7578228755
 20
12.4617642639
 30
0.0
  0
SPLINE
  5
30F
100
AcDbEntity
  8
0
100
AcDbSpline
 62
7
  6
CONTINUOUS
 70
0
 71
3
 72
9
 73
5
 74
0
 42
0.0000001
 43
0.0000001
 44
0.0000000001
 40
0.0
 40
0.0
 40
0.0
 40
0.0
 40
0.5158617529
 40
1.0
 40
1.0
 40
1.0
 40
1.0
 10
14.7578228755
 20
12.4617642639
 30
0.0
 10
14.7562023652
 20
12.4613528934
 30
0.0
 10
14.7530120727
 20
12.4607366031
 30
0.0
 10
14.7497690551
 20
12.4605071658
 30
0.0
 10
14.7481999621
 20
12.4605071658
 30
0.0
  0
SPLINE
  5
310
100
AcDbEntity
  8
0
100
AcDbSpline
 62
7
  6
CONTINUOUS
 70
0
 71
3
 72
11
 73
7
 74
0
 42
0.0000001
 43
0.0000001
 44
0.0000000001
 40
0.0
 40
0.0
 40
0.0
 40
0.0
 40
0.1961819072
 40
0.4185947777
 40
0.6822872862
 40
1.0
 40
1.0
 40
1.0
 40
1.0
 10
14.8295968344
 20
12.6349720017
 30
0.0
 10
14.829855797
 20
12.6344442914
 30
0.0
 10
14.8302884912
 20
12.6332560604
 30
0.0
 10
14.830582586
 20
12.6312194624
 30
0.0
 10
14.8304547977
 20
12.6288008895
 30
0.0
 10
14.8300623844
 20
12.6270939659
 30
0.0
 10
14.8297813169
 20
12.626184431
 30
0.0
  0
SPLINE
  5
311
100
AcDbEntity
  8
0
100
AcDbSpline
 62
7
  6
CONTINUOUS
 70
0
 71
3
 72
11
 73
7
 74
0
 42
0.0000001
 43
0.0000001
 44
0.0000000001
 40
0.0
 40
0.0
 40
0.0
 40
0.0
 40
0.2631663897
 40
0.5152405157
 40
0.7594300989
 40
1.0
 40
1.0
 40
1.0
 40
1.0
 10
14.4374418876
 20
12.5353994466
 30
0.0
 10
14.4348300309
 20
12.5407218509
 30
0.0
 10
14.4304613622
 20
12.5515378678
 30
0.0
 10
14.4268439567
 20
12.5683553189
 30
0.0
 10
14.4265212518
 20
12.5850606227
 30
0.0
 10
14.4286198366
 20
12.5958790036
 30
0.0
 10
14.4302199775
 20
12.6010570615
 30
0.0
  0
SPLINE
  5
312
100
AcDbEntity
  8
0
100
AcDbSpline
 62
7
  6
CONTINUOUS
 70
0
 71
3
 72
21
 73
17
 74
0
 42
0.0000001
 43
0.0000001
 44
0.0000000001
 40
0.0
 40
0.0
 40
0.0
 40
0.0
 40
0.1545373244
 40
0.3063853569
 40
0.4535462468
 40
0.5931968349
 40
0.7211516668
 40
0.7789098842
 40
0.8312072921
 40
0.8770723353
 40
0.8975795662
 40
0.9167375475
 40
0.9352323459
 40
0.9542404925
 40
0.975335687
 40
1.0
 40
1.0
 40
1.0
 40
1.0
 10
15.7352686082
 20
12.3364261299
 30
0.0
 10
15.7357080527
 20
12.3378481728
 30
0.0
 10
15.7365892045
 20
12.3406645124
 30
0.0
 10
15.7379593667
 20
12.3448125402
 30
0.0
 10
15.739395587
 20
12.3487869711
 30
0.0
 10
15.7409249405
 20
12.3524787473
 30
0.0
 10
15.7423380126
 20
12.3552833684
 30
0.0
 10
15.7435869636
 20
12.357209455
 30
0.0
 10
15.7445339851
 20
12.3583784501
 30
0.0
 10
15.7453971929
 20
12.3591448581
 30
0.0
 10
15.7461225816
 20
12.3595435244
 30
0.0
 10
15.7466618087
 20
12.3597120047
 30
0.0
 10
15.7472143815
 20
12.3597373365
 30
0.0
 10
15.7477684117
 20
12.3595888192
 30
0.0
 10
15.7483020924
 20
12.3592506397
 30
0.0
 10
15.7486063612
 20
12.358926014
 30
0.0
 10
15.7487529194
 20
12.358739064
 30
0.0
  0
LINE
  5
313
100
AcDbEntity
  8
0
100
AcDbLine
 62
7
  6
CONTINUOUS
 10
15.7487529194
 20
12.358739064
 11
15.7493304794
 21
12.3577994745
  0
SPLINE
  5
314
100
AcDbEntity
  8
0
100
AcDbSpline
 62
7
  6
CONTINUOUS
 70
0
 71
3
 72
9
 73
5
 74
0
 42
0.0000001
 43
0.0000001
 44
0.0000000001
 40
0.0
 40
0.0
 40
0.0
 40
0.0
 40
0.4888525795
 40
1.0
 40
1.0
 40
1.0
 40
1.0
 10
14.6226746017
 20
12.5560088757
 30
0.0
 10
14.6270815202
 20
12.5567646901
 30
0.0
 10
14.6361736404
 20
12.5578795045
 30
0.0
 10
14.6453241365
 20
12.5582301322
 30
0.0
 10
14.6499993172
 20
12.5582301322
 30
0.0
  0
SPLINE
  5
315
100
AcDbEntity
  8
0
100
AcDbSpline
 62
7
  6
CONTINUOUS
 70
0
 71
3
 72
15
 73
11
 74
0
 42
0.0000001
 43
0.0000001
 44
0.0000000001
 40
0.0
 40
0.0
 40
0.0
 40
0.0
 40
0.1231667244
 40
0.2508318628
 40
0.3809286904
 40
0.5115334017
 40
0.6406218428
 40
0.7662094319
 40
0.8864951279
 40
1.0
 40
1.0
 40
1.0
 40
1.0
 10
15.9734948906
 20
12.3702316738
 30
0.0
 10
15.9799565046
 20
12.3702316738
 30
0.0
 10
15.9931227912
 20
12.3695404556
 30
0.0
 10
16.0129198039
 20
12.3666271337
 30
0.0
 10
16.0327592832
 20
12.3618724259
 30
0.0
 10
16.0521815936
 20
12.3553923934
 30
0.0
 10
16.0707506535
 20
12.3473424151
 30
0.0
 10
16.0880413469
 20
12.3378991443
 30
0.0
 10
16.1036453257
 20
12.3272628397
 30
0.0
 10
16.1130071264
 20
12.3192887546
 30
0.0
 10
16.1172868344
 20
12.3151483541
 30
0.0
  0
SPLINE
  5
316
100
AcDbEntity
  8
0
100
AcDbSpline
 62
7
  6
CONTINUOUS
 70
0
 71
3
 72
11
 73
7
 74
0
 42
0.0000001
 43
0.0000001
 44
0.0000000001
 40
0.0
 40
0.0
 40
0.0
 40
0.0
 40
0.2260804948
 40
0.4685065169
 40
0.726783594
 40
1.0
 40
1.0
 40
1.0
 40
1.0
 10
15.7935615501
 20
12.2676660291
 30
0.0
 10
15.7967309093
 20
12.2612075541
 30
0.0
 10
15.8043017582
 20
12.2483023933
 30
0.0
 10
15.8184100747
 20
12.2299162598
 30
0.0
 10
15.8354666283
 20
12.2120928124
 30
0.0
 10
15.8483021784
 20
12.2010376894
 30
0.0
 10
15.855124167
 20
12.1956480034
 30
0.0
  0
SPLINE
  5
317
100
AcDbEntity
  8
0
100
AcDbSpline
 62
7
  6
CONTINUOUS
 70
0
 71
3
 72
9
 73
5
 74
0
 42
0.0000001
 43
0.0000001
 44
0.0000000001
 40
0.0
 40
0.0
 40
0.0
 40
0.0
 40
0.2561797122
 40
1.0
 40
1.0
 40
1.0
 40
1.0
 10
16.13222883
 20
12.2941475972
 30
0.0
 10
16.1325992034
 20
12.2933928557
 30
0.0
 10
16.133992975
 20
12.2904216693
 30
0.0
 10
16.1351734711
 20
12.2873490285
 30
0.0
 10
16.1359074801
 20
12.2850209586
 30
0.0
  0
SPLINE
  5
318
100
AcDbEntity
  8
0
100
AcDbSpline
 62
7
  6
CONTINUOUS
 70
0
 71
3
 72
9
 73
5
 74
0
 42
0.0000001
 43
0.0000001
 44
0.0000000001
 40
0.0
 40
0.0
 40
0.0
 40
0.0
 40
0.256952095
 40
1.0
 40
1.0
 40
1.0
 40
1.0
 10
16.1359074801
 20
12.2850209586
 30
0.0
 10
16.1361966288
 20
12.2841038602
 30
0.0
 10
16.1372353818
 20
12.2805084655
 30
0.0
 10
16.1379143416
 20
12.2768055624
 30
0.0
 10
16.1381746116
 20
12.2740370349
 30
0.0
  0
SPLINE
  5
319
100
AcDbEntity
  8
0
100
AcDbSpline
 62
7
  6
CONTINUOUS
 70
0
 71
3
 72
9
 73
5
 74
0
 42
0.0000001
 43
0.0000001
 44
0.0000000001
 40
0.0
 40
0.0
 40
0.0
 40
0.0
 40
0.5067734382
 40
1.0
 40
1.0
 40
1.0
 40
1.0
 10
16.1381746116
 20
12.2740370349
 30
0.0
 10
16.1384427505
 20
12.2711848046
 30
0.0
 10
16.1384612929
 20
12.2654928429
 30
0.0
 10
16.1373471934
 20
12.2599055533
 30
0.0
 10
16.1365239678
 20
12.2572416274
 30
0.0
  0
SPLINE
  5
31A
100
AcDbEntity
  8
0
100
AcDbSpline
 62
7
  6
CONTINUOUS
 70
0
 71
3
 72
12
 73
8
 74
0
 42
0.0000001
 43
0.0000001
 44
0.0000000001
 40
0.0
 40
0.0
 40
0.0
 40
0.0
 40
0.1148322022
 40
0.2307938998
 40
0.469815348
 40
0.7246105644
 40
1.0
 40
1.0
 40
1.0
 40
1.0
 10
14.5741728703
 20
12.5190520253
 30
0.0
 10
14.5746595184
 20
12.5206267995
 30
0.0
 10
14.5758317178
 20
12.5237357021
 30
0.0
 10
14.5789535446
 20
12.5297278139
 30
0.0
 10
14.5843457208
 20
12.5367248427
 30
0.0
 10
14.5928221921
 20
12.5439017424
 30
0.0
 10
14.5994514349
 20
12.5477217483
 30
0.0
 10
14.6030125696
 20
12.5494373085
 30
0.0
  0
SPLINE
  5
31B
100
AcDbEntity
  8
0
100
AcDbSpline
 62
7
  6
CONTINUOUS
 70
0
 71
3
 72
9
 73
5
 74
0
 42
0.0000001
 43
0.0000001
 44
0.0000000001
 40
0.0
 40
0.0
 40
0.0
 40
0.0
 40
0.2428763973
 40
1.0
 40
1.0
 40
1.0
 40
1.0
 10
14.6030125696
 20
12.5494373085
 30
0.0
 10
14.6039231181
 20
12.5498759611
 30
0.0
 10
14.6077063427
 20
12.5516106623
 30
0.0
 10
14.611615248
 20
12.553067002
 30
0.0
 10
14.6146155608
 20
12.5540287111
 30
0.0
  0
SPLINE
  5
31C
100
AcDbEntity
  8
0
100
AcDbSpline
 62
7
  6
CONTINUOUS
 70
0
 71
3
 72
12
 73
8
 74
0
 42
0.0000001
 43
0.0000001
 44
0.0000000001
 40
0.0
 40
0.0
 40
0.0
 40
0.0
 40
0.1148322022
 40
0.2307938998
 40
0.469815348
 40
0.7246105644
 40
1.0
 40
1.0
 40
1.0
 40
1.0
 10
14.4240917498
 20
12.0333893414
 30
0.0
 10
14.4245783979
 20
12.0349641155
 30
0.0
 10
14.4257505973
 20
12.0380730181
 30
0.0
 10
14.4288724241
 20
12.0440651299
 30
0.0
 10
14.4342646003
 20
12.0510621587
 30
0.0
 10
14.4427410716
 20
12.0582390584
 30
0.0
 10
14.4493703144
 20
12.0620590643
 30
0.0
 10
14.452931449
 20
12.0637746245
 30
0.0
  0
SPLINE
  5
31D
100
AcDbEntity
  8
0
100
AcDbSpline
 62
7
  6
CONTINUOUS
 70
0
 71
3
 72
9
 73
5
 74
0
 42
0.0000001
 43
0.0000001
 44
0.0000000001
 40
0.0
 40
0.0
 40
0.0
 40
0.0
 40
0.2428767157
 40
1.0
 40
1.0
 40
1.0
 40
1.0
 10
14.452931449
 20
12.0637746245
 30
0.0
 10
14.4538419546
 20
12.0642132564
 30
0.0
 10
14.457624994
 20
12.0659478768
 30
0.0
 10
14.4615337028
 20
12.0674041621
 30
0.0
 10
14.4645338629
 20
12.0683658421
 30
0.0
  0
SPLINE
  5
31E
100
AcDbEntity
  8
0
100
AcDbSpline
 62
7
  6
CONTINUOUS
 70
0
 71
3
 72
13
 73
9
 74
0
 42
0.0000001
 43
0.0000001
 44
0.0000000001
 40
0.0
 40
0.0
 40
0.0
 40
0.0
 40
0.1128197867
 40
0.230776025
 40
0.3531874846
 40
0.4792183102
 40
0.7382606789
 40
1.0
 40
1.0
 40
1.0
 40
1.0
 10
14.4725879778
 20
12.0703453519
 30
0.0
 10
14.4767506815
 20
12.0710601196
 30
0.0
 10
14.4853352292
 20
12.0721363953
 30
0.0
 10
14.4985562642
 20
12.0727291251
 30
0.0
 10
14.5122793791
 20
12.0723245423
 30
0.0
 10
14.5311985161
 20
12.0704549423
 30
0.0
 10
14.5550086881
 20
12.0656837757
 30
0.0
 10
14.5735613687
 20
12.0595067006
 30
0.0
 10
14.5826440504
 20
12.0558297992
 30
0.0
  0
SPLINE
  5
31F
100
AcDbEntity
  8
0
100
AcDbSpline
 62
7
  6
CONTINUOUS
 70
0
 71
3
 72
11
 73
7
 74
0
 42
0.0000001
 43
0.0000001
 44
0.0000000001
 40
0.0
 40
0.0
 40
0.0
 40
0.0
 40
0.2310246056
 40
0.4759937359
 40
0.7330647358
 40
1.0
 40
1.0
 40
1.0
 40
1.0
 10
14.1251550423
 20
10.1221151701
 30
0.0
 10
14.1185284433
 20
10.1293900358
 30
0.0
 10
14.1040703476
 20
10.1436586046
 30
0.0
 10
14.0799070657
 20
10.1634937195
 30
0.0
 10
14.0529240856
 20
10.182121917
 30
0.0
 10
14.0336193479
 20
10.1933726153
 30
0.0
 10
14.0235986075
 20
10.1987451708
 30
0.0
  0
SPLINE
  5
320
100
AcDbEntity
  8
0
100
AcDbSpline
 62
7
  6
CONTINUOUS
 70
0
 71
3
 72
9
 73
5
 74
0
 42
0.0000001
 43
0.0000001
 44
0.0000000001
 40
0.0
 40
0.0
 40
0.0
 40
0.0
 40
0.4913726978
 40
1.0
 40
1.0
 40
1.0
 40
1.0
 10
15.1524850496
 20
10.1178323829
 30
0.0
 10
15.1522988573
 20
10.1176353289
 30
0.0
 10
15.1518285359
 20
10.117310007
 30
0.0
 10
15.1512680963
 20
10.1172163165
 30
0.0
 10
15.1509874716
 20
10.1172162186
 30
0.0
  0
LINE
  5
321
100
AcDbEntity
  8
0
100
AcDbLine
 62
7
  6
CONTINUOUS
 10
15.4020448314
 20
10.1174071836
 11
15.4028614317
 21
10.1172162194
  0
SPLINE
  5
322
100
AcDbEntity
  8
0
100
AcDbSpline
 62
7
  6
CONTINUOUS
 70
0
 71
3
 72
22
 73
18
 74
0
 42
0.0000001
 43
0.0000001
 44
0.0000000001
 40
0.0
 40
0.0
 40
0.0
 40
0.0
 40
0.0714241622
 40
0.1437728031
 40
0.2164717265
 40
0.289042324
 40
0.3610228948
 40
0.431939527
 40
0.5013166045
 40
0.5687100447
 40
0.6337155348
 40
0.6959656458
 40
0.7551532408
 40
0.8110263213
 40
0.8634386616
 40
0.9123391239
 40
1.0
 40
1.0
 40
1.0
 40
1.0
 10
15.3994695662
 20
10.118691254
 30
0.0
 10
15.3939071289
 20
10.1214339606
 30
0.0
 10
15.3825446895
 20
10.1266251979
 30
0.0
 10
15.3650250359
 20
10.133460904
 30
0.0
 10
15.3470538126
 20
10.1393324495
 30
0.0
 10
15.3288153163
 20
10.1441885906
 30
0.0
 10
15.3104834301
 20
10.1479781467
 30
0.0
 10
15.2922385461
 20
10.1506706736
 30
0.0
 10
15.2742618847
 20
10.1522396429
 30
0.0
 10
15.2567346196
 20
10.1526679315
 30
0.0
 10
15.2398342226
 20
10.1519639544
 30
0.0
 10
15.2237343727
 20
10.1501303504
 30
0.0
 10
15.2086004842
 20
10.1472072485
 30
0.0
 10
15.1945945637
 20
10.1432277543
 30
0.0
 10
15.1818546018
 20
10.1382524793
 30
0.0
 10
15.1672805862
 20
10.1306870124
 30
0.0
 10
15.1577167935
 20
10.1233616836
 30
0.0
 10
15.1524856699
 20
10.1178323347
 30
0.0
  0
SPLINE
  5
323
100
AcDbEntity
  8
0
100
AcDbSpline
 62
7
  6
CONTINUOUS
 70
0
 71
3
 72
9
 73
5
 74
0
 42
0.0000001
 43
0.0000001
 44
0.0000000001
 40
0.0
 40
0.0
 40
0.0
 40
0.0
 40
0.2561797122
 40
1.0
 40
1.0
 40
1.0
 40
1.0
 10
16.2823099505
 20
12.7798102812
 30
0.0
 10
16.2826803239
 20
12.7790555397
 30
0.0
 10
16.2840740955
 20
12.7760843533
 30
0.0
 10
16.2852545916
 20
12.7730117124
 30
0.0
 10
16.2859886006
 20
12.7706836425
 30
0.0
  0
SPLINE
  5
324
100
AcDbEntity
  8
0
100
AcDbSpline
 62
7
  6
CONTINUOUS
 70
0
 71
3
 72
9
 73
5
 74
0
 42
0.0000001
 43
0.0000001
 44
0.0000000001
 40
0.0
 40
0.0
 40
0.0
 40
0.0
 40
0.256952095
 40
1.0
 40
1.0
 40
1.0
 40
1.0
 10
16.2859886006
 20
12.7706836425
 30
0.0
 10
16.2862777493
 20
12.7697665442
 30
0.0
 10
16.2873165024
 20
12.7661711495
 30
0.0
 10
16.2879954621
 20
12.7624682464
 30
0.0
 10
16.2882557321
 20
12.7596997189
 30
0.0
  0
SPLINE
  5
325
100
AcDbEntity
  8
0
100
AcDbSpline
 62
7
  6
CONTINUOUS
 70
0
 71
3
 72
9
 73
5
 74
0
 42
0.0000001
 43
0.0000001
 44
0.0000000001
 40
0.0
 40
0.0
 40
0.0
 40
0.0
 40
0.5067734382
 40
1.0
 40
1.0
 40
1.0
 40
1.0
 10
16.2882557321
 20
12.7596997189
 30
0.0
 10
16.288523871
 20
12.7568474886
 30
0.0
 10
16.2885424134
 20
12.7511555269
 30
0.0
 10
16.2874283139
 20
12.7455682373
 30
0.0
 10
16.2866050884
 20
12.7429043114
 30
0.0
  0
SPLINE
  5
326
100
AcDbEntity
  8
0
100
AcDbSpline
 62
7
  6
CONTINUOUS
 70
0
 71
3
 72
15
 73
11
 74
0
 42
0.0000001
 43
0.0000001
 44
0.0000000001
 40
0.0
 40
0.0
 40
0.0
 40
0.0
 40
0.1231667244
 40
0.2508318628
 40
0.3809286904
 40
0.5115334017
 40
0.6406218428
 40
0.7662094319
 40
0.8864951279
 40
1.0
 40
1.0
 40
1.0
 40
1.0
 10
16.1235760111
 20
12.8558943578
 30
0.0
 10
16.1300376251
 20
12.8558943578
 30
0.0
 10
16.1432039117
 20
12.8552031395
 30
0.0
 10
16.1630009244
 20
12.8522898177
 30
0.0
 10
16.1828404037
 20
12.8475351098
 30
0.0
 10
16.2022627141
 20
12.8410550773
 30
0.0
 10
16.220831774
 20
12.833005099
 30
0.0
 10
16.2381224674
 20
12.8235618283
 30
0.0
 10
16.2537264462
 20
12.8129255237
 30
0.0
 10
16.2630882469
 20
12.8049514386
 30
0.0
 10
16.2673679549
 20
12.8008110381
 30
0.0
  0
SPLINE
  5
327
100
AcDbEntity
  8
0
100
AcDbSpline
 62
7
  6
CONTINUOUS
 70
0
 71
3
 72
16
 73
12
 74
0
 42
0.0000001
 43
0.0000001
 44
0.0000000001
 40
0.0
 40
0.0
 40
0.0
 40
0.0
 40
0.1388065052
 40
0.2704906475
 40
0.3960407816
 40
0.5170385246
 40
0.6356214099
 40
0.7541254102
 40
0.8141310811
 40
0.8749640661
 40
1.0
 40
1.0
 40
1.0
 40
1.0
 10
14.4167556145
 20
11.9886501025
 30
0.0
 10
14.4154472277
 20
11.9913163143
 30
0.0
 10
14.413193088
 20
11.9966655864
 30
0.0
 10
14.4109402659
 20
12.0048611862
 30
0.0
 10
14.4099463531
 20
12.0129249592
 30
0.0
 10
14.4102435281
 20
12.0207674323
 30
0.0
 10
14.4118229499
 20
12.0283024276
 30
0.0
 10
14.4141951101
 20
12.034236403
 30
0.0
 10
14.4166831037
 20
12.0387182388
 30
0.0
 10
14.4196068281
 20
12.0430972704
 30
0.0
 10
14.4222111371
 20
12.0461302252
 30
0.0
 10
14.4240961119
 20
12.0480286776
 30
0.0
  0
SPLINE
  5
328
100
AcDbEntity
  8
0
100
AcDbSpline
 62
7
  6
CONTINUOUS
 70
0
 71
3
 72
11
 73
7
 74
0
 42
0.0000001
 43
0.0000001
 44
0.0000000001
 40
0.0
 40
0.0
 40
0.0
 40
0.0
 40
0.2248546461
 40
0.4654773402
 40
0.7236981419
 40
1.0
 40
1.0
 40
1.0
 40
1.0
 10
14.4240961119
 20
12.0480286776
 30
0.0
 10
14.4265330018
 20
12.0504829912
 30
0.0
 10
14.4320597976
 20
12.0550987978
 30
0.0
 10
14.4416507354
 20
12.0608225476
 30
0.0
 10
14.4526596914
 20
12.0654839996
 30
0.0
 10
14.4605760922
 20
12.0677753012
 30
0.0
 10
14.4647130714
 20
12.0687487548
 30
0.0
  0
SPLINE
  5
329
100
AcDbEntity
  8
0
100
AcDbSpline
 62
7
  6
CONTINUOUS
 70
0
 71
3
 72
15
 73
11
 74
0
 42
0.0000001
 43
0.0000001
 44
0.0000000001
 40
0.0
 40
0.0
 40
0.0
 40
0.0
 40
0.1386450706
 40
0.277210852
 40
0.413547438
 40
0.5455995365
 40
0.6715040069
 40
0.7897897492
 40
0.8994855631
 40
1.0
 40
1.0
 40
1.0
 40
1.0
 10
14.5374845786
 20
11.9097475528
 30
0.0
 10
14.5307796232
 20
11.9112110602
 30
0.0
 10
14.5174959116
 20
11.9147325528
 30
0.0
 10
14.4982182994
 20
11.9216910063
 30
0.0
 10
14.4799219993
 20
11.9301844444
 30
0.0
 10
14.4630328413
 20
11.9400259029
 30
0.0
 10
14.4479318155
 20
11.9509833962
 30
0.0
 10
14.4349600009
 20
11.9628198312
 30
0.0
 10
14.4244284194
 20
11.9752707336
 30
0.0
 10
14.4189474833
 20
11.9841835435
 30
0.0
 10
14.4167556145
 20
11.9886501025
 30
0.0
  0
SPLINE
  5
32A
100
AcDbEntity
  8
0
100
AcDbSpline
 62
7
  6
CONTINUOUS
 70
0
 71
3
 72
11
 73
7
 74
0
 42
0.0000001
 43
0.0000001
 44
0.0000000001
 40
0.0
 40
0.0
 40
0.0
 40
0.0
 40
0.2712944054
 40
0.5254898456
 40
0.7663491583
 40
1.0
 40
1.0
 40
1.0
 40
1.0
 10
14.4283868876
 20
11.9964833716
 30
0.0
 10
14.4268723831
 20
11.9995696073
 30
0.0
 10
14.4243619181
 20
12.0057716363
 30
0.0
 10
14.4222713268
 20
12.0153087846
 30
0.0
 10
14.4220696141
 20
12.024602141
 30
0.0
 10
14.4232175716
 20
12.0305605345
 30
0.0
 10
14.4240917498
 20
12.0333893414
 30
0.0
  0
SPLINE
  5
32B
100
AcDbEntity
  8
0
100
AcDbSpline
 62
7
  6
CONTINUOUS
 70
0
 71
3
 72
9
 73
5
 74
0
 42
0.0000001
 43
0.0000001
 44
0.0000000001
 40
0.0
 40
0.0
 40
0.0
 40
0.0
 40
0.5107144267
 40
1.0
 40
1.0
 40
1.0
 40
1.0
 10
16.0082836262
 20
11.8345979475
 30
0.0
 10
16.0083916451
 20
11.8331070389
 30
0.0
 10
16.0084030967
 20
11.8301692189
 30
0.0
 10
16.0078992621
 20
11.827259222
 30
0.0
 10
16.0074765092
 20
11.8258909459
 30
0.0
  0
SPLINE
  5
32C
100
AcDbEntity
  8
0
100
AcDbSpline
 62
7
  6
CONTINUOUS
 70
0
 71
3
 72
10
 73
6
 74
0
 42
0.0000001
 43
0.0000001
 44
0.0000000001
 40
0.0
 40
0.0
 40
0.0
 40
0.0
 40
0.2506837586
 40
0.6266819151
 40
1.0
 40
1.0
 40
1.0
 40
1.0
 10
16.0062492756
 20
11.8441654518
 30
0.0
 10
16.0065186551
 20
11.8433915946
 30
0.0
 10
16.0071390585
 20
11.8414379734
 30
0.0
 10
16.0078788799
 20
11.8382492044
 30
0.0
 10
16.0081970038
 20
11.8358151226
 30
0.0
 10
16.0082836262
 20
11.8345979475
 30
0.0
  0
SPLINE
  5
32D
100
AcDbEntity
  8
0
100
AcDbSpline
 62
7
  6
CONTINUOUS
 70
0
 71
3
 72
9
 73
5
 74
0
 42
0.0000001
 43
0.0000001
 44
0.0000000001
 40
0.0
 40
0.0
 40
0.0
 40
0.0
 40
0.2537323326
 40
1.0
 40
1.0
 40
1.0
 40
1.0
 10
15.975998851
 20
11.7162109588
 30
0.0
 10
15.9760656767
 20
11.7154918293
 30
0.0
 10
15.9762693304
 20
11.7126524836
 30
0.0
 10
15.9762286064
 20
11.709794888
 30
0.0
 10
15.9760523975
 20
11.707678021
 30
0.0
  0
SPLINE
  5
32E
100
AcDbEntity
  8
0
100
AcDbSpline
 62
7
  6
CONTINUOUS
 70
0
 71
3
 72
11
 73
7
 74
0
 42
0.0000001
 43
0.0000001
 44
0.0000000001
 40
0.0
 40
0.0
 40
0.0
 40
0.0
 40
0.2461986
 40
0.4913363921
 40
0.7409520459
 40
1.0
 40
1.0
 40
1.0
 40
1.0
 10
15.9760523975
 20
11.707678021
 30
0.0
 10
15.9758262557
 20
11.7049612914
 30
0.0
 10
15.9748922103
 20
11.6995654282
 30
0.0
 10
15.9720055491
 20
11.6918368934
 30
0.0
 10
15.9676914728
 20
11.6846414608
 30
0.0
 10
15.9639929843
 20
11.6803542762
 30
0.0
 10
15.9619578651
 20
11.6783328818
 30
0.0
  0
SPLINE
  5
32F
100
AcDbEntity
  8
0
100
AcDbSpline
 62
7
  6
CONTINUOUS
 70
0
 71
3
 72
13
 73
9
 74
0
 42
0.0000001
 43
0.0000001
 44
0.0000000001
 40
0.0
 40
0.0
 40
0.0
 40
0.0
 40
0.3313112862
 40
0.6057681108
 40
0.7207567584
 40
0.8225781482
 40
0.914154074
 40
1.0
 40
1.0
 40
1.0
 40
1.0
 10
15.7504130755
 20
12.6428297736
 30
0.0
 10
15.7506645343
 20
12.6436434947
 30
0.0
 10
15.7512137405
 20
12.6451053372
 30
0.0
 10
15.752155114
 20
12.6467219341
 30
0.0
 10
15.7530134888
 20
12.6476552096
 30
0.0
 10
15.7536489958
 20
12.6481379043
 30
0.0
 10
15.7543095199
 20
12.6484369461
 30
0.0
 10
15.7547680196
 20
12.6485050628
 30
0.0
 10
15.7549887003
 20
12.6485049688
 30
0.0
  0
SPLINE
  5
330
100
AcDbEntity
  8
0
100
AcDbSpline
 62
7
  6
CONTINUOUS
 70
0
 71
3
 72
11
 73
7
 74
0
 42
0.0000001
 43
0.0000001
 44
0.0000000001
 40
0.0
 40
0.0
 40
0.0
 40
0.0
 40
0.2515109519
 40
0.5011498042
 40
0.7494388331
 40
1.0
 40
1.0
 40
1.0
 40
1.0
 10
15.613231839
 20
12.1582267829
 30
0.0
 10
15.6124158031
 20
12.159176015
 30
0.0
 10
15.6108098327
 20
12.1610856051
 30
0.0
 10
15.6086456324
 20
12.1641331578
 30
0.0
 10
15.6069388706
 20
12.1674638938
 30
0.0
 10
15.6062787501
 20
12.1698853933
 30
0.0
 10
15.6061045316
 20
12.171120218
 30
0.0
  0
SPLINE
  5
331
100
AcDbEntity
  8
0
100
AcDbSpline
 62
7
  6
CONTINUOUS
 70
0
 71
3
 72
9
 73
5
 74
0
 42
0.0000001
 43
0.0000001
 44
0.0000000001
 40
0.0
 40
0.0
 40
0.0
 40
0.0
 40
0.4868398274
 40
1.0
 40
1.0
 40
1.0
 40
1.0
 10
15.6061045316
 20
12.171120218
 30
0.0
 10
15.6059581056
 20
12.1721580557
 30
0.0
 10
15.6058826541
 20
12.1743284698
 30
0.0
 10
15.6062948388
 20
12.1764629886
 30
0.0
 10
15.6066210225
 20
12.1775185197
 30
0.0
  0
SPLINE
  5
332
100
AcDbEntity
  8
0
100
AcDbSpline
 62
7
  6
CONTINUOUS
 70
0
 71
3
 72
15
 73
11
 74
0
 42
0.0000001
 43
0.0000001
 44
0.0000000001
 40
0.0
 40
0.0
 40
0.0
 40
0.0
 40
0.1024386236
 40
0.2191725723
 40
0.3465919609
 40
0.4807546543
 40
0.6175151393
 40
0.752578908
 40
0.8815920975
 40
1.0
 40
1.0
 40
1.0
 40
1.0
 10
15.7005237807
 20
12.4572570694
 30
0.0
 10
15.7002006005
 20
12.4579156415
 30
0.0
 10
15.6996285697
 20
12.4593835235
 30
0.0
 10
15.6989923295
 20
12.4617863778
 30
0.0
 10
15.6985499527
 20
12.4644629856
 30
0.0
 10
15.6983139536
 20
12.4673087042
 30
0.0
 10
15.6982961634
 20
12.4702187939
 30
0.0
 10
15.6984947894
 20
12.4730854721
 30
0.0
 10
15.6989067253
 20
12.475796354
 30
0.0
 10
15.6993287905
 20
12.4775209669
 30
0.0
 10
15.6995791476
 20
12.4783311226
 30
0.0
  0
SPLINE
  5
333
100
AcDbEntity
  8
0
100
AcDbSpline
 62
7
  6
CONTINUOUS
 70
0
 71
3
 72
9
 73
5
 74
0
 42
0.0000001
 43
0.0000001
 44
0.0000000001
 40
0.0
 40
0.0
 40
0.0
 40
0.0
 40
0.2564111468
 40
1.0
 40
1.0
 40
1.0
 40
1.0
 10
16.1267648655
 20
12.3049502653
 30
0.0
 10
16.1274417439
 20
12.3041333601
 30
0.0
 10
16.1300368579
 20
12.3009108408
 30
0.0
 10
16.1324494629
 20
12.2975399727
 30
0.0
 10
16.1341157547
 20
12.2949536963
 30
0.0
  0
SPLINE
  5
334
100
AcDbEntity
  8
0
100
AcDbSpline
 62
7
  6
CONTINUOUS
 70
0
 71
3
 72
9
 73
5
 74
0
 42
0.0000001
 43
0.0000001
 44
0.0000000001
 40
0.0
 40
0.0
 40
0.0
 40
0.0
 40
0.2559462857
 40
1.0
 40
1.0
 40
1.0
 40
1.0
 10
16.1341157547
 20
12.2949536963
 30
0.0
 10
16.1345748898
 20
12.2942410659
 30
0.0
 10
16.1363309875
 20
12.2914327349
 30
0.0
 10
16.1379323854
 20
12.2885267089
 30
0.0
 10
16.1390180642
 20
12.2863143282
 30
0.0
  0
SPLINE
  5
335
100
AcDbEntity
  8
0
100
AcDbSpline
 62
7
  6
CONTINUOUS
 70
0
 71
3
 72
9
 73
5
 74
0
 42
0.0000001
 43
0.0000001
 44
0.0000000001
 40
0.0
 40
0.0
 40
0.0
 40
0.0
 40
0.5203873808
 40
1.0
 40
1.0
 40
1.0
 40
1.0
 10
14.5936922924
 20
12.4604516794
 30
0.0
 10
14.5905690153
 20
12.4638412202
 30
0.0
 10
14.5849458296
 20
12.4707189579
 30
0.0
 10
14.580339416
 20
12.4783325274
 30
0.0
 10
14.5784680081
 20
12.4821460555
 30
0.0
  0
SPLINE
  5
336
100
AcDbEntity
  8
0
100
AcDbSpline
 62
7
  6
CONTINUOUS
 70
0
 71
3
 72
15
 73
11
 74
0
 42
0.0000001
 43
0.0000001
 44
0.0000000001
 40
0.0
 40
0.0
 40
0.0
 40
0.0
 40
0.1328612651
 40
0.2606752174
 40
0.3845855446
 40
0.5060746891
 40
0.6267526138
 40
0.7482798734
 40
0.8722235061
 40
1.0
 40
1.0
 40
1.0
 40
1.0
 10
15.8860729366
 20
12.2971073169
 30
0.0
 10
15.8854126529
 20
12.2993194833
 30
0.0
 10
15.8843535242
 20
12.3037358771
 30
0.0
 10
15.883599943
 20
12.3103935059
 30
0.0
 10
15.8837283152
 20
12.3168973162
 30
0.0
 10
15.8847335811
 20
12.3231995903
 30
0.0
 10
15.8866119137
 20
12.329256238
 30
0.0
 10
15.8893523403
 20
12.335021584
 30
0.0
 10
15.8929264972
 20
12.3404560046
 30
0.0
 10
15.8957970751
 20
12.3437744826
 30
0.0
 10
15.8973483781
 20
12.34536287
 30
0.0
  0
SPLINE
  5
337
100
AcDbEntity
  8
0
100
AcDbSpline
 62
7
  6
CONTINUOUS
 70
0
 71
3
 72
11
 73
7
 74
0
 42
0.0000001
 43
0.0000001
 44
0.0000000001
 40
0.0
 40
0.0
 40
0.0
 40
0.0
 40
0.2246348845
 40
0.4651323535
 40
0.723367654
 40
1.0
 40
1.0
 40
1.0
 40
1.0
 10
15.8973483781
 20
12.34536287
 30
0.0
 10
15.8997866805
 20
12.3478594608
 30
0.0
 10
15.9053345782
 20
12.3525556407
 30
0.0
 10
15.9149934941
 20
12.3583749236
 30
0.0
 10
15.9261056
 20
12.3631099467
 30
0.0
 10
15.9341055191
 20
12.3654300019
 30
0.0
 10
15.9382889056
 20
12.3664138875
 30
0.0
  0
SPLINE
  5
338
100
AcDbEntity
  8
0
100
AcDbSpline
 62
7
  6
CONTINUOUS
 70
0
 71
3
 72
9
 73
5
 74
0
 42
0.0000001
 43
0.0000001
 44
0.0000000001
 40
0.0
 40
0.0
 40
0.0
 40
0.0
 40
0.5169821313
 40
1.0
 40
1.0
 40
1.0
 40
1.0
 10
16.1390180642
 20
12.2863143282
 30
0.0
 10
16.1407304617
 20
12.2828248288
 30
0.0
 10
16.1435435845
 20
12.2758121837
 30
0.0
 10
16.1450687273
 20
12.268394967
 30
0.0
 10
16.1454215735
 20
12.2647804965
 30
0.0
  0
SPLINE
  5
339
100
AcDbEntity
  8
0
100
AcDbSpline
 62
7
  6
CONTINUOUS
 70
0
 71
3
 72
15
 73
11
 74
0
 42
0.0000001
 43
0.0000001
 44
0.0000000001
 40
0.0
 40
0.0
 40
0.0
 40
0.0
 40
0.1257102745
 40
0.2485015624
 40
0.3697129704
 40
0.4907617407
 40
0.6130647846
 40
0.7379373399
 40
0.866571329
 40
1.0
 40
1.0
 40
1.0
 40
1.0
 10
16.1454215735
 20
12.2647804965
 30
0.0
 10
16.1456178674
 20
12.2627697092
 30
0.0
 10
16.145771795
 20
12.2587670961
 30
0.0
 10
16.1452517622
 20
12.2528324212
 30
0.0
 10
16.1439814893
 20
12.2470870879
 30
0.0
 10
16.1419643131
 20
12.2415679514
 30
0.0
 10
16.1392146909
 20
12.2363090492
 30
0.0
 10
16.1357540506
 20
12.2313400603
 30
0.0
 10
16.1316029451
 20
12.2266913905
 30
0.0
 10
16.1284529246
 20
12.2238810656
 30
0.0
 10
16.1267823346
 20
12.2225366163
 30
0.0
  0
SPLINE
  5
33A
100
AcDbEntity
  8
0
100
AcDbSpline
 62
7
  6
CONTINUOUS
 70
0
 71
3
 72
11
 73
7
 74
0
 42
0.0000001
 43
0.0000001
 44
0.0000000001
 40
0.0
 40
0.0
 40
0.0
 40
0.0
 40
0.3137858055
 40
0.5815444979
 40
0.8065492273
 40
1.0
 40
1.0
 40
1.0
 40
1.0
 10
15.4001694035
 20
10.1204662738
 30
0.0
 10
15.4002777504
 20
10.1200976067
 30
0.0
 10
15.4005041065
 20
10.1194210908
 30
0.0
 10
15.4009278727
 20
10.1185251403
 30
0.0
 10
15.4014211484
 20
10.1178370194
 30
0.0
 10
15.4018333135
 20
10.1175138638
 30
0.0
 10
15.4020448314
 20
10.1174071836
 30
0.0
  0
SPLINE
  5
33B
100
AcDbEntity
  8
0
100
AcDbSpline
 62
7
  6
CONTINUOUS
 70
0
 71
3
 72
15
 73
11
 74
0
 42
0.0000001
 43
0.0000001
 44
0.0000000001
 40
0.0
 40
0.0
 40
0.0
 40
0.0
 40
0.1384364972
 40
0.2769393065
 40
0.413315053
 40
0.5454587586
 40
0.6714687107
 40
0.7898270571
 40
0.8995394718
 40
1.0
 40
1.0
 40
1.0
 40
1.0
 10
14.541600027
 20
11.9231185892
 30
0.0
 10
14.5353261536
 20
11.9244431968
 30
0.0
 10
14.5228874007
 20
11.9276574936
 30
0.0
 10
14.5048230049
 20
11.9340667273
 30
0.0
 10
14.4876612681
 20
11.941933805
 30
0.0
 10
14.4718095319
 20
11.9510829802
 30
0.0
 10
14.4576315422
 20
11.9612929515
 30
0.0
 10
14.4454538897
 20
11.9723397386
 30
0.0
 10
14.4355728069
 20
11.9839713063
 30
0.0
 10
14.430436816
 20
11.9923060568
 30
0.0
 10
14.4283868876
 20
11.9964833716
 30
0.0
  0
SPLINE
  5
33C
100
AcDbEntity
  8
0
100
AcDbSpline
 62
7
  6
CONTINUOUS
 70
0
 71
3
 72
11
 73
7
 74
0
 42
0.0000001
 43
0.0000001
 44
0.0000000001
 40
0.0
 40
0.0
 40
0.0
 40
0.0
 40
0.2712944054
 40
0.5254898456
 40
0.7663491583
 40
1.0
 40
1.0
 40
1.0
 40
1.0
 10
14.5784680081
 20
12.4821460555
 30
0.0
 10
14.5769535036
 20
12.4852322912
 30
0.0
 10
14.5744430386
 20
12.4914343202
 30
0.0
 10
14.5723524473
 20
12.5009714686
 30
0.0
 10
14.5721507346
 20
12.5102648249
 30
0.0
 10
14.5732986921
 20
12.5162232184
 30
0.0
 10
14.5741728703
 20
12.5190520253
 30
0.0
  0
SPLINE
  5
33D
100
AcDbEntity
  8
0
100
AcDbSpline
 62
7
  6
CONTINUOUS
 70
0
 71
3
 72
9
 73
5
 74
0
 42
0.0000001
 43
0.0000001
 44
0.0000000001
 40
0.0
 40
0.0
 40
0.0
 40
0.0
 40
0.2564111468
 40
1.0
 40
1.0
 40
1.0
 40
1.0
 10
16.276845986
 20
12.7906129493
 30
0.0
 10
16.2775228645
 20
12.7897960441
 30
0.0
 10
16.2801179784
 20
12.7865735248
 30
0.0
 10
16.2825305834
 20
12.7832026567
 30
0.0
 10
16.2841968752
 20
12.7806163803
 30
0.0
  0
SPLINE
  5
33E
100
AcDbEntity
  8
0
100
AcDbSpline
 62
7
  6
CONTINUOUS
 70
0
 71
3
 72
9
 73
5
 74
0
 42
0.0000001
 43
0.0000001
 44
0.0000000001
 40
0.0
 40
0.0
 40
0.0
 40
0.0
 40
0.2559462857
 40
1.0
 40
1.0
 40
1.0
 40
1.0
 10
16.2841968752
 20
12.7806163803
 30
0.0
 10
16.2846560104
 20
12.7799037498
 30
0.0
 10
16.286412108
 20
12.7770954188
 30
0.0
 10
16.2880135059
 20
12.7741893929
 30
0.0
 10
16.2890991847
 20
12.7719770121
 30
0.0
  0
SPLINE
  5
33F
100
AcDbEntity
  8
0
100
AcDbSpline
 62
7
  6
CONTINUOUS
 70
0
 71
3
 72
10
 73
6
 74
0
 42
0.0000001
 43
0.0000001
 44
0.0000000001
 40
0.0
 40
0.0
 40
0.0
 40
0.0
 40
0.4424954554
 40
0.7063156711
 40
1.0
 40
1.0
 40
1.0
 40
1.0
 10
15.1509874716
 20
10.1172162186
 30
0.0
 10
15.1504697775
 20
10.1172160381
 30
0.0
 10
15.1496443847
 20
10.1174674283
 30
0.0
 10
15.1486460887
 20
10.1180755699
 30
0.0
 10
15.1481413856
 20
10.1184941333
 30
0.0
 10
15.1478905845
 20
10.1187289852
 30
0.0
  0
LINE
  5
340
100
AcDbEntity
  8
0
100
AcDbLine
 62
7
  6
CONTINUOUS
 10
15.1478905845
 20
10.1187289852
 11
15.1464175175
 21
10.1204662738
  0
SPLINE
  5
341
100
AcDbEntity
  8
0
100
AcDbSpline
 62
7
  6
CONTINUOUS
 70
0
 71
3
 72
15
 73
11
 74
0
 42
0.0000001
 43
0.0000001
 44
0.0000000001
 40
0.0
 40
0.0
 40
0.0
 40
0.0
 40
0.1388703087
 40
0.2706564432
 40
0.3963278525
 40
0.5174398779
 40
0.6360922868
 40
0.7545837082
 40
0.8752000886
 40
1.0
 40
1.0
 40
1.0
 40
1.0
 10
14.5668391892
 20
12.4743092369
 30
0.0
 10
14.565539673
 20
12.4769573724
 30
0.0
 10
14.563298286
 20
12.4822699772
 30
0.0
 10
14.5610481651
 20
12.4904084279
 30
0.0
 10
14.5600390997
 20
12.4984178086
 30
0.0
 10
14.5603022392
 20
12.5062104195
 30
0.0
 10
14.5618298568
 20
12.513702992
 30
0.0
 10
14.5646161753
 20
12.5208135399
 30
0.0
 10
14.5686212363
 20
12.5274640837
 30
0.0
 10
14.5720005827
 20
12.5314648283
 30
0.0
 10
14.5738528048
 20
12.5333613283
 30
0.0
  0
SPLINE
  5
342
100
AcDbEntity
  8
0
100
AcDbSpline
 62
7
  6
CONTINUOUS
 70
0
 71
3
 72
11
 73
7
 74
0
 42
0.0000001
 43
0.0000001
 44
0.0000000001
 40
0.0
 40
0.0
 40
0.0
 40
0.0
 40
0.2246348845
 40
0.4651323535
 40
0.723367654
 40
1.0
 40
1.0
 40
1.0
 40
1.0
 10
14.5738528048
 20
12.5333613283
 30
0.0
 10
14.5762911071
 20
12.5358579191
 30
0.0
 10
14.5818390048
 20
12.540554099
 30
0.0
 10
14.5914979207
 20
12.5463733819
 30
0.0
 10
14.6026100266
 20
12.551108405
 30
0.0
 10
14.6106099457
 20
12.5534284602
 30
0.0
 10
14.6147933323
 20
12.5544123459
 30
0.0
  0
SPLINE
  5
343
100
AcDbEntity
  8
0
100
AcDbSpline
 62
7
  6
CONTINUOUS
 70
0
 71
3
 72
9
 73
5
 74
0
 42
0.0000001
 43
0.0000001
 44
0.0000000001
 40
0.0
 40
0.0
 40
0.0
 40
0.0
 40
0.2594244645
 40
1.0
 40
1.0
 40
1.0
 40
1.0
 10
14.5753581034
 20
12.4604404637
 30
0.0
 10
14.5745208863
 20
12.4615731618
 30
0.0
 10
14.5713827021
 20
12.4660036634
 30
0.0
 10
14.5686105639
 20
12.4706995547
 30
0.0
 10
14.5668391892
 20
12.4743092369
 30
0.0
  0
SPLINE
  5
344
100
AcDbEntity
  8
0
100
AcDbSpline
 62
7
  6
CONTINUOUS
 70
0
 71
3
 72
12
 73
8
 74
0
 42
0.0000001
 43
0.0000001
 44
0.0000000001
 40
0.0
 40
0.0
 40
0.0
 40
0.0
 40
0.229334935
 40
0.3523921042
 40
0.4789495845
 40
0.7378725485
 40
1.0
 40
1.0
 40
1.0
 40
1.0
 10
15.8433712005
 20
12.9436423764
 30
0.0
 10
15.8440279904
 20
12.9457677493
 30
0.0
 10
15.8457375102
 20
12.9488203873
 30
0.0
 10
15.848703698
 20
12.9523936231
 30
0.0
 10
15.8522201319
 20
12.9558661312
 30
0.0
 10
15.8571753078
 20
12.9597502712
 30
0.0
 10
15.8613672309
 20
12.9625734986
 30
0.0
 10
15.863476183
 20
12.9639938065
 30
0.0
  0
SPLINE
  5
345
100
AcDbEntity
  8
0
100
AcDbSpline
 62
7
  6
CONTINUOUS
 70
0
 71
3
 72
15
 73
11
 74
0
 42
0.0000001
 43
0.0000001
 44
0.0000000001
 40
0.0
 40
0.0
 40
0.0
 40
0.0
 40
0.1328612651
 40
0.2606752174
 40
0.3845855446
 40
0.5060746891
 40
0.6267526138
 40
0.7482798734
 40
0.8722235061
 40
1.0
 40
1.0
 40
1.0
 40
1.0
 10
16.0361540571
 20
12.7827700009
 30
0.0
 10
16.0354937735
 20
12.7849821673
 30
0.0
 10
16.0344346448
 20
12.7893985611
 30
0.0
 10
16.0336810635
 20
12.7960561898
 30
0.0
 10
16.0338094357
 20
12.8025600002
 30
0.0
 10
16.0348147016
 20
12.8088622742
 30
0.0
 10
16.0366930342
 20
12.814918922
 30
0.0
 10
16.0394334608
 20
12.820684268
 30
0.0
 10
16.0430076177
 20
12.8261186886
 30
0.0
 10
16.0458781957
 20
12.8294371666
 30
0.0
 10
16.0474294987
 20
12.831025554
 30
0.0
  0
SPLINE
  5
346
100
AcDbEntity
  8
0
100
AcDbSpline
 62
7
  6
CONTINUOUS
 70
0
 71
3
 72
11
 73
7
 74
0
 42
0.0000001
 43
0.0000001
 44
0.0000000001
 40
0.0
 40
0.0
 40
0.0
 40
0.0
 40
0.2246348845
 40
0.4651323535
 40
0.723367654
 40
1.0
 40
1.0
 40
1.0
 40
1.0
 10
16.0474294987
 20
12.831025554
 30
0.0
 10
16.049867801
 20
12.8335221447
 30
0.0
 10
16.0554156987
 20
12.8382183247
 30
0.0
 10
16.0650746146
 20
12.8440376075
 30
0.0
 10
16.0761867205
 20
12.8487726306
 30
0.0
 10
16.0841866396
 20
12.8510926859
 30
0.0
 10
16.0883700262
 20
12.8520765715
 30
0.0
  0
SPLINE
  5
347
100
AcDbEntity
  8
0
100
AcDbSpline
 62
7
  6
CONTINUOUS
 70
0
 71
3
 72
9
 73
5
 74
0
 42
0.0000001
 43
0.0000001
 44
0.0000000001
 40
0.0
 40
0.0
 40
0.0
 40
0.0
 40
0.5169821313
 40
1.0
 40
1.0
 40
1.0
 40
1.0
 10
16.2890991847
 20
12.7719770121
 30
0.0
 10
16.2908115822
 20
12.7684875128
 30
0.0
 10
16.293624705
 20
12.7614748677
 30
0.0
 10
16.2951498478
 20
12.754057651
 30
0.0
 10
16.295502694
 20
12.7504431805
 30
0.0
  0
SPLINE
  5
348
100
AcDbEntity
  8
0
100
AcDbSpline
 62
7
  6
CONTINUOUS
 70
0
 71
3
 72
15
 73
11
 74
0
 42
0.0000001
 43
0.0000001
 44
0.0000000001
 40
0.0
 40
0.0
 40
0.0
 40
0.0
 40
0.1257102745
 40
0.2485015624
 40
0.3697129704
 40
0.4907617407
 40
0.6130647846
 40
0.7379373399
 40
0.866571329
 40
1.0
 40
1.0
 40
1.0
 40
1.0
 10
16.295502694
 20
12.7504431805
 30
0.0
 10
16.2956989879
 20
12.7484323932
 30
0.0
 10
16.2958529155
 20
12.7444297801
 30
0.0
 10
16.2953328827
 20
12.7384951052
 30
0.0
 10
16.2940626098
 20
12.7327497719
 30
0.0
 10
16.2920454336
 20
12.7272306354
 30
0.0
 10
16.2892958114
 20
12.7219717332
 30
0.0
 10
16.2858351711
 20
12.7170027443
 30
0.0
 10
16.2816840657
 20
12.7123540744
 30
0.0
 10
16.2785340451
 20
12.7095437496
 30
0.0
 10
16.2768634551
 20
12.7081993003
 30
0.0
  0
ENDSEC
  0
SECTION
  2
OBJECTS
  0
DICTIONARY
  5
C
100
AcDbDictionary
280
0
281
1
  3
ACAD_GROUP
350
D
  3
ACAD_MLINESTYLE
350
17
  3
ACAD_LAYOUT
350
1A
  3
ACAD_PLOTSETTINGS
350
19
  3
ACAD_PLOTSTYLENAME
350
E
  0
DICTIONARY
  5
D
102
{ACAD_REACTORS
330
C
102
}
100
AcDbDictionary
280
0
281
1
  0
ACDBDICTIONARYWDFLT
  5
E
102
{ACAD_REACTORS
330
C
102
}
100
AcDbDictionary
281
1
  3
Normal
350
F
100
AcDbDictionaryWithDefault
340
F
  0
DICTIONARY
  5
17
102
{ACAD_REACTORS
330
C
102
}
100
AcDbDictionary
280
0
281
1
  3
Standard
350
18
  0
DICTIONARY
  5
19
102
{ACAD_REACTORS
330
C
102
}
100
AcDbDictionary
281
1
  0
DICTIONARY
  5
1A
102
{ACAD_REACTORS
330
C
102
}
100
AcDbDictionary
281
1
  3
Model
350
349
  3
Layout1
350
34A
  0
ACDBPLACEHOLDER
  5
F
102
{ACAD_REACTORS
330
E
102
}
  0
MLINESTYLE
  5
18
102
{ACAD_REACTORS
330
17
102
}
100
AcDbMlineStyle
  2
STANDARD
 70
0
  3

 62
256
 51
90.0
 52
90.0
 71
2
 49
0.5
 62
256
  6
BYLAYER
 49
-0.5
 62
256
  6
BYLAYER
  0
LAYOUT
  5
349
102
{ACAD_REACTORS
330
1A
102
}
100
AcDbPlotSettings
  1

  2
none_device
  4
ANSI_C_(22.00_x_17.00_Inches)
  6

 40
0.0
 41
0.0
 42
0.0
 43
0.0
 44
558.8
 45
431.8
 46
0.0
 47
0.0
 48
0.0
 49
0.0
140
0.0
141
0.0
142
1.0
143
1.0
 70
1024
 72
0
 73
0
 74
0
  7

 75
0
147
1.0
148
0.0
149
0.0
100
AcDbLayout
  1
Model
 70
0
 71
0
 10
0.0
 20
0.0
 11
22.0
 21
17.0
 12
0.0
 22
0.0
 32
0.0
 14
0.0
 24
0.0
 34
0.0
 15
0.0
 25
0.0
 35
0.0
146
0.0
 13
0.0
 23
0.0
 33
0.0
 16
1.0
 26
0.0
 36
0.0
 17
0.0
 27
1.0
 37
0.0
 76
0
330
218
345
0
346
0
  0
LAYOUT
  5
34A
102
{ACAD_REACTORS
330
1A
102
}
100
AcDbPlotSettings
  1

  2
none_device
  4
ANSI_C_(22.00_x_17.00_Inches)
  6

 40
0.0
 41
0.0
 42
0.0
 43
0.0
 44
558.8
 45
431.8
 46
0.0
 47
0.0
 48
0.0
 49
0.0
140
0.0
141
0.0
142
1.0
143
1.0
 70
0
 72
0
 73
0
 74
0
  7

 75
0
147
1.0
148
0.0
149
0.0
100
AcDbLayout
  1
Layout1
 70
0
 71
1
 10
0.0
 20
0.0
 11
22.0
 21
17.0
 12
0.0
 22
0.0
 32
0.0
 14
0.0
 24
0.0
 34
0.0
 15
0.0
 25
0.0
 35
0.0
146
0.0
 13
0.0
 23
0.0
 33
0.0
 16
1.0
 26
0.0
 36
0.0
 17
0.0
 27
1.0
 37
0.0
 76
0
330
219
345
0
346
0
  0
ENDSEC
  0
EOF