999
DXF file: _cgs_temp_output.dxf
999
Pro/ENGINEER 2015110 by Parametric Technology Corporation
  0
SECTION
  2
HEADER
  9
$ACADVER
  1
AC1021
  9
$DWGCODEPAGE
  3
ANSI_1252
  9
$EXTMAX
 10
22.0
 20
17.0
 30
0.0
  9
$EXTMIN
 10
0.0
 20
0.0
 30
0.0
  9
$LIMMIN
 10
0.0
 20
0.0
  9
$LIMMAX
 10
22.0
 20
17.0
  9
$VIEWCTR
 10
11.0
 20
8.5
  9
$VIEWSIZE
 40
17.0
  9
$CLAYER
  8
0
  9
$LTSCALE
 40
1.21
  9
$CELTYPE
  6
BYLAYER
  9
$DIMSCALE
 40
1.0
  9
$DIMASZ
 40
0.1875
  9
$DIMEXO
 40
0.0625
  9
$DIMDLI
 40
0.836
  9
$DIMEXE
 40
0.125
  9
$DIMCEN
 40
0.198
  9
$DIMLFAC
 40
1.0
  9
$DIMBLK
  1
_CLOSED
  9
$DIMALT
 70
0
  9
$DIMALTF
 40
25.4
  9
$DIMTXT
 40
0.15625
  9
$DIMTOL
 70
0
  9
$DIMLIM
 70
0
  9
$DIMTFAC
 40
1.0
  9
$DIMGAP
 40
0.09
  9
$DIMDSEP
 70
46
  9
$AUNITS
 70
0
  9
$PDMODE
 70
3
  9
$PDSIZE
 40
0.3125
  9
$HANDSEED
  5
290
  9
$TILEMODE
 70
1
  9
$MEASUREMENT
 70
0
  9
$INSUNITS
 70
1
  0
ENDSEC
  0
SECTION
  2
CLASSES
  0
CLASS
  1
ACDBDICTIONARYWDFLT
  2
AcDbDictionaryWithDefault
  3
AutoCAD 2000
 90
0
 91
1
280
0
281
0
  0
CLASS
  1
ACDBPLACEHOLDER
  2
AcDbPlaceHolder
  3
AutoCAD 2000
 90
0
 91
1
280
0
281
0
  0
CLASS
  1
LAYOUT
  2
AcDbLayout
  3
AutoCAD 2000
 90
0
 91
0
280
0
281
0
  0
ENDSEC
  0
SECTION
  2
TABLES
  0
TABLE
  2
VPORT
  5
8
100
AcDbSymbolTable
 70
2
  0
VPORT
  5
1F4
100
AcDbSymbolTableRecord
100
AcDbViewportTableRecord
  2
*ACTIVE
 70
0
 10
0.0
 20
0.0
 11
1.0
 21
1.0
 12
11.0
 22
8.5
 13
0.0
 23
0.0
 14
1.0
 24
1.0
 15
0.0
 25
0.0
 16
0.0
 26
0.0
 36
1.0
 17
0.0
 27
0.0
 37
0.0
 40
17.0
 41
1.2941176471
 42
50.0
 43
0.0
 44
0.0
 50
0.0
 51
0.0
 71
0
 72
100
 73
1
 74
1
 75
0
 76
0
 77
0
 78
0
  0
ENDTAB
  0
TABLE
  2
LTYPE
  5
5
100
AcDbSymbolTable
 70
6
  0
LTYPE
  5
14
100
AcDbSymbolTableRecord
100
AcDbLinetypeTableRecord
  2
BYBLOCK
 70
0
  3

 72
65
 73
0
 40
0.0
  0
LTYPE
  5
15
100
AcDbSymbolTableRecord
100
AcDbLinetypeTableRecord
  2
BYLAYER
 70
0
  3

 72
65
 73
0
 40
0.0
  0
LTYPE
  5
16
100
AcDbSymbolTableRecord
100
AcDbLinetypeTableRecord
  2
CONTINUOUS
 70
64
  3
Solid line
 72
65
 73
0
 40
0.0
  0
LTYPE
  5
1F5
100
AcDbSymbolTableRecord
100
AcDbLinetypeTableRecord
  2
CENTER
 70
64
  3
____ _ ____ _ ____ _ ____ _ ____ _ ____ _ ____
 72
65
 73
4
 40
0.6
 49
0.375
 74
0
 49
-0.075
 74
0
 49
0.075
 74
0
 49
-0.075
 74
0
  0
LTYPE
  5
1F6
100
AcDbSymbolTableRecord
100
AcDbLinetypeTableRecord
  2
HIDDEN
 70
64
  3
- - - - - - - - - - - - - - - - - - - -
 72
65
 73
2
 40
0.2
 49
0.1
 74
0
 49
-0.1
 74
0
  0
LTYPE
  5
1F7
100
AcDbSymbolTableRecord
100
AcDbLinetypeTableRecord
  2
PHANTOM
 70
64
  3
_____ _ _ _____ _ _ _____ _ _ _____
 72
65
 73
6
 40
0.8
 49
0.45
 74
0
 49
-0.05
 74
0
 49
0.1
 74
0
 49
-0.05
 74
0
 49
0.1
 74
0
 49
-0.05
 74
0
  0
LTYPE
  5
1F8
100
AcDbSymbolTableRecord
100
AcDbLinetypeTableRecord
  2
DOT
 70
64
  3
. . . . . . . . . . . . . . . . . . . .
 72
65
 73
2
 40
0.2
 49
0.1
 74
0
 49
-0.1
 74
0
  0
LTYPE
  5
1F9
100
AcDbSymbolTableRecord
100
AcDbLinetypeTableRecord
  2
DASHED
 70
64
  3
- - - - - - - - - - - - - - - - - - - -
 72
65
 73
2
 40
0.2
 49
0.1
 74
0
 49
-0.1
 74
0
  0
ENDTAB
  0
TABLE
  2
LAYER
  5
2
100
AcDbSymbolTable
 70
36
  0
LAYER
  5
10
100
AcDbSymbolTableRecord
100
AcDbLayerTableRecord
  2
0
 70
0
 62
7
  6
CONTINUOUS
370
-3
390
F
  0
LAYER
  5
1FA
100
AcDbSymbolTableRecord
100
AcDbLayerTableRecord
  2
DEFAULT_1
 70
0
 62
7
  6
CENTER
370
-3
390
F
  0
LAYER
  5
1FB
100
AcDbSymbolTableRecord
100
AcDbLayerTableRecord
  2
DEFAULT_2
 70
0
 62
8
  6
HIDDEN
370
-3
390
F
  0
LAYER
  5
1FC
100
AcDbSymbolTableRecord
100
AcDbLayerTableRecord
  2
DEFAULT_3
 70
0
 62
7
  6
PHANTOM
370
-3
390
F
  0
LAYER
  5
1FD
100
AcDbSymbolTableRecord
100
AcDbLayerTableRecord
  2
01_ALL_DTM_PLN
 70
0
 62
7
  6
CONTINUOUS
370
-3
390
F
  0
LAYER
  5
1FE
100
AcDbSymbolTableRecord
100
AcDbLayerTableRecord
  2
01__ASM_ALL_DTM_PLN
 70
0
 62
7
  6
CONTINUOUS
370
-3
390
F
  0
LAYER
  5
1FF
100
AcDbSymbolTableRecord
100
AcDbLayerTableRecord
  2
01__ASM_DEF_DTM_PLN
 70
0
 62
7
  6
CONTINUOUS
370
-3
390
F
  0
LAYER
  5
200
100
AcDbSymbolTableRecord
100
AcDbLayerTableRecord
  2
01___PRT_ALL_DTM_PLN
 70
0
 62
7
  6
CONTINUOUS
370
-3
390
F
  0
LAYER
  5
201
100
AcDbSymbolTableRecord
100
AcDbLayerTableRecord
  2
01___PRT_DEF_DTM_PLN
 70
0
 62
7
  6
CONTINUOUS
370
-3
390
F
  0
LAYER
  5
202
100
AcDbSymbolTableRecord
100
AcDbLayerTableRecord
  2
02_ALL_AXES
 70
0
 62
7
  6
CONTINUOUS
370
-3
390
F
  0
LAYER
  5
203
100
AcDbSymbolTableRecord
100
AcDbLayerTableRecord
  2
02__ASM_ALL_AXES
 70
0
 62
7
  6
CONTINUOUS
370
-3
390
F
  0
LAYER
  5
204
100
AcDbSymbolTableRecord
100
AcDbLayerTableRecord
  2
02___PRT_ALL_AXES
 70
0
 62
7
  6
CONTINUOUS
370
-3
390
F
  0
LAYER
  5
205
100
AcDbSymbolTableRecord
100
AcDbLayerTableRecord
  2
03_ALL_CURVES
 70
0
 62
7
  6
CONTINUOUS
370
-3
390
F
  0
LAYER
  5
206
100
AcDbSymbolTableRecord
100
AcDbLayerTableRecord
  2
03__ASM_ALL_CURVES
 70
0
 62
7
  6
CONTINUOUS
370
-3
390
F
  0
LAYER
  5
207
100
AcDbSymbolTableRecord
100
AcDbLayerTableRecord
  2
03___PRT_ALL_CURVES
 70
0
 62
7
  6
CONTINUOUS
370
-3
390
F
  0
LAYER
  5
208
100
AcDbSymbolTableRecord
100
AcDbLayerTableRecord
  2
04_ALL_DTM_PNT
 70
0
 62
7
  6
CONTINUOUS
370
-3
390
F
  0
LAYER
  5
209
100
AcDbSymbolTableRecord
100
AcDbLayerTableRecord
  2
04__ASM_ALL_DTM_PNT
 70
0
 62
7
  6
CONTINUOUS
370
-3
390
F
  0
LAYER
  5
20A
100
AcDbSymbolTableRecord
100
AcDbLayerTableRecord
  2
04___PRT_ALL_DTM_PNT
 70
0
 62
7
  6
CONTINUOUS
370
-3
390
F
  0
LAYER
  5
20B
100
AcDbSymbolTableRecord
100
AcDbLayerTableRecord
  2
05_ALL_DTM_CSYS
 70
0
 62
7
  6
CONTINUOUS
370
-3
390
F
  0
LAYER
  5
20C
100
AcDbSymbolTableRecord
100
AcDbLayerTableRecord
  2
05__ASM_ALL_DTM_CSYS
 70
0
 62
7
  6
CONTINUOUS
370
-3
390
F
  0
LAYER
  5
20D
100
AcDbSymbolTableRecord
100
AcDbLayerTableRecord
  2
05__ASM_DEF_DTM_CSYS
 70
0
 62
7
  6
CONTINUOUS
370
-3
390
F
  0
LAYER
  5
20E
100
AcDbSymbolTableRecord
100
AcDbLayerTableRecord
  2
05___PRT_ALL_DTM_CSYS
 70
0
 62
7
  6
CONTINUOUS
370
-3
390
F
  0
LAYER
  5
20F
100
AcDbSymbolTableRecord
100
AcDbLayerTableRecord
  2
05___PRT_DEF_DTM_CSYS
 70
0
 62
7
  6
CONTINUOUS
370
-3
390
F
  0
LAYER
  5
210
100
AcDbSymbolTableRecord
100
AcDbLayerTableRecord
  2
06_ALL_SURFS
 70
0
 62
7
  6
CONTINUOUS
370
-3
390
F
  0
LAYER
  5
211
100
AcDbSymbolTableRecord
100
AcDbLayerTableRecord
  2
06__ASM_ALL_SURFS
 70
0
 62
7
  6
CONTINUOUS
370
-3
390
F
  0
LAYER
  5
212
100
AcDbSymbolTableRecord
100
AcDbLayerTableRecord
  2
06___PRT_ALL_SURFS
 70
0
 62
7
  6
CONTINUOUS
370
-3
390
F
  0
LAYER
  5
213
100
AcDbSymbolTableRecord
100
AcDbLayerTableRecord
  2
07__ASM_ALL_SKELETONS
 70
0
 62
7
  6
CONTINUOUS
370
-3
390
F
  0
ENDTAB
  0
TABLE
  2
STYLE
  5
3
100
AcDbSymbolTable
 70
1
  0
STYLE
  5
11
100
AcDbSymbolTableRecord
100
AcDbTextStyleTableRecord
  2
STANDARD
 70
0
 40
0.0
 41
0.8
 50
0.0
 71
0
 42
0.2
  3
txt
  4

  0
STYLE
  5
214
100
AcDbSymbolTableRecord
100
AcDbTextStyleTableRecord
  2
TEXTSTYLE_1
 70
0
 40
0.0
 41
0.8
 50
0.0
 71
0
 42
0.2
  3
gdt
  4

  0
ENDTAB
  0
TABLE
  2
VIEW
  5
6
100
AcDbSymbolTable
 70
0
  0
ENDTAB
  0
TABLE
  2
UCS
  5
7
100
AcDbSymbolTable
 70
0
  0
ENDTAB
  0
TABLE
  2
APPID
  5
9
100
AcDbSymbolTable
 70
1
  0
APPID
  5
215
100
AcDbSymbolTableRecord
100
AcDbRegAppTableRecord
  2
ACAD
 70
0
  0
ENDTAB
  0
TABLE
  2
BLOCK_RECORD
  5
1
100
AcDbSymbolTable
 70
0
  0
BLOCK_RECORD
  5
216
100
AcDbSymbolTableRecord
100
AcDbBlockTableRecord
  2
*Model_Space
  0
BLOCK_RECORD
  5
217
100
AcDbSymbolTableRecord
100
AcDbBlockTableRecord
  2
*Paper_Space
  0
ENDTAB
  0
TABLE
  2
DIMSTYLE
  5
A
100
AcDbSymbolTable
 70
1
100
AcDbDimStyleTable
 71
0
  0
DIMSTYLE
105
218
100
AcDbSymbolTableRecord
100
AcDbDimStyleTableRecord
  2
STANDARD
 70
0
  3

  4

 40
1.0
 41
0.1875
 42
0.0625
 43
0.38
 44
0.125
 45
0.0
 46
0.0
 47
0.0001
 48
0.0001
140
0.15625
141
0.09
142
0.0
143
25.4
144
1.0
145
0.0
146
1.0
147
0.09
 71
0.0
 72
0.0
 73
1
 74
1
 75
0
 76
0
 77
0
 78
4
170
0
171
2
172
0
173
0
174
0
175
0
176
0
177
0
178
0
270
2
271
4
272
4
273
2
274
2
275
0
280
0
281
0
282
0
283
1
284
4
285
0
286
0
287
3
288
0
340
11
278
46
  0
ENDTAB
  0
ENDSEC
  0
SECTION
  2
BLOCKS
  0
BLOCK
  5
20
100
AcDbEntity
  8
0
100
AcDbBlockBegin
  2
*Model_Space
 70
0
 10
0.0
 20
0.0
 30
0.0
  3
*Model_Space
  1

  0
ENDBLK
  5
21
100
AcDbEntity
  8
0
100
AcDbBlockEnd
  0
BLOCK
  5
1C
100
AcDbEntity
  8
0
100
AcDbBlockBegin
  2
*Paper_Space
 70
0
 10
0.0
 20
0.0
 30
0.0
  3
*Paper_Space
  1

  0
ENDBLK
  5
1D
100
AcDbEntity
  8
0
100
AcDbBlockEnd
  0
ENDSEC
  0
SECTION
  2
ENTITIES
  0
MTEXT
  5
219
100
AcDbEntity
  8
0
100
AcDbMText
 62
7
  6
CONTINUOUS
  7
STANDARD
 71
1
 72
1
 10
15.9560215477
 20
0.9479130325
 30
0.0
 11
1.0
 21
0.0
 31
0.0
 44
0.9
  1
SCALE: 1:5.000
 40
0.3
 41
3.36
  0
LINE
  5
21A
100
AcDbEntity
  8
0
100
AcDbLine
 62
7
  6
CONTINUOUS
 10
0.0
 20
0.0
 11
0.0
 21
17.0
  0
LINE
  5
21B
100
AcDbEntity
  8
0
100
AcDbLine
 62
7
  6
CONTINUOUS
 10
0.0
 20
0.0
 11
22.0
 21
0.0
  0
LINE
  5
21C
100
AcDbEntity
  8
0
100
AcDbLine
 62
7
  6
CONTINUOUS
 10
0.0
 20
17.0
 11
22.0
 21
17.0
  0
LINE
  5
21D
100
AcDbEntity
  8
0
100
AcDbLine
 62
7
  6
CONTINUOUS
 10
22.0
 20
0.0
 11
22.0
 21
17.0
  0
LINE
  5
21E
100
AcDbEntity
  8
0
100
AcDbLine
 62
7
  6
CONTINUOUS
 10
4.3587137329
 20
5.7573246212
 11
4.3587137329
 21
5.5230726527
  0
LINE
  5
21F
100
AcDbEntity
  8
0
100
AcDbLine
 62
7
  6
CONTINUOUS
 10
4.4694420793
 20
5.4738600542
 11
4.4694420793
 21
5.4674624164
  0
LINE
  5
220
100
AcDbEntity
  8
0
100
AcDbLine
 62
7
  6
CONTINUOUS
 10
4.8385365675
 20
5.4674624164
 11
4.8385365675
 21
5.4738600542
  0
LINE
  5
221
100
AcDbEntity
  8
0
100
AcDbLine
 62
7
  6
CONTINUOUS
 10
5.0599932604
 20
5.4738600542
 11
5.0599932604
 21
5.4674624164
  0
LINE
  5
222
100
AcDbEntity
  8
0
100
AcDbLine
 62
7
  6
CONTINUOUS
 10
5.4290877486
 20
5.4674624164
 11
5.4290877486
 21
5.4738600542
  0
LINE
  5
223
100
AcDbEntity
  8
0
100
AcDbLine
 62
7
  6
CONTINUOUS
 10
5.6505444415
 20
5.4738600542
 11
5.6505444415
 21
5.4674624164
  0
LINE
  5
224
100
AcDbEntity
  8
0
100
AcDbLine
 62
7
  6
CONTINUOUS
 10
6.0196389297
 20
5.4674624164
 11
6.0196389297
 21
5.4738600542
  0
LINE
  5
225
100
AcDbEntity
  8
0
100
AcDbLine
 62
7
  6
CONTINUOUS
 10
4.3587137329
 20
5.5230726527
 11
4.4202294809
 21
5.5230726527
  0
LINE
  5
226
100
AcDbEntity
  8
0
100
AcDbLine
 62
7
  6
CONTINUOUS
 10
4.8877491659
 20
5.5230726527
 11
5.010780662
 21
5.5230726527
  0
LINE
  5
227
100
AcDbEntity
  8
0
100
AcDbLine
 62
7
  6
CONTINUOUS
 10
5.478300347
 20
5.5230726527
 11
5.6013318431
 21
5.5230726527
  0
LINE
  5
228
100
AcDbEntity
  8
0
100
AcDbLine
 62
7
  6
CONTINUOUS
 10
6.0688515281
 20
5.5230726527
 11
6.1918830242
 21
5.5230726527
  0
LINE
  5
229
100
AcDbEntity
  8
0
100
AcDbLine
 62
7
  6
CONTINUOUS
 10
6.6594027092
 20
5.5230726527
 11
6.7824342053
 21
5.5230726527
  0
LINE
  5
22A
100
AcDbEntity
  8
0
100
AcDbLine
 62
7
  6
CONTINUOUS
 10
7.2499538903
 20
5.5230726527
 11
7.3729853864
 21
5.5230726527
  0
LINE
  5
22B
100
AcDbEntity
  8
0
100
AcDbLine
 62
7
  6
CONTINUOUS
 10
7.8405050714
 20
5.5230726527
 11
7.9020208195
 21
5.5230726527
  0
LINE
  5
22C
100
AcDbEntity
  8
0
100
AcDbLine
 62
7
  6
CONTINUOUS
 10
6.2410956226
 20
5.4738600542
 11
6.2410956226
 21
5.4674624164
  0
LINE
  5
22D
100
AcDbEntity
  8
0
100
AcDbLine
 62
7
  6
CONTINUOUS
 10
7.9020208195
 20
5.7573246212
 11
4.3587137329
 21
5.7573246212
  0
LINE
  5
22E
100
AcDbEntity
  8
0
100
AcDbLine
 62
7
  6
CONTINUOUS
 10
6.6101901108
 20
5.4674624164
 11
6.6101901108
 21
5.4738600542
  0
LINE
  5
22F
100
AcDbEntity
  8
0
100
AcDbLine
 62
7
  6
CONTINUOUS
 10
6.8316468037
 20
5.4738600542
 11
6.8316468037
 21
5.4674624164
  0
LINE
  5
230
100
AcDbEntity
  8
0
100
AcDbLine
 62
7
  6
CONTINUOUS
 10
7.2007412919
 20
5.4674624164
 11
7.2007412919
 21
5.4738600542
  0
LINE
  5
231
100
AcDbEntity
  8
0
100
AcDbLine
 62
7
  6
CONTINUOUS
 10
7.4221979848
 20
5.4738600542
 11
7.4221979848
 21
5.4674624164
  0
LINE
  5
232
100
AcDbEntity
  8
0
100
AcDbLine
 62
7
  6
CONTINUOUS
 10
7.791292473
 20
5.4674624164
 11
7.791292473
 21
5.4738600542
  0
LINE
  5
233
100
AcDbEntity
  8
0
100
AcDbLine
 62
7
  6
CONTINUOUS
 10
7.9020208195
 20
5.5230726527
 11
7.9020208195
 21
5.7573246212
  0
LINE
  5
234
100
AcDbEntity
  8
0
100
AcDbLine
 62
7
  6
CONTINUOUS
 10
4.2992185406
 20
14.0764257341
 11
4.2992185406
 21
11.1236698286
  0
LINE
  5
235
100
AcDbEntity
  8
0
100
AcDbLine
 62
7
  6
CONTINUOUS
 10
7.8425256272
 20
11.1236698286
 11
4.2992185406
 21
11.1236698286
  0
LINE
  5
236
100
AcDbEntity
  8
0
100
AcDbLine
 62
7
  6
CONTINUOUS
 10
4.2992185406
 20
14.0764257341
 11
7.8425256272
 21
14.0764257341
  0
LINE
  5
237
100
AcDbEntity
  8
0
100
AcDbLine
 62
7
  6
CONTINUOUS
 10
7.8425256272
 20
14.0764257341
 11
7.8425256272
 21
11.1236698286
  0
LINE
  5
238
100
AcDbEntity
  8
0
100
AcDbLine
 62
7
  6
CONTINUOUS
 10
14.0839773042
 20
5.22341998
 11
14.0839773042
 21
5.6978294289
  0
LINE
  5
239
100
AcDbEntity
  8
0
100
AcDbLine
 62
7
  6
CONTINUOUS
 10
17.0367332097
 20
5.22341998
 11
14.0839773042
 21
5.22341998
  0
LINE
  5
23A
100
AcDbEntity
  8
0
100
AcDbLine
 62
7
  6
CONTINUOUS
 10
17.0367332097
 20
5.4635774604
 11
14.0839773042
 21
5.4635774604
  0
LINE
  5
23B
100
AcDbEntity
  8
0
100
AcDbLine
 62
7
  6
CONTINUOUS
 10
17.0367332097
 20
5.6978294289
 11
14.0839773042
 21
5.6978294289
  0
LINE
  5
23C
100
AcDbEntity
  8
0
100
AcDbLine
 62
7
  6
CONTINUOUS
 10
17.0367332097
 20
5.22341998
 11
17.0367332097
 21
5.6978294289
  0
LINE
  5
23D
100
AcDbEntity
  8
0
100
AcDbLine
 62
7
  6
CONTINUOUS
 10
13.446201783
 20
11.5017672349
 11
13.5176584407
 21
11.3561538762
  0
LINE
  5
23E
100
AcDbEntity
  8
0
100
AcDbLine
 62
7
  6
CONTINUOUS
 10
13.6346579045
 20
11.3255628345
 11
13.6366094518
 21
11.3215859991
  0
LINE
  5
23F
100
AcDbEntity
  8
0
100
AcDbLine
 62
7
  6
CONTINUOUS
 10
13.976567988
 20
11.3215859991
 11
13.9746164406
 21
11.3255628345
  0
LINE
  5
240
100
AcDbEntity
  8
0
100
AcDbLine
 62
7
  6
CONTINUOUS
 10
14.160964549
 20
13.8147403933
 11
13.446201783
 21
11.5017672349
  0
LINE
  5
241
100
AcDbEntity
  8
0
100
AcDbLine
 62
7
  6
CONTINUOUS
 10
14.1785915623
 20
11.3255628345
 11
14.1805431097
 21
11.3215859991
  0
LINE
  5
242
100
AcDbEntity
  8
0
100
AcDbLine
 62
7
  6
CONTINUOUS
 10
14.5205016459
 20
11.3215859991
 11
14.5185500985
 21
11.3255628345
  0
LINE
  5
243
100
AcDbEntity
  8
0
100
AcDbLine
 62
7
  6
CONTINUOUS
 10
13.5176584407
 20
11.3561538762
 11
13.5743181968
 21
11.3561538762
  0
LINE
  5
244
100
AcDbEntity
  8
0
100
AcDbLine
 62
7
  6
CONTINUOUS
 10
14.0049323426
 20
11.3561538762
 11
14.1182518546
 21
11.3561538762
  0
LINE
  5
245
100
AcDbEntity
  8
0
100
AcDbLine
 62
7
  6
CONTINUOUS
 10
14.5488660005
 20
11.3561538762
 11
14.6621855125
 21
11.3561538762
  0
LINE
  5
246
100
AcDbEntity
  8
0
100
AcDbLine
 62
7
  6
CONTINUOUS
 10
15.0927996583
 20
11.3561538762
 11
15.2061191704
 21
11.3561538762
  0
LINE
  5
247
100
AcDbEntity
  8
0
100
AcDbLine
 62
7
  6
CONTINUOUS
 10
15.6367333162
 20
11.3561538762
 11
15.7500528283
 21
11.3561538762
  0
LINE
  5
248
100
AcDbEntity
  8
0
100
AcDbLine
 62
7
  6
CONTINUOUS
 10
16.1806669741
 20
11.3561538762
 11
16.2939864861
 21
11.3561538762
  0
LINE
  5
249
100
AcDbEntity
  8
0
100
AcDbLine
 62
7
  6
CONTINUOUS
 10
16.724600632
 20
11.3561538762
 11
16.781260388
 21
11.3561538762
  0
LINE
  5
24A
100
AcDbEntity
  8
0
100
AcDbLine
 62
7
  6
CONTINUOUS
 10
14.7225252202
 20
11.3255628345
 11
14.7244767676
 21
11.3215859991
  0
LINE
  5
24B
100
AcDbEntity
  8
0
100
AcDbLine
 62
7
  6
CONTINUOUS
 10
14.0104290696
 20
11.3561538762
 11
13.9829090037
 21
11.2670989103
  0
LINE
  5
24C
100
AcDbEntity
  8
0
100
AcDbLine
 62
7
  6
CONTINUOUS
 10
16.7098037303
 20
11.5017672349
 11
13.446201783
 21
11.5017672349
  0
LINE
  5
24D
100
AcDbEntity
  8
0
100
AcDbLine
 62
7
  6
CONTINUOUS
 10
15.0644353038
 20
11.3215859991
 11
15.0624837564
 21
11.3255628345
  0
LINE
  5
24E
100
AcDbEntity
  8
0
100
AcDbLine
 62
7
  6
CONTINUOUS
 10
15.2664588781
 20
11.3255628345
 11
15.2684104255
 21
11.3215859991
  0
LINE
  5
24F
100
AcDbEntity
  8
0
100
AcDbLine
 62
7
  6
CONTINUOUS
 10
14.5543627275
 20
11.3561538762
 11
14.5268426616
 21
11.2670989103
  0
LINE
  5
250
100
AcDbEntity
  8
0
100
AcDbLine
 62
7
  6
CONTINUOUS
 10
15.6083689616
 20
11.3215859991
 11
15.6064174143
 21
11.3255628345
  0
LINE
  5
251
100
AcDbEntity
  8
0
100
AcDbLine
 62
7
  6
CONTINUOUS
 10
15.810392536
 20
11.3255628345
 11
15.8123440833
 21
11.3215859991
  0
LINE
  5
252
100
AcDbEntity
  8
0
100
AcDbLine
 62
7
  6
CONTINUOUS
 10
15.0982963853
 20
11.3561538762
 11
15.0707763194
 21
11.2670989103
  0
LINE
  5
253
100
AcDbEntity
  8
0
100
AcDbLine
 62
7
  6
CONTINUOUS
 10
16.1523026195
 20
11.3215859991
 11
16.1503510721
 21
11.3255628345
  0
LINE
  5
254
100
AcDbEntity
  8
0
100
AcDbLine
 62
7
  6
CONTINUOUS
 10
16.3543261938
 20
11.3255628345
 11
16.3562777412
 21
11.3215859991
  0
LINE
  5
255
100
AcDbEntity
  8
0
100
AcDbLine
 62
7
  6
CONTINUOUS
 10
15.6422300432
 20
11.3561538762
 11
15.6147099773
 21
11.2670989103
  0
LINE
  5
256
100
AcDbEntity
  8
0
100
AcDbLine
 62
7
  6
CONTINUOUS
 10
16.6962362774
 20
11.3215859991
 11
16.69428473
 21
11.3255628345
  0
LINE
  5
257
100
AcDbEntity
  8
0
100
AcDbLine
 62
7
  6
CONTINUOUS
 10
16.781260388
 20
11.3561538762
 11
16.7098037303
 21
11.5017672349
  0
LINE
  5
258
100
AcDbEntity
  8
0
100
AcDbLine
 62
7
  6
CONTINUOUS
 10
16.1861637011
 20
11.3561538762
 11
16.1586436352
 21
11.2670989103
  0
LINE
  5
259
100
AcDbEntity
  8
0
100
AcDbLine
 62
7
  6
CONTINUOUS
 10
14.160964549
 20
13.8147403933
 11
17.4245664962
 21
13.8147403933
  0
LINE
  5
25A
100
AcDbEntity
  8
0
100
AcDbLine
 62
7
  6
CONTINUOUS
 10
17.4245664962
 20
13.8147403933
 11
16.7098037303
 21
11.5017672349
  0
LINE
  5
25B
100
AcDbEntity
  8
0
100
AcDbLine
 62
7
  6
CONTINUOUS
 10
16.730097359
 20
11.3561538762
 11
16.7025772931
 21
11.2670989103
  0
LINE
  5
25C
100
AcDbEntity
  8
0
100
AcDbLine
 62
7
  6
CONTINUOUS
 10
17.496023154
 20
13.6691270346
 11
16.781260388
 21
11.3561538762
  0
LINE
  5
25D
100
AcDbEntity
  8
0
100
AcDbLine
 62
7
  6
CONTINUOUS
 10
17.496023154
 20
13.6691270346
 11
17.4245664962
 21
13.8147403933
  0
ARC
  5
25E
100
AcDbEntity
  8
0
100
AcDbCircle
 62
7
  6
CONTINUOUS
 10
4.6539893234
 20
5.4674624164
 40
0.1845472441
100
AcDbArc
 50
180.0
 51
360.0
  0
ARC
  5
25F
100
AcDbEntity
  8
0
100
AcDbCircle
 62
7
  6
CONTINUOUS
 10
5.2445405045
 20
5.4674624164
 40
0.1845472441
100
AcDbArc
 50
180.0
 51
360.0
  0
ARC
  5
260
100
AcDbEntity
  8
0
100
AcDbCircle
 62
7
  6
CONTINUOUS
 10
7.6067452289
 20
5.4674624164
 40
0.1845472441
100
AcDbArc
 50
180.0
 51
360.0
  0
ARC
  5
261
100
AcDbEntity
  8
0
100
AcDbCircle
 62
7
  6
CONTINUOUS
 10
7.0161940478
 20
5.4674624164
 40
0.1845472441
100
AcDbArc
 50
180.0
 51
360.0
  0
ARC
  5
262
100
AcDbEntity
  8
0
100
AcDbCircle
 62
7
  6
CONTINUOUS
 10
6.4256428667
 20
5.4674624164
 40
0.1845472441
100
AcDbArc
 50
180.0
 51
360.0
  0
ARC
  5
263
100
AcDbEntity
  8
0
100
AcDbCircle
 62
7
  6
CONTINUOUS
 10
5.8350916856
 20
5.4674624164
 40
0.1845472441
100
AcDbArc
 50
180.0
 51
360.0
  0
ARC
  5
264
100
AcDbEntity
  8
0
100
AcDbCircle
 62
7
  6
CONTINUOUS
 10
4.4202294809
 20
5.4738600542
 40
0.0492125984
100
AcDbArc
 50
0.0
 51
90.0
  0
ARC
  5
265
100
AcDbEntity
  8
0
100
AcDbCircle
 62
7
  6
CONTINUOUS
 10
4.8877491659
 20
5.4738600542
 40
0.0492125984
100
AcDbArc
 50
90.0
 51
180.0
  0
ARC
  5
266
100
AcDbEntity
  8
0
100
AcDbCircle
 62
7
  6
CONTINUOUS
 10
5.010780662
 20
5.4738600542
 40
0.0492125984
100
AcDbArc
 50
0.0
 51
90.0
  0
ARC
  5
267
100
AcDbEntity
  8
0
100
AcDbCircle
 62
7
  6
CONTINUOUS
 10
5.478300347
 20
5.4738600542
 40
0.0492125984
100
AcDbArc
 50
90.0
 51
180.0
  0
ARC
  5
268
100
AcDbEntity
  8
0
100
AcDbCircle
 62
7
  6
CONTINUOUS
 10
5.6013318431
 20
5.4738600542
 40
0.0492125984
100
AcDbArc
 50
0.0
 51
90.0
  0
ARC
  5
269
100
AcDbEntity
  8
0
100
AcDbCircle
 62
7
  6
CONTINUOUS
 10
6.0688515281
 20
5.4738600542
 40
0.0492125984
100
AcDbArc
 50
90.0
 51
180.0
  0
ARC
  5
26A
100
AcDbEntity
  8
0
100
AcDbCircle
 62
7
  6
CONTINUOUS
 10
6.1918830242
 20
5.4738600542
 40
0.0492125984
100
AcDbArc
 50
0.0
 51
90.0
  0
ARC
  5
26B
100
AcDbEntity
  8
0
100
AcDbCircle
 62
7
  6
CONTINUOUS
 10
6.6594027092
 20
5.4738600542
 40
0.0492125984
100
AcDbArc
 50
90.0
 51
180.0
  0
ARC
  5
26C
100
AcDbEntity
  8
0
100
AcDbCircle
 62
7
  6
CONTINUOUS
 10
6.7824342053
 20
5.4738600542
 40
0.0492125984
100
AcDbArc
 50
0.0
 51
90.0
  0
ARC
  5
26D
100
AcDbEntity
  8
0
100
AcDbCircle
 62
7
  6
CONTINUOUS
 10
7.2499538903
 20
5.4738600542
 40
0.0492125984
100
AcDbArc
 50
90.0
 51
180.0
  0
ARC
  5
26E
100
AcDbEntity
  8
0
100
AcDbCircle
 62
7
  6
CONTINUOUS
 10
7.3729853864
 20
5.4738600542
 40
0.0492125984
100
AcDbArc
 50
0.0
 51
90.0
  0
ARC
  5
26F
100
AcDbEntity
  8
0
100
AcDbCircle
 62
7
  6
CONTINUOUS
 10
7.8405050714
 20
5.4738600542
 40
0.0492125984
100
AcDbArc
 50
90.0
 51
180.0
  0
SPLINE
  5
270
100
AcDbEntity
  8
0
100
AcDbSpline
 62
7
  6
CONTINUOUS
 70
0
 71
3
 72
13
 73
9
 74
0
 42
0.0000001
 43
0.0000001
 44
0.0000000001
 40
0.0
 40
0.0
 40
0.0
 40
0.0
 40
0.0997601796
 40
0.2030751259
 40
0.3129169706
 40
0.4313190191
 40
0.6968706625
 40
1.0
 40
1.0
 40
1.0
 40
1.0
 10
13.9729254894
 20
11.3400927369
 30
0.0
 10
13.9732997571
 20
11.3413041048
 30
0.0
 10
13.9743620765
 20
11.3436868572
 30
0.0
 10
13.9767809736
 20
11.3468813672
 30
0.0
 10
13.9799803591
 20
11.3496643637
 30
0.0
 10
13.9853931608
 20
11.352893705
 30
0.0
 10
13.9938308472
 20
11.3555447401
 30
0.0
 10
14.0010798244
 20
11.3561538762
 30
0.0
 10
14.0049323426
 20
11.3561538762
 30
0.0
  0
SPLINE
  5
271
100
AcDbEntity
  8
0
100
AcDbSpline
 62
7
  6
CONTINUOUS
 70
0
 71
3
 72
13
 73
9
 74
0
 42
0.0000001
 43
0.0000001
 44
0.0000000001
 40
0.0
 40
0.0
 40
0.0
 40
0.0
 40
0.0997601796
 40
0.2030751259
 40
0.3129169706
 40
0.4313190191
 40
0.6968706625
 40
1.0
 40
1.0
 40
1.0
 40
1.0
 10
14.5168591472
 20
11.3400927369
 30
0.0
 10
14.517233415
 20
11.3413041048
 30
0.0
 10
14.5182957343
 20
11.3436868572
 30
0.0
 10
14.5207146315
 20
11.3468813672
 30
0.0
 10
14.523914017
 20
11.3496643637
 30
0.0
 10
14.5293268186
 20
11.352893705
 30
0.0
 10
14.5377645051
 20
11.3555447401
 30
0.0
 10
14.5450134823
 20
11.3561538762
 30
0.0
 10
14.5488660005
 20
11.3561538762
 30
0.0
  0
SPLINE
  5
272
100
AcDbEntity
  8
0
100
AcDbSpline
 62
7
  6
CONTINUOUS
 70
0
 71
3
 72
13
 73
9
 74
0
 42
0.0000001
 43
0.0000001
 44
0.0000000001
 40
0.0
 40
0.0
 40
0.0
 40
0.0
 40
0.0997601796
 40
0.2030751259
 40
0.3129169706
 40
0.4313190191
 40
0.6968706625
 40
1.0
 40
1.0
 40
1.0
 40
1.0
 10
15.0607928051
 20
11.3400927369
 30
0.0
 10
15.0611670729
 20
11.3413041048
 30
0.0
 10
15.0622293922
 20
11.3436868572
 30
0.0
 10
15.0646482894
 20
11.3468813672
 30
0.0
 10
15.0678476748
 20
11.3496643637
 30
0.0
 10
15.0732604765
 20
11.352893705
 30
0.0
 10
15.081698163
 20
11.3555447401
 30
0.0
 10
15.0889471402
 20
11.3561538762
 30
0.0
 10
15.0927996583
 20
11.3561538762
 30
0.0
  0
SPLINE
  5
273
100
AcDbEntity
  8
0
100
AcDbSpline
 62
7
  6
CONTINUOUS
 70
0
 71
3
 72
13
 73
9
 74
0
 42
0.0000001
 43
0.0000001
 44
0.0000000001
 40
0.0
 40
0.0
 40
0.0
 40
0.0
 40
0.0997601796
 40
0.2030751259
 40
0.3129169706
 40
0.4313190191
 40
0.6968706625
 40
1.0
 40
1.0
 40
1.0
 40
1.0
 10
15.604726463
 20
11.3400927369
 30
0.0
 10
15.6051007308
 20
11.3413041048
 30
0.0
 10
15.6061630501
 20
11.3436868572
 30
0.0
 10
15.6085819472
 20
11.3468813672
 30
0.0
 10
15.6117813327
 20
11.3496643637
 30
0.0
 10
15.6171941344
 20
11.352893705
 30
0.0
 10
15.6256318209
 20
11.3555447401
 30
0.0
 10
15.6328807981
 20
11.3561538762
 30
0.0
 10
15.6367333162
 20
11.3561538762
 30
0.0
  0
SPLINE
  5
274
100
AcDbEntity
  8
0
100
AcDbSpline
 62
7
  6
CONTINUOUS
 70
0
 71
3
 72
13
 73
9
 74
0
 42
0.0000001
 43
0.0000001
 44
0.0000000001
 40
0.0
 40
0.0
 40
0.0
 40
0.0
 40
0.0997601796
 40
0.2030751259
 40
0.3129169706
 40
0.4313190191
 40
0.6968706625
 40
1.0
 40
1.0
 40
1.0
 40
1.0
 10
16.1486601209
 20
11.3400927369
 30
0.0
 10
16.1490343886
 20
11.3413041048
 30
0.0
 10
16.150096708
 20
11.3436868572
 30
0.0
 10
16.1525156051
 20
11.3468813672
 30
0.0
 10
16.1557149906
 20
11.3496643637
 30
0.0
 10
16.1611277923
 20
11.352893705
 30
0.0
 10
16.1695654787
 20
11.3555447401
 30
0.0
 10
16.1768144559
 20
11.3561538762
 30
0.0
 10
16.1806669741
 20
11.3561538762
 30
0.0
  0
SPLINE
  5
275
100
AcDbEntity
  8
0
100
AcDbSpline
 62
7
  6
CONTINUOUS
 70
0
 71
3
 72
13
 73
9
 74
0
 42
0.0000001
 43
0.0000001
 44
0.0000000001
 40
0.0
 40
0.0
 40
0.0
 40
0.0
 40
0.0997601796
 40
0.2030751259
 40
0.3129169706
 40
0.4313190191
 40
0.6968706625
 40
1.0
 40
1.0
 40
1.0
 40
1.0
 10
16.6925937787
 20
11.3400927369
 30
0.0
 10
16.6929680465
 20
11.3413041048
 30
0.0
 10
16.6940303658
 20
11.3436868572
 30
0.0
 10
16.696449263
 20
11.3468813672
 30
0.0
 10
16.6996486485
 20
11.3496643637
 30
0.0
 10
16.7050614501
 20
11.352893705
 30
0.0
 10
16.7134991366
 20
11.3555447401
 30
0.0
 10
16.7207481138
 20
11.3561538762
 30
0.0
 10
16.724600632
 20
11.3561538762
 30
0.0
  0
SPLINE
  5
276
100
AcDbEntity
  8
0
100
AcDbSpline
 62
7
  6
CONTINUOUS
 70
0
 71
3
 72
24
 73
20
 74
0
 42
0.0000001
 43
0.0000001
 44
0.0000000001
 40
0.0
 40
0.0
 40
0.0
 40
0.0
 40
0.0543487383
 40
0.1139580646
 40
0.1785362501
 40
0.2473658258
 40
0.319432347
 40
0.3935199726
 40
0.468297588
 40
0.54239603
 40
0.6144835307
 40
0.6833432411
 40
0.747958072
 40
0.8076096122
 40
0.8619993246
 40
0.9113952764
 40
0.9567789364
 40
0.9785374955
 40
1.0
 40
1.0
 40
1.0
 40
1.0
 10
16.3562777412
 20
11.3215859991
 30
0.0
 10
16.3595321689
 20
11.3149541727
 30
0.0
 10
16.3677976171
 20
11.3017360653
 30
0.0
 10
16.3838581207
 20
11.2834381053
 30
0.0
 10
16.4037199028
 20
11.266188303
 30
0.0
 10
16.4268535263
 20
11.2504399143
 30
0.0
 10
16.4526471991
 20
11.2366013356
 30
0.0
 10
16.4804128943
 20
11.2250416699
 30
0.0
 10
16.5094074409
 20
11.2160698162
 30
0.0
 10
16.5388536444
 20
11.2099263679
 30
0.0
 10
16.5679633513
 20
11.2067758823
 30
0.0
 10
16.5959610201
 20
11.2067031962
 30
0.0
 10
16.6221074033
 20
11.2097145353
 30
0.0
 10
16.6457207284
 20
11.2157419446
 30
0.0
 10
16.6661926519
 20
11.224664907
 30
0.0
 10
16.6829773185
 20
11.2363069686
 30
0.0
 10
16.6936163347
 20
11.2483076223
 30
0.0
 10
16.6995691318
 20
11.2588167621
 30
0.0
 10
16.7017158149
 20
11.2643117335
 30
0.0
 10
16.7025772489
 20
11.2670989241
 30
0.0
  0
SPLINE
  5
277
100
AcDbEntity
  8
0
100
AcDbSpline
 62
7
  6
CONTINUOUS
 70
0
 71
3
 72
23
 73
19
 74
0
 42
0.0000001
 43
0.0000001
 44
0.0000000001
 40
0.0
 40
0.0
 40
0.0
 40
0.0
 40
0.0543418599
 40
0.1139774513
 40
0.1785539413
 40
0.247392116
 40
0.319467288
 40
0.3935621609
 40
0.4683477779
 40
0.5424547321
 40
0.6145495967
 40
0.6834163485
 40
0.7480390612
 40
0.8076973325
 40
0.8620920099
 40
0.9114931889
 40
0.9568826094
 40
1.0
 40
1.0
 40
1.0
 40
1.0
 10
15.8123440833
 20
11.3215859991
 30
0.0
 10
15.815597736
 20
11.3149557521
 30
0.0
 10
15.8238657903
 20
11.3017383605
 30
0.0
 10
15.8399228531
 20
11.2834378583
 30
0.0
 10
15.859787694
 20
11.2661889428
 30
0.0
 10
15.8829193229
 20
11.2504396368
 30
0.0
 10
15.9087136184
 20
11.2366018373
 30
0.0
 10
15.9364792531
 20
11.2250424887
 30
0.0
 10
15.9654733961
 20
11.2160698591
 30
0.0
 10
15.9949194882
 20
11.2099262113
 30
0.0
 10
16.0240291333
 20
11.2067764803
 30
0.0
 10
16.0520266839
 20
11.2067039161
 30
0.0
 10
16.0781731095
 20
11.2097139751
 30
0.0
 10
16.1017867196
 20
11.2157423851
 30
0.0
 10
16.1222572456
 20
11.2246629122
 30
0.0
 10
16.1390444663
 20
11.2363155095
 30
0.0
 10
16.1516259025
 20
11.2504774781
 30
0.0
 10
16.1569113788
 20
11.2615007476
 30
0.0
 10
16.1586427434
 20
11.2670991879
 30
0.0
  0
SPLINE
  5
278
100
AcDbEntity
  8
0
100
AcDbSpline
 62
7
  6
CONTINUOUS
 70
0
 71
3
 72
23
 73
19
 74
0
 42
0.0000001
 43
0.0000001
 44
0.0000000001
 40
0.0
 40
0.0
 40
0.0
 40
0.0
 40
0.0543418599
 40
0.1139774513
 40
0.1785539413
 40
0.247392116
 40
0.319467288
 40
0.3935621609
 40
0.4683477779
 40
0.5424547321
 40
0.6145495967
 40
0.6834163485
 40
0.7480390612
 40
0.8076973325
 40
0.8620920099
 40
0.9114931889
 40
0.9568826094
 40
1.0
 40
1.0
 40
1.0
 40
1.0
 10
15.2684104255
 20
11.3215859991
 30
0.0
 10
15.2716640781
 20
11.3149557521
 30
0.0
 10
15.2799321324
 20
11.3017383605
 30
0.0
 10
15.2959891952
 20
11.2834378583
 30
0.0
 10
15.3158540361
 20
11.2661889428
 30
0.0
 10
15.338985665
 20
11.2504396368
 30
0.0
 10
15.3647799605
 20
11.2366018373
 30
0.0
 10
15.3925455953
 20
11.2250424887
 30
0.0
 10
15.4215397383
 20
11.2160698591
 30
0.0
 10
15.4509858304
 20
11.2099262113
 30
0.0
 10
15.4800954754
 20
11.2067764803
 30
0.0
 10
15.508093026
 20
11.2067039161
 30
0.0
 10
15.5342394516
 20
11.2097139751
 30
0.0
 10
15.5578530617
 20
11.2157423851
 30
0.0
 10
15.5783235878
 20
11.2246629122
 30
0.0
 10
15.5951108084
 20
11.2363155095
 30
0.0
 10
15.6076922446
 20
11.2504774781
 30
0.0
 10
15.612977721
 20
11.2615007476
 30
0.0
 10
15.6147090855
 20
11.2670991879
 30
0.0
  0
SPLINE
  5
279
100
AcDbEntity
  8
0
100
AcDbSpline
 62
7
  6
CONTINUOUS
 70
0
 71
3
 72
23
 73
19
 74
0
 42
0.0000001
 43
0.0000001
 44
0.0000000001
 40
0.0
 40
0.0
 40
0.0
 40
0.0
 40
0.0543418599
 40
0.1139774513
 40
0.1785539413
 40
0.247392116
 40
0.319467288
 40
0.3935621609
 40
0.4683477779
 40
0.5424547321
 40
0.6145495967
 40
0.6834163485
 40
0.7480390612
 40
0.8076973325
 40
0.8620920099
 40
0.9114931889
 40
0.9568826094
 40
1.0
 40
1.0
 40
1.0
 40
1.0
 10
14.7244767676
 20
11.3215859991
 30
0.0
 10
14.7277304202
 20
11.3149557521
 30
0.0
 10
14.7359984746
 20
11.3017383605
 30
0.0
 10
14.7520555373
 20
11.2834378583
 30
0.0
 10
14.7719203783
 20
11.2661889428
 30
0.0
 10
14.7950520072
 20
11.2504396368
 30
0.0
 10
14.8208463026
 20
11.2366018373
 30
0.0
 10
14.8486119374
 20
11.2250424887
 30
0.0
 10
14.8776060804
 20
11.2160698591
 30
0.0
 10
14.9070521725
 20
11.2099262113
 30
0.0
 10
14.9361618175
 20
11.2067764803
 30
0.0
 10
14.9641593681
 20
11.2067039161
 30
0.0
 10
14.9903057938
 20
11.2097139751
 30
0.0
 10
15.0139194038
 20
11.2157423851
 30
0.0
 10
15.0343899299
 20
11.2246629122
 30
0.0
 10
15.0511771505
 20
11.2363155095
 30
0.0
 10
15.0637585868
 20
11.2504774781
 30
0.0
 10
15.0690440631
 20
11.2615007476
 30
0.0
 10
15.0707754276
 20
11.2670991879
 30
0.0
  0
SPLINE
  5
27A
100
AcDbEntity
  8
0
100
AcDbSpline
 62
7
  6
CONTINUOUS
 70
0
 71
3
 72
23
 73
19
 74
0
 42
0.0000001
 43
0.0000001
 44
0.0000000001
 40
0.0
 40
0.0
 40
0.0
 40
0.0
 40
0.0543358914
 40
0.1139792943
 40
0.178554591
 40
0.2473924387
 40
0.3194678517
 40
0.3935625553
 40
0.4683489647
 40
0.5424548315
 40
0.614550502
 40
0.683418397
 40
0.7480389518
 40
0.8076975237
 40
0.8620941871
 40
0.9114941172
 40
0.9568833581
 40
1.0
 40
1.0
 40
1.0
 40
1.0
 10
14.1805431097
 20
11.3215859991
 30
0.0
 10
14.1837964006
 20
11.3149564893
 30
0.0
 10
14.1920657442
 20
11.3017396832
 30
0.0
 10
14.2081212125
 20
11.2834378742
 30
0.0
 10
14.2279865261
 20
11.2661879852
 30
0.0
 10
14.2511192326
 20
11.2504406883
 30
0.0
 10
14.2769129077
 20
11.2366021096
 30
0.0
 10
14.304678164
 20
11.2250414869
 30
0.0
 10
14.333672639
 20
11.2160700609
 30
0.0
 10
14.3631189127
 20
11.2099275615
 30
0.0
 10
14.3922283716
 20
11.2067758363
 30
0.0
 10
14.4202260017
 20
11.2067030622
 30
0.0
 10
14.4463719933
 20
11.2097155178
 30
0.0
 10
14.4699856435
 20
11.2157429679
 30
0.0
 10
14.4904571699
 20
11.2246617435
 30
0.0
 10
14.5072436157
 20
11.236316105
 30
0.0
 10
14.519822892
 20
11.2504788593
 30
0.0
 10
14.5251111512
 20
11.26150063
 30
0.0
 10
14.5268424539
 20
11.2670989746
 30
0.0
  0
SPLINE
  5
27B
100
AcDbEntity
  8
0
100
AcDbSpline
 62
7
  6
CONTINUOUS
 70
0
 71
3
 72
23
 73
19
 74
0
 42
0.0000001
 43
0.0000001
 44
0.0000000001
 40
0.0
 40
0.0
 40
0.0
 40
0.0
 40
0.0543358914
 40
0.1139792943
 40
0.178554591
 40
0.2473924387
 40
0.3194678517
 40
0.3935625553
 40
0.4683489647
 40
0.5424548315
 40
0.614550502
 40
0.683418397
 40
0.7480389518
 40
0.8076975237
 40
0.8620941871
 40
0.9114941172
 40
0.9568833581
 40
1.0
 40
1.0
 40
1.0
 40
1.0
 10
13.6366094518
 20
11.3215859991
 30
0.0
 10
13.6398627427
 20
11.3149564893
 30
0.0
 10
13.6481320864
 20
11.3017396832
 30
0.0
 10
13.6641875546
 20
11.2834378742
 30
0.0
 10
13.6840528682
 20
11.2661879852
 30
0.0
 10
13.7071855747
 20
11.2504406883
 30
0.0
 10
13.7329792499
 20
11.2366021096
 30
0.0
 10
13.7607445061
 20
11.2250414869
 30
0.0
 10
13.7897389811
 20
11.2160700609
 30
0.0
 10
13.8191852548
 20
11.2099275615
 30
0.0
 10
13.8482947137
 20
11.2067758363
 30
0.0
 10
13.8762923438
 20
11.2067030622
 30
0.0
 10
13.9024383354
 20
11.2097155178
 30
0.0
 10
13.9260519856
 20
11.2157429679
 30
0.0
 10
13.946523512
 20
11.2246617435
 30
0.0
 10
13.9633099578
 20
11.236316105
 30
0.0
 10
13.9758892341
 20
11.2504788593
 30
0.0
 10
13.9811774933
 20
11.26150063
 30
0.0
 10
13.982908796
 20
11.2670989746
 30
0.0
  0
SPLINE
  5
27C
100
AcDbEntity
  8
0
100
AcDbSpline
 62
7
  6
CONTINUOUS
 70
0
 71
3
 72
13
 73
9
 74
0
 42
0.0000001
 43
0.0000001
 44
0.0000000001
 40
0.0
 40
0.0
 40
0.0
 40
0.0
 40
0.2643270131
 40
0.5358586516
 40
0.6659240761
 40
0.7879183358
 40
0.8996857657
 40
1.0
 40
1.0
 40
1.0
 40
1.0
 10
13.5743181968
 20
11.3561538762
 30
0.0
 10
13.580530168
 20
11.3561538762
 30
0.0
 10
13.5931453523
 20
11.3544495956
 30
0.0
 10
13.607965907
 20
11.3490243412
 30
0.0
 10
13.6186275542
 20
11.3428253224
 30
0.0
 10
13.6254218944
 20
11.3375864245
 30
0.0
 10
13.6308691054
 20
11.3318882766
 30
0.0
 10
13.633619328
 20
11.3276792308
 30
0.0
 10
13.6346579045
 20
11.3255628345
 30
0.0
  0
SPLINE
  5
27D
100
AcDbEntity
  8
0
100
AcDbSpline
 62
7
  6
CONTINUOUS
 70
0
 71
3
 72
13
 73
9
 74
0
 42
0.0000001
 43
0.0000001
 44
0.0000000001
 40
0.0
 40
0.0
 40
0.0
 40
0.0
 40
0.2643270131
 40
0.5358586516
 40
0.6659240761
 40
0.7879183358
 40
0.8996857657
 40
1.0
 40
1.0
 40
1.0
 40
1.0
 10
14.1182518546
 20
11.3561538762
 30
0.0
 10
14.1244638259
 20
11.3561538762
 30
0.0
 10
14.1370790102
 20
11.3544495956
 30
0.0
 10
14.1518995648
 20
11.3490243412
 30
0.0
 10
14.1625612121
 20
11.3428253224
 30
0.0
 10
14.1693555523
 20
11.3375864245
 30
0.0
 10
14.1748027633
 20
11.3318882766
 30
0.0
 10
14.1775529859
 20
11.3276792308
 30
0.0
 10
14.1785915623
 20
11.3255628345
 30
0.0
  0
SPLINE
  5
27E
100
AcDbEntity
  8
0
100
AcDbSpline
 62
7
  6
CONTINUOUS
 70
0
 71
3
 72
13
 73
9
 74
0
 42
0.0000001
 43
0.0000001
 44
0.0000000001
 40
0.0
 40
0.0
 40
0.0
 40
0.0
 40
0.2643270131
 40
0.5358586516
 40
0.6659240761
 40
0.7879183358
 40
0.8996857657
 40
1.0
 40
1.0
 40
1.0
 40
1.0
 10
14.6621855125
 20
11.3561538762
 30
0.0
 10
14.6683974838
 20
11.3561538762
 30
0.0
 10
14.6810126681
 20
11.3544495956
 30
0.0
 10
14.6958332227
 20
11.3490243412
 30
0.0
 10
14.70649487
 20
11.3428253224
 30
0.0
 10
14.7132892101
 20
11.3375864245
 30
0.0
 10
14.7187364211
 20
11.3318882766
 30
0.0
 10
14.7214866438
 20
11.3276792308
 30
0.0
 10
14.7225252202
 20
11.3255628345
 30
0.0
  0
SPLINE
  5
27F
100
AcDbEntity
  8
0
100
AcDbSpline
 62
7
  6
CONTINUOUS
 70
0
 71
3
 72
13
 73
9
 74
0
 42
0.0000001
 43
0.0000001
 44
0.0000000001
 40
0.0
 40
0.0
 40
0.0
 40
0.0
 40
0.2643270131
 40
0.5358586516
 40
0.6659240761
 40
0.7879183358
 40
0.8996857657
 40
1.0
 40
1.0
 40
1.0
 40
1.0
 10
15.2061191704
 20
11.3561538762
 30
0.0
 10
15.2123311416
 20
11.3561538762
 30
0.0
 10
15.2249463259
 20
11.3544495956
 30
0.0
 10
15.2397668806
 20
11.3490243412
 30
0.0
 10
15.2504285279
 20
11.3428253224
 30
0.0
 10
15.257222868
 20
11.3375864245
 30
0.0
 10
15.262670079
 20
11.3318882766
 30
0.0
 10
15.2654203017
 20
11.3276792308
 30
0.0
 10
15.2664588781
 20
11.3255628345
 30
0.0
  0
SPLINE
  5
280
100
AcDbEntity
  8
0
100
AcDbSpline
 62
7
  6
CONTINUOUS
 70
0
 71
3
 72
13
 73
9
 74
0
 42
0.0000001
 43
0.0000001
 44
0.0000000001
 40
0.0
 40
0.0
 40
0.0
 40
0.0
 40
0.2643270131
 40
0.5358586516
 40
0.6659240761
 40
0.7879183358
 40
0.8996857657
 40
1.0
 40
1.0
 40
1.0
 40
1.0
 10
15.7500528283
 20
11.3561538762
 30
0.0
 10
15.7562647995
 20
11.3561538762
 30
0.0
 10
15.7688799838
 20
11.3544495956
 30
0.0
 10
15.7837005385
 20
11.3490243412
 30
0.0
 10
15.7943621857
 20
11.3428253224
 30
0.0
 10
15.8011565259
 20
11.3375864245
 30
0.0
 10
15.8066037369
 20
11.3318882766
 30
0.0
 10
15.8093539595
 20
11.3276792308
 30
0.0
 10
15.810392536
 20
11.3255628345
 30
0.0
  0
SPLINE
  5
281
100
AcDbEntity
  8
0
100
AcDbSpline
 62
7
  6
CONTINUOUS
 70
0
 71
3
 72
13
 73
9
 74
0
 42
0.0000001
 43
0.0000001
 44
0.0000000001
 40
0.0
 40
0.0
 40
0.0
 40
0.0
 40
0.2643270131
 40
0.5358586516
 40
0.6659240761
 40
0.7879183358
 40
0.8996857657
 40
1.0
 40
1.0
 40
1.0
 40
1.0
 10
16.2939864861
 20
11.3561538762
 30
0.0
 10
16.3001984574
 20
11.3561538762
 30
0.0
 10
16.3128136417
 20
11.3544495956
 30
0.0
 10
16.3276341963
 20
11.3490243412
 30
0.0
 10
16.3382958436
 20
11.3428253224
 30
0.0
 10
16.3450901838
 20
11.3375864245
 30
0.0
 10
16.3505373948
 20
11.3318882766
 30
0.0
 10
16.3532876174
 20
11.3276792308
 30
0.0
 10
16.3543261938
 20
11.3255628345
 30
0.0
  0
SPLINE
  5
282
100
AcDbEntity
  8
0
100
AcDbSpline
 62
7
  6
CONTINUOUS
 70
0
 71
3
 72
11
 73
7
 74
0
 42
0.0000001
 43
0.0000001
 44
0.0000000001
 40
0.0
 40
0.0
 40
0.0
 40
0.0
 40
0.2336627515
 40
0.4744485601
 40
0.7285753422
 40
1.0
 40
1.0
 40
1.0
 40
1.0
 10
16.1586427434
 20
11.2670991879
 30
0.0
 10
16.1599343164
 20
11.271275544
 30
0.0
 10
16.1616289108
 20
11.2800714635
 30
0.0
 10
16.161332307
 20
11.2937893373
 30
0.0
 10
16.1582492535
 20
11.3078706323
 30
0.0
 10
16.1545396888
 20
11.3170273312
 30
0.0
 10
16.1523026195
 20
11.3215859991
 30
0.0
  0
SPLINE
  5
283
100
AcDbEntity
  8
0
100
AcDbSpline
 62
7
  6
CONTINUOUS
 70
0
 71
3
 72
11
 73
7
 74
0
 42
0.0000001
 43
0.0000001
 44
0.0000000001
 40
0.0
 40
0.0
 40
0.0
 40
0.0
 40
0.2337006148
 40
0.4744600685
 40
0.7284408233
 40
1.0
 40
1.0
 40
1.0
 40
1.0
 10
16.7025772489
 20
11.2670989241
 30
0.0
 10
16.7038683164
 20
11.2712762045
 30
0.0
 10
16.7055623442
 20
11.2800725357
 30
0.0
 10
16.7052645675
 20
11.2937875917
 30
0.0
 10
16.7021874644
 20
11.3078696319
 30
0.0
 10
16.6984744684
 20
11.3170250453
 30
0.0
 10
16.6962362774
 20
11.3215859991
 30
0.0
  0
SPLINE
  5
284
100
AcDbEntity
  8
0
100
AcDbSpline
 62
7
  6
CONTINUOUS
 70
0
 71
3
 72
11
 73
7
 74
0
 42
0.0000001
 43
0.0000001
 44
0.0000000001
 40
0.0
 40
0.0
 40
0.0
 40
0.0
 40
0.2336627515
 40
0.4744485601
 40
0.7285753422
 40
1.0
 40
1.0
 40
1.0
 40
1.0
 10
15.0707754276
 20
11.2670991879
 30
0.0
 10
15.0720670007
 20
11.271275544
 30
0.0
 10
15.073761595
 20
11.2800714635
 30
0.0
 10
15.0734649912
 20
11.2937893373
 30
0.0
 10
15.0703819377
 20
11.3078706323
 30
0.0
 10
15.066672373
 20
11.3170273312
 30
0.0
 10
15.0644353038
 20
11.3215859991
 30
0.0
  0
SPLINE
  5
285
100
AcDbEntity
  8
0
100
AcDbSpline
 62
7
  6
CONTINUOUS
 70
0
 71
3
 72
10
 73
6
 74
0
 42
0.0000001
 43
0.0000001
 44
0.0000000001
 40
0.0
 40
0.0
 40
0.0
 40
0.0
 40
0.5245647695
 40
0.7658847765
 40
1.0
 40
1.0
 40
1.0
 40
1.0
 10
13.9746164406
 20
11.3255628345
 30
0.0
 10
13.9734657068
 20
11.3279077835
 30
0.0
 10
13.9722368663
 20
11.3316253612
 30
0.0
 10
13.9721297185
 20
11.336632216
 30
0.0
 10
13.9725813567
 20
11.3389789054
 30
0.0
 10
13.9729254894
 20
11.3400927369
 30
0.0
  0
SPLINE
  5
286
100
AcDbEntity
  8
0
100
AcDbSpline
 62
7
  6
CONTINUOUS
 70
0
 71
3
 72
11
 73
7
 74
0
 42
0.0000001
 43
0.0000001
 44
0.0000000001
 40
0.0
 40
0.0
 40
0.0
 40
0.0
 40
0.2336532332
 40
0.4744671424
 40
0.7286301049
 40
1.0
 40
1.0
 40
1.0
 40
1.0
 10
13.982908796
 20
11.2670989746
 30
0.0
 10
13.9842002921
 20
11.2712751594
 30
0.0
 10
13.9858938907
 20
11.280071569
 30
0.0
 10
13.9855978758
 20
11.2937904901
 30
0.0
 10
13.9825127173
 20
11.3078714746
 30
0.0
 10
13.9788046017
 20
11.3170282596
 30
0.0
 10
13.976567988
 20
11.3215859991
 30
0.0
  0
SPLINE
  5
287
100
AcDbEntity
  8
0
100
AcDbSpline
 62
7
  6
CONTINUOUS
 70
0
 71
3
 72
10
 73
6
 74
0
 42
0.0000001
 43
0.0000001
 44
0.0000000001
 40
0.0
 40
0.0
 40
0.0
 40
0.0
 40
0.5245647695
 40
0.7658847765
 40
1.0
 40
1.0
 40
1.0
 40
1.0
 10
14.5185500985
 20
11.3255628345
 30
0.0
 10
14.5173993647
 20
11.3279077835
 30
0.0
 10
14.5161705242
 20
11.3316253612
 30
0.0
 10
14.5160633764
 20
11.336632216
 30
0.0
 10
14.5165150146
 20
11.3389789054
 30
0.0
 10
14.5168591472
 20
11.3400927369
 30
0.0
  0
SPLINE
  5
288
100
AcDbEntity
  8
0
100
AcDbSpline
 62
7
  6
CONTINUOUS
 70
0
 71
3
 72
10
 73
6
 74
0
 42
0.0000001
 43
0.0000001
 44
0.0000000001
 40
0.0
 40
0.0
 40
0.0
 40
0.0
 40
0.5245647695
 40
0.7658847765
 40
1.0
 40
1.0
 40
1.0
 40
1.0
 10
15.0624837564
 20
11.3255628345
 30
0.0
 10
15.0613330226
 20
11.3279077835
 30
0.0
 10
15.0601041821
 20
11.3316253612
 30
0.0
 10
15.0599970342
 20
11.336632216
 30
0.0
 10
15.0604486725
 20
11.3389789054
 30
0.0
 10
15.0607928051
 20
11.3400927369
 30
0.0
  0
SPLINE
  5
289
100
AcDbEntity
  8
0
100
AcDbSpline
 62
7
  6
CONTINUOUS
 70
0
 71
3
 72
10
 73
6
 74
0
 42
0.0000001
 43
0.0000001
 44
0.0000000001
 40
0.0
 40
0.0
 40
0.0
 40
0.0
 40
0.5245647695
 40
0.7658847765
 40
1.0
 40
1.0
 40
1.0
 40
1.0
 10
15.6064174143
 20
11.3255628345
 30
0.0
 10
15.6052666805
 20
11.3279077835
 30
0.0
 10
15.6040378399
 20
11.3316253612
 30
0.0
 10
15.6039306921
 20
11.336632216
 30
0.0
 10
15.6043823303
 20
11.3389789054
 30
0.0
 10
15.604726463
 20
11.3400927369
 30
0.0
  0
SPLINE
  5
28A
100
AcDbEntity
  8
0
100
AcDbSpline
 62
7
  6
CONTINUOUS
 70
0
 71
3
 72
11
 73
7
 74
0
 42
0.0000001
 43
0.0000001
 44
0.0000000001
 40
0.0
 40
0.0
 40
0.0
 40
0.0
 40
0.2336627515
 40
0.4744485601
 40
0.7285753422
 40
1.0
 40
1.0
 40
1.0
 40
1.0
 10
15.6147090855
 20
11.2670991879
 30
0.0
 10
15.6160006585
 20
11.271275544
 30
0.0
 10
15.6176952529
 20
11.2800714635
 30
0.0
 10
15.6173986491
 20
11.2937893373
 30
0.0
 10
15.6143155956
 20
11.3078706323
 30
0.0
 10
15.6106060309
 20
11.3170273312
 30
0.0
 10
15.6083689616
 20
11.3215859991
 30
0.0
  0
SPLINE
  5
28B
100
AcDbEntity
  8
0
100
AcDbSpline
 62
7
  6
CONTINUOUS
 70
0
 71
3
 72
10
 73
6
 74
0
 42
0.0000001
 43
0.0000001
 44
0.0000000001
 40
0.0
 40
0.0
 40
0.0
 40
0.0
 40
0.5245647695
 40
0.7658847765
 40
1.0
 40
1.0
 40
1.0
 40
1.0
 10
16.1503510721
 20
11.3255628345
 30
0.0
 10
16.1492003383
 20
11.3279077835
 30
0.0
 10
16.1479714978
 20
11.3316253612
 30
0.0
 10
16.14786435
 20
11.336632216
 30
0.0
 10
16.1483159882
 20
11.3389789054
 30
0.0
 10
16.1486601209
 20
11.3400927369
 30
0.0
  0
SPLINE
  5
28C
100
AcDbEntity
  8
0
100
AcDbSpline
 62
7
  6
CONTINUOUS
 70
0
 71
3
 72
11
 73
7
 74
0
 42
0.0000001
 43
0.0000001
 44
0.0000000001
 40
0.0
 40
0.0
 40
0.0
 40
0.0
 40
0.2336532332
 40
0.4744671424
 40
0.7286301049
 40
1.0
 40
1.0
 40
1.0
 40
1.0
 10
14.5268424539
 20
11.2670989746
 30
0.0
 10
14.52813395
 20
11.2712751594
 30
0.0
 10
14.5298275486
 20
11.280071569
 30
0.0
 10
14.5295315337
 20
11.2937904901
 30
0.0
 10
14.5264463752
 20
11.3078714746
 30
0.0
 10
14.5227382596
 20
11.3170282596
 30
0.0
 10
14.5205016459
 20
11.3215859991
 30
0.0
  0
SPLINE
  5
28D
100
AcDbEntity
  8
0
100
AcDbSpline
 62
7
  6
CONTINUOUS
 70
0
 71
3
 72
10
 73
6
 74
0
 42
0.0000001
 43
0.0000001
 44
0.0000000001
 40
0.0
 40
0.0
 40
0.0
 40
0.0
 40
0.5245647695
 40
0.7658847765
 40
1.0
 40
1.0
 40
1.0
 40
1.0
 10
16.69428473
 20
11.3255628345
 30
0.0
 10
16.6931339962
 20
11.3279077835
 30
0.0
 10
16.6919051557
 20
11.3316253612
 30
0.0
 10
16.6917980079
 20
11.336632216
 30
0.0
 10
16.6922496461
 20
11.3389789054
 30
0.0
 10
16.6925937787
 20
11.3400927369
 30
0.0
  0
ENDSEC
  0
SECTION
  2
OBJECTS
  0
DICTIONARY
  5
C
100
AcDbDictionary
280
0
281
1
  3
ACAD_GROUP
350
D
  3
ACAD_MLINESTYLE
350
17
  3
ACAD_LAYOUT
350
1A
  3
ACAD_PLOTSETTINGS
350
19
  3
ACAD_PLOTSTYLENAME
350
E
  0
DICTIONARY
  5
D
102
{ACAD_REACTORS
330
C
102
}
100
AcDbDictionary
280
0
281
1
  0
ACDBDICTIONARYWDFLT
  5
E
102
{ACAD_REACTORS
330
C
102
}
100
AcDbDictionary
281
1
  3
Normal
350
F
100
AcDbDictionaryWithDefault
340
F
  0
DICTIONARY
  5
17
102
{ACAD_REACTORS
330
C
102
}
100
AcDbDictionary
280
0
281
1
  3
Standard
350
18
  0
DICTIONARY
  5
19
102
{ACAD_REACTORS
330
C
102
}
100
AcDbDictionary
281
1
  0
DICTIONARY
  5
1A
102
{ACAD_REACTORS
330
C
102
}
100
AcDbDictionary
281
1
  3
Model
350
28E
  3
Layout1
350
28F
  0
ACDBPLACEHOLDER
  5
F
102
{ACAD_REACTORS
330
E
102
}
  0
MLINESTYLE
  5
18
102
{ACAD_REACTORS
330
17
102
}
100
AcDbMlineStyle
  2
STANDARD
 70
0
  3

 62
256
 51
90.0
 52
90.0
 71
2
 49
0.5
 62
256
  6
BYLAYER
 49
-0.5
 62
256
  6
BYLAYER
  0
LAYOUT
  5
28E
102
{ACAD_REACTORS
330
1A
102
}
100
AcDbPlotSettings
  1

  2
none_device
  4
ANSI_C_(22.00_x_17.00_Inches)
  6

 40
0.0
 41
0.0
 42
0.0
 43
0.0
 44
558.8
 45
431.8
 46
0.0
 47
0.0
 48
0.0
 49
0.0
140
0.0
141
0.0
142
1.0
143
1.0
 70
1024
 72
0
 73
0
 74
0
  7

 75
0
147
1.0
148
0.0
149
0.0
100
AcDbLayout
  1
Model
 70
0
 71
0
 10
0.0
 20
0.0
 11
22.0
 21
17.0
 12
0.0
 22
0.0
 32
0.0
 14
0.0
 24
0.0
 34
0.0
 15
0.0
 25
0.0
 35
0.0
146
0.0
 13
0.0
 23
0.0
 33
0.0
 16
1.0
 26
0.0
 36
0.0
 17
0.0
 27
1.0
 37
0.0
 76
0
330
216
345
0
346
0
  0
LAYOUT
  5
28F
102
{ACAD_REACTORS
330
1A
102
}
100
AcDbPlotSettings
  1

  2
none_device
  4
ANSI_C_(22.00_x_17.00_Inches)
  6

 40
0.0
 41
0.0
 42
0.0
 43
0.0
 44
558.8
 45
431.8
 46
0.0
 47
0.0
 48
0.0
 49
0.0
140
0.0
141
0.0
142
1.0
143
1.0
 70
0
 72
0
 73
0
 74
0
  7

 75
0
147
1.0
148
0.0
149
0.0
100
AcDbLayout
  1
Layout1
 70
0
 71
1
 10
0.0
 20
0.0
 11
22.0
 21
17.0
 12
0.0
 22
0.0
 32
0.0
 14
0.0
 24
0.0
 34
0.0
 15
0.0
 25
0.0
 35
0.0
146
0.0
 13
0.0
 23
0.0
 33
0.0
 16
1.0
 26
0.0
 36
0.0
 17
0.0
 27
1.0
 37
0.0
 76
0
330
217
345
0
346
0
  0
ENDSEC
  0
EOF