999
DXF file: _cgs_temp_output.dxf
999
Pro/ENGINEER 2015110 by Parametric Technology Corporation
  0
SECTION
  2
HEADER
  9
$ACADVER
  1
AC1021
  9
$DWGCODEPAGE
  3
ANSI_1252
  9
$EXTMAX
 10
22.0
 20
17.0
 30
0.0
  9
$EXTMIN
 10
0.0
 20
0.0
 30
0.0
  9
$LIMMIN
 10
0.0
 20
0.0
  9
$LIMMAX
 10
22.0
 20
17.0
  9
$VIEWCTR
 10
11.0
 20
8.5
  9
$VIEWSIZE
 40
17.0
  9
$CLAYER
  8
0
  9
$LTSCALE
 40
1.21
  9
$CELTYPE
  6
BYLAYER
  9
$DIMSCALE
 40
1.0
  9
$DIMASZ
 40
0.1875
  9
$DIMEXO
 40
0.0625
  9
$DIMDLI
 40
0.836
  9
$DIMEXE
 40
0.125
  9
$DIMCEN
 40
0.198
  9
$DIMLFAC
 40
1.0
  9
$DIMBLK
  1
_CLOSED
  9
$DIMALT
 70
0
  9
$DIMALTF
 40
25.4
  9
$DIMTXT
 40
0.15625
  9
$DIMTOL
 70
0
  9
$DIMLIM
 70
0
  9
$DIMTFAC
 40
1.0
  9
$DIMGAP
 40
0.09
  9
$DIMDSEP
 70
46
  9
$AUNITS
 70
0
  9
$PDMODE
 70
3
  9
$PDSIZE
 40
0.3125
  9
$HANDSEED
  5
30E
  9
$TILEMODE
 70
1
  9
$MEASUREMENT
 70
0
  9
$INSUNITS
 70
1
  0
ENDSEC
  0
SECTION
  2
CLASSES
  0
CLASS
  1
ACDBDICTIONARYWDFLT
  2
AcDbDictionaryWithDefault
  3
AutoCAD 2000
 90
0
 91
1
280
0
281
0
  0
CLASS
  1
ACDBPLACEHOLDER
  2
AcDbPlaceHolder
  3
AutoCAD 2000
 90
0
 91
1
280
0
281
0
  0
CLASS
  1
LAYOUT
  2
AcDbLayout
  3
AutoCAD 2000
 90
0
 91
0
280
0
281
0
  0
ENDSEC
  0
SECTION
  2
TABLES
  0
TABLE
  2
VPORT
  5
8
100
AcDbSymbolTable
 70
2
  0
VPORT
  5
1F4
100
AcDbSymbolTableRecord
100
AcDbViewportTableRecord
  2
*ACTIVE
 70
0
 10
0.0
 20
0.0
 11
1.0
 21
1.0
 12
11.0
 22
8.5
 13
0.0
 23
0.0
 14
1.0
 24
1.0
 15
0.0
 25
0.0
 16
0.0
 26
0.0
 36
1.0
 17
0.0
 27
0.0
 37
0.0
 40
17.0
 41
1.2941176471
 42
50.0
 43
0.0
 44
0.0
 50
0.0
 51
0.0
 71
0
 72
100
 73
1
 74
1
 75
0
 76
0
 77
0
 78
0
  0
ENDTAB
  0
TABLE
  2
LTYPE
  5
5
100
AcDbSymbolTable
 70
6
  0
LTYPE
  5
14
100
AcDbSymbolTableRecord
100
AcDbLinetypeTableRecord
  2
BYBLOCK
 70
0
  3

 72
65
 73
0
 40
0.0
  0
LTYPE
  5
15
100
AcDbSymbolTableRecord
100
AcDbLinetypeTableRecord
  2
BYLAYER
 70
0
  3

 72
65
 73
0
 40
0.0
  0
LTYPE
  5
16
100
AcDbSymbolTableRecord
100
AcDbLinetypeTableRecord
  2
CONTINUOUS
 70
64
  3
Solid line
 72
65
 73
0
 40
0.0
  0
LTYPE
  5
1F5
100
AcDbSymbolTableRecord
100
AcDbLinetypeTableRecord
  2
CENTER
 70
64
  3
____ _ ____ _ ____ _ ____ _ ____ _ ____ _ ____
 72
65
 73
4
 40
0.6
 49
0.375
 74
0
 49
-0.075
 74
0
 49
0.075
 74
0
 49
-0.075
 74
0
  0
LTYPE
  5
1F6
100
AcDbSymbolTableRecord
100
AcDbLinetypeTableRecord
  2
HIDDEN
 70
64
  3
- - - - - - - - - - - - - - - - - - - -
 72
65
 73
2
 40
0.2
 49
0.1
 74
0
 49
-0.1
 74
0
  0
LTYPE
  5
1F7
100
AcDbSymbolTableRecord
100
AcDbLinetypeTableRecord
  2
PHANTOM
 70
64
  3
_____ _ _ _____ _ _ _____ _ _ _____
 72
65
 73
6
 40
0.8
 49
0.45
 74
0
 49
-0.05
 74
0
 49
0.1
 74
0
 49
-0.05
 74
0
 49
0.1
 74
0
 49
-0.05
 74
0
  0
LTYPE
  5
1F8
100
AcDbSymbolTableRecord
100
AcDbLinetypeTableRecord
  2
DOT
 70
64
  3
. . . . . . . . . . . . . . . . . . . .
 72
65
 73
2
 40
0.2
 49
0.1
 74
0
 49
-0.1
 74
0
  0
LTYPE
  5
1F9
100
AcDbSymbolTableRecord
100
AcDbLinetypeTableRecord
  2
DASHED
 70
64
  3
- - - - - - - - - - - - - - - - - - - -
 72
65
 73
2
 40
0.2
 49
0.1
 74
0
 49
-0.1
 74
0
  0
ENDTAB
  0
TABLE
  2
LAYER
  5
2
100
AcDbSymbolTable
 70
36
  0
LAYER
  5
10
100
AcDbSymbolTableRecord
100
AcDbLayerTableRecord
  2
0
 70
0
 62
7
  6
CONTINUOUS
370
-3
390
F
  0
LAYER
  5
1FA
100
AcDbSymbolTableRecord
100
AcDbLayerTableRecord
  2
DEFAULT_1
 70
0
 62
7
  6
CENTER
370
-3
390
F
  0
LAYER
  5
1FB
100
AcDbSymbolTableRecord
100
AcDbLayerTableRecord
  2
DEFAULT_2
 70
0
 62
8
  6
HIDDEN
370
-3
390
F
  0
LAYER
  5
1FC
100
AcDbSymbolTableRecord
100
AcDbLayerTableRecord
  2
DEFAULT_3
 70
0
 62
7
  6
PHANTOM
370
-3
390
F
  0
LAYER
  5
1FD
100
AcDbSymbolTableRecord
100
AcDbLayerTableRecord
  2
01_ALL_DTM_PLN
 70
0
 62
7
  6
CONTINUOUS
370
-3
390
F
  0
LAYER
  5
1FE
100
AcDbSymbolTableRecord
100
AcDbLayerTableRecord
  2
01__ASM_ALL_DTM_PLN
 70
0
 62
7
  6
CONTINUOUS
370
-3
390
F
  0
LAYER
  5
1FF
100
AcDbSymbolTableRecord
100
AcDbLayerTableRecord
  2
01__ASM_DEF_DTM_PLN
 70
0
 62
7
  6
CONTINUOUS
370
-3
390
F
  0
LAYER
  5
200
100
AcDbSymbolTableRecord
100
AcDbLayerTableRecord
  2
01___PRT_ALL_DTM_PLN
 70
0
 62
7
  6
CONTINUOUS
370
-3
390
F
  0
LAYER
  5
201
100
AcDbSymbolTableRecord
100
AcDbLayerTableRecord
  2
01___PRT_DEF_DTM_PLN
 70
0
 62
7
  6
CONTINUOUS
370
-3
390
F
  0
LAYER
  5
202
100
AcDbSymbolTableRecord
100
AcDbLayerTableRecord
  2
02_ALL_AXES
 70
0
 62
7
  6
CONTINUOUS
370
-3
390
F
  0
LAYER
  5
203
100
AcDbSymbolTableRecord
100
AcDbLayerTableRecord
  2
02__ASM_ALL_AXES
 70
0
 62
7
  6
CONTINUOUS
370
-3
390
F
  0
LAYER
  5
204
100
AcDbSymbolTableRecord
100
AcDbLayerTableRecord
  2
02___PRT_ALL_AXES
 70
0
 62
7
  6
CONTINUOUS
370
-3
390
F
  0
LAYER
  5
205
100
AcDbSymbolTableRecord
100
AcDbLayerTableRecord
  2
03_ALL_CURVES
 70
0
 62
7
  6
CONTINUOUS
370
-3
390
F
  0
LAYER
  5
206
100
AcDbSymbolTableRecord
100
AcDbLayerTableRecord
  2
03__ASM_ALL_CURVES
 70
0
 62
7
  6
CONTINUOUS
370
-3
390
F
  0
LAYER
  5
207
100
AcDbSymbolTableRecord
100
AcDbLayerTableRecord
  2
03___PRT_ALL_CURVES
 70
0
 62
7
  6
CONTINUOUS
370
-3
390
F
  0
LAYER
  5
208
100
AcDbSymbolTableRecord
100
AcDbLayerTableRecord
  2
04_ALL_DTM_PNT
 70
0
 62
7
  6
CONTINUOUS
370
-3
390
F
  0
LAYER
  5
209
100
AcDbSymbolTableRecord
100
AcDbLayerTableRecord
  2
04__ASM_ALL_DTM_PNT
 70
0
 62
7
  6
CONTINUOUS
370
-3
390
F
  0
LAYER
  5
20A
100
AcDbSymbolTableRecord
100
AcDbLayerTableRecord
  2
04___PRT_ALL_DTM_PNT
 70
0
 62
7
  6
CONTINUOUS
370
-3
390
F
  0
LAYER
  5
20B
100
AcDbSymbolTableRecord
100
AcDbLayerTableRecord
  2
05_ALL_DTM_CSYS
 70
0
 62
7
  6
CONTINUOUS
370
-3
390
F
  0
LAYER
  5
20C
100
AcDbSymbolTableRecord
100
AcDbLayerTableRecord
  2
05__ASM_ALL_DTM_CSYS
 70
0
 62
7
  6
CONTINUOUS
370
-3
390
F
  0
LAYER
  5
20D
100
AcDbSymbolTableRecord
100
AcDbLayerTableRecord
  2
05__ASM_DEF_DTM_CSYS
 70
0
 62
7
  6
CONTINUOUS
370
-3
390
F
  0
LAYER
  5
20E
100
AcDbSymbolTableRecord
100
AcDbLayerTableRecord
  2
05___PRT_ALL_DTM_CSYS
 70
0
 62
7
  6
CONTINUOUS
370
-3
390
F
  0
LAYER
  5
20F
100
AcDbSymbolTableRecord
100
AcDbLayerTableRecord
  2
05___PRT_DEF_DTM_CSYS
 70
0
 62
7
  6
CONTINUOUS
370
-3
390
F
  0
LAYER
  5
210
100
AcDbSymbolTableRecord
100
AcDbLayerTableRecord
  2
06_ALL_SURFS
 70
0
 62
7
  6
CONTINUOUS
370
-3
390
F
  0
LAYER
  5
211
100
AcDbSymbolTableRecord
100
AcDbLayerTableRecord
  2
06__ASM_ALL_SURFS
 70
0
 62
7
  6
CONTINUOUS
370
-3
390
F
  0
LAYER
  5
212
100
AcDbSymbolTableRecord
100
AcDbLayerTableRecord
  2
06___PRT_ALL_SURFS
 70
0
 62
7
  6
CONTINUOUS
370
-3
390
F
  0
LAYER
  5
213
100
AcDbSymbolTableRecord
100
AcDbLayerTableRecord
  2
07__ASM_ALL_SKELETONS
 70
0
 62
7
  6
CONTINUOUS
370
-3
390
F
  0
ENDTAB
  0
TABLE
  2
STYLE
  5
3
100
AcDbSymbolTable
 70
1
  0
STYLE
  5
11
100
AcDbSymbolTableRecord
100
AcDbTextStyleTableRecord
  2
STANDARD
 70
0
 40
0.0
 41
0.8
 50
0.0
 71
0
 42
0.2
  3
txt
  4

  0
STYLE
  5
214
100
AcDbSymbolTableRecord
100
AcDbTextStyleTableRecord
  2
TEXTSTYLE_1
 70
0
 40
0.0
 41
0.8
 50
0.0
 71
0
 42
0.2
  3
gdt
  4

  0
ENDTAB
  0
TABLE
  2
VIEW
  5
6
100
AcDbSymbolTable
 70
0
  0
ENDTAB
  0
TABLE
  2
UCS
  5
7
100
AcDbSymbolTable
 70
0
  0
ENDTAB
  0
TABLE
  2
APPID
  5
9
100
AcDbSymbolTable
 70
1
  0
APPID
  5
215
100
AcDbSymbolTableRecord
100
AcDbRegAppTableRecord
  2
ACAD
 70
0
  0
ENDTAB
  0
TABLE
  2
BLOCK_RECORD
  5
1
100
AcDbSymbolTable
 70
0
  0
BLOCK_RECORD
  5
216
100
AcDbSymbolTableRecord
100
AcDbBlockTableRecord
  2
*Model_Space
  0
BLOCK_RECORD
  5
217
100
AcDbSymbolTableRecord
100
AcDbBlockTableRecord
  2
*Paper_Space
  0
ENDTAB
  0
TABLE
  2
DIMSTYLE
  5
A
100
AcDbSymbolTable
 70
1
100
AcDbDimStyleTable
 71
0
  0
DIMSTYLE
105
218
100
AcDbSymbolTableRecord
100
AcDbDimStyleTableRecord
  2
STANDARD
 70
0
  3

  4

 40
1.0
 41
0.1875
 42
0.0625
 43
0.38
 44
0.125
 45
0.0
 46
0.0
 47
0.0001
 48
0.0001
140
0.15625
141
0.09
142
0.0
143
25.4
144
1.0
145
0.0
146
1.0
147
0.09
 71
0.0
 72
0.0
 73
1
 74
1
 75
0
 76
0
 77
0
 78
4
170
0
171
2
172
0
173
0
174
0
175
0
176
0
177
0
178
0
270
2
271
4
272
4
273
2
274
2
275
0
280
0
281
0
282
0
283
1
284
4
285
0
286
0
287
3
288
0
340
11
278
46
  0
ENDTAB
  0
ENDSEC
  0
SECTION
  2
BLOCKS
  0
BLOCK
  5
20
100
AcDbEntity
  8
0
100
AcDbBlockBegin
  2
*Model_Space
 70
0
 10
0.0
 20
0.0
 30
0.0
  3
*Model_Space
  1

  0
ENDBLK
  5
21
100
AcDbEntity
  8
0
100
AcDbBlockEnd
  0
BLOCK
  5
1C
100
AcDbEntity
  8
0
100
AcDbBlockBegin
  2
*Paper_Space
 70
0
 10
0.0
 20
0.0
 30
0.0
  3
*Paper_Space
  1

  0
ENDBLK
  5
1D
100
AcDbEntity
  8
0
100
AcDbBlockEnd
  0
ENDSEC
  0
SECTION
  2
ENTITIES
  0
MTEXT
  5
219
100
AcDbEntity
  8
0
100
AcDbMText
 62
7
  6
CONTINUOUS
  7
STANDARD
 71
1
 72
1
 10
15.9560215477
 20
0.9479130325
 30
0.0
 11
1.0
 21
0.0
 31
0.0
 44
0.9
  1
SCALE: 1:1.000
 40
0.3
 41
3.36
  0
LINE
  5
21A
100
AcDbEntity
  8
0
100
AcDbLine
 62
7
  6
CONTINUOUS
 10
0.0
 20
0.0
 11
0.0
 21
17.0
  0
LINE
  5
21B
100
AcDbEntity
  8
0
100
AcDbLine
 62
7
  6
CONTINUOUS
 10
0.0
 20
0.0
 11
22.0
 21
0.0
  0
LINE
  5
21C
100
AcDbEntity
  8
0
100
AcDbLine
 62
7
  6
CONTINUOUS
 10
0.0
 20
17.0
 11
22.0
 21
17.0
  0
LINE
  5
21D
100
AcDbEntity
  8
0
100
AcDbLine
 62
7
  6
CONTINUOUS
 10
22.0
 20
0.0
 11
22.0
 21
17.0
  0
LINE
  5
21E
100
AcDbEntity
  8
0
100
AcDbLine
 62
7
  6
CONTINUOUS
 10
4.4653672762
 20
5.6451198968
 11
4.4653672762
 21
5.5617865634
  0
LINE
  5
21F
100
AcDbEntity
  8
0
100
AcDbLine
 62
7
  6
CONTINUOUS
 10
4.4653672762
 20
5.5617865634
 11
4.5078562671
 21
5.4086730825
  0
LINE
  5
220
100
AcDbEntity
  8
0
100
AcDbLine
 62
7
  6
CONTINUOUS
 10
4.6078782852
 20
5.4086730825
 11
4.6503672762
 21
5.5617865634
  0
LINE
  5
221
100
AcDbEntity
  8
0
100
AcDbLine
 62
7
  6
CONTINUOUS
 10
4.6503672762
 20
5.5617865634
 11
4.6928562671
 21
5.4086730825
  0
LINE
  5
222
100
AcDbEntity
  8
0
100
AcDbLine
 62
7
  6
CONTINUOUS
 10
4.7928782852
 20
5.4086730825
 11
4.8353672762
 21
5.5617865634
  0
LINE
  5
223
100
AcDbEntity
  8
0
100
AcDbLine
 62
7
  6
CONTINUOUS
 10
4.8353672762
 20
5.5617865634
 11
4.8778562671
 21
5.4086730825
  0
LINE
  5
224
100
AcDbEntity
  8
0
100
AcDbLine
 62
7
  6
CONTINUOUS
 10
4.9778782852
 20
5.4086730825
 11
5.0203672762
 21
5.5617865634
  0
LINE
  5
225
100
AcDbEntity
  8
0
100
AcDbLine
 62
7
  6
CONTINUOUS
 10
5.0203672762
 20
5.5617865634
 11
5.0628562671
 21
5.4086730825
  0
LINE
  5
226
100
AcDbEntity
  8
0
100
AcDbLine
 62
7
  6
CONTINUOUS
 10
5.1628782852
 20
5.4086730825
 11
5.2053672762
 21
5.5617865634
  0
LINE
  5
227
100
AcDbEntity
  8
0
100
AcDbLine
 62
7
  6
CONTINUOUS
 10
5.2053672762
 20
5.5617865634
 11
5.2478562671
 21
5.4086730825
  0
LINE
  5
228
100
AcDbEntity
  8
0
100
AcDbLine
 62
7
  6
CONTINUOUS
 10
5.3478782852
 20
5.4086730825
 11
5.3903672762
 21
5.5617865634
  0
LINE
  5
229
100
AcDbEntity
  8
0
100
AcDbLine
 62
7
  6
CONTINUOUS
 10
5.3903672762
 20
5.5617865634
 11
5.4328562671
 21
5.4086730825
  0
LINE
  5
22A
100
AcDbEntity
  8
0
100
AcDbLine
 62
7
  6
CONTINUOUS
 10
5.5328782852
 20
5.4086730825
 11
5.5753672762
 21
5.5617865634
  0
LINE
  5
22B
100
AcDbEntity
  8
0
100
AcDbLine
 62
7
  6
CONTINUOUS
 10
5.5753672762
 20
5.5617865634
 11
5.6178562671
 21
5.4086730825
  0
LINE
  5
22C
100
AcDbEntity
  8
0
100
AcDbLine
 62
7
  6
CONTINUOUS
 10
5.7178782852
 20
5.4086730825
 11
5.7603672762
 21
5.5617865634
  0
LINE
  5
22D
100
AcDbEntity
  8
0
100
AcDbLine
 62
7
  6
CONTINUOUS
 10
5.7603672762
 20
5.5617865634
 11
5.8028562671
 21
5.4086730825
  0
LINE
  5
22E
100
AcDbEntity
  8
0
100
AcDbLine
 62
7
  6
CONTINUOUS
 10
5.9028782852
 20
5.4086730825
 11
5.9453672762
 21
5.5617865634
  0
LINE
  5
22F
100
AcDbEntity
  8
0
100
AcDbLine
 62
7
  6
CONTINUOUS
 10
4.5256826248
 20
5.3951198968
 11
4.5900519275
 21
5.3951198968
  0
LINE
  5
230
100
AcDbEntity
  8
0
100
AcDbLine
 62
7
  6
CONTINUOUS
 10
4.7106826248
 20
5.3951198968
 11
4.7750519275
 21
5.3951198968
  0
LINE
  5
231
100
AcDbEntity
  8
0
100
AcDbLine
 62
7
  6
CONTINUOUS
 10
4.8956826248
 20
5.3951198968
 11
4.9600519275
 21
5.3951198968
  0
LINE
  5
232
100
AcDbEntity
  8
0
100
AcDbLine
 62
7
  6
CONTINUOUS
 10
5.0806826248
 20
5.3951198968
 11
5.1450519275
 21
5.3951198968
  0
LINE
  5
233
100
AcDbEntity
  8
0
100
AcDbLine
 62
7
  6
CONTINUOUS
 10
5.2656826248
 20
5.3951198968
 11
5.3300519275
 21
5.3951198968
  0
LINE
  5
234
100
AcDbEntity
  8
0
100
AcDbLine
 62
7
  6
CONTINUOUS
 10
5.4506826248
 20
5.3951198968
 11
5.5150519275
 21
5.3951198968
  0
LINE
  5
235
100
AcDbEntity
  8
0
100
AcDbLine
 62
7
  6
CONTINUOUS
 10
5.6356826248
 20
5.3951198968
 11
5.7000519275
 21
5.3951198968
  0
LINE
  5
236
100
AcDbEntity
  8
0
100
AcDbLine
 62
7
  6
CONTINUOUS
 10
5.8206826248
 20
5.3951198968
 11
5.8850519275
 21
5.3951198968
  0
LINE
  5
237
100
AcDbEntity
  8
0
100
AcDbLine
 62
7
  6
CONTINUOUS
 10
6.0056826248
 20
5.3951198968
 11
6.0700519275
 21
5.3951198968
  0
LINE
  5
238
100
AcDbEntity
  8
0
100
AcDbLine
 62
7
  6
CONTINUOUS
 10
6.1906826248
 20
5.3951198968
 11
6.2550519275
 21
5.3951198968
  0
LINE
  5
239
100
AcDbEntity
  8
0
100
AcDbLine
 62
7
  6
CONTINUOUS
 10
6.3756826248
 20
5.3951198968
 11
6.4400519275
 21
5.3951198968
  0
LINE
  5
23A
100
AcDbEntity
  8
0
100
AcDbLine
 62
7
  6
CONTINUOUS
 10
6.5606826248
 20
5.3951198968
 11
6.6250519275
 21
5.3951198968
  0
LINE
  5
23B
100
AcDbEntity
  8
0
100
AcDbLine
 62
7
  6
CONTINUOUS
 10
6.7456826248
 20
5.3951198968
 11
6.8100519275
 21
5.3951198968
  0
LINE
  5
23C
100
AcDbEntity
  8
0
100
AcDbLine
 62
7
  6
CONTINUOUS
 10
6.9306826248
 20
5.3951198968
 11
6.9950519275
 21
5.3951198968
  0
LINE
  5
23D
100
AcDbEntity
  8
0
100
AcDbLine
 62
7
  6
CONTINUOUS
 10
7.1156826248
 20
5.3951198968
 11
7.1800519275
 21
5.3951198968
  0
LINE
  5
23E
100
AcDbEntity
  8
0
100
AcDbLine
 62
7
  6
CONTINUOUS
 10
7.3006826248
 20
5.3951198968
 11
7.3650519275
 21
5.3951198968
  0
LINE
  5
23F
100
AcDbEntity
  8
0
100
AcDbLine
 62
7
  6
CONTINUOUS
 10
7.4856826248
 20
5.3951198968
 11
7.5500519275
 21
5.3951198968
  0
LINE
  5
240
100
AcDbEntity
  8
0
100
AcDbLine
 62
7
  6
CONTINUOUS
 10
7.6706826248
 20
5.3951198968
 11
7.7350519275
 21
5.3951198968
  0
LINE
  5
241
100
AcDbEntity
  8
0
100
AcDbLine
 62
7
  6
CONTINUOUS
 10
5.9453672762
 20
5.5617865634
 11
5.9878562671
 21
5.4086730825
  0
LINE
  5
242
100
AcDbEntity
  8
0
100
AcDbLine
 62
7
  6
CONTINUOUS
 10
6.0878782852
 20
5.4086730825
 11
6.1303672762
 21
5.5617865634
  0
LINE
  5
243
100
AcDbEntity
  8
0
100
AcDbLine
 62
7
  6
CONTINUOUS
 10
6.1303672762
 20
5.5617865634
 11
6.1728562671
 21
5.4086730825
  0
LINE
  5
244
100
AcDbEntity
  8
0
100
AcDbLine
 62
7
  6
CONTINUOUS
 10
7.7953672762
 20
5.6451198968
 11
4.4653672762
 21
5.6451198968
  0
LINE
  5
245
100
AcDbEntity
  8
0
100
AcDbLine
 62
7
  6
CONTINUOUS
 10
6.2728782852
 20
5.4086730825
 11
6.3153672762
 21
5.5617865634
  0
LINE
  5
246
100
AcDbEntity
  8
0
100
AcDbLine
 62
7
  6
CONTINUOUS
 10
6.3153672762
 20
5.5617865634
 11
6.3578562671
 21
5.4086730825
  0
LINE
  5
247
100
AcDbEntity
  8
0
100
AcDbLine
 62
7
  6
CONTINUOUS
 10
6.4578782852
 20
5.4086730825
 11
6.5003672762
 21
5.5617865634
  0
LINE
  5
248
100
AcDbEntity
  8
0
100
AcDbLine
 62
7
  6
CONTINUOUS
 10
6.5003672762
 20
5.5617865634
 11
6.5428562671
 21
5.4086730825
  0
LINE
  5
249
100
AcDbEntity
  8
0
100
AcDbLine
 62
7
  6
CONTINUOUS
 10
6.6428782852
 20
5.4086730825
 11
6.6853672762
 21
5.5617865634
  0
LINE
  5
24A
100
AcDbEntity
  8
0
100
AcDbLine
 62
7
  6
CONTINUOUS
 10
6.6853672762
 20
5.5617865634
 11
6.7278562671
 21
5.4086730825
  0
LINE
  5
24B
100
AcDbEntity
  8
0
100
AcDbLine
 62
7
  6
CONTINUOUS
 10
6.8278782852
 20
5.4086730825
 11
6.8703672762
 21
5.5617865634
  0
LINE
  5
24C
100
AcDbEntity
  8
0
100
AcDbLine
 62
7
  6
CONTINUOUS
 10
6.8703672762
 20
5.5617865634
 11
6.9128562671
 21
5.4086730825
  0
LINE
  5
24D
100
AcDbEntity
  8
0
100
AcDbLine
 62
7
  6
CONTINUOUS
 10
7.0128782852
 20
5.4086730825
 11
7.0553672762
 21
5.5617865634
  0
LINE
  5
24E
100
AcDbEntity
  8
0
100
AcDbLine
 62
7
  6
CONTINUOUS
 10
7.0553672762
 20
5.5617865634
 11
7.0978562671
 21
5.4086730825
  0
LINE
  5
24F
100
AcDbEntity
  8
0
100
AcDbLine
 62
7
  6
CONTINUOUS
 10
7.1978782852
 20
5.4086730825
 11
7.2403672762
 21
5.5617865634
  0
LINE
  5
250
100
AcDbEntity
  8
0
100
AcDbLine
 62
7
  6
CONTINUOUS
 10
7.2403672762
 20
5.5617865634
 11
7.2828562671
 21
5.4086730825
  0
LINE
  5
251
100
AcDbEntity
  8
0
100
AcDbLine
 62
7
  6
CONTINUOUS
 10
7.3828782852
 20
5.4086730825
 11
7.4253672762
 21
5.5617865634
  0
LINE
  5
252
100
AcDbEntity
  8
0
100
AcDbLine
 62
7
  6
CONTINUOUS
 10
7.4253672762
 20
5.5617865634
 11
7.4678562671
 21
5.4086730825
  0
LINE
  5
253
100
AcDbEntity
  8
0
100
AcDbLine
 62
7
  6
CONTINUOUS
 10
7.5678782852
 20
5.4086730825
 11
7.6103672762
 21
5.5617865634
  0
LINE
  5
254
100
AcDbEntity
  8
0
100
AcDbLine
 62
7
  6
CONTINUOUS
 10
7.6103672762
 20
5.5617865634
 11
7.6528562671
 21
5.4086730825
  0
LINE
  5
255
100
AcDbEntity
  8
0
100
AcDbLine
 62
7
  6
CONTINUOUS
 10
7.7953672762
 20
5.5617865634
 11
7.7953672762
 21
5.6451198968
  0
LINE
  5
256
100
AcDbEntity
  8
0
100
AcDbLine
 62
7
  6
CONTINUOUS
 10
7.7528782852
 20
5.4086730825
 11
7.7953672762
 21
5.5617865634
  0
LINE
  5
257
100
AcDbEntity
  8
0
100
AcDbLine
 62
7
  6
CONTINUOUS
 10
7.7358720839
 20
10.6000477814
 11
4.4058720839
 21
10.6000477814
  0
LINE
  5
258
100
AcDbEntity
  8
0
100
AcDbLine
 62
7
  6
CONTINUOUS
 10
4.4058720839
 20
14.6000477814
 11
4.4058720839
 21
10.6000477814
  0
LINE
  5
259
100
AcDbEntity
  8
0
100
AcDbLine
 62
7
  6
CONTINUOUS
 10
7.7358720839
 20
14.6000477814
 11
7.7358720839
 21
10.6000477814
  0
LINE
  5
25A
100
AcDbEntity
  8
0
100
AcDbLine
 62
7
  6
CONTINUOUS
 10
4.4058720839
 20
14.6000477814
 11
7.7358720839
 21
14.6000477814
  0
LINE
  5
25B
100
AcDbEntity
  8
0
100
AcDbLine
 62
7
  6
CONTINUOUS
 10
13.5603552569
 20
5.3356247044
 11
13.5603552569
 21
5.5856247044
  0
LINE
  5
25C
100
AcDbEntity
  8
0
100
AcDbLine
 62
7
  6
CONTINUOUS
 10
13.5603552569
 20
5.3356247044
 11
17.5603552569
 21
5.3356247044
  0
LINE
  5
25D
100
AcDbEntity
  8
0
100
AcDbLine
 62
7
  6
CONTINUOUS
 10
17.5603552569
 20
5.5022913711
 11
13.5603552569
 21
5.5022913711
  0
LINE
  5
25E
100
AcDbEntity
  8
0
100
AcDbLine
 62
7
  6
CONTINUOUS
 10
17.5603552569
 20
5.5856247044
 11
13.5603552569
 21
5.5856247044
  0
LINE
  5
25F
100
AcDbEntity
  8
0
100
AcDbLine
 62
7
  6
CONTINUOUS
 10
17.5603552569
 20
5.3356247044
 11
17.5603552569
 21
5.5856247044
  0
LINE
  5
260
100
AcDbEntity
  8
0
100
AcDbLine
 62
7
  6
CONTINUOUS
 10
13.4623378095
 20
10.970051589
 11
13.5481787838
 21
10.874874723
  0
LINE
  5
261
100
AcDbEntity
  8
0
100
AcDbLine
 62
7
  6
CONTINUOUS
 10
13.436917654
 20
11.0218524197
 11
13.4623378095
 21
10.970051589
  0
LINE
  5
262
100
AcDbEntity
  8
0
100
AcDbLine
 62
7
  6
CONTINUOUS
 10
13.6327340934
 20
10.970051589
 11
13.7185750677
 21
10.874874723
  0
LINE
  5
263
100
AcDbEntity
  8
0
100
AcDbLine
 62
7
  6
CONTINUOUS
 10
13.8031303773
 20
10.970051589
 11
13.8889713516
 21
10.874874723
  0
LINE
  5
264
100
AcDbEntity
  8
0
100
AcDbLine
 62
7
  6
CONTINUOUS
 10
13.9735266612
 20
10.970051589
 11
14.0593676355
 21
10.874874723
  0
LINE
  5
265
100
AcDbEntity
  8
0
100
AcDbLine
 62
7
  6
CONTINUOUS
 10
13.6403051632
 20
10.874874723
 11
13.6327340934
 21
10.970051589
  0
LINE
  5
266
100
AcDbEntity
  8
0
100
AcDbLine
 62
7
  6
CONTINUOUS
 10
14.1439229451
 20
10.970051589
 11
14.2297639194
 21
10.874874723
  0
LINE
  5
267
100
AcDbEntity
  8
0
100
AcDbLine
 62
7
  6
CONTINUOUS
 10
13.8107014471
 20
10.874874723
 11
13.8031303773
 21
10.970051589
  0
LINE
  5
268
100
AcDbEntity
  8
0
100
AcDbLine
 62
7
  6
CONTINUOUS
 10
14.314319229
 20
10.970051589
 11
14.4001602033
 21
10.874874723
  0
LINE
  5
269
100
AcDbEntity
  8
0
100
AcDbLine
 62
7
  6
CONTINUOUS
 10
14.4847155129
 20
10.970051589
 11
14.5705564871
 21
10.874874723
  0
LINE
  5
26A
100
AcDbEntity
  8
0
100
AcDbLine
 62
7
  6
CONTINUOUS
 10
13.981097731
 20
10.874874723
 11
13.9735266612
 21
10.970051589
  0
LINE
  5
26B
100
AcDbEntity
  8
0
100
AcDbLine
 62
7
  6
CONTINUOUS
 10
13.6400360853
 20
10.8724925936
 11
13.6403051632
 21
10.874874723
  0
LINE
  5
26C
100
AcDbEntity
  8
0
100
AcDbLine
 62
7
  6
CONTINUOUS
 10
13.5687322356
 20
10.8664499276
 11
13.6280202895
 21
10.8664499276
  0
LINE
  5
26D
100
AcDbEntity
  8
0
100
AcDbLine
 62
7
  6
CONTINUOUS
 10
13.7391285195
 20
10.8664499276
 11
13.7984165734
 21
10.8664499276
  0
LINE
  5
26E
100
AcDbEntity
  8
0
100
AcDbLine
 62
7
  6
CONTINUOUS
 10
13.9095248034
 20
10.8664499276
 11
13.9688128573
 21
10.8664499276
  0
LINE
  5
26F
100
AcDbEntity
  8
0
100
AcDbLine
 62
7
  6
CONTINUOUS
 10
14.0799210873
 20
10.8664499276
 11
14.1392091412
 21
10.8664499276
  0
LINE
  5
270
100
AcDbEntity
  8
0
100
AcDbLine
 62
7
  6
CONTINUOUS
 10
14.2503173712
 20
10.8664499276
 11
14.3096054251
 21
10.8664499276
  0
LINE
  5
271
100
AcDbEntity
  8
0
100
AcDbLine
 62
7
  6
CONTINUOUS
 10
14.4207136551
 20
10.8664499276
 11
14.480001709
 21
10.8664499276
  0
LINE
  5
272
100
AcDbEntity
  8
0
100
AcDbLine
 62
7
  6
CONTINUOUS
 10
14.591109939
 20
10.8664499276
 11
14.6503979929
 21
10.8664499276
  0
LINE
  5
273
100
AcDbEntity
  8
0
100
AcDbLine
 62
7
  6
CONTINUOUS
 10
14.7615062229
 20
10.8664499276
 11
14.8207942768
 21
10.8664499276
  0
LINE
  5
274
100
AcDbEntity
  8
0
100
AcDbLine
 62
7
  6
CONTINUOUS
 10
14.9319025067
 20
10.8664499276
 11
14.9911905607
 21
10.8664499276
  0
LINE
  5
275
100
AcDbEntity
  8
0
100
AcDbLine
 62
7
  6
CONTINUOUS
 10
15.1022987906
 20
10.8664499276
 11
15.1615868446
 21
10.8664499276
  0
LINE
  5
276
100
AcDbEntity
  8
0
100
AcDbLine
 62
7
  6
CONTINUOUS
 10
15.2726950745
 20
10.8664499276
 11
15.3319831284
 21
10.8664499276
  0
LINE
  5
277
100
AcDbEntity
  8
0
100
AcDbLine
 62
7
  6
CONTINUOUS
 10
15.4430913584
 20
10.8664499276
 11
15.5023794123
 21
10.8664499276
  0
LINE
  5
278
100
AcDbEntity
  8
0
100
AcDbLine
 62
7
  6
CONTINUOUS
 10
15.6134876423
 20
10.8664499276
 11
15.6727756962
 21
10.8664499276
  0
LINE
  5
279
100
AcDbEntity
  8
0
100
AcDbLine
 62
7
  6
CONTINUOUS
 10
15.7838839262
 20
10.8664499276
 11
15.8431719801
 21
10.8664499276
  0
LINE
  5
27A
100
AcDbEntity
  8
0
100
AcDbLine
 62
7
  6
CONTINUOUS
 10
15.9542802101
 20
10.8664499276
 11
16.013568264
 21
10.8664499276
  0
LINE
  5
27B
100
AcDbEntity
  8
0
100
AcDbLine
 62
7
  6
CONTINUOUS
 10
16.124676494
 20
10.8664499276
 11
16.1839645479
 21
10.8664499276
  0
LINE
  5
27C
100
AcDbEntity
  8
0
100
AcDbLine
 62
7
  6
CONTINUOUS
 10
16.2950727779
 20
10.8664499276
 11
16.3543608318
 21
10.8664499276
  0
LINE
  5
27D
100
AcDbEntity
  8
0
100
AcDbLine
 62
7
  6
CONTINUOUS
 10
16.4654690618
 20
10.8664499276
 11
16.5247571157
 21
10.8664499276
  0
LINE
  5
27E
100
AcDbEntity
  8
0
100
AcDbLine
 62
7
  6
CONTINUOUS
 10
14.6551117968
 20
10.970051589
 11
14.740952771
 21
10.874874723
  0
LINE
  5
27F
100
AcDbEntity
  8
0
100
AcDbLine
 62
7
  6
CONTINUOUS
 10
14.1514940149
 20
10.874874723
 11
14.1439229451
 21
10.970051589
  0
LINE
  5
280
100
AcDbEntity
  8
0
100
AcDbLine
 62
7
  6
CONTINUOUS
 10
13.8104323692
 20
10.8724925936
 11
13.8107014471
 21
10.874874723
  0
LINE
  5
281
100
AcDbEntity
  8
0
100
AcDbLine
 62
7
  6
CONTINUOUS
 10
14.4051829476
 20
14.1551600582
 11
13.436917654
 21
11.0218524197
  0
LINE
  5
282
100
AcDbEntity
  8
0
100
AcDbLine
 62
7
  6
CONTINUOUS
 10
16.504050764
 20
11.0218524197
 11
13.436917654
 21
11.0218524197
  0
LINE
  5
283
100
AcDbEntity
  8
0
100
AcDbLine
 62
7
  6
CONTINUOUS
 10
14.8255080807
 20
10.970051589
 11
14.9113490549
 21
10.874874723
  0
LINE
  5
284
100
AcDbEntity
  8
0
100
AcDbLine
 62
7
  6
CONTINUOUS
 10
14.9959043645
 20
10.970051589
 11
15.0817453388
 21
10.874874723
  0
LINE
  5
285
100
AcDbEntity
  8
0
100
AcDbLine
 62
7
  6
CONTINUOUS
 10
14.3218902988
 20
10.874874723
 11
14.314319229
 21
10.970051589
  0
LINE
  5
286
100
AcDbEntity
  8
0
100
AcDbLine
 62
7
  6
CONTINUOUS
 10
13.9808286531
 20
10.8724925936
 11
13.981097731
 21
10.874874723
  0
LINE
  5
287
100
AcDbEntity
  8
0
100
AcDbLine
 62
7
  6
CONTINUOUS
 10
13.6407477056
 20
10.874737967
 11
13.6606402847
 21
10.9391103765
  0
LINE
  5
288
100
AcDbEntity
  8
0
100
AcDbLine
 62
7
  6
CONTINUOUS
 10
15.1663006484
 20
10.970051589
 11
15.2521416227
 21
10.874874723
  0
LINE
  5
289
100
AcDbEntity
  8
0
100
AcDbLine
 62
7
  6
CONTINUOUS
 10
14.4922865827
 20
10.874874723
 11
14.4847155129
 21
10.970051589
  0
LINE
  5
28A
100
AcDbEntity
  8
0
100
AcDbLine
 62
7
  6
CONTINUOUS
 10
14.151224937
 20
10.8724925936
 11
14.1514940149
 21
10.874874723
  0
LINE
  5
28B
100
AcDbEntity
  8
0
100
AcDbLine
 62
7
  6
CONTINUOUS
 10
13.8111439895
 20
10.874737967
 11
13.8310365686
 21
10.9391103765
  0
LINE
  5
28C
100
AcDbEntity
  8
0
100
AcDbLine
 62
7
  6
CONTINUOUS
 10
15.3366969323
 20
10.970051589
 11
15.4225379066
 21
10.874874723
  0
LINE
  5
28D
100
AcDbEntity
  8
0
100
AcDbLine
 62
7
  6
CONTINUOUS
 10
14.6626828665
 20
10.874874723
 11
14.6551117968
 21
10.970051589
  0
LINE
  5
28E
100
AcDbEntity
  8
0
100
AcDbLine
 62
7
  6
CONTINUOUS
 10
14.3216212209
 20
10.8724925936
 11
14.3218902988
 21
10.874874723
  0
LINE
  5
28F
100
AcDbEntity
  8
0
100
AcDbLine
 62
7
  6
CONTINUOUS
 10
13.9815402734
 20
10.874737967
 11
14.0014328525
 21
10.9391103765
  0
LINE
  5
290
100
AcDbEntity
  8
0
100
AcDbLine
 62
7
  6
CONTINUOUS
 10
15.5070932162
 20
10.970051589
 11
15.5929341905
 21
10.874874723
  0
LINE
  5
291
100
AcDbEntity
  8
0
100
AcDbLine
 62
7
  6
CONTINUOUS
 10
15.6774895001
 20
10.970051589
 11
15.7633304744
 21
10.874874723
  0
LINE
  5
292
100
AcDbEntity
  8
0
100
AcDbLine
 62
7
  6
CONTINUOUS
 10
14.8330791504
 20
10.874874723
 11
14.8255080807
 21
10.970051589
  0
LINE
  5
293
100
AcDbEntity
  8
0
100
AcDbLine
 62
7
  6
CONTINUOUS
 10
14.4920175048
 20
10.8724925936
 11
14.4922865827
 21
10.874874723
  0
LINE
  5
294
100
AcDbEntity
  8
0
100
AcDbLine
 62
7
  6
CONTINUOUS
 10
14.1519365573
 20
10.874737967
 11
14.1718291364
 21
10.9391103765
  0
LINE
  5
295
100
AcDbEntity
  8
0
100
AcDbLine
 62
7
  6
CONTINUOUS
 10
15.847885784
 20
10.970051589
 11
15.9337267583
 21
10.874874723
  0
LINE
  5
296
100
AcDbEntity
  8
0
100
AcDbLine
 62
7
  6
CONTINUOUS
 10
15.0034754343
 20
10.874874723
 11
14.9959043645
 21
10.970051589
  0
LINE
  5
297
100
AcDbEntity
  8
0
100
AcDbLine
 62
7
  6
CONTINUOUS
 10
14.6624137887
 20
10.8724925936
 11
14.6626828665
 21
10.874874723
  0
LINE
  5
298
100
AcDbEntity
  8
0
100
AcDbLine
 62
7
  6
CONTINUOUS
 10
14.3223328412
 20
10.874737967
 11
14.3422254202
 21
10.9391103765
  0
LINE
  5
299
100
AcDbEntity
  8
0
100
AcDbLine
 62
7
  6
CONTINUOUS
 10
16.0182820679
 20
10.970051589
 11
16.1041230422
 21
10.874874723
  0
LINE
  5
29A
100
AcDbEntity
  8
0
100
AcDbLine
 62
7
  6
CONTINUOUS
 10
15.1738717182
 20
10.874874723
 11
15.1663006484
 21
10.970051589
  0
LINE
  5
29B
100
AcDbEntity
  8
0
100
AcDbLine
 62
7
  6
CONTINUOUS
 10
14.8328100726
 20
10.8724925936
 11
14.8330791504
 21
10.874874723
  0
LINE
  5
29C
100
AcDbEntity
  8
0
100
AcDbLine
 62
7
  6
CONTINUOUS
 10
14.4927291251
 20
10.874737967
 11
14.5126217041
 21
10.9391103765
  0
LINE
  5
29D
100
AcDbEntity
  8
0
100
AcDbLine
 62
7
  6
CONTINUOUS
 10
16.1886783518
 20
10.970051589
 11
16.2745193261
 21
10.874874723
  0
LINE
  5
29E
100
AcDbEntity
  8
0
100
AcDbLine
 62
7
  6
CONTINUOUS
 10
16.3590746357
 20
10.970051589
 11
16.4449156099
 21
10.874874723
  0
LINE
  5
29F
100
AcDbEntity
  8
0
100
AcDbLine
 62
7
  6
CONTINUOUS
 10
15.3442680021
 20
10.874874723
 11
15.3366969323
 21
10.970051589
  0
LINE
  5
2A0
100
AcDbEntity
  8
0
100
AcDbLine
 62
7
  6
CONTINUOUS
 10
15.0032063565
 20
10.8724925936
 11
15.0034754343
 21
10.874874723
  0
LINE
  5
2A1
100
AcDbEntity
  8
0
100
AcDbLine
 62
7
  6
CONTINUOUS
 10
14.663125409
 20
10.874737967
 11
14.683017988
 21
10.9391103765
  0
LINE
  5
2A2
100
AcDbEntity
  8
0
100
AcDbLine
 62
7
  6
CONTINUOUS
 10
15.514664286
 20
10.874874723
 11
15.5070932162
 21
10.970051589
  0
LINE
  5
2A3
100
AcDbEntity
  8
0
100
AcDbLine
 62
7
  6
CONTINUOUS
 10
15.1736026404
 20
10.8724925936
 11
15.1738717182
 21
10.874874723
  0
LINE
  5
2A4
100
AcDbEntity
  8
0
100
AcDbLine
 62
7
  6
CONTINUOUS
 10
14.8335216929
 20
10.874737967
 11
14.8534142719
 21
10.9391103765
  0
LINE
  5
2A5
100
AcDbEntity
  8
0
100
AcDbLine
 62
7
  6
CONTINUOUS
 10
15.6850605699
 20
10.874874723
 11
15.6774895001
 21
10.970051589
  0
LINE
  5
2A6
100
AcDbEntity
  8
0
100
AcDbLine
 62
7
  6
CONTINUOUS
 10
15.3439989242
 20
10.8724925936
 11
15.3442680021
 21
10.874874723
  0
LINE
  5
2A7
100
AcDbEntity
  8
0
100
AcDbLine
 62
7
  6
CONTINUOUS
 10
15.0039179767
 20
10.874737967
 11
15.0238105558
 21
10.9391103765
  0
LINE
  5
2A8
100
AcDbEntity
  8
0
100
AcDbLine
 62
7
  6
CONTINUOUS
 10
15.8554568538
 20
10.874874723
 11
15.847885784
 21
10.970051589
  0
LINE
  5
2A9
100
AcDbEntity
  8
0
100
AcDbLine
 62
7
  6
CONTINUOUS
 10
15.5143952081
 20
10.8724925936
 11
15.514664286
 21
10.874874723
  0
LINE
  5
2AA
100
AcDbEntity
  8
0
100
AcDbLine
 62
7
  6
CONTINUOUS
 10
15.1743142606
 20
10.874737967
 11
15.1942068397
 21
10.9391103765
  0
LINE
  5
2AB
100
AcDbEntity
  8
0
100
AcDbLine
 62
7
  6
CONTINUOUS
 10
15.3447105445
 20
10.874737967
 11
15.3646031236
 21
10.9391103765
  0
LINE
  5
2AC
100
AcDbEntity
  8
0
100
AcDbLine
 62
7
  6
CONTINUOUS
 10
16.5294709196
 20
10.970051589
 11
16.504050764
 21
11.0218524197
  0
LINE
  5
2AD
100
AcDbEntity
  8
0
100
AcDbLine
 62
7
  6
CONTINUOUS
 10
16.0258531377
 20
10.874874723
 11
16.0182820679
 21
10.970051589
  0
LINE
  5
2AE
100
AcDbEntity
  8
0
100
AcDbLine
 62
7
  6
CONTINUOUS
 10
15.684791492
 20
10.8724925936
 11
15.6850605699
 21
10.874874723
  0
LINE
  5
2AF
100
AcDbEntity
  8
0
100
AcDbLine
 62
7
  6
CONTINUOUS
 10
15.5151068284
 20
10.874737967
 11
15.5349994075
 21
10.9391103765
  0
LINE
  5
2B0
100
AcDbEntity
  8
0
100
AcDbLine
 62
7
  6
CONTINUOUS
 10
16.1962494216
 20
10.874874723
 11
16.1886783518
 21
10.970051589
  0
LINE
  5
2B1
100
AcDbEntity
  8
0
100
AcDbLine
 62
7
  6
CONTINUOUS
 10
15.8551877759
 20
10.8724925936
 11
15.8554568538
 21
10.874874723
  0
LINE
  5
2B2
100
AcDbEntity
  8
0
100
AcDbLine
 62
7
  6
CONTINUOUS
 10
15.6855031123
 20
10.874737967
 11
15.7053956914
 21
10.9391103765
  0
LINE
  5
2B3
100
AcDbEntity
  8
0
100
AcDbLine
 62
7
  6
CONTINUOUS
 10
16.3666457055
 20
10.874874723
 11
16.3590746357
 21
10.970051589
  0
LINE
  5
2B4
100
AcDbEntity
  8
0
100
AcDbLine
 62
7
  6
CONTINUOUS
 10
16.0255840598
 20
10.8724925936
 11
16.0258531377
 21
10.874874723
  0
LINE
  5
2B5
100
AcDbEntity
  8
0
100
AcDbLine
 62
7
  6
CONTINUOUS
 10
15.8558993962
 20
10.874737967
 11
15.8757919753
 21
10.9391103765
  0
LINE
  5
2B6
100
AcDbEntity
  8
0
100
AcDbLine
 62
7
  6
CONTINUOUS
 10
16.5370419893
 20
10.874874723
 11
16.5294709196
 21
10.970051589
  0
LINE
  5
2B7
100
AcDbEntity
  8
0
100
AcDbLine
 62
7
  6
CONTINUOUS
 10
16.1959803437
 20
10.8724925936
 11
16.1962494216
 21
10.874874723
  0
LINE
  5
2B8
100
AcDbEntity
  8
0
100
AcDbLine
 62
7
  6
CONTINUOUS
 10
16.0262956801
 20
10.874737967
 11
16.0461882592
 21
10.9391103765
  0
LINE
  5
2B9
100
AcDbEntity
  8
0
100
AcDbLine
 62
7
  6
CONTINUOUS
 10
16.3663766276
 20
10.8724925936
 11
16.3666457055
 21
10.874874723
  0
LINE
  5
2BA
100
AcDbEntity
  8
0
100
AcDbLine
 62
7
  6
CONTINUOUS
 10
16.5367729115
 20
10.8724925936
 11
16.5370419893
 21
10.874874723
  0
LINE
  5
2BB
100
AcDbEntity
  8
0
100
AcDbLine
 62
7
  6
CONTINUOUS
 10
16.196691964
 20
10.874737967
 11
16.216584543
 21
10.9391103765
  0
LINE
  5
2BC
100
AcDbEntity
  8
0
100
AcDbLine
 62
7
  6
CONTINUOUS
 10
16.3670882479
 20
10.874737967
 11
16.3869808269
 21
10.9391103765
  0
LINE
  5
2BD
100
AcDbEntity
  8
0
100
AcDbLine
 62
7
  6
CONTINUOUS
 10
17.4723160576
 20
14.1551600582
 11
16.504050764
 21
11.0218524197
  0
LINE
  5
2BE
100
AcDbEntity
  8
0
100
AcDbLine
 62
7
  6
CONTINUOUS
 10
17.4977362132
 20
14.1033592275
 11
16.5294709196
 21
10.970051589
  0
LINE
  5
2BF
100
AcDbEntity
  8
0
100
AcDbLine
 62
7
  6
CONTINUOUS
 10
16.5374845318
 20
10.874737967
 11
17.5050544204
 21
14.0057952742
  0
LINE
  5
2C0
100
AcDbEntity
  8
0
100
AcDbLine
 62
7
  6
CONTINUOUS
 10
14.4051829476
 20
14.1551600582
 11
17.4723160576
 21
14.1551600582
  0
LINE
  5
2C1
100
AcDbEntity
  8
0
100
AcDbLine
 62
7
  6
CONTINUOUS
 10
17.505307283
 20
14.0081823615
 11
17.5050382051
 21
14.0058002321
  0
LINE
  5
2C2
100
AcDbEntity
  8
0
100
AcDbLine
 62
7
  6
CONTINUOUS
 10
17.505307283
 20
14.0081823615
 11
17.4977362132
 21
14.1033592275
  0
LINE
  5
2C3
100
AcDbEntity
  8
0
100
AcDbLine
 62
7
  6
CONTINUOUS
 10
17.4977362132
 20
14.1033592275
 11
17.4723160576
 21
14.1551600582
  0
ARC
  5
2C4
100
AcDbEntity
  8
0
100
AcDbCircle
 62
7
  6
CONTINUOUS
 10
4.5256826248
 20
5.4136198968
 40
0.0185
100
AcDbArc
 50
195.5093345227
 51
270.0
  0
ARC
  5
2C5
100
AcDbEntity
  8
0
100
AcDbCircle
 62
7
  6
CONTINUOUS
 10
4.5900519275
 20
5.4136198968
 40
0.0185
100
AcDbArc
 50
270.0
 51
344.4906654773
  0
ARC
  5
2C6
100
AcDbEntity
  8
0
100
AcDbCircle
 62
7
  6
CONTINUOUS
 10
4.7106826248
 20
5.4136198968
 40
0.0185
100
AcDbArc
 50
195.5093345227
 51
270.0
  0
ARC
  5
2C7
100
AcDbEntity
  8
0
100
AcDbCircle
 62
7
  6
CONTINUOUS
 10
4.7750519275
 20
5.4136198968
 40
0.0185
100
AcDbArc
 50
270.0
 51
344.4906654773
  0
ARC
  5
2C8
100
AcDbEntity
  8
0
100
AcDbCircle
 62
7
  6
CONTINUOUS
 10
4.8956826248
 20
5.4136198968
 40
0.0185
100
AcDbArc
 50
195.5093345227
 51
270.0
  0
ARC
  5
2C9
100
AcDbEntity
  8
0
100
AcDbCircle
 62
7
  6
CONTINUOUS
 10
4.9600519275
 20
5.4136198968
 40
0.0185
100
AcDbArc
 50
270.0
 51
344.4906654773
  0
ARC
  5
2CA
100
AcDbEntity
  8
0
100
AcDbCircle
 62
7
  6
CONTINUOUS
 10
5.0806826248
 20
5.4136198968
 40
0.0185
100
AcDbArc
 50
195.5093345227
 51
270.0
  0
ARC
  5
2CB
100
AcDbEntity
  8
0
100
AcDbCircle
 62
7
  6
CONTINUOUS
 10
5.1450519275
 20
5.4136198968
 40
0.0185
100
AcDbArc
 50
270.0
 51
344.4906654773
  0
ARC
  5
2CC
100
AcDbEntity
  8
0
100
AcDbCircle
 62
7
  6
CONTINUOUS
 10
5.2656826248
 20
5.4136198968
 40
0.0185
100
AcDbArc
 50
195.5093345227
 51
270.0
  0
ARC
  5
2CD
100
AcDbEntity
  8
0
100
AcDbCircle
 62
7
  6
CONTINUOUS
 10
5.3300519275
 20
5.4136198968
 40
0.0185
100
AcDbArc
 50
270.0
 51
344.4906654773
  0
ARC
  5
2CE
100
AcDbEntity
  8
0
100
AcDbCircle
 62
7
  6
CONTINUOUS
 10
5.4506826248
 20
5.4136198968
 40
0.0185
100
AcDbArc
 50
195.5093345227
 51
270.0
  0
ARC
  5
2CF
100
AcDbEntity
  8
0
100
AcDbCircle
 62
7
  6
CONTINUOUS
 10
5.5150519275
 20
5.4136198968
 40
0.0185
100
AcDbArc
 50
270.0
 51
344.4906654773
  0
ARC
  5
2D0
100
AcDbEntity
  8
0
100
AcDbCircle
 62
7
  6
CONTINUOUS
 10
5.6356826248
 20
5.4136198968
 40
0.0185
100
AcDbArc
 50
195.5093345227
 51
270.0
  0
ARC
  5
2D1
100
AcDbEntity
  8
0
100
AcDbCircle
 62
7
  6
CONTINUOUS
 10
5.7000519275
 20
5.4136198968
 40
0.0185
100
AcDbArc
 50
270.0
 51
344.4906654773
  0
ARC
  5
2D2
100
AcDbEntity
  8
0
100
AcDbCircle
 62
7
  6
CONTINUOUS
 10
5.8206826248
 20
5.4136198968
 40
0.0185
100
AcDbArc
 50
195.5093345227
 51
270.0
  0
ARC
  5
2D3
100
AcDbEntity
  8
0
100
AcDbCircle
 62
7
  6
CONTINUOUS
 10
5.8850519275
 20
5.4136198968
 40
0.0185
100
AcDbArc
 50
270.0
 51
344.4906654773
  0
ARC
  5
2D4
100
AcDbEntity
  8
0
100
AcDbCircle
 62
7
  6
CONTINUOUS
 10
6.0056826248
 20
5.4136198968
 40
0.0185
100
AcDbArc
 50
195.5093345227
 51
270.0
  0
ARC
  5
2D5
100
AcDbEntity
  8
0
100
AcDbCircle
 62
7
  6
CONTINUOUS
 10
6.0700519275
 20
5.4136198968
 40
0.0185
100
AcDbArc
 50
270.0
 51
344.4906654773
  0
ARC
  5
2D6
100
AcDbEntity
  8
0
100
AcDbCircle
 62
7
  6
CONTINUOUS
 10
6.1906826248
 20
5.4136198968
 40
0.0185
100
AcDbArc
 50
195.5093345227
 51
270.0
  0
ARC
  5
2D7
100
AcDbEntity
  8
0
100
AcDbCircle
 62
7
  6
CONTINUOUS
 10
6.2550519275
 20
5.4136198968
 40
0.0185
100
AcDbArc
 50
270.0
 51
344.4906654773
  0
ARC
  5
2D8
100
AcDbEntity
  8
0
100
AcDbCircle
 62
7
  6
CONTINUOUS
 10
6.3756826248
 20
5.4136198968
 40
0.0185
100
AcDbArc
 50
195.5093345227
 51
270.0
  0
ARC
  5
2D9
100
AcDbEntity
  8
0
100
AcDbCircle
 62
7
  6
CONTINUOUS
 10
6.4400519275
 20
5.4136198968
 40
0.0185
100
AcDbArc
 50
270.0
 51
344.4906654773
  0
ARC
  5
2DA
100
AcDbEntity
  8
0
100
AcDbCircle
 62
7
  6
CONTINUOUS
 10
6.5606826248
 20
5.4136198968
 40
0.0185
100
AcDbArc
 50
195.5093345227
 51
270.0
  0
ARC
  5
2DB
100
AcDbEntity
  8
0
100
AcDbCircle
 62
7
  6
CONTINUOUS
 10
6.6250519275
 20
5.4136198968
 40
0.0185
100
AcDbArc
 50
270.0
 51
344.4906654773
  0
ARC
  5
2DC
100
AcDbEntity
  8
0
100
AcDbCircle
 62
7
  6
CONTINUOUS
 10
6.7456826248
 20
5.4136198968
 40
0.0185
100
AcDbArc
 50
195.5093345227
 51
270.0
  0
ARC
  5
2DD
100
AcDbEntity
  8
0
100
AcDbCircle
 62
7
  6
CONTINUOUS
 10
6.8100519275
 20
5.4136198968
 40
0.0185
100
AcDbArc
 50
270.0
 51
344.4906654773
  0
ARC
  5
2DE
100
AcDbEntity
  8
0
100
AcDbCircle
 62
7
  6
CONTINUOUS
 10
6.9306826248
 20
5.4136198968
 40
0.0185
100
AcDbArc
 50
195.5093345227
 51
270.0
  0
ARC
  5
2DF
100
AcDbEntity
  8
0
100
AcDbCircle
 62
7
  6
CONTINUOUS
 10
6.9950519275
 20
5.4136198968
 40
0.0185
100
AcDbArc
 50
270.0
 51
344.4906654773
  0
ARC
  5
2E0
100
AcDbEntity
  8
0
100
AcDbCircle
 62
7
  6
CONTINUOUS
 10
7.1156826248
 20
5.4136198968
 40
0.0185
100
AcDbArc
 50
195.5093345227
 51
270.0
  0
ARC
  5
2E1
100
AcDbEntity
  8
0
100
AcDbCircle
 62
7
  6
CONTINUOUS
 10
7.1800519275
 20
5.4136198968
 40
0.0185
100
AcDbArc
 50
270.0
 51
344.4906654773
  0
ARC
  5
2E2
100
AcDbEntity
  8
0
100
AcDbCircle
 62
7
  6
CONTINUOUS
 10
7.3006826248
 20
5.4136198968
 40
0.0185
100
AcDbArc
 50
195.5093345227
 51
270.0
  0
ARC
  5
2E3
100
AcDbEntity
  8
0
100
AcDbCircle
 62
7
  6
CONTINUOUS
 10
7.3650519275
 20
5.4136198968
 40
0.0185
100
AcDbArc
 50
270.0
 51
344.4906654773
  0
ARC
  5
2E4
100
AcDbEntity
  8
0
100
AcDbCircle
 62
7
  6
CONTINUOUS
 10
7.4856826248
 20
5.4136198968
 40
0.0185
100
AcDbArc
 50
195.5093345227
 51
270.0
  0
ARC
  5
2E5
100
AcDbEntity
  8
0
100
AcDbCircle
 62
7
  6
CONTINUOUS
 10
7.5500519275
 20
5.4136198968
 40
0.0185
100
AcDbArc
 50
270.0
 51
344.4906654773
  0
ARC
  5
2E6
100
AcDbEntity
  8
0
100
AcDbCircle
 62
7
  6
CONTINUOUS
 10
7.6706826248
 20
5.4136198968
 40
0.0185
100
AcDbArc
 50
195.5093345227
 51
270.0
  0
ARC
  5
2E7
100
AcDbEntity
  8
0
100
AcDbCircle
 62
7
  6
CONTINUOUS
 10
7.7350519275
 20
5.4136198968
 40
0.0185
100
AcDbArc
 50
270.0
 51
344.4906654773
  0
SPLINE
  5
2E8
100
AcDbEntity
  8
0
100
AcDbSpline
 62
7
  6
CONTINUOUS
 70
0
 71
3
 72
13
 73
9
 74
0
 42
0.0000001
 43
0.0000001
 44
0.0000000001
 40
0.0
 40
0.0
 40
0.0
 40
0.0
 40
0.302496492
 40
0.568565047
 40
0.6868964672
 40
0.7966683111
 40
0.9000488118
 40
1.0
 40
1.0
 40
1.0
 40
1.0
 10
16.5247571157
 20
10.8664499276
 30
0.0
 10
16.5262022298
 20
10.8664499276
 30
0.0
 10
16.5289254502
 20
10.8666843392
 30
0.0
 10
16.5320987801
 20
10.8676721847
 30
0.0
 10
16.534135395
 20
10.8688866
 30
0.0
 10
16.5353382587
 20
10.8699319265
 30
0.0
 10
16.5362464957
 20
10.8711350223
 30
0.0
 10
16.5366438038
 20
10.872032714
 30
0.0
 10
16.536784929
 20
10.8724888786
 30
0.0
  0
SPLINE
  5
2E9
100
AcDbEntity
  8
0
100
AcDbSpline
 62
7
  6
CONTINUOUS
 70
0
 71
3
 72
13
 73
9
 74
0
 42
0.0000001
 43
0.0000001
 44
0.0000000001
 40
0.0
 40
0.0
 40
0.0
 40
0.0
 40
0.1104083901
 40
0.2292605034
 40
0.4835082527
 40
0.7465552496
 40
0.8758891479
 40
1.0
 40
1.0
 40
1.0
 40
1.0
 10
16.4449156099
 20
10.874874723
 30
0.0
 10
16.4454769054
 20
10.8742523821
 30
0.0
 10
16.4467409766
 20
10.873047398
 30
0.0
 10
16.4496845396
 20
10.870844641
 30
0.0
 10
16.4539993302
 20
10.8685997552
 30
0.0
 10
16.4587237227
 20
10.8671649215
 30
0.0
 10
16.4626020467
 20
10.8665601767
 30
0.0
 10
16.4645269817
 20
10.8664499276
 30
0.0
 10
16.4654690618
 20
10.8664499276
 30
0.0
  0
SPLINE
  5
2EA
100
AcDbEntity
  8
0
100
AcDbSpline
 62
7
  6
CONTINUOUS
 70
0
 71
3
 72
13
 73
9
 74
0
 42
0.0000001
 43
0.0000001
 44
0.0000000001
 40
0.0
 40
0.0
 40
0.0
 40
0.0
 40
0.302496492
 40
0.568565047
 40
0.6868964672
 40
0.7966683111
 40
0.9000488118
 40
1.0
 40
1.0
 40
1.0
 40
1.0
 10
16.3543608318
 20
10.8664499276
 30
0.0
 10
16.3558059459
 20
10.8664499276
 30
0.0
 10
16.3585291663
 20
10.8666843392
 30
0.0
 10
16.3617024963
 20
10.8676721847
 30
0.0
 10
16.3637391111
 20
10.8688866
 30
0.0
 10
16.3649419748
 20
10.8699319265
 30
0.0
 10
16.3658502118
 20
10.8711350223
 30
0.0
 10
16.3662475199
 20
10.872032714
 30
0.0
 10
16.3663886451
 20
10.8724888786
 30
0.0
  0
SPLINE
  5
2EB
100
AcDbEntity
  8
0
100
AcDbSpline
 62
7
  6
CONTINUOUS
 70
0
 71
3
 72
13
 73
9
 74
0
 42
0.0000001
 43
0.0000001
 44
0.0000000001
 40
0.0
 40
0.0
 40
0.0
 40
0.0
 40
0.1104083901
 40
0.2292605034
 40
0.4835082527
 40
0.7465552496
 40
0.8758891479
 40
1.0
 40
1.0
 40
1.0
 40
1.0
 10
16.2745193261
 20
10.874874723
 30
0.0
 10
16.2750806216
 20
10.8742523821
 30
0.0
 10
16.2763446928
 20
10.873047398
 30
0.0
 10
16.2792882557
 20
10.870844641
 30
0.0
 10
16.2836030463
 20
10.8685997552
 30
0.0
 10
16.2883274388
 20
10.8671649215
 30
0.0
 10
16.2922057628
 20
10.8665601767
 30
0.0
 10
16.2941306978
 20
10.8664499276
 30
0.0
 10
16.2950727779
 20
10.8664499276
 30
0.0
  0
SPLINE
  5
2EC
100
AcDbEntity
  8
0
100
AcDbSpline
 62
7
  6
CONTINUOUS
 70
0
 71
3
 72
13
 73
9
 74
0
 42
0.0000001
 43
0.0000001
 44
0.0000000001
 40
0.0
 40
0.0
 40
0.0
 40
0.0
 40
0.302496492
 40
0.568565047
 40
0.6868964672
 40
0.7966683111
 40
0.9000488118
 40
1.0
 40
1.0
 40
1.0
 40
1.0
 10
16.1839645479
 20
10.8664499276
 30
0.0
 10
16.185409662
 20
10.8664499276
 30
0.0
 10
16.1881328824
 20
10.8666843392
 30
0.0
 10
16.1913062124
 20
10.8676721847
 30
0.0
 10
16.1933428272
 20
10.8688866
 30
0.0
 10
16.1945456909
 20
10.8699319265
 30
0.0
 10
16.1954539279
 20
10.8711350223
 30
0.0
 10
16.195851236
 20
10.872032714
 30
0.0
 10
16.1959923612
 20
10.8724888786
 30
0.0
  0
SPLINE
  5
2ED
100
AcDbEntity
  8
0
100
AcDbSpline
 62
7
  6
CONTINUOUS
 70
0
 71
3
 72
13
 73
9
 74
0
 42
0.0000001
 43
0.0000001
 44
0.0000000001
 40
0.0
 40
0.0
 40
0.0
 40
0.0
 40
0.1104083901
 40
0.2292605034
 40
0.4835082527
 40
0.7465552496
 40
0.8758891479
 40
1.0
 40
1.0
 40
1.0
 40
1.0
 10
16.1041230422
 20
10.874874723
 30
0.0
 10
16.1046843377
 20
10.8742523821
 30
0.0
 10
16.1059484089
 20
10.873047398
 30
0.0
 10
16.1088919718
 20
10.870844641
 30
0.0
 10
16.1132067624
 20
10.8685997552
 30
0.0
 10
16.1179311549
 20
10.8671649215
 30
0.0
 10
16.1218094789
 20
10.8665601767
 30
0.0
 10
16.1237344139
 20
10.8664499276
 30
0.0
 10
16.124676494
 20
10.8664499276
 30
0.0
  0
SPLINE
  5
2EE
100
AcDbEntity
  8
0
100
AcDbSpline
 62
7
  6
CONTINUOUS
 70
0
 71
3
 72
13
 73
9
 74
0
 42
0.0000001
 43
0.0000001
 44
0.0000000001
 40
0.0
 40
0.0
 40
0.0
 40
0.0
 40
0.302496492
 40
0.568565047
 40
0.6868964672
 40
0.7966683111
 40
0.9000488118
 40
1.0
 40
1.0
 40
1.0
 40
1.0
 10
16.013568264
 20
10.8664499276
 30
0.0
 10
16.0150133781
 20
10.8664499276
 30
0.0
 10
16.0177365985
 20
10.8666843392
 30
0.0
 10
16.0209099285
 20
10.8676721847
 30
0.0
 10
16.0229465433
 20
10.8688866
 30
0.0
 10
16.024149407
 20
10.8699319265
 30
0.0
 10
16.025057644
 20
10.8711350223
 30
0.0
 10
16.0254549521
 20
10.872032714
 30
0.0
 10
16.0255960773
 20
10.8724888786
 30
0.0
  0
SPLINE
  5
2EF
100
AcDbEntity
  8
0
100
AcDbSpline
 62
7
  6
CONTINUOUS
 70
0
 71
3
 72
13
 73
9
 74
0
 42
0.0000001
 43
0.0000001
 44
0.0000000001
 40
0.0
 40
0.0
 40
0.0
 40
0.0
 40
0.1104083901
 40
0.2292605034
 40
0.4835082527
 40
0.7465552496
 40
0.8758891479
 40
1.0
 40
1.0
 40
1.0
 40
1.0
 10
15.9337267583
 20
10.874874723
 30
0.0
 10
15.9342880538
 20
10.8742523821
 30
0.0
 10
15.935552125
 20
10.873047398
 30
0.0
 10
15.9384956879
 20
10.870844641
 30
0.0
 10
15.9428104785
 20
10.8685997552
 30
0.0
 10
15.947534871
 20
10.8671649215
 30
0.0
 10
15.951413195
 20
10.8665601767
 30
0.0
 10
15.95333813
 20
10.8664499276
 30
0.0
 10
15.9542802101
 20
10.8664499276
 30
0.0
  0
SPLINE
  5
2F0
100
AcDbEntity
  8
0
100
AcDbSpline
 62
7
  6
CONTINUOUS
 70
0
 71
3
 72
13
 73
9
 74
0
 42
0.0000001
 43
0.0000001
 44
0.0000000001
 40
0.0
 40
0.0
 40
0.0
 40
0.0
 40
0.302496492
 40
0.568565047
 40
0.6868964672
 40
0.7966683111
 40
0.9000488118
 40
1.0
 40
1.0
 40
1.0
 40
1.0
 10
15.8431719801
 20
10.8664499276
 30
0.0
 10
15.8446170942
 20
10.8664499276
 30
0.0
 10
15.8473403147
 20
10.8666843392
 30
0.0
 10
15.8505136446
 20
10.8676721847
 30
0.0
 10
15.8525502594
 20
10.8688866
 30
0.0
 10
15.8537531231
 20
10.8699319265
 30
0.0
 10
15.8546613601
 20
10.8711350223
 30
0.0
 10
15.8550586682
 20
10.872032714
 30
0.0
 10
15.8551997934
 20
10.8724888786
 30
0.0
  0
SPLINE
  5
2F1
100
AcDbEntity
  8
0
100
AcDbSpline
 62
7
  6
CONTINUOUS
 70
0
 71
3
 72
13
 73
9
 74
0
 42
0.0000001
 43
0.0000001
 44
0.0000000001
 40
0.0
 40
0.0
 40
0.0
 40
0.0
 40
0.1104083901
 40
0.2292605034
 40
0.4835082527
 40
0.7465552496
 40
0.8758891479
 40
1.0
 40
1.0
 40
1.0
 40
1.0
 10
15.7633304744
 20
10.874874723
 30
0.0
 10
15.7638917699
 20
10.8742523821
 30
0.0
 10
15.7651558411
 20
10.873047398
 30
0.0
 10
15.768099404
 20
10.870844641
 30
0.0
 10
15.7724141947
 20
10.8685997552
 30
0.0
 10
15.7771385872
 20
10.8671649215
 30
0.0
 10
15.7810169111
 20
10.8665601767
 30
0.0
 10
15.7829418461
 20
10.8664499276
 30
0.0
 10
15.7838839262
 20
10.8664499276
 30
0.0
  0
SPLINE
  5
2F2
100
AcDbEntity
  8
0
100
AcDbSpline
 62
7
  6
CONTINUOUS
 70
0
 71
3
 72
13
 73
9
 74
0
 42
0.0000001
 43
0.0000001
 44
0.0000000001
 40
0.0
 40
0.0
 40
0.0
 40
0.0
 40
0.302496492
 40
0.568565047
 40
0.6868964672
 40
0.7966683111
 40
0.9000488118
 40
1.0
 40
1.0
 40
1.0
 40
1.0
 10
15.6727756962
 20
10.8664499276
 30
0.0
 10
15.6742208103
 20
10.8664499276
 30
0.0
 10
15.6769440308
 20
10.8666843392
 30
0.0
 10
15.6801173607
 20
10.8676721847
 30
0.0
 10
15.6821539755
 20
10.8688866
 30
0.0
 10
15.6833568392
 20
10.8699319265
 30
0.0
 10
15.6842650762
 20
10.8711350223
 30
0.0
 10
15.6846623843
 20
10.872032714
 30
0.0
 10
15.6848035095
 20
10.8724888786
 30
0.0
  0
SPLINE
  5
2F3
100
AcDbEntity
  8
0
100
AcDbSpline
 62
7
  6
CONTINUOUS
 70
0
 71
3
 72
13
 73
9
 74
0
 42
0.0000001
 43
0.0000001
 44
0.0000000001
 40
0.0
 40
0.0
 40
0.0
 40
0.0
 40
0.1104083901
 40
0.2292605034
 40
0.4835082527
 40
0.7465552496
 40
0.8758891479
 40
1.0
 40
1.0
 40
1.0
 40
1.0
 10
15.5929341905
 20
10.874874723
 30
0.0
 10
15.593495486
 20
10.8742523821
 30
0.0
 10
15.5947595572
 20
10.873047398
 30
0.0
 10
15.5977031202
 20
10.870844641
 30
0.0
 10
15.6020179108
 20
10.8685997552
 30
0.0
 10
15.6067423033
 20
10.8671649215
 30
0.0
 10
15.6106206272
 20
10.8665601767
 30
0.0
 10
15.6125455622
 20
10.8664499276
 30
0.0
 10
15.6134876423
 20
10.8664499276
 30
0.0
  0
SPLINE
  5
2F4
100
AcDbEntity
  8
0
100
AcDbSpline
 62
7
  6
CONTINUOUS
 70
0
 71
3
 72
13
 73
9
 74
0
 42
0.0000001
 43
0.0000001
 44
0.0000000001
 40
0.0
 40
0.0
 40
0.0
 40
0.0
 40
0.302496492
 40
0.568565047
 40
0.6868964672
 40
0.7966683111
 40
0.9000488118
 40
1.0
 40
1.0
 40
1.0
 40
1.0
 10
15.5023794123
 20
10.8664499276
 30
0.0
 10
15.5038245264
 20
10.8664499276
 30
0.0
 10
15.5065477469
 20
10.8666843392
 30
0.0
 10
15.5097210768
 20
10.8676721847
 30
0.0
 10
15.5117576916
 20
10.8688866
 30
0.0
 10
15.5129605553
 20
10.8699319265
 30
0.0
 10
15.5138687923
 20
10.8711350223
 30
0.0
 10
15.5142661004
 20
10.872032714
 30
0.0
 10
15.5144072256
 20
10.8724888786
 30
0.0
  0
SPLINE
  5
2F5
100
AcDbEntity
  8
0
100
AcDbSpline
 62
7
  6
CONTINUOUS
 70
0
 71
3
 72
13
 73
9
 74
0
 42
0.0000001
 43
0.0000001
 44
0.0000000001
 40
0.0
 40
0.0
 40
0.0
 40
0.0
 40
0.1104083901
 40
0.2292605034
 40
0.4835082527
 40
0.7465552496
 40
0.8758891479
 40
1.0
 40
1.0
 40
1.0
 40
1.0
 10
15.4225379066
 20
10.874874723
 30
0.0
 10
15.4230992021
 20
10.8742523821
 30
0.0
 10
15.4243632733
 20
10.873047398
 30
0.0
 10
15.4273068363
 20
10.870844641
 30
0.0
 10
15.4316216269
 20
10.8685997552
 30
0.0
 10
15.4363460194
 20
10.8671649215
 30
0.0
 10
15.4402243433
 20
10.8665601767
 30
0.0
 10
15.4421492783
 20
10.8664499276
 30
0.0
 10
15.4430913584
 20
10.8664499276
 30
0.0
  0
SPLINE
  5
2F6
100
AcDbEntity
  8
0
100
AcDbSpline
 62
7
  6
CONTINUOUS
 70
0
 71
3
 72
13
 73
9
 74
0
 42
0.0000001
 43
0.0000001
 44
0.0000000001
 40
0.0
 40
0.0
 40
0.0
 40
0.0
 40
0.302496492
 40
0.568565047
 40
0.6868964672
 40
0.7966683111
 40
0.9000488118
 40
1.0
 40
1.0
 40
1.0
 40
1.0
 10
15.3319831284
 20
10.8664499276
 30
0.0
 10
15.3334282426
 20
10.8664499276
 30
0.0
 10
15.336151463
 20
10.8666843392
 30
0.0
 10
15.3393247929
 20
10.8676721847
 30
0.0
 10
15.3413614077
 20
10.8688866
 30
0.0
 10
15.3425642714
 20
10.8699319265
 30
0.0
 10
15.3434725084
 20
10.8711350223
 30
0.0
 10
15.3438698165
 20
10.872032714
 30
0.0
 10
15.3440109417
 20
10.8724888786
 30
0.0
  0
SPLINE
  5
2F7
100
AcDbEntity
  8
0
100
AcDbSpline
 62
7
  6
CONTINUOUS
 70
0
 71
3
 72
13
 73
9
 74
0
 42
0.0000001
 43
0.0000001
 44
0.0000000001
 40
0.0
 40
0.0
 40
0.0
 40
0.0
 40
0.1104083901
 40
0.2292605034
 40
0.4835082527
 40
0.7465552496
 40
0.8758891479
 40
1.0
 40
1.0
 40
1.0
 40
1.0
 10
15.2521416227
 20
10.874874723
 30
0.0
 10
15.2527029182
 20
10.8742523821
 30
0.0
 10
15.2539669894
 20
10.873047398
 30
0.0
 10
15.2569105524
 20
10.870844641
 30
0.0
 10
15.261225343
 20
10.8685997552
 30
0.0
 10
15.2659497355
 20
10.8671649215
 30
0.0
 10
15.2698280595
 20
10.8665601767
 30
0.0
 10
15.2717529945
 20
10.8664499276
 30
0.0
 10
15.2726950745
 20
10.8664499276
 30
0.0
  0
SPLINE
  5
2F8
100
AcDbEntity
  8
0
100
AcDbSpline
 62
7
  6
CONTINUOUS
 70
0
 71
3
 72
13
 73
9
 74
0
 42
0.0000001
 43
0.0000001
 44
0.0000000001
 40
0.0
 40
0.0
 40
0.0
 40
0.0
 40
0.302496492
 40
0.568565047
 40
0.6868964672
 40
0.7966683111
 40
0.9000488118
 40
1.0
 40
1.0
 40
1.0
 40
1.0
 10
15.1615868446
 20
10.8664499276
 30
0.0
 10
15.1630319587
 20
10.8664499276
 30
0.0
 10
15.1657551791
 20
10.8666843392
 30
0.0
 10
15.168928509
 20
10.8676721847
 30
0.0
 10
15.1709651238
 20
10.8688866
 30
0.0
 10
15.1721679875
 20
10.8699319265
 30
0.0
 10
15.1730762245
 20
10.8711350223
 30
0.0
 10
15.1734735326
 20
10.872032714
 30
0.0
 10
15.1736146578
 20
10.8724888786
 30
0.0
  0
SPLINE
  5
2F9
100
AcDbEntity
  8
0
100
AcDbSpline
 62
7
  6
CONTINUOUS
 70
0
 71
3
 72
13
 73
9
 74
0
 42
0.0000001
 43
0.0000001
 44
0.0000000001
 40
0.0
 40
0.0
 40
0.0
 40
0.0
 40
0.1104083901
 40
0.2292605034
 40
0.4835082527
 40
0.7465552496
 40
0.8758891479
 40
1.0
 40
1.0
 40
1.0
 40
1.0
 10
15.0817453388
 20
10.874874723
 30
0.0
 10
15.0823066343
 20
10.8742523821
 30
0.0
 10
15.0835707055
 20
10.873047398
 30
0.0
 10
15.0865142685
 20
10.870844641
 30
0.0
 10
15.0908290591
 20
10.8685997552
 30
0.0
 10
15.0955534516
 20
10.8671649215
 30
0.0
 10
15.0994317756
 20
10.8665601767
 30
0.0
 10
15.1013567106
 20
10.8664499276
 30
0.0
 10
15.1022987906
 20
10.8664499276
 30
0.0
  0
SPLINE
  5
2FA
100
AcDbEntity
  8
0
100
AcDbSpline
 62
7
  6
CONTINUOUS
 70
0
 71
3
 72
13
 73
9
 74
0
 42
0.0000001
 43
0.0000001
 44
0.0000000001
 40
0.0
 40
0.0
 40
0.0
 40
0.0
 40
0.302496492
 40
0.568565047
 40
0.6868964672
 40
0.7966683111
 40
0.9000488118
 40
1.0
 40
1.0
 40
1.0
 40
1.0
 10
14.9911905607
 20
10.8664499276
 30
0.0
 10
14.9926356748
 20
10.8664499276
 30
0.0
 10
14.9953588952
 20
10.8666843392
 30
0.0
 10
14.9985322251
 20
10.8676721847
 30
0.0
 10
15.00056884
 20
10.8688866
 30
0.0
 10
15.0017717037
 20
10.8699319265
 30
0.0
 10
15.0026799406
 20
10.8711350223
 30
0.0
 10
15.0030772488
 20
10.872032714
 30
0.0
 10
15.0032183739
 20
10.8724888786
 30
0.0
  0
SPLINE
  5
2FB
100
AcDbEntity
  8
0
100
AcDbSpline
 62
7
  6
CONTINUOUS
 70
0
 71
3
 72
13
 73
9
 74
0
 42
0.0000001
 43
0.0000001
 44
0.0000000001
 40
0.0
 40
0.0
 40
0.0
 40
0.0
 40
0.1104083901
 40
0.2292605034
 40
0.4835082527
 40
0.7465552496
 40
0.8758891479
 40
1.0
 40
1.0
 40
1.0
 40
1.0
 10
14.9113490549
 20
10.874874723
 30
0.0
 10
14.9119103504
 20
10.8742523821
 30
0.0
 10
14.9131744216
 20
10.873047398
 30
0.0
 10
14.9161179846
 20
10.870844641
 30
0.0
 10
14.9204327752
 20
10.8685997552
 30
0.0
 10
14.9251571677
 20
10.8671649215
 30
0.0
 10
14.9290354917
 20
10.8665601767
 30
0.0
 10
14.9309604267
 20
10.8664499276
 30
0.0
 10
14.9319025067
 20
10.8664499276
 30
0.0
  0
SPLINE
  5
2FC
100
AcDbEntity
  8
0
100
AcDbSpline
 62
7
  6
CONTINUOUS
 70
0
 71
3
 72
13
 73
9
 74
0
 42
0.0000001
 43
0.0000001
 44
0.0000000001
 40
0.0
 40
0.0
 40
0.0
 40
0.0
 40
0.302496492
 40
0.568565047
 40
0.6868964672
 40
0.7966683111
 40
0.9000488118
 40
1.0
 40
1.0
 40
1.0
 40
1.0
 10
14.8207942768
 20
10.8664499276
 30
0.0
 10
14.8222393909
 20
10.8664499276
 30
0.0
 10
14.8249626113
 20
10.8666843392
 30
0.0
 10
14.8281359412
 20
10.8676721847
 30
0.0
 10
14.8301725561
 20
10.8688866
 30
0.0
 10
14.8313754198
 20
10.8699319265
 30
0.0
 10
14.8322836568
 20
10.8711350223
 30
0.0
 10
14.8326809649
 20
10.872032714
 30
0.0
 10
14.83282209
 20
10.8724888786
 30
0.0
  0
SPLINE
  5
2FD
100
AcDbEntity
  8
0
100
AcDbSpline
 62
7
  6
CONTINUOUS
 70
0
 71
3
 72
13
 73
9
 74
0
 42
0.0000001
 43
0.0000001
 44
0.0000000001
 40
0.0
 40
0.0
 40
0.0
 40
0.0
 40
0.1104083901
 40
0.2292605034
 40
0.4835082527
 40
0.7465552496
 40
0.8758891479
 40
1.0
 40
1.0
 40
1.0
 40
1.0
 10
14.740952771
 20
10.874874723
 30
0.0
 10
14.7415140665
 20
10.8742523821
 30
0.0
 10
14.7427781377
 20
10.873047398
 30
0.0
 10
14.7457217007
 20
10.870844641
 30
0.0
 10
14.7500364913
 20
10.8685997552
 30
0.0
 10
14.7547608838
 20
10.8671649215
 30
0.0
 10
14.7586392078
 20
10.8665601767
 30
0.0
 10
14.7605641428
 20
10.8664499276
 30
0.0
 10
14.7615062229
 20
10.8664499276
 30
0.0
  0
SPLINE
  5
2FE
100
AcDbEntity
  8
0
100
AcDbSpline
 62
7
  6
CONTINUOUS
 70
0
 71
3
 72
13
 73
9
 74
0
 42
0.0000001
 43
0.0000001
 44
0.0000000001
 40
0.0
 40
0.0
 40
0.0
 40
0.0
 40
0.302496492
 40
0.568565047
 40
0.6868964672
 40
0.7966683111
 40
0.9000488118
 40
1.0
 40
1.0
 40
1.0
 40
1.0
 10
14.6503979929
 20
10.8664499276
 30
0.0
 10
14.651843107
 20
10.8664499276
 30
0.0
 10
14.6545663274
 20
10.8666843392
 30
0.0
 10
14.6577396573
 20
10.8676721847
 30
0.0
 10
14.6597762722
 20
10.8688866
 30
0.0
 10
14.6609791359
 20
10.8699319265
 30
0.0
 10
14.6618873729
 20
10.8711350223
 30
0.0
 10
14.662284681
 20
10.872032714
 30
0.0
 10
14.6624258062
 20
10.8724888786
 30
0.0
  0
SPLINE
  5
2FF
100
AcDbEntity
  8
0
100
AcDbSpline
 62
7
  6
CONTINUOUS
 70
0
 71
3
 72
13
 73
9
 74
0
 42
0.0000001
 43
0.0000001
 44
0.0000000001
 40
0.0
 40
0.0
 40
0.0
 40
0.0
 40
0.1104083901
 40
0.2292605034
 40
0.4835082527
 40
0.7465552496
 40
0.8758891479
 40
1.0
 40
1.0
 40
1.0
 40
1.0
 10
14.5705564871
 20
10.874874723
 30
0.0
 10
14.5711177827
 20
10.8742523821
 30
0.0
 10
14.5723818539
 20
10.873047398
 30
0.0
 10
14.5753254168
 20
10.870844641
 30
0.0
 10
14.5796402074
 20
10.8685997552
 30
0.0
 10
14.5843645999
 20
10.8671649215
 30
0.0
 10
14.5882429239
 20
10.8665601767
 30
0.0
 10
14.5901678589
 20
10.8664499276
 30
0.0
 10
14.591109939
 20
10.8664499276
 30
0.0
  0
SPLINE
  5
300
100
AcDbEntity
  8
0
100
AcDbSpline
 62
7
  6
CONTINUOUS
 70
0
 71
3
 72
13
 73
9
 74
0
 42
0.0000001
 43
0.0000001
 44
0.0000000001
 40
0.0
 40
0.0
 40
0.0
 40
0.0
 40
0.302496492
 40
0.568565047
 40
0.6868964672
 40
0.7966683111
 40
0.9000488118
 40
1.0
 40
1.0
 40
1.0
 40
1.0
 10
14.480001709
 20
10.8664499276
 30
0.0
 10
14.4814468231
 20
10.8664499276
 30
0.0
 10
14.4841700435
 20
10.8666843392
 30
0.0
 10
14.4873433735
 20
10.8676721847
 30
0.0
 10
14.4893799883
 20
10.8688866
 30
0.0
 10
14.490582852
 20
10.8699319265
 30
0.0
 10
14.491491089
 20
10.8711350223
 30
0.0
 10
14.4918883971
 20
10.872032714
 30
0.0
 10
14.4920295223
 20
10.8724888786
 30
0.0
  0
SPLINE
  5
301
100
AcDbEntity
  8
0
100
AcDbSpline
 62
7
  6
CONTINUOUS
 70
0
 71
3
 72
13
 73
9
 74
0
 42
0.0000001
 43
0.0000001
 44
0.0000000001
 40
0.0
 40
0.0
 40
0.0
 40
0.0
 40
0.1104083901
 40
0.2292605034
 40
0.4835082527
 40
0.7465552496
 40
0.8758891479
 40
1.0
 40
1.0
 40
1.0
 40
1.0
 10
14.4001602033
 20
10.874874723
 30
0.0
 10
14.4007214988
 20
10.8742523821
 30
0.0
 10
14.40198557
 20
10.873047398
 30
0.0
 10
14.4049291329
 20
10.870844641
 30
0.0
 10
14.4092439235
 20
10.8685997552
 30
0.0
 10
14.413968316
 20
10.8671649215
 30
0.0
 10
14.41784664
 20
10.8665601767
 30
0.0
 10
14.419771575
 20
10.8664499276
 30
0.0
 10
14.4207136551
 20
10.8664499276
 30
0.0
  0
SPLINE
  5
302
100
AcDbEntity
  8
0
100
AcDbSpline
 62
7
  6
CONTINUOUS
 70
0
 71
3
 72
13
 73
9
 74
0
 42
0.0000001
 43
0.0000001
 44
0.0000000001
 40
0.0
 40
0.0
 40
0.0
 40
0.0
 40
0.302496492
 40
0.568565047
 40
0.6868964672
 40
0.7966683111
 40
0.9000488118
 40
1.0
 40
1.0
 40
1.0
 40
1.0
 10
14.3096054251
 20
10.8664499276
 30
0.0
 10
14.3110505392
 20
10.8664499276
 30
0.0
 10
14.3137737596
 20
10.8666843392
 30
0.0
 10
14.3169470896
 20
10.8676721847
 30
0.0
 10
14.3189837044
 20
10.8688866
 30
0.0
 10
14.3201865681
 20
10.8699319265
 30
0.0
 10
14.3210948051
 20
10.8711350223
 30
0.0
 10
14.3214921132
 20
10.872032714
 30
0.0
 10
14.3216332384
 20
10.8724888786
 30
0.0
  0
SPLINE
  5
303
100
AcDbEntity
  8
0
100
AcDbSpline
 62
7
  6
CONTINUOUS
 70
0
 71
3
 72
13
 73
9
 74
0
 42
0.0000001
 43
0.0000001
 44
0.0000000001
 40
0.0
 40
0.0
 40
0.0
 40
0.0
 40
0.1104083901
 40
0.2292605034
 40
0.4835082527
 40
0.7465552496
 40
0.8758891479
 40
1.0
 40
1.0
 40
1.0
 40
1.0
 10
14.2297639194
 20
10.874874723
 30
0.0
 10
14.2303252149
 20
10.8742523821
 30
0.0
 10
14.2315892861
 20
10.873047398
 30
0.0
 10
14.234532849
 20
10.870844641
 30
0.0
 10
14.2388476396
 20
10.8685997552
 30
0.0
 10
14.2435720321
 20
10.8671649215
 30
0.0
 10
14.2474503561
 20
10.8665601767
 30
0.0
 10
14.2493752911
 20
10.8664499276
 30
0.0
 10
14.2503173712
 20
10.8664499276
 30
0.0
  0
SPLINE
  5
304
100
AcDbEntity
  8
0
100
AcDbSpline
 62
7
  6
CONTINUOUS
 70
0
 71
3
 72
13
 73
9
 74
0
 42
0.0000001
 43
0.0000001
 44
0.0000000001
 40
0.0
 40
0.0
 40
0.0
 40
0.0
 40
0.302496492
 40
0.568565047
 40
0.6868964672
 40
0.7966683111
 40
0.9000488118
 40
1.0
 40
1.0
 40
1.0
 40
1.0
 10
14.1392091412
 20
10.8664499276
 30
0.0
 10
14.1406542553
 20
10.8664499276
 30
0.0
 10
14.1433774757
 20
10.8666843392
 30
0.0
 10
14.1465508057
 20
10.8676721847
 30
0.0
 10
14.1485874205
 20
10.8688866
 30
0.0
 10
14.1497902842
 20
10.8699319265
 30
0.0
 10
14.1506985212
 20
10.8711350223
 30
0.0
 10
14.1510958293
 20
10.872032714
 30
0.0
 10
14.1512369545
 20
10.8724888786
 30
0.0
  0
SPLINE
  5
305
100
AcDbEntity
  8
0
100
AcDbSpline
 62
7
  6
CONTINUOUS
 70
0
 71
3
 72
13
 73
9
 74
0
 42
0.0000001
 43
0.0000001
 44
0.0000000001
 40
0.0
 40
0.0
 40
0.0
 40
0.0
 40
0.1104083901
 40
0.2292605034
 40
0.4835082527
 40
0.7465552496
 40
0.8758891479
 40
1.0
 40
1.0
 40
1.0
 40
1.0
 10
14.0593676355
 20
10.874874723
 30
0.0
 10
14.059928931
 20
10.8742523821
 30
0.0
 10
14.0611930022
 20
10.873047398
 30
0.0
 10
14.0641365651
 20
10.870844641
 30
0.0
 10
14.0684513557
 20
10.8685997552
 30
0.0
 10
14.0731757482
 20
10.8671649215
 30
0.0
 10
14.0770540722
 20
10.8665601767
 30
0.0
 10
14.0789790072
 20
10.8664499276
 30
0.0
 10
14.0799210873
 20
10.8664499276
 30
0.0
  0
SPLINE
  5
306
100
AcDbEntity
  8
0
100
AcDbSpline
 62
7
  6
CONTINUOUS
 70
0
 71
3
 72
13
 73
9
 74
0
 42
0.0000001
 43
0.0000001
 44
0.0000000001
 40
0.0
 40
0.0
 40
0.0
 40
0.0
 40
0.302496492
 40
0.568565047
 40
0.6868964672
 40
0.7966683111
 40
0.9000488118
 40
1.0
 40
1.0
 40
1.0
 40
1.0
 10
13.9688128573
 20
10.8664499276
 30
0.0
 10
13.9702579714
 20
10.8664499276
 30
0.0
 10
13.9729811919
 20
10.8666843392
 30
0.0
 10
13.9761545218
 20
10.8676721847
 30
0.0
 10
13.9781911366
 20
10.8688866
 30
0.0
 10
13.9793940003
 20
10.8699319265
 30
0.0
 10
13.9803022373
 20
10.8711350223
 30
0.0
 10
13.9806995454
 20
10.872032714
 30
0.0
 10
13.9808406706
 20
10.8724888786
 30
0.0
  0
SPLINE
  5
307
100
AcDbEntity
  8
0
100
AcDbSpline
 62
7
  6
CONTINUOUS
 70
0
 71
3
 72
13
 73
9
 74
0
 42
0.0000001
 43
0.0000001
 44
0.0000000001
 40
0.0
 40
0.0
 40
0.0
 40
0.0
 40
0.1104083901
 40
0.2292605034
 40
0.4835082527
 40
0.7465552496
 40
0.8758891479
 40
1.0
 40
1.0
 40
1.0
 40
1.0
 10
13.8889713516
 20
10.874874723
 30
0.0
 10
13.8895326471
 20
10.8742523821
 30
0.0
 10
13.8907967183
 20
10.873047398
 30
0.0
 10
13.8937402813
 20
10.870844641
 30
0.0
 10
13.8980550719
 20
10.8685997552
 30
0.0
 10
13.9027794644
 20
10.8671649215
 30
0.0
 10
13.9066577883
 20
10.8665601767
 30
0.0
 10
13.9085827233
 20
10.8664499276
 30
0.0
 10
13.9095248034
 20
10.8664499276
 30
0.0
  0
SPLINE
  5
308
100
AcDbEntity
  8
0
100
AcDbSpline
 62
7
  6
CONTINUOUS
 70
0
 71
3
 72
13
 73
9
 74
0
 42
0.0000001
 43
0.0000001
 44
0.0000000001
 40
0.0
 40
0.0
 40
0.0
 40
0.0
 40
0.302496492
 40
0.568565047
 40
0.6868964672
 40
0.7966683111
 40
0.9000488118
 40
1.0
 40
1.0
 40
1.0
 40
1.0
 10
13.7984165734
 20
10.8664499276
 30
0.0
 10
13.7998616875
 20
10.8664499276
 30
0.0
 10
13.802584908
 20
10.8666843392
 30
0.0
 10
13.8057582379
 20
10.8676721847
 30
0.0
 10
13.8077948527
 20
10.8688866
 30
0.0
 10
13.8089977164
 20
10.8699319265
 30
0.0
 10
13.8099059534
 20
10.8711350223
 30
0.0
 10
13.8103032615
 20
10.872032714
 30
0.0
 10
13.8104443867
 20
10.8724888786
 30
0.0
  0
SPLINE
  5
309
100
AcDbEntity
  8
0
100
AcDbSpline
 62
7
  6
CONTINUOUS
 70
0
 71
3
 72
13
 73
9
 74
0
 42
0.0000001
 43
0.0000001
 44
0.0000000001
 40
0.0
 40
0.0
 40
0.0
 40
0.0
 40
0.1104083901
 40
0.2292605034
 40
0.4835082527
 40
0.7465552496
 40
0.8758891479
 40
1.0
 40
1.0
 40
1.0
 40
1.0
 10
13.7185750677
 20
10.874874723
 30
0.0
 10
13.7191363632
 20
10.8742523821
 30
0.0
 10
13.7204004344
 20
10.873047398
 30
0.0
 10
13.7233439974
 20
10.870844641
 30
0.0
 10
13.727658788
 20
10.8685997552
 30
0.0
 10
13.7323831805
 20
10.8671649215
 30
0.0
 10
13.7362615044
 20
10.8665601767
 30
0.0
 10
13.7381864394
 20
10.8664499276
 30
0.0
 10
13.7391285195
 20
10.8664499276
 30
0.0
  0
SPLINE
  5
30A
100
AcDbEntity
  8
0
100
AcDbSpline
 62
7
  6
CONTINUOUS
 70
0
 71
3
 72
13
 73
9
 74
0
 42
0.0000001
 43
0.0000001
 44
0.0000000001
 40
0.0
 40
0.0
 40
0.0
 40
0.0
 40
0.302496492
 40
0.568565047
 40
0.6868964672
 40
0.7966683111
 40
0.9000488118
 40
1.0
 40
1.0
 40
1.0
 40
1.0
 10
13.6280202895
 20
10.8664499276
 30
0.0
 10
13.6294654036
 20
10.8664499276
 30
0.0
 10
13.6321886241
 20
10.8666843392
 30
0.0
 10
13.635361954
 20
10.8676721847
 30
0.0
 10
13.6373985688
 20
10.8688866
 30
0.0
 10
13.6386014325
 20
10.8699319265
 30
0.0
 10
13.6395096695
 20
10.8711350223
 30
0.0
 10
13.6399069776
 20
10.872032714
 30
0.0
 10
13.6400481028
 20
10.8724888786
 30
0.0
  0
SPLINE
  5
30B
100
AcDbEntity
  8
0
100
AcDbSpline
 62
7
  6
CONTINUOUS
 70
0
 71
3
 72
13
 73
9
 74
0
 42
0.0000001
 43
0.0000001
 44
0.0000000001
 40
0.0
 40
0.0
 40
0.0
 40
0.0
 40
0.1104083901
 40
0.2292605034
 40
0.4835082527
 40
0.7465552496
 40
0.8758891479
 40
1.0
 40
1.0
 40
1.0
 40
1.0
 10
13.5481787838
 20
10.874874723
 30
0.0
 10
13.5487400793
 20
10.8742523821
 30
0.0
 10
13.5500041505
 20
10.873047398
 30
0.0
 10
13.5529477135
 20
10.870844641
 30
0.0
 10
13.5572625041
 20
10.8685997552
 30
0.0
 10
13.5619868966
 20
10.8671649215
 30
0.0
 10
13.5658652205
 20
10.8665601767
 30
0.0
 10
13.5677901556
 20
10.8664499276
 30
0.0
 10
13.5687322356
 20
10.8664499276
 30
0.0
  0
ENDSEC
  0
SECTION
  2
OBJECTS
  0
DICTIONARY
  5
C
100
AcDbDictionary
280
0
281
1
  3
ACAD_GROUP
350
D
  3
ACAD_MLINESTYLE
350
17
  3
ACAD_LAYOUT
350
1A
  3
ACAD_PLOTSETTINGS
350
19
  3
ACAD_PLOTSTYLENAME
350
E
  0
DICTIONARY
  5
D
102
{ACAD_REACTORS
330
C
102
}
100
AcDbDictionary
280
0
281
1
  0
ACDBDICTIONARYWDFLT
  5
E
102
{ACAD_REACTORS
330
C
102
}
100
AcDbDictionary
281
1
  3
Normal
350
F
100
AcDbDictionaryWithDefault
340
F
  0
DICTIONARY
  5
17
102
{ACAD_REACTORS
330
C
102
}
100
AcDbDictionary
280
0
281
1
  3
Standard
350
18
  0
DICTIONARY
  5
19
102
{ACAD_REACTORS
330
C
102
}
100
AcDbDictionary
281
1
  0
DICTIONARY
  5
1A
102
{ACAD_REACTORS
330
C
102
}
100
AcDbDictionary
281
1
  3
Model
350
30C
  3
Layout1
350
30D
  0
ACDBPLACEHOLDER
  5
F
102
{ACAD_REACTORS
330
E
102
}
  0
MLINESTYLE
  5
18
102
{ACAD_REACTORS
330
17
102
}
100
AcDbMlineStyle
  2
STANDARD
 70
0
  3

 62
256
 51
90.0
 52
90.0
 71
2
 49
0.5
 62
256
  6
BYLAYER
 49
-0.5
 62
256
  6
BYLAYER
  0
LAYOUT
  5
30C
102
{ACAD_REACTORS
330
1A
102
}
100
AcDbPlotSettings
  1

  2
none_device
  4
ANSI_C_(22.00_x_17.00_Inches)
  6

 40
0.0
 41
0.0
 42
0.0
 43
0.0
 44
558.8
 45
431.8
 46
0.0
 47
0.0
 48
0.0
 49
0.0
140
0.0
141
0.0
142
1.0
143
1.0
 70
1024
 72
0
 73
0
 74
0
  7

 75
0
147
1.0
148
0.0
149
0.0
100
AcDbLayout
  1
Model
 70
0
 71
0
 10
0.0
 20
0.0
 11
22.0
 21
17.0
 12
0.0
 22
0.0
 32
0.0
 14
0.0
 24
0.0
 34
0.0
 15
0.0
 25
0.0
 35
0.0
146
0.0
 13
0.0
 23
0.0
 33
0.0
 16
1.0
 26
0.0
 36
0.0
 17
0.0
 27
1.0
 37
0.0
 76
0
330
216
345
0
346
0
  0
LAYOUT
  5
30D
102
{ACAD_REACTORS
330
1A
102
}
100
AcDbPlotSettings
  1

  2
none_device
  4
ANSI_C_(22.00_x_17.00_Inches)
  6

 40
0.0
 41
0.0
 42
0.0
 43
0.0
 44
558.8
 45
431.8
 46
0.0
 47
0.0
 48
0.0
 49
0.0
140
0.0
141
0.0
142
1.0
143
1.0
 70
0
 72
0
 73
0
 74
0
  7

 75
0
147
1.0
148
0.0
149
0.0
100
AcDbLayout
  1
Layout1
 70
0
 71
1
 10
0.0
 20
0.0
 11
22.0
 21
17.0
 12
0.0
 22
0.0
 32
0.0
 14
0.0
 24
0.0
 34
0.0
 15
0.0
 25
0.0
 35
0.0
146
0.0
 13
0.0
 23
0.0
 33
0.0
 16
1.0
 26
0.0
 36
0.0
 17
0.0
 27
1.0
 37
0.0
 76
0
330
217
345
0
346
0
  0
ENDSEC
  0
EOF