999
DXF file: _cgs_temp_output.dxf
999
Pro/ENGINEER 2016360 by Parametric Technology Corporation
  0
SECTION
  2
HEADER
  9
$ACADVER
  1
AC1021
  9
$DWGCODEPAGE
  3
ANSI_1252
  9
$EXTMAX
 10
22.0
 20
17.0
 30
0.0
  9
$EXTMIN
 10
0.0
 20
0.0
 30
0.0
  9
$LIMMIN
 10
0.0
 20
0.0
  9
$LIMMAX
 10
22.0
 20
17.0
  9
$VIEWCTR
 10
11.0
 20
8.5
  9
$VIEWSIZE
 40
17.0
  9
$CLAYER
  8
0
  9
$LTSCALE
 40
1.21
  9
$CELTYPE
  6
BYLAYER
  9
$DIMSCALE
 40
1.0
  9
$DIMASZ
 40
0.1875
  9
$DIMEXO
 40
0.0625
  9
$DIMDLI
 40
0.836
  9
$DIMEXE
 40
0.125
  9
$DIMCEN
 40
0.198
  9
$DIMLFAC
 40
1.0
  9
$DIMBLK
  1
_CLOSED
  9
$DIMALT
 70
0
  9
$DIMALTF
 40
25.4
  9
$DIMTXT
 40
0.15625
  9
$DIMTOL
 70
0
  9
$DIMLIM
 70
0
  9
$DIMTFAC
 40
1.0
  9
$DIMGAP
 40
0.09
  9
$DIMDSEP
 70
46
  9
$AUNITS
 70
0
  9
$PDMODE
 70
3
  9
$PDSIZE
 40
0.3125
  9
$HANDSEED
  5
290
  9
$TILEMODE
 70
1
  9
$MEASUREMENT
 70
0
  9
$INSUNITS
 70
1
  0
ENDSEC
  0
SECTION
  2
CLASSES
  0
CLASS
  1
ACDBDICTIONARYWDFLT
  2
AcDbDictionaryWithDefault
  3
AutoCAD 2000
 90
0
 91
1
280
0
281
0
  0
CLASS
  1
ACDBPLACEHOLDER
  2
AcDbPlaceHolder
  3
AutoCAD 2000
 90
0
 91
1
280
0
281
0
  0
CLASS
  1
LAYOUT
  2
AcDbLayout
  3
AutoCAD 2000
 90
0
 91
0
280
0
281
0
  0
ENDSEC
  0
SECTION
  2
TABLES
  0
TABLE
  2
VPORT
  5
8
100
AcDbSymbolTable
 70
2
  0
VPORT
  5
1F4
100
AcDbSymbolTableRecord
100
AcDbViewportTableRecord
  2
*ACTIVE
 70
0
 10
0.0
 20
0.0
 11
1.0
 21
1.0
 12
11.0
 22
8.5
 13
0.0
 23
0.0
 14
1.0
 24
1.0
 15
0.0
 25
0.0
 16
0.0
 26
0.0
 36
1.0
 17
0.0
 27
0.0
 37
0.0
 40
17.0
 41
1.2941176471
 42
50.0
 43
0.0
 44
0.0
 50
0.0
 51
0.0
 71
0
 72
100
 73
1
 74
1
 75
0
 76
0
 77
0
 78
0
  0
ENDTAB
  0
TABLE
  2
LTYPE
  5
5
100
AcDbSymbolTable
 70
6
  0
LTYPE
  5
14
100
AcDbSymbolTableRecord
100
AcDbLinetypeTableRecord
  2
BYBLOCK
 70
0
  3

 72
65
 73
0
 40
0.0
  0
LTYPE
  5
15
100
AcDbSymbolTableRecord
100
AcDbLinetypeTableRecord
  2
BYLAYER
 70
0
  3

 72
65
 73
0
 40
0.0
  0
LTYPE
  5
16
100
AcDbSymbolTableRecord
100
AcDbLinetypeTableRecord
  2
CONTINUOUS
 70
64
  3
Solid line
 72
65
 73
0
 40
0.0
  0
LTYPE
  5
1F5
100
AcDbSymbolTableRecord
100
AcDbLinetypeTableRecord
  2
CENTER
 70
64
  3
____ _ ____ _ ____ _ ____ _ ____ _ ____ _ ____
 72
65
 73
4
 40
0.6
 49
0.375
 74
0
 49
-0.075
 74
0
 49
0.075
 74
0
 49
-0.075
 74
0
  0
LTYPE
  5
1F6
100
AcDbSymbolTableRecord
100
AcDbLinetypeTableRecord
  2
HIDDEN
 70
64
  3
- - - - - - - - - - - - - - - - - - - -
 72
65
 73
2
 40
0.2
 49
0.1
 74
0
 49
-0.1
 74
0
  0
LTYPE
  5
1F7
100
AcDbSymbolTableRecord
100
AcDbLinetypeTableRecord
  2
PHANTOM
 70
64
  3
_____ _ _ _____ _ _ _____ _ _ _____
 72
65
 73
6
 40
0.8
 49
0.45
 74
0
 49
-0.05
 74
0
 49
0.1
 74
0
 49
-0.05
 74
0
 49
0.1
 74
0
 49
-0.05
 74
0
  0
LTYPE
  5
1F8
100
AcDbSymbolTableRecord
100
AcDbLinetypeTableRecord
  2
DOT
 70
64
  3
. . . . . . . . . . . . . . . . . . . .
 72
65
 73
2
 40
0.2
 49
0.1
 74
0
 49
-0.1
 74
0
  0
LTYPE
  5
1F9
100
AcDbSymbolTableRecord
100
AcDbLinetypeTableRecord
  2
DASHED
 70
64
  3
- - - - - - - - - - - - - - - - - - - -
 72
65
 73
2
 40
0.2
 49
0.1
 74
0
 49
-0.1
 74
0
  0
ENDTAB
  0
TABLE
  2
LAYER
  5
2
100
AcDbSymbolTable
 70
36
  0
LAYER
  5
10
100
AcDbSymbolTableRecord
100
AcDbLayerTableRecord
  2
0
 70
0
 62
7
  6
CONTINUOUS
370
-3
390
F
  0
LAYER
  5
1FA
100
AcDbSymbolTableRecord
100
AcDbLayerTableRecord
  2
DEFAULT_1
 70
0
 62
7
  6
CENTER
370
-3
390
F
  0
LAYER
  5
1FB
100
AcDbSymbolTableRecord
100
AcDbLayerTableRecord
  2
DEFAULT_2
 70
0
 62
8
  6
HIDDEN
370
-3
390
F
  0
LAYER
  5
1FC
100
AcDbSymbolTableRecord
100
AcDbLayerTableRecord
  2
DEFAULT_3
 70
0
 62
7
  6
PHANTOM
370
-3
390
F
  0
LAYER
  5
1FD
100
AcDbSymbolTableRecord
100
AcDbLayerTableRecord
  2
01_ALL_DTM_PLN
 70
0
 62
7
  6
CONTINUOUS
370
-3
390
F
  0
LAYER
  5
1FE
100
AcDbSymbolTableRecord
100
AcDbLayerTableRecord
  2
01__ASM_ALL_DTM_PLN
 70
0
 62
7
  6
CONTINUOUS
370
-3
390
F
  0
LAYER
  5
1FF
100
AcDbSymbolTableRecord
100
AcDbLayerTableRecord
  2
01__ASM_DEF_DTM_PLN
 70
0
 62
7
  6
CONTINUOUS
370
-3
390
F
  0
LAYER
  5
200
100
AcDbSymbolTableRecord
100
AcDbLayerTableRecord
  2
01___PRT_ALL_DTM_PLN
 70
0
 62
7
  6
CONTINUOUS
370
-3
390
F
  0
LAYER
  5
201
100
AcDbSymbolTableRecord
100
AcDbLayerTableRecord
  2
01___PRT_DEF_DTM_PLN
 70
0
 62
7
  6
CONTINUOUS
370
-3
390
F
  0
LAYER
  5
202
100
AcDbSymbolTableRecord
100
AcDbLayerTableRecord
  2
02_ALL_AXES
 70
0
 62
7
  6
CONTINUOUS
370
-3
390
F
  0
LAYER
  5
203
100
AcDbSymbolTableRecord
100
AcDbLayerTableRecord
  2
02__ASM_ALL_AXES
 70
0
 62
7
  6
CONTINUOUS
370
-3
390
F
  0
LAYER
  5
204
100
AcDbSymbolTableRecord
100
AcDbLayerTableRecord
  2
02___PRT_ALL_AXES
 70
0
 62
7
  6
CONTINUOUS
370
-3
390
F
  0
LAYER
  5
205
100
AcDbSymbolTableRecord
100
AcDbLayerTableRecord
  2
03_ALL_CURVES
 70
0
 62
7
  6
CONTINUOUS
370
-3
390
F
  0
LAYER
  5
206
100
AcDbSymbolTableRecord
100
AcDbLayerTableRecord
  2
03__ASM_ALL_CURVES
 70
0
 62
7
  6
CONTINUOUS
370
-3
390
F
  0
LAYER
  5
207
100
AcDbSymbolTableRecord
100
AcDbLayerTableRecord
  2
03___PRT_ALL_CURVES
 70
0
 62
7
  6
CONTINUOUS
370
-3
390
F
  0
LAYER
  5
208
100
AcDbSymbolTableRecord
100
AcDbLayerTableRecord
  2
04_ALL_DTM_PNT
 70
0
 62
7
  6
CONTINUOUS
370
-3
390
F
  0
LAYER
  5
209
100
AcDbSymbolTableRecord
100
AcDbLayerTableRecord
  2
04__ASM_ALL_DTM_PNT
 70
0
 62
7
  6
CONTINUOUS
370
-3
390
F
  0
LAYER
  5
20A
100
AcDbSymbolTableRecord
100
AcDbLayerTableRecord
  2
04___PRT_ALL_DTM_PNT
 70
0
 62
7
  6
CONTINUOUS
370
-3
390
F
  0
LAYER
  5
20B
100
AcDbSymbolTableRecord
100
AcDbLayerTableRecord
  2
05_ALL_DTM_CSYS
 70
0
 62
7
  6
CONTINUOUS
370
-3
390
F
  0
LAYER
  5
20C
100
AcDbSymbolTableRecord
100
AcDbLayerTableRecord
  2
05__ASM_ALL_DTM_CSYS
 70
0
 62
7
  6
CONTINUOUS
370
-3
390
F
  0
LAYER
  5
20D
100
AcDbSymbolTableRecord
100
AcDbLayerTableRecord
  2
05__ASM_DEF_DTM_CSYS
 70
0
 62
7
  6
CONTINUOUS
370
-3
390
F
  0
LAYER
  5
20E
100
AcDbSymbolTableRecord
100
AcDbLayerTableRecord
  2
05___PRT_ALL_DTM_CSYS
 70
0
 62
7
  6
CONTINUOUS
370
-3
390
F
  0
LAYER
  5
20F
100
AcDbSymbolTableRecord
100
AcDbLayerTableRecord
  2
05___PRT_DEF_DTM_CSYS
 70
0
 62
7
  6
CONTINUOUS
370
-3
390
F
  0
LAYER
  5
210
100
AcDbSymbolTableRecord
100
AcDbLayerTableRecord
  2
06_ALL_SURFS
 70
0
 62
7
  6
CONTINUOUS
370
-3
390
F
  0
LAYER
  5
211
100
AcDbSymbolTableRecord
100
AcDbLayerTableRecord
  2
06__ASM_ALL_SURFS
 70
0
 62
7
  6
CONTINUOUS
370
-3
390
F
  0
LAYER
  5
212
100
AcDbSymbolTableRecord
100
AcDbLayerTableRecord
  2
06___PRT_ALL_SURFS
 70
0
 62
7
  6
CONTINUOUS
370
-3
390
F
  0
LAYER
  5
213
100
AcDbSymbolTableRecord
100
AcDbLayerTableRecord
  2
07__ASM_ALL_SKELETONS
 70
0
 62
7
  6
CONTINUOUS
370
-3
390
F
  0
ENDTAB
  0
TABLE
  2
STYLE
  5
3
100
AcDbSymbolTable
 70
1
  0
STYLE
  5
11
100
AcDbSymbolTableRecord
100
AcDbTextStyleTableRecord
  2
STANDARD
 70
0
 40
0.0
 41
0.8
 50
0.0
 71
0
 42
0.2
  3
txt
  4

  0
STYLE
  5
214
100
AcDbSymbolTableRecord
100
AcDbTextStyleTableRecord
  2
TEXTSTYLE_1
 70
0
 40
0.0
 41
0.8
 50
0.0
 71
0
 42
0.2
  3
gdt
  4

  0
ENDTAB
  0
TABLE
  2
VIEW
  5
6
100
AcDbSymbolTable
 70
0
  0
ENDTAB
  0
TABLE
  2
UCS
  5
7
100
AcDbSymbolTable
 70
0
  0
ENDTAB
  0
TABLE
  2
APPID
  5
9
100
AcDbSymbolTable
 70
1
  0
APPID
  5
215
100
AcDbSymbolTableRecord
100
AcDbRegAppTableRecord
  2
ACAD
 70
0
  0
ENDTAB
  0
TABLE
  2
BLOCK_RECORD
  5
1
100
AcDbSymbolTable
 70
0
  0
BLOCK_RECORD
  5
216
100
AcDbSymbolTableRecord
100
AcDbBlockTableRecord
  2
*Model_Space
  0
BLOCK_RECORD
  5
217
100
AcDbSymbolTableRecord
100
AcDbBlockTableRecord
  2
*Paper_Space
  0
ENDTAB
  0
TABLE
  2
DIMSTYLE
  5
A
100
AcDbSymbolTable
 70
1
100
AcDbDimStyleTable
 71
0
  0
DIMSTYLE
105
218
100
AcDbSymbolTableRecord
100
AcDbDimStyleTableRecord
  2
STANDARD
 70
0
  3

  4

 40
1.0
 41
0.1875
 42
0.0625
 43
0.38
 44
0.125
 45
0.0
 46
0.0
 47
0.0001
 48
0.0001
140
0.15625
141
0.09
142
0.0
143
25.4
144
1.0
145
0.0
146
1.0
147
0.09
 71
0.0
 72
0.0
 73
1
 74
1
 75
0
 76
0
 77
0
 78
4
 79
1
170
0
171
3
172
0
173
0
174
0
175
0
176
0
177
0
178
0
270
2
179
4
271
4
272
4
273
2
274
2
275
0
280
0
281
0
282
0
283
1
284
4
285
0
286
0
287
3
288
0
340
11
278
46
  0
ENDTAB
  0
ENDSEC
  0
SECTION
  2
BLOCKS
  0
BLOCK
  5
20
100
AcDbEntity
  8
0
100
AcDbBlockBegin
  2
*Model_Space
 70
0
 10
0.0
 20
0.0
 30
0.0
  3
*Model_Space
  1

  0
ENDBLK
  5
21
100
AcDbEntity
  8
0
100
AcDbBlockEnd
  0
BLOCK
  5
1C
100
AcDbEntity
  8
0
100
AcDbBlockBegin
  2
*Paper_Space
 70
0
 10
0.0
 20
0.0
 30
0.0
  3
*Paper_Space
  1

  0
ENDBLK
  5
1D
100
AcDbEntity
  8
0
100
AcDbBlockEnd
  0
ENDSEC
  0
SECTION
  2
ENTITIES
  0
MTEXT
  5
219
100
AcDbEntity
  8
0
100
AcDbMText
 62
7
  6
CONTINUOUS
  7
STANDARD
 71
1
 72
1
 10
15.9560215477
 20
0.9479130325
 30
0.0
 11
1.0
 21
0.0
 31
0.0
 44
0.9
  1
SCALE: 1:1.000
 40
0.3
 41
3.36
  0
LINE
  5
21A
100
AcDbEntity
  8
0
100
AcDbLine
 62
7
  6
CONTINUOUS
 10
0.0
 20
0.0
 11
0.0
 21
17.0
  0
LINE
  5
21B
100
AcDbEntity
  8
0
100
AcDbLine
 62
7
  6
CONTINUOUS
 10
0.0
 20
0.0
 11
22.0
 21
0.0
  0
LINE
  5
21C
100
AcDbEntity
  8
0
100
AcDbLine
 62
7
  6
CONTINUOUS
 10
0.0
 20
17.0
 11
22.0
 21
17.0
  0
LINE
  5
21D
100
AcDbEntity
  8
0
100
AcDbLine
 62
7
  6
CONTINUOUS
 10
22.0
 20
0.0
 11
22.0
 21
17.0
  0
LINE
  5
21E
100
AcDbEntity
  8
0
100
AcDbLine
 62
7
  6
CONTINUOUS
 10
5.1854853864
 20
5.638230133
 11
5.1854853864
 21
5.5358679282
  0
LINE
  5
21F
100
AcDbEntity
  8
0
100
AcDbLine
 62
7
  6
CONTINUOUS
 10
5.2445405045
 20
5.5096212091
 11
5.2445405045
 21
5.5004348574
  0
LINE
  5
220
100
AcDbEntity
  8
0
100
AcDbLine
 62
7
  6
CONTINUOUS
 10
5.4413908982
 20
5.5004348574
 11
5.4413908982
 21
5.5096212091
  0
LINE
  5
221
100
AcDbEntity
  8
0
100
AcDbLine
 62
7
  6
CONTINUOUS
 10
5.5595011344
 20
5.5096212091
 11
5.5595011344
 21
5.5004348574
  0
LINE
  5
222
100
AcDbEntity
  8
0
100
AcDbLine
 62
7
  6
CONTINUOUS
 10
5.7563515281
 20
5.5004348574
 11
5.7563515281
 21
5.5096212091
  0
LINE
  5
223
100
AcDbEntity
  8
0
100
AcDbLine
 62
7
  6
CONTINUOUS
 10
5.8744617644
 20
5.5096212091
 11
5.8744617644
 21
5.5004348574
  0
LINE
  5
224
100
AcDbEntity
  8
0
100
AcDbLine
 62
7
  6
CONTINUOUS
 10
6.0713121581
 20
5.5004348574
 11
6.0713121581
 21
5.5096212091
  0
LINE
  5
225
100
AcDbEntity
  8
0
100
AcDbLine
 62
7
  6
CONTINUOUS
 10
6.1894223943
 20
5.5096212091
 11
6.1894223943
 21
5.5004348574
  0
LINE
  5
226
100
AcDbEntity
  8
0
100
AcDbLine
 62
7
  6
CONTINUOUS
 10
5.1854853864
 20
5.5358679282
 11
5.2182937854
 21
5.5358679282
  0
LINE
  5
227
100
AcDbEntity
  8
0
100
AcDbLine
 62
7
  6
CONTINUOUS
 10
5.4676376174
 20
5.5358679282
 11
5.5332544153
 21
5.5358679282
  0
LINE
  5
228
100
AcDbEntity
  8
0
100
AcDbLine
 62
7
  6
CONTINUOUS
 10
5.7825982473
 20
5.5358679282
 11
5.8482150452
 21
5.5358679282
  0
LINE
  5
229
100
AcDbEntity
  8
0
100
AcDbLine
 62
7
  6
CONTINUOUS
 10
6.0975588772
 20
5.5358679282
 11
6.1631756751
 21
5.5358679282
  0
LINE
  5
22A
100
AcDbEntity
  8
0
100
AcDbLine
 62
7
  6
CONTINUOUS
 10
6.4125195071
 20
5.5358679282
 11
6.478136305
 21
5.5358679282
  0
LINE
  5
22B
100
AcDbEntity
  8
0
100
AcDbLine
 62
7
  6
CONTINUOUS
 10
6.7274801371
 20
5.5358679282
 11
6.793096935
 21
5.5358679282
  0
LINE
  5
22C
100
AcDbEntity
  8
0
100
AcDbLine
 62
7
  6
CONTINUOUS
 10
7.042440767
 20
5.5358679282
 11
7.0752491659
 21
5.5358679282
  0
LINE
  5
22D
100
AcDbEntity
  8
0
100
AcDbLine
 62
7
  6
CONTINUOUS
 10
7.0752491659
 20
5.638230133
 11
5.1854853864
 21
5.638230133
  0
LINE
  5
22E
100
AcDbEntity
  8
0
100
AcDbLine
 62
7
  6
CONTINUOUS
 10
6.386272788
 20
5.5004348574
 11
6.386272788
 21
5.5096212091
  0
LINE
  5
22F
100
AcDbEntity
  8
0
100
AcDbLine
 62
7
  6
CONTINUOUS
 10
6.5043830242
 20
5.5096212091
 11
6.5043830242
 21
5.5004348574
  0
LINE
  5
230
100
AcDbEntity
  8
0
100
AcDbLine
 62
7
  6
CONTINUOUS
 10
6.7012334179
 20
5.5004348574
 11
6.7012334179
 21
5.5096212091
  0
LINE
  5
231
100
AcDbEntity
  8
0
100
AcDbLine
 62
7
  6
CONTINUOUS
 10
6.8193436541
 20
5.5096212091
 11
6.8193436541
 21
5.5004348574
  0
LINE
  5
232
100
AcDbEntity
  8
0
100
AcDbLine
 62
7
  6
CONTINUOUS
 10
7.0161940478
 20
5.5004348574
 11
7.0161940478
 21
5.5096212091
  0
LINE
  5
233
100
AcDbEntity
  8
0
100
AcDbLine
 62
7
  6
CONTINUOUS
 10
7.0752491659
 20
5.5358679282
 11
7.0752491659
 21
5.638230133
  0
LINE
  5
234
100
AcDbEntity
  8
0
100
AcDbLine
 62
7
  6
CONTINUOUS
 10
7.0157539736
 20
11.1236698286
 11
5.1259901941
 21
11.1236698286
  0
LINE
  5
235
100
AcDbEntity
  8
0
100
AcDbLine
 62
7
  6
CONTINUOUS
 10
5.1259901941
 20
14.0764257341
 11
5.1259901941
 21
11.1236698286
  0
LINE
  5
236
100
AcDbEntity
  8
0
100
AcDbLine
 62
7
  6
CONTINUOUS
 10
7.0157539736
 20
14.0764257341
 11
7.0157539736
 21
11.1236698286
  0
LINE
  5
237
100
AcDbEntity
  8
0
100
AcDbLine
 62
7
  6
CONTINUOUS
 10
5.1259901941
 20
14.0764257341
 11
7.0157539736
 21
14.0764257341
  0
LINE
  5
238
100
AcDbEntity
  8
0
100
AcDbLine
 62
7
  6
CONTINUOUS
 10
14.0839773042
 20
5.3425144682
 11
14.0839773042
 21
5.5787349407
  0
LINE
  5
239
100
AcDbEntity
  8
0
100
AcDbLine
 62
7
  6
CONTINUOUS
 10
17.0367332097
 20
5.3425144682
 11
14.0839773042
 21
5.3425144682
  0
LINE
  5
23A
100
AcDbEntity
  8
0
100
AcDbLine
 62
7
  6
CONTINUOUS
 10
17.0367332097
 20
5.4763727359
 11
14.0839773042
 21
5.4763727359
  0
LINE
  5
23B
100
AcDbEntity
  8
0
100
AcDbLine
 62
7
  6
CONTINUOUS
 10
17.0367332097
 20
5.5787349407
 11
14.0839773042
 21
5.5787349407
  0
LINE
  5
23C
100
AcDbEntity
  8
0
100
AcDbLine
 62
7
  6
CONTINUOUS
 10
17.0367332097
 20
5.3425144682
 11
17.0367332097
 21
5.5787349407
  0
LINE
  5
23D
100
AcDbEntity
  8
0
100
AcDbLine
 62
7
  6
CONTINUOUS
 10
14.2278248539
 20
11.4277369139
 11
14.2590496119
 21
11.3641075471
  0
LINE
  5
23E
100
AcDbEntity
  8
0
100
AcDbLine
 62
7
  6
CONTINUOUS
 10
14.3214493259
 20
11.3477923248
 11
14.3242515478
 21
11.342081997
  0
LINE
  5
23F
100
AcDbEntity
  8
0
100
AcDbLine
 62
7
  6
CONTINUOUS
 10
14.505562767
 20
11.342081997
 11
14.5027605452
 21
11.3477923248
  0
LINE
  5
240
100
AcDbEntity
  8
0
100
AcDbLine
 62
7
  6
CONTINUOUS
 10
14.6115472768
 20
11.3477923248
 11
14.6143494986
 21
11.342081997
  0
LINE
  5
241
100
AcDbEntity
  8
0
100
AcDbLine
 62
7
  6
CONTINUOUS
 10
14.2590496119
 20
11.3641075471
 11
14.2892681484
 21
11.3641075471
  0
LINE
  5
242
100
AcDbEntity
  8
0
100
AcDbLine
 62
7
  6
CONTINUOUS
 10
14.5189290262
 20
11.3641075471
 11
14.5793660993
 21
11.3641075471
  0
LINE
  5
243
100
AcDbEntity
  8
0
100
AcDbLine
 62
7
  6
CONTINUOUS
 10
14.8090269771
 20
11.3641075471
 11
14.8694640502
 21
11.3641075471
  0
LINE
  5
244
100
AcDbEntity
  8
0
100
AcDbLine
 62
7
  6
CONTINUOUS
 10
15.0991249279
 20
11.3641075471
 11
15.159562001
 21
11.3641075471
  0
LINE
  5
245
100
AcDbEntity
  8
0
100
AcDbLine
 62
7
  6
CONTINUOUS
 10
15.3892228788
 20
11.3641075471
 11
15.4496599519
 21
11.3641075471
  0
LINE
  5
246
100
AcDbEntity
  8
0
100
AcDbLine
 62
7
  6
CONTINUOUS
 10
15.6793208297
 20
11.3641075471
 11
15.7397579028
 21
11.3641075471
  0
LINE
  5
247
100
AcDbEntity
  8
0
100
AcDbLine
 62
7
  6
CONTINUOUS
 10
15.9694187805
 20
11.3641075471
 11
15.9996373171
 21
11.3641075471
  0
LINE
  5
248
100
AcDbEntity
  8
0
100
AcDbLine
 62
7
  6
CONTINUOUS
 10
15.9684125591
 20
11.4277369139
 11
14.2278248539
 21
11.4277369139
  0
LINE
  5
249
100
AcDbEntity
  8
0
100
AcDbLine
 62
7
  6
CONTINUOUS
 10
14.7956607179
 20
11.342081997
 11
14.792858496
 21
11.3477923248
  0
LINE
  5
24A
100
AcDbEntity
  8
0
100
AcDbLine
 62
7
  6
CONTINUOUS
 10
14.9016452276
 20
11.3477923248
 11
14.9044474495
 21
11.342081997
  0
LINE
  5
24B
100
AcDbEntity
  8
0
100
AcDbLine
 62
7
  6
CONTINUOUS
 10
14.9425876199
 20
13.7407100723
 11
14.2278248539
 21
11.4277369139
  0
LINE
  5
24C
100
AcDbEntity
  8
0
100
AcDbLine
 62
7
  6
CONTINUOUS
 10
15.0857586688
 20
11.342081997
 11
15.0829564469
 21
11.3477923248
  0
LINE
  5
24D
100
AcDbEntity
  8
0
100
AcDbLine
 62
7
  6
CONTINUOUS
 10
15.1917431785
 20
11.3477923248
 11
15.1945454004
 21
11.342081997
  0
LINE
  5
24E
100
AcDbEntity
  8
0
100
AcDbLine
 62
7
  6
CONTINUOUS
 10
15.3758566197
 20
11.342081997
 11
15.3730543978
 21
11.3477923248
  0
LINE
  5
24F
100
AcDbEntity
  8
0
100
AcDbLine
 62
7
  6
CONTINUOUS
 10
14.5247312033
 20
11.3641075471
 11
14.5089446421
 21
11.3130222164
  0
LINE
  5
250
100
AcDbEntity
  8
0
100
AcDbLine
 62
7
  6
CONTINUOUS
 10
15.4818411294
 20
11.3477923248
 11
15.4846433512
 21
11.342081997
  0
LINE
  5
251
100
AcDbEntity
  8
0
100
AcDbLine
 62
7
  6
CONTINUOUS
 10
15.6659545705
 20
11.342081997
 11
15.6631523486
 21
11.3477923248
  0
LINE
  5
252
100
AcDbEntity
  8
0
100
AcDbLine
 62
7
  6
CONTINUOUS
 10
14.8148291541
 20
11.3641075471
 11
14.7990425929
 21
11.3130222164
  0
LINE
  5
253
100
AcDbEntity
  8
0
100
AcDbLine
 62
7
  6
CONTINUOUS
 10
15.7719390802
 20
11.3477923248
 11
15.7747413021
 21
11.342081997
  0
LINE
  5
254
100
AcDbEntity
  8
0
100
AcDbLine
 62
7
  6
CONTINUOUS
 10
15.104927105
 20
11.3641075471
 11
15.0891405438
 21
11.3130222164
  0
LINE
  5
255
100
AcDbEntity
  8
0
100
AcDbLine
 62
7
  6
CONTINUOUS
 10
15.9560525214
 20
11.342081997
 11
15.9532502995
 21
11.3477923248
  0
LINE
  5
256
100
AcDbEntity
  8
0
100
AcDbLine
 62
7
  6
CONTINUOUS
 10
15.9996373171
 20
11.3641075471
 11
15.9684125591
 21
11.4277369139
  0
LINE
  5
257
100
AcDbEntity
  8
0
100
AcDbLine
 62
7
  6
CONTINUOUS
 10
15.3950250559
 20
11.3641075471
 11
15.3792384947
 21
11.3130222164
  0
LINE
  5
258
100
AcDbEntity
  8
0
100
AcDbLine
 62
7
  6
CONTINUOUS
 10
15.6851230067
 20
11.3641075471
 11
15.6693364455
 21
11.3130222164
  0
LINE
  5
259
100
AcDbEntity
  8
0
100
AcDbLine
 62
7
  6
CONTINUOUS
 10
16.6831753251
 20
13.7407100723
 11
15.9684125591
 21
11.4277369139
  0
LINE
  5
25A
100
AcDbEntity
  8
0
100
AcDbLine
 62
7
  6
CONTINUOUS
 10
15.9752209576
 20
11.3641075471
 11
15.9594343964
 21
11.3130222164
  0
LINE
  5
25B
100
AcDbEntity
  8
0
100
AcDbLine
 62
7
  6
CONTINUOUS
 10
16.7144000831
 20
13.6770807054
 11
15.9996373171
 21
11.3641075471
  0
LINE
  5
25C
100
AcDbEntity
  8
0
100
AcDbLine
 62
7
  6
CONTINUOUS
 10
14.9425876199
 20
13.7407100723
 11
16.6831753251
 21
13.7407100723
  0
LINE
  5
25D
100
AcDbEntity
  8
0
100
AcDbLine
 62
7
  6
CONTINUOUS
 10
16.7144000831
 20
13.6770807054
 11
16.6831753251
 21
13.7407100723
  0
ARC
  5
25E
100
AcDbEntity
  8
0
100
AcDbCircle
 62
7
  6
CONTINUOUS
 10
5.3429657014
 20
5.5004348574
 40
0.0984251969
100
AcDbArc
 50
180.0
 51
360.0
  0
ARC
  5
25F
100
AcDbEntity
  8
0
100
AcDbCircle
 62
7
  6
CONTINUOUS
 10
5.6579263313
 20
5.5004348574
 40
0.0984251969
100
AcDbArc
 50
180.0
 51
360.0
  0
ARC
  5
260
100
AcDbEntity
  8
0
100
AcDbCircle
 62
7
  6
CONTINUOUS
 10
6.917768851
 20
5.5004348574
 40
0.0984251969
100
AcDbArc
 50
180.0
 51
360.0
  0
ARC
  5
261
100
AcDbEntity
  8
0
100
AcDbCircle
 62
7
  6
CONTINUOUS
 10
6.602808221
 20
5.5004348574
 40
0.0984251969
100
AcDbArc
 50
180.0
 51
360.0
  0
ARC
  5
262
100
AcDbEntity
  8
0
100
AcDbCircle
 62
7
  6
CONTINUOUS
 10
6.2878475911
 20
5.5004348574
 40
0.0984251969
100
AcDbArc
 50
180.0
 51
360.0
  0
ARC
  5
263
100
AcDbEntity
  8
0
100
AcDbCircle
 62
7
  6
CONTINUOUS
 10
5.9728869612
 20
5.5004348574
 40
0.0984251969
100
AcDbArc
 50
180.0
 51
360.0
  0
ARC
  5
264
100
AcDbEntity
  8
0
100
AcDbCircle
 62
7
  6
CONTINUOUS
 10
5.2182937854
 20
5.5096212091
 40
0.0262467192
100
AcDbArc
 50
0.0
 51
90.0
  0
ARC
  5
265
100
AcDbEntity
  8
0
100
AcDbCircle
 62
7
  6
CONTINUOUS
 10
5.4676376174
 20
5.5096212091
 40
0.0262467192
100
AcDbArc
 50
90.0
 51
180.0
  0
ARC
  5
266
100
AcDbEntity
  8
0
100
AcDbCircle
 62
7
  6
CONTINUOUS
 10
5.5332544153
 20
5.5096212091
 40
0.0262467192
100
AcDbArc
 50
0.0
 51
90.0
  0
ARC
  5
267
100
AcDbEntity
  8
0
100
AcDbCircle
 62
7
  6
CONTINUOUS
 10
5.7825982473
 20
5.5096212091
 40
0.0262467192
100
AcDbArc
 50
90.0
 51
180.0
  0
ARC
  5
268
100
AcDbEntity
  8
0
100
AcDbCircle
 62
7
  6
CONTINUOUS
 10
5.8482150452
 20
5.5096212091
 40
0.0262467192
100
AcDbArc
 50
0.0
 51
90.0
  0
ARC
  5
269
100
AcDbEntity
  8
0
100
AcDbCircle
 62
7
  6
CONTINUOUS
 10
6.0975588772
 20
5.5096212091
 40
0.0262467192
100
AcDbArc
 50
90.0
 51
180.0
  0
ARC
  5
26A
100
AcDbEntity
  8
0
100
AcDbCircle
 62
7
  6
CONTINUOUS
 10
6.1631756751
 20
5.5096212091
 40
0.0262467192
100
AcDbArc
 50
0.0
 51
90.0
  0
ARC
  5
26B
100
AcDbEntity
  8
0
100
AcDbCircle
 62
7
  6
CONTINUOUS
 10
6.4125195071
 20
5.5096212091
 40
0.0262467192
100
AcDbArc
 50
90.0
 51
180.0
  0
ARC
  5
26C
100
AcDbEntity
  8
0
100
AcDbCircle
 62
7
  6
CONTINUOUS
 10
6.478136305
 20
5.5096212091
 40
0.0262467192
100
AcDbArc
 50
0.0
 51
90.0
  0
ARC
  5
26D
100
AcDbEntity
  8
0
100
AcDbCircle
 62
7
  6
CONTINUOUS
 10
6.7274801371
 20
5.5096212091
 40
0.0262467192
100
AcDbArc
 50
90.0
 51
180.0
  0
ARC
  5
26E
100
AcDbEntity
  8
0
100
AcDbCircle
 62
7
  6
CONTINUOUS
 10
6.793096935
 20
5.5096212091
 40
0.0262467192
100
AcDbArc
 50
0.0
 51
90.0
  0
ARC
  5
26F
100
AcDbEntity
  8
0
100
AcDbCircle
 62
7
  6
CONTINUOUS
 10
7.042440767
 20
5.5096212091
 40
0.0262467192
100
AcDbArc
 50
90.0
 51
180.0
  0
SPLINE
  5
270
100
AcDbEntity
  8
0
100
AcDbSpline
 62
7
  6
CONTINUOUS
 70
0
 71
3
 72
11
 73
7
 74
0
 42
0.0000001
 43
0.0000001
 44
0.0000000001
 40
0.0
 40
0.0
 40
0.0
 40
0.0
 40
0.2022165581
 40
0.4300133913
 40
0.6962546182
 40
1.0
 40
1.0
 40
1.0
 40
1.0
 10
14.5018587429
 20
11.355541598
 30
0.0
 10
14.5022625008
 20
11.3568482646
 30
0.0
 10
14.503842034
 20
11.3594312804
 30
0.0
 10
14.5078046051
 20
11.362147727
 30
0.0
 10
14.5130049809
 20
11.3637809587
 30
0.0
 10
14.5168747445
 20
11.3641075471
 30
0.0
 10
14.5189290262
 20
11.3641075471
 30
0.0
  0
SPLINE
  5
271
100
AcDbEntity
  8
0
100
AcDbSpline
 62
7
  6
CONTINUOUS
 70
0
 71
3
 72
11
 73
7
 74
0
 42
0.0000001
 43
0.0000001
 44
0.0000000001
 40
0.0
 40
0.0
 40
0.0
 40
0.0
 40
0.2022165581
 40
0.4300133913
 40
0.6962546182
 40
1.0
 40
1.0
 40
1.0
 40
1.0
 10
14.7919566937
 20
11.355541598
 30
0.0
 10
14.7923604517
 20
11.3568482646
 30
0.0
 10
14.7939399848
 20
11.3594312804
 30
0.0
 10
14.7979025559
 20
11.362147727
 30
0.0
 10
14.8031029318
 20
11.3637809587
 30
0.0
 10
14.8069726954
 20
11.3641075471
 30
0.0
 10
14.8090269771
 20
11.3641075471
 30
0.0
  0
SPLINE
  5
272
100
AcDbEntity
  8
0
100
AcDbSpline
 62
7
  6
CONTINUOUS
 70
0
 71
3
 72
11
 73
7
 74
0
 42
0.0000001
 43
0.0000001
 44
0.0000000001
 40
0.0
 40
0.0
 40
0.0
 40
0.0
 40
0.2022165581
 40
0.4300133913
 40
0.6962546182
 40
1.0
 40
1.0
 40
1.0
 40
1.0
 10
15.0820546446
 20
11.355541598
 30
0.0
 10
15.0824584025
 20
11.3568482646
 30
0.0
 10
15.0840379357
 20
11.3594312804
 30
0.0
 10
15.0880005068
 20
11.362147727
 30
0.0
 10
15.0932008827
 20
11.3637809587
 30
0.0
 10
15.0970706463
 20
11.3641075471
 30
0.0
 10
15.0991249279
 20
11.3641075471
 30
0.0
  0
SPLINE
  5
273
100
AcDbEntity
  8
0
100
AcDbSpline
 62
7
  6
CONTINUOUS
 70
0
 71
3
 72
11
 73
7
 74
0
 42
0.0000001
 43
0.0000001
 44
0.0000000001
 40
0.0
 40
0.0
 40
0.0
 40
0.0
 40
0.2022165581
 40
0.4300133913
 40
0.6962546182
 40
1.0
 40
1.0
 40
1.0
 40
1.0
 10
15.3721525955
 20
11.355541598
 30
0.0
 10
15.3725563534
 20
11.3568482646
 30
0.0
 10
15.3741358866
 20
11.3594312804
 30
0.0
 10
15.3780984577
 20
11.362147727
 30
0.0
 10
15.3832988335
 20
11.3637809587
 30
0.0
 10
15.3871685971
 20
11.3641075471
 30
0.0
 10
15.3892228788
 20
11.3641075471
 30
0.0
  0
SPLINE
  5
274
100
AcDbEntity
  8
0
100
AcDbSpline
 62
7
  6
CONTINUOUS
 70
0
 71
3
 72
11
 73
7
 74
0
 42
0.0000001
 43
0.0000001
 44
0.0000000001
 40
0.0
 40
0.0
 40
0.0
 40
0.0
 40
0.2022165581
 40
0.4300133913
 40
0.6962546182
 40
1.0
 40
1.0
 40
1.0
 40
1.0
 10
15.6622505463
 20
11.355541598
 30
0.0
 10
15.6626543043
 20
11.3568482646
 30
0.0
 10
15.6642338374
 20
11.3594312804
 30
0.0
 10
15.6681964085
 20
11.362147727
 30
0.0
 10
15.6733967844
 20
11.3637809587
 30
0.0
 10
15.677266548
 20
11.3641075471
 30
0.0
 10
15.6793208297
 20
11.3641075471
 30
0.0
  0
SPLINE
  5
275
100
AcDbEntity
  8
0
100
AcDbSpline
 62
7
  6
CONTINUOUS
 70
0
 71
3
 72
11
 73
7
 74
0
 42
0.0000001
 43
0.0000001
 44
0.0000000001
 40
0.0
 40
0.0
 40
0.0
 40
0.0
 40
0.2022165581
 40
0.4300133913
 40
0.6962546182
 40
1.0
 40
1.0
 40
1.0
 40
1.0
 10
15.9523484972
 20
11.355541598
 30
0.0
 10
15.9527522551
 20
11.3568482646
 30
0.0
 10
15.9543317883
 20
11.3594312804
 30
0.0
 10
15.9582943594
 20
11.362147727
 30
0.0
 10
15.9634947353
 20
11.3637809587
 30
0.0
 10
15.9673644989
 20
11.3641075471
 30
0.0
 10
15.9694187805
 20
11.3641075471
 30
0.0
  0
SPLINE
  5
276
100
AcDbEntity
  8
0
100
AcDbSpline
 62
7
  6
CONTINUOUS
 70
0
 71
3
 72
17
 73
13
 74
0
 42
0.0000001
 43
0.0000001
 44
0.0000000001
 40
0.0
 40
0.0
 40
0.0
 40
0.0
 40
0.1137563052
 40
0.2471371484
 40
0.3933411901
 40
0.542281105
 40
0.6832493338
 40
0.8074179548
 40
0.8618928065
 40
0.9113660806
 40
0.9568207822
 40
1.0
 40
1.0
 40
1.0
 40
1.0
 10
15.7747413021
 20
11.342081997
 30
0.0
 10
15.7783685737
 20
11.3346903947
 30
0.0
 10
15.7896377538
 20
11.3203061641
 30
0.0
 10
15.8125848783
 20
11.3031205559
 30
0.0
 10
15.8408383327
 20
11.2898460348
 30
0.0
 10
15.8715694077
 20
11.2818629795
 30
0.0
 10
15.9016623781
 20
11.2799479749
 30
0.0
 10
15.9248133331
 20
11.28376705
 30
0.0
 10
15.9400290329
 20
11.2903882665
 30
0.0
 10
15.9489821586
 20
11.2966046076
 30
0.0
 10
15.9556911899
 20
11.3041578394
 30
0.0
 10
15.9585115129
 20
11.3100362878
 30
0.0
 10
15.9594343728
 20
11.3130222237
 30
0.0
  0
SPLINE
  5
277
100
AcDbEntity
  8
0
100
AcDbSpline
 62
7
  6
CONTINUOUS
 70
0
 71
3
 72
17
 73
13
 74
0
 42
0.0000001
 43
0.0000001
 44
0.0000000001
 40
0.0
 40
0.0
 40
0.0
 40
0.0
 40
0.1137676461
 40
0.2471380486
 40
0.393344036
 40
0.5422840271
 40
0.6832513686
 40
0.8074194343
 40
0.8618947818
 40
0.911368946
 40
0.9568233229
 40
1.0
 40
1.0
 40
1.0
 40
1.0
 10
15.4846433512
 20
11.342081997
 30
0.0
 10
15.4882709679
 20
11.3346896914
 30
0.0
 10
15.4995399046
 20
11.3203050705
 30
0.0
 10
15.5224886818
 20
11.3031216277
 30
0.0
 10
15.550740512
 20
11.2898458482
 30
0.0
 10
15.581471686
 20
11.2818627746
 30
0.0
 10
15.6115644693
 20
11.2799483966
 30
0.0
 10
15.634715133
 20
11.283768139
 30
0.0
 10
15.6499308647
 20
11.2903886428
 30
0.0
 10
15.6588850082
 20
11.2966042933
 30
0.0
 10
15.6655907926
 20
11.3041596709
 30
0.0
 10
15.6684138806
 20
11.3100363956
 30
0.0
 10
15.6693365685
 20
11.3130221774
 30
0.0
  0
SPLINE
  5
278
100
AcDbEntity
  8
0
100
AcDbSpline
 62
7
  6
CONTINUOUS
 70
0
 71
3
 72
17
 73
13
 74
0
 42
0.0000001
 43
0.0000001
 44
0.0000000001
 40
0.0
 40
0.0
 40
0.0
 40
0.0
 40
0.1137676461
 40
0.2471380486
 40
0.393344036
 40
0.5422840271
 40
0.6832513686
 40
0.8074194343
 40
0.8618947818
 40
0.911368946
 40
0.9568233229
 40
1.0
 40
1.0
 40
1.0
 40
1.0
 10
15.1945454004
 20
11.342081997
 30
0.0
 10
15.1981730171
 20
11.3346896914
 30
0.0
 10
15.2094419538
 20
11.3203050705
 30
0.0
 10
15.2323907309
 20
11.3031216277
 30
0.0
 10
15.2606425611
 20
11.2898458482
 30
0.0
 10
15.2913737352
 20
11.2818627746
 30
0.0
 10
15.3214665185
 20
11.2799483966
 30
0.0
 10
15.3446171821
 20
11.283768139
 30
0.0
 10
15.3598329138
 20
11.2903886428
 30
0.0
 10
15.3687870573
 20
11.2966042933
 30
0.0
 10
15.3754928418
 20
11.3041596709
 30
0.0
 10
15.3783159298
 20
11.3100363956
 30
0.0
 10
15.3792386176
 20
11.3130221774
 30
0.0
  0
SPLINE
  5
279
100
AcDbEntity
  8
0
100
AcDbSpline
 62
7
  6
CONTINUOUS
 70
0
 71
3
 72
17
 73
13
 74
0
 42
0.0000001
 43
0.0000001
 44
0.0000000001
 40
0.0
 40
0.0
 40
0.0
 40
0.0
 40
0.1137676461
 40
0.2471380486
 40
0.393344036
 40
0.5422840271
 40
0.6832513686
 40
0.8074194343
 40
0.8618947818
 40
0.911368946
 40
0.9568233229
 40
1.0
 40
1.0
 40
1.0
 40
1.0
 10
14.9044474495
 20
11.342081997
 30
0.0
 10
14.9080750662
 20
11.3346896914
 30
0.0
 10
14.9193440029
 20
11.3203050705
 30
0.0
 10
14.9422927801
 20
11.3031216277
 30
0.0
 10
14.9705446102
 20
11.2898458482
 30
0.0
 10
15.0012757843
 20
11.2818627746
 30
0.0
 10
15.0313685676
 20
11.2799483966
 30
0.0
 10
15.0545192313
 20
11.283768139
 30
0.0
 10
15.069734963
 20
11.2903886428
 30
0.0
 10
15.0786891065
 20
11.2966042933
 30
0.0
 10
15.0853948909
 20
11.3041596709
 30
0.0
 10
15.0882179789
 20
11.3100363956
 30
0.0
 10
15.0891406668
 20
11.3130221774
 30
0.0
  0
SPLINE
  5
27A
100
AcDbEntity
  8
0
100
AcDbSpline
 62
7
  6
CONTINUOUS
 70
0
 71
3
 72
17
 73
13
 74
0
 42
0.0000001
 43
0.0000001
 44
0.0000000001
 40
0.0
 40
0.0
 40
0.0
 40
0.0
 40
0.1137676461
 40
0.2471380486
 40
0.393344036
 40
0.5422840271
 40
0.6832513686
 40
0.8074194343
 40
0.8618947818
 40
0.911368946
 40
0.9568233229
 40
1.0
 40
1.0
 40
1.0
 40
1.0
 10
14.6143494986
 20
11.342081997
 30
0.0
 10
14.6179771153
 20
11.3346896914
 30
0.0
 10
14.629246052
 20
11.3203050705
 30
0.0
 10
14.6521948292
 20
11.3031216277
 30
0.0
 10
14.6804466594
 20
11.2898458482
 30
0.0
 10
14.7111778334
 20
11.2818627746
 30
0.0
 10
14.7412706167
 20
11.2799483966
 30
0.0
 10
14.7644212804
 20
11.283768139
 30
0.0
 10
14.7796370121
 20
11.2903886428
 30
0.0
 10
14.7885911556
 20
11.2966042933
 30
0.0
 10
14.79529694
 20
11.3041596709
 30
0.0
 10
14.798120028
 20
11.3100363956
 30
0.0
 10
14.7990427159
 20
11.3130221774
 30
0.0
  0
SPLINE
  5
27B
100
AcDbEntity
  8
0
100
AcDbSpline
 62
7
  6
CONTINUOUS
 70
0
 71
3
 72
17
 73
13
 74
0
 42
0.0000001
 43
0.0000001
 44
0.0000000001
 40
0.0
 40
0.0
 40
0.0
 40
0.0
 40
0.1137676461
 40
0.2471380486
 40
0.393344036
 40
0.5422840271
 40
0.6832513686
 40
0.8074194343
 40
0.8618947818
 40
0.911368946
 40
0.9568233229
 40
1.0
 40
1.0
 40
1.0
 40
1.0
 10
14.3242515478
 20
11.342081997
 30
0.0
 10
14.3278791645
 20
11.3346896914
 30
0.0
 10
14.3391481012
 20
11.3203050705
 30
0.0
 10
14.3620968783
 20
11.3031216277
 30
0.0
 10
14.3903487085
 20
11.2898458482
 30
0.0
 10
14.4210798826
 20
11.2818627746
 30
0.0
 10
14.4511726659
 20
11.2799483966
 30
0.0
 10
14.4743233295
 20
11.283768139
 30
0.0
 10
14.4895390612
 20
11.2903886428
 30
0.0
 10
14.4984932047
 20
11.2966042933
 30
0.0
 10
14.5051989892
 20
11.3041596709
 30
0.0
 10
14.5080220772
 20
11.3100363956
 30
0.0
 10
14.508944765
 20
11.3130221774
 30
0.0
  0
SPLINE
  5
27C
100
AcDbEntity
  8
0
100
AcDbSpline
 62
7
  6
CONTINUOUS
 70
0
 71
3
 72
11
 73
7
 74
0
 42
0.0000001
 43
0.0000001
 44
0.0000000001
 40
0.0
 40
0.0
 40
0.0
 40
0.0
 40
0.26473117
 40
0.5366462073
 40
0.7885239988
 40
1.0
 40
1.0
 40
1.0
 40
1.0
 10
14.2892681484
 20
11.3641075471
 30
0.0
 10
14.2925813541
 20
11.3641075471
 30
0.0
 10
14.2993114866
 20
11.3632002438
 30
0.0
 10
14.308647731
 20
11.3597724084
 30
0.0
 10
14.3164258504
 20
11.3547169994
 30
0.0
 10
14.3202833423
 20
11.3501683495
 30
0.0
 10
14.3214493259
 20
11.3477923248
 30
0.0
  0
SPLINE
  5
27D
100
AcDbEntity
  8
0
100
AcDbSpline
 62
7
  6
CONTINUOUS
 70
0
 71
3
 72
11
 73
7
 74
0
 42
0.0000001
 43
0.0000001
 44
0.0000000001
 40
0.0
 40
0.0
 40
0.0
 40
0.0
 40
0.26473117
 40
0.5366462073
 40
0.7885239988
 40
1.0
 40
1.0
 40
1.0
 40
1.0
 10
14.5793660993
 20
11.3641075471
 30
0.0
 10
14.582679305
 20
11.3641075471
 30
0.0
 10
14.5894094374
 20
11.3632002438
 30
0.0
 10
14.5987456819
 20
11.3597724084
 30
0.0
 10
14.6065238013
 20
11.3547169994
 30
0.0
 10
14.6103812932
 20
11.3501683495
 30
0.0
 10
14.6115472768
 20
11.3477923248
 30
0.0
  0
SPLINE
  5
27E
100
AcDbEntity
  8
0
100
AcDbSpline
 62
7
  6
CONTINUOUS
 70
0
 71
3
 72
11
 73
7
 74
0
 42
0.0000001
 43
0.0000001
 44
0.0000000001
 40
0.0
 40
0.0
 40
0.0
 40
0.0
 40
0.26473117
 40
0.5366462073
 40
0.7885239988
 40
1.0
 40
1.0
 40
1.0
 40
1.0
 10
14.8694640502
 20
11.3641075471
 30
0.0
 10
14.8727772558
 20
11.3641075471
 30
0.0
 10
14.8795073883
 20
11.3632002438
 30
0.0
 10
14.8888436328
 20
11.3597724084
 30
0.0
 10
14.8966217521
 20
11.3547169994
 30
0.0
 10
14.9004792441
 20
11.3501683495
 30
0.0
 10
14.9016452276
 20
11.3477923248
 30
0.0
  0
SPLINE
  5
27F
100
AcDbEntity
  8
0
100
AcDbSpline
 62
7
  6
CONTINUOUS
 70
0
 71
3
 72
11
 73
7
 74
0
 42
0.0000001
 43
0.0000001
 44
0.0000000001
 40
0.0
 40
0.0
 40
0.0
 40
0.0
 40
0.26473117
 40
0.5366462073
 40
0.7885239988
 40
1.0
 40
1.0
 40
1.0
 40
1.0
 10
15.159562001
 20
11.3641075471
 30
0.0
 10
15.1628752067
 20
11.3641075471
 30
0.0
 10
15.1696053392
 20
11.3632002438
 30
0.0
 10
15.1789415836
 20
11.3597724084
 30
0.0
 10
15.186719703
 20
11.3547169994
 30
0.0
 10
15.1905771949
 20
11.3501683495
 30
0.0
 10
15.1917431785
 20
11.3477923248
 30
0.0
  0
SPLINE
  5
280
100
AcDbEntity
  8
0
100
AcDbSpline
 62
7
  6
CONTINUOUS
 70
0
 71
3
 72
11
 73
7
 74
0
 42
0.0000001
 43
0.0000001
 44
0.0000000001
 40
0.0
 40
0.0
 40
0.0
 40
0.0
 40
0.26473117
 40
0.5366462073
 40
0.7885239988
 40
1.0
 40
1.0
 40
1.0
 40
1.0
 10
15.4496599519
 20
11.3641075471
 30
0.0
 10
15.4529731576
 20
11.3641075471
 30
0.0
 10
15.45970329
 20
11.3632002438
 30
0.0
 10
15.4690395345
 20
11.3597724084
 30
0.0
 10
15.4768176539
 20
11.3547169994
 30
0.0
 10
15.4806751458
 20
11.3501683495
 30
0.0
 10
15.4818411294
 20
11.3477923248
 30
0.0
  0
SPLINE
  5
281
100
AcDbEntity
  8
0
100
AcDbSpline
 62
7
  6
CONTINUOUS
 70
0
 71
3
 72
11
 73
7
 74
0
 42
0.0000001
 43
0.0000001
 44
0.0000000001
 40
0.0
 40
0.0
 40
0.0
 40
0.0
 40
0.26473117
 40
0.5366462073
 40
0.7885239988
 40
1.0
 40
1.0
 40
1.0
 40
1.0
 10
15.7397579028
 20
11.3641075471
 30
0.0
 10
15.7430711084
 20
11.3641075471
 30
0.0
 10
15.7498012409
 20
11.3632002438
 30
0.0
 10
15.7591374854
 20
11.3597724084
 30
0.0
 10
15.7669156047
 20
11.3547169994
 30
0.0
 10
15.7707730967
 20
11.3501683495
 30
0.0
 10
15.7719390802
 20
11.3477923248
 30
0.0
  0
SPLINE
  5
282
100
AcDbEntity
  8
0
100
AcDbSpline
 62
7
  6
CONTINUOUS
 70
0
 71
3
 72
9
 73
5
 74
0
 42
0.0000001
 43
0.0000001
 44
0.0000000001
 40
0.0
 40
0.0
 40
0.0
 40
0.0
 40
0.4740410786
 40
1.0
 40
1.0
 40
1.0
 40
1.0
 10
15.6693365685
 20
11.3130221774
 30
0.0
 10
15.6707268273
 20
11.3175210003
 30
0.0
 10
15.6714789992
 20
11.3277690049
 30
0.0
 10
15.6682561635
 20
11.3373918437
 30
0.0
 10
15.6659545705
 20
11.342081997
 30
0.0
  0
SPLINE
  5
283
100
AcDbEntity
  8
0
100
AcDbSpline
 62
7
  6
CONTINUOUS
 70
0
 71
3
 72
9
 73
5
 74
0
 42
0.0000001
 43
0.0000001
 44
0.0000000001
 40
0.0
 40
0.0
 40
0.0
 40
0.0
 40
0.4739980869
 40
1.0
 40
1.0
 40
1.0
 40
1.0
 10
15.9594343728
 20
11.3130222237
 30
0.0
 10
15.960824681
 20
11.3175205995
 30
0.0
 10
15.9615776482
 20
11.3277686188
 30
0.0
 10
15.9583543095
 20
11.3373914459
 30
0.0
 10
15.9560525214
 20
11.342081997
 30
0.0
  0
SPLINE
  5
284
100
AcDbEntity
  8
0
100
AcDbSpline
 62
7
  6
CONTINUOUS
 70
0
 71
3
 72
9
 73
5
 74
0
 42
0.0000001
 43
0.0000001
 44
0.0000000001
 40
0.0
 40
0.0
 40
0.0
 40
0.0
 40
0.4740410786
 40
1.0
 40
1.0
 40
1.0
 40
1.0
 10
15.0891406668
 20
11.3130221774
 30
0.0
 10
15.0905309256
 20
11.3175210003
 30
0.0
 10
15.0912830974
 20
11.3277690049
 30
0.0
 10
15.0880602618
 20
11.3373918437
 30
0.0
 10
15.0857586688
 20
11.342081997
 30
0.0
  0
SPLINE
  5
285
100
AcDbEntity
  8
0
100
AcDbSpline
 62
7
  6
CONTINUOUS
 70
0
 71
3
 72
9
 73
5
 74
0
 42
0.0000001
 43
0.0000001
 44
0.0000000001
 40
0.0
 40
0.0
 40
0.0
 40
0.0
 40
0.5257432445
 40
1.0
 40
1.0
 40
1.0
 40
1.0
 10
14.5027605452
 20
11.3477923248
 30
0.0
 10
14.5021470608
 20
11.3490424745
 30
0.0
 10
14.5012888506
 20
11.3516086133
 30
0.0
 10
14.5014878834
 20
11.3543413996
 30
0.0
 10
14.5018587429
 20
11.355541598
 30
0.0
  0
SPLINE
  5
286
100
AcDbEntity
  8
0
100
AcDbSpline
 62
7
  6
CONTINUOUS
 70
0
 71
3
 72
9
 73
5
 74
0
 42
0.0000001
 43
0.0000001
 44
0.0000000001
 40
0.0
 40
0.0
 40
0.0
 40
0.0
 40
0.4740410786
 40
1.0
 40
1.0
 40
1.0
 40
1.0
 10
14.508944765
 20
11.3130221774
 30
0.0
 10
14.5103350238
 20
11.3175210003
 30
0.0
 10
14.5110871957
 20
11.3277690049
 30
0.0
 10
14.50786436
 20
11.3373918437
 30
0.0
 10
14.505562767
 20
11.342081997
 30
0.0
  0
SPLINE
  5
287
100
AcDbEntity
  8
0
100
AcDbSpline
 62
7
  6
CONTINUOUS
 70
0
 71
3
 72
9
 73
5
 74
0
 42
0.0000001
 43
0.0000001
 44
0.0000000001
 40
0.0
 40
0.0
 40
0.0
 40
0.0
 40
0.5257432445
 40
1.0
 40
1.0
 40
1.0
 40
1.0
 10
14.792858496
 20
11.3477923248
 30
0.0
 10
14.7922450117
 20
11.3490424745
 30
0.0
 10
14.7913868015
 20
11.3516086133
 30
0.0
 10
14.7915858343
 20
11.3543413996
 30
0.0
 10
14.7919566937
 20
11.355541598
 30
0.0
  0
SPLINE
  5
288
100
AcDbEntity
  8
0
100
AcDbSpline
 62
7
  6
CONTINUOUS
 70
0
 71
3
 72
9
 73
5
 74
0
 42
0.0000001
 43
0.0000001
 44
0.0000000001
 40
0.0
 40
0.0
 40
0.0
 40
0.0
 40
0.5257432445
 40
1.0
 40
1.0
 40
1.0
 40
1.0
 10
15.0829564469
 20
11.3477923248
 30
0.0
 10
15.0823429626
 20
11.3490424745
 30
0.0
 10
15.0814847523
 20
11.3516086133
 30
0.0
 10
15.0816837851
 20
11.3543413996
 30
0.0
 10
15.0820546446
 20
11.355541598
 30
0.0
  0
SPLINE
  5
289
100
AcDbEntity
  8
0
100
AcDbSpline
 62
7
  6
CONTINUOUS
 70
0
 71
3
 72
9
 73
5
 74
0
 42
0.0000001
 43
0.0000001
 44
0.0000000001
 40
0.0
 40
0.0
 40
0.0
 40
0.0
 40
0.5257432445
 40
1.0
 40
1.0
 40
1.0
 40
1.0
 10
15.3730543978
 20
11.3477923248
 30
0.0
 10
15.3724409134
 20
11.3490424745
 30
0.0
 10
15.3715827032
 20
11.3516086133
 30
0.0
 10
15.371781736
 20
11.3543413996
 30
0.0
 10
15.3721525955
 20
11.355541598
 30
0.0
  0
SPLINE
  5
28A
100
AcDbEntity
  8
0
100
AcDbSpline
 62
7
  6
CONTINUOUS
 70
0
 71
3
 72
9
 73
5
 74
0
 42
0.0000001
 43
0.0000001
 44
0.0000000001
 40
0.0
 40
0.0
 40
0.0
 40
0.0
 40
0.4740410786
 40
1.0
 40
1.0
 40
1.0
 40
1.0
 10
15.3792386176
 20
11.3130221774
 30
0.0
 10
15.3806288764
 20
11.3175210003
 30
0.0
 10
15.3813810483
 20
11.3277690049
 30
0.0
 10
15.3781582126
 20
11.3373918437
 30
0.0
 10
15.3758566197
 20
11.342081997
 30
0.0
  0
SPLINE
  5
28B
100
AcDbEntity
  8
0
100
AcDbSpline
 62
7
  6
CONTINUOUS
 70
0
 71
3
 72
9
 73
5
 74
0
 42
0.0000001
 43
0.0000001
 44
0.0000000001
 40
0.0
 40
0.0
 40
0.0
 40
0.0
 40
0.5257432445
 40
1.0
 40
1.0
 40
1.0
 40
1.0
 10
15.6631523486
 20
11.3477923248
 30
0.0
 10
15.6625388643
 20
11.3490424745
 30
0.0
 10
15.6616806541
 20
11.3516086133
 30
0.0
 10
15.6618796869
 20
11.3543413996
 30
0.0
 10
15.6622505463
 20
11.355541598
 30
0.0
  0
SPLINE
  5
28C
100
AcDbEntity
  8
0
100
AcDbSpline
 62
7
  6
CONTINUOUS
 70
0
 71
3
 72
9
 73
5
 74
0
 42
0.0000001
 43
0.0000001
 44
0.0000000001
 40
0.0
 40
0.0
 40
0.0
 40
0.0
 40
0.4740410786
 40
1.0
 40
1.0
 40
1.0
 40
1.0
 10
14.7990427159
 20
11.3130221774
 30
0.0
 10
14.8004329747
 20
11.3175210003
 30
0.0
 10
14.8011851466
 20
11.3277690049
 30
0.0
 10
14.7979623109
 20
11.3373918437
 30
0.0
 10
14.7956607179
 20
11.342081997
 30
0.0
  0
SPLINE
  5
28D
100
AcDbEntity
  8
0
100
AcDbSpline
 62
7
  6
CONTINUOUS
 70
0
 71
3
 72
9
 73
5
 74
0
 42
0.0000001
 43
0.0000001
 44
0.0000000001
 40
0.0
 40
0.0
 40
0.0
 40
0.0
 40
0.5257432445
 40
1.0
 40
1.0
 40
1.0
 40
1.0
 10
15.9532502995
 20
11.3477923248
 30
0.0
 10
15.9526368152
 20
11.3490424745
 30
0.0
 10
15.9517786049
 20
11.3516086133
 30
0.0
 10
15.9519776377
 20
11.3543413996
 30
0.0
 10
15.9523484972
 20
11.355541598
 30
0.0
  0
ENDSEC
  0
SECTION
  2
OBJECTS
  0
DICTIONARY
  5
C
100
AcDbDictionary
280
0
281
1
  3
ACAD_GROUP
350
D
  3
ACAD_MLINESTYLE
350
17
  3
ACAD_LAYOUT
350
1A
  3
ACAD_PLOTSETTINGS
350
19
  3
ACAD_PLOTSTYLENAME
350
E
  0
DICTIONARY
  5
D
102
{ACAD_REACTORS
330
C
102
}
100
AcDbDictionary
280
0
281
1
  0
ACDBDICTIONARYWDFLT
  5
E
102
{ACAD_REACTORS
330
C
102
}
100
AcDbDictionary
281
1
  3
Normal
350
F
100
AcDbDictionaryWithDefault
340
F
  0
DICTIONARY
  5
17
102
{ACAD_REACTORS
330
C
102
}
100
AcDbDictionary
280
0
281
1
  3
Standard
350
18
  0
DICTIONARY
  5
19
102
{ACAD_REACTORS
330
C
102
}
100
AcDbDictionary
281
1
  0
DICTIONARY
  5
1A
102
{ACAD_REACTORS
330
C
102
}
100
AcDbDictionary
281
1
  3
Model
350
28E
  3
Layout1
350
28F
  0
ACDBPLACEHOLDER
  5
F
102
{ACAD_REACTORS
330
E
102
}
  0
MLINESTYLE
  5
18
102
{ACAD_REACTORS
330
17
102
}
100
AcDbMlineStyle
  2
STANDARD
 70
0
  3

 62
256
 51
90.0
 52
90.0
 71
2
 49
0.5
 62
256
  6
BYLAYER
 49
-0.5
 62
256
  6
BYLAYER
  0
LAYOUT
  5
28E
102
{ACAD_REACTORS
330
1A
102
}
100
AcDbPlotSettings
  1

  2
none_device
  4
ANSI_C_(22.00_x_17.00_Inches)
  6

 40
0.0
 41
0.0
 42
0.0
 43
0.0
 44
558.8
 45
431.8
 46
0.0
 47
0.0
 48
0.0
 49
0.0
140
0.0
141
0.0
142
1.0
143
1.0
 70
1024
 72
0
 73
0
 74
0
  7

 75
0
147
1.0
148
0.0
149
0.0
100
AcDbLayout
  1
Model
 70
0
 71
0
 10
0.0
 20
0.0
 11
22.0
 21
17.0
 12
0.0
 22
0.0
 32
0.0
 14
0.0
 24
0.0
 34
0.0
 15
0.0
 25
0.0
 35
0.0
146
0.0
 13
0.0
 23
0.0
 33
0.0
 16
1.0
 26
0.0
 36
0.0
 17
0.0
 27
1.0
 37
0.0
 76
0
330
216
345
0
346
0
  0
LAYOUT
  5
28F
102
{ACAD_REACTORS
330
1A
102
}
100
AcDbPlotSettings
  1

  2
none_device
  4
ANSI_C_(22.00_x_17.00_Inches)
  6

 40
0.0
 41
0.0
 42
0.0
 43
0.0
 44
558.8
 45
431.8
 46
0.0
 47
0.0
 48
0.0
 49
0.0
140
0.0
141
0.0
142
1.0
143
1.0
 70
0
 72
0
 73
0
 74
0
  7

 75
0
147
1.0
148
0.0
149
0.0
100
AcDbLayout
  1
Layout1
 70
0
 71
1
 10
0.0
 20
0.0
 11
22.0
 21
17.0
 12
0.0
 22
0.0
 32
0.0
 14
0.0
 24
0.0
 34
0.0
 15
0.0
 25
0.0
 35
0.0
146
0.0
 13
0.0
 23
0.0
 33
0.0
 16
1.0
 26
0.0
 36
0.0
 17
0.0
 27
1.0
 37
0.0
 76
0
330
217
345
0
346
0
  0
ENDSEC
  0
EOF