999
DXF file: _cgs_temp_output.dxf
999
Pro/ENGINEER 2016360 by Parametric Technology Corporation
  0
SECTION
  2
HEADER
  9
$ACADVER
  1
AC1021
  9
$DWGCODEPAGE
  3
ANSI_1252
  9
$EXTMAX
 10
22.0
 20
17.0
 30
0.0
  9
$EXTMIN
 10
0.0
 20
0.0
 30
0.0
  9
$LIMMIN
 10
0.0
 20
0.0
  9
$LIMMAX
 10
22.0
 20
17.0
  9
$VIEWCTR
 10
11.0
 20
8.5
  9
$VIEWSIZE
 40
17.0
  9
$CLAYER
  8
0
  9
$LTSCALE
 40
1.21
  9
$CELTYPE
  6
BYLAYER
  9
$DIMSCALE
 40
1.0
  9
$DIMASZ
 40
0.1875
  9
$DIMEXO
 40
0.0625
  9
$DIMDLI
 40
0.836
  9
$DIMEXE
 40
0.125
  9
$DIMCEN
 40
0.198
  9
$DIMLFAC
 40
1.0
  9
$DIMBLK
  1
_CLOSED
  9
$DIMALT
 70
0
  9
$DIMALTF
 40
25.4
  9
$DIMTXT
 40
0.15625
  9
$DIMTOL
 70
0
  9
$DIMLIM
 70
0
  9
$DIMTFAC
 40
1.0
  9
$DIMGAP
 40
0.09
  9
$DIMDSEP
 70
46
  9
$AUNITS
 70
0
  9
$PDMODE
 70
3
  9
$PDSIZE
 40
0.3125
  9
$HANDSEED
  5
3BC
  9
$TILEMODE
 70
1
  9
$MEASUREMENT
 70
0
  9
$INSUNITS
 70
1
  0
ENDSEC
  0
SECTION
  2
CLASSES
  0
CLASS
  1
ACDBDICTIONARYWDFLT
  2
AcDbDictionaryWithDefault
  3
AutoCAD 2000
 90
0
 91
1
280
0
281
0
  0
CLASS
  1
ACDBPLACEHOLDER
  2
AcDbPlaceHolder
  3
AutoCAD 2000
 90
0
 91
1
280
0
281
0
  0
CLASS
  1
LAYOUT
  2
AcDbLayout
  3
AutoCAD 2000
 90
0
 91
0
280
0
281
0
  0
ENDSEC
  0
SECTION
  2
TABLES
  0
TABLE
  2
VPORT
  5
8
100
AcDbSymbolTable
 70
2
  0
VPORT
  5
1F4
100
AcDbSymbolTableRecord
100
AcDbViewportTableRecord
  2
*ACTIVE
 70
0
 10
0.0
 20
0.0
 11
1.0
 21
1.0
 12
11.0
 22
8.5
 13
0.0
 23
0.0
 14
1.0
 24
1.0
 15
0.0
 25
0.0
 16
0.0
 26
0.0
 36
1.0
 17
0.0
 27
0.0
 37
0.0
 40
17.0
 41
1.2941176471
 42
50.0
 43
0.0
 44
0.0
 50
0.0
 51
0.0
 71
0
 72
100
 73
1
 74
1
 75
0
 76
0
 77
0
 78
0
  0
ENDTAB
  0
TABLE
  2
LTYPE
  5
5
100
AcDbSymbolTable
 70
6
  0
LTYPE
  5
14
100
AcDbSymbolTableRecord
100
AcDbLinetypeTableRecord
  2
BYBLOCK
 70
0
  3

 72
65
 73
0
 40
0.0
  0
LTYPE
  5
15
100
AcDbSymbolTableRecord
100
AcDbLinetypeTableRecord
  2
BYLAYER
 70
0
  3

 72
65
 73
0
 40
0.0
  0
LTYPE
  5
16
100
AcDbSymbolTableRecord
100
AcDbLinetypeTableRecord
  2
CONTINUOUS
 70
64
  3
Solid line
 72
65
 73
0
 40
0.0
  0
LTYPE
  5
1F5
100
AcDbSymbolTableRecord
100
AcDbLinetypeTableRecord
  2
CENTER
 70
64
  3
____ _ ____ _ ____ _ ____ _ ____ _ ____ _ ____
 72
65
 73
4
 40
0.6
 49
0.375
 74
0
 49
-0.075
 74
0
 49
0.075
 74
0
 49
-0.075
 74
0
  0
LTYPE
  5
1F6
100
AcDbSymbolTableRecord
100
AcDbLinetypeTableRecord
  2
HIDDEN
 70
64
  3
- - - - - - - - - - - - - - - - - - - -
 72
65
 73
2
 40
0.2
 49
0.1
 74
0
 49
-0.1
 74
0
  0
LTYPE
  5
1F7
100
AcDbSymbolTableRecord
100
AcDbLinetypeTableRecord
  2
PHANTOM
 70
64
  3
_____ _ _ _____ _ _ _____ _ _ _____
 72
65
 73
6
 40
0.8
 49
0.45
 74
0
 49
-0.05
 74
0
 49
0.1
 74
0
 49
-0.05
 74
0
 49
0.1
 74
0
 49
-0.05
 74
0
  0
LTYPE
  5
1F8
100
AcDbSymbolTableRecord
100
AcDbLinetypeTableRecord
  2
DOT
 70
64
  3
. . . . . . . . . . . . . . . . . . . .
 72
65
 73
2
 40
0.2
 49
0.1
 74
0
 49
-0.1
 74
0
  0
LTYPE
  5
1F9
100
AcDbSymbolTableRecord
100
AcDbLinetypeTableRecord
  2
DASHED
 70
64
  3
- - - - - - - - - - - - - - - - - - - -
 72
65
 73
2
 40
0.2
 49
0.1
 74
0
 49
-0.1
 74
0
  0
ENDTAB
  0
TABLE
  2
LAYER
  5
2
100
AcDbSymbolTable
 70
36
  0
LAYER
  5
10
100
AcDbSymbolTableRecord
100
AcDbLayerTableRecord
  2
0
 70
0
 62
7
  6
CONTINUOUS
370
-3
390
F
  0
LAYER
  5
1FA
100
AcDbSymbolTableRecord
100
AcDbLayerTableRecord
  2
DEFAULT_1
 70
0
 62
7
  6
CENTER
370
-3
390
F
  0
LAYER
  5
1FB
100
AcDbSymbolTableRecord
100
AcDbLayerTableRecord
  2
DEFAULT_2
 70
0
 62
8
  6
HIDDEN
370
-3
390
F
  0
LAYER
  5
1FC
100
AcDbSymbolTableRecord
100
AcDbLayerTableRecord
  2
DEFAULT_3
 70
0
 62
7
  6
PHANTOM
370
-3
390
F
  0
LAYER
  5
1FD
100
AcDbSymbolTableRecord
100
AcDbLayerTableRecord
  2
01_ALL_DTM_PLN
 70
0
 62
7
  6
CONTINUOUS
370
-3
390
F
  0
LAYER
  5
1FE
100
AcDbSymbolTableRecord
100
AcDbLayerTableRecord
  2
01__ASM_ALL_DTM_PLN
 70
0
 62
7
  6
CONTINUOUS
370
-3
390
F
  0
LAYER
  5
1FF
100
AcDbSymbolTableRecord
100
AcDbLayerTableRecord
  2
01__ASM_DEF_DTM_PLN
 70
0
 62
7
  6
CONTINUOUS
370
-3
390
F
  0
LAYER
  5
200
100
AcDbSymbolTableRecord
100
AcDbLayerTableRecord
  2
01___PRT_ALL_DTM_PLN
 70
0
 62
7
  6
CONTINUOUS
370
-3
390
F
  0
LAYER
  5
201
100
AcDbSymbolTableRecord
100
AcDbLayerTableRecord
  2
01___PRT_DEF_DTM_PLN
 70
0
 62
7
  6
CONTINUOUS
370
-3
390
F
  0
LAYER
  5
202
100
AcDbSymbolTableRecord
100
AcDbLayerTableRecord
  2
02_ALL_AXES
 70
0
 62
7
  6
CONTINUOUS
370
-3
390
F
  0
LAYER
  5
203
100
AcDbSymbolTableRecord
100
AcDbLayerTableRecord
  2
02__ASM_ALL_AXES
 70
0
 62
7
  6
CONTINUOUS
370
-3
390
F
  0
LAYER
  5
204
100
AcDbSymbolTableRecord
100
AcDbLayerTableRecord
  2
02___PRT_ALL_AXES
 70
0
 62
7
  6
CONTINUOUS
370
-3
390
F
  0
LAYER
  5
205
100
AcDbSymbolTableRecord
100
AcDbLayerTableRecord
  2
03_ALL_CURVES
 70
0
 62
7
  6
CONTINUOUS
370
-3
390
F
  0
LAYER
  5
206
100
AcDbSymbolTableRecord
100
AcDbLayerTableRecord
  2
03__ASM_ALL_CURVES
 70
0
 62
7
  6
CONTINUOUS
370
-3
390
F
  0
LAYER
  5
207
100
AcDbSymbolTableRecord
100
AcDbLayerTableRecord
  2
03___PRT_ALL_CURVES
 70
0
 62
7
  6
CONTINUOUS
370
-3
390
F
  0
LAYER
  5
208
100
AcDbSymbolTableRecord
100
AcDbLayerTableRecord
  2
04_ALL_DTM_PNT
 70
0
 62
7
  6
CONTINUOUS
370
-3
390
F
  0
LAYER
  5
209
100
AcDbSymbolTableRecord
100
AcDbLayerTableRecord
  2
04__ASM_ALL_DTM_PNT
 70
0
 62
7
  6
CONTINUOUS
370
-3
390
F
  0
LAYER
  5
20A
100
AcDbSymbolTableRecord
100
AcDbLayerTableRecord
  2
04___PRT_ALL_DTM_PNT
 70
0
 62
7
  6
CONTINUOUS
370
-3
390
F
  0
LAYER
  5
20B
100
AcDbSymbolTableRecord
100
AcDbLayerTableRecord
  2
05_ALL_DTM_CSYS
 70
0
 62
7
  6
CONTINUOUS
370
-3
390
F
  0
LAYER
  5
20C
100
AcDbSymbolTableRecord
100
AcDbLayerTableRecord
  2
05__ASM_ALL_DTM_CSYS
 70
0
 62
7
  6
CONTINUOUS
370
-3
390
F
  0
LAYER
  5
20D
100
AcDbSymbolTableRecord
100
AcDbLayerTableRecord
  2
05__ASM_DEF_DTM_CSYS
 70
0
 62
7
  6
CONTINUOUS
370
-3
390
F
  0
LAYER
  5
20E
100
AcDbSymbolTableRecord
100
AcDbLayerTableRecord
  2
05___PRT_ALL_DTM_CSYS
 70
0
 62
7
  6
CONTINUOUS
370
-3
390
F
  0
LAYER
  5
20F
100
AcDbSymbolTableRecord
100
AcDbLayerTableRecord
  2
05___PRT_DEF_DTM_CSYS
 70
0
 62
7
  6
CONTINUOUS
370
-3
390
F
  0
LAYER
  5
210
100
AcDbSymbolTableRecord
100
AcDbLayerTableRecord
  2
06_ALL_SURFS
 70
0
 62
7
  6
CONTINUOUS
370
-3
390
F
  0
LAYER
  5
211
100
AcDbSymbolTableRecord
100
AcDbLayerTableRecord
  2
06__ASM_ALL_SURFS
 70
0
 62
7
  6
CONTINUOUS
370
-3
390
F
  0
LAYER
  5
212
100
AcDbSymbolTableRecord
100
AcDbLayerTableRecord
  2
06___PRT_ALL_SURFS
 70
0
 62
7
  6
CONTINUOUS
370
-3
390
F
  0
LAYER
  5
213
100
AcDbSymbolTableRecord
100
AcDbLayerTableRecord
  2
07__ASM_ALL_SKELETONS
 70
0
 62
7
  6
CONTINUOUS
370
-3
390
F
  0
LAYER
  5
214
100
AcDbSymbolTableRecord
100
AcDbLayerTableRecord
  2
LAYER_AXIS
 70
0
 62
7
  6
CONTINUOUS
370
-3
390
F
  0
LAYER
  5
215
100
AcDbSymbolTableRecord
100
AcDbLayerTableRecord
  2
LAYER_CHAMFER_FEAT
 70
0
 62
7
  6
CONTINUOUS
370
-3
390
F
  0
LAYER
  5
216
100
AcDbSymbolTableRecord
100
AcDbLayerTableRecord
  2
LAYER_CUT_FEAT
 70
0
 62
7
  6
CONTINUOUS
370
-3
390
F
  0
LAYER
  5
217
100
AcDbSymbolTableRecord
100
AcDbLayerTableRecord
  2
LAYER_DATUM
 70
0
 62
7
  6
CONTINUOUS
370
-3
390
F
  0
LAYER
  5
218
100
AcDbSymbolTableRecord
100
AcDbLayerTableRecord
  2
LAYER_DIM
 70
0
 62
7
  6
CONTINUOUS
370
-3
390
F
  0
LAYER
  5
219
100
AcDbSymbolTableRecord
100
AcDbLayerTableRecord
  2
LAYER_FEATURE
 70
0
 62
7
  6
CONTINUOUS
370
-3
390
F
  0
LAYER
  5
21A
100
AcDbSymbolTableRecord
100
AcDbLayerTableRecord
  2
LAYER_GEOM_FEAT
 70
0
 62
7
  6
CONTINUOUS
370
-3
390
F
  0
LAYER
  5
21B
100
AcDbSymbolTableRecord
100
AcDbLayerTableRecord
  2
LAYER_NOGEOM_FEAT
 70
0
 62
7
  6
CONTINUOUS
370
-3
390
F
  0
LAYER
  5
21C
100
AcDbSymbolTableRecord
100
AcDbLayerTableRecord
  2
LAYER_PARAMETER_DIM
 70
0
 62
7
  6
CONTINUOUS
370
-3
390
F
  0
LAYER
  5
21D
100
AcDbSymbolTableRecord
100
AcDbLayerTableRecord
  2
LAYER_PROTRUSION_FEAT
 70
0
 62
7
  6
CONTINUOUS
370
-3
390
F
  0
LAYER
  5
21E
100
AcDbSymbolTableRecord
100
AcDbLayerTableRecord
  2
LAYER_QUILT
 70
0
 62
7
  6
CONTINUOUS
370
-3
390
F
  0
LAYER
  5
21F
100
AcDbSymbolTableRecord
100
AcDbLayerTableRecord
  2
LAYER_ROUND_FEAT
 70
0
 62
7
  6
CONTINUOUS
370
-3
390
F
  0
ENDTAB
  0
TABLE
  2
STYLE
  5
3
100
AcDbSymbolTable
 70
1
  0
STYLE
  5
11
100
AcDbSymbolTableRecord
100
AcDbTextStyleTableRecord
  2
STANDARD
 70
0
 40
0.0
 41
0.8
 50
0.0
 71
0
 42
0.2
  3
txt
  4

  0
STYLE
  5
220
100
AcDbSymbolTableRecord
100
AcDbTextStyleTableRecord
  2
TEXTSTYLE_1
 70
0
 40
0.0
 41
0.8
 50
0.0
 71
0
 42
0.2
  3
gdt
  4

  0
ENDTAB
  0
TABLE
  2
VIEW
  5
6
100
AcDbSymbolTable
 70
0
  0
ENDTAB
  0
TABLE
  2
UCS
  5
7
100
AcDbSymbolTable
 70
0
  0
ENDTAB
  0
TABLE
  2
APPID
  5
9
100
AcDbSymbolTable
 70
1
  0
APPID
  5
221
100
AcDbSymbolTableRecord
100
AcDbRegAppTableRecord
  2
ACAD
 70
0
  0
ENDTAB
  0
TABLE
  2
BLOCK_RECORD
  5
1
100
AcDbSymbolTable
 70
0
  0
BLOCK_RECORD
  5
222
100
AcDbSymbolTableRecord
100
AcDbBlockTableRecord
  2
*Model_Space
  0
BLOCK_RECORD
  5
223
100
AcDbSymbolTableRecord
100
AcDbBlockTableRecord
  2
*Paper_Space
  0
ENDTAB
  0
TABLE
  2
DIMSTYLE
  5
A
100
AcDbSymbolTable
 70
1
100
AcDbDimStyleTable
 71
0
  0
DIMSTYLE
105
224
100
AcDbSymbolTableRecord
100
AcDbDimStyleTableRecord
  2
STANDARD
 70
0
  3

  4

 40
1.0
 41
0.1875
 42
0.0625
 43
0.38
 44
0.125
 45
0.0
 46
0.0
 47
0.0001
 48
0.0001
140
0.15625
141
0.09
142
0.0
143
25.4
144
1.0
145
0.0
146
1.0
147
0.09
 71
0.0
 72
0.0
 73
1
 74
1
 75
0
 76
0
 77
0
 78
4
 79
1
170
0
171
3
172
0
173
0
174
0
175
0
176
0
177
0
178
0
270
2
179
4
271
4
272
4
273
2
274
2
275
0
280
0
281
0
282
0
283
1
284
4
285
0
286
0
287
3
288
0
340
11
278
46
  0
ENDTAB
  0
ENDSEC
  0
SECTION
  2
BLOCKS
  0
BLOCK
  5
20
100
AcDbEntity
  8
0
100
AcDbBlockBegin
  2
*Model_Space
 70
0
 10
0.0
 20
0.0
 30
0.0
  3
*Model_Space
  1

  0
ENDBLK
  5
21
100
AcDbEntity
  8
0
100
AcDbBlockEnd
  0
BLOCK
  5
1C
100
AcDbEntity
  8
0
100
AcDbBlockBegin
  2
*Paper_Space
 70
0
 10
0.0
 20
0.0
 30
0.0
  3
*Paper_Space
  1

  0
ENDBLK
  5
1D
100
AcDbEntity
  8
0
100
AcDbBlockEnd
  0
ENDSEC
  0
SECTION
  2
ENTITIES
  0
MTEXT
  5
225
100
AcDbEntity
  8
0
100
AcDbMText
 62
7
  6
CONTINUOUS
  7
STANDARD
 71
1
 72
1
 10
15.9560215477
 20
0.9479130325
 30
0.0
 11
1.0
 21
0.0
 31
0.0
 44
0.9
  1
SCALE: 1:0.125
 40
0.3
 41
3.36
  0
LINE
  5
226
100
AcDbEntity
  8
0
100
AcDbLine
 62
7
  6
CONTINUOUS
 10
0.0
 20
0.0
 11
0.0
 21
17.0
  0
LINE
  5
227
100
AcDbEntity
  8
0
100
AcDbLine
 62
7
  6
CONTINUOUS
 10
0.0
 20
0.0
 11
22.0
 21
0.0
  0
LINE
  5
228
100
AcDbEntity
  8
0
100
AcDbLine
 62
7
  6
CONTINUOUS
 10
0.0
 20
17.0
 11
22.0
 21
17.0
  0
LINE
  5
229
100
AcDbEntity
  8
0
100
AcDbLine
 62
7
  6
CONTINUOUS
 10
22.0
 20
0.0
 11
22.0
 21
17.0
  0
LINE
  5
22A
100
AcDbEntity
  8
02___PRT_ALL_AXES
100
AcDbLine
 62
7
  6
CONTINUOUS
 10
5.9741172762
 20
4.1205387706
 11
6.2066172762
 21
4.1205387706
  0
LINE
  5
22B
100
AcDbEntity
  8
02___PRT_ALL_AXES
100
AcDbLine
 62
7
  6
CONTINUOUS
 10
6.2787422762
 20
4.9732887706
 11
6.2066172762
 21
4.9732887706
  0
LINE
  5
22C
100
AcDbEntity
  8
0
100
AcDbLine
 62
7
  6
CONTINUOUS
 10
5.9741172762
 20
4.1205387768
 11
5.9741172762
 21
6.9196947966
  0
LINE
  5
22D
100
AcDbEntity
  8
0
100
AcDbLine
 62
7
  6
CONTINUOUS
 10
6.2066172762
 20
4.1205387768
 11
6.2066172762
 21
6.9196947966
  0
LINE
  5
22E
100
AcDbEntity
  8
02___PRT_ALL_AXES
100
AcDbLine
 62
7
  6
CONTINUOUS
 10
6.2787422762
 20
6.0670387706
 11
6.2787422762
 21
4.9732887706
  0
LINE
  5
22F
100
AcDbEntity
  8
02___PRT_ALL_AXES
100
AcDbLine
 62
7
  6
CONTINUOUS
 10
6.2866172762
 20
6.0591637706
 11
6.2866172762
 21
4.9811637706
  0
LINE
  5
230
100
AcDbEntity
  8
02___PRT_ALL_AXES
100
AcDbLine
 62
7
  6
CONTINUOUS
 10
6.2866172762
 20
4.9811637706
 11
6.2787422762
 21
4.9732887706
  0
LINE
  5
231
100
AcDbEntity
  8
02___PRT_ALL_AXES
100
AcDbLine
 62
7
  6
CONTINUOUS
 10
6.2787422762
 20
6.0670387706
 11
6.2066172762
 21
6.0670387706
  0
LINE
  5
232
100
AcDbEntity
  8
02___PRT_ALL_AXES
100
AcDbLine
 62
7
  6
CONTINUOUS
 10
6.2866172762
 20
6.0591637706
 11
6.2787422762
 21
6.0670387706
  0
LINE
  5
233
100
AcDbEntity
  8
0
100
AcDbLine
 62
7
  6
CONTINUOUS
 10
5.9741172762
 20
6.9133793534
 11
6.2066172762
 21
6.9133793534
  0
LINE
  5
234
100
AcDbEntity
  8
0
100
AcDbLine
 62
7
  6
CONTINUOUS
 10
5.9741172762
 20
6.9161057423
 11
6.2066172762
 21
6.9161057423
  0
LINE
  5
235
100
AcDbEntity
  8
0
100
AcDbLine
 62
7
  6
CONTINUOUS
 10
5.9741172762
 20
6.9165836829
 11
6.2066172762
 21
6.9165836829
  0
LINE
  5
236
100
AcDbEntity
  8
0
100
AcDbLine
 62
7
  6
CONTINUOUS
 10
5.9741172762
 20
6.918402468
 11
6.2066172762
 21
6.918402468
  0
LINE
  5
237
100
AcDbEntity
  8
0
100
AcDbLine
 62
7
  6
CONTINUOUS
 10
5.9741172762
 20
6.9186893828
 11
6.2066172762
 21
6.9186893828
  0
LINE
  5
238
100
AcDbEntity
  8
0
100
AcDbLine
 62
7
  6
CONTINUOUS
 10
5.9741172762
 20
6.9195991333
 11
6.2066172762
 21
6.9195991333
  0
LINE
  5
239
100
AcDbEntity
  8
0
100
AcDbLine
 62
7
  6
CONTINUOUS
 10
5.9741172762
 20
6.9196947966
 11
6.2066172762
 21
6.9196947966
  0
LINE
  5
23A
100
AcDbEntity
  8
02___PRT_ALL_AXES
100
AcDbLine
 62
7
  6
CONTINUOUS
 10
5.9146220839
 20
11.2003923463
 11
6.1471220839
 21
11.2003923463
  0
LINE
  5
23B
100
AcDbEntity
  8
02___PRT_ALL_AXES
100
AcDbLine
 62
7
  6
CONTINUOUS
 10
6.1471220839
 20
12.0531423463
 11
6.2192470839
 21
12.0531423463
  0
LINE
  5
23C
100
AcDbEntity
  8
0
100
AcDbLine
 62
7
  6
CONTINUOUS
 10
5.9146220839
 20
11.2003923922
 11
5.9146220839
 21
13.999642335
  0
LINE
  5
23D
100
AcDbEntity
  8
0
100
AcDbLine
 62
7
  6
CONTINUOUS
 10
5.9146220839
 20
12.466224669
 11
6.1471220839
 21
12.466224669
  0
LINE
  5
23E
100
AcDbEntity
  8
0
100
AcDbLine
 62
7
  6
CONTINUOUS
 10
6.1471220839
 20
12.4796027878
 11
5.9146220839
 21
12.4796027878
  0
LINE
  5
23F
100
AcDbEntity
  8
0
100
AcDbLine
 62
7
  6
CONTINUOUS
 10
6.1471220839
 20
12.4879481528
 11
5.9146220839
 21
12.4879481528
  0
LINE
  5
240
100
AcDbEntity
  8
0
100
AcDbLine
 62
7
  6
CONTINUOUS
 10
5.9146220839
 20
12.4985473887
 11
6.1471220839
 21
12.4985473887
  0
LINE
  5
241
100
AcDbEntity
  8
0
100
AcDbLine
 62
7
  6
CONTINUOUS
 10
5.9146220839
 20
12.5053517808
 11
6.1471220839
 21
12.5053517808
  0
LINE
  5
242
100
AcDbEntity
  8
0
100
AcDbLine
 62
7
  6
CONTINUOUS
 10
6.1471220839
 20
12.5182910054
 11
5.9146220839
 21
12.5182910054
  0
LINE
  5
243
100
AcDbEntity
  8
0
100
AcDbLine
 62
7
  6
CONTINUOUS
 10
6.1471220839
 20
12.52665283
 11
5.9146220839
 21
12.52665283
  0
LINE
  5
244
100
AcDbEntity
  8
0
100
AcDbLine
 62
7
  6
CONTINUOUS
 10
5.9146220839
 20
12.5377382506
 11
6.1471220839
 21
12.5377382506
  0
LINE
  5
245
100
AcDbEntity
  8
0
100
AcDbLine
 62
7
  6
CONTINUOUS
 10
5.9146220839
 20
12.5445533705
 11
6.1471220839
 21
12.5445533705
  0
LINE
  5
246
100
AcDbEntity
  8
0
100
AcDbLine
 62
7
  6
CONTINUOUS
 10
6.1471220839
 20
12.5570435211
 11
5.9146220839
 21
12.5570435211
  0
LINE
  5
247
100
AcDbEntity
  8
0
100
AcDbLine
 62
7
  6
CONTINUOUS
 10
6.1471220839
 20
12.5654152266
 11
5.9146220839
 21
12.5654152266
  0
LINE
  5
248
100
AcDbEntity
  8
0
100
AcDbLine
 62
7
  6
CONTINUOUS
 10
5.9146220839
 20
12.5769781104
 11
6.1471220839
 21
12.5769781104
  0
LINE
  5
249
100
AcDbEntity
  8
0
100
AcDbLine
 62
7
  6
CONTINUOUS
 10
5.9146220839
 20
12.5837985963
 11
6.1471220839
 21
12.5837985963
  0
LINE
  5
24A
100
AcDbEntity
  8
0
100
AcDbLine
 62
7
  6
CONTINUOUS
 10
6.1471220839
 20
12.5958298463
 11
5.9146220839
 21
12.5958298463
  0
LINE
  5
24B
100
AcDbEntity
  8
0
100
AcDbLine
 62
7
  6
CONTINUOUS
 10
6.1471220839
 20
12.6042048463
 11
5.9146220839
 21
12.6042048463
  0
LINE
  5
24C
100
AcDbEntity
  8
0
100
AcDbLine
 62
7
  6
CONTINUOUS
 10
6.1471220839
 20
11.2003923922
 11
6.1471220839
 21
13.999642335
  0
LINE
  5
24D
100
AcDbEntity
  8
0
100
AcDbLine
 62
7
  6
CONTINUOUS
 10
5.9146220839
 20
12.6162360963
 11
6.1471220839
 21
12.6162360963
  0
LINE
  5
24E
100
AcDbEntity
  8
02___PRT_ALL_AXES
100
AcDbLine
 62
7
  6
CONTINUOUS
 10
6.2192470839
 20
12.0531423463
 11
6.2192470839
 21
13.1468923463
  0
LINE
  5
24F
100
AcDbEntity
  8
02___PRT_ALL_AXES
100
AcDbLine
 62
7
  6
CONTINUOUS
 10
6.2271220839
 20
12.0610173463
 11
6.2271220839
 21
13.1390173463
  0
LINE
  5
250
100
AcDbEntity
  8
02___PRT_ALL_AXES
100
AcDbLine
 62
7
  6
CONTINUOUS
 10
6.2192470839
 20
12.0531423463
 11
6.2271220839
 21
12.0610173463
  0
LINE
  5
251
100
AcDbEntity
  8
02___PRT_ALL_AXES
100
AcDbLine
 62
7
  6
CONTINUOUS
 10
6.1471220839
 20
13.1468923463
 11
6.2192470839
 21
13.1468923463
  0
LINE
  5
252
100
AcDbEntity
  8
02___PRT_ALL_AXES
100
AcDbLine
 62
7
  6
CONTINUOUS
 10
6.2192470839
 20
13.1468923463
 11
6.2271220839
 21
13.1390173463
  0
LINE
  5
253
100
AcDbEntity
  8
02___PRT_ALL_AXES
100
AcDbLine
 62
7
  6
CONTINUOUS
 10
5.9146220839
 20
13.9996423463
 11
6.1471220839
 21
13.9996423463
  0
LINE
  5
254
100
AcDbEntity
  8
0
100
AcDbLine
 62
7
  6
CONTINUOUS
 10
15.4544199471
 20
6.847098107
 11
15.4559396384
 21
6.8540540783
  0
LINE
  5
255
100
AcDbEntity
  8
0
100
AcDbLine
 62
7
  6
CONTINUOUS
 10
15.4933457652
 20
6.8495229575
 11
15.4950599476
 21
6.8564335708
  0
LINE
  5
256
100
AcDbEntity
  8
0
100
AcDbLine
 62
7
  6
CONTINUOUS
 10
15.5323242788
 20
6.8508551306
 11
15.5342316038
 21
6.8577149491
  0
LINE
  5
257
100
AcDbEntity
  8
0
100
AcDbLine
 62
7
  6
CONTINUOUS
 10
15.5713248218
 20
6.8510935783
 11
15.5734237887
 21
6.857897205
  0
LINE
  5
258
100
AcDbEntity
  8
LAYER_CUT_FEAT
100
AcDbLine
 62
7
  6
CONTINUOUS
 10
15.589343437
 20
6.0817440452
 11
15.7557751417
 21
6.5316674056
  0
LINE
  5
259
100
AcDbEntity
  8
LAYER_CUT_FEAT
100
AcDbLine
 62
7
  6
CONTINUOUS
 10
14.6207630734
 20
4.9107021826
 11
14.9866297396
 21
5.2209796796
  0
LINE
  5
25A
100
AcDbEntity
  8
LAYER_CUT_FEAT
100
AcDbLine
 62
7
  6
CONTINUOUS
 10
16.6437083802
 20
5.3533401994
 11
16.1653394928
 21
5.3173714621
  0
LINE
  5
25B
100
AcDbEntity
  8
LAYER_CUT_FEAT
100
AcDbLine
 62
7
  6
CONTINUOUS
 10
14.9786141972
 20
5.6801897954
 11
14.6021418786
 21
5.9775097172
  0
LINE
  5
25C
100
AcDbEntity
  8
LAYER_CUT_FEAT
100
AcDbLine
 62
7
  6
CONTINUOUS
 10
15.7930333987
 20
4.3971432924
 11
15.6110009808
 21
4.8409841889
  0
LINE
  5
25D
100
AcDbEntity
  8
LAYER_CUT_FEAT
100
AcDbLine
 62
7
  6
CONTINUOUS
 10
15.8221531761
 20
6.5629048593
 11
15.6770637177
 21
6.0883386241
  0
LINE
  5
25E
100
AcDbEntity
  8
LAYER_CUT_FEAT
100
AcDbLine
 62
7
  6
CONTINUOUS
 10
15.0104349653
 20
5.1362941003
 11
14.6141120935
 21
4.837643395
  0
LINE
  5
25F
100
AcDbEntity
  8
LAYER_CUT_FEAT
100
AcDbLine
 62
7
  6
CONTINUOUS
 10
16.1958575951
 20
5.3998758955
 11
16.6920320139
 21
5.4085366522
  0
LINE
  5
260
100
AcDbEntity
  8
LAYER_CUT_FEAT
100
AcDbLine
 62
7
  6
CONTINUOUS
 10
14.5929452354
 20
6.0502918835
 11
14.9994494374
 21
5.7656545769
  0
LINE
  5
261
100
AcDbEntity
  8
LAYER_CUT_FEAT
100
AcDbLine
 62
7
  6
CONTINUOUS
 10
15.6988979722
 20
4.8374550208
 11
15.8604611688
 21
4.3682414277
  0
LINE
  5
262
100
AcDbEntity
  8
LAYER_CUT_FEAT
100
AcDbLine
 62
7
  6
CONTINUOUS
 10
15.8145325263
 20
6.0463101916
 11
15.9596219848
 21
6.5208764267
  0
LINE
  5
263
100
AcDbEntity
  8
LAYER_CUT_FEAT
100
AcDbLine
 62
7
  6
CONTINUOUS
 10
14.7006230031
 20
4.7228395405
 11
15.0969458749
 21
5.0214902457
  0
LINE
  5
264
100
AcDbEntity
  8
LAYER_CUT_FEAT
100
AcDbLine
 62
7
  6
CONTINUOUS
 10
16.6895232304
 20
5.5522647584
 11
16.1933488117
 21
5.5436040017
  0
LINE
  5
265
100
AcDbEntity
  8
LAYER_CUT_FEAT
100
AcDbLine
 62
7
  6
CONTINUOUS
 10
15.0819010501
 20
5.8834076833
 11
14.6753968481
 21
6.1680449898
  0
LINE
  5
266
100
AcDbEntity
  8
LAYER_CUT_FEAT
100
AcDbLine
 62
7
  6
CONTINUOUS
 10
15.9963794641
 20
4.4150418499
 11
15.8348162674
 21
4.884255443
  0
LINE
  5
267
100
AcDbEntity
  8
LAYER_CUT_FEAT
100
AcDbLine
 62
7
  6
CONTINUOUS
 10
15.9971841069
 20
6.4578612781
 11
15.8835682931
 21
5.9917904794
  0
LINE
  5
268
100
AcDbEntity
  8
LAYER_CUT_FEAT
100
AcDbLine
 62
7
  6
CONTINUOUS
 10
15.171789269
 20
4.9752646849
 11
14.7726848756
 21
4.7090951417
  0
LINE
  5
269
100
AcDbEntity
  8
LAYER_CUT_FEAT
100
AcDbLine
 62
7
  6
CONTINUOUS
 10
16.1599699369
 20
5.6249931093
 11
16.6393027058
 21
5.6057411166
  0
LINE
  5
26A
100
AcDbEntity
  8
LAYER_CUT_FEAT
100
AcDbLine
 62
7
  6
CONTINUOUS
 10
14.7469351499
 20
6.184295939
 11
15.1550856028
 21
5.9322170816
  0
LINE
  5
26B
100
AcDbEntity
  8
LAYER_CUT_FEAT
100
AcDbLine
 62
7
  6
CONTINUOUS
 10
15.901907269
 20
4.9411512568
 11
16.0317195074
 21
4.4793295105
  0
LINE
  5
26C
100
AcDbEntity
  8
0
100
AcDbLine
 62
7
  6
CONTINUOUS
 10
15.4298344062
 20
6.8518521282
 11
15.4324977943
 21
6.8452489955
  0
LINE
  5
26D
100
AcDbEntity
  8
0
100
AcDbLine
 62
7
  6
CONTINUOUS
 10
15.468903228
 20
6.854964641
 11
15.4713803753
 21
6.8482894076
  0
LINE
  5
26E
100
AcDbEntity
  8
0
100
AcDbLine
 62
7
  6
CONTINUOUS
 10
15.5080439756
 20
6.8569801951
 11
15.510332933
 21
6.850238113
  0
LINE
  5
26F
100
AcDbEntity
  8
0
100
AcDbLine
 62
7
  6
CONTINUOUS
 10
15.5472258549
 20
6.857897205
 11
15.5493248218
 21
6.8510935783
  0
LINE
  5
270
100
AcDbEntity
  8
0
100
AcDbLine
 62
7
  6
CONTINUOUS
 10
15.4399102633
 20
6.8384228631
 11
15.4482556284
 21
6.8391267862
  0
LINE
  5
271
100
AcDbEntity
  8
0
100
AcDbLine
 62
7
  6
CONTINUOUS
 10
15.478598481
 20
6.8412580685
 11
15.4869603056
 21
6.8417276585
  0
LINE
  5
272
100
AcDbEntity
  8
0
100
AcDbLine
 62
7
  6
CONTINUOUS
 10
15.5173509966
 20
6.8430070989
 11
15.5257227021
 21
6.8432419863
  0
LINE
  5
273
100
AcDbEntity
  8
0
100
AcDbLine
 62
7
  6
CONTINUOUS
 10
15.5561373218
 20
6.8436685783
 11
15.5645123218
 21
6.8436685783
  0
LINE
  5
274
100
AcDbEntity
  8
02___PRT_ALL_AXES
100
AcDbLine
 62
7
  6
CONTINUOUS
 10
15.3640233713
 20
11.1112138678
 11
15.5781700524
 21
11.1112138678
  0
LINE
  5
275
100
AcDbEntity
  8
0
100
AcDbLine
 62
7
  6
CONTINUOUS
 10
14.9147547832
 20
13.2735296911
 11
14.9164077289
 21
13.2799154157
  0
LINE
  5
276
100
AcDbEntity
  8
0
100
AcDbLine
 62
7
  6
CONTINUOUS
 10
14.9234013164
 20
13.3060953072
 11
14.9249834528
 21
13.311850559
  0
LINE
  5
277
100
AcDbEntity
  8
0
100
AcDbLine
 62
7
  6
CONTINUOUS
 10
14.9324122495
 20
13.3380378261
 11
14.9339045903
 21
13.3431555086
  0
LINE
  5
278
100
AcDbEntity
  8
0
100
AcDbLine
 62
7
  6
CONTINUOUS
 10
14.9417817008
 20
13.3693321171
 11
14.9431641225
 21
13.3738056354
  0
LINE
  5
279
100
AcDbEntity
  8
0
100
AcDbLine
 62
7
  6
CONTINUOUS
 10
15.1287490042
 20
13.2729407011
 11
15.13055441
 21
13.2799154157
  0
LINE
  5
27A
100
AcDbEntity
  8
0
100
AcDbLine
 62
7
  6
CONTINUOUS
 10
15.1372492624
 20
13.305008615
 11
15.139130134
 21
13.311850559
  0
LINE
  5
27B
100
AcDbEntity
  8
0
100
AcDbLine
 62
7
  6
CONTINUOUS
 10
15.1460964139
 20
13.3364517181
 11
15.1480512714
 21
13.3431555086
  0
LINE
  5
27C
100
AcDbEntity
  8
0
100
AcDbLine
 62
7
  6
CONTINUOUS
 10
15.1552834981
 20
13.3672452725
 11
15.1573108036
 21
13.3738056354
  0
LINE
  5
27D
100
AcDbEntity
  8
02___PRT_ALL_AXES
100
AcDbLine
 62
7
  6
CONTINUOUS
 10
15.5445513261
 20
11.9639638678
 11
15.6446015766
 21
11.9639638678
  0
LINE
  5
27E
100
AcDbEntity
  8
02___PRT_ALL_AXES
100
AcDbLine
 62
7
  6
CONTINUOUS
 10
15.2752805602
 20
12.0223829553
 11
15.2812373485
 21
12.0152464242
  0
LINE
  5
27F
100
AcDbEntity
  8
02___PRT_ALL_AXES
100
AcDbLine
 62
7
  6
CONTINUOUS
 10
15.2749402603
 20
12.0231169584
 11
15.2754311312
 21
12.0225034341
  0
LINE
  5
280
100
AcDbEntity
  8
02___PRT_ALL_AXES
100
AcDbLine
 62
7
  6
CONTINUOUS
 10
15.2749402603
 20
12.0231169584
 11
15.2754274061
 21
12.0224844541
  0
LINE
  5
281
100
AcDbEntity
  8
02___PRT_ALL_AXES
100
AcDbLine
 62
7
  6
CONTINUOUS
 10
15.6562757272
 20
12.1985451356
 11
15.6409858129
 21
12.1996745729
  0
LINE
  5
282
100
AcDbEntity
  8
LAYER_CUT_FEAT
100
AcDbLine
 62
7
  6
CONTINUOUS
 10
15.785646101
 20
12.0320278389
 11
15.7609157992
 21
12.0503984198
  0
LINE
  5
283
100
AcDbEntity
  8
0
100
AcDbLine
 62
7
  6
CONTINUOUS
 10
14.9154683163
 20
13.289699145
 11
14.9137143199
 21
13.2952134611
  0
LINE
  5
284
100
AcDbEntity
  8
0
100
AcDbLine
 62
7
  6
CONTINUOUS
 10
14.924151265
 20
13.321698097
 11
14.9224581845
 21
13.3273365683
  0
LINE
  5
285
100
AcDbEntity
  8
0
100
AcDbLine
 62
7
  6
CONTINUOUS
 10
14.9331802819
 20
13.3530591077
 11
14.9315494492
 21
13.3588172982
  0
LINE
  5
286
100
AcDbEntity
  8
0
100
AcDbLine
 62
7
  6
CONTINUOUS
 10
14.9425482635
 20
13.383757504
 11
14.9409809617
 21
13.3896308834
  0
LINE
  5
287
100
AcDbEntity
  8
LAYER_CUT_FEAT
100
AcDbLine
 62
7
  6
CONTINUOUS
 10
15.3452219708
 20
11.4329902732
 11
15.3391383427
 21
11.9124550632
  0
LINE
  5
288
100
AcDbEntity
  8
LAYER_CUT_FEAT
100
AcDbLine
 62
7
  6
CONTINUOUS
 10
15.4999234796
 20
13.0827027892
 11
15.6218264645
 21
13.4462098152
  0
LINE
  5
289
100
AcDbEntity
  8
LAYER_CUT_FEAT
100
AcDbLine
 62
7
  6
CONTINUOUS
 10
15.0987399492
 20
12.4269370083
 11
15.1629586494
 21
12.4865233329
  0
LINE
  5
28A
100
AcDbEntity
  8
LAYER_CUT_FEAT
100
AcDbLine
 62
7
  6
CONTINUOUS
 10
15.1196670826
 20
12.3235028305
 11
15.2953611673
 21
12.4865233329
  0
LINE
  5
28B
100
AcDbEntity
  8
LAYER_CUT_FEAT
100
AcDbLine
 62
7
  6
CONTINUOUS
 10
15.9180486189
 20
12.0320278389
 11
15.7971013704
 21
12.1218719186
  0
LINE
  5
28C
100
AcDbEntity
  8
0
100
AcDbLine
 62
7
  6
CONTINUOUS
 10
15.1296149974
 20
13.289699145
 11
15.127861001
 21
13.2952134611
  0
LINE
  5
28D
100
AcDbEntity
  8
LAYER_CUT_FEAT
100
AcDbLine
 62
7
  6
CONTINUOUS
 10
15.2224658627
 20
12.9196366312
 11
15.1675487827
 21
13.1518878185
  0
LINE
  5
28E
100
AcDbEntity
  8
LAYER_CUT_FEAT
100
AcDbLine
 62
7
  6
CONTINUOUS
 10
15.4776244887
 20
11.4329902732
 11
15.4715408606
 21
11.9124550632
  0
LINE
  5
28F
100
AcDbEntity
  8
LAYER_CUT_FEAT
100
AcDbLine
 62
7
  6
CONTINUOUS
 10
15.6323259975
 20
13.0827027892
 11
15.7542289824
 21
13.4462098152
  0
LINE
  5
290
100
AcDbEntity
  8
LAYER_CUT_FEAT
100
AcDbLine
 62
7
  6
CONTINUOUS
 10
15.2925345617
 20
12.3988554949
 11
15.1078211293
 21
12.2577557166
  0
LINE
  5
291
100
AcDbEntity
  8
LAYER_CUT_FEAT
100
AcDbLine
 62
7
  6
CONTINUOUS
 10
15.8176921883
 20
12.1805801942
 11
15.94318689
 21
12.0668801385
  0
LINE
  5
292
100
AcDbEntity
  8
0
100
AcDbLine
 62
7
  6
CONTINUOUS
 10
15.1382979461
 20
13.321698097
 11
15.1366048656
 21
13.3273365683
  0
LINE
  5
293
100
AcDbEntity
  8
0
100
AcDbLine
 62
7
  6
CONTINUOUS
 10
15.147326963
 20
13.3530591077
 11
15.1456961303
 21
13.3588172982
  0
LINE
  5
294
100
AcDbEntity
  8
0
100
AcDbLine
 62
7
  6
CONTINUOUS
 10
15.1566949446
 20
13.383757504
 11
15.1551276428
 21
13.3896308834
  0
LINE
  5
295
100
AcDbEntity
  8
LAYER_CUT_FEAT
100
AcDbLine
 62
7
  6
CONTINUOUS
 10
15.3548683806
 20
12.9196366312
 11
15.2579104297
 21
13.3296839099
  0
LINE
  5
296
100
AcDbEntity
  8
LAYER_CUT_FEAT
100
AcDbLine
 62
7
  6
CONTINUOUS
 10
15.5031359512
 20
11.8784609369
 11
15.4983004994
 21
11.3823663111
  0
LINE
  5
297
100
AcDbEntity
  8
LAYER_CUT_FEAT
100
AcDbLine
 62
7
  6
CONTINUOUS
 10
15.5542618593
 20
11.3787694141
 11
15.5590973111
 21
11.87486404
  0
LINE
  5
298
100
AcDbEntity
  8
LAYER_CUT_FEAT
100
AcDbLine
 62
7
  6
CONTINUOUS
 10
15.7826982082
 20
13.4523074662
 11
15.6652329843
 21
13.0582570795
  0
LINE
  5
299
100
AcDbEntity
  8
LAYER_CUT_FEAT
100
AcDbLine
 62
7
  6
CONTINUOUS
 10
15.7238416463
 20
13.0183750067
 11
15.82714859
 21
13.3649298403
  0
LINE
  5
29A
100
AcDbEntity
  8
LAYER_CUT_FEAT
100
AcDbLine
 62
7
  6
CONTINUOUS
 10
15.1232681574
 20
12.11958013
 11
15.3084954303
 21
12.2610724232
  0
LINE
  5
29B
100
AcDbEntity
  8
LAYER_CUT_FEAT
100
AcDbLine
 62
7
  6
CONTINUOUS
 10
15.9618120439
 20
12.2024402057
 11
15.8461880087
 21
12.3071972915
  0
LINE
  5
29C
100
AcDbEntity
  8
LAYER_CUT_FEAT
100
AcDbLine
 62
7
  6
CONTINUOUS
 10
15.2644495853
 20
13.4010971231
 11
15.3740908837
 21
12.9924495436
  0
LINE
  5
29D
100
AcDbEntity
  8
LAYER_CUT_FEAT
100
AcDbLine
 62
7
  6
CONTINUOUS
 10
15.4201878843
 20
13.0740072681
 11
15.3105465859
 21
13.4826548475
  0
LINE
  5
29E
100
AcDbEntity
  8
LAYER_CUT_FEAT
100
AcDbLine
 62
7
  6
CONTINUOUS
 10
15.5913151078
 20
11.9047566152
 11
15.5758982289
 21
11.4266737627
  0
LINE
  5
29F
100
AcDbEntity
  8
LAYER_CUT_FEAT
100
AcDbLine
 62
7
  6
CONTINUOUS
 10
15.8322882947
 20
13.2927659724
 11
15.7511844836
 21
12.9855443141
  0
LINE
  5
2A0
100
AcDbEntity
  8
LAYER_CUT_FEAT
100
AcDbLine
 62
7
  6
CONTINUOUS
 10
15.3295222568
 20
12.1916258587
 11
15.1476959628
 21
12.081541988
  0
LINE
  5
2A1
100
AcDbEntity
  8
LAYER_CUT_FEAT
100
AcDbLine
 62
7
  6
CONTINUOUS
 10
15.8547756666
 20
12.3733570658
 11
15.9507562503
 21
12.2700848633
  0
LINE
  5
2A2
100
AcDbEntity
  8
LAYER_CUT_FEAT
100
AcDbLine
 62
7
  6
CONTINUOUS
 10
15.3388613692
 20
13.4729074241
 11
15.4535299134
 21
13.0941948453
  0
LINE
  5
2A3
100
AcDbEntity
  8
0
100
AcDbLine
 62
7
  6
CONTINUOUS
 10
15.1222134904
 20
13.2733957761
 11
15.1248724389
 21
13.2713775065
  0
LINE
  5
2A4
100
AcDbEntity
  8
0
100
AcDbLine
 62
7
  6
CONTINUOUS
 10
15.1307212897
 20
13.3059342046
 11
15.1333571493
 21
13.3037252291
  0
LINE
  5
2A5
100
AcDbEntity
  8
0
100
AcDbLine
 62
7
  6
CONTINUOUS
 10
15.1395811182
 20
13.3378470939
 11
15.142191815
 21
13.3354491504
  0
LINE
  5
2A6
100
AcDbEntity
  8
0
100
AcDbLine
 62
7
  6
CONTINUOUS
 10
15.1487860053
 20
13.3691093369
 11
15.1513694854
 21
13.3665243119
  0
LINE
  5
2A7
100
AcDbEntity
  8
02___PRT_ALL_AXES
100
AcDbLine
 62
7
  6
CONTINUOUS
 10
15.7346409548
 20
12.0152464242
 11
15.7405977431
 21
12.0223829553
  0
LINE
  5
2A8
100
AcDbEntity
  8
02___PRT_ALL_AXES
100
AcDbLine
 62
7
  6
CONTINUOUS
 10
15.7346409548
 20
13.0064313115
 11
15.7405977431
 21
12.9992947803
  0
LINE
  5
2A9
100
AcDbEntity
  8
02___PRT_ALL_AXES
100
AcDbLine
 62
7
  6
CONTINUOUS
 10
15.5445513261
 20
13.0577138678
 11
15.6446015766
 21
13.0577138678
  0
LINE
  5
2AA
100
AcDbEntity
  8
LAYER_CUT_FEAT
100
AcDbLine
 62
7
  6
CONTINUOUS
 10
15.4623789433
 20
13.0733388678
 11
15.5372979708
 21
13.0733388678
  0
LINE
  5
2AB
100
AcDbEntity
  8
0
100
AcDbLine
 62
7
  6
CONTINUOUS
 10
14.9066475878
 20
13.2720721576
 11
15.1207942689
 21
13.2720721576
  0
LINE
  5
2AC
100
AcDbEntity
  8
0
100
AcDbLine
 62
7
  6
CONTINUOUS
 10
15.1287490042
 20
13.2729407011
 11
15.1228130243
 21
13.2729407011
  0
LINE
  5
2AD
100
AcDbEntity
  8
0
100
AcDbLine
 62
7
  6
CONTINUOUS
 10
14.9077064136
 20
13.2735296911
 11
15.1218530947
 21
13.2735296911
  0
LINE
  5
2AE
100
AcDbEntity
  8
0
100
AcDbLine
 62
7
  6
CONTINUOUS
 10
15.13055441
 20
13.2799154157
 11
14.9164077289
 21
13.2799154157
  0
LINE
  5
2AF
100
AcDbEntity
  8
0
100
AcDbLine
 62
7
  6
CONTINUOUS
 10
14.913640167
 20
13.2990861643
 11
15.1277868481
 21
13.2990861643
  0
LINE
  5
2B0
100
AcDbEntity
  8
0
100
AcDbLine
 62
7
  6
CONTINUOUS
 10
14.9151414893
 20
13.3047133203
 11
15.1292881704
 21
13.3047133203
  0
LINE
  5
2B1
100
AcDbEntity
  8
0
100
AcDbLine
 62
7
  6
CONTINUOUS
 10
15.1372492624
 20
13.305008615
 11
15.1318257493
 21
13.305008615
  0
LINE
  5
2B2
100
AcDbEntity
  8
0
100
AcDbLine
 62
7
  6
CONTINUOUS
 10
14.9161801593
 20
13.3060953072
 11
15.1303268404
 21
13.3060953072
  0
LINE
  5
2B3
100
AcDbEntity
  8
0
100
AcDbLine
 62
7
  6
CONTINUOUS
 10
15.139130134
 20
13.311850559
 11
14.9249834528
 21
13.311850559
  0
LINE
  5
2B4
100
AcDbEntity
  8
0
100
AcDbLine
 62
7
  6
CONTINUOUS
 10
14.9224263574
 20
13.3312130886
 11
15.1365730385
 21
13.3312130886
  0
LINE
  5
2B5
100
AcDbEntity
  8
0
100
AcDbLine
 62
7
  6
CONTINUOUS
 10
15.1460964139
 20
13.3364517181
 11
15.1411002963
 21
13.3364517181
  0
LINE
  5
2B6
100
AcDbEntity
  8
0
100
AcDbLine
 62
7
  6
CONTINUOUS
 10
14.9239885473
 20
13.3367299045
 11
15.1381352284
 21
13.3367299045
  0
LINE
  5
2B7
100
AcDbEntity
  8
0
100
AcDbLine
 62
7
  6
CONTINUOUS
 10
14.9250062444
 20
13.3380378261
 11
15.1391529255
 21
13.3380378261
  0
LINE
  5
2B8
100
AcDbEntity
  8
0
100
AcDbLine
 62
7
  6
CONTINUOUS
 10
15.1480512714
 20
13.3431555086
 11
14.9339045903
 21
13.3431555086
  0
LINE
  5
2B9
100
AcDbEntity
  8
0
100
AcDbLine
 62
7
  6
CONTINUOUS
 10
14.9315599729
 20
13.3626945858
 11
15.145706654
 21
13.3626945858
  0
LINE
  5
2BA
100
AcDbEntity
  8
0
100
AcDbLine
 62
7
  6
CONTINUOUS
 10
15.1552834981
 20
13.3672452725
 11
15.1506489557
 21
13.3672452725
  0
LINE
  5
2BB
100
AcDbEntity
  8
0
100
AcDbLine
 62
7
  6
CONTINUOUS
 10
14.9331818015
 20
13.3680967212
 11
15.1473284826
 21
13.3680967212
  0
LINE
  5
2BC
100
AcDbEntity
  8
0
100
AcDbLine
 62
7
  6
CONTINUOUS
 10
14.9341777249
 20
13.3693321171
 11
15.148324406
 21
13.3693321171
  0
LINE
  5
2BD
100
AcDbEntity
  8
0
100
AcDbLine
 62
7
  6
CONTINUOUS
 10
15.1573108036
 20
13.3738056354
 11
14.9431641225
 21
13.3738056354
  0
LINE
  5
2BE
100
AcDbEntity
  8
0
100
AcDbLine
 62
7
  6
CONTINUOUS
 10
14.9410338279
 20
13.3935058878
 11
15.155180509
 21
13.3935058878
  0
LINE
  5
2BF
100
AcDbEntity
  8
02___PRT_ALL_AXES
100
AcDbLine
 62
7
  6
CONTINUOUS
 10
15.3640233713
 20
13.9104638678
 11
15.5781700524
 21
13.9104638678
  0
ARC
  5
2C0
100
AcDbEntity
  8
LAYER_CUT_FEAT
100
AcDbCircle
 62
7
  6
CONTINUOUS
 10
14.8247015407
 20
4.6310994427
 40
0.09375
100
AcDbArc
 50
123.7
 51
228.4348817947
  0
ARC
  5
2C1
100
AcDbEntity
  8
LAYER_CUT_FEAT
100
AcDbCircle
 62
7
  6
CONTINUOUS
 10
14.5601265315
 20
4.9822023385
 40
0.09375
100
AcDbArc
 50
205.5651182053
 51
310.3
  0
ARC
  5
2C2
100
AcDbEntity
  8
LAYER_CUT_FEAT
100
AcDbCircle
 62
7
  6
CONTINUOUS
 10
14.6573675483
 20
4.7802414677
 40
0.071875
100
AcDbArc
 50
127.0
 51
307.0
  0
ARC
  5
2C3
100
AcDbEntity
  8
LAYER_CUT_FEAT
100
AcDbCircle
 62
7
  6
CONTINUOUS
 10
15.0536904201
 20
5.078892173
 40
0.071875
100
AcDbArc
 50
307.0
 51
127.0
  0
ARC
  5
2C4
100
AcDbEntity
  8
LAYER_CUT_FEAT
100
AcDbCircle
 62
7
  6
CONTINUOUS
 10
14.9259931978
 20
5.2924798355
 40
0.09375
100
AcDbArc
 50
310.3
 51
14.8498953771
  0
ARC
  5
2C5
100
AcDbEntity
  8
LAYER_CUT_FEAT
100
AcDbCircle
 62
7
  6
CONTINUOUS
 10
14.920509913
 20
5.6066170107
 40
0.09375
100
AcDbArc
 50
347.1501046229
 51
51.7
  0
ARC
  5
2C6
100
AcDbEntity
  8
LAYER_CUT_FEAT
100
AcDbCircle
 62
7
  6
CONTINUOUS
 10
15.5242625697
 20
4.8054101739
 40
0.09375
100
AcDbArc
 50
22.3
 51
86.8498953771
  0
ARC
  5
2C7
100
AcDbEntity
  8
LAYER_CUT_FEAT
100
AcDbCircle
 62
7
  6
CONTINUOUS
 10
15.2238059341
 20
4.8972689859
 40
0.09375
100
AcDbArc
 50
59.1501046229
 51
123.7
  0
ARC
  5
2C8
100
AcDbEntity
  8
0
100
AcDbCircle
 62
7
  6
CONTINUOUS
 10
15.5603248218
 20
5.4606685783
 40
1.399625
100
AcDbArc
 50
90.663954075
 51
90.9431887822
  0
ARC
  5
2C9
100
AcDbEntity
  8
0
100
AcDbCircle
 62
7
  6
CONTINUOUS
 10
15.5603248218
 20
5.4606685783
 40
1.399625
100
AcDbArc
 50
92.2710969321
 51
92.5503316393
  0
ARC
  5
2CA
100
AcDbEntity
  8
0
100
AcDbCircle
 62
7
  6
CONTINUOUS
 10
15.5603248218
 20
5.4606685783
 40
1.399625
100
AcDbArc
 50
93.8782397893
 51
94.1574744964
  0
ARC
  5
2CB
100
AcDbEntity
  8
0
100
AcDbCircle
 62
7
  6
CONTINUOUS
 10
15.5603248218
 20
5.4606685783
 40
1.399625
100
AcDbArc
 50
95.4853826464
 51
89.336045925
  0
CIRCLE
  5
2CC
100
AcDbEntity
  8
02___PRT_ALL_AXES
100
AcDbCircle
 62
7
  6
CONTINUOUS
 10
15.5603248218
 20
5.4606685783
 40
1.234125
  0
CIRCLE
  5
2CD
100
AcDbEntity
  8
02___PRT_ALL_AXES
100
AcDbCircle
 62
7
  6
CONTINUOUS
 10
15.5603248218
 20
5.4606685783
 40
1.22625
  0
ARC
  5
2CE
100
AcDbEntity
  8
LAYER_CUT_FEAT
100
AcDbCircle
 62
7
  6
CONTINUOUS
 10
15.5603248218
 20
5.4606685783
 40
1.2025
100
AcDbArc
 50
228.4348817947
 51
277.5651182053
  0
ARC
  5
2CF
100
AcDbEntity
  8
LAYER_CUT_FEAT
100
AcDbCircle
 62
7
  6
CONTINUOUS
 10
15.5603248218
 20
5.4606685783
 40
1.2025
100
AcDbArc
 50
156.4348817947
 51
205.5651182053
  0
ARC
  5
2D0
100
AcDbEntity
  8
LAYER_CUT_FEAT
100
AcDbCircle
 62
7
  6
CONTINUOUS
 10
15.5603248218
 20
5.4606685783
 40
1.2025
100
AcDbArc
 50
84.4348817947
 51
133.5651182053
  0
ARC
  5
2D1
100
AcDbEntity
  8
LAYER_CUT_FEAT
100
AcDbCircle
 62
7
  6
CONTINUOUS
 10
15.5603248218
 20
5.4606685783
 40
1.2025
100
AcDbArc
 50
12.4348817947
 51
61.5651182053
  0
ARC
  5
2D2
100
AcDbEntity
  8
LAYER_CUT_FEAT
100
AcDbCircle
 62
7
  6
CONTINUOUS
 10
15.5603248218
 20
5.4606685783
 40
1.2025
100
AcDbArc
 50
300.4348817947
 51
349.5651182053
  0
ARC
  5
2D3
100
AcDbEntity
  8
LAYER_CUT_FEAT
100
AcDbCircle
 62
7
  6
CONTINUOUS
 10
15.5603248218
 20
5.4606685783
 40
0.5625
100
AcDbArc
 50
239.1501046229
 51
266.8498953771
  0
ARC
  5
2D4
100
AcDbEntity
  8
LAYER_CUT_FEAT
100
AcDbCircle
 62
7
  6
CONTINUOUS
 10
15.5603248218
 20
5.4606685783
 40
0.5625
100
AcDbArc
 50
167.1501046229
 51
194.8498953771
  0
ARC
  5
2D5
100
AcDbEntity
  8
LAYER_CUT_FEAT
100
AcDbCircle
 62
7
  6
CONTINUOUS
 10
15.5603248218
 20
5.4606685783
 40
0.5625
100
AcDbArc
 50
95.1501046229
 51
122.8498953771
  0
ARC
  5
2D6
100
AcDbEntity
  8
LAYER_CUT_FEAT
100
AcDbCircle
 62
7
  6
CONTINUOUS
 10
15.5603248218
 20
5.4606685783
 40
0.5625
100
AcDbArc
 50
23.1501046229
 51
50.8498953771
  0
ARC
  5
2D7
100
AcDbEntity
  8
LAYER_CUT_FEAT
100
AcDbCircle
 62
7
  6
CONTINUOUS
 10
15.5603248218
 20
5.4606685783
 40
0.5625
100
AcDbArc
 50
311.1501046229
 51
338.8498953771
  0
CIRCLE
  5
2D8
100
AcDbEntity
  8
02___PRT_ALL_AXES
100
AcDbCircle
 62
7
  6
CONTINUOUS
 10
15.5603248218
 20
5.4606685783
 40
0.546875
  0
CIRCLE
  5
2D9
100
AcDbEntity
  8
02___PRT_ALL_AXES
100
AcDbCircle
 62
7
  6
CONTINUOUS
 10
15.5603248218
 20
5.4606685783
 40
0.539
  0
ARC
  5
2DA
100
AcDbEntity
  8
02___PRT_ALL_AXES
100
AcDbCircle
 62
7
  6
CONTINUOUS
 10
15.5603248218
 20
5.4606685783
 40
0.3125
100
AcDbArc
 50
61.4843384185
 51
139.5156615815
  0
ARC
  5
2DB
100
AcDbEntity
  8
02___PRT_ALL_AXES
100
AcDbCircle
 62
7
  6
CONTINUOUS
 10
15.5603248218
 20
5.4606685783
 40
0.3125
100
AcDbArc
 50
22.4843384185
 51
50.5156615815
  0
ARC
  5
2DC
100
AcDbEntity
  8
02___PRT_ALL_AXES
100
AcDbCircle
 62
7
  6
CONTINUOUS
 10
15.5603248218
 20
5.4606685783
 40
0.3125
100
AcDbArc
 50
231.4843384185
 51
259.5156615815
  0
ARC
  5
2DD
100
AcDbEntity
  8
02___PRT_ALL_AXES
100
AcDbCircle
 62
7
  6
CONTINUOUS
 10
15.5603248218
 20
5.4606685783
 40
0.3125
100
AcDbArc
 50
150.4843384185
 51
220.5156615815
  0
ARC
  5
2DE
100
AcDbEntity
  8
02___PRT_ALL_AXES
100
AcDbCircle
 62
7
  6
CONTINUOUS
 10
15.5603248218
 20
5.4606685783
 40
0.3125
100
AcDbArc
 50
270.4843384185
 51
11.5156615815
  0
ARC
  5
2DF
100
AcDbEntity
  8
02___PRT_ALL_AXES
100
AcDbCircle
 62
7
  6
CONTINUOUS
 10
15.5603248218
 20
5.4606685783
 40
0.3015739356
100
AcDbArc
 50
50.0634202313
 51
61.9365797687
  0
ARC
  5
2E0
100
AcDbEntity
  8
02___PRT_ALL_AXES
100
AcDbCircle
 62
7
  6
CONTINUOUS
 10
15.5603248218
 20
5.4606685783
 40
0.3015739356
100
AcDbArc
 50
220.0634202313
 51
231.9365797687
  0
ARC
  5
2E1
100
AcDbEntity
  8
02___PRT_ALL_AXES
100
AcDbCircle
 62
7
  6
CONTINUOUS
 10
15.5603248218
 20
5.4606685783
 40
0.2906478713
100
AcDbArc
 50
22.6434126524
 51
139.3565873476
  0
ARC
  5
2E2
100
AcDbEntity
  8
02___PRT_ALL_AXES
100
AcDbCircle
 62
7
  6
CONTINUOUS
 10
15.5603248218
 20
5.4606685783
 40
0.2906478713
100
AcDbArc
 50
150.6434126524
 51
259.3565873476
  0
ARC
  5
2E3
100
AcDbEntity
  8
02___PRT_ALL_AXES
100
AcDbCircle
 62
7
  6
CONTINUOUS
 10
15.5603248218
 20
5.4606685783
 40
0.2906478713
100
AcDbArc
 50
270.6434126524
 51
11.3565873476
  0
ARC
  5
2E4
100
AcDbEntity
  8
02___PRT_ALL_AXES
100
AcDbCircle
 62
7
  6
CONTINUOUS
 10
15.3506248262
 20
5.2435178761
 40
0.03125
100
AcDbArc
 50
132.4804512297
 51
319.5195487703
  0
ARC
  5
2E5
100
AcDbEntity
  8
02___PRT_ALL_AXES
100
AcDbCircle
 62
7
  6
CONTINUOUS
 10
15.534014682
 20
5.1599423038
 40
0.03125
100
AcDbArc
 50
151.1497787952
 51
18.8502212048
  0
ARC
  5
2E6
100
AcDbEntity
  8
LAYER_CUT_FEAT
100
AcDbCircle
 62
7
  6
CONTINUOUS
 10
14.5440375944
 20
5.9039369325
 40
0.09375
100
AcDbArc
 50
51.7
 51
156.4348817947
  0
ARC
  5
2E7
100
AcDbEntity
  8
LAYER_CUT_FEAT
100
AcDbCircle
 62
7
  6
CONTINUOUS
 10
14.7961981172
 20
6.2640594805
 40
0.09375
100
AcDbArc
 50
133.5651182053
 51
238.3
  0
ARC
  5
2E8
100
AcDbEntity
  8
LAYER_CUT_FEAT
100
AcDbCircle
 62
7
  6
CONTINUOUS
 10
15.2043485701
 20
6.0119806231
 40
0.09375
100
AcDbArc
 50
238.3
 51
302.8498953771
  0
ARC
  5
2E9
100
AcDbEntity
  8
LAYER_CUT_FEAT
100
AcDbCircle
 62
7
  6
CONTINUOUS
 10
15.5014163494
 20
6.1142692625
 40
0.09375
100
AcDbArc
 50
275.1501046229
 51
339.7
  0
ARC
  5
2EA
100
AcDbEntity
  8
LAYER_CUT_FEAT
100
AcDbCircle
 62
7
  6
CONTINUOUS
 10
14.6341710417
 20
6.1091684366
 40
0.071875
100
AcDbArc
 50
55.0
 51
235.0
  0
ARC
  5
2EB
100
AcDbEntity
  8
LAYER_CUT_FEAT
100
AcDbCircle
 62
7
  6
CONTINUOUS
 10
15.0406752437
 20
5.8245311301
 40
0.071875
100
AcDbArc
 50
235.0
 51
55.0
  0
ARC
  5
2EC
100
AcDbEntity
  8
02___PRT_ALL_AXES
100
AcDbCircle
 62
7
  6
CONTINUOUS
 10
15.3130432985
 20
5.633816965
 40
0.03125
100
AcDbArc
 50
31.1497787952
 51
258.8502212048
  0
ARC
  5
2ED
100
AcDbEntity
  8
0
100
AcDbCircle
 62
7
  6
CONTINUOUS
 10
15.4433947538
 20
6.849644308
 40
0.01175
100
AcDbArc
 50
201.9667923672
 51
252.7493516243
  0
ARC
  5
2EE
100
AcDbEntity
  8
0
100
AcDbCircle
 62
7
  6
CONTINUOUS
 10
15.4429407083
 20
6.8496060097
 40
0.01175
100
AcDbArc
 50
296.8935055185
 51
347.6760647756
  0
ARC
  5
2EF
100
AcDbEntity
  8
0
100
AcDbCircle
 62
7
  6
CONTINUOUS
 10
15.4823963203
 20
6.8523773723
 40
0.01175
100
AcDbArc
 50
200.3596495101
 51
251.1422087672
  0
ARC
  5
2F0
100
AcDbEntity
  8
0
100
AcDbCircle
 62
7
  6
CONTINUOUS
 10
15.4819413793
 20
6.8523518233
 40
0.01175
100
AcDbArc
 50
295.2863626614
 51
346.0689219185
  0
ARC
  5
2F1
100
AcDbEntity
  8
0
100
AcDbCircle
 62
7
  6
CONTINUOUS
 10
15.5214591968
 20
6.8540155135
 40
0.01175
100
AcDbArc
 50
198.752506653
 51
249.53506591
  0
ARC
  5
2F2
100
AcDbEntity
  8
0
100
AcDbCircle
 62
7
  6
CONTINUOUS
 10
15.5210037182
 20
6.854002734
 40
0.01175
100
AcDbArc
 50
293.6792198043
 51
344.4617790613
  0
ARC
  5
2F3
100
AcDbEntity
  8
0
100
AcDbCircle
 62
7
  6
CONTINUOUS
 10
15.5605526508
 20
6.8545574428
 40
0.01175
100
AcDbArc
 50
197.1453637958
 51
247.9279230529
  0
ARC
  5
2F4
100
AcDbEntity
  8
0
100
AcDbCircle
 62
7
  6
CONTINUOUS
 10
15.5600969929
 20
6.8545574428
 40
0.01175
100
AcDbArc
 50
292.0720769471
 51
342.8546362042
  0
ARC
  5
2F5
100
AcDbEntity
  8
0
100
AcDbCircle
 62
7
  6
CONTINUOUS
 10
15.426806559
 20
6.8506308394
 40
0.0032648744
100
AcDbArc
 50
21.9667923672
 51
94.8214285724
  0
ARC
  5
2F6
100
AcDbEntity
  8
0
100
AcDbCircle
 62
7
  6
CONTINUOUS
 10
15.4591292787
 20
6.8533572283
 40
0.0032648744
100
AcDbArc
 50
94.8214285707
 51
167.6760647756
  0
ARC
  5
2F7
100
AcDbEntity
  8
0
100
AcDbCircle
 62
7
  6
CONTINUOUS
 10
15.4658423193
 20
6.8538287524
 40
0.0032648744
100
AcDbArc
 50
20.3596495101
 51
93.2142857153
  0
ARC
  5
2F8
100
AcDbEntity
  8
0
100
AcDbCircle
 62
7
  6
CONTINUOUS
 10
15.4982287891
 20
6.8556475375
 40
0.0032648744
100
AcDbArc
 50
93.2142857127
 51
166.0689219185
  0
ARC
  5
2F9
100
AcDbEntity
  8
0
100
AcDbCircle
 62
7
  6
CONTINUOUS
 10
15.5049524135
 20
6.8559306004
 40
0.0032648744
100
AcDbArc
 50
18.752506653
 51
91.607142858
  0
ARC
  5
2FA
100
AcDbEntity
  8
0
100
AcDbCircle
 62
7
  6
CONTINUOUS
 10
15.5373771535
 20
6.8568403508
 40
0.0032648744
100
AcDbArc
 50
91.6071428568
 51
164.4617790613
  0
ARC
  5
2FB
100
AcDbEntity
  8
0
100
AcDbCircle
 62
7
  6
CONTINUOUS
 10
15.5441060718
 20
6.8569347299
 40
0.0032648744
100
AcDbArc
 50
17.1453637958
 51
90.0000000004
  0
ARC
  5
2FC
100
AcDbEntity
  8
0
100
AcDbCircle
 62
7
  6
CONTINUOUS
 10
15.5765435718
 20
6.8569347299
 40
0.0032648744
100
AcDbArc
 50
89.9999999988
 51
162.8546362042
  0
ARC
  5
2FD
100
AcDbEntity
  8
LAYER_CUT_FEAT
100
AcDbCircle
 62
7
  6
CONTINUOUS
 10
15.7062949876
 20
4.3615692774
 40
0.09375
100
AcDbArc
 50
277.5651182053
 51
22.3
  0
ARC
  5
2FE
100
AcDbEntity
  8
LAYER_CUT_FEAT
100
AcDbCircle
 62
7
  6
CONTINUOUS
 10
16.1219718586
 20
4.5046983023
 40
0.09375
100
AcDbArc
 50
195.7
 51
300.4348817947
  0
ARC
  5
2FF
100
AcDbEntity
  8
LAYER_CUT_FEAT
100
AcDbCircle
 62
7
  6
CONTINUOUS
 10
16.6507376359
 20
5.2598540931
 40
0.09375
100
AcDbArc
 50
349.5651182053
 51
94.3
  0
ARC
  5
300
100
AcDbEntity
  8
LAYER_CUT_FEAT
100
AcDbCircle
 62
7
  6
CONTINUOUS
 10
16.1723687484
 20
5.2238853558
 40
0.09375
100
AcDbArc
 50
94.3
 51
158.8498953771
  0
ARC
  5
301
100
AcDbEntity
  8
LAYER_CUT_FEAT
100
AcDbCircle
 62
7
  6
CONTINUOUS
 10
15.9921596202
 20
4.9665200486
 40
0.09375
100
AcDbArc
 50
131.1501046229
 51
195.7
  0
ARC
  5
302
100
AcDbEntity
  8
LAYER_CUT_FEAT
100
AcDbCircle
 62
7
  6
CONTINUOUS
 10
15.9284203165
 20
4.3916416388
 40
0.071875
100
AcDbArc
 50
199.0
 51
19.0
  0
ARC
  5
303
100
AcDbEntity
  8
LAYER_CUT_FEAT
100
AcDbCircle
 62
7
  6
CONTINUOUS
 10
15.7668571198
 20
4.8608552319
 40
0.071875
100
AcDbArc
 50
19.0
 51
199.0
  0
ARC
  5
304
100
AcDbEntity
  8
LAYER_CUT_FEAT
100
AcDbCircle
 62
7
  6
CONTINUOUS
 10
16.6907776222
 20
5.4804007053
 40
0.071875
100
AcDbArc
 50
271.0
 51
91.0
  0
ARC
  5
305
100
AcDbEntity
  8
LAYER_CUT_FEAT
100
AcDbCircle
 62
7
  6
CONTINUOUS
 10
16.1946032034
 20
5.4717399486
 40
0.071875
100
AcDbArc
 50
91.0
 51
271.0
  0
ARC
  5
306
100
AcDbEntity
  8
02___PRT_ALL_AXES
100
AcDbCircle
 62
7
  6
CONTINUOUS
 10
15.84900932
 20
5.5489282867
 40
0.03125
100
AcDbArc
 50
263.1497787953
 51
130.8502212047
  0
ARC
  5
307
100
AcDbEntity
  8
LAYER_CUT_FEAT
100
AcDbCircle
 62
7
  6
CONTINUOUS
 10
15.6678480541
 20
6.5641926229
 40
0.09375
100
AcDbArc
 50
339.7
 51
84.4348817947
  0
ARC
  5
308
100
AcDbEntity
  8
LAYER_CUT_FEAT
100
AcDbCircle
 62
7
  6
CONTINUOUS
 10
16.6430650614
 20
5.6994155911
 40
0.09375
100
AcDbArc
 50
267.7
 51
12.4348817947
  0
ARC
  5
309
100
AcDbEntity
  8
LAYER_CUT_FEAT
100
AcDbCircle
 62
7
  6
CONTINUOUS
 10
16.0882668369
 20
6.4356577019
 40
0.09375
100
AcDbArc
 50
61.5651182053
 51
166.3
  0
ARC
  5
30A
100
AcDbEntity
  8
LAYER_CUT_FEAT
100
AcDbCircle
 62
7
  6
CONTINUOUS
 10
15.9746510231
 20
5.9695869032
 40
0.09375
100
AcDbArc
 50
166.3
 51
230.8498953771
  0
ARC
  5
30B
100
AcDbEntity
  8
LAYER_CUT_FEAT
100
AcDbCircle
 62
7
  6
CONTINUOUS
 10
16.1637322925
 20
5.7186675838
 40
0.09375
100
AcDbArc
 50
203.1501046229
 51
267.7
  0
ARC
  5
30C
100
AcDbEntity
  8
LAYER_CUT_FEAT
100
AcDbCircle
 62
7
  6
CONTINUOUS
 10
15.8908875805
 20
6.541890643
 40
0.071875
100
AcDbArc
 50
343.0
 51
163.0
  0
ARC
  5
30D
100
AcDbEntity
  8
LAYER_CUT_FEAT
100
AcDbCircle
 62
7
  6
CONTINUOUS
 10
15.745798122
 20
6.0673244079
 40
0.071875
100
AcDbArc
 50
163.0
 51
343.0
  0
ARC
  5
30E
100
AcDbEntity
  8
02___PRT_ALL_AXES
100
AcDbCircle
 62
7
  6
CONTINUOUS
 10
15.7291311796
 20
5.7109342955
 40
0.03125
100
AcDbArc
 50
322.4804512298
 51
149.5195487702
  0
ARC
  5
30F
100
AcDbEntity
  8
02___PRT_ALL_AXES
100
AcDbCircle
 62
7
  6
CONTINUOUS
 10
14.1438401707
 20
-6.6392258115
 40
18.9080867688
100
AcDbArc
 50
85.3419753948
 51
85.5308679281
  0
ARC
  5
310
100
AcDbEntity
  8
02___PRT_ALL_AXES
100
AcDbCircle
 62
7
  6
CONTINUOUS
 10
16.7173642046
 20
-3.5256031211
 40
16.3694796801
100
AcDbArc
 50
93.6148039841
 51
93.8981492133
  0
ARC
  5
311
100
AcDbEntity
  8
02___PRT_ALL_AXES
100
AcDbCircle
 62
7
  6
CONTINUOUS
 10
14.8690297119
 20
23.0458881249
 40
10.290578066
100
AcDbArc
 50
274.0210180185
 51
274.6705213416
  0
ARC
  5
312
100
AcDbEntity
  8
02___PRT_ALL_AXES
100
AcDbCircle
 62
7
  6
CONTINUOUS
 10
16.017327816
 20
20.2118432368
 40
7.9416915354
100
AcDbArc
 50
266.7606127157
 51
267.9397728793
  0
ARC
  5
313
100
AcDbEntity
  8
02___PRT_ALL_AXES
100
AcDbCircle
 62
7
  6
CONTINUOUS
 10
15.2819864583
 20
5.6359097358
 40
6.698968191
100
AcDbArc
 50
86.0125716772
 51
87.6828926
  0
ARC
  5
314
100
AcDbEntity
  8
02___PRT_ALL_AXES
100
AcDbCircle
 62
7
  6
CONTINUOUS
 10
17.9931537826
 20
12.4923053349
 40
2.8948781077
100
AcDbArc
 50
184.6545006173
 51
187.4002850648
  0
ARC
  5
315
100
AcDbEntity
  8
0
100
AcDbCircle
 62
7
  6
CONTINUOUS
 10
17.0772950667
 20
12.7248380202
 40
2.2385628104
100
AcDbArc
 50
164.9869464979
 51
165.1360109381
  0
ARC
  5
316
100
AcDbEntity
  8
0
100
AcDbCircle
 62
7
  6
CONTINUOUS
 10
17.2885838223
 20
12.7256005133
 40
2.2356049194
100
AcDbArc
 50
164.9868478856
 51
165.1361095505
  0
ARC
  5
317
100
AcDbEntity
  8
0
100
AcDbCircle
 62
7
  6
CONTINUOUS
 10
16.9785567684
 20
12.7519607577
 40
2.1361660821
100
AcDbArc
 50
164.1126400215
 51
164.2664290025
  0
ARC
  5
318
100
AcDbEntity
  8
0
100
AcDbCircle
 62
7
  6
CONTINUOUS
 10
17.189845146
 20
12.75277014
 40
2.1331953948
100
AcDbArc
 50
164.1125329382
 51
164.2665360858
  0
ARC
  5
319
100
AcDbEntity
  8
0
100
AcDbCircle
 62
7
  6
CONTINUOUS
 10
16.8800299091
 20
12.7806696378
 40
2.0335407869
100
AcDbArc
 50
163.2097375974
 51
163.3686562567
  0
ARC
  5
31A
100
AcDbEntity
  8
0
100
AcDbCircle
 62
7
  6
CONTINUOUS
 10
17.0913312506
 20
12.7815238654
 40
2.0305699882
100
AcDbArc
 50
163.2096213454
 51
163.3687725087
  0
ARC
  5
31B
100
AcDbEntity
  8
02___PRT_ALL_AXES
100
AcDbCircle
 62
7
  6
CONTINUOUS
 10
15.1483544708
 20
13.2797380987
 40
0.5455198301
100
AcDbArc
 50
38.8743974779
 51
39.3780614895
  0
ARC
  5
31C
100
AcDbEntity
  8
02___PRT_ALL_AXES
100
AcDbCircle
 62
7
  6
CONTINUOUS
 10
15.7606033013
 20
13.2953712871
 40
0.5099861143
100
AcDbArc
 50
139.105199594
 51
139.6734133117
  0
ARC
  5
31D
100
AcDbEntity
  8
02___PRT_ALL_AXES
100
AcDbCircle
 62
7
  6
CONTINUOUS
 10
15.7600204686
 20
11.7258056056
 40
0.509217656
100
AcDbArc
 50
220.3886626866
 51
220.8932033478
  0
ARC
  5
31E
100
AcDbEntity
  8
LAYER_CUT_FEAT
100
AcDbCircle
 62
7
  6
CONTINUOUS
 10
15.5712781717
 20
11.5740562206
 40
0.2731052129
100
AcDbArc
 50
237.1577251621
 51
239.5822946739
  0
ARC
  5
31F
100
AcDbEntity
  8
02___PRT_ALL_AXES
100
AcDbCircle
 62
7
  6
CONTINUOUS
 10
15.4718788329
 20
12.1742245628
 40
0.2482301828
100
AcDbArc
 50
217.6826853087
 51
219.8251176144
  0
ARC
  5
320
100
AcDbEntity
  8
LAYER_CUT_FEAT
100
AcDbCircle
 62
7
  6
CONTINUOUS
 10
15.1048062358
 20
11.4299400218
 40
0.2404350841
100
AcDbArc
 50
0.376680835
 51
0.7268956778
  0
ARC
  5
321
100
AcDbEntity
  8
02___PRT_ALL_AXES
100
AcDbCircle
 62
7
  6
CONTINUOUS
 10
15.5734304111
 20
12.1617600574
 40
0.2176485523
100
AcDbArc
 50
317.7211532058
 51
320.1800724986
  0
ARC
  5
322
100
AcDbEntity
  8
02___PRT_ALL_AXES
100
AcDbCircle
 62
7
  6
CONTINUOUS
 10
15.5734330524
 20
12.8599198461
 40
0.2176451371
100
AcDbArc
 50
39.8199348156
 51
42.2818519985
  0
ARC
  5
323
100
AcDbEntity
  8
LAYER_CUT_FEAT
100
AcDbCircle
 62
7
  6
CONTINUOUS
 10
15.7696812426
 20
13.0271337738
 40
0.108986691
100
AcDbArc
 50
163.4070897505
 51
165.0347323818
  0
ARC
  5
324
100
AcDbEntity
  8
02___PRT_ALL_AXES
100
AcDbCircle
 62
7
  6
CONTINUOUS
 10
15.6518551936
 20
12.2458421973
 40
0.0475031911
100
AcDbArc
 50
265.6560407291
 51
275.3395339789
  0
ARC
  5
325
100
AcDbEntity
  8
LAYER_CUT_FEAT
100
AcDbCircle
 62
7
  6
CONTINUOUS
 10
15.1122579684
 20
12.1339755744
 40
0.0181232746
100
AcDbArc
 50
304.3107905567
 51
307.4101478442
  0
SPLINE
  5
326
100
AcDbEntity
  8
0
100
AcDbSpline
 62
7
  6
CONTINUOUS
 70
0
 71
3
 72
11
 73
7
 74
0
 42
0.0000001
 43
0.0000001
 44
0.0000000001
 40
0.0
 40
0.0
 40
0.0
 40
0.0
 40
0.2620207921
 40
0.5230434174
 40
0.7723244571
 40
1.0
 40
1.0
 40
1.0
 40
1.0
 10
14.9164077289
 20
13.2799154157
 30
0.0
 10
14.916476139
 20
13.2807757768
 30
0.0
 10
14.9165359048
 20
13.2825001277
 30
0.0
 10
14.9164080995
 20
13.2850439891
 30
0.0
 10
14.9160705105
 20
13.2874545088
 30
0.0
 10
14.9156956369
 20
13.2889844812
 30
0.0
 10
14.9154683163
 20
13.289699145
 30
0.0
  0
SPLINE
  5
327
100
AcDbEntity
  8
0
100
AcDbSpline
 62
7
  6
CONTINUOUS
 70
0
 71
3
 72
11
 73
7
 74
0
 42
0.0000001
 43
0.0000001
 44
0.0000000001
 40
0.0
 40
0.0
 40
0.0
 40
0.0
 40
0.2355234545
 40
0.4952352699
 40
0.7574233899
 40
1.0
 40
1.0
 40
1.0
 40
1.0
 10
14.9410338279
 20
13.3935058878
 30
0.0
 10
14.9409430534
 20
13.3932121415
 30
0.0
 10
14.9408111466
 20
13.3925760609
 30
0.0
 10
14.9407386604
 20
13.3915877611
 30
0.0
 10
14.9407851719
 20
13.3905886527
 30
0.0
 10
14.9408993184
 20
13.389936837
 30
0.0
 10
14.9409809617
 20
13.3896308834
 30
0.0
  0
SPLINE
  5
328
100
AcDbEntity
  8
0
100
AcDbSpline
 62
7
  6
CONTINUOUS
 70
0
 71
3
 72
11
 73
7
 74
0
 42
0.0000001
 43
0.0000001
 44
0.0000000001
 40
0.0
 40
0.0
 40
0.0
 40
0.0
 40
0.255920521
 40
0.5149425828
 40
0.766353714
 40
1.0
 40
1.0
 40
1.0
 40
1.0
 10
14.9431641225
 20
13.3738056354
 30
0.0
 10
14.9432612313
 20
13.3746550127
 30
0.0
 10
14.9433769433
 20
13.3763739391
 30
0.0
 10
14.9433311367
 20
13.3789365526
 30
0.0
 10
14.9430717645
 20
13.3814116871
 30
0.0
 10
14.9427494978
 20
13.3830033891
 30
0.0
 10
14.9425482635
 20
13.383757504
 30
0.0
  0
SPLINE
  5
329
100
AcDbEntity
  8
LAYER_CUT_FEAT
100
AcDbSpline
 62
7
  6
CONTINUOUS
 70
0
 71
3
 72
21
 73
17
 74
0
 42
0.0000001
 43
0.0000001
 44
0.0000000001
 40
0.0
 40
0.0
 40
0.0
 40
0.0
 40
0.0338246402
 40
0.0693370666
 40
0.1079483337
 40
0.1506642306
 40
0.1981000961
 40
0.2505551608
 40
0.3080886822
 40
0.3705794043
 40
0.4377682687
 40
0.5092888129
 40
0.5846894568
 40
0.6634507364
 40
0.8286847556
 40
1.0
 40
1.0
 40
1.0
 40
1.0
 10
15.5311166312
 20
11.9485374843
 30
0.0
 10
15.5302097644
 20
11.9485374957
 30
0.0
 10
15.5283434486
 20
11.9482998804
 30
0.0
 10
15.5256202229
 20
11.9472538675
 30
0.0
 10
15.5229725308
 20
11.9455452017
 30
0.0
 10
15.5204195019
 20
11.9432019576
 30
0.0
 10
15.5179755291
 20
11.9402491822
 30
0.0
 10
15.5156577298
 20
11.9367134208
 30
0.0
 10
15.5134844064
 20
11.9326255543
 30
0.0
 10
15.5114742456
 20
11.9280217255
 30
0.0
 10
15.5096452654
 20
11.9229432951
 30
0.0
 10
15.5080142869
 20
11.9174364656
 30
0.0
 10
15.5065963314
 20
11.9115516815
 30
0.0
 10
15.504982261
 20
11.903139235
 30
0.0
 10
15.5036035696
 20
11.8920767558
 30
0.0
 10
15.5031807183
 20
11.8830538231
 30
0.0
 10
15.5031359512
 20
11.8784609369
 30
0.0
  0
SPLINE
  5
32A
100
AcDbEntity
  8
0
100
AcDbSpline
 62
7
  6
CONTINUOUS
 70
0
 71
3
 72
11
 73
7
 74
0
 42
0.0000001
 43
0.0000001
 44
0.0000000001
 40
0.0
 40
0.0
 40
0.0
 40
0.0
 40
0.2383433696
 40
0.4990518551
 40
0.7602530921
 40
1.0
 40
1.0
 40
1.0
 40
1.0
 10
14.9315599729
 20
13.3626945858
 30
0.0
 10
14.9314728311
 20
13.3623957502
 30
0.0
 10
14.9313480016
 20
13.3617529894
 30
0.0
 10
14.9312858792
 20
13.3607597988
 30
0.0
 10
14.9313428309
 20
13.3597644564
 30
0.0
 10
14.931464125
 20
13.3591185634
 30
0.0
 10
14.9315494492
 20
13.3588172982
 30
0.0
  0
SPLINE
  5
32B
100
AcDbEntity
  8
0
100
AcDbSpline
 62
7
  6
CONTINUOUS
 70
0
 71
3
 72
11
 73
7
 74
0
 42
0.0000001
 43
0.0000001
 44
0.0000000001
 40
0.0
 40
0.0
 40
0.0
 40
0.0
 40
0.2579405068
 40
0.5176291246
 40
0.7683374645
 40
1.0
 40
1.0
 40
1.0
 40
1.0
 10
14.9339045903
 20
13.3431555086
 30
0.0
 10
14.933992147
 20
13.344009233
 30
0.0
 10
14.9340891877
 20
13.3457313138
 30
0.0
 10
14.9340159808
 20
13.3482896487
 30
0.0
 10
14.9337302944
 20
13.3507451209
 30
0.0
 10
14.9333903184
 20
13.352317505
 30
0.0
 10
14.9331802819
 20
13.3530591077
 30
0.0
  0
SPLINE
  5
32C
100
AcDbEntity
  8
0
100
AcDbSpline
 62
7
  6
CONTINUOUS
 70
0
 71
3
 72
11
 73
7
 74
0
 42
0.0000001
 43
0.0000001
 44
0.0000000001
 40
0.0
 40
0.0
 40
0.0
 40
0.0
 40
0.2411694046
 40
0.5028678386
 40
0.7630758408
 40
1.0
 40
1.0
 40
1.0
 40
1.0
 10
14.9224263574
 20
13.3312130886
 30
0.0
 10
14.922342881
 20
13.3309094313
 30
0.0
 10
14.9222251771
 20
13.3302604953
 30
0.0
 10
14.9221734718
 20
13.3292631641
 30
0.0
 10
14.9222408149
 20
13.3282723403
 30
0.0
 10
14.9223692109
 20
13.3276328772
 30
0.0
 10
14.9224581845
 20
13.3273365683
 30
0.0
  0
SPLINE
  5
32D
100
AcDbEntity
  8
0
100
AcDbSpline
 62
7
  6
CONTINUOUS
 70
0
 71
3
 72
11
 73
7
 74
0
 42
0.0000001
 43
0.0000001
 44
0.0000000001
 40
0.0
 40
0.0
 40
0.0
 40
0.0
 40
0.259973408
 40
0.520328774
 40
0.7703273313
 40
1.0
 40
1.0
 40
1.0
 40
1.0
 10
14.9249834528
 20
13.311850559
 30
0.0
 10
14.925061441
 20
13.312707945
 30
0.0
 10
14.9251398279
 20
13.3144318335
 30
0.0
 10
14.9250392807
 20
13.3169839158
 30
0.0
 10
14.9247275149
 20
13.3194178432
 30
0.0
 10
14.9243699991
 20
13.3209696463
 30
0.0
 10
14.924151265
 20
13.321698097
 30
0.0
  0
SPLINE
  5
32E
100
AcDbEntity
  8
LAYER_CUT_FEAT
100
AcDbSpline
 62
7
  6
CONTINUOUS
 70
0
 71
3
 72
11
 73
7
 74
0
 42
0.0000001
 43
0.0000001
 44
0.0000000001
 40
0.0
 40
0.0
 40
0.0
 40
0.0
 40
0.2342466169
 40
0.47516122
 40
0.7287755957
 40
1.0
 40
1.0
 40
1.0
 40
1.0
 10
15.300514996
 20
12.4018389516
 30
0.0
 10
15.2998382883
 20
12.4018389557
 30
0.0
 10
15.2984624062
 20
12.4017094024
 30
0.0
 10
15.2964269671
 20
12.4011322642
 30
0.0
 10
15.2944206762
 20
12.4001791756
 30
0.0
 10
15.2931572127
 20
12.3993311285
 30
0.0
 10
15.2925345617
 20
12.3988554949
 30
0.0
  0
SPLINE
  5
32F
100
AcDbEntity
  8
0
100
AcDbSpline
 62
7
  6
CONTINUOUS
 70
0
 71
3
 72
11
 73
7
 74
0
 42
0.0000001
 43
0.0000001
 44
0.0000000001
 40
0.0
 40
0.0
 40
0.0
 40
0.0
 40
0.2440032518
 40
0.5066856411
 40
0.7658932965
 40
1.0
 40
1.0
 40
1.0
 40
1.0
 10
14.913640167
 20
13.2990861643
 30
0.0
 10
14.9135603867
 20
13.2987779538
 30
0.0
 10
14.9134498511
 20
13.2981233518
 30
0.0
 10
14.9134086074
 20
13.2971226344
 30
0.0
 10
14.9134862839
 20
13.2961370772
 30
0.0
 10
14.9136217313
 20
13.2955045465
 30
0.0
 10
14.9137143199
 20
13.2952134611
 30
0.0
  0
SPLINE
  5
330
100
AcDbEntity
  8
LAYER_CUT_FEAT
100
AcDbSpline
 62
7
  6
CONTINUOUS
 70
0
 71
3
 72
23
 73
19
 74
0
 42
0.0000001
 43
0.0000001
 44
0.0000000001
 40
0.0
 40
0.0
 40
0.0
 40
0.0
 40
0.0668773006
 40
0.1366583209
 40
0.2086092806
 40
0.2819508208
 40
0.3558769737
 40
0.4295705897
 40
0.5022189342
 40
0.5730294878
 40
0.6412460425
 40
0.7061662969
 40
0.767160956
 40
0.8236971939
 40
0.87536774
 40
0.9219321167
 40
0.9633756478
 40
1.0
 40
1.0
 40
1.0
 40
1.0
 10
15.8068376679
 20
11.893869633
 30
0.0
 10
15.8075693221
 20
11.8970128416
 30
0.0
 10
15.8088769247
 20
11.903480466
 30
0.0
 10
15.8103605314
 20
11.9134411117
 30
0.0
 10
15.8113951937
 20
11.9237719062
 30
0.0
 10
15.8119672119
 20
11.9343386325
 30
0.0
 10
15.8120690177
 20
11.9450043838
 30
0.0
 10
15.8116992991
 20
11.9556307652
 30
0.0
 10
15.8108629007
 20
11.9660799612
 30
0.0
 10
15.8095708996
 20
11.9762165561
 30
0.0
 10
15.8078402918
 20
11.9859094026
 30
0.0
 10
15.8056938752
 20
11.9950334811
 30
0.0
 10
15.8031597291
 20
12.0034716721
 30
0.0
 10
15.8002706144
 20
12.0111166972
 30
0.0
 10
15.7970633892
 20
12.0178724811
 30
0.0
 10
15.7935756764
 20
12.0236569401
 30
0.0
 10
15.7898487226
 20
12.0283988805
 30
0.0
 10
15.7870648438
 20
12.0309739444
 30
0.0
 10
15.785646101
 20
12.0320278389
 30
0.0
  0
SPLINE
  5
331
100
AcDbEntity
  8
LAYER_CUT_FEAT
100
AcDbSpline
 62
7
  6
CONTINUOUS
 70
0
 71
3
 72
22
 73
18
 74
0
 42
0.0000001
 43
0.0000001
 44
0.0000000001
 40
0.0
 40
0.0
 40
0.0
 40
0.0
 40
0.0466328224
 40
0.0953729899
 40
0.1462726736
 40
0.1993640999
 40
0.2546618539
 40
0.3121649073
 40
0.3718583825
 40
0.4337150761
 40
0.4976967732
 40
0.5637553822
 40
0.6318339187
 40
0.7018673653
 40
0.7737834234
 40
0.8475031932
 40
1.0
 40
1.0
 40
1.0
 40
1.0
 10
15.5772463442
 20
11.3927492601
 30
0.0
 10
15.5833223188
 20
11.3989254375
 30
0.0
 10
15.5953654524
 20
11.4119386912
 30
0.0
 10
15.6127146407
 20
11.4328709771
 30
0.0
 10
15.6297136066
 20
11.4556053128
 30
0.0
 10
15.6463339569
 20
11.4801030339
 30
0.0
 10
15.6625489059
 20
11.5063238251
 30
0.0
 10
15.6783317996
 20
11.5342241456
 30
0.0
 10
15.6936566498
 20
11.5637577243
 30
0.0
 10
15.7084980852
 20
11.5948754909
 30
0.0
 10
15.722831461
 20
11.6275256894
 30
0.0
 10
15.7366329074
 20
11.6616539439
 30
0.0
 10
15.7498794121
 20
11.6972033877
 30
0.0
 10
15.7625487885
 20
11.7341146274
 30
0.0
 10
15.7746200457
 20
11.7723263667
 30
0.0
 10
15.7900639695
 20
11.8255232863
 30
0.0
 10
15.8004144067
 20
11.8662751104
 30
0.0
 10
15.8068376679
 20
11.893869633
 30
0.0
  0
SPLINE
  5
332
100
AcDbEntity
  8
LAYER_CUT_FEAT
100
AcDbSpline
 62
7
  6
CONTINUOUS
 70
0
 71
3
 72
11
 73
7
 74
0
 42
0.0000001
 43
0.0000001
 44
0.0000000001
 40
0.0
 40
0.0
 40
0.0
 40
0.0
 40
0.2627635238
 40
0.5192370496
 40
0.7660289507
 40
1.0
 40
1.0
 40
1.0
 40
1.0
 10
15.259639156
 20
13.4349430524
 30
0.0
 10
15.2597522929
 20
13.4319451873
 30
0.0
 10
15.2601215925
 20
13.4260255919
 30
0.0
 10
15.2611121731
 20
13.4173320631
 30
0.0
 10
15.2625190493
 20
13.4090290935
 30
0.0
 10
15.2637573579
 20
13.4036771459
 30
0.0
 10
15.2644495853
 20
13.4010971231
 30
0.0
  0
SPLINE
  5
333
100
AcDbEntity
  8
LAYER_CUT_FEAT
100
AcDbSpline
 62
7
  6
CONTINUOUS
 70
0
 71
3
 72
15
 73
11
 74
0
 42
0.0000001
 43
0.0000001
 44
0.0000000001
 40
0.0
 40
0.0
 40
0.0
 40
0.0
 40
0.1458751547
 40
0.2860820997
 40
0.4204085119
 40
0.5486878612
 40
0.6708050865
 40
0.7867056332
 40
0.8964043266
 40
1.0
 40
1.0
 40
1.0
 40
1.0
 10
15.2408912211
 20
12.1379616487
 30
0.0
 10
15.2434712304
 20
12.1304785989
 30
0.0
 10
15.2487738874
 20
12.1158853349
 30
0.0
 10
15.2573392573
 20
12.0947370541
 30
0.0
 10
15.266338454
 20
12.0748118137
 30
0.0
 10
15.2757451898
 20
12.0561679591
 30
0.0
 10
15.2855322399
 20
12.0388596359
 30
0.0
 10
15.2956718588
 20
12.0229367336
 30
0.0
 10
15.3061345015
 20
12.0084462464
 30
0.0
 10
15.313514396
 20
11.9995163845
 30
0.0
 10
15.3172562678
 20
11.9953215851
 30
0.0
  0
SPLINE
  5
334
100
AcDbEntity
  8
LAYER_CUT_FEAT
100
AcDbSpline
 62
7
  6
CONTINUOUS
 70
0
 71
3
 72
18
 73
14
 74
0
 42
0.0000001
 43
0.0000001
 44
0.0000000001
 40
0.0
 40
0.0
 40
0.0
 40
0.0
 40
0.1506752101
 40
0.2982413235
 40
0.4402699737
 40
0.5745024172
 40
0.698937741
 40
0.7569678967
 40
0.8119730724
 40
0.8638298163
 40
0.9124587929
 40
0.9578355267
 40
1.0
 40
1.0
 40
1.0
 40
1.0
 10
15.3391383427
 20
11.9124550632
 30
0.0
 10
15.3390828047
 20
11.9168321381
 30
0.0
 10
15.3387371158
 20
11.9254949676
 30
0.0
 10
15.3375138566
 20
11.938233744
 30
0.0
 10
15.3356130275
 20
11.950407355
 30
0.0
 10
15.3330727256
 20
11.9617766712
 30
0.0
 10
15.3304066868
 20
11.9705945217
 30
0.0
 10
15.3279685473
 20
11.9770507776
 30
0.0
 10
15.3260576599
 20
11.981445985
 30
0.0
 10
15.3240314191
 20
11.985486188
 30
0.0
 10
15.3218993198
 20
11.9891520196
 30
0.0
 10
15.3196717098
 20
11.9924254513
 30
0.0
 10
15.3180716914
 20
11.9944074601
 30
0.0
 10
15.3172562678
 20
11.9953215851
 30
0.0
  0
SPLINE
  5
335
100
AcDbEntity
  8
LAYER_CUT_FEAT
100
AcDbSpline
 62
7
  6
CONTINUOUS
 70
0
 71
3
 72
15
 73
11
 74
0
 42
0.0000001
 43
0.0000001
 44
0.0000000001
 40
0.0
 40
0.0
 40
0.0
 40
0.0
 40
0.1166771072
 40
0.2398859286
 40
0.3676580676
 40
0.4978851806
 40
0.6283867622
 40
0.7569743414
 40
0.881515377
 40
1.0
 40
1.0
 40
1.0
 40
1.0
 10
15.2217794557
 20
12.8195303897
 30
0.0
 10
15.2227520116
 20
12.8233347649
 30
0.0
 10
15.2244566196
 20
12.8312338063
 30
0.0
 10
15.2262869442
 20
12.8434782467
 30
0.0
 10
15.2274365233
 20
12.8562631641
 30
0.0
 10
15.2278820282
 20
12.8693369353
 30
0.0
 10
15.2276145247
 20
12.8824429731
 30
0.0
 10
15.226639361
 20
12.8953239867
 30
0.0
 10
15.2249763356
 20
12.9077263841
 30
0.0
 10
15.2233834389
 20
12.9157560869
 30
0.0
 10
15.2224658627
 20
12.9196366312
 30
0.0
  0
SPLINE
  5
336
100
AcDbEntity
  8
LAYER_CUT_FEAT
100
AcDbSpline
 62
7
  6
CONTINUOUS
 70
0
 71
3
 72
13
 73
9
 74
0
 42
0.0000001
 43
0.0000001
 44
0.0000000001
 40
0.0
 40
0.0
 40
0.0
 40
0.0
 40
0.1159659716
 40
0.2352235277
 40
0.3574389791
 40
0.4822586101
 40
0.7382050446
 40
1.0
 40
1.0
 40
1.0
 40
1.0
 10
15.2217794557
 20
12.8195303897
 30
0.0
 10
15.2193208909
 20
12.8099131502
 30
0.0
 10
15.2146461851
 20
12.790324665
 30
0.0
 10
15.2084306301
 20
12.7603623226
 30
0.0
 10
15.202929389
 20
12.7294903631
 30
0.0
 10
15.1965212112
 20
12.6869109721
 30
0.0
 10
15.1904661817
 20
12.6322183278
 30
0.0
 10
15.1877396224
 20
12.5879650211
 30
0.0
 10
15.1868870663
 20
12.5655719697
 30
0.0
  0
SPLINE
  5
337
100
AcDbEntity
  8
LAYER_CUT_FEAT
100
AcDbSpline
 62
7
  6
CONTINUOUS
 70
0
 71
3
 72
18
 73
14
 74
0
 42
0.0000001
 43
0.0000001
 44
0.0000000001
 40
0.0
 40
0.0
 40
0.0
 40
0.0
 40
0.0406755628
 40
0.0845617189
 40
0.1317768656
 40
0.1823580571
 40
0.2362742281
 40
0.2934397562
 40
0.4169263265
 40
0.5513851262
 40
0.6949038608
 40
0.8452561514
 40
1.0
 40
1.0
 40
1.0
 40
1.0
 10
15.1629586494
 20
12.4865233329
 30
0.0
 10
15.1637958405
 20
12.4873001336
 30
0.0
 10
15.1654453174
 20
12.489014718
 30
0.0
 10
15.1677521817
 20
12.4919128985
 30
0.0
 10
15.1699729307
 20
12.4952180236
 30
0.0
 10
15.1720969793
 20
12.4989138027
 30
0.0
 10
15.1741146294
 20
12.5029826393
 30
0.0
 10
15.1767167478
 20
12.5090357577
 30
0.0
 10
15.1796032961
 20
12.5174127971
 30
0.0
 10
15.1824218368
 20
12.528336468
 30
0.0
 10
15.1846228074
 20
12.5401685286
 30
0.0
 10
15.1861621637
 20
12.5526770202
 30
0.0
 10
15.1867217693
 20
12.5612303136
 30
0.0
 10
15.1868870663
 20
12.5655719697
 30
0.0
  0
SPLINE
  5
338
100
AcDbEntity
  8
LAYER_CUT_FEAT
100
AcDbSpline
 62
7
  6
CONTINUOUS
 70
0
 71
3
 72
23
 73
19
 74
0
 42
0.0000001
 43
0.0000001
 44
0.0000000001
 40
0.0
 40
0.0
 40
0.0
 40
0.0
 40
0.059077509
 40
0.1219053934
 40
0.1878731155
 40
0.2562990966
 40
0.3264514502
 40
0.3975640987
 40
0.4688525084
 40
0.5395287844
 40
0.6088167171
 40
0.6759672477
 40
0.7402743927
 40
0.8010930842
 40
0.857859053
 40
0.9101140979
 40
0.9575384965
 40
1.0
 40
1.0
 40
1.0
 40
1.0
 10
15.6218264645
 20
13.4462098152
 30
0.0
 10
15.6227662744
 20
13.4490122691
 30
0.0
 10
15.6244988768
 20
13.454865673
 30
0.0
 10
15.6266203752
 20
13.464027823
 30
0.0
 10
15.6283246061
 20
13.473751749
 30
0.0
 10
15.6295890173
 20
13.4839113832
 30
0.0
 10
15.6303969425
 20
13.494375434
 30
0.0
 10
15.6307377444
 20
13.50500823
 30
0.0
 10
15.6306068881
 20
13.5156718746
 30
0.0
 10
15.6300061389
 20
13.5262280341
 30
0.0
 10
15.6289433896
 20
13.5365398367
 30
0.0
 10
15.6274326975
 20
13.5464737471
 30
0.0
 10
15.6254939312
 20
13.5559013889
 30
0.0
 10
15.6231525485
 20
13.5647014732
 30
0.0
 10
15.6204391452
 20
13.5727613068
 30
0.0
 10
15.6173881722
 20
13.579979552
 30
0.0
 10
15.6140388234
 20
13.5862648219
 30
0.0
 10
15.6114915889
 20
13.5899884868
 30
0.0
 10
15.6101659875
 20
13.5916486756
 30
0.0
  0
SPLINE
  5
339
100
AcDbEntity
  8
LAYER_CUT_FEAT
100
AcDbSpline
 62
7
  6
CONTINUOUS
 70
0
 71
3
 72
18
 73
14
 74
0
 42
0.0000001
 43
0.0000001
 44
0.0000000001
 40
0.0
 40
0.0
 40
0.0
 40
0.0
 40
0.0422931542
 40
0.0853516688
 40
0.1298917043
 40
0.1765431863
 40
0.2780318449
 40
0.3928925507
 40
0.5225469676
 40
0.6673315137
 40
0.7453014645
 40
0.8268373402
 40
1.0
 40
1.0
 40
1.0
 40
1.0
 10
15.8049233991
 20
13.4804936494
 30
0.0
 10
15.804387265
 20
13.4804936427
 30
0.0
 10
15.8033036553
 20
13.4804131617
 30
0.0
 10
15.8016915646
 20
13.4800529184
 30
0.0
 10
15.8000926379
 20
13.4794553384
 30
0.0
 10
15.7979263348
 20
13.4783149405
 30
0.0
 10
15.7952722851
 20
13.4762542649
 30
0.0
 10
15.7923285708
 20
13.4729806555
 30
0.0
 10
15.789558034
 20
13.4688816473
 30
0.0
 10
15.7874726814
 20
13.4649224325
 30
0.0
 10
15.7859017372
 20
13.4613985346
 30
0.0
 10
15.7843443316
 20
13.4574784882
 30
0.0
 10
15.7833252967
 20
13.4544111054
 30
0.0
 10
15.7826982082
 20
13.4523074662
 30
0.0
  0
SPLINE
  5
33A
100
AcDbEntity
  8
LAYER_CUT_FEAT
100
AcDbSpline
 62
7
  6
CONTINUOUS
 70
0
 71
3
 72
15
 73
11
 74
0
 42
0.0000001
 43
0.0000001
 44
0.0000000001
 40
0.0
 40
0.0
 40
0.0
 40
0.0
 40
0.1437122693
 40
0.2814966531
 40
0.4135561369
 40
0.5401595825
 40
0.6616466222
 40
0.7784348912
 40
0.8910244308
 40
1.0
 40
1.0
 40
1.0
 40
1.0
 10
15.6101659875
 20
13.5916486756
 30
0.0
 10
15.6048099351
 20
13.5983566183
 30
0.0
 10
15.5940066101
 20
13.611251172
 30
0.0
 10
15.5771655581
 20
13.6293380546
 30
0.0
 10
15.5600577581
 20
13.645730751
 30
0.0
 10
15.5427081329
 20
13.6604034319
 30
0.0
 10
15.5251414054
 20
13.6733330477
 30
0.0
 10
15.5073820494
 20
13.6844986519
 30
0.0
 10
15.4894577113
 20
13.6938803541
 30
0.0
 10
15.4772360212
 20
13.6990091404
 30
0.0
 10
15.471125198
 20
13.7012510791
 30
0.0
  0
SPLINE
  5
33B
100
AcDbEntity
  8
LAYER_CUT_FEAT
100
AcDbSpline
 62
7
  6
CONTINUOUS
 70
0
 71
3
 72
15
 73
11
 74
0
 42
0.0000001
 43
0.0000001
 44
0.0000000001
 40
0.0
 40
0.0
 40
0.0
 40
0.0
 40
0.1294574427
 40
0.2593003127
 40
0.3886832962
 40
0.5167657436
 40
0.6427216861
 40
0.7657496509
 40
0.8850828463
 40
1.0
 40
1.0
 40
1.0
 40
1.0
 10
15.8693594613
 20
12.3577251056
 30
0.0
 10
15.871108234
 20
12.3927069063
 30
0.0
 10
15.8733959834
 20
12.4628411655
 30
0.0
 10
15.8732395694
 20
12.5680209311
 30
0.0
 10
15.8695091935
 20
12.6727639132
 30
0.0
 10
15.8622336315
 20
12.776266593
 30
0.0
 10
15.8514692452
 20
12.8777369133
 30
0.0
 10
15.8372991311
 20
12.9763992473
 30
0.0
 10
15.819833408
 20
13.0714968473
 30
0.0
 10
15.8057897831
 20
13.1333237116
 30
0.0
 10
15.7982025707
 20
13.1634752786
 30
0.0
  0
SPLINE
  5
33C
100
AcDbEntity
  8
LAYER_CUT_FEAT
100
AcDbSpline
 62
7
  6
CONTINUOUS
 70
0
 71
3
 72
11
 73
7
 74
0
 42
0.0000001
 43
0.0000001
 44
0.0000000001
 40
0.0
 40
0.0
 40
0.0
 40
0.0
 40
0.2393830055
 40
0.4831739475
 40
0.7355164502
 40
1.0
 40
1.0
 40
1.0
 40
1.0
 10
15.3378999459
 20
12.1941276327
 30
0.0
 10
15.3371939756
 20
12.1941276354
 30
0.0
 10
15.3357668558
 20
12.1940205807
 30
0.0
 10
15.3336439524
 20
12.1935416262
 30
0.0
 10
15.3315391668
 20
12.1927472832
 30
0.0
 10
15.330189492
 20
12.1920298258
 30
0.0
 10
15.3295222568
 20
12.1916258587
 30
0.0
  0
SPLINE
  5
33D
100
AcDbEntity
  8
LAYER_CUT_FEAT
100
AcDbSpline
 62
7
  6
CONTINUOUS
 70
0
 71
3
 72
9
 73
5
 74
0
 42
0.0000001
 43
0.0000001
 44
0.0000000001
 40
0.0
 40
0.0
 40
0.0
 40
0.0
 40
0.2402578666
 40
1.0
 40
1.0
 40
1.0
 40
1.0
 10
15.4962970725
 20
13.0733177281
 30
0.0
 10
15.4966248338
 20
13.0740540165
 30
0.0
 10
15.4979478664
 20
13.0771368664
 30
0.0
 10
15.4991131657
 20
13.080286484
 30
0.0
 10
15.4999234796
 20
13.0827027892
 30
0.0
  0
SPLINE
  5
33E
100
AcDbEntity
  8
02___PRT_ALL_AXES
100
AcDbSpline
 62
7
  6
CONTINUOUS
 70
0
 71
3
 72
9
 73
5
 74
0
 42
0.0000001
 43
0.0000001
 44
0.0000000001
 40
0.0
 40
0.0
 40
0.0
 40
0.0
 40
0.5149354067
 40
1.0
 40
1.0
 40
1.0
 40
1.0
 10
15.1996058052
 20
12.8458866407
 30
0.0
 10
15.2031953805
 20
12.8575025108
 30
0.0
 10
15.2107044791
 20
12.879898907
 30
0.0
 10
15.2194266918
 20
12.9018559806
 30
0.0
 10
15.2239935604
 20
12.9123586285
 30
0.0
  0
SPLINE
  5
33F
100
AcDbEntity
  8
02___PRT_ALL_AXES
100
AcDbSpline
 62
7
  6
CONTINUOUS
 70
0
 71
3
 72
15
 73
11
 74
0
 42
0.0000001
 43
0.0000001
 44
0.0000000001
 40
0.0
 40
0.0
 40
0.0
 40
0.0
 40
0.1115620065
 40
0.2285649088
 40
0.3502773835
 40
0.4759016883
 40
0.6045877906
 40
0.7354463781
 40
0.8675610482
 40
1.0
 40
1.0
 40
1.0
 40
1.0
 10
15.1996058052
 20
12.8458866407
 30
0.0
 10
15.195527472
 20
12.8326891495
 30
0.0
 10
15.1879019331
 20
12.8054209297
 30
0.0
 10
15.1782121022
 20
12.76313278
 30
0.0
 10
15.1700563276
 20
12.7187509699
 30
0.0
 10
15.1635033731
 20
12.6726443241
 30
0.0
 10
15.1586080939
 20
12.6251945029
 30
0.0
 10
15.1554116211
 20
12.5767950531
 30
0.0
 10
15.1539407768
 20
12.5278485312
 30
0.0
 10
15.1541191089
 20
12.4950846217
 30
0.0
 10
15.1545005588
 20
12.4786908624
 30
0.0
  0
SPLINE
  5
340
100
AcDbEntity
  8
02___PRT_ALL_AXES
100
AcDbSpline
 62
7
  6
CONTINUOUS
 70
0
 71
3
 72
14
 73
10
 74
0
 42
0.0000001
 43
0.0000001
 44
0.0000000001
 40
0.0
 40
0.0
 40
0.0
 40
0.0
 40
0.2787686488
 40
0.4111046872
 40
0.5386221976
 40
0.6612722323
 40
0.7790357387
 40
0.891927387
 40
1.0
 40
1.0
 40
1.0
 40
1.0
 10
15.217873152
 20
12.1239694001
 30
0.0
 10
15.2219279903
 20
12.1138681338
 30
0.0
 10
15.2283237956
 20
12.0991305751
 30
0.0
 10
15.237652949
 20
12.0802785344
 30
0.0
 10
15.2447482297
 20
12.0671324084
 30
0.0
 10
15.2520507743
 20
12.0547564204
 30
0.0
 10
15.2595484316
 20
12.0431715566
 30
0.0
 10
15.2672281113
 20
12.0323981823
 30
0.0
 10
15.2725765364
 20
12.0256225174
 30
0.0
 10
15.2752805604
 20
12.0223829566
 30
0.0
  0
SPLINE
  5
341
100
AcDbEntity
  8
02___PRT_ALL_AXES
100
AcDbSpline
 62
7
  6
CONTINUOUS
 70
0
 71
3
 72
26
 73
22
 74
0
 42
0.0000001
 43
0.0000001
 44
0.0000000001
 40
0.0
 40
0.0
 40
0.0
 40
0.0
 40
0.0548641338
 40
0.1169603646
 40
0.1853708798
 40
0.2588515837
 40
0.3359362468
 40
0.4150153285
 40
0.4944037363
 40
0.5724050304
 40
0.6473745185
 40
0.7177856504
 40
0.7823035927
 40
0.8398768415
 40
0.8898683143
 40
0.9120119745
 40
0.9323307418
 40
0.9509836923
 40
0.968223064
 40
0.9844090757
 40
1.0
 40
1.0
 40
1.0
 40
1.0
 10
15.5324308458
 20
12.4507728269
 30
0.0
 10
15.5318544807
 20
12.4497865962
 30
0.0
 10
15.5307910512
 20
12.4475866644
 30
0.0
 10
15.5295057866
 20
12.4439417023
 30
0.0
 10
15.5284569172
 20
12.4398209406
 30
0.0
 10
15.5276715026
 20
12.4353260511
 30
0.0
 10
15.5271694921
 20
12.4305677371
 30
0.0
 10
15.5269639034
 20
12.4256645895
 30
0.0
 10
15.5270600252
 20
12.4207390118
 30
0.0
 10
15.5274553664
 20
12.4159140801
 30
0.0
 10
15.528139754
 20
12.4113100495
 30
0.0
 10
15.5290955259
 20
12.407041253
 30
0.0
 10
15.5302985183
 20
12.403211825
 30
0.0
 10
15.5317186233
 20
12.3999150027
 30
0.0
 10
15.5331082628
 20
12.3975846612
 30
0.0
 10
15.5343175799
 20
12.3960831275
 30
0.0
 10
15.5352202704
 20
12.3951821143
 30
0.0
 10
15.5361507682
 20
12.394466053
 30
0.0
 10
15.5371049695
 20
12.3939406506
 30
0.0
 10
15.5380771551
 20
12.3936118944
 30
0.0
 10
15.5387386735
 20
12.3935266959
 30
0.0
 10
15.5390631878
 20
12.3935187721
 30
0.0
  0
SPLINE
  5
342
100
AcDbEntity
  8
02___PRT_ALL_AXES
100
AcDbSpline
 62
7
  6
CONTINUOUS
 70
0
 71
3
 72
17
 73
13
 74
0
 42
0.0000001
 43
0.0000001
 44
0.0000000001
 40
0.0
 40
0.0
 40
0.0
 40
0.0
 40
0.1761954471
 40
0.339907381
 40
0.488879479
 40
0.6214968167
 40
0.7370722918
 40
0.788678816
 40
0.8364424873
 40
0.9220764038
 40
0.9615705048
 40
1.0
 40
1.0
 40
1.0
 40
1.0
 10
15.6562757272
 20
12.1985451356
 30
0.0
 10
15.6565099173
 20
12.1972362599
 30
0.0
 10
15.6570410797
 20
12.1947243329
 30
0.0
 10
15.6580666497
 20
12.1911766561
 30
0.0
 10
15.6592756489
 20
12.1880355794
 30
0.0
 10
15.6606444373
 20
12.1853621003
 30
0.0
 10
15.6619444208
 20
12.183497252
 30
0.0
 10
15.6630543035
 20
12.1823099448
 30
0.0
 10
15.664113022
 20
12.1813980692
 30
0.0
 10
15.6652600902
 20
12.1807302982
 30
0.0
 10
15.6664542328
 20
12.1803969018
 30
0.0
 10
15.6670436717
 20
12.1803421874
 30
0.0
 10
15.6673336805
 20
12.1803421834
 30
0.0
  0
SPLINE
  5
343
100
AcDbEntity
  8
02___PRT_ALL_AXES
100
AcDbSpline
 62
7
  6
CONTINUOUS
 70
0
 71
3
 72
11
 73
7
 74
0
 42
0.0000001
 43
0.0000001
 44
0.0000000001
 40
0.0
 40
0.0
 40
0.0
 40
0.0
 40
0.2927368227
 40
0.5513326742
 40
0.7831767841
 40
1.0
 40
1.0
 40
1.0
 40
1.0
 10
15.7318240176
 20
12.2752852912
 30
0.0
 10
15.7322164291
 20
12.2747867623
 30
0.0
 10
15.7330183738
 20
12.2738934537
 30
0.0
 10
15.7343670472
 20
12.2728442872
 30
0.0
 10
15.7357728861
 20
12.2721945531
 30
0.0
 10
15.7367503204
 20
12.2720449912
 30
0.0
 10
15.7372202372
 20
12.272044983
 30
0.0
  0
SPLINE
  5
344
100
AcDbEntity
  8
LAYER_CUT_FEAT
100
AcDbSpline
 62
7
  6
CONTINUOUS
 70
0
 71
3
 72
24
 73
20
 74
0
 42
0.0000001
 43
0.0000001
 44
0.0000000001
 40
0.0
 40
0.0
 40
0.0
 40
0.0
 40
0.1681456501
 40
0.2512475537
 40
0.3326930403
 40
0.4117642241
 40
0.4877825038
 40
0.5601226683
 40
0.6282288721
 40
0.6916333844
 40
0.7499811756
 40
0.8030628292
 40
0.8508611492
 40
0.8936188848
 40
0.9319296746
 40
0.9497520396
 40
0.9668964097
 40
0.9835692647
 40
1.0
 40
1.0
 40
1.0
 40
1.0
 10
15.5758982289
 20
11.4266737627
 30
0.0
 10
15.5756904711
 20
11.4202311206
 30
0.0
 10
15.5757664408
 20
11.4105858022
 30
0.0
 10
15.5766419669
 20
11.397859407
 30
0.0
 10
15.5776731428
 20
11.3885741029
 30
0.0
 10
15.579069734
 20
11.3796114596
 30
0.0
 10
15.580816859
 20
11.3710660327
 30
0.0
 10
15.5828957407
 20
11.3630281397
 30
0.0
 10
15.585284175
 20
11.3555822212
 30
0.0
 10
15.587956909
 20
11.3488059503
 30
0.0
 10
15.5908863074
 20
11.3427691302
 30
0.0
 10
15.5940429468
 20
11.3375329376
 30
0.0
 10
15.5973984554
 20
11.3331491423
 30
0.0
 10
15.6009238319
 20
11.3296624147
 30
0.0
 10
15.6040613574
 20
11.3274866611
 30
0.0
 10
15.6066062523
 20
11.3262841693
 30
0.0
 10
15.6084876409
 20
11.3256522671
 30
0.0
 10
15.6103811565
 20
11.3252718138
 30
0.0
 10
15.6116517806
 20
11.3251869277
 30
0.0
 10
15.6122816653
 20
11.3251869214
 30
0.0
  0
SPLINE
  5
345
100
AcDbEntity
  8
LAYER_CUT_FEAT
100
AcDbSpline
 62
7
  6
CONTINUOUS
 70
0
 71
3
 72
13
 73
9
 74
0
 42
0.0000001
 43
0.0000001
 44
0.0000000001
 40
0.0
 40
0.0
 40
0.0
 40
0.0
 40
0.1073939135
 40
0.221222199
 40
0.3408789186
 40
0.4656700753
 40
0.7274885705
 40
1.0
 40
1.0
 40
1.0
 40
1.0
 10
15.6021590452
 20
11.9640110943
 30
0.0
 10
15.6013584194
 20
11.9619983411
 30
0.0
 10
15.5998393284
 20
11.9577996885
 30
0.0
 10
15.5978499712
 20
11.951215386
 30
0.0
 10
15.5960954025
 20
11.944202417
 30
0.0
 10
15.594055793
 20
11.9341939441
 30
0.0
 10
15.5922097118
 20
11.9210139997
 30
0.0
 10
15.5914922654
 20
11.9102503358
 30
0.0
 10
15.5913151078
 20
11.9047566152
 30
0.0
  0
SPLINE
  5
346
100
AcDbEntity
  8
LAYER_CUT_FEAT
100
AcDbSpline
 62
7
  6
CONTINUOUS
 70
0
 71
3
 72
13
 73
9
 74
0
 42
0.0000001
 43
0.0000001
 44
0.0000000001
 40
0.0
 40
0.0
 40
0.0
 40
0.0
 40
0.2016129856
 40
0.313791819
 40
0.4341594713
 40
0.5629685789
 40
0.7002957354
 40
1.0
 40
1.0
 40
1.0
 40
1.0
 10
15.1476959628
 20
12.081541988
 30
0.0
 10
15.1460368703
 20
12.0805375165
 30
0.0
 10
15.1436661925
 20
12.0786144106
 30
0.0
 10
15.1408265476
 20
12.0755499432
 30
0.0
 10
15.1386863785
 20
12.0728048298
 30
0.0
 10
15.1366226291
 20
12.0697087452
 30
0.0
 10
15.1339031398
 20
12.0649901303
 30
0.0
 10
15.1321283213
 20
12.0611677975
 30
0.0
 10
15.1310277881
 20
12.0585030229
 30
0.0
  0
SPLINE
  5
347
100
AcDbEntity
  8
LAYER_CUT_FEAT
100
AcDbSpline
 62
7
  6
CONTINUOUS
 70
0
 71
3
 72
11
 73
7
 74
0
 42
0.0000001
 43
0.0000001
 44
0.0000000001
 40
0.0
 40
0.0
 40
0.0
 40
0.0
 40
0.2637202741
 40
0.515928681
 40
0.7600449771
 40
1.0
 40
1.0
 40
1.0
 40
1.0
 10
15.4330049285
 20
11.3385419588
 30
0.0
 10
15.4336540175
 20
11.3381611656
 30
0.0
 10
15.434966445
 20
11.3374852307
 30
0.0
 10
15.4370089493
 20
11.3367381338
 30
0.0
 10
15.4390678357
 20
11.3362878434
 30
0.0
 10
15.4404511562
 20
11.3361872535
 30
0.0
 10
15.4411358829
 20
11.3361872487
 30
0.0
  0
SPLINE
  5
348
100
AcDbEntity
  8
LAYER_CUT_FEAT
100
AcDbSpline
 62
7
  6
CONTINUOUS
 70
0
 71
3
 72
9
 73
5
 74
0
 42
0.0000001
 43
0.0000001
 44
0.0000000001
 40
0.0
 40
0.0
 40
0.0
 40
0.0
 40
0.5036381666
 40
1.0
 40
1.0
 40
1.0
 40
1.0
 10
15.1035049021
 20
12.3184210909
 30
0.0
 10
15.1041209354
 20
12.3182574808
 30
0.0
 10
15.1053656403
 20
12.3180080499
 30
0.0
 10
15.1066325876
 20
12.3179236578
 30
0.0
 10
15.1072607684
 20
12.3179236594
 30
0.0
  0
SPLINE
  5
349
100
AcDbEntity
  8
LAYER_CUT_FEAT
100
AcDbSpline
 62
7
  6
CONTINUOUS
 70
0
 71
3
 72
15
 73
11
 74
0
 42
0.0000001
 43
0.0000001
 44
0.0000000001
 40
0.0
 40
0.0
 40
0.0
 40
0.0
 40
0.1208119487
 40
0.2474561928
 40
0.3776829851
 40
0.5091259737
 40
0.6393801897
 40
0.7660783953
 40
0.8869690051
 40
1.0
 40
1.0
 40
1.0
 40
1.0
 10
15.3359191801
 20
13.5766705349
 30
0.0
 10
15.3350099133
 20
13.5725497863
 30
0.0
 10
15.3334583631
 20
13.5640386817
 30
0.0
 10
15.3319224918
 20
13.5509285329
 30
0.0
 10
15.3311436989
 20
13.5373796222
 30
0.0
 10
15.3311392654
 20
13.5236826481
 30
0.0
 10
15.3319092354
 20
13.5101306082
 30
0.0
 10
15.33343673
 20
13.4970130231
 30
0.0
 10
15.3356879213
 20
13.484610905
 30
0.0
 10
15.3377172422
 20
13.4766861003
 30
0.0
 10
15.3388613692
 20
13.4729074241
 30
0.0
  0
SPLINE
  5
34A
100
AcDbEntity
  8
LAYER_CUT_FEAT
100
AcDbSpline
 62
7
  6
CONTINUOUS
 70
0
 71
3
 72
18
 73
14
 74
0
 42
0.0000001
 43
0.0000001
 44
0.0000000001
 40
0.0
 40
0.0
 40
0.0
 40
0.0
 40
0.1729600839
 40
0.3322258005
 40
0.4768357487
 40
0.6063843227
 40
0.7212356563
 40
0.7736069568
 40
0.8229600299
 40
0.8697060911
 40
0.9143649082
 40
0.9575602017
 40
1.0
 40
1.0
 40
1.0
 40
1.0
 10
15.4535299134
 20
13.0941948453
 30
0.0
 10
15.4543489903
 20
13.0914897029
 30
0.0
 10
15.4560847699
 20
13.0863402226
 30
0.0
 10
15.4591222621
 20
13.0791555568
 30
0.0
 10
15.4624570188
 20
13.0728934909
 30
0.0
 10
15.4660490891
 20
13.0676311943
 30
0.0
 10
15.4693246864
 20
13.0640235746
 30
0.0
 10
15.4720444505
 20
13.0617510169
 30
0.0
 10
15.4740580488
 20
13.0603890713
 30
0.0
 10
15.476102087
 20
13.0593223065
 30
0.0
 10
15.4781706407
 20
13.0585557332
 30
0.0
 10
15.4802559784
 20
13.0580936819
 30
0.0
 10
15.4816574656
 20
13.0579904296
 30
0.0
 10
15.4823509953
 20
13.0579904366
 30
0.0
  0
SPLINE
  5
34B
100
AcDbEntity
  8
LAYER_CUT_FEAT
100
AcDbSpline
 62
7
  6
CONTINUOUS
 70
0
 71
3
 72
11
 73
7
 74
0
 42
0.0000001
 43
0.0000001
 44
0.0000000001
 40
0.0
 40
0.0
 40
0.0
 40
0.0
 40
0.2648935825
 40
0.517298144
 40
0.7609208214
 40
1.0
 40
1.0
 40
1.0
 40
1.0
 10
15.5883335822
 20
13.057858571
 30
0.0
 10
15.5842737361
 20
13.0603563224
 30
0.0
 10
15.5760600893
 20
13.0647935639
 30
0.0
 10
15.5632370599
 20
13.06971045
 30
0.0
 10
15.5502998673
 20
13.0726760233
 30
0.0
 10
15.5416001165
 20
13.0733388588
 30
0.0
 10
15.5372979708
 20
13.0733388595
 30
0.0
  0
SPLINE
  5
34C
100
AcDbEntity
  8
LAYER_CUT_FEAT
100
AcDbSpline
 62
7
  6
CONTINUOUS
 70
0
 71
3
 72
13
 73
9
 74
0
 42
0.0000001
 43
0.0000001
 44
0.0000000001
 40
0.0
 40
0.0
 40
0.0
 40
0.0
 40
0.2846069197
 40
0.5409827551
 40
0.6607756297
 40
0.7763181685
 40
0.8889140344
 40
1.0
 40
1.0
 40
1.0
 40
1.0
 10
15.9507562503
 20
12.2700848633
 30
0.0
 10
15.9518106777
 20
12.2689503312
 30
0.0
 10
15.9539592353
 20
12.2669193767
 30
0.0
 10
15.9569757068
 20
12.2649179063
 30
0.0
 10
15.9594178003
 20
12.2638116751
 30
0.0
 10
15.9612243676
 20
12.2632297747
 30
0.0
 10
15.9630415247
 20
12.2628795977
 30
0.0
 10
15.9642602187
 20
12.2628014506
 30
0.0
 10
15.9648647615
 20
12.262801456
 30
0.0
  0
SPLINE
  5
34D
100
AcDbEntity
  8
LAYER_CUT_FEAT
100
AcDbSpline
 62
7
  6
CONTINUOUS
 70
0
 71
3
 72
11
 73
7
 74
0
 42
0.0000001
 43
0.0000001
 44
0.0000000001
 40
0.0
 40
0.0
 40
0.0
 40
0.0
 40
0.2774826948
 40
0.5323888541
 40
0.7706475752
 40
1.0
 40
1.0
 40
1.0
 40
1.0
 10
15.94318689
 20
12.0668801385
 30
0.0
 10
15.9438995517
 20
12.0662344565
 30
0.0
 10
15.9453489137
 20
12.0650804269
 30
0.0
 10
15.9476891664
 20
12.0637658779
 30
0.0
 10
15.9500789528
 20
12.0629657084
 30
0.0
 10
15.9517046092
 20
12.0627851716
 30
0.0
 10
15.952499467
 20
12.0627851721
 30
0.0
  0
SPLINE
  5
34E
100
AcDbEntity
  8
LAYER_CUT_FEAT
100
AcDbSpline
 62
7
  6
CONTINUOUS
 70
0
 71
3
 72
18
 73
14
 74
0
 42
0.0000001
 43
0.0000001
 44
0.0000000001
 40
0.0
 40
0.0
 40
0.0
 40
0.0
 40
0.1742284704
 40
0.3348722067
 40
0.4806714083
 40
0.6109448043
 40
0.7258264479
 40
0.7779030216
 40
0.8267439516
 40
0.872769068
 40
0.9165237161
 40
0.9586768888
 40
1.0
 40
1.0
 40
1.0
 40
1.0
 10
15.3740908837
 20
12.9924495436
 30
0.0
 10
15.3747087617
 20
12.9901466307
 30
0.0
 10
15.3760341626
 20
12.9857552315
 30
0.0
 10
15.3783986996
 20
12.9796095674
 30
0.0
 10
15.3810331435
 20
12.9742339908
 30
0.0
 10
15.3839013602
 20
12.9697033871
 30
0.0
 10
15.3865419429
 20
12.9665834219
 30
0.0
 10
15.3887481032
 20
12.9646134779
 30
0.0
 10
15.3903820521
 20
12.9634341901
 30
0.0
 10
15.3920440726
 20
12.9625095276
 30
0.0
 10
15.3937289092
 20
12.9618443875
 30
0.0
 10
15.3954295603
 20
12.9614431509
 30
0.0
 10
15.3965738665
 20
12.961353411
 30
0.0
 10
15.397139384
 20
12.9613534147
 30
0.0
  0
SPLINE
  5
34F
100
AcDbEntity
  8
LAYER_CUT_FEAT
100
AcDbSpline
 62
7
  6
CONTINUOUS
 70
0
 71
3
 72
22
 73
18
 74
0
 42
0.0000001
 43
0.0000001
 44
0.0000000001
 40
0.0
 40
0.0
 40
0.0
 40
0.0
 40
0.169932236
 40
0.3348857687
 40
0.4138060765
 40
0.4895009599
 40
0.5614025489
 40
0.6290116726
 40
0.6919158036
 40
0.7498122394
 40
0.8025396952
 40
0.8501229688
 40
0.8928361739
 40
0.9312858435
 40
0.9664961554
 40
0.9833623914
 40
1.0
 40
1.0
 40
1.0
 40
1.0
 10
15.4983004994
 20
11.3823663111
 30
0.0
 10
15.4982541063
 20
11.3776066038
 30
0.0
 10
15.4985233061
 20
11.3682194536
 30
0.0
 10
15.4997642138
 20
11.3566809361
 30
0.0
 10
15.5013057863
 20
11.3478605202
 30
0.0
 10
15.502690981
 20
11.3416660035
 30
0.0
 10
15.5043079033
 20
11.3358557838
 30
0.0
 10
15.5061406353
 20
11.3304866273
 30
0.0
 10
15.5081711618
 20
11.3256106493
 30
0.0
 10
15.5103799708
 20
11.321274587
 30
0.0
 10
15.5127467626
 20
11.3175193155
 30
0.0
 10
15.5152512312
 20
11.3143796556
 30
0.0
 10
15.5178754036
 20
11.3118853654
 30
0.0
 10
15.5206014134
 20
11.310063956
 30
0.0
 10
15.522981643
 20
11.3091201529
 30
0.0
 10
15.5248755404
 20
11.3087535035
 30
0.0
 10
15.525815147
 20
11.3086928726
 30
0.0
 10
15.5262811793
 20
11.3086928668
 30
0.0
  0
SPLINE
  5
350
100
AcDbEntity
  8
02___PRT_ALL_AXES
100
AcDbSpline
 62
7
  6
CONTINUOUS
 70
0
 71
3
 72
20
 73
16
 74
0
 42
0.0000001
 43
0.0000001
 44
0.0000000001
 40
0.0
 40
0.0
 40
0.0
 40
0.0
 40
0.0547394238
 40
0.1111805652
 40
0.1692009385
 40
0.2286695164
 40
0.2894478135
 40
0.3513908457
 40
0.4143480282
 40
0.4781640233
 40
0.5426795519
 40
0.6077321779
 40
0.7387802217
 40
0.8699817843
 40
1.0
 40
1.0
 40
1.0
 40
1.0
 10
15.2017102588
 20
13.2779832699
 30
0.0
 10
15.1961581212
 20
13.2600165461
 30
0.0
 10
15.1854689597
 20
13.223340627
 30
0.0
 10
15.1708691494
 20
13.1670693545
 30
0.0
 10
15.1574901415
 20
13.1088272214
 30
0.0
 10
15.1453724515
 20
13.0487895789
 30
0.0
 10
15.1345525322
 20
12.987136289
 30
0.0
 10
15.1250630219
 20
12.9240524274
 30
0.0
 10
15.1169325196
 20
12.8597273191
 30
0.0
 10
15.1101855921
 20
12.7943542213
 30
0.0
 10
15.104842426
 20
12.7281290729
 30
0.0
 10
15.0995996265
 20
12.6387455255
 30
0.0
 10
15.0966585622
 20
12.5263052874
 30
0.0
 10
15.0988673877
 20
12.3915272807
 30
0.0
 10
15.1041848483
 20
12.3019122812
 30
0.0
 10
15.1078225745
 20
12.2573945478
 30
0.0
  0
SPLINE
  5
351
100
AcDbEntity
  8
02___PRT_ALL_AXES
100
AcDbSpline
 62
7
  6
CONTINUOUS
 70
0
 71
3
 72
23
 73
19
 74
0
 42
0.0000001
 43
0.0000001
 44
0.0000000001
 40
0.0
 40
0.0
 40
0.0
 40
0.0
 40
0.0763263861
 40
0.1514053271
 40
0.2250822462
 40
0.2972084177
 40
0.3676417944
 40
0.4362478996
 40
0.5029007966
 40
0.567484151
 40
0.6298924276
 40
0.6900322566
 40
0.7478240071
 40
0.8032036255
 40
0.8561248187
 40
0.906561672
 40
0.9545117801
 40
1.0
 40
1.0
 40
1.0
 40
1.0
 10
15.1223884997
 20
12.119443499
 30
0.0
 10
15.1249462849
 20
12.0998021165
 30
0.0
 10
15.1304374862
 20
12.0608932615
 30
0.0
 10
15.1398849905
 20
12.0032471389
 30
0.0
 10
15.1504569313
 20
11.9469046607
 30
0.0
 10
15.1621260263
 20
11.8920107795
 30
0.0
 10
15.1748622321
 20
11.8387062314
 30
0.0
 10
15.1886327587
 20
11.7871277184
 30
0.0
 10
15.2034021808
 20
11.7374073991
 30
0.0
 10
15.2191325443
 20
11.6896725738
 30
0.0
 10
15.2357834859
 20
11.6440453322
 30
0.0
 10
15.2533123674
 20
11.6006422163
 30
0.0
 10
15.2716744154
 20
11.5595739221
 30
0.0
 10
15.2908229585
 20
11.5209449369
 30
0.0
 10
15.3107094403
 20
11.4848535041
 30
0.0
 10
15.3312843376
 20
11.4513905649
 30
0.0
 10
15.3524950822
 20
11.4206424427
 30
0.0
 10
15.3674151599
 20
11.4015049057
 30
0.0
 10
15.374979474
 20
11.3924424802
 30
0.0
  0
SPLINE
  5
352
100
AcDbEntity
  8
02___PRT_ALL_AXES
100
AcDbSpline
 62
7
  6
CONTINUOUS
 70
0
 71
3
 72
15
 73
11
 74
0
 42
0.0000001
 43
0.0000001
 44
0.0000000001
 40
0.0
 40
0.0
 40
0.0
 40
0.0
 40
0.1460583222
 40
0.2865095902
 40
0.4210819399
 40
0.5495505765
 40
0.6717451335
 40
0.7875586273
 40
0.896958465
 40
1.0
 40
1.0
 40
1.0
 40
1.0
 10
15.2017102588
 20
13.2779832699
 30
0.0
 10
15.2073742939
 20
13.2963120943
 30
0.0
 10
15.2190771984
 20
13.3320870498
 30
0.0
 10
15.2381615552
 20
13.384010377
 30
0.0
 10
15.2583823561
 20
13.4330138746
 30
0.0
 10
15.2796722907
 20
13.47893433
 30
0.0
 10
15.3019609954
 20
13.5216198917
 30
0.0
 10
15.3251762452
 20
13.5609306378
 30
0.0
 10
15.3492410064
 20
13.5967348755
 30
0.0
 10
15.3663069114
 20
13.6188450873
 30
0.0
 10
15.374979474
 20
13.6292352554
 30
0.0
  0
LINE
  5
353
100
AcDbEntity
  8
0
100
AcDbLine
 62
7
  6
CONTINUOUS
 10
15.1222134904
 20
13.2733957761
 11
15.1218530947
 21
13.2735296916
  0
SPLINE
  5
354
100
AcDbEntity
  8
0
100
AcDbSpline
 62
7
  6
CONTINUOUS
 70
0
 71
3
 72
9
 73
5
 74
0
 42
0.0000001
 43
0.0000001
 44
0.0000000001
 40
0.0
 40
0.0
 40
0.0
 40
0.0
 40
0.5249210473
 40
1.0
 40
1.0
 40
1.0
 40
1.0
 10
15.1248724389
 20
13.2713775065
 30
0.0
 10
15.1250679234
 20
13.2712291244
 30
0.0
 10
15.1254768796
 20
13.2709874249
 30
0.0
 10
15.1259473536
 20
13.2708955552
 30
0.0
 10
15.1261694715
 20
13.2708955666
 30
0.0
  0
LINE
  5
355
100
AcDbEntity
  8
0
100
AcDbLine
 62
7
  6
CONTINUOUS
 10
15.1307212897
 20
13.3059342046
 11
15.1303268404
 21
13.3060953073
  0
SPLINE
  5
356
100
AcDbEntity
  8
0
100
AcDbSpline
 62
7
  6
CONTINUOUS
 70
0
 71
3
 72
10
 73
6
 74
0
 42
0.0000001
 43
0.0000001
 44
0.0000000001
 40
0.0
 40
0.0
 40
0.0
 40
0.0
 40
0.5280230412
 40
0.767926438
 40
1.0
 40
1.0
 40
1.0
 40
1.0
 10
15.1333571493
 20
13.3037252291
 30
0.0
 10
15.1335677555
 20
13.303548731
 30
0.0
 10
15.1339100815
 20
13.303325776
 30
0.0
 10
15.1344096252
 20
13.3031708291
 30
0.0
 10
15.1346559666
 20
13.3031454469
 30
0.0
 10
15.1347767382
 20
13.3031454467
 30
0.0
  0
LINE
  5
357
100
AcDbEntity
  8
0
100
AcDbLine
 62
7
  6
CONTINUOUS
 10
15.1395811182
 20
13.3378470939
 11
15.1391529255
 21
13.3380378229
  0
SPLINE
  5
358
100
AcDbEntity
  8
0
100
AcDbSpline
 62
7
  6
CONTINUOUS
 70
0
 71
3
 72
10
 73
6
 74
0
 42
0.0000001
 43
0.0000001
 44
0.0000000001
 40
0.0
 40
0.0
 40
0.0
 40
0.0
 40
0.532255157
 40
0.7706849913
 40
1.0
 40
1.0
 40
1.0
 40
1.0
 10
15.142191815
 20
13.3354491504
 30
0.0
 10
15.1424167946
 20
13.3352425051
 30
0.0
 10
15.1427851157
 20
13.3349784849
 30
0.0
 10
15.1433318626
 20
13.3347930523
 30
0.0
 10
15.1436012315
 20
13.334762737
 30
0.0
 10
15.1437328435
 20
13.3347627301
 30
0.0
  0
LINE
  5
359
100
AcDbEntity
  8
0
100
AcDbLine
 62
7
  6
CONTINUOUS
 10
15.1487860053
 20
13.3691093369
 11
15.148324406
 21
13.3693321104
  0
SPLINE
  5
35A
100
AcDbEntity
  8
0
100
AcDbSpline
 62
7
  6
CONTINUOUS
 70
0
 71
3
 72
11
 73
7
 74
0
 42
0.0000001
 43
0.0000001
 44
0.0000000001
 40
0.0
 40
0.0
 40
0.0
 40
0.0
 40
0.2815874857
 40
0.5374515271
 40
0.7739493577
 40
1.0
 40
1.0
 40
1.0
 40
1.0
 10
15.1513694854
 20
13.3665243119
 30
0.0
 10
15.1514949461
 20
13.3663987763
 30
0.0
 10
15.1517504731
 20
13.3661741519
 30
0.0
 10
15.1521675803
 20
13.3659160225
 30
0.0
 10
15.1525956554
 20
13.3657582972
 30
0.0
 10
15.152888264
 20
13.3657225521
 30
0.0
 10
15.153030741
 20
13.3657225463
 30
0.0
  0
SPLINE
  5
35B
100
AcDbEntity
  8
0
100
AcDbSpline
 62
7
  6
CONTINUOUS
 70
0
 71
3
 72
26
 73
22
 74
0
 42
0.0000001
 43
0.0000001
 44
0.0000000001
 40
0.0
 40
0.0
 40
0.0
 40
0.0
 40
0.0878245634
 40
0.1723687869
 40
0.2534854206
 40
0.331051944
 40
0.4049753767
 40
0.475196668
 40
0.5416963841
 40
0.604501505
 40
0.6636938553
 40
0.7194198942
 40
0.7719019233
 40
0.8214496355
 40
0.8684699973
 40
0.8911989017
 40
0.9134954252
 40
0.9354382577
 40
0.9571110606
 40
0.9786014873
 40
1.0
 40
1.0
 40
1.0
 40
1.0
 10
14.9410338279
 20
13.3935058878
 30
0.0
 10
14.9472826768
 20
13.4132528342
 30
0.0
 10
14.9601680739
 20
13.4518166486
 30
0.0
 10
14.9810905959
 20
13.5078299224
 30
0.0
 10
15.0031892566
 20
13.5607799914
 30
0.0
 10
15.0263964358
 20
13.6105047296
 30
0.0
 10
15.0506417599
 20
13.6568531194
 30
0.0
 10
15.075852304
 20
13.6996846196
 30
0.0
 10
15.1019530804
 20
13.7388698327
 30
0.0
 10
15.1288677348
 20
13.7742905008
 30
0.0
 10
15.1565192221
 20
13.8058395528
 30
0.0
 10
15.1848299638
 20
13.833420284
 30
0.0
 10
15.2137240521
 20
13.8569458587
 30
0.0
 10
15.2431197165
 20
13.8763355959
 30
0.0
 10
15.2682575587
 20
13.8891312541
 30
0.0
 10
15.2884525851
 20
13.8971269902
 30
0.0
 10
15.3034919627
 20
13.9019869325
 30
0.0
 10
15.3185807077
 20
13.9057716024
 30
0.0
 10
15.3337073863
 20
13.9084776892
 30
0.0
 10
15.3488584794
 20
13.9101024401
 30
0.0
 10
15.3589768609
 20
13.9104638567
 30
0.0
 10
15.3640233713
 20
13.9104638625
 30
0.0
  0
SPLINE
  5
35C
100
AcDbEntity
  8
LAYER_CUT_FEAT
100
AcDbSpline
 62
7
  6
CONTINUOUS
 70
0
 71
3
 72
14
 73
10
 74
0
 42
0.0000001
 43
0.0000001
 44
0.0000000001
 40
0.0
 40
0.0
 40
0.0
 40
0.0
 40
0.1188630578
 40
0.2383443592
 40
0.3590503544
 40
0.4815648321
 40
0.6064396684
 40
0.7341875908
 40
1.0
 40
1.0
 40
1.0
 40
1.0
 10
15.5372979708
 20
13.7133388664
 30
0.0
 10
15.5325243674
 20
13.713338861
 30
0.0
 10
15.5229481125
 20
13.7129621298
 30
0.0
 10
15.5086143167
 20
13.7112689987
 30
0.0
 10
15.4943089112
 20
13.7084495135
 30
0.0
 10
15.4800476204
 20
13.7045073309
 30
0.0
 10
15.4658431033
 20
13.6994465681
 30
0.0
 10
15.4467515163
 20
13.6911085742
 30
0.0
 10
15.4329277627
 20
13.6833318636
 30
0.0
 10
15.4239392102
 20
13.6775729471
 30
0.0
  0
SPLINE
  5
35D
100
AcDbEntity
  8
LAYER_CUT_FEAT
100
AcDbSpline
 62
7
  6
CONTINUOUS
 70
0
 71
3
 72
20
 73
16
 74
0
 42
0.0000001
 43
0.0000001
 44
0.0000000001
 40
0.0
 40
0.0
 40
0.0
 40
0.0
 40
0.0411761028
 40
0.0831920722
 40
0.1268274198
 40
0.172756896
 40
0.221528965
 40
0.2735640352
 40
0.3291647605
 40
0.3885312831
 40
0.4517772572
 40
0.5189442336
 40
0.6648711483
 40
0.8256573382
 40
1.0
 40
1.0
 40
1.0
 40
1.0
 10
15.8625070171
 20
13.3339102786
 30
0.0
 10
15.8617636038
 20
13.3339102718
 30
0.0
 10
15.860259062
 20
13.3337913658
 30
0.0
 10
15.8580234053
 20
13.3332596548
 30
0.0
 10
15.8558089214
 20
13.33237839
 30
0.0
 10
15.8536249047
 20
13.3311534447
 30
0.0
 10
15.8514784934
 20
13.3295913442
 30
0.0
 10
15.8493765255
 20
13.3276990066
 30
0.0
 10
15.8473256211
 20
13.3254838941
 30
0.0
 10
15.8453324846
 20
13.3229542557
 30
0.0
 10
15.8434037161
 20
13.3201193023
 30
0.0
 10
15.8408564562
 20
13.3158263457
 30
0.0
 10
15.8379067377
 20
13.3097407832
 30
0.0
 10
15.8348182232
 20
13.3016143838
 30
0.0
 10
15.8330917263
 20
13.2958093755
 30
0.0
 10
15.8322882947
 20
13.2927659724
 30
0.0
  0
SPLINE
  5
35E
100
AcDbEntity
  8
02___PRT_ALL_AXES
100
AcDbSpline
 62
7
  6
CONTINUOUS
 70
0
 71
3
 72
20
 73
16
 74
0
 42
0.0000001
 43
0.0000001
 44
0.0000000001
 40
0.0
 40
0.0
 40
0.0
 40
0.0
 40
0.0335683959
 40
0.0688806975
 40
0.1073844469
 40
0.1500978254
 40
0.1976306457
 40
0.250265846
 40
0.3080402259
 40
0.3708063567
 40
0.4382765855
 40
0.5100542383
 40
0.6644891857
 40
0.8295631794
 40
1.0
 40
1.0
 40
1.0
 40
1.0
 10
15.6163757448
 20
12.8298870933
 30
0.0
 10
15.6159729402
 20
12.8298871001
 30
0.0
 10
15.6151430278
 20
12.8297790548
 30
0.0
 10
15.613933811
 20
12.8293040747
 30
0.0
 10
15.6127597643
 20
12.828529086
 30
0.0
 10
15.6116294476
 20
12.8274672228
 30
0.0
 10
15.6105494015
 20
12.8261301284
 30
0.0
 10
15.6095275299
 20
12.8245302336
 30
0.0
 10
15.6085722862
 20
12.8226820784
 30
0.0
 10
15.6076922948
 20
12.8206027136
 30
0.0
 10
15.6068957265
 20
12.8183116224
 30
0.0
 10
15.6059318458
 20
12.8149203109
 30
0.0
 10
15.6050040216
 20
12.8103096389
 30
0.0
 10
15.6043408049
 20
12.8044622747
 30
0.0
 10
15.604200478
 20
12.8004339665
 30
0.0
 10
15.6042068057
 20
12.7983888165
 30
0.0
  0
SPLINE
  5
35F
100
AcDbEntity
  8
02___PRT_ALL_AXES
100
AcDbSpline
 62
7
  6
CONTINUOUS
 70
0
 71
3
 72
15
 73
11
 74
0
 42
0.0000001
 43
0.0000001
 44
0.0000000001
 40
0.0
 40
0.0
 40
0.0
 40
0.0
 40
0.0859280177
 40
0.1775576048
 40
0.2793901981
 40
0.3943085323
 40
0.5237787959
 40
0.6682115643
 40
0.8272510786
 40
1.0
 40
1.0
 40
1.0
 40
1.0
 10
15.6948128209
 20
12.8230863156
 30
0.0
 10
15.6943537036
 20
12.8230863243
 30
0.0
 10
15.6934002406
 20
12.8229439395
 30
0.0
 10
15.6920257806
 20
12.8223242312
 30
0.0
 10
15.690704385
 20
12.8213214793
 30
0.0
 10
15.6894458285
 20
12.8199556995
 30
0.0
 10
15.6882588884
 20
12.8182443674
 30
0.0
 10
15.6871551148
 20
12.816207196
 30
0.0
 10
15.6861467442
 20
12.813868099
 30
0.0
 10
15.6855684391
 20
12.8121905628
 30
0.0
 10
15.6852949336
 20
12.8113090111
 30
0.0
  0
SPLINE
  5
360
100
AcDbEntity
  8
02___PRT_ALL_AXES
100
AcDbSpline
 62
7
  6
CONTINUOUS
 70
0
 71
3
 72
24
 73
20
 74
0
 42
0.0000001
 43
0.0000001
 44
0.0000000001
 40
0.0
 40
0.0
 40
0.0
 40
0.0
 40
0.0187306158
 40
0.0377045604
 40
0.0768445117
 40
0.1183522811
 40
0.1629352353
 40
0.2111082563
 40
0.2632134686
 40
0.319448325
 40
0.3798926626
 40
0.4445315649
 40
0.5132733423
 40
0.5859632998
 40
0.6623945225
 40
0.742316421
 40
0.8254415932
 40
0.911450645
 40
1.0
 40
1.0
 40
1.0
 40
1.0
 10
15.6482571224
 20
12.1984754679
 30
0.0
 10
15.6467863144
 20
12.1985871808
 30
0.0
 10
15.6438341875
 20
12.1989499533
 30
0.0
 10
15.6379128669
 20
12.2002308586
 30
0.0
 10
15.6304953598
 20
12.20291021
 30
0.0
 10
15.6218403561
 20
12.2077108145
 30
0.0
 10
15.6133706247
 20
12.2140892716
 30
0.0
 10
15.6051234819
 20
12.2220042555
 30
0.0
 10
15.5971326452
 20
12.231412285
 30
0.0
 10
15.5894337921
 20
12.2422650846
 30
0.0
 10
15.5820629357
 20
12.254507962
 30
0.0
 10
15.5750560847
 20
12.2680791642
 30
0.0
 10
15.5684483938
 20
12.2829098047
 30
0.0
 10
15.5622735777
 20
12.298924087
 30
0.0
 10
15.5565634776
 20
12.3160397242
 30
0.0
 10
15.5513477524
 20
12.3341684029
 30
0.0
 10
15.5466536123
 20
12.3532163364
 30
0.0
 10
15.5425055821
 20
12.3730845343
 30
0.0
 10
15.5401496879
 20
12.3866306337
 30
0.0
 10
15.5390631878
 20
12.3935187721
 30
0.0
  0
SPLINE
  5
361
100
AcDbEntity
  8
02___PRT_ALL_AXES
100
AcDbSpline
 62
7
  6
CONTINUOUS
 70
0
 71
3
 72
11
 73
7
 74
0
 42
0.0000001
 43
0.0000001
 44
0.0000000001
 40
0.0
 40
0.0
 40
0.0
 40
0.0
 40
0.261452481
 40
0.513742046
 40
0.7590933044
 40
1.0
 40
1.0
 40
1.0
 40
1.0
 10
15.6263834387
 20
12.8164168497
 30
0.0
 10
15.6281452016
 20
12.8173852324
 30
0.0
 10
15.6316969795
 20
12.8191308121
 30
0.0
 10
15.6371785195
 20
12.8211663118
 30
0.0
 10
15.6426950751
 20
12.8225604708
 30
0.0
 10
15.6464100568
 20
12.8230619751
 30
0.0
 10
15.6482571225
 20
12.8232022611
 30
0.0
  0
SPLINE
  5
362
100
AcDbEntity
  8
02___PRT_ALL_AXES
100
AcDbSpline
 62
7
  6
CONTINUOUS
 70
0
 71
3
 72
23
 73
19
 74
0
 42
0.0000001
 43
0.0000001
 44
0.0000000001
 40
0.0
 40
0.0
 40
0.0
 40
0.0
 40
0.072673465
 40
0.1459184477
 40
0.2192863695
 40
0.2923265382
 40
0.3645918969
 40
0.4356436821
 40
0.5050563562
 40
0.5724226927
 40
0.6373593274
 40
0.6995126483
 40
0.7585657047
 40
0.8142461281
 40
0.866336085
 40
0.9146849424
 40
0.9592260146
 40
1.0
 40
1.0
 40
1.0
 40
1.0
 10
15.5324308458
 20
12.4507728269
 30
0.0
 10
15.5317632177
 20
12.4595259848
 30
0.0
 10
15.5307246502
 20
12.4771255421
 30
0.0
 10
15.5300477892
 20
12.5036101703
 30
0.0
 10
15.5302474978
 20
12.5301472924
 30
0.0
 10
15.5313223397
 20
12.5565449365
 30
0.0
 10
15.5332644739
 20
12.5826126092
 30
0.0
 10
15.5360597485
 20
12.608162146
 30
0.0
 10
15.5396877719
 20
12.6330092698
 30
0.0
 10
15.5441221437
 20
12.6569749226
 30
0.0
 10
15.5493305663
 20
12.6798866438
 30
0.0
 10
15.5552752545
 20
12.701579897
 30
0.0
 10
15.5619131452
 20
12.7218993588
 30
0.0
 10
15.5691965765
 20
12.7407002794
 30
0.0
 10
15.5770735171
 20
12.7578493314
 30
0.0
 10
15.5854896476
 20
12.7732269647
 30
0.0
 10
15.5943858601
 20
12.7867240448
 30
0.0
 10
15.6008816294
 20
12.7947554065
 30
0.0
 10
15.6042068057
 20
12.7983888165
 30
0.0
  0
LINE
  5
363
100
AcDbEntity
  8
02___PRT_ALL_AXES
100
AcDbLine
 62
7
  6
CONTINUOUS
 10
15.6263834387
 20
12.8164168497
 11
15.6060434951
 21
12.815006319
  0
SPLINE
  5
364
100
AcDbEntity
  8
0
100
AcDbSpline
 62
7
  6
CONTINUOUS
 70
0
 71
3
 72
13
 73
9
 74
0
 42
0.0000001
 43
0.0000001
 44
0.0000000001
 40
0.0
 40
0.0
 40
0.0
 40
0.0
 40
0.0827346166
 40
0.1719890768
 40
0.2726873037
 40
0.3877391795
 40
0.6642694852
 40
1.0
 40
1.0
 40
1.0
 40
1.0
 10
14.9077064136
 20
13.2735296916
 30
0.0
 10
14.9076537647
 20
13.2735296924
 30
0.0
 10
14.9075436919
 20
13.2735115372
 30
0.0
 10
14.9073865913
 20
13.2734333285
 30
0.0
 10
14.9072368039
 20
13.2733077186
 30
0.0
 10
14.9070361419
 20
13.273065525
 30
0.0
 10
14.9068208162
 20
13.2726509162
 30
0.0
 10
14.9067011254
 20
13.272278986
 30
0.0
 10
14.9066475878
 20
13.2720721576
 30
0.0
  0
SPLINE
  5
365
100
AcDbEntity
  8
0
100
AcDbSpline
 62
7
  6
CONTINUOUS
 70
0
 71
3
 72
13
 73
9
 74
0
 42
0.0000001
 43
0.0000001
 44
0.0000000001
 40
0.0
 40
0.0
 40
0.0
 40
0.0
 40
0.0837569201
 40
0.1737659715
 40
0.2748188811
 40
0.3898266173
 40
0.6654285805
 40
1.0
 40
1.0
 40
1.0
 40
1.0
 10
14.9161801593
 20
13.3060953073
 30
0.0
 10
14.9161290378
 20
13.3060953048
 30
0.0
 10
14.9160223947
 20
13.3060782673
 30
0.0
 10
14.9158696773
 20
13.3060045824
 30
0.0
 10
14.9157236553
 20
13.3058859655
 30
0.0
 10
14.9155276408
 20
13.3056571573
 30
0.0
 10
14.9153153407
 20
13.3052640028
 30
0.0
 10
14.9151956185
 20
13.3049102233
 30
0.0
 10
14.9151414893
 20
13.3047133203
 30
0.0
  0
SPLINE
  5
366
100
AcDbEntity
  8
0
100
AcDbSpline
 62
7
  6
CONTINUOUS
 70
0
 71
3
 72
13
 73
9
 74
0
 42
0.0000001
 43
0.0000001
 44
0.0000000001
 40
0.0
 40
0.0
 40
0.0
 40
0.0
 40
0.0848149703
 40
0.1756167142
 40
0.2770598201
 40
0.3920479217
 40
0.666710324
 40
1.0
 40
1.0
 40
1.0
 40
1.0
 10
14.9250062444
 20
13.3380378229
 30
0.0
 10
14.9249566484
 20
13.3380378173
 30
0.0
 10
14.9248534121
 20
13.3380218607
 30
0.0
 10
14.9247050971
 20
13.3379525588
 30
0.0
 10
14.92456289
 20
13.3378407491
 30
0.0
 10
14.9243716388
 20
13.3376249985
 30
0.0
 10
14.9241626153
 20
13.3372529175
 30
0.0
 10
14.9240431066
 20
13.3369170047
 30
0.0
 10
14.9239885473
 20
13.3367299045
 30
0.0
  0
SPLINE
  5
367
100
AcDbEntity
  8
0
100
AcDbSpline
 62
7
  6
CONTINUOUS
 70
0
 71
3
 72
13
 73
9
 74
0
 42
0.0000001
 43
0.0000001
 44
0.0000000001
 40
0.0
 40
0.0
 40
0.0
 40
0.0
 40
0.0859093674
 40
0.1775420115
 40
0.2794113791
 40
0.3944051757
 40
0.6681173143
 40
1.0
 40
1.0
 40
1.0
 40
1.0
 10
14.9341777249
 20
13.3693321104
 30
0.0
 10
14.9341296526
 20
13.3693321069
 30
0.0
 10
14.934029802
 20
13.3693171791
 30
0.0
 10
14.9338859051
 20
13.3692521299
 30
0.0
 10
14.9337475613
 20
13.3691469371
 30
0.0
 10
14.9335611859
 20
13.3689439094
 30
0.0
 10
14.9333556872
 20
13.3685925011
 30
0.0
 10
14.9332366325
 20
13.3682741541
 30
0.0
 10
14.9331818015
 20
13.3680967212
 30
0.0
  0
SPLINE
  5
368
100
AcDbEntity
  8
02___PRT_ALL_AXES
100
AcDbSpline
 62
7
  6
CONTINUOUS
 70
0
 71
3
 72
18
 73
14
 74
0
 42
0.0000001
 43
0.0000001
 44
0.0000000001
 40
0.0
 40
0.0
 40
0.0
 40
0.0
 40
0.1480710159
 40
0.2878721886
 40
0.4199789397
 40
0.4834008313
 40
0.5452080444
 40
0.6644687612
 40
0.7790209959
 40
0.8349997899
 40
0.8903523826
 40
0.9452825562
 40
1.0
 40
1.0
 40
1.0
 40
1.0
 10
15.3750982269
 20
13.6292450273
 30
0.0
 10
15.3825488958
 20
13.6378473645
 30
0.0
 10
15.3976077241
 20
13.6540894413
 30
0.0
 10
15.4213597832
 20
13.6759969507
 30
0.0
 10
15.4417952763
 20
13.6917689334
 30
0.0
 10
15.4583161101
 20
13.7026571122
 30
0.0
 10
15.4745259
 20
13.7121756938
 30
0.0
 10
15.4950276433
 20
13.7220865203
 30
0.0
 10
15.5161513634
 20
13.7293412769
 30
0.0
 10
15.5330490561
 20
13.7333703925
 30
0.0
 10
15.5456561606
 20
13.7355150626
 30
0.0
 10
15.5582812205
 20
13.7368024833
 30
0.0
 10
15.5667112529
 20
13.7370888666
 30
0.0
 10
15.5709166971
 20
13.7370888677
 30
0.0
  0
SPLINE
  5
369
100
AcDbEntity
  8
02___PRT_ALL_AXES
100
AcDbSpline
 62
7
  6
CONTINUOUS
 70
0
 71
3
 72
16
 73
12
 74
0
 42
0.0000001
 43
0.0000001
 44
0.0000000001
 40
0.0
 40
0.0
 40
0.0
 40
0.0
 40
0.108818999
 40
0.2194238907
 40
0.3334963211
 40
0.4525321445
 40
0.5143383699
 40
0.5778381211
 40
0.7103446047
 40
0.8508759907
 40
1.0
 40
1.0
 40
1.0
 40
1.0
 10
15.6446015766
 20
13.0577138648
 30
0.0
 10
15.648482642
 20
13.057713861
 30
0.0
 10
15.6563191929
 20
13.0571603852
 30
0.0
 10
15.6679879846
 20
13.0546818126
 30
0.0
 10
15.6795709171
 20
13.0505679111
 30
0.0
 10
15.6890014851
 20
13.045852903
 30
0.0
 10
15.6964524335
 20
13.0413270591
 30
0.0
 10
15.7040523614
 20
13.0361444658
 30
0.0
 10
15.7134443378
 20
13.0286390495
 30
0.0
 10
15.724340645
 20
13.0182248861
 30
0.0
 10
15.7312328331
 20
13.0105144163
 30
0.0
 10
15.7346409546
 20
13.0064313103
 30
0.0
  0
SPLINE
  5
36A
100
AcDbEntity
  8
02___PRT_ALL_AXES
100
AcDbSpline
 62
7
  6
CONTINUOUS
 70
0
 71
3
 72
31
 73
27
 74
0
 42
0.0000001
 43
0.0000001
 44
0.0000000001
 40
0.0
 40
0.0
 40
0.0
 40
0.0
 40
0.0202798075
 40
0.0417785292
 40
0.064507205
 40
0.0884607274
 40
0.1136203025
 40
0.13995542
 40
0.1674254735
 40
0.195981118
 40
0.2255653581
 40
0.2561145219
 40
0.2875590664
 40
0.3198242976
 40
0.386490865
 40
0.4554429204
 40
0.525957542
 40
0.5972818814
 40
0.6686479251
 40
0.7392868836
 40
0.8084435642
 40
0.8753910745
 40
0.9078236414
 40
0.9394523
 40
0.9702012529
 40
1.0
 40
1.0
 40
1.0
 40
1.0
 10
15.7405977428
 20
12.9992947791
 30
0.0
 10
15.7442827453
 20
12.9948799554
 30
0.0
 10
15.751537779
 20
12.9855004442
 30
0.0
 10
15.7617858935
 20
12.9703363524
 30
0.0
 10
15.7716840037
 20
12.9537172899
 30
0.0
 10
15.781200958
 20
12.9356960998
 30
0.0
 10
15.7903075022
 20
12.9163287973
 30
0.0
 10
15.7989750809
 20
12.8956762002
 30
0.0
 10
15.8071764465
 20
12.8738032301
 30
0.0
 10
15.8148856506
 20
12.8507788388
 30
0.0
 10
15.8220782776
 20
12.8266757307
 30
0.0
 10
15.8287314264
 20
12.8015701728
 30
0.0
 10
15.8348240875
 20
12.7755415112
 30
0.0
 10
15.8422546232
 20
12.7393217983
 30
0.0
 10
15.8499652374
 20
12.6923217516
 30
0.0
 10
15.8566318412
 20
12.6342302166
 30
0.0
 10
15.8607242897
 20
12.5745771625
 30
0.0
 10
15.8621900696
 20
12.514118068
 30
0.0
 10
15.8610102629
 20
12.4536174841
 30
0.0
 10
15.8572001034
 20
12.3938405211
 30
0.0
 10
15.8508084804
 20
12.3355442737
 30
0.0
 10
15.8433226567
 20
12.2883207292
 30
0.0
 10
15.8360669206
 20
12.2518828234
 30
0.0
 10
15.8300981877
 20
12.2256651252
 30
0.0
 10
15.823564698
 20
12.2003531925
 30
0.0
 10
15.8187673038
 20
12.1838642892
 30
0.0
 10
15.8162724981
 20
12.1757910949
 30
0.0
  0
SPLINE
  5
36B
100
AcDbEntity
  8
02___PRT_ALL_AXES
100
AcDbSpline
 62
7
  6
CONTINUOUS
 70
0
 71
3
 72
9
 73
5
 74
0
 42
0.0000001
 43
0.0000001
 44
0.0000000001
 40
0.0
 40
0.0
 40
0.0
 40
0.0
 40
0.4831749693
 40
1.0
 40
1.0
 40
1.0
 40
1.0
 10
15.5181918851
 20
13.6776112368
 30
0.0
 10
15.5278831209
 20
13.6695643743
 30
0.0
 10
15.5470562762
 20
13.6518289425
 30
0.0
 10
15.564536759
 20
13.6324426618
 30
0.0
 10
15.573170738
 20
13.6220987243
 30
0.0
  0
SPLINE
  5
36C
100
AcDbEntity
  8
02___PRT_ALL_AXES
100
AcDbSpline
 62
7
  6
CONTINUOUS
 70
0
 71
3
 72
9
 73
5
 74
0
 42
0.0000001
 43
0.0000001
 44
0.0000000001
 40
0.0
 40
0.0
 40
0.0
 40
0.0
 40
0.4832773102
 40
1.0
 40
1.0
 40
1.0
 40
1.0
 10
15.5730545738
 20
13.6221146569
 30
0.0
 10
15.5828882886
 20
13.609917063
 30
0.0
 10
15.6021728027
 20
13.5838101856
 30
0.0
 10
15.6195431275
 20
13.5564057625
 30
0.0
 10
15.6280791349
 20
13.5419914277
 30
0.0
  0
SPLINE
  5
36D
100
AcDbEntity
  8
02___PRT_ALL_AXES
100
AcDbSpline
 62
7
  6
CONTINUOUS
 70
0
 71
3
 72
11
 73
7
 74
0
 42
0.0000001
 43
0.0000001
 44
0.0000000001
 40
0.0
 40
0.0
 40
0.0
 40
0.0
 40
0.2410632005
 40
0.4887532614
 40
0.7420778122
 40
1.0
 40
1.0
 40
1.0
 40
1.0
 10
15.7841265243
 20
13.1102240324
 30
0.0
 10
15.7897187499
 20
13.084377528
 30
0.0
 10
15.8001426166
 20
13.0317724056
 30
0.0
 10
15.8133719251
 20
12.9514357947
 30
0.0
 10
15.8243610493
 20
12.8688966602
 30
0.0
 10
15.830113138
 20
12.8130994345
 30
0.0
 10
15.8326129378
 20
12.7849160943
 30
0.0
  0
SPLINE
  5
36E
100
AcDbEntity
  8
02___PRT_ALL_AXES
100
AcDbSpline
 62
7
  6
CONTINUOUS
 70
0
 71
3
 72
11
 73
7
 74
0
 42
0.0000001
 43
0.0000001
 44
0.0000000001
 40
0.0
 40
0.0
 40
0.0
 40
0.0
 40
0.261023569
 40
0.5151865188
 40
0.7617432246
 40
1.0
 40
1.0
 40
1.0
 40
1.0
 10
15.8024370799
 20
12.0052688304
 30
0.0
 10
15.7984056074
 20
11.9822155023
 30
0.0
 10
15.7898143776
 20
11.9368226168
 30
0.0
 10
15.7751304602
 20
11.8701119446
 30
0.0
 10
15.7588646566
 20
11.8058722474
 30
0.0
 10
15.7467902168
 20
11.7641040929
 30
0.0
 10
15.740483165
 20
11.7436944657
 30
0.0
  0
SPLINE
  5
36F
100
AcDbEntity
  8
0
100
AcDbSpline
 62
7
  6
CONTINUOUS
 70
0
 71
3
 72
69
 73
65
 74
0
 42
0.0000001
 43
0.0000001
 44
0.0000000001
 40
0.0
 40
0.0
 40
0.0
 40
0.0
 40
0.0041772092
 40
0.0083684528
 40
0.012587592
 40
0.0168481492
 40
0.0255413675
 40
0.0345484796
 40
0.0439534052
 40
0.0538263554
 40
0.0642238893
 40
0.0751897886
 40
0.086756334
 40
0.0989456884
 40
0.1117712337
 40
0.1252387696
 40
0.1393475463
 40
0.1540911338
 40
0.1694581605
 40
0.1854329307
 40
0.2019959404
 40
0.2191243106
 40
0.2367921685
 40
0.2549709746
 40
0.2736298076
 40
0.2927356173
 40
0.3122534608
 40
0.3321467159
 40
0.3523772776
 40
0.3729057423
 40
0.4146912337
 40
0.4571708507
 40
0.4999999999
 40
0.5428291492
 40
0.5853087661
 40
0.6270942577
 40
0.6476227227
 40
0.6678532838
 40
0.6877465387
 40
0.7072643828
 40
0.7263701929
 40
0.745029025
 40
0.7632078309
 40
0.7808756897
 40
0.7980040603
 40
0.8145670687
 40
0.8305418389
 40
0.8459088666
 40
0.8606524544
 40
0.8747612297
 40
0.8882287658
 40
0.9010543121
 40
0.9132436667
 40
0.9248102107
 40
0.9357761104
 40
0.946173645
 40
0.9560465952
 40
0.96545152
 40
0.9744586323
 40
0.9831518511
 40
0.9874124078
 40
0.9916315473
 40
0.9958227908
 40
1.0
 40
1.0
 40
1.0
 40
1.0
 10
15.5781700524
 20
11.1112138689
 30
0.0
 10
15.5826309136
 20
11.1112138648
 30
0.0
 10
15.5915701865
 20
11.1114960557
 30
0.0
 10
15.6049608503
 20
11.1127646903
 30
0.0
 10
15.6183352614
 20
11.1148783021
 30
0.0
 10
15.6362498155
 20
11.1188457904
 30
0.0
 10
15.6586506813
 20
11.1259841497
 30
0.0
 10
15.6851148475
 20
11.1378456777
 30
0.0
 10
15.7112901604
 20
11.1530202214
 30
0.0
 10
15.7371148401
 20
11.1714614404
 30
0.0
 10
15.7625335709
 20
11.1931190028
 30
0.0
 10
15.7874909662
 20
11.2179376981
 30
0.0
 10
15.8119323111
 20
11.2458568362
 30
0.0
 10
15.8358030096
 20
11.2768095184
 30
0.0
 10
15.8590488357
 20
11.3107222314
 30
0.0
 10
15.8816161766
 20
11.3475146331
 30
0.0
 10
15.9034523551
 20
11.3870995068
 30
0.0
 10
15.924505952
 20
11.4293828277
 30
0.0
 10
15.9447270465
 20
11.474263949
 30
0.0
 10
15.9640674443
 20
11.5216358287
 30
0.0
 10
15.982480874
 20
11.5713852832
 30
0.0
 10
15.9999231822
 20
11.6233932603
 30
0.0
 10
16.0163524567
 20
11.6775351537
 30
0.0
 10
16.0317291587
 20
11.7336811214
 30
0.0
 10
16.0460162411
 20
11.7916964102
 30
0.0
 10
16.0591792697
 20
11.8514416801
 30
0.0
 10
16.0711865105
 20
11.9127733904
 30
0.0
 10
16.0820089438
 20
11.9755440402
 30
0.0
 10
16.0916206156
 20
12.0396029786
 30
0.0
 10
16.102856005
 20
12.1270391454
 30
0.0
 10
16.1136770888
 20
12.2384576315
 30
0.0
 10
16.1214738594
 20
12.3739911494
 30
0.0
 10
16.1240811755
 20
12.5108388676
 30
0.0
 10
16.1214738596
 20
12.6476865857
 30
0.0
 10
16.1136770887
 20
12.7832201038
 30
0.0
 10
16.1028560039
 20
12.8946385901
 30
0.0
 10
16.0916206185
 20
12.9820747573
 30
0.0
 10
16.0820089427
 20
13.0461336946
 30
0.0
 10
16.0711865084
 20
13.108904344
 30
0.0
 10
16.0591792703
 20
13.1702360557
 30
0.0
 10
16.0460162441
 20
13.2299813262
 30
0.0
 10
16.0317291571
 20
13.2879966132
 30
0.0
 10
16.0163524548
 20
13.3441425804
 30
0.0
 10
15.999923183
 20
13.3982844758
 30
0.0
 10
15.9824808771
 20
13.4502924538
 30
0.0
 10
15.9640674422
 20
13.5000419054
 30
0.0
 10
15.9447270448
 20
13.5474137849
 30
0.0
 10
15.9245059531
 20
13.5922949089
 30
0.0
 10
15.9034523583
 20
13.6345782309
 30
0.0
 10
15.881616174
 20
13.6741631003
 30
0.0
 10
15.8590488343
 20
13.7109555023
 30
0.0
 10
15.835803011
 20
13.7448682189
 30
0.0
 10
15.8119323142
 20
13.7758209024
 30
0.0
 10
15.7874909632
 20
13.803740034
 30
0.0
 10
15.7625335698
 20
13.8285587306
 30
0.0
 10
15.7371148418
 20
13.850216298
 30
0.0
 10
15.7112901625
 20
13.8686575181
 30
0.0
 10
15.6851148451
 20
13.8838320532
 30
0.0
 10
15.6586506805
 20
13.8956935811
 30
0.0
 10
15.636249818
 20
13.9028319557
 30
0.0
 10
15.6183352598
 20
13.9067994255
 30
0.0
 10
15.6049608511
 20
13.9089130502
 30
0.0
 10
15.5915701864
 20
13.9101816822
 30
0.0
 10
15.5826309135
 20
13.9104638676
 30
0.0
 10
15.5781700524
 20
13.9104638625
 30
0.0
  0
SPLINE
  5
370
100
AcDbEntity
  8
0
100
AcDbSpline
 62
7
  6
CONTINUOUS
 70
0
 71
3
 72
48
 73
44
 74
0
 42
0.0000001
 43
0.0000001
 44
0.0000000001
 40
0.0
 40
0.0
 40
0.0
 40
0.0
 40
0.0077165146
 40
0.0154812865
 40
0.0233414702
 40
0.0313421146
 40
0.0395253378
 40
0.0479297232
 40
0.0655270043
 40
0.0747866617
 40
0.0843819172
 40
0.0943316646
 40
0.1046513422
 40
0.1153532138
 40
0.1264466483
 40
0.1379383886
 40
0.1498328002
 40
0.1621320981
 40
0.1748365529
 40
0.1879446736
 40
0.2014533695
 40
0.2296506355
 40
0.2593793757
 40
0.2905699165
 40
0.3231374183
 40
0.356984109
 40
0.3920011423
 40
0.428070202
 40
0.4650649167
 40
0.5028521303
 40
0.5412930741
 40
0.5802444805
 40
0.6195596396
 40
0.6590894225
 40
0.698683288
 40
0.7381902754
 40
0.7774599924
 40
0.8163436117
 40
0.8546948768
 40
0.8923711295
 40
0.9292343745
 40
0.9651523825
 40
1.0
 40
1.0
 40
1.0
 40
1.0
 10
15.3640233713
 20
11.1112138689
 30
0.0
 10
15.3579273295
 20
11.1112138746
 30
0.0
 10
15.3456906492
 20
11.1117422532
 30
0.0
 10
15.3273830249
 20
11.1141162193
 30
0.0
 10
15.3091198112
 20
11.1180685725
 30
0.0
 10
15.2909251676
 20
11.1235930132
 30
0.0
 10
15.2728191108
 20
11.1306819012
 30
0.0
 10
15.2484566734
 20
11.1423819304
 30
0.0
 10
15.2246976234
 20
11.1571107046
 30
0.0
 10
15.2016962138
 20
11.1744540788
 30
0.0
 10
15.184334795
 20
11.1891850681
 30
0.0
 10
15.1671809826
 20
11.2053978645
 30
0.0
 10
15.1502510779
 20
11.2230753241
 30
0.0
 10
15.1335639727
 20
11.2421971514
 30
0.0
 10
15.1171376196
 20
11.262742019
 30
0.0
 10
15.1009900043
 20
11.2846869425
 30
0.0
 10
15.0851388384
 20
11.3080074424
 30
0.0
 10
15.0696015824
 20
11.3326775099
 30
0.0
 10
15.0543954798
 20
11.3586695956
 30
0.0
 10
15.0395371992
 20
11.3859547953
 30
0.0
 10
15.0199321668
 20
11.4245713133
 30
0.0
 10
14.9964738705
 20
11.475928593
 30
0.0
 10
14.970356931
 20
11.5413327585
 30
0.0
 10
14.9459995482
 20
11.6110783143
 30
0.0
 10
14.9235109385
 20
11.6848534608
 30
0.0
 10
14.9029918552
 20
11.7623299099
 30
0.0
 10
14.8845345835
 20
11.8431615342
 30
0.0
 10
14.8682222238
 20
11.9269868877
 30
0.0
 10
14.854128317
 20
12.0134306919
 30
0.0
 10
14.8423164468
 20
12.102105662
 30
0.0
 10
14.8328399048
 20
12.1926142857
 30
0.0
 10
14.8257414644
 20
12.2845506695
 30
0.0
 10
14.8210531811
 20
12.3775024023
 30
0.0
 10
14.8187962205
 20
12.4710524397
 30
0.0
 10
14.8189807645
 20
12.5647810099
 30
0.0
 10
14.8216059829
 20
12.6582675267
 30
0.0
 10
14.8266600331
 20
12.7510925098
 30
0.0
 10
14.8341200846
 20
12.8428394856
 30
0.0
 10
14.8439524637
 20
12.9330969359
 30
0.0
 10
14.856112775
 20
13.0214600046
 30
0.0
 10
14.870546231
 20
13.107532973
 30
0.0
 10
14.8871874068
 20
13.1909289258
 30
0.0
 10
14.8999105774
 20
13.2453796235
 30
0.0
 10
14.9066475878
 20
13.2720721576
 30
0.0
  0
SPLINE
  5
371
100
AcDbEntity
  8
02___PRT_ALL_AXES
100
AcDbSpline
 62
7
  6
CONTINUOUS
 70
0
 71
3
 72
18
 73
14
 74
0
 42
0.0000001
 43
0.0000001
 44
0.0000000001
 40
0.0
 40
0.0
 40
0.0
 40
0.0
 40
0.1480729296
 40
0.2878754174
 40
0.4199828739
 40
0.4834048924
 40
0.5452120866
 40
0.6644723554
 40
0.7790236752
 40
0.8350018775
 40
0.8903538123
 40
0.9452832825
 40
1.0
 40
1.0
 40
1.0
 40
1.0
 10
15.3750869896
 20
11.3924456832
 30
0.0
 10
15.382538014
 20
11.3838423393
 30
0.0
 10
15.3975975816
 20
11.3675983613
 30
0.0
 10
15.4213509041
 20
11.3456882283
 30
0.0
 10
15.4417875527
 20
11.3299143257
 30
0.0
 10
15.4583093487
 20
11.3190248172
 30
0.0
 10
15.4745200592
 20
11.3095050923
 30
0.0
 10
15.4950229906
 20
11.2995930661
 30
0.0
 10
15.5161480065
 20
11.2923374112
 30
0.0
 10
15.5330467397
 20
11.2883077996
 30
0.0
 10
15.5456546134
 20
11.2861628665
 30
0.0
 10
15.5582804459
 20
11.2848752893
 30
0.0
 10
15.5667109958
 20
11.2845888668
 30
0.0
 10
15.5709166971
 20
11.2845888679
 30
0.0
  0
SPLINE
  5
372
100
AcDbEntity
  8
02___PRT_ALL_AXES
100
AcDbSpline
 62
7
  6
CONTINUOUS
 70
0
 71
3
 72
16
 73
12
 74
0
 42
0.0000001
 43
0.0000001
 44
0.0000000001
 40
0.0
 40
0.0
 40
0.0
 40
0.0
 40
0.1088189958
 40
0.2194238951
 40
0.3334963132
 40
0.4525321324
 40
0.514338358
 40
0.5778381273
 40
0.7103445858
 40
0.8508759777
 40
1.0
 40
1.0
 40
1.0
 40
1.0
 10
15.6446015766
 20
11.9639638709
 30
0.0
 10
15.648482642
 20
11.9639638671
 30
0.0
 10
15.6563191939
 20
11.9645173477
 30
0.0
 10
15.6679879828
 20
11.9669959286
 30
0.0
 10
15.6795709181
 20
11.9711098217
 30
0.0
 10
15.6890014849
 20
11.9758248317
 30
0.0
 10
15.696452435
 20
11.9803506743
 30
0.0
 10
15.7040523578
 20
11.9855332748
 30
0.0
 10
15.7134443405
 20
11.9930386828
 30
0.0
 10
15.7243406461
 20
12.0034528489
 30
0.0
 10
15.7312328297
 20
12.0111633233
 30
0.0
 10
15.7346409542
 20
12.0152464276
 30
0.0
  0
SPLINE
  5
373
100
AcDbEntity
  8
02___PRT_ALL_AXES
100
AcDbSpline
 62
7
  6
CONTINUOUS
 70
0
 71
3
 72
15
 73
11
 74
0
 42
0.0000001
 43
0.0000001
 44
0.0000000001
 40
0.0
 40
0.0
 40
0.0
 40
0.0
 40
0.1030415243
 40
0.2124413736
 40
0.3282548625
 40
0.4504494221
 40
0.5789180696
 40
0.7134904273
 40
0.8539413756
 40
1.0
 40
1.0
 40
1.0
 40
1.0
 10
15.7405977425
 20
12.0223829587
 30
0.0
 10
15.7443854555
 20
12.0269208292
 30
0.0
 10
15.7518389354
 20
12.0365773888
 30
0.0
 10
15.7623491357
 20
12.0522147732
 30
0.0
 10
15.7724883219
 20
12.0693836096
 30
0.0
 10
15.7822228388
 20
12.0880263879
 30
0.0
 10
15.7915211467
 20
12.1080819956
 30
0.0
 10
15.800352509
 20
12.1294840938
 30
0.0
 10
15.8086875398
 20
12.1521614333
 30
0.0
 10
15.8137987444
 20
12.1677860252
 30
0.0
 10
15.8162724981
 20
12.1757910949
 30
0.0
  0
SPLINE
  5
374
100
AcDbEntity
  8
02___PRT_ALL_AXES
100
AcDbSpline
 62
7
  6
CONTINUOUS
 70
0
 71
3
 72
11
 73
7
 74
0
 42
0.0000001
 43
0.0000001
 44
0.0000000001
 40
0.0
 40
0.0
 40
0.0
 40
0.0
 40
0.2740699262
 40
0.5311674885
 40
0.7725563259
 40
1.0
 40
1.0
 40
1.0
 40
1.0
 10
15.2812373487
 20
12.0152464254
 30
0.0
 10
15.2848996853
 20
12.0108587565
 30
0.0
 10
15.292311278
 20
12.0026087424
 30
0.0
 10
15.3040770688
 20
11.9915715575
 30
0.0
 10
15.3160893802
 20
11.9823179552
 30
0.0
 10
15.3244659552
 20
11.9772250016
 30
0.0
 10
15.3286663902
 20
11.9750222724
 30
0.0
  0
SPLINE
  5
375
100
AcDbEntity
  8
02___PRT_ALL_AXES
100
AcDbSpline
 62
7
  6
CONTINUOUS
 70
0
 71
3
 72
15
 73
11
 74
0
 42
0.0000001
 43
0.0000001
 44
0.0000000001
 40
0.0
 40
0.0
 40
0.0
 40
0.0
 40
0.1042389521
 40
0.2145210282
 40
0.3308713657
 40
0.4532426786
 40
0.5815258567
 40
0.7155586475
 40
0.8551327866
 40
1.0
 40
1.0
 40
1.0
 40
1.0
 10
15.5762925767
 20
11.403617953
 30
0.0
 10
15.5844761884
 20
11.4139637679
 30
0.0
 10
15.6005794385
 20
11.4358466481
 30
0.0
 10
15.623329695
 20
11.4710228183
 30
0.0
 10
15.6452869209
 20
11.5093663196
 30
0.0
 10
15.6663844281
 20
11.5507599131
 30
0.0
 10
15.6865595574
 20
11.5950795655
 30
0.0
 10
15.705751379
 20
11.6421914378
 30
0.0
 10
15.7239015592
 20
11.6919522933
 30
0.0
 10
15.7350705149
 20
11.7261791236
 30
0.0
 10
15.740483165
 20
11.7436944657
 30
0.0
  0
SPLINE
  5
376
100
AcDbEntity
  8
0
100
AcDbSpline
 62
7
  6
CONTINUOUS
 70
0
 71
3
 72
11
 73
7
 74
0
 42
0.0000001
 43
0.0000001
 44
0.0000000001
 40
0.0
 40
0.0
 40
0.0
 40
0.0
 40
0.2620207921
 40
0.5230434174
 40
0.7723244571
 40
1.0
 40
1.0
 40
1.0
 40
1.0
 10
15.13055441
 20
13.2799154157
 30
0.0
 10
15.1306228201
 20
13.2807757768
 30
0.0
 10
15.1306825859
 20
13.2825001277
 30
0.0
 10
15.1305547806
 20
13.2850439891
 30
0.0
 10
15.1302171916
 20
13.2874545088
 30
0.0
 10
15.129842318
 20
13.2889844812
 30
0.0
 10
15.1296149974
 20
13.289699145
 30
0.0
  0
SPLINE
  5
377
100
AcDbEntity
  8
0
100
AcDbSpline
 62
7
  6
CONTINUOUS
 70
0
 71
3
 72
11
 73
7
 74
0
 42
0.0000001
 43
0.0000001
 44
0.0000000001
 40
0.0
 40
0.0
 40
0.0
 40
0.0
 40
0.2440032518
 40
0.5066856411
 40
0.7658932965
 40
1.0
 40
1.0
 40
1.0
 40
1.0
 10
15.1277868481
 20
13.2990861643
 30
0.0
 10
15.1277070678
 20
13.2987779538
 30
0.0
 10
15.1275965322
 20
13.2981233518
 30
0.0
 10
15.1275552885
 20
13.2971226344
 30
0.0
 10
15.127632965
 20
13.2961370772
 30
0.0
 10
15.1277684124
 20
13.2955045465
 30
0.0
 10
15.127861001
 20
13.2952134611
 30
0.0
  0
SPLINE
  5
378
100
AcDbEntity
  8
LAYER_CUT_FEAT
100
AcDbSpline
 62
7
  6
CONTINUOUS
 70
0
 71
3
 72
9
 73
5
 74
0
 42
0.0000001
 43
0.0000001
 44
0.0000000001
 40
0.0
 40
0.0
 40
0.0
 40
0.0
 40
0.4899392221
 40
1.0
 40
1.0
 40
1.0
 40
1.0
 10
15.6122816653
 20
11.3251869214
 30
0.0
 10
15.6133490456
 20
11.3251869107
 30
0.0
 10
15.6155341456
 20
11.3254368017
 30
0.0
 10
15.6176096257
 20
11.3261530947
 30
0.0
 10
15.6186218875
 20
11.3266114933
 30
0.0
  0
SPLINE
  5
379
100
AcDbEntity
  8
LAYER_CUT_FEAT
100
AcDbSpline
 62
7
  6
CONTINUOUS
 70
0
 71
3
 72
23
 73
19
 74
0
 42
0.0000001
 43
0.0000001
 44
0.0000000001
 40
0.0
 40
0.0
 40
0.0
 40
0.0
 40
0.0414028349
 40
0.0849818929
 40
0.1310617582
 40
0.1798904311
 40
0.2316476417
 40
0.2864534794
 40
0.3443769295
 40
0.4054433824
 40
0.4696410674
 40
0.5369264358
 40
0.607228534
 40
0.6804526303
 40
0.7564832881
 40
0.8351869208
 40
0.9164135225
 40
1.0
 40
1.0
 40
1.0
 40
1.0
 10
15.6186218875
 20
11.3266114933
 30
0.0
 10
15.6270508832
 20
11.3304285289
 30
0.0
 10
15.6438912123
 20
11.3393131203
 30
0.0
 10
15.6682270233
 20
11.3556975566
 30
0.0
 10
15.6921605702
 20
11.3753894459
 30
0.0
 10
15.7156261475
 20
11.3983254243
 30
0.0
 10
15.7385651625
 20
11.4244386952
 30
0.0
 10
15.7609170829
 20
11.4536545491
 30
0.0
 10
15.7826221147
 20
11.4858906069
 30
0.0
 10
15.8036209307
 20
11.5210561112
 30
0.0
 10
15.8238553323
 20
11.5590519513
 30
0.0
 10
15.8432685794
 20
11.5997707727
 30
0.0
 10
15.8618058146
 20
11.643097196
 30
0.0
 10
15.8794143784
 20
11.688908145
 30
0.0
 10
15.8960440216
 20
11.7370731913
 30
0.0
 10
15.9116471541
 20
11.7874550613
 30
0.0
 10
15.9261790095
 20
11.8399094779
 30
0.0
 10
15.9350050979
 20
11.8756755685
 30
0.0
 10
15.9392401858
 20
11.893869633
 30
0.0
  0
SPLINE
  5
37A
100
AcDbEntity
  8
LAYER_CUT_FEAT
100
AcDbSpline
 62
7
  6
CONTINUOUS
 70
0
 71
3
 72
23
 73
19
 74
0
 42
0.0000001
 43
0.0000001
 44
0.0000000001
 40
0.0
 40
0.0
 40
0.0
 40
0.0
 40
0.0668773006
 40
0.1366583209
 40
0.2086092806
 40
0.2819508208
 40
0.3558769737
 40
0.4295705897
 40
0.5022189342
 40
0.5730294878
 40
0.6412460425
 40
0.7061662969
 40
0.767160956
 40
0.8236971939
 40
0.87536774
 40
0.9219321167
 40
0.9633756478
 40
1.0
 40
1.0
 40
1.0
 40
1.0
 10
15.9392401858
 20
11.893869633
 30
0.0
 10
15.93997184
 20
11.8970128416
 30
0.0
 10
15.9412794426
 20
11.903480466
 30
0.0
 10
15.9427630493
 20
11.9134411117
 30
0.0
 10
15.9437977115
 20
11.9237719062
 30
0.0
 10
15.9443697298
 20
11.9343386325
 30
0.0
 10
15.9444715356
 20
11.9450043838
 30
0.0
 10
15.944101817
 20
11.9556307652
 30
0.0
 10
15.9432654186
 20
11.9660799612
 30
0.0
 10
15.9419734175
 20
11.9762165561
 30
0.0
 10
15.9402428097
 20
11.9859094026
 30
0.0
 10
15.9380963931
 20
11.9950334811
 30
0.0
 10
15.935562247
 20
12.0034716721
 30
0.0
 10
15.9326731323
 20
12.0111166972
 30
0.0
 10
15.9294659071
 20
12.0178724811
 30
0.0
 10
15.9259781943
 20
12.0236569401
 30
0.0
 10
15.9222512404
 20
12.0283988805
 30
0.0
 10
15.9194673617
 20
12.0309739444
 30
0.0
 10
15.9180486189
 20
12.0320278389
 30
0.0
  0
SPLINE
  5
37B
100
AcDbEntity
  8
0
100
AcDbSpline
 62
7
  6
CONTINUOUS
 70
0
 71
3
 72
11
 73
7
 74
0
 42
0.0000001
 43
0.0000001
 44
0.0000000001
 40
0.0
 40
0.0
 40
0.0
 40
0.0
 40
0.259973408
 40
0.520328774
 40
0.7703273313
 40
1.0
 40
1.0
 40
1.0
 40
1.0
 10
15.139130134
 20
13.311850559
 30
0.0
 10
15.1392081221
 20
13.312707945
 30
0.0
 10
15.139286509
 20
13.3144318335
 30
0.0
 10
15.1391859618
 20
13.3169839158
 30
0.0
 10
15.138874196
 20
13.3194178432
 30
0.0
 10
15.1385166802
 20
13.3209696463
 30
0.0
 10
15.1382979461
 20
13.321698097
 30
0.0
  0
SPLINE
  5
37C
100
AcDbEntity
  8
0
100
AcDbSpline
 62
7
  6
CONTINUOUS
 70
0
 71
3
 72
11
 73
7
 74
0
 42
0.0000001
 43
0.0000001
 44
0.0000000001
 40
0.0
 40
0.0
 40
0.0
 40
0.0
 40
0.2411694046
 40
0.5028678386
 40
0.7630758408
 40
1.0
 40
1.0
 40
1.0
 40
1.0
 10
15.1365730385
 20
13.3312130886
 30
0.0
 10
15.1364895621
 20
13.3309094313
 30
0.0
 10
15.1363718582
 20
13.3302604953
 30
0.0
 10
15.1363201529
 20
13.3292631641
 30
0.0
 10
15.136387496
 20
13.3282723403
 30
0.0
 10
15.136515892
 20
13.3276328772
 30
0.0
 10
15.1366048656
 20
13.3273365683
 30
0.0
  0
SPLINE
  5
37D
100
AcDbEntity
  8
0
100
AcDbSpline
 62
7
  6
CONTINUOUS
 70
0
 71
3
 72
11
 73
7
 74
0
 42
0.0000001
 43
0.0000001
 44
0.0000000001
 40
0.0
 40
0.0
 40
0.0
 40
0.0
 40
0.2579405068
 40
0.5176291246
 40
0.7683374645
 40
1.0
 40
1.0
 40
1.0
 40
1.0
 10
15.1480512714
 20
13.3431555086
 30
0.0
 10
15.1481388282
 20
13.344009233
 30
0.0
 10
15.1482358688
 20
13.3457313138
 30
0.0
 10
15.1481626619
 20
13.3482896487
 30
0.0
 10
15.1478769755
 20
13.3507451209
 30
0.0
 10
15.1475369995
 20
13.352317505
 30
0.0
 10
15.147326963
 20
13.3530591077
 30
0.0
  0
SPLINE
  5
37E
100
AcDbEntity
  8
0
100
AcDbSpline
 62
7
  6
CONTINUOUS
 70
0
 71
3
 72
11
 73
7
 74
0
 42
0.0000001
 43
0.0000001
 44
0.0000000001
 40
0.0
 40
0.0
 40
0.0
 40
0.0
 40
0.2383433696
 40
0.4990518551
 40
0.7602530921
 40
1.0
 40
1.0
 40
1.0
 40
1.0
 10
15.145706654
 20
13.3626945858
 30
0.0
 10
15.1456195122
 20
13.3623957502
 30
0.0
 10
15.1454946827
 20
13.3617529894
 30
0.0
 10
15.1454325603
 20
13.3607597988
 30
0.0
 10
15.1454895121
 20
13.3597644564
 30
0.0
 10
15.1456108061
 20
13.3591185634
 30
0.0
 10
15.1456961303
 20
13.3588172982
 30
0.0
  0
SPLINE
  5
37F
100
AcDbEntity
  8
0
100
AcDbSpline
 62
7
  6
CONTINUOUS
 70
0
 71
3
 72
11
 73
7
 74
0
 42
0.0000001
 43
0.0000001
 44
0.0000000001
 40
0.0
 40
0.0
 40
0.0
 40
0.0
 40
0.255920521
 40
0.5149425828
 40
0.766353714
 40
1.0
 40
1.0
 40
1.0
 40
1.0
 10
15.1573108036
 20
13.3738056354
 30
0.0
 10
15.1574079124
 20
13.3746550127
 30
0.0
 10
15.1575236244
 20
13.3763739391
 30
0.0
 10
15.1574778178
 20
13.3789365526
 30
0.0
 10
15.1572184456
 20
13.3814116871
 30
0.0
 10
15.1568961789
 20
13.3830033891
 30
0.0
 10
15.1566949446
 20
13.383757504
 30
0.0
  0
SPLINE
  5
380
100
AcDbEntity
  8
0
100
AcDbSpline
 62
7
  6
CONTINUOUS
 70
0
 71
3
 72
11
 73
7
 74
0
 42
0.0000001
 43
0.0000001
 44
0.0000000001
 40
0.0
 40
0.0
 40
0.0
 40
0.0
 40
0.2355234545
 40
0.4952352699
 40
0.7574233899
 40
1.0
 40
1.0
 40
1.0
 40
1.0
 10
15.155180509
 20
13.3935058878
 30
0.0
 10
15.1550897345
 20
13.3932121415
 30
0.0
 10
15.1549578277
 20
13.3925760609
 30
0.0
 10
15.1548853415
 20
13.3915877611
 30
0.0
 10
15.154931853
 20
13.3905886527
 30
0.0
 10
15.1550459995
 20
13.389936837
 30
0.0
 10
15.1551276428
 20
13.3896308834
 30
0.0
  0
SPLINE
  5
381
100
AcDbEntity
  8
LAYER_CUT_FEAT
100
AcDbSpline
 62
7
  6
CONTINUOUS
 70
0
 71
3
 72
24
 73
20
 74
0
 42
0.0000001
 43
0.0000001
 44
0.0000000001
 40
0.0
 40
0.0
 40
0.0
 40
0.0
 40
0.016607917
 40
0.0334461394
 40
0.0507336433
 40
0.0686686253
 40
0.1070941074
 40
0.1498068243
 40
0.1974116658
 40
0.2501786798
 40
0.3081274447
 40
0.3710905263
 40
0.4387584297
 40
0.5107116042
 40
0.5864436018
 40
0.6653791195
 40
0.7468891273
 40
0.8303038595
 40
1.0
 40
1.0
 40
1.0
 40
1.0
 10
15.4411358829
 20
11.3361872487
 30
0.0
 10
15.441746636
 20
11.3361872443
 30
0.0
 10
15.4429780466
 20
11.3362670226
 30
0.0
 10
15.4448139113
 20
11.3366245045
 30
0.0
 10
15.4466388355
 20
11.3372184603
 30
0.0
 10
15.449106107
 20
11.3383478737
 30
0.0
 10
15.452152626
 20
11.340391732
 30
0.0
 10
15.4555876443
 20
11.343675049
 30
0.0
 10
15.4588665707
 20
11.347807676
 30
0.0
 10
15.461962909
 20
11.3527495956
 30
0.0
 10
15.4648506467
 20
11.358454758
 30
0.0
 10
15.4675027054
 20
11.3648688154
 30
0.0
 10
15.4698934257
 20
11.3719297009
 30
0.0
 10
15.4719990799
 20
11.3795682302
 30
0.0
 10
15.4737985767
 20
11.3877089952
 30
0.0
 10
15.4752737642
 20
11.3962711256
 30
0.0
 10
15.4764098513
 20
11.4051696993
 30
0.0
 10
15.4774624754
 20
11.4174325516
 30
0.0
 10
15.4777036647
 20
11.4267502307
 30
0.0
 10
15.4776244887
 20
11.4329902732
 30
0.0
  0
SPLINE
  5
382
100
AcDbEntity
  8
0
100
AcDbSpline
 62
7
  6
CONTINUOUS
 70
0
 71
3
 72
48
 73
44
 74
0
 42
0.0000001
 43
0.0000001
 44
0.0000000001
 40
0.0
 40
0.0
 40
0.0
 40
0.0
 40
0.0348476175
 40
0.0707656255
 40
0.1076288705
 40
0.1453051232
 40
0.1836563883
 40
0.2225400076
 40
0.2618097246
 40
0.301316712
 40
0.3409105775
 40
0.3804403604
 40
0.4197555195
 40
0.4587069259
 40
0.4971478697
 40
0.5349350833
 40
0.571929798
 40
0.6079988577
 40
0.643015891
 40
0.6768625817
 40
0.7094300835
 40
0.7406206243
 40
0.7703493645
 40
0.7985466305
 40
0.8120553264
 40
0.8251634471
 40
0.8378679019
 40
0.8501671998
 40
0.8620616114
 40
0.8735533517
 40
0.8846467862
 40
0.8953486578
 40
0.9056683354
 40
0.9156180828
 40
0.9252133383
 40
0.9344729957
 40
0.9520702768
 40
0.9604746622
 40
0.9686578854
 40
0.9766585298
 40
0.9845187135
 40
0.9922834854
 40
1.0
 40
1.0
 40
1.0
 40
1.0
 10
15.1207942689
 20
13.2720721576
 30
0.0
 10
15.1140572585
 20
13.2453796235
 30
0.0
 10
15.1013340879
 20
13.1909289258
 30
0.0
 10
15.0846929121
 20
13.107532973
 30
0.0
 10
15.0702594561
 20
13.0214600046
 30
0.0
 10
15.0580991448
 20
12.9330969359
 30
0.0
 10
15.0482667657
 20
12.8428394856
 30
0.0
 10
15.0408067142
 20
12.7510925098
 30
0.0
 10
15.035752664
 20
12.6582675267
 30
0.0
 10
15.0331274456
 20
12.5647810099
 30
0.0
 10
15.0329429016
 20
12.4710524397
 30
0.0
 10
15.0351998622
 20
12.3775024023
 30
0.0
 10
15.0398881455
 20
12.2845506695
 30
0.0
 10
15.046986586
 20
12.1926142857
 30
0.0
 10
15.0564631279
 20
12.102105662
 30
0.0
 10
15.0682749981
 20
12.0134306919
 30
0.0
 10
15.0823689049
 20
11.9269868877
 30
0.0
 10
15.0986812646
 20
11.8431615342
 30
0.0
 10
15.1171385363
 20
11.7623299099
 30
0.0
 10
15.1376576196
 20
11.6848534608
 30
0.0
 10
15.1601462294
 20
11.6110783143
 30
0.0
 10
15.1845036121
 20
11.5413327585
 30
0.0
 10
15.2106205516
 20
11.475928593
 30
0.0
 10
15.2340788479
 20
11.4245713133
 30
0.0
 10
15.2536838803
 20
11.3859547953
 30
0.0
 10
15.2685421609
 20
11.3586695956
 30
0.0
 10
15.2837482635
 20
11.3326775099
 30
0.0
 10
15.2992855195
 20
11.3080074424
 30
0.0
 10
15.3151366854
 20
11.2846869425
 30
0.0
 10
15.3312843008
 20
11.262742019
 30
0.0
 10
15.3477106538
 20
11.2421971514
 30
0.0
 10
15.364397759
 20
11.2230753241
 30
0.0
 10
15.3813276637
 20
11.2053978645
 30
0.0
 10
15.3984814761
 20
11.1891850681
 30
0.0
 10
15.4158428949
 20
11.1744540788
 30
0.0
 10
15.4388443045
 20
11.1571107046
 30
0.0
 10
15.4626033545
 20
11.1423819304
 30
0.0
 10
15.4869657919
 20
11.1306819012
 30
0.0
 10
15.5050718487
 20
11.1235930132
 30
0.0
 10
15.5232664923
 20
11.1180685725
 30
0.0
 10
15.541529706
 20
11.1141162193
 30
0.0
 10
15.5598373303
 20
11.1117422532
 30
0.0
 10
15.5720740106
 20
11.1112138746
 30
0.0
 10
15.5781700524
 20
11.1112138689
 30
0.0
  0
SPLINE
  5
383
100
AcDbEntity
  8
LAYER_CUT_FEAT
100
AcDbSpline
 62
7
  6
CONTINUOUS
 70
0
 71
3
 72
18
 73
14
 74
0
 42
0.0000001
 43
0.0000001
 44
0.0000000001
 40
0.0
 40
0.0
 40
0.0
 40
0.0
 40
0.1506752101
 40
0.2982413235
 40
0.4402699737
 40
0.5745024172
 40
0.698937741
 40
0.7569678967
 40
0.8119730724
 40
0.8638298163
 40
0.9124587929
 40
0.9578355267
 40
1.0
 40
1.0
 40
1.0
 40
1.0
 10
15.4715408606
 20
11.9124550632
 30
0.0
 10
15.4714853226
 20
11.9168321381
 30
0.0
 10
15.4711396337
 20
11.9254949676
 30
0.0
 10
15.4699163745
 20
11.938233744
 30
0.0
 10
15.4680155454
 20
11.950407355
 30
0.0
 10
15.4654752434
 20
11.9617766712
 30
0.0
 10
15.4628092047
 20
11.9705945217
 30
0.0
 10
15.4603710652
 20
11.9770507776
 30
0.0
 10
15.4584601778
 20
11.981445985
 30
0.0
 10
15.4564339369
 20
11.985486188
 30
0.0
 10
15.4543018377
 20
11.9891520196
 30
0.0
 10
15.4520742277
 20
11.9924254513
 30
0.0
 10
15.4504742093
 20
11.9944074601
 30
0.0
 10
15.4496587857
 20
11.9953215851
 30
0.0
  0
SPLINE
  5
384
100
AcDbEntity
  8
LAYER_CUT_FEAT
100
AcDbSpline
 62
7
  6
CONTINUOUS
 70
0
 71
3
 72
15
 73
11
 74
0
 42
0.0000001
 43
0.0000001
 44
0.0000000001
 40
0.0
 40
0.0
 40
0.0
 40
0.0
 40
0.1473623654
 40
0.2887598035
 40
0.4239019043
 40
0.5525509026
 40
0.6745347637
 40
0.7897573554
 40
0.8982117286
 40
1.0
 40
1.0
 40
1.0
 40
1.0
 10
15.366385378
 20
12.1590149522
 30
0.0
 10
15.3690923271
 20
12.1503434172
 30
0.0
 10
15.3746901008
 20
12.1334408707
 30
0.0
 10
15.3838442342
 20
12.1089580763
 30
0.0
 10
15.3935562253
 20
12.0859369352
 30
0.0
 10
15.4037910346
 20
12.0644606934
 30
0.0
 10
15.4145119531
 20
12.0446064978
 30
0.0
 10
15.4256814517
 20
12.0264449555
 30
0.0
 10
15.4372594124
 20
12.0100421392
 30
0.0
 10
15.4454818443
 20
12.0000041162
 30
0.0
 10
15.4496587857
 20
11.9953215851
 30
0.0
  0
SPLINE
  5
385
100
AcDbEntity
  8
LAYER_CUT_FEAT
100
AcDbSpline
 62
7
  6
CONTINUOUS
 70
0
 71
3
 72
18
 73
14
 74
0
 42
0.0000001
 43
0.0000001
 44
0.0000000001
 40
0.0
 40
0.0
 40
0.0
 40
0.0
 40
0.1725793412
 40
0.3314582642
 40
0.4757500614
 40
0.6051164356
 40
0.7199769452
 40
0.7724357766
 40
0.8219334814
 40
0.868878488
 40
0.9137834483
 40
0.9572600752
 40
1.0
 40
1.0
 40
1.0
 40
1.0
 10
15.366385378
 20
12.1590149522
 30
0.0
 10
15.3655645693
 20
12.1616443595
 30
0.0
 10
15.3638299418
 20
12.16664759
 30
0.0
 10
15.3608082803
 20
12.1736226755
 30
0.0
 10
15.3575025711
 20
12.1796967335
 30
0.0
 10
15.3539509969
 20
12.184797309
 30
0.0
 10
15.3507200698
 20
12.1882899649
 30
0.0
 10
15.3480415123
 20
12.1904888661
 30
0.0
 10
15.3460585121
 20
12.1918070725
 30
0.0
 10
15.3440465516
 20
12.1928393095
 30
0.0
 10
15.342011323
 20
12.1935808959
 30
0.0
 10
15.3399602076
 20
12.1940278031
 30
0.0
 10
15.338582119
 20
12.1941276302
 30
0.0
 10
15.3378999459
 20
12.1941276327
 30
0.0
  0
SPLINE
  5
386
100
AcDbEntity
  8
LAYER_CUT_FEAT
100
AcDbSpline
 62
7
  6
CONTINUOUS
 70
0
 71
3
 72
22
 73
18
 74
0
 42
0.0000001
 43
0.0000001
 44
0.0000000001
 40
0.0
 40
0.0
 40
0.0
 40
0.0
 40
0.0348424532
 40
0.0711846967
 40
0.1103110817
 40
0.1531787526
 40
0.2004149564
 40
0.2523685251
 40
0.3091702912
 40
0.3707838602
 40
0.4370436663
 40
0.5076826693
 40
0.582352728
 40
0.6606400704
 40
0.7420775445
 40
0.8261555086
 40
1.0
 40
1.0
 40
1.0
 40
1.0
 10
15.9648647615
 20
12.262801456
 30
0.0
 10
15.9659590036
 20
12.2628014658
 30
0.0
 10
15.9682023081
 20
12.2630648805
 30
0.0
 10
15.971490905
 20
12.2642294441
 30
0.0
 10
15.9747029699
 20
12.2661389015
 30
0.0
 10
15.9778163677
 20
12.2687655124
 30
0.0
 10
15.9808150327
 20
12.2720837809
 30
0.0
 10
15.9836809313
 20
12.276067231
 30
0.0
 10
15.9863949544
 20
12.2806856756
 30
0.0
 10
15.9889374047
 20
12.2859040586
 30
0.0
 10
15.9912889681
 20
12.291682263
 30
0.0
 10
15.9934312919
 20
12.2979753436
 30
0.0
 10
15.9953474184
 20
12.3047339481
 30
0.0
 10
15.9970220269
 20
12.3119046987
 30
0.0
 10
15.9984418033
 20
12.3194310094
 30
0.0
 10
15.9999965797
 20
12.3299767254
 30
0.0
 10
16.0007192187
 20
12.3380542252
 30
0.0
 10
16.0010175341
 20
12.3435057297
 30
0.0
  0
SPLINE
  5
387
100
AcDbEntity
  8
02___PRT_ALL_AXES
100
AcDbSpline
 62
7
  6
CONTINUOUS
 70
0
 71
3
 72
9
 73
5
 74
0
 42
0.0000001
 43
0.0000001
 44
0.0000000001
 40
0.0
 40
0.0
 40
0.0
 40
0.0
 40
0.5121983789
 40
1.0
 40
1.0
 40
1.0
 40
1.0
 10
15.2044569558
 20
12.8507818192
 30
0.0
 10
15.2075105671
 20
12.8606633091
 30
0.0
 10
15.2138586073
 20
12.8798390176
 30
0.0
 10
15.2210595196
 20
12.8987131738
 30
0.0
 10
15.2248039762
 20
12.907823607
 30
0.0
  0
SPLINE
  5
388
100
AcDbEntity
  8
02___PRT_ALL_AXES
100
AcDbSpline
 62
7
  6
CONTINUOUS
 70
0
 71
3
 72
34
 73
30
 74
0
 42
0.0000001
 43
0.0000001
 44
0.0000000001
 40
0.0
 40
0.0
 40
0.0
 40
0.0
 40
0.0939280823
 40
0.1826384917
 40
0.2658188949
 40
0.3052695279
 40
0.3432659262
 40
0.379799942
 40
0.4148727319
 40
0.448495942
 40
0.4806930668
 40
0.5115009871
 40
0.5409716685
 40
0.5691739673
 40
0.5961954351
 40
0.6471031304
 40
0.6713153218
 40
0.6949066293
 40
0.7180668845
 40
0.7409995461
 40
0.7639156569
 40
0.7870268222
 40
0.8105381131
 40
0.8346418208
 40
0.8595127342
 40
0.885305214
 40
0.9121519565
 40
0.9401641034
 40
1.0
 40
1.0
 40
1.0
 40
1.0
 10
15.4874373658
 20
12.8458866407
 30
0.0
 10
15.4908914998
 20
12.8570642223
 30
0.0
 10
15.4981073185
 20
12.8786494836
 30
0.0
 10
15.5102369104
 20
12.9094729799
 30
0.0
 10
15.5213110477
 20
12.9333755561
 30
0.0
 10
15.5306492461
 20
12.9510735149
 30
0.0
 10
15.5377305641
 20
12.9633821645
 30
0.0
 10
15.5450014844
 20
12.9749407783
 30
0.0
 10
15.552450363
 20
12.9857304206
 30
0.0
 10
15.5600651654
 20
12.9957333603
 30
0.0
 10
15.5678336882
 20
13.0049331297
 30
0.0
 10
15.5757437775
 20
13.0133146063
 30
0.0
 10
15.583782519
 20
13.020863584
 30
0.0
 10
15.5919392254
 20
13.0275681266
 30
0.0
 10
15.6027334934
 20
13.0352109595
 30
0.0
 10
15.6139575262
 20
13.0413542188
 30
0.0
 10
15.6254700246
 20
13.0457144514
 30
0.0
 10
15.6340131346
 20
13.0480387623
 30
0.0
 10
15.6425901337
 20
13.0494638697
 30
0.0
 10
15.6511853673
 20
13.0499863618
 30
0.0
 10
15.6597818847
 20
13.0496046627
 30
0.0
 10
15.6683628911
 20
13.048319876
 30
0.0
 10
15.6769120126
 20
13.0461354789
 30
0.0
 10
15.6854136959
 20
13.0430570196
 30
0.0
 10
15.6938533437
 20
13.0390916378
 30
0.0
 10
15.7022169928
 20
13.0342478444
 30
0.0
 10
15.7104919524
 20
13.0285347978
 30
0.0
 10
15.7216322611
 20
13.0195768968
 30
0.0
 10
15.7294414405
 20
13.0118597266
 30
0.0
 10
15.7344565511
 20
13.0063467512
 30
0.0
  0
SPLINE
  5
389
100
AcDbEntity
  8
02___PRT_ALL_AXES
100
AcDbSpline
 62
7
  6
CONTINUOUS
 70
0
 71
3
 72
23
 73
19
 74
0
 42
0.0000001
 43
0.0000001
 44
0.0000000001
 40
0.0
 40
0.0
 40
0.0
 40
0.0
 40
0.0879810063
 40
0.1726890117
 40
0.2539692599
 40
0.3316918258
 40
0.4057566634
 40
0.4760979713
 40
0.5426900136
 40
0.6055540524
 40
0.6647669256
 40
0.7204712233
 40
0.7728868071
 40
0.8223230155
 40
0.8691891873
 40
0.914000138
 40
0.95737146
 40
1.0
 40
1.0
 40
1.0
 40
1.0
 10
15.4777818058
 20
12.8507818192
 30
0.0
 10
15.4802200743
 20
12.8586720589
 30
0.0
 10
15.4852537543
 20
12.8740840199
 30
0.0
 10
15.493443985
 20
12.8964772544
 30
0.0
 10
15.5021105966
 20
12.9176545446
 30
0.0
 10
15.51122637
 20
12.9375493457
 30
0.0
 10
15.520762907
 20
12.9560996402
 30
0.0
 10
15.5306907527
 20
12.9732476996
 30
0.0
 10
15.5409795719
 20
12.9889403629
 30
0.0
 10
15.5515984495
 20
13.0031290635
 30
0.0
 10
15.5625161449
 20
13.0157698092
 30
0.0
 10
15.5737013537
 20
13.0268229785
 30
0.0
 10
15.5851228487
 20
13.0362528133
 30
0.0
 10
15.5967493201
 20
13.0440267691
 30
0.0
 10
15.6085480791
 20
13.0501147261
 30
0.0
 10
15.6204848387
 20
13.0544888468
 30
0.0
 10
15.6325160325
 20
13.0571249577
 30
0.0
 10
15.6406002222
 20
13.0577138687
 30
0.0
 10
15.6446015766
 20
13.0577138648
 30
0.0
  0
SPLINE
  5
38A
100
AcDbEntity
  8
LAYER_CUT_FEAT
100
AcDbSpline
 62
7
  6
CONTINUOUS
 70
0
 71
3
 72
15
 73
11
 74
0
 42
0.0000001
 43
0.0000001
 44
0.0000000001
 40
0.0
 40
0.0
 40
0.0
 40
0.0
 40
0.1626405435
 40
0.3157586388
 40
0.4583424803
 40
0.5896215905
 40
0.7091485631
 40
0.8168979126
 40
0.9134123141
 40
1.0
 40
1.0
 40
1.0
 40
1.0
 10
15.2579104297
 20
13.3296839099
 30
0.0
 10
15.2572826288
 20
13.3323389582
 30
0.0
 10
15.2559348035
 20
13.3374645014
 30
0.0
 10
15.2535568789
 20
13.3447809263
 30
0.0
 10
15.2509029465
 20
13.3514399109
 30
0.0
 10
15.2479997231
 20
13.3573743007
 30
0.0
 10
15.2448757542
 20
13.3625253654
 30
0.0
 10
15.2415582081
 20
13.366843504
 30
0.0
 10
15.238076105
 20
13.3702851615
 30
0.0
 10
15.2355367784
 20
13.3720531223
 30
0.0
 10
15.2342604539
 20
13.3727464662
 30
0.0
  0
SPLINE
  5
38B
100
AcDbEntity
  8
02___PRT_ALL_AXES
100
AcDbSpline
 62
7
  6
CONTINUOUS
 70
0
 71
3
 72
19
 73
15
 74
0
 42
0.0000001
 43
0.0000001
 44
0.0000000001
 40
0.0
 40
0.0
 40
0.0
 40
0.0
 40
0.0351164183
 40
0.0716900288
 40
0.1109755286
 40
0.1539174205
 40
0.201144082
 40
0.2530144343
 40
0.3096747657
 40
0.3711073104
 40
0.5075499911
 40
0.6601739548
 40
0.8256611225
 40
1.0
 40
1.0
 40
1.0
 40
1.0
 10
15.6673336805
 20
12.1803421834
 30
0.0
 10
15.6676914823
 20
12.1803421785
 30
0.0
 10
15.668424372
 20
12.180426554
 30
0.0
 10
15.6694998549
 20
12.1807998585
 30
0.0
 10
15.6705513825
 20
12.1814124576
 30
0.0
 10
15.6715718153
 20
12.1822557258
 30
0.0
 10
15.6725560032
 20
12.1833216787
 30
0.0
 10
15.6734982116
 20
12.1846020584
 30
0.0
 10
15.6743925141
 20
12.1860874714
 30
0.0
 10
15.6755531788
 20
12.1884091087
 30
0.0
 10
15.6768170201
 20
12.1917592853
 30
0.0
 10
15.6780041766
 20
12.1962421517
 30
0.0
 10
15.6788740845
 20
12.2011890296
 30
0.0
 10
15.6792184702
 20
12.2046378036
 30
0.0
 10
15.6793345352
 20
12.2064103494
 30
0.0
  0
SPLINE
  5
38C
100
AcDbEntity
  8
02___PRT_ALL_AXES
100
AcDbSpline
 62
7
  6
CONTINUOUS
 70
0
 71
3
 72
22
 73
18
 74
0
 42
0.0000001
 43
0.0000001
 44
0.0000000001
 40
0.0
 40
0.0
 40
0.0
 40
0.0
 40
0.0155232574
 40
0.031407451
 40
0.0654539755
 40
0.104256276
 40
0.1489311716
 40
0.1998895986
 40
0.2570537693
 40
0.3200100821
 40
0.3881060307
 40
0.4605138609
 40
0.5362774015
 40
0.6935680816
 40
0.8511078622
 40
0.9271753259
 40
1.0
 40
1.0
 40
1.0
 40
1.0
 10
15.7372202372
 20
12.272044983
 30
0.0
 10
15.7374852616
 20
12.2720449784
 30
0.0
 10
15.7380225252
 20
12.2720905018
 30
0.0
 10
15.7391096932
 20
12.2723671508
 30
0.0
 10
15.7404686656
 20
12.2730849875
 30
0.0
 10
15.7419737812
 20
12.2744323271
 30
0.0
 10
15.7433869963
 20
12.27625285
 30
0.0
 10
15.74469223
 20
12.2785186812
 30
0.0
 10
15.7458723405
 20
12.2811953474
 30
0.0
 10
15.7469086118
 20
12.2842406098
 30
0.0
 10
15.7477839034
 20
12.2876049074
 30
0.0
 10
15.7484834856
 20
12.2912326523
 30
0.0
 10
15.7491739802
 20
12.2964042015
 30
0.0
 10
15.7495222798
 20
12.3030760202
 30
0.0
 10
15.7492102158
 20
12.3097548355
 30
0.0
 10
15.7485488589
 20
12.3149466699
 30
0.0
 10
15.7480836069
 20
12.3174476512
 30
0.0
 10
15.7478165578
 20
12.318661949
 30
0.0
  0
SPLINE
  5
38D
100
AcDbEntity
  8
LAYER_CUT_FEAT
100
AcDbSpline
 62
7
  6
CONTINUOUS
 70
0
 71
3
 72
28
 73
24
 74
0
 42
0.0000001
 43
0.0000001
 44
0.0000000001
 40
0.0
 40
0.0
 40
0.0
 40
0.0
 40
0.0154532572
 40
0.0312965517
 40
0.0478856831
 40
0.0655187223
 40
0.0844270628
 40
0.1047776068
 40
0.1266805625
 40
0.1501986615
 40
0.1753556409
 40
0.2021434534
 40
0.2604361366
 40
0.3245857221
 40
0.3938276593
 40
0.4672172776
 40
0.5436796949
 40
0.6220508958
 40
0.7011140318
 40
0.779633479
 40
0.8563882985
 40
0.9302058999
 40
1.0
 40
1.0
 40
1.0
 40
1.0
 10
15.397139384
 20
12.9613534147
 30
0.0
 10
15.3977751741
 20
12.9613534189
 30
0.0
 10
15.3990654904
 20
12.9614673963
 30
0.0
 10
15.4009777728
 20
12.9619759917
 30
0.0
 10
15.4028666591
 20
12.9628172682
 30
0.0
 10
15.4047227106
 20
12.9639840598
 30
0.0
 10
15.4065389162
 20
12.9654688245
 30
0.0
 10
15.4083084321
 20
12.967263737
 30
0.0
 10
15.4100244767
 20
12.9693603269
 30
0.0
 10
15.4116800759
 20
12.9717491269
 30
0.0
 10
15.4132683555
 20
12.9744194483
 30
0.0
 10
15.4153454796
 20
12.9784539433
 30
0.0
 10
15.4176990737
 20
12.9841365218
 30
0.0
 10
15.4200782706
 20
12.9916634525
 30
0.0
 10
15.422043675
 20
12.999947829
 30
0.0
 10
15.4235588345
 20
13.0088392954
 30
0.0
 10
15.424595472
 20
13.0181766197
 30
0.0
 10
15.4251341825
 20
13.0277892885
 30
0.0
 10
15.4251648288
 20
13.0375015255
 30
0.0
 10
15.4246868763
 20
13.0471355064
 30
0.0
 10
15.4237092389
 20
13.0565151749
 30
0.0
 10
15.4222503625
 20
13.0654686314
 30
0.0
 10
15.4209320044
 20
13.0712338344
 30
0.0
 10
15.4201878843
 20
13.0740072681
 30
0.0
  0
SPLINE
  5
38E
100
AcDbEntity
  8
LAYER_CUT_FEAT
100
AcDbSpline
 62
7
  6
CONTINUOUS
 70
0
 71
3
 72
18
 73
14
 74
0
 42
0.0000001
 43
0.0000001
 44
0.0000000001
 40
0.0
 40
0.0
 40
0.0
 40
0.0
 40
0.0406755628
 40
0.0845617189
 40
0.1317768656
 40
0.1823580571
 40
0.2362742281
 40
0.2934397562
 40
0.4169263265
 40
0.5513851262
 40
0.6949038608
 40
0.8452561514
 40
1.0
 40
1.0
 40
1.0
 40
1.0
 10
15.2953611673
 20
12.4865233329
 30
0.0
 10
15.2961983583
 20
12.4873001336
 30
0.0
 10
15.2978478353
 20
12.489014718
 30
0.0
 10
15.3001546996
 20
12.4919128985
 30
0.0
 10
15.3023754486
 20
12.4952180236
 30
0.0
 10
15.3044994972
 20
12.4989138027
 30
0.0
 10
15.3065171473
 20
12.5029826393
 30
0.0
 10
15.3091192657
 20
12.5090357577
 30
0.0
 10
15.312005814
 20
12.5174127971
 30
0.0
 10
15.3148243546
 20
12.528336468
 30
0.0
 10
15.3170253253
 20
12.5401685286
 30
0.0
 10
15.3185646816
 20
12.5526770202
 30
0.0
 10
15.3191242872
 20
12.5612303136
 30
0.0
 10
15.3192895842
 20
12.5655719697
 30
0.0
  0
SPLINE
  5
38F
100
AcDbEntity
  8
02___PRT_ALL_AXES
100
AcDbSpline
 62
7
  6
CONTINUOUS
 70
0
 71
3
 72
13
 73
9
 74
0
 42
0.0000001
 43
0.0000001
 44
0.0000000001
 40
0.0
 40
0.0
 40
0.0
 40
0.0
 40
0.1179510831
 40
0.2361284778
 40
0.3554989849
 40
0.4769944306
 40
0.7295325688
 40
1.0
 40
1.0
 40
1.0
 40
1.0
 10
15.6482571225
 20
12.8232022611
 30
0.0
 10
15.6498144283
 20
12.8233205395
 30
0.0
 10
15.6529459344
 20
12.8234039447
 30
0.0
 10
15.65764795
 20
12.8230622694
 30
0.0
 10
15.6623406787
 20
12.8222543983
 30
0.0
 10
15.6686530702
 20
12.8205372585
 30
0.0
 10
15.676540715
 20
12.8171610704
 30
0.0
 10
15.6824077562
 20
12.8134278876
 30
0.0
 10
15.6852949336
 20
12.8113090111
 30
0.0
  0
SPLINE
  5
390
100
AcDbEntity
  8
LAYER_CUT_FEAT
100
AcDbSpline
 62
7
  6
CONTINUOUS
 70
0
 71
3
 72
13
 73
9
 74
0
 42
0.0000001
 43
0.0000001
 44
0.0000000001
 40
0.0
 40
0.0
 40
0.0
 40
0.0
 40
0.1159659716
 40
0.2352235277
 40
0.3574389791
 40
0.4822586101
 40
0.7382050446
 40
1.0
 40
1.0
 40
1.0
 40
1.0
 10
15.3541819736
 20
12.8195303897
 30
0.0
 10
15.3517234088
 20
12.8099131502
 30
0.0
 10
15.347048703
 20
12.790324665
 30
0.0
 10
15.340833148
 20
12.7603623226
 30
0.0
 10
15.3353319069
 20
12.7294903631
 30
0.0
 10
15.3289237291
 20
12.6869109721
 30
0.0
 10
15.3228686996
 20
12.6322183278
 30
0.0
 10
15.3201421403
 20
12.5879650211
 30
0.0
 10
15.3192895842
 20
12.5655719697
 30
0.0
  0
SPLINE
  5
391
100
AcDbEntity
  8
02___PRT_ALL_AXES
100
AcDbSpline
 62
7
  6
CONTINUOUS
 70
0
 71
3
 72
27
 73
23
 74
0
 42
0.0000001
 43
0.0000001
 44
0.0000000001
 40
0.0
 40
0.0
 40
0.0
 40
0.0
 40
0.0208359353
 40
0.0428625221
 40
0.0660812811
 40
0.0904802897
 40
0.1160358273
 40
0.142714169
 40
0.1704728484
 40
0.1992617936
 40
0.2596910052
 40
0.3234891232
 40
0.3900623996
 40
0.4587616503
 40
0.5288975343
 40
0.5997545427
 40
0.6706042966
 40
0.7407185458
 40
0.8093821696
 40
0.8759064827
 40
0.9396432356
 40
1.0
 40
1.0
 40
1.0
 40
1.0
 10
15.7069475248
 20
12.7894808265
 30
0.0
 10
15.7089984028
 20
12.7868068738
 30
0.0
 10
15.7130322195
 20
12.7811624063
 30
0.0
 10
15.718728891
 20
12.7721135714
 30
0.0
 10
15.7242227182
 20
12.7622748378
 30
0.0
 10
15.7294971212
 20
12.7516760764
 30
0.0
 10
15.7345365254
 20
12.7403488065
 30
0.0
 10
15.7393257653
 20
12.7283270596
 30
0.0
 10
15.743850565
 20
12.7156468902
 30
0.0
 10
15.7496053966
 20
12.6976210959
 30
0.0
 10
15.7560023348
 20
12.6736975114
 30
0.0
 10
15.7623129521
 20
12.6434767685
 30
0.0
 10
15.7672998641
 20
12.6116558316
 30
0.0
 10
15.7709020543
 20
12.5786186221
 30
0.0
 10
15.7730753217
 20
12.5447630742
 30
0.0
 10
15.7737929953
 20
12.5104978866
 30
0.0
 10
15.7730462652
 20
12.4762368195
 30
0.0
 10
15.7708442906
 20
12.4423935649
 30
0.0
 10
15.7672141305
 20
12.409376714
 30
0.0
 10
15.7622001972
 20
12.3775837801
 30
0.0
 10
15.7558642986
 20
12.3473989017
 30
0.0
 10
15.7506532183
 20
12.3280024662
 30
0.0
 10
15.7478165578
 20
12.318661949
 30
0.0
  0
SPLINE
  5
392
100
AcDbEntity
  8
LAYER_CUT_FEAT
100
AcDbSpline
 62
7
  6
CONTINUOUS
 70
0
 71
3
 72
15
 73
11
 74
0
 42
0.0000001
 43
0.0000001
 44
0.0000000001
 40
0.0
 40
0.0
 40
0.0
 40
0.0
 40
0.1166771072
 40
0.2398859286
 40
0.3676580676
 40
0.4978851806
 40
0.6283867622
 40
0.7569743414
 40
0.881515377
 40
1.0
 40
1.0
 40
1.0
 40
1.0
 10
15.3541819736
 20
12.8195303897
 30
0.0
 10
15.3551545295
 20
12.8233347649
 30
0.0
 10
15.3568591375
 20
12.8312338063
 30
0.0
 10
15.358689462
 20
12.8434782467
 30
0.0
 10
15.3598390411
 20
12.8562631641
 30
0.0
 10
15.3602845461
 20
12.8693369353
 30
0.0
 10
15.3600170426
 20
12.8824429731
 30
0.0
 10
15.3590418789
 20
12.8953239867
 30
0.0
 10
15.3573788535
 20
12.9077263841
 30
0.0
 10
15.3557859568
 20
12.9157560869
 30
0.0
 10
15.3548683806
 20
12.9196366312
 30
0.0
  0
SPLINE
  5
393
100
AcDbEntity
  8
02___PRT_ALL_AXES
100
AcDbSpline
 62
7
  6
CONTINUOUS
 70
0
 71
3
 72
14
 73
10
 74
0
 42
0.0000001
 43
0.0000001
 44
0.0000000001
 40
0.0
 40
0.0
 40
0.0
 40
0.0
 40
0.1526756336
 40
0.2973720458
 40
0.4339709967
 40
0.5624608379
 40
0.6829626525
 40
0.7957548123
 40
1.0
 40
1.0
 40
1.0
 40
1.0
 10
15.7318240176
 20
12.2752852912
 30
0.0
 10
15.7300011515
 20
12.2712044059
 30
0.0
 10
15.7262724207
 20
12.2633335889
 30
0.0
 10
15.7202549284
 20
12.2521382471
 30
0.0
 10
15.7139814069
 20
12.2419043332
 30
0.0
 10
15.7074752789
 20
12.232670369
 30
0.0
 10
15.7007556638
 20
12.2244668699
 30
0.0
 10
15.6918474449
 20
12.2152568724
 30
0.0
 10
15.6844723947
 20
12.2094686104
 30
0.0
 10
15.6793345352
 20
12.2064103494
 30
0.0
  0
SPLINE
  5
394
100
AcDbEntity
  8
LAYER_CUT_FEAT
100
AcDbSpline
 62
7
  6
CONTINUOUS
 70
0
 71
3
 72
23
 73
19
 74
0
 42
0.0000001
 43
0.0000001
 44
0.0000000001
 40
0.0
 40
0.0
 40
0.0
 40
0.0
 40
0.059077509
 40
0.1219053934
 40
0.1878731155
 40
0.2562990966
 40
0.3264514502
 40
0.3975640987
 40
0.4688525084
 40
0.5395287844
 40
0.6088167171
 40
0.6759672477
 40
0.7402743927
 40
0.8010930842
 40
0.857859053
 40
0.9101140979
 40
0.9575384965
 40
1.0
 40
1.0
 40
1.0
 40
1.0
 10
15.7542289824
 20
13.4462098152
 30
0.0
 10
15.7551687922
 20
13.4490122691
 30
0.0
 10
15.7569013947
 20
13.454865673
 30
0.0
 10
15.7590228931
 20
13.464027823
 30
0.0
 10
15.760727124
 20
13.473751749
 30
0.0
 10
15.7619915352
 20
13.4839113832
 30
0.0
 10
15.7627994604
 20
13.494375434
 30
0.0
 10
15.7631402623
 20
13.50500823
 30
0.0
 10
15.7630094059
 20
13.5156718746
 30
0.0
 10
15.7624086568
 20
13.5262280341
 30
0.0
 10
15.7613459075
 20
13.5365398367
 30
0.0
 10
15.7598352154
 20
13.5464737471
 30
0.0
 10
15.7578964491
 20
13.5559013889
 30
0.0
 10
15.7555550664
 20
13.5647014732
 30
0.0
 10
15.7528416631
 20
13.5727613068
 30
0.0
 10
15.7497906901
 20
13.579979552
 30
0.0
 10
15.7464413413
 20
13.5862648219
 30
0.0
 10
15.7438941068
 20
13.5899884868
 30
0.0
 10
15.7425685054
 20
13.5916486756
 30
0.0
  0
SPLINE
  5
395
100
AcDbEntity
  8
LAYER_CUT_FEAT
100
AcDbSpline
 62
7
  6
CONTINUOUS
 70
0
 71
3
 72
18
 73
14
 74
0
 42
0.0000001
 43
0.0000001
 44
0.0000000001
 40
0.0
 40
0.0
 40
0.0
 40
0.0
 40
0.1503606118
 40
0.2917443267
 40
0.424706293
 40
0.550030466
 40
0.668759785
 40
0.7260815899
 40
0.7822713339
 40
0.8375342153
 40
0.8920889264
 40
0.9461650912
 40
1.0
 40
1.0
 40
1.0
 40
1.0
 10
15.7425685054
 20
13.5916486756
 30
0.0
 10
15.7348496774
 20
13.6013157685
 30
0.0
 10
15.7192289278
 20
13.6195740023
 30
0.0
 10
15.6944600452
 20
13.6442762401
 30
0.0
 10
15.6691569472
 20
13.6653548508
 30
0.0
 10
15.6433952097
 20
13.6827331341
 30
0.0
 10
15.6213416656
 20
13.6942098186
 30
0.0
 10
15.6036186669
 20
13.7013808039
 30
0.0
 10
15.5904231852
 20
13.7057380092
 30
0.0
 10
15.5771823929
 20
13.7091314226
 30
0.0
 10
15.5639067632
 20
13.7115578585
 30
0.0
 10
15.5506087047
 20
13.713014741
 30
0.0
 10
15.5417271417
 20
13.7133388714
 30
0.0
 10
15.5372979708
 20
13.7133388664
 30
0.0
  0
SPLINE
  5
396
100
AcDbEntity
  8
0
100
AcDbSpline
 62
7
  6
CONTINUOUS
 70
0
 71
3
 72
11
 73
7
 74
0
 42
0.0000001
 43
0.0000001
 44
0.0000000001
 40
0.0
 40
0.0
 40
0.0
 40
0.0
 40
0.2024053666
 40
0.4276783088
 40
0.6911749941
 40
1.0
 40
1.0
 40
1.0
 40
1.0
 10
15.1261694715
 20
13.2708955666
 30
0.0
 10
15.126401173
 20
13.2708955786
 30
0.0
 10
15.1268942217
 20
13.270996516
 30
0.0
 10
15.1275768379
 20
13.2714187589
 30
0.0
 10
15.1282126733
 20
13.2720833688
 30
0.0
 10
15.1285738143
 20
13.2726336377
 30
0.0
 10
15.1287490042
 20
13.2729407011
 30
0.0
  0
SPLINE
  5
397
100
AcDbEntity
  8
LAYER_CUT_FEAT
100
AcDbSpline
 62
7
  6
CONTINUOUS
 70
0
 71
3
 72
11
 73
7
 74
0
 42
0.0000001
 43
0.0000001
 44
0.0000000001
 40
0.0
 40
0.0
 40
0.0
 40
0.0
 40
0.2285897473
 40
0.4664423003
 40
0.7215557344
 40
1.0
 40
1.0
 40
1.0
 40
1.0
 10
15.1072607684
 20
12.3179236594
 30
0.0
 10
15.1083208294
 20
12.3179236623
 30
0.0
 10
15.110490953
 20
12.318170243
 30
0.0
 10
15.1136776543
 20
12.3192621518
 30
0.0
 10
15.1167948971
 20
12.3210543592
 30
0.0
 10
15.1187205254
 20
12.3226245527
 30
0.0
 10
15.1196670826
 20
12.3235028305
 30
0.0
  0
SPLINE
  5
398
100
AcDbEntity
  8
0
100
AcDbSpline
 62
7
  6
CONTINUOUS
 70
0
 71
3
 72
13
 73
9
 74
0
 42
0.0000001
 43
0.0000001
 44
0.0000000001
 40
0.0
 40
0.0
 40
0.0
 40
0.0
 40
0.0827346166
 40
0.1719890768
 40
0.2726873037
 40
0.3877391795
 40
0.6642694852
 40
1.0
 40
1.0
 40
1.0
 40
1.0
 10
15.1218530947
 20
13.2735296916
 30
0.0
 10
15.1218004458
 20
13.2735296924
 30
0.0
 10
15.121690373
 20
13.2735115372
 30
0.0
 10
15.1215332724
 20
13.2734333285
 30
0.0
 10
15.121383485
 20
13.2733077186
 30
0.0
 10
15.121182823
 20
13.273065525
 30
0.0
 10
15.1209674974
 20
13.2726509162
 30
0.0
 10
15.1208478065
 20
13.272278986
 30
0.0
 10
15.1207942689
 20
13.2720721576
 30
0.0
  0
SPLINE
  5
399
100
AcDbEntity
  8
LAYER_CUT_FEAT
100
AcDbSpline
 62
7
  6
CONTINUOUS
 70
0
 71
3
 72
20
 73
16
 74
0
 42
0.0000001
 43
0.0000001
 44
0.0000000001
 40
0.0
 40
0.0
 40
0.0
 40
0.0
 40
0.1323784361
 40
0.2651480634
 40
0.3970167268
 40
0.4622168052
 40
0.5267153163
 40
0.5903586676
 40
0.6529970083
 40
0.714484988
 40
0.7746825433
 40
0.83345571
 40
0.8906775392
 40
0.9462288207
 40
1.0
 40
1.0
 40
1.0
 40
1.0
 10
16.0010175341
 20
12.3435057297
 30
0.0
 10
16.0033565774
 20
12.3862501001
 30
0.0
 10
16.006221132
 20
12.4719754476
 30
0.0
 10
16.0051671618
 20
12.6003917698
 30
0.0
 10
15.9998380865
 20
12.7069565086
 30
0.0
 10
15.9928928813
 20
12.7912615542
 30
0.0
 10
15.9863980529
 20
12.8534512469
 30
0.0
 10
15.9786171971
 20
12.91465809
 30
0.0
 10
15.9695725399
 20
12.9747069719
 30
0.0
 10
15.959290155
 20
13.0334257009
 30
0.0
 10
15.9477996278
 20
13.0906460939
 30
0.0
 10
15.9351340267
 20
13.1462042291
 30
0.0
 10
15.9213296884
 20
13.199941246
 30
0.0
 10
15.9064265356
 20
13.2517027838
 30
0.0
 10
15.8956036221
 20
13.2853653561
 30
0.0
 10
15.8900049635
 20
13.3018278198
 30
0.0
  0
SPLINE
  5
39A
100
AcDbEntity
  8
LAYER_CUT_FEAT
100
AcDbSpline
 62
7
  6
CONTINUOUS
 70
0
 71
3
 72
17
 73
13
 74
0
 42
0.0000001
 43
0.0000001
 44
0.0000000001
 40
0.0
 40
0.0
 40
0.0
 40
0.0
 40
0.1713943561
 40
0.3291217482
 40
0.4725011653
 40
0.6013769359
 40
0.7163174222
 40
0.8188770345
 40
0.8664234358
 40
0.9120631563
 40
0.956373466
 40
1.0
 40
1.0
 40
1.0
 40
1.0
 10
15.8900049635
 20
13.3018278198
 30
0.0
 10
15.889182847
 20
13.3042451959
 30
0.0
 10
15.8874579611
 20
13.3088398346
 30
0.0
 10
15.8844894301
 20
13.3152308394
 30
0.0
 10
15.8812729685
 20
13.3207824734
 30
0.0
 10
15.8778396816
 20
13.3254360953
 30
0.0
 10
15.8742213669
 20
13.3291417966
 30
0.0
 10
15.8709891879
 20
13.3314599976
 30
0.0
 10
15.8683630924
 20
13.3327416236
 30
0.0
 10
15.8664226264
 20
13.3334145383
 30
0.0
 10
15.8644687053
 20
13.3338197867
 30
0.0
 10
15.8631569434
 20
13.3339102845
 30
0.0
 10
15.8625070171
 20
13.3339102786
 30
0.0
  0
SPLINE
  5
39B
100
AcDbEntity
  8
LAYER_CUT_FEAT
100
AcDbSpline
 62
7
  6
CONTINUOUS
 70
0
 71
3
 72
11
 73
7
 74
0
 42
0.0000001
 43
0.0000001
 44
0.0000000001
 40
0.0
 40
0.0
 40
0.0
 40
0.0
 40
0.2116587546
 40
0.4491731541
 40
0.712376154
 40
1.0
 40
1.0
 40
1.0
 40
1.0
 10
15.6190350151
 20
13.0576999761
 30
0.0
 10
15.6203874698
 20
13.0591873884
 30
0.0
 10
15.6229998323
 20
13.062581164
 30
0.0
 10
15.6264539942
 20
13.0684127952
 30
0.0
 10
15.6296292473
 20
13.0752048219
 30
0.0
 10
15.631457396
 20
13.0801126741
 30
0.0
 10
15.6323259975
 20
13.0827027892
 30
0.0
  0
SPLINE
  5
39C
100
AcDbEntity
  8
0
100
AcDbSpline
 62
7
  6
CONTINUOUS
 70
0
 71
3
 72
11
 73
7
 74
0
 42
0.0000001
 43
0.0000001
 44
0.0000000001
 40
0.0
 40
0.0
 40
0.0
 40
0.0
 40
0.2052259807
 40
0.4317070039
 40
0.6941893229
 40
1.0
 40
1.0
 40
1.0
 40
1.0
 10
15.1347767382
 20
13.3031454467
 30
0.0
 10
15.1349973005
 20
13.3031454463
 30
0.0
 10
15.1354644256
 20
13.3032360903
 30
0.0
 10
15.13611685
 20
13.3036186017
 30
0.0
 10
15.1367283419
 20
13.3042239372
 30
0.0
 10
15.1370788488
 20
13.3047275832
 30
0.0
 10
15.1372492624
 20
13.305008615
 30
0.0
  0
SPLINE
  5
39D
100
AcDbEntity
  8
0
100
AcDbSpline
 62
7
  6
CONTINUOUS
 70
0
 71
3
 72
13
 73
9
 74
0
 42
0.0000001
 43
0.0000001
 44
0.0000000001
 40
0.0
 40
0.0
 40
0.0
 40
0.0
 40
0.0837569201
 40
0.1737659715
 40
0.2748188811
 40
0.3898266173
 40
0.6654285805
 40
1.0
 40
1.0
 40
1.0
 40
1.0
 10
15.1303268404
 20
13.3060953073
 30
0.0
 10
15.1302757189
 20
13.3060953048
 30
0.0
 10
15.1301690759
 20
13.3060782673
 30
0.0
 10
15.1300163584
 20
13.3060045824
 30
0.0
 10
15.1298703364
 20
13.3058859655
 30
0.0
 10
15.1296743219
 20
13.3056571573
 30
0.0
 10
15.1294620218
 20
13.3052640028
 30
0.0
 10
15.1293422996
 20
13.3049102233
 30
0.0
 10
15.1292881704
 20
13.3047133203
 30
0.0
  0
SPLINE
  5
39E
100
AcDbEntity
  8
LAYER_CUT_FEAT
100
AcDbSpline
 62
7
  6
CONTINUOUS
 70
0
 71
3
 72
21
 73
17
 74
0
 42
0.0000001
 43
0.0000001
 44
0.0000000001
 40
0.0
 40
0.0
 40
0.0
 40
0.0
 40
0.0338246402
 40
0.0693370666
 40
0.1079483337
 40
0.1506642306
 40
0.1981000961
 40
0.2505551608
 40
0.3080886822
 40
0.3705794043
 40
0.4377682687
 40
0.5092888129
 40
0.5846894568
 40
0.6634507364
 40
0.8286847556
 40
1.0
 40
1.0
 40
1.0
 40
1.0
 10
15.5262811793
 20
11.3086928668
 30
0.0
 10
15.5271880461
 20
11.3086928553
 30
0.0
 10
15.5290543619
 20
11.3089304707
 30
0.0
 10
15.5317775876
 20
11.3099764836
 30
0.0
 10
15.5344252797
 20
11.3116851493
 30
0.0
 10
15.5369783087
 20
11.3140283934
 30
0.0
 10
15.5394222814
 20
11.3169811688
 30
0.0
 10
15.5417400807
 20
11.3205169303
 30
0.0
 10
15.5439134041
 20
11.3246047967
 30
0.0
 10
15.5459235649
 20
11.3292086255
 30
0.0
 10
15.5477525451
 20
11.334287056
 30
0.0
 10
15.5493835236
 20
11.3397938855
 30
0.0
 10
15.5508014791
 20
11.3456786696
 30
0.0
 10
15.5524155495
 20
11.354091116
 30
0.0
 10
15.5537942409
 20
11.3651535953
 30
0.0
 10
15.5542170922
 20
11.374176528
 30
0.0
 10
15.5542618593
 20
11.3787694141
 30
0.0
  0
SPLINE
  5
39F
100
AcDbEntity
  8
0
100
AcDbSpline
 62
7
  6
CONTINUOUS
 70
0
 71
3
 72
11
 73
7
 74
0
 42
0.0000001
 43
0.0000001
 44
0.0000000001
 40
0.0
 40
0.0
 40
0.0
 40
0.0
 40
0.2080949706
 40
0.4358452675
 40
0.6973253036
 40
1.0
 40
1.0
 40
1.0
 40
1.0
 10
15.1437328435
 20
13.3347627301
 30
0.0
 10
15.1439423073
 20
13.3347627192
 30
0.0
 10
15.1443838544
 20
13.3348437604
 30
0.0
 10
15.1450056502
 20
13.335188508
 30
0.0
 10
15.1455919968
 20
13.3357369991
 30
0.0
 10
15.1459311828
 20
13.3361957497
 30
0.0
 10
15.1460964139
 20
13.3364517181
 30
0.0
  0
SPLINE
  5
3A0
100
AcDbEntity
  8
LAYER_CUT_FEAT
100
AcDbSpline
 62
7
  6
CONTINUOUS
 70
0
 71
3
 72
11
 73
7
 74
0
 42
0.0000001
 43
0.0000001
 44
0.0000000001
 40
0.0
 40
0.0
 40
0.0
 40
0.0
 40
0.2405915667
 40
0.485076572
 40
0.7371222589
 40
1.0
 40
1.0
 40
1.0
 40
1.0
 10
15.5372979708
 20
13.0733388595
 30
0.0
 10
15.5333346779
 20
13.0733388601
 30
0.0
 10
15.5253331906
 20
13.0727778588
 30
0.0
 10
15.5134172188
 20
13.0702651896
 30
0.0
 10
15.5015882818
 20
13.0660948771
 30
0.0
 10
15.4939702432
 20
13.0623142675
 30
0.0
 10
15.4902005632
 20
13.0601830678
 30
0.0
  0
SPLINE
  5
3A1
100
AcDbEntity
  8
0
100
AcDbSpline
 62
7
  6
CONTINUOUS
 70
0
 71
3
 72
13
 73
9
 74
0
 42
0.0000001
 43
0.0000001
 44
0.0000000001
 40
0.0
 40
0.0
 40
0.0
 40
0.0
 40
0.0848149703
 40
0.1756167142
 40
0.2770598201
 40
0.3920479217
 40
0.666710324
 40
1.0
 40
1.0
 40
1.0
 40
1.0
 10
15.1391529255
 20
13.3380378229
 30
0.0
 10
15.1391033295
 20
13.3380378173
 30
0.0
 10
15.1390000932
 20
13.3380218607
 30
0.0
 10
15.1388517783
 20
13.3379525588
 30
0.0
 10
15.1387095711
 20
13.3378407491
 30
0.0
 10
15.1385183199
 20
13.3376249985
 30
0.0
 10
15.1383092964
 20
13.3372529175
 30
0.0
 10
15.1381897878
 20
13.3369170047
 30
0.0
 10
15.1381352284
 20
13.3367299045
 30
0.0
  0
SPLINE
  5
3A2
100
AcDbEntity
  8
0
100
AcDbSpline
 62
7
  6
CONTINUOUS
 70
0
 71
3
 72
11
 73
7
 74
0
 42
0.0000001
 43
0.0000001
 44
0.0000000001
 40
0.0
 40
0.0
 40
0.0
 40
0.0
 40
0.2110043845
 40
0.4400808241
 40
0.7005745003
 40
1.0
 40
1.0
 40
1.0
 40
1.0
 10
15.153030741
 20
13.3657225463
 30
0.0
 10
15.1532291456
 20
13.3657225383
 30
0.0
 10
15.1536454581
 20
13.3657946232
 30
0.0
 10
15.1542362354
 20
13.366103602
 30
0.0
 10
15.1547966571
 20
13.3665977463
 30
0.0
 10
15.1551238433
 20
13.3670133709
 30
0.0
 10
15.1552834981
 20
13.3672452725
 30
0.0
  0
SPLINE
  5
3A3
100
AcDbEntity
  8
0
100
AcDbSpline
 62
7
  6
CONTINUOUS
 70
0
 71
3
 72
13
 73
9
 74
0
 42
0.0000001
 43
0.0000001
 44
0.0000000001
 40
0.0
 40
0.0
 40
0.0
 40
0.0
 40
0.0859093674
 40
0.1775420115
 40
0.2794113791
 40
0.3944051757
 40
0.6681173143
 40
1.0
 40
1.0
 40
1.0
 40
1.0
 10
15.148324406
 20
13.3693321104
 30
0.0
 10
15.1482763337
 20
13.3693321069
 30
0.0
 10
15.1481764831
 20
13.3693171791
 30
0.0
 10
15.1480325862
 20
13.3692521299
 30
0.0
 10
15.1478942424
 20
13.3691469371
 30
0.0
 10
15.147707867
 20
13.3689439094
 30
0.0
 10
15.1475023684
 20
13.3685925011
 30
0.0
 10
15.1473833136
 20
13.3682741541
 30
0.0
 10
15.1473284826
 20
13.3680967212
 30
0.0
  0
SPLINE
  5
3A4
100
AcDbEntity
  8
LAYER_CUT_FEAT
100
AcDbSpline
 62
7
  6
CONTINUOUS
 70
0
 71
3
 72
28
 73
24
 74
0
 42
0.0000001
 43
0.0000001
 44
0.0000000001
 40
0.0
 40
0.0
 40
0.0
 40
0.0
 40
0.0680171743
 40
0.1405006221
 40
0.2163535822
 40
0.2943742289
 40
0.3732976908
 40
0.4518335346
 40
0.5287022393
 40
0.6026723638
 40
0.6725993469
 40
0.737469236
 40
0.7964513674
 40
0.8235530015
 40
0.8489938734
 40
0.872759888
 40
0.8948697029
 40
0.9153822419
 40
0.9344058425
 40
0.9521083909
 40
0.9687261417
 40
0.984566695
 40
1.0
 40
1.0
 40
1.0
 40
1.0
 10
15.82714859
 20
13.3649298403
 30
0.0
 10
15.8279676016
 20
13.3676773073
 30
0.0
 10
15.829429577
 20
13.373422646
 30
0.0
 10
15.8310795469
 20
13.382397221
 30
0.0
 10
15.8322344498
 20
13.3918736411
 30
0.0
 10
15.8328714601
 20
13.4016703278
 30
0.0
 10
15.8329781345
 20
13.4116001045
 30
0.0
 10
15.8325523463
 20
13.4214727716
 30
0.0
 10
15.8316024629
 20
13.4310994183
 30
0.0
 10
15.830147147
 20
13.4402960469
 30
0.0
 10
15.8282148504
 20
13.4488880349
 30
0.0
 10
15.8258431217
 20
13.456712105
 30
0.0
 10
15.8234757379
 20
13.462630167
 30
0.0
 10
15.8213751542
 20
13.4668381884
 30
0.0
 10
15.8197648742
 20
13.4696251334
 30
0.0
 10
15.8180827722
 20
13.4721197653
 30
0.0
 10
15.8163361835
 20
13.4743104325
 30
0.0
 10
15.8145325375
 20
13.4761868198
 30
0.0
 10
15.8126790415
 20
13.4777397199
 30
0.0
 10
15.8107829337
 20
13.4789606499
 30
0.0
 10
15.8088515886
 20
13.4798414274
 30
0.0
 10
15.8068949909
 20
13.4803741741
 30
0.0
 10
15.805573917
 20
13.4804936576
 30
0.0
 10
15.8049233991
 20
13.4804936494
 30
0.0
  0
SPLINE
  5
3A5
100
AcDbEntity
  8
02___PRT_ALL_AXES
100
AcDbSpline
 62
7
  6
CONTINUOUS
 70
0
 71
3
 72
56
 73
52
 74
0
 42
0.0000001
 43
0.0000001
 44
0.0000000001
 40
0.0
 40
0.0
 40
0.0
 40
0.0
 40
0.0114385486
 40
0.0223688242
 40
0.0328131595
 40
0.0428007909
 40
0.0523685581
 40
0.0615614766
 40
0.0704330491
 40
0.0790451279
 40
0.0874671737
 40
0.0957747784
 40
0.1040474829
 40
0.1123660723
 40
0.1208096996
 40
0.1294532344
 40
0.1383651701
 40
0.1476062485
 40
0.1572288115
 40
0.1672767333
 40
0.1777857793
 40
0.1887842012
 40
0.2002934478
 40
0.2123288964
 40
0.2249005426
 40
0.2380136382
 40
0.2516692428
 40
0.2658647181
 40
0.2805941401
 40
0.2958486657
 40
0.3116168399
 40
0.3278848637
 40
0.3446368301
 40
0.3618549218
 40
0.3795195981
 40
0.3976097485
 40
0.4349729858
 40
0.473751905
 40
0.5137344602
 40
0.5546949549
 40
0.5963970442
 40
0.6385965416
 40
0.6810441046
 40
0.7234878488
 40
0.7656759283
 40
0.8073591182
 40
0.8482934298
 40
0.8882427982
 40
0.9269818951
 40
0.9642991387
 40
1.0
 40
1.0
 40
1.0
 40
1.0
 10
15.374979474
 20
13.6292352554
 30
0.0
 10
15.3809186635
 20
13.6363507044
 30
0.0
 10
15.3929010826
 20
13.6499646768
 30
0.0
 10
15.411619536
 20
13.6688693527
 30
0.0
 10
15.4306375751
 20
13.6857535095
 30
0.0
 10
15.4499236434
 20
13.70058589
 30
0.0
 10
15.4694465963
 20
13.7133388643
 30
0.0
 10
15.4891744156
 20
13.7239870662
 30
0.0
 10
15.5090739315
 20
13.7325077162
 30
0.0
 10
15.5291101804
 20
13.7388807839
 30
0.0
 10
15.5492458724
 20
13.7430898117
 30
0.0
 10
15.5694413176
 20
13.7451229295
 30
0.0
 10
15.589654978
 20
13.7449740857
 30
0.0
 10
15.6098446895
 20
13.7426437272
 30
0.0
 10
15.6299691062
 20
13.7381387626
 30
0.0
 10
15.6499888487
 20
13.7314717566
 30
0.0
 10
15.6698669612
 20
13.7226597121
 30
0.0
 10
15.689568764
 20
13.71172307
 30
0.0
 10
15.709061272
 20
13.6986849694
 30
0.0
 10
15.7283126294
 20
13.6835710712
 30
0.0
 10
15.7472915941
 20
13.666409542
 30
0.0
 10
15.7659672801
 20
13.6472312736
 30
0.0
 10
15.7843090254
 20
13.6260700636
 30
0.0
 10
15.8022863842
 20
13.6029627782
 30
0.0
 10
15.8198692158
 20
13.5779494709
 30
0.0
 10
15.8370277412
 20
13.5510734053
 30
0.0
 10
15.8537326979
 20
13.522381083
 30
0.0
 10
15.8699553915
 20
13.4919221809
 30
0.0
 10
15.8856678375
 20
13.4597495114
 30
0.0
 10
15.9008428129
 20
13.4259189268
 30
0.0
 10
15.9154539527
 20
13.3904892323
 30
0.0
 10
15.9294758148
 20
13.3535220855
 30
0.0
 10
15.9428839418
 20
13.3150818648
 30
0.0
 10
15.9556548793
 20
13.2752356234
 30
0.0
 10
15.967766459
 20
13.2340527124
 30
0.0
 10
15.9831728814
 20
13.1768403895
 30
0.0
 10
16.0005733256
 20
13.102469345
 30
0.0
 10
16.0183006103
 20
13.0100375962
 30
0.0
 10
16.032968634
 20
12.9141224693
 30
0.0
 10
16.0444741473
 20
12.8153936425
 30
0.0
 10
16.0527361015
 20
12.7145391264
 30
0.0
 10
16.0576962778
 20
12.6122627232
 30
0.0
 10
16.0593197167
 20
12.5092782712
 30
0.0
 10
16.0575949755
 20
12.4063047169
 30
0.0
 10
16.0525342101
 20
12.3040609119
 30
0.0
 10
16.0441730932
 20
12.2032605113
 30
0.0
 10
16.0325705255
 20
12.1046067497
 30
0.0
 10
16.0178082971
 20
12.008787746
 30
0.0
 10
15.9999901075
 20
11.9164701686
 30
0.0
 10
15.9792420056
 20
11.8282990792
 30
0.0
 10
15.963170664
 20
11.7713325626
 30
0.0
 10
15.9546298461
 20
11.7436944657
 30
0.0
  0
SPLINE
  5
3A6
100
AcDbEntity
  8
02___PRT_ALL_AXES
100
AcDbSpline
 62
7
  6
CONTINUOUS
 70
0
 71
3
 72
49
 73
45
 74
0
 42
0.0000001
 43
0.0000001
 44
0.0000000001
 40
0.0
 40
0.0
 40
0.0
 40
0.0
 40
0.0076945193
 40
0.0154415208
 40
0.0232921811
 40
0.0312951929
 40
0.0394958137
 40
0.0479351928
 40
0.0566499799
 40
0.0656721851
 40
0.075029236
 40
0.0847441717
 40
0.0948359225
 40
0.1053196315
 40
0.11620699
 40
0.127506565
 40
0.1392241058
 40
0.1513628245
 40
0.1639236475
 40
0.1769054416
 40
0.1903052129
 40
0.2041182818
 40
0.2329557158
 40
0.2633547148
 40
0.2952306967
 40
0.3284832502
 40
0.3629985304
 40
0.3986512758
 40
0.4353065506
 40
0.4728213074
 40
0.511045807
 40
0.549824951
 40
0.5889995472
 40
0.6284075307
 40
0.6678851601
 40
0.707268195
 40
0.7463930725
 40
0.7850980869
 40
0.8232245888
 40
0.8606182108
 40
0.8971301441
 40
0.9326184788
 40
0.9669496511
 40
1.0
 40
1.0
 40
1.0
 40
1.0
 10
15.5709166971
 20
13.7370888677
 30
0.0
 10
15.5764962691
 20
13.7370888692
 30
0.0
 10
15.5876999282
 20
13.7365833611
 30
0.0
 10
15.6044578784
 20
13.7343125671
 30
0.0
 10
15.6211710348
 20
13.7305324951
 30
0.0
 10
15.6378154311
 20
13.7252497022
 30
0.0
 10
15.6543702404
 20
13.7184728405
 30
0.0
 10
15.6708148407
 20
13.7102123386
 30
0.0
 10
15.6871294897
 20
13.7004801754
 30
0.0
 10
15.7032949308
 20
13.6892897484
 30
0.0
 10
15.7192922969
 20
13.6766558343
 30
0.0
 10
15.7351029746
 20
13.6625946103
 30
0.0
 10
15.7507085361
 20
13.6471237013
 30
0.0
 10
15.7660907106
 20
13.6302622366
 30
0.0
 10
15.7812313802
 20
13.6120308888
 30
0.0
 10
15.7961125984
 20
13.5924519038
 30
0.0
 10
15.810716622
 20
13.5715491142
 30
0.0
 10
15.8250259404
 20
13.5493479452
 30
0.0
 10
15.8390233372
 20
13.5258753958
 30
0.0
 10
15.8526918426
 20
13.5011600568
 30
0.0
 10
15.8660150789
 20
13.4752319251
 30
0.0
 10
15.8835486321
 20
13.4385591476
 30
0.0
 10
15.9044283415
 20
13.3898490962
 30
0.0
 10
15.9275100667
 20
13.3279197405
 30
0.0
 10
15.94885351
 20
13.2619980666
 30
0.0
 10
15.9683541047
 20
13.1924057067
 30
0.0
 10
15.9859163621
 20
13.1194808261
 30
0.0
 10
16.0014539829
 20
13.0435790766
 30
0.0
 10
16.0148905578
 20
12.9650709451
 30
0.0
 10
16.0261599306
 20
12.8843400583
 30
0.0
 10
16.0352065995
 20
12.8017811653
 30
0.0
 10
16.0419859914
 20
12.7177981555
 30
0.0
 10
16.0464646932
 20
12.6328020245
 30
0.0
 10
16.0486206391
 20
12.5472088182
 30
0.0
 10
16.0484431951
 20
12.461437557
 30
0.0
 10
16.0459332414
 20
12.3759081473
 30
0.0
 10
16.0411031476
 20
12.2910392923
 30
0.0
 10
16.0339767147
 20
12.2072464012
 30
0.0
 10
16.0245890699
 20
12.1249395311
 30
0.0
 10
16.0129864465
 20
12.0445212769
 30
0.0
 10
15.9992260317
 20
11.9663849535
 30
0.0
 10
15.9833754271
 20
11.8909118485
 30
0.0
 10
15.9655130395
 20
11.8184719765
 30
0.0
 10
15.9520501828
 20
11.7714872544
 30
0.0
 10
15.944974286
 20
11.7485896442
 30
0.0
  0
SPLINE
  5
3A7
100
AcDbEntity
  8
LAYER_CUT_FEAT
100
AcDbSpline
 62
7
  6
CONTINUOUS
 70
0
 71
3
 72
14
 73
10
 74
0
 42
0.0000001
 43
0.0000001
 44
0.0000000001
 40
0.0
 40
0.0
 40
0.0
 40
0.0
 40
0.3018884595
 40
0.4407013381
 40
0.5707324447
 40
0.6916683918
 40
0.8033903662
 40
0.9060227198
 40
1.0
 40
1.0
 40
1.0
 40
1.0
 10
15.3105465859
 20
13.4826548475
 30
0.0
 10
15.3097269791
 20
13.48570963
 30
0.0
 10
15.3083474634
 20
13.4901259892
 30
0.0
 10
15.306106102
 20
13.4956722709
 30
0.0
 10
15.3043499407
 20
13.499362232
 30
0.0
 10
15.3024830841
 20
13.5026757345
 30
0.0
 10
15.3005166746
 20
13.5055920247
 30
0.0
 10
15.2984629525
 20
13.5080921466
 30
0.0
 10
15.2969803775
 20
13.5095312605
 30
0.0
 10
15.2962275766
 20
13.510165839
 30
0.0
  0
SPLINE
  5
3A8
100
AcDbEntity
  8
02___PRT_ALL_AXES
100
AcDbSpline
 62
7
  6
CONTINUOUS
 70
0
 71
3
 72
15
 73
11
 74
0
 42
0.0000001
 43
0.0000001
 44
0.0000000001
 40
0.0
 40
0.0
 40
0.0
 40
0.0
 40
0.1116023408
 40
0.2285982317
 40
0.3502725926
 40
0.4758456789
 40
0.6044866693
 40
0.7353261669
 40
0.8674679093
 40
1.0
 40
1.0
 40
1.0
 40
1.0
 10
15.2044569558
 20
12.8507818192
 30
0.0
 10
15.2003643912
 20
12.8375382753
 30
0.0
 10
15.1927059379
 20
12.8101833292
 30
0.0
 10
15.1829542688
 20
12.7677710579
 30
0.0
 10
15.1747246041
 20
12.723271806
 30
0.0
 10
15.1680848418
 20
12.6770475468
 30
0.0
 10
15.1630893745
 20
12.6294728042
 30
0.0
 10
15.1597792767
 20
12.5809337931
 30
0.0
 10
15.1581817262
 20
12.5318256666
 30
0.0
 10
15.1582672562
 20
12.4989441769
 30
0.0
 10
15.1585999682
 20
12.4824865004
 30
0.0
  0
SPLINE
  5
3A9
100
AcDbEntity
  8
02___PRT_ALL_AXES
100
AcDbSpline
 62
7
  6
CONTINUOUS
 70
0
 71
3
 72
11
 73
7
 74
0
 42
0.0000001
 43
0.0000001
 44
0.0000000001
 40
0.0
 40
0.0
 40
0.0
 40
0.0
 40
0.2767585787
 40
0.5359802998
 40
0.7771161311
 40
1.0
 40
1.0
 40
1.0
 40
1.0
 10
15.2201929183
 20
12.1254180524
 30
0.0
 10
15.224066857
 20
12.1154041714
 30
0.0
 10
15.2320741315
 20
12.096199956
 30
0.0
 10
15.2453453383
 20
12.0691058801
 30
0.0
 10
15.2594146822
 20
12.04480184
 30
0.0
 10
15.2696745295
 20
12.0299756977
 30
0.0
 10
15.2749402603
 20
12.0231169584
 30
0.0
  0
SPLINE
  5
3AA
100
AcDbEntity
  8
02___PRT_ALL_AXES
100
AcDbSpline
 62
7
  6
CONTINUOUS
 70
0
 71
3
 72
9
 73
5
 74
0
 42
0.0000001
 43
0.0000001
 44
0.0000000001
 40
0.0
 40
0.0
 40
0.0
 40
0.0
 40
0.4833131044
 40
1.0
 40
1.0
 40
1.0
 40
1.0
 10
15.573170738
 20
13.6220987243
 30
0.0
 10
15.5828686104
 20
13.6104801895
 30
0.0
 10
15.6019060498
 20
13.5855724843
 30
0.0
 10
15.619085483
 20
13.5593621178
 30
0.0
 10
15.6275342421
 20
13.5455642587
 30
0.0
  0
SPLINE
  5
3AB
100
AcDbEntity
  8
02___PRT_ALL_AXES
100
AcDbSpline
 62
7
  6
CONTINUOUS
 70
0
 71
3
 72
11
 73
7
 74
0
 42
0.0000001
 43
0.0000001
 44
0.0000000001
 40
0.0
 40
0.0
 40
0.0
 40
0.0
 40
0.2400439558
 40
0.4875774438
 40
0.7413378045
 40
1.0
 40
1.0
 40
1.0
 40
1.0
 10
15.786160237
 20
13.1179856178
 30
0.0
 10
15.7925638836
 20
13.0891302092
 30
0.0
 10
15.8044042557
 20
13.0302548729
 30
0.0
 10
15.8191197787
 20
12.9401469032
 30
0.0
 10
15.8309988269
 20
12.8473104811
 30
0.0
 10
15.8369302811
 20
12.7844804265
 30
0.0
 10
15.839418284
 20
12.7527278015
 30
0.0
  0
SPLINE
  5
3AC
100
AcDbEntity
  8
02___PRT_ALL_AXES
100
AcDbSpline
 62
7
  6
CONTINUOUS
 70
0
 71
3
 72
11
 73
7
 74
0
 42
0.0000001
 43
0.0000001
 44
0.0000000001
 40
0.0
 40
0.0
 40
0.0
 40
0.0
 40
0.2607082704
 40
0.5147262059
 40
0.7613693754
 40
1.0
 40
1.0
 40
1.0
 40
1.0
 10
15.8049292374
 20
11.9974135302
 30
0.0
 10
15.8009976612
 20
11.975515821
 30
0.0
 10
15.7926523159
 20
11.9323843095
 30
0.0
 10
15.7784881043
 20
11.868965302
 30
0.0
 10
15.7628790839
 20
11.8078284161
 30
0.0
 10
15.751346683
 20
11.7680456724
 30
0.0
 10
15.7453343156
 20
11.7485896442
 30
0.0
  0
SPLINE
  5
3AD
100
AcDbEntity
  8
LAYER_CUT_FEAT
100
AcDbSpline
 62
7
  6
CONTINUOUS
 70
0
 71
3
 72
33
 73
29
 74
0
 42
0.0000001
 43
0.0000001
 44
0.0000000001
 40
0.0
 40
0.0
 40
0.0
 40
0.0
 40
0.0202497365
 40
0.0425576264
 40
0.0670589443
 40
0.0937945444
 40
0.1227334367
 40
0.1537885872
 40
0.1868288383
 40
0.2216875976
 40
0.2960393659
 40
0.3750475671
 40
0.4566551431
 40
0.5386805602
 40
0.6189227714
 40
0.6952649272
 40
0.7313707631
 40
0.7658034752
 40
0.7983742131
 40
0.8289243366
 40
0.857332538
 40
0.8835242094
 40
0.9074841673
 40
0.9292741095
 40
0.9490558349
 40
0.9671188134
 40
0.9839035453
 40
1.0
 40
1.0
 40
1.0
 40
1.0
 10
15.3084954303
 20
12.2610724232
 30
0.0
 10
15.3093311749
 20
12.2617108357
 30
0.0
 10
15.3109787141
 20
12.2631978193
 30
0.0
 10
15.3132473051
 20
12.2658497302
 30
0.0
 10
15.3154124921
 20
12.2690038106
 30
0.0
 10
15.3174584664
 20
12.2726356447
 30
0.0
 10
15.3193706447
 20
12.2767179919
 30
0.0
 10
15.3211343511
 20
12.2812195179
 30
0.0
 10
15.3227360315
 20
12.2861054288
 30
0.0
 10
15.3246800368
 20
12.2932356362
 30
0.0
 10
15.3265913111
 20
12.3028355545
 30
0.0
 10
15.3280373362
 20
12.3149633722
 30
0.0
 10
15.3286348717
 20
12.3275612644
 30
0.0
 10
15.328364744
 20
12.3402343446
 30
0.0
 10
15.3272354694
 20
12.3525853274
 30
0.0
 10
15.3255802695
 20
12.3624671428
 30
0.0
 10
15.3238319721
 20
12.3698948008
 30
0.0
 10
15.322361395
 20
12.3750462698
 30
0.0
 10
15.3207191103
 20
12.3798419004
 30
0.0
 10
15.3189179105
 20
12.3842443853
 30
0.0
 10
15.316971777
 20
12.3882197091
 30
0.0
 10
15.3148953773
 20
12.3917375262
 30
0.0
 10
15.3127036684
 20
12.3947713165
 30
0.0
 10
15.3104111572
 20
12.3972982373
 30
0.0
 10
15.3080315393
 20
12.399298233
 30
0.0
 10
15.3055770452
 20
12.4007519761
 30
0.0
 10
15.3030645441
 20
12.4016384603
 30
0.0
 10
15.3013509766
 20
12.4018389467
 30
0.0
 10
15.300514996
 20
12.4018389516
 30
0.0
  0
SPLINE
  5
3AE
100
AcDbEntity
  8
02___PRT_ALL_AXES
100
AcDbSpline
 62
7
  6
CONTINUOUS
 70
0
 71
3
 72
16
 73
12
 74
0
 42
0.0000001
 43
0.0000001
 44
0.0000000001
 40
0.0
 40
0.0
 40
0.0
 40
0.0
 40
0.174249037
 40
0.3349009584
 40
0.4807100798
 40
0.6110015025
 40
0.7259181113
 40
0.8267577464
 40
0.9164260995
 40
0.9586269576
 40
1.0
 40
1.0
 40
1.0
 40
1.0
 10
15.6263834387
 20
12.8164168497
 30
0.0
 10
15.6261145915
 20
12.8174147357
 30
0.0
 10
15.6255381623
 20
12.8193174561
 30
0.0
 10
15.6245104621
 20
12.8219800568
 30
0.0
 10
15.6233661738
 20
12.8243085604
 30
0.0
 10
15.6221204899
 20
12.8262714047
 30
0.0
 10
15.620787083
 20
12.8278427595
 30
0.0
 10
15.6193786802
 20
12.8290008545
 30
0.0
 10
15.6181211784
 20
12.8296121492
 30
0.0
 10
15.6171176512
 20
12.8298481924
 30
0.0
 10
15.6166211275
 20
12.8298870891
 30
0.0
 10
15.6163757448
 20
12.8298870933
 30
0.0
  0
SPLINE
  5
3AF
100
AcDbEntity
  8
0
100
AcDbSpline
 62
7
  6
CONTINUOUS
 70
0
 71
3
 72
26
 73
22
 74
0
 42
0.0000001
 43
0.0000001
 44
0.0000000001
 40
0.0
 40
0.0
 40
0.0
 40
0.0
 40
0.0213985127
 40
0.0428889394
 40
0.0645617423
 40
0.0865045748
 40
0.1088010983
 40
0.1315300027
 40
0.1785503645
 40
0.2280980767
 40
0.2805801058
 40
0.3363061447
 40
0.395498495
 40
0.4583036159
 40
0.524803332
 40
0.5950246233
 40
0.668948056
 40
0.7465145794
 40
0.8276312131
 40
0.9121754366
 40
1.0
 40
1.0
 40
1.0
 40
1.0
 10
15.5781700524
 20
13.9104638625
 30
0.0
 10
15.573123542
 20
13.9104638567
 30
0.0
 10
15.5630051605
 20
13.9101024401
 30
0.0
 10
15.5478540674
 20
13.9084776892
 30
0.0
 10
15.5327273888
 20
13.9057716024
 30
0.0
 10
15.5176386438
 20
13.9019869325
 30
0.0
 10
15.5025992663
 20
13.8971269902
 30
0.0
 10
15.4824042398
 20
13.8891312541
 30
0.0
 10
15.4572663976
 20
13.8763355959
 30
0.0
 10
15.4278707332
 20
13.8569458587
 30
0.0
 10
15.398976645
 20
13.833420284
 30
0.0
 10
15.3706659032
 20
13.8058395528
 30
0.0
 10
15.3430144159
 20
13.7742905008
 30
0.0
 10
15.3160997615
 20
13.7388698327
 30
0.0
 10
15.2899989851
 20
13.6996846196
 30
0.0
 10
15.264788441
 20
13.6568531194
 30
0.0
 10
15.2405431169
 20
13.6105047296
 30
0.0
 10
15.2173359377
 20
13.5607799914
 30
0.0
 10
15.195237277
 20
13.5078299224
 30
0.0
 10
15.174314755
 20
13.4518166486
 30
0.0
 10
15.1614293579
 20
13.4132528342
 30
0.0
 10
15.155180509
 20
13.3935058878
 30
0.0
  0
SPLINE
  5
3B0
100
AcDbEntity
  8
LAYER_CUT_FEAT
100
AcDbSpline
 62
7
  6
CONTINUOUS
 70
0
 71
3
 72
22
 73
18
 74
0
 42
0.0000001
 43
0.0000001
 44
0.0000000001
 40
0.0
 40
0.0
 40
0.0
 40
0.0
 40
0.169932236
 40
0.3348857687
 40
0.4138060765
 40
0.4895009599
 40
0.5614025489
 40
0.6290116726
 40
0.6919158036
 40
0.7498122394
 40
0.8025396952
 40
0.8501229688
 40
0.8928361739
 40
0.9312858435
 40
0.9664961554
 40
0.9833623914
 40
1.0
 40
1.0
 40
1.0
 40
1.0
 10
15.5590973111
 20
11.87486404
 30
0.0
 10
15.5591437042
 20
11.8796237472
 30
0.0
 10
15.5588745044
 20
11.8890108974
 30
0.0
 10
15.5576335967
 20
11.900549415
 30
0.0
 10
15.5560920242
 20
11.9093698309
 30
0.0
 10
15.5547068295
 20
11.9155643475
 30
0.0
 10
15.5530899073
 20
11.9213745672
 30
0.0
 10
15.5512571752
 20
11.9267437238
 30
0.0
 10
15.5492266487
 20
11.9316197017
 30
0.0
 10
15.5470178397
 20
11.935955764
 30
0.0
 10
15.5446510479
 20
11.9397110356
 30
0.0
 10
15.5421465793
 20
11.9428506954
 30
0.0
 10
15.5395224069
 20
11.9453449857
 30
0.0
 10
15.5367963972
 20
11.947166395
 30
0.0
 10
15.5344161675
 20
11.9481101982
 30
0.0
 10
15.5325222701
 20
11.9484768475
 30
0.0
 10
15.5315826635
 20
11.9485374784
 30
0.0
 10
15.5311166312
 20
11.9485374843
 30
0.0
  0
SPLINE
  5
3B1
100
AcDbEntity
  8
02___PRT_ALL_AXES
100
AcDbSpline
 62
7
  6
CONTINUOUS
 70
0
 71
3
 72
39
 73
35
 74
0
 42
0.0000001
 43
0.0000001
 44
0.0000000001
 40
0.0
 40
0.0
 40
0.0
 40
0.0
 40
0.031644692
 40
0.0618858679
 40
0.0907850209
 40
0.1184226319
 40
0.1449000794
 40
0.170341229
 40
0.194893283
 40
0.2187264291
 40
0.2420318221
 40
0.26501756
 40
0.2879027203
 40
0.3109099525
 40
0.3342575771
 40
0.3581522847
 40
0.3827833422
 40
0.4083187694
 40
0.4349035041
 40
0.4626591775
 40
0.4916850737
 40
0.5220597413
 40
0.5538429496
 40
0.5870776864
 40
0.6217920678
 40
0.6580010903
 40
0.6957081569
 40
0.734906443
 40
0.7755800335
 40
0.8177049407
 40
0.8612499507
 40
0.9061773669
 40
0.9524435982
 40
1.0
 40
1.0
 40
1.0
 40
1.0
 10
15.374979474
 20
11.3924424802
 30
0.0
 10
15.380907683
 20
11.3853401901
 30
0.0
 10
15.392867765
 20
11.371750271
 30
0.0
 10
15.411549924
 20
11.3528758699
 30
0.0
 10
15.4305306228
 20
11.3360142583
 30
0.0
 10
15.4497784695
 20
11.3211965181
 30
0.0
 10
15.4692624982
 20
11.3084501421
 30
0.0
 10
15.4889508641
 20
11.2978003518
 30
0.0
 10
15.5088106018
 20
11.2892698174
 30
0.0
 10
15.5288069684
 20
11.2828784681
 30
0.0
 10
15.5489029303
 20
11.2786427062
 30
0.0
 10
15.5690590754
 20
11.2765744049
 30
0.0
 10
15.5892341482
 20
11.276679675
 30
0.0
 10
15.6093862473
 20
11.2789582154
 30
0.0
 10
15.6294742539
 20
11.2834032878
 30
0.0
 10
15.649458971
 20
11.2900025476
 30
0.0
 10
15.6693036011
 20
11.2987391984
 30
0.0
 10
15.6889736034
 20
11.3095930219
 30
0.0
 10
15.7084361338
 20
11.3225410983
 30
0.0
 10
15.7276594844
 20
11.3375579988
 30
0.0
 10
15.7466125617
 20
11.3546158127
 30
0.0
 10
15.7652646422
 20
11.3736839198
 30
0.0
 10
15.7835852163
 20
11.3947288301
 30
0.0
 10
15.8015440001
 20
11.4177140025
 30
0.0
 10
15.819111001
 20
11.442599742
 30
0.0
 10
15.8362565888
 20
11.4693431633
 30
0.0
 10
15.8529516392
 20
11.4978981687
 30
0.0
 10
15.8691675874
 20
11.5282155073
 30
0.0
 10
15.8848765728
 20
11.56024281
 30
0.0
 10
15.9000514833
 20
11.5939246955
 30
0.0
 10
15.9146660537
 20
11.6292028196
 30
0.0
 10
15.9286949493
 20
11.6660160856
 30
0.0
 10
15.9421137148
 20
11.7043003509
 30
0.0
 10
15.9505250084
 20
11.730411206
 30
0.0
 10
15.9546298461
 20
11.7436944657
 30
0.0
  0
SPLINE
  5
3B2
100
AcDbEntity
  8
02___PRT_ALL_AXES
100
AcDbSpline
 62
7
  6
CONTINUOUS
 70
0
 71
3
 72
26
 73
22
 74
0
 42
0.0000001
 43
0.0000001
 44
0.0000000001
 40
0.0
 40
0.0
 40
0.0
 40
0.0
 40
0.0212794957
 40
0.0426527838
 40
0.0642121394
 40
0.0860468997
 40
0.1082422256
 40
0.1308780994
 40
0.1777406423
 40
0.2271730218
 40
0.279584554
 40
0.3352845326
 40
0.3944928268
 40
0.4573519977
 40
0.5239388812
 40
0.5942747505
 40
0.6683338473
 40
0.7460503963
 40
0.8273243321
 40
0.912025987
 40
1.0
 40
1.0
 40
1.0
 40
1.0
 10
15.5709166971
 20
11.2845888679
 30
0.0
 10
15.5753958147
 20
11.2845888691
 30
0.0
 10
15.584377147
 20
11.2849138885
 30
0.0
 10
15.5978250059
 20
11.2863748927
 30
0.0
 10
15.6112505835
 20
11.2888082215
 30
0.0
 10
15.6246415528
 20
11.2922113219
 30
0.0
 10
15.6379874956
 20
11.2965810962
 30
0.0
 10
15.6559109975
 20
11.303771838
 30
0.0
 10
15.6782169544
 20
11.3152797819
 30
0.0
 10
15.7042844701
 20
11.3327105217
 30
0.0
 10
15.7298954048
 20
11.3538551164
 30
0.0
 10
15.7549756479
 20
11.3786394112
 30
0.0
 10
15.7794562913
 20
11.4069835988
 30
0.0
 10
15.8032668338
 20
11.4387987123
 30
0.0
 10
15.8263373159
 20
11.4739861465
 30
0.0
 10
15.8485983714
 20
11.5124369993
 30
0.0
 10
15.8699820228
 20
11.5540320545
 30
0.0
 10
15.8904221822
 20
11.5986418809
 30
0.0
 10
15.9098552219
 20
11.6461274505
 30
0.0
 10
15.9282200517
 20
11.6963394843
 30
0.0
 10
15.9395070028
 20
11.730897509
 30
0.0
 10
15.944974286
 20
11.7485896442
 30
0.0
  0
SPLINE
  5
3B3
100
AcDbEntity
  8
LAYER_CUT_FEAT
100
AcDbSpline
 62
7
  6
CONTINUOUS
 70
0
 71
3
 72
10
 73
6
 74
0
 42
0.0000001
 43
0.0000001
 44
0.0000000001
 40
0.0
 40
0.0
 40
0.0
 40
0.0
 40
0.2408200401
 40
0.4855319359
 40
1.0
 40
1.0
 40
1.0
 40
1.0
 10
15.4823509953
 20
13.0579904366
 30
0.0
 10
15.4830115458
 20
13.0579904434
 30
0.0
 10
15.4843453446
 20
13.0580841033
 30
0.0
 10
15.4870356218
 20
13.0586506556
 30
0.0
 10
15.4889721435
 20
13.0594885771
 30
0.0
 10
15.4902005632
 20
13.0601830678
 30
0.0
  0
SPLINE
  5
3B4
100
AcDbEntity
  8
LAYER_CUT_FEAT
100
AcDbSpline
 62
7
  6
CONTINUOUS
 70
0
 71
3
 72
33
 73
29
 74
0
 42
0.0000001
 43
0.0000001
 44
0.0000000001
 40
0.0
 40
0.0
 40
0.0
 40
0.0
 40
0.0159889201
 40
0.0326385876
 40
0.0505182763
 40
0.0700569926
 40
0.0915406234
 40
0.1151329263
 40
0.1409012022
 40
0.1688383039
 40
0.1988793666
 40
0.230914079
 40
0.2647957378
 40
0.3003481243
 40
0.3756292057
 40
0.4549604776
 40
0.536329848
 40
0.6176319454
 40
0.6967644272
 40
0.771724474
 40
0.8070754154
 40
0.8407318224
 40
0.8725208955
 40
0.9023001394
 40
0.9299644348
 40
0.9554555411
 40
0.9787745847
 40
1.0
 40
1.0
 40
1.0
 40
1.0
 10
15.952499467
 20
12.0627851721
 30
0.0
 10
15.9533206331
 20
12.0627851726
 30
0.0
 10
15.9550024763
 20
12.062978345
 30
0.0
 10
15.9574707817
 20
12.0638331884
 30
0.0
 10
15.9598843774
 20
12.0652361146
 30
0.0
 10
15.9622269082
 20
12.0671674552
 30
0.0
 10
15.9644865661
 20
12.0696089709
 30
0.0
 10
15.9666502943
 20
12.0725417972
 30
0.0
 10
15.968704306
 20
12.0759445452
 30
0.0
 10
15.9706343671
 20
12.0797924355
 30
0.0
 10
15.9724264757
 20
12.0840571237
 30
0.0
 10
15.9740672314
 20
12.0887068209
 30
0.0
 10
15.9755443178
 20
12.0937066288
 30
0.0
 10
15.9773137788
 20
12.1009275677
 30
0.0
 10
15.9790173181
 20
12.1105562365
 30
0.0
 10
15.9802366928
 20
12.1226241898
 30
0.0
 10
15.9806294798
 20
12.1350565409
 30
0.0
 10
15.9801835942
 20
12.1474769131
 30
0.0
 10
15.9789127881
 20
12.1595092983
 30
0.0
 10
15.9771676213
 20
12.1690930257
 30
0.0
 10
15.975366297
 20
12.1762665382
 30
0.0
 10
15.9738677677
 20
12.1812239439
 30
0.0
 10
15.9722070951
 20
12.1858266355
 30
0.0
 10
15.9703967017
 20
12.1900401153
 30
0.0
 10
15.9684501643
 20
12.1938329584
 30
0.0
 10
15.9663812943
 20
12.1971774699
 30
0.0
 10
15.9642051047
 20
12.2000486451
 30
0.0
 10
15.9626198916
 20
12.2017082837
 30
0.0
 10
15.9618120439
 20
12.2024402057
 30
0.0
  0
SPLINE
  5
3B5
100
AcDbEntity
  8
02___PRT_ALL_AXES
100
AcDbSpline
 62
7
  6
CONTINUOUS
 70
0
 71
3
 72
20
 73
16
 74
0
 42
0.0000001
 43
0.0000001
 44
0.0000000001
 40
0.0
 40
0.0
 40
0.0
 40
0.0
 40
0.168412405
 40
0.3330177764
 40
0.4880378721
 40
0.560337624
 40
0.6283944745
 40
0.6917476794
 40
0.7500487618
 40
0.8030943298
 40
0.8508726646
 40
0.8936305416
 40
0.9319634547
 40
0.9669125447
 40
1.0
 40
1.0
 40
1.0
 40
1.0
 10
15.7069475248
 20
12.7894808265
 30
0.0
 10
15.7070104644
 20
12.7916189806
 30
0.0
 10
15.706966038
 20
12.7958539551
 30
0.0
 10
15.7064046982
 20
12.8020335644
 30
0.0
 10
15.7055263311
 20
12.8069419846
 30
0.0
 10
15.7045786293
 20
12.8105737397
 30
0.0
 10
15.7037821869
 20
12.8130372374
 30
0.0
 10
15.7028921679
 20
12.8152785642
 30
0.0
 10
15.7019176172
 20
12.8172748531
 30
0.0
 10
15.7008681843
 20
12.8190060657
 30
0.0
 10
15.6997534089
 20
12.8204551576
 30
0.0
 10
15.6985822087
 20
12.8216077121
 30
0.0
 10
15.6973617442
 20
12.8224504369
 30
0.0
 10
15.696101025
 20
12.8229682131
 30
0.0
 10
15.6952330792
 20
12.8230863077
 30
0.0
 10
15.6948128209
 20
12.8230863156
 30
0.0
  0
SPLINE
  5
3B6
100
AcDbEntity
  8
02___PRT_ALL_AXES
100
AcDbSpline
 62
7
  6
CONTINUOUS
 70
0
 71
3
 72
50
 73
46
 74
0
 42
0.0000001
 43
0.0000001
 44
0.0000000001
 40
0.0
 40
0.0
 40
0.0
 40
0.0
 40
0.0355785229
 40
0.0727512888
 40
0.1113293037
 40
0.1511071052
 40
0.1918659044
 40
0.233376456
 40
0.275401738
 40
0.3176995114
 40
0.3600248087
 40
0.402132388
 40
0.4437791841
 40
0.4847267856
 40
0.524743976
 40
0.5636093802
 40
0.6011142834
 40
0.6370657128
 40
0.6712899167
 40
0.7036364468
 40
0.7339831426
 40
0.7483798135
 40
0.7622470835
 40
0.7755808269
 40
0.7883802771
 40
0.8006484568
 40
0.8123926743
 40
0.8236250892
 40
0.8343633428
 40
0.8446312387
 40
0.854459435
 40
0.8729408238
 40
0.8817109706
 40
0.8902422379
 40
0.8986038672
 40
0.9068705485
 40
0.9151202056
 40
0.9234313568
 40
0.9318803942
 40
0.9405391496
 40
0.9494730264
 40
0.9587398211
 40
0.9683892058
 40
0.9784627413
 40
1.0
 40
1.0
 40
1.0
 40
1.0
 10
15.4874373658
 20
12.8458866407
 30
0.0
 10
15.4837528082
 20
12.8339634079
 30
0.0
 10
15.4768138109
 20
12.8093956527
 30
0.0
 10
15.4678371879
 20
12.7713806384
 30
0.0
 10
15.4601085851
 20
12.7315910476
 30
0.0
 10
15.4536813687
 20
12.6902983316
 30
0.0
 10
15.4485996086
 20
12.6477829834
 30
0.0
 10
15.4448982704
 20
12.604334523
 30
0.0
 10
15.4426028053
 20
12.5602488839
 30
0.0
 10
15.4417290063
 20
12.5158264869
 30
0.0
 10
15.4422828848
 20
12.4713700946
 30
0.0
 10
15.4442606301
 20
12.4271827097
 30
0.0
 10
15.4476486362
 20
12.3835654559
 30
0.0
 10
15.4524235988
 20
12.3408154742
 30
0.0
 10
15.4585526843
 20
12.2992238315
 30
0.0
 10
15.4659937703
 20
12.259073476
 30
0.0
 10
15.4746957776
 20
12.2206371584
 30
0.0
 10
15.4845990513
 20
12.1841756425
 30
0.0
 10
15.4956360107
 20
12.1499350853
 30
0.0
 10
15.5077314119
 20
12.118147513
 30
0.0
 10
15.5188121162
 20
12.0934602976
 30
0.0
 10
15.5281778902
 20
12.0751550964
 30
0.0
 10
15.5352900946
 20
12.0624110287
 30
0.0
 10
15.542601435
 20
12.0504314932
 30
0.0
 10
15.5500998448
 20
12.0392366833
 30
0.0
 10
15.5577728436
 20
12.028845515
 30
0.0
 10
15.5656077619
 20
12.0192755707
 30
0.0
 10
15.5735919675
 20
12.010543001
 30
0.0
 10
15.5817120488
 20
12.0026629939
 30
0.0
 10
15.589956855
 20
11.9956482723
 30
0.0
 10
15.6008678897
 20
11.9876333848
 30
0.0
 10
15.6122268198
 20
11.9811465988
 30
0.0
 10
15.6238979455
 20
11.976485814
 30
0.0
 10
15.6325558453
 20
11.9739669511
 30
0.0
 10
15.6412515324
 20
11.9723723628
 30
0.0
 10
15.6499687172
 20
11.9717060547
 30
0.0
 10
15.6586897007
 20
11.9719700707
 30
0.0
 10
15.6673968524
 20
11.9731636077
 30
0.0
 10
15.6760729396
 20
11.975283285
 30
0.0
 10
15.6847015909
 20
11.9783234627
 30
0.0
 10
15.6932674719
 20
11.9822767667
 30
0.0
 10
15.7017559606
 20
11.9871343533
 30
0.0
 10
15.7101538005
 20
11.9928866854
 30
0.0
 10
15.7214615932
 20
12.0019350421
 30
0.0
 10
15.729380912
 20
12.0097508774
 30
0.0
 10
15.7344641167
 20
12.0153393007
 30
0.0
  0
SPLINE
  5
3B7
100
AcDbEntity
  8
02___PRT_ALL_AXES
100
AcDbSpline
 62
7
  6
CONTINUOUS
 70
0
 71
3
 72
9
 73
5
 74
0
 42
0.0000001
 43
0.0000001
 44
0.0000000001
 40
0.0
 40
0.0
 40
0.0
 40
0.0
 40
0.490478488
 40
1.0
 40
1.0
 40
1.0
 40
1.0
 10
15.4777818058
 20
12.8507818192
 30
0.0
 10
15.4746192331
 20
12.8405477301
 30
0.0
 10
15.4686027795
 20
12.8195471127
 30
0.0
 10
15.4633755662
 20
12.798337486
 30
0.0
 10
15.4608981212
 20
12.7874892971
 30
0.0
  0
SPLINE
  5
3B8
100
AcDbEntity
  8
02___PRT_ALL_AXES
100
AcDbSpline
 62
7
  6
CONTINUOUS
 70
0
 71
3
 72
39
 73
35
 74
0
 42
0.0000001
 43
0.0000001
 44
0.0000000001
 40
0.0
 40
0.0
 40
0.0
 40
0.0
 40
0.0356478962
 40
0.0722680157
 40
0.1097355918
 40
0.1479200118
 40
0.1866858669
 40
0.2258939413
 40
0.3050601043
 40
0.3842712794
 40
0.423535339
 40
0.4623790748
 40
0.5006627681
 40
0.5382503546
 40
0.5750104103
 40
0.6108171909
 40
0.6455517569
 40
0.6791031702
 40
0.7113698524
 40
0.7422611302
 40
0.7716990204
 40
0.7996204173
 40
0.8259797418
 40
0.8507522646
 40
0.87393834
 40
0.8955686976
 40
0.9157110271
 40
0.9344777033
 40
0.9520338353
 40
0.9686036833
 40
0.9766116289
 40
0.9844843889
 40
0.9922653887
 40
1.0
 40
1.0
 40
1.0
 40
1.0
 10
15.4608981212
 20
12.7874892971
 30
0.0
 10
15.4585049211
 20
12.7770099978
 30
0.0
 10
15.4540044415
 20
12.7556839977
 30
0.0
 10
15.4481699171
 20
12.7231085712
 30
0.0
 10
15.4431782933
 20
12.6896198142
 30
0.0
 10
15.4390512923
 20
12.6553621813
 30
0.0
 10
15.4358066105
 20
12.6204825856
 30
0.0
 10
15.4326662994
 20
12.5731988771
 30
0.0
 10
15.4310343376
 20
12.5136144389
 30
0.0
 10
15.4324309766
 20
12.4540072145
 30
0.0
 10
15.4353828999
 20
12.4066573538
 30
0.0
 10
15.4384891984
 20
12.3716946149
 30
0.0
 10
15.4424802554
 20
12.3373306805
 30
0.0
 10
15.4473389351
 20
12.3037130574
 30
0.0
 10
15.453044184
 20
12.2709862942
 30
0.0
 10
15.4595713527
 20
12.2392909466
 30
0.0
 10
15.4668922269
 20
12.2087630481
 30
0.0
 10
15.4749752193
 20
12.179533475
 30
0.0
 10
15.4837855079
 20
12.1517273517
 30
0.0
 10
15.4932852272
 20
12.1254634656
 30
0.0
 10
15.5034337385
 20
12.1008537185
 30
0.0
 10
15.5141878842
 20
12.0780025861
 30
0.0
 10
15.5255023744
 20
12.057006643
 30
0.0
 10
15.5373302864
 20
12.0379541765
 30
0.0
 10
15.5496235826
 20
12.0209249388
 30
0.0
 10
15.5623340093
 20
12.005990225
 30
0.0
 10
15.5754133513
 20
11.9932135436
 30
0.0
 10
15.5888152533
 20
11.9826517771
 30
0.0
 10
15.6024892652
 20
11.9743581626
 30
0.0
 10
15.6142084855
 20
11.9693213473
 30
0.0
 10
15.6235965845
 20
11.9665314551
 30
0.0
 10
15.6305845064
 20
11.9650508898
 30
0.0
 10
15.6375884282
 20
11.9641617679
 30
0.0
 10
15.6422693184
 20
11.9639638732
 30
0.0
 10
15.6446015766
 20
11.9639638709
 30
0.0
  0
SPLINE
  5
3B9
100
AcDbEntity
  8
02___PRT_ALL_AXES
100
AcDbSpline
 62
7
  6
CONTINUOUS
 70
0
 71
3
 72
15
 73
11
 74
0
 42
0.0000001
 43
0.0000001
 44
0.0000000001
 40
0.0
 40
0.0
 40
0.0
 40
0.0
 40
0.1034576195
 40
0.2131649809
 40
0.3291661681
 40
0.4514229939
 40
0.5798274591
 40
0.7142119
 40
0.8543572706
 40
1.0
 40
1.0
 40
1.0
 40
1.0
 10
15.5763105273
 20
11.4033763761
 30
0.0
 10
15.5847585733
 20
11.4136902088
 30
0.0
 10
15.6013823109
 20
11.4355903657
 30
0.0
 10
15.6248386855
 20
11.4709611691
 30
0.0
 10
15.6474704352
 20
11.5096970529
 30
0.0
 10
15.6692046892
 20
11.5516722385
 30
0.0
 10
15.6899730784
 20
11.5967532846
 30
0.0
 10
15.7097090421
 20
11.6447956655
 30
0.0
 10
15.7283488914
 20
11.6956442754
 30
0.0
 10
15.739793029
 20
11.7306580343
 30
0.0
 10
15.7453343156
 20
11.7485896442
 30
0.0
  0
ENDSEC
  0
SECTION
  2
OBJECTS
  0
DICTIONARY
  5
C
100
AcDbDictionary
280
0
281
1
  3
ACAD_GROUP
350
D
  3
ACAD_MLINESTYLE
350
17
  3
ACAD_LAYOUT
350
1A
  3
ACAD_PLOTSETTINGS
350
19
  3
ACAD_PLOTSTYLENAME
350
E
  0
DICTIONARY
  5
D
102
{ACAD_REACTORS
330
C
102
}
100
AcDbDictionary
280
0
281
1
  0
ACDBDICTIONARYWDFLT
  5
E
102
{ACAD_REACTORS
330
C
102
}
100
AcDbDictionary
281
1
  3
Normal
350
F
100
AcDbDictionaryWithDefault
340
F
  0
DICTIONARY
  5
17
102
{ACAD_REACTORS
330
C
102
}
100
AcDbDictionary
280
0
281
1
  3
Standard
350
18
  0
DICTIONARY
  5
19
102
{ACAD_REACTORS
330
C
102
}
100
AcDbDictionary
281
1
  0
DICTIONARY
  5
1A
102
{ACAD_REACTORS
330
C
102
}
100
AcDbDictionary
281
1
  3
Model
350
3BA
  3
Layout1
350
3BB
  0
ACDBPLACEHOLDER
  5
F
102
{ACAD_REACTORS
330
E
102
}
  0
MLINESTYLE
  5
18
102
{ACAD_REACTORS
330
17
102
}
100
AcDbMlineStyle
  2
STANDARD
 70
0
  3

 62
256
 51
90.0
 52
90.0
 71
2
 49
0.5
 62
256
  6
BYLAYER
 49
-0.5
 62
256
  6
BYLAYER
  0
LAYOUT
  5
3BA
102
{ACAD_REACTORS
330
1A
102
}
100
AcDbPlotSettings
  1

  2
none_device
  4
ANSI_C_(22.00_x_17.00_Inches)
  6

 40
0.0
 41
0.0
 42
0.0
 43
0.0
 44
558.8
 45
431.8
 46
0.0
 47
0.0
 48
0.0
 49
0.0
140
0.0
141
0.0
142
1.0
143
1.0
 70
1024
 72
0
 73
0
 74
0
  7

 75
0
147
1.0
148
0.0
149
0.0
100
AcDbLayout
  1
Model
 70
0
 71
0
 10
0.0
 20
0.0
 11
22.0
 21
17.0
 12
0.0
 22
0.0
 32
0.0
 14
0.0
 24
0.0
 34
0.0
 15
0.0
 25
0.0
 35
0.0
146
0.0
 13
0.0
 23
0.0
 33
0.0
 16
1.0
 26
0.0
 36
0.0
 17
0.0
 27
1.0
 37
0.0
 76
0
330
222
345
0
346
0
  0
LAYOUT
  5
3BB
102
{ACAD_REACTORS
330
1A
102
}
100
AcDbPlotSettings
  1

  2
none_device
  4
ANSI_C_(22.00_x_17.00_Inches)
  6

 40
0.0
 41
0.0
 42
0.0
 43
0.0
 44
558.8
 45
431.8
 46
0.0
 47
0.0
 48
0.0
 49
0.0
140
0.0
141
0.0
142
1.0
143
1.0
 70
0
 72
0
 73
0
 74
0
  7

 75
0
147
1.0
148
0.0
149
0.0
100
AcDbLayout
  1
Layout1
 70
0
 71
1
 10
0.0
 20
0.0
 11
22.0
 21
17.0
 12
0.0
 22
0.0
 32
0.0
 14
0.0
 24
0.0
 34
0.0
 15
0.0
 25
0.0
 35
0.0
146
0.0
 13
0.0
 23
0.0
 33
0.0
 16
1.0
 26
0.0
 36
0.0
 17
0.0
 27
1.0
 37
0.0
 76
0
330
223
345
0
346
0
  0
ENDSEC
  0
EOF