999
DXF file: _cgs_temp_output.dxf
999
Pro/ENGINEER 2016360 by Parametric Technology Corporation
  0
SECTION
  2
HEADER
  9
$ACADVER
  1
AC1021
  9
$DWGCODEPAGE
  3
ANSI_1252
  9
$EXTMAX
 10
22.0
 20
17.0
 30
0.0
  9
$EXTMIN
 10
0.0
 20
0.0
 30
0.0
  9
$LIMMIN
 10
0.0
 20
0.0
  9
$LIMMAX
 10
22.0
 20
17.0
  9
$VIEWCTR
 10
11.0
 20
8.5
  9
$VIEWSIZE
 40
17.0
  9
$CLAYER
  8
0
  9
$LTSCALE
 40
1.21
  9
$CELTYPE
  6
BYLAYER
  9
$DIMSCALE
 40
1.0
  9
$DIMASZ
 40
0.1875
  9
$DIMEXO
 40
0.0625
  9
$DIMDLI
 40
0.836
  9
$DIMEXE
 40
0.125
  9
$DIMCEN
 40
0.198
  9
$DIMLFAC
 40
1.0
  9
$DIMBLK
  1
_CLOSED
  9
$DIMALT
 70
0
  9
$DIMALTF
 40
25.4
  9
$DIMTXT
 40
0.15625
  9
$DIMTOL
 70
0
  9
$DIMLIM
 70
0
  9
$DIMTFAC
 40
1.0
  9
$DIMGAP
 40
0.09
  9
$DIMDSEP
 70
46
  9
$AUNITS
 70
0
  9
$PDMODE
 70
3
  9
$PDSIZE
 40
0.3125
  9
$HANDSEED
  5
2DF
  9
$TILEMODE
 70
1
  9
$MEASUREMENT
 70
0
  9
$INSUNITS
 70
1
  0
ENDSEC
  0
SECTION
  2
CLASSES
  0
CLASS
  1
ACDBDICTIONARYWDFLT
  2
AcDbDictionaryWithDefault
  3
AutoCAD 2000
 90
0
 91
1
280
0
281
0
  0
CLASS
  1
ACDBPLACEHOLDER
  2
AcDbPlaceHolder
  3
AutoCAD 2000
 90
0
 91
1
280
0
281
0
  0
CLASS
  1
LAYOUT
  2
AcDbLayout
  3
AutoCAD 2000
 90
0
 91
0
280
0
281
0
  0
ENDSEC
  0
SECTION
  2
TABLES
  0
TABLE
  2
VPORT
  5
8
100
AcDbSymbolTable
 70
2
  0
VPORT
  5
1F4
100
AcDbSymbolTableRecord
100
AcDbViewportTableRecord
  2
*ACTIVE
 70
0
 10
0.0
 20
0.0
 11
1.0
 21
1.0
 12
11.0
 22
8.5
 13
0.0
 23
0.0
 14
1.0
 24
1.0
 15
0.0
 25
0.0
 16
0.0
 26
0.0
 36
1.0
 17
0.0
 27
0.0
 37
0.0
 40
17.0
 41
1.2941176471
 42
50.0
 43
0.0
 44
0.0
 50
0.0
 51
0.0
 71
0
 72
100
 73
1
 74
1
 75
0
 76
0
 77
0
 78
0
  0
ENDTAB
  0
TABLE
  2
LTYPE
  5
5
100
AcDbSymbolTable
 70
6
  0
LTYPE
  5
14
100
AcDbSymbolTableRecord
100
AcDbLinetypeTableRecord
  2
BYBLOCK
 70
0
  3

 72
65
 73
0
 40
0.0
  0
LTYPE
  5
15
100
AcDbSymbolTableRecord
100
AcDbLinetypeTableRecord
  2
BYLAYER
 70
0
  3

 72
65
 73
0
 40
0.0
  0
LTYPE
  5
16
100
AcDbSymbolTableRecord
100
AcDbLinetypeTableRecord
  2
CONTINUOUS
 70
64
  3
Solid line
 72
65
 73
0
 40
0.0
  0
LTYPE
  5
1F5
100
AcDbSymbolTableRecord
100
AcDbLinetypeTableRecord
  2
CENTER
 70
64
  3
____ _ ____ _ ____ _ ____ _ ____ _ ____ _ ____
 72
65
 73
4
 40
0.6
 49
0.375
 74
0
 49
-0.075
 74
0
 49
0.075
 74
0
 49
-0.075
 74
0
  0
LTYPE
  5
1F6
100
AcDbSymbolTableRecord
100
AcDbLinetypeTableRecord
  2
HIDDEN
 70
64
  3
- - - - - - - - - - - - - - - - - - - -
 72
65
 73
2
 40
0.2
 49
0.1
 74
0
 49
-0.1
 74
0
  0
LTYPE
  5
1F7
100
AcDbSymbolTableRecord
100
AcDbLinetypeTableRecord
  2
PHANTOM
 70
64
  3
_____ _ _ _____ _ _ _____ _ _ _____
 72
65
 73
6
 40
0.8
 49
0.45
 74
0
 49
-0.05
 74
0
 49
0.1
 74
0
 49
-0.05
 74
0
 49
0.1
 74
0
 49
-0.05
 74
0
  0
LTYPE
  5
1F8
100
AcDbSymbolTableRecord
100
AcDbLinetypeTableRecord
  2
DOT
 70
64
  3
. . . . . . . . . . . . . . . . . . . .
 72
65
 73
2
 40
0.2
 49
0.1
 74
0
 49
-0.1
 74
0
  0
LTYPE
  5
1F9
100
AcDbSymbolTableRecord
100
AcDbLinetypeTableRecord
  2
DASHED
 70
64
  3
- - - - - - - - - - - - - - - - - - - -
 72
65
 73
2
 40
0.2
 49
0.1
 74
0
 49
-0.1
 74
0
  0
ENDTAB
  0
TABLE
  2
LAYER
  5
2
100
AcDbSymbolTable
 70
36
  0
LAYER
  5
10
100
AcDbSymbolTableRecord
100
AcDbLayerTableRecord
  2
0
 70
0
 62
7
  6
CONTINUOUS
370
-3
390
F
  0
LAYER
  5
1FA
100
AcDbSymbolTableRecord
100
AcDbLayerTableRecord
  2
DEFAULT_1
 70
0
 62
7
  6
CENTER
370
-3
390
F
  0
LAYER
  5
1FB
100
AcDbSymbolTableRecord
100
AcDbLayerTableRecord
  2
DEFAULT_2
 70
0
 62
8
  6
HIDDEN
370
-3
390
F
  0
LAYER
  5
1FC
100
AcDbSymbolTableRecord
100
AcDbLayerTableRecord
  2
DEFAULT_3
 70
0
 62
7
  6
PHANTOM
370
-3
390
F
  0
LAYER
  5
1FD
100
AcDbSymbolTableRecord
100
AcDbLayerTableRecord
  2
01_ALL_DTM_PLN
 70
0
 62
7
  6
CONTINUOUS
370
-3
390
F
  0
LAYER
  5
1FE
100
AcDbSymbolTableRecord
100
AcDbLayerTableRecord
  2
01__ASM_ALL_DTM_PLN
 70
0
 62
7
  6
CONTINUOUS
370
-3
390
F
  0
LAYER
  5
1FF
100
AcDbSymbolTableRecord
100
AcDbLayerTableRecord
  2
01__ASM_DEF_DTM_PLN
 70
0
 62
7
  6
CONTINUOUS
370
-3
390
F
  0
LAYER
  5
200
100
AcDbSymbolTableRecord
100
AcDbLayerTableRecord
  2
01___PRT_ALL_DTM_PLN
 70
0
 62
7
  6
CONTINUOUS
370
-3
390
F
  0
LAYER
  5
201
100
AcDbSymbolTableRecord
100
AcDbLayerTableRecord
  2
01___PRT_DEF_DTM_PLN
 70
0
 62
7
  6
CONTINUOUS
370
-3
390
F
  0
LAYER
  5
202
100
AcDbSymbolTableRecord
100
AcDbLayerTableRecord
  2
02_ALL_AXES
 70
0
 62
7
  6
CONTINUOUS
370
-3
390
F
  0
LAYER
  5
203
100
AcDbSymbolTableRecord
100
AcDbLayerTableRecord
  2
02__ASM_ALL_AXES
 70
0
 62
7
  6
CONTINUOUS
370
-3
390
F
  0
LAYER
  5
204
100
AcDbSymbolTableRecord
100
AcDbLayerTableRecord
  2
02___PRT_ALL_AXES
 70
0
 62
7
  6
CONTINUOUS
370
-3
390
F
  0
LAYER
  5
205
100
AcDbSymbolTableRecord
100
AcDbLayerTableRecord
  2
03_ALL_CURVES
 70
0
 62
7
  6
CONTINUOUS
370
-3
390
F
  0
LAYER
  5
206
100
AcDbSymbolTableRecord
100
AcDbLayerTableRecord
  2
03__ASM_ALL_CURVES
 70
0
 62
7
  6
CONTINUOUS
370
-3
390
F
  0
LAYER
  5
207
100
AcDbSymbolTableRecord
100
AcDbLayerTableRecord
  2
03___PRT_ALL_CURVES
 70
0
 62
7
  6
CONTINUOUS
370
-3
390
F
  0
LAYER
  5
208
100
AcDbSymbolTableRecord
100
AcDbLayerTableRecord
  2
04_ALL_DTM_PNT
 70
0
 62
7
  6
CONTINUOUS
370
-3
390
F
  0
LAYER
  5
209
100
AcDbSymbolTableRecord
100
AcDbLayerTableRecord
  2
04__ASM_ALL_DTM_PNT
 70
0
 62
7
  6
CONTINUOUS
370
-3
390
F
  0
LAYER
  5
20A
100
AcDbSymbolTableRecord
100
AcDbLayerTableRecord
  2
04___PRT_ALL_DTM_PNT
 70
0
 62
7
  6
CONTINUOUS
370
-3
390
F
  0
LAYER
  5
20B
100
AcDbSymbolTableRecord
100
AcDbLayerTableRecord
  2
05_ALL_DTM_CSYS
 70
0
 62
7
  6
CONTINUOUS
370
-3
390
F
  0
LAYER
  5
20C
100
AcDbSymbolTableRecord
100
AcDbLayerTableRecord
  2
05__ASM_ALL_DTM_CSYS
 70
0
 62
7
  6
CONTINUOUS
370
-3
390
F
  0
LAYER
  5
20D
100
AcDbSymbolTableRecord
100
AcDbLayerTableRecord
  2
05__ASM_DEF_DTM_CSYS
 70
0
 62
7
  6
CONTINUOUS
370
-3
390
F
  0
LAYER
  5
20E
100
AcDbSymbolTableRecord
100
AcDbLayerTableRecord
  2
05___PRT_ALL_DTM_CSYS
 70
0
 62
7
  6
CONTINUOUS
370
-3
390
F
  0
LAYER
  5
20F
100
AcDbSymbolTableRecord
100
AcDbLayerTableRecord
  2
05___PRT_DEF_DTM_CSYS
 70
0
 62
7
  6
CONTINUOUS
370
-3
390
F
  0
LAYER
  5
210
100
AcDbSymbolTableRecord
100
AcDbLayerTableRecord
  2
06_ALL_SURFS
 70
0
 62
7
  6
CONTINUOUS
370
-3
390
F
  0
LAYER
  5
211
100
AcDbSymbolTableRecord
100
AcDbLayerTableRecord
  2
06__ASM_ALL_SURFS
 70
0
 62
7
  6
CONTINUOUS
370
-3
390
F
  0
LAYER
  5
212
100
AcDbSymbolTableRecord
100
AcDbLayerTableRecord
  2
06___PRT_ALL_SURFS
 70
0
 62
7
  6
CONTINUOUS
370
-3
390
F
  0
LAYER
  5
213
100
AcDbSymbolTableRecord
100
AcDbLayerTableRecord
  2
07__ASM_ALL_SKELETONS
 70
0
 62
7
  6
CONTINUOUS
370
-3
390
F
  0
LAYER
  5
214
100
AcDbSymbolTableRecord
100
AcDbLayerTableRecord
  2
LAYER_AXIS
 70
0
 62
7
  6
CONTINUOUS
370
-3
390
F
  0
LAYER
  5
215
100
AcDbSymbolTableRecord
100
AcDbLayerTableRecord
  2
LAYER_CHAMFER_FEAT
 70
0
 62
7
  6
CONTINUOUS
370
-3
390
F
  0
LAYER
  5
216
100
AcDbSymbolTableRecord
100
AcDbLayerTableRecord
  2
LAYER_CUT_FEAT
 70
0
 62
7
  6
CONTINUOUS
370
-3
390
F
  0
LAYER
  5
217
100
AcDbSymbolTableRecord
100
AcDbLayerTableRecord
  2
LAYER_DATUM
 70
0
 62
7
  6
CONTINUOUS
370
-3
390
F
  0
LAYER
  5
218
100
AcDbSymbolTableRecord
100
AcDbLayerTableRecord
  2
LAYER_DIM
 70
0
 62
7
  6
CONTINUOUS
370
-3
390
F
  0
LAYER
  5
219
100
AcDbSymbolTableRecord
100
AcDbLayerTableRecord
  2
LAYER_FEATURE
 70
0
 62
7
  6
CONTINUOUS
370
-3
390
F
  0
LAYER
  5
21A
100
AcDbSymbolTableRecord
100
AcDbLayerTableRecord
  2
LAYER_GEOM_FEAT
 70
0
 62
7
  6
CONTINUOUS
370
-3
390
F
  0
LAYER
  5
21B
100
AcDbSymbolTableRecord
100
AcDbLayerTableRecord
  2
LAYER_NOGEOM_FEAT
 70
0
 62
7
  6
CONTINUOUS
370
-3
390
F
  0
LAYER
  5
21C
100
AcDbSymbolTableRecord
100
AcDbLayerTableRecord
  2
LAYER_PARAMETER_DIM
 70
0
 62
7
  6
CONTINUOUS
370
-3
390
F
  0
LAYER
  5
21D
100
AcDbSymbolTableRecord
100
AcDbLayerTableRecord
  2
LAYER_PROTRUSION_FEAT
 70
0
 62
7
  6
CONTINUOUS
370
-3
390
F
  0
LAYER
  5
21E
100
AcDbSymbolTableRecord
100
AcDbLayerTableRecord
  2
LAYER_QUILT
 70
0
 62
7
  6
CONTINUOUS
370
-3
390
F
  0
LAYER
  5
21F
100
AcDbSymbolTableRecord
100
AcDbLayerTableRecord
  2
LAYER_ROUND_FEAT
 70
0
 62
7
  6
CONTINUOUS
370
-3
390
F
  0
ENDTAB
  0
TABLE
  2
STYLE
  5
3
100
AcDbSymbolTable
 70
1
  0
STYLE
  5
11
100
AcDbSymbolTableRecord
100
AcDbTextStyleTableRecord
  2
STANDARD
 70
0
 40
0.0
 41
0.8
 50
0.0
 71
0
 42
0.2
  3
txt
  4

  0
STYLE
  5
220
100
AcDbSymbolTableRecord
100
AcDbTextStyleTableRecord
  2
TEXTSTYLE_1
 70
0
 40
0.0
 41
0.8
 50
0.0
 71
0
 42
0.2
  3
gdt
  4

  0
ENDTAB
  0
TABLE
  2
VIEW
  5
6
100
AcDbSymbolTable
 70
0
  0
ENDTAB
  0
TABLE
  2
UCS
  5
7
100
AcDbSymbolTable
 70
0
  0
ENDTAB
  0
TABLE
  2
APPID
  5
9
100
AcDbSymbolTable
 70
1
  0
APPID
  5
221
100
AcDbSymbolTableRecord
100
AcDbRegAppTableRecord
  2
ACAD
 70
0
  0
ENDTAB
  0
TABLE
  2
BLOCK_RECORD
  5
1
100
AcDbSymbolTable
 70
0
  0
BLOCK_RECORD
  5
222
100
AcDbSymbolTableRecord
100
AcDbBlockTableRecord
  2
*Model_Space
  0
BLOCK_RECORD
  5
223
100
AcDbSymbolTableRecord
100
AcDbBlockTableRecord
  2
*Paper_Space
  0
ENDTAB
  0
TABLE
  2
DIMSTYLE
  5
A
100
AcDbSymbolTable
 70
1
100
AcDbDimStyleTable
 71
0
  0
DIMSTYLE
105
224
100
AcDbSymbolTableRecord
100
AcDbDimStyleTableRecord
  2
STANDARD
 70
0
  3

  4

 40
1.0
 41
0.1875
 42
0.0625
 43
0.38
 44
0.125
 45
0.0
 46
0.0
 47
0.0001
 48
0.0001
140
0.15625
141
0.09
142
0.0
143
25.4
144
1.0
145
0.0
146
1.0
147
0.09
 71
0.0
 72
0.0
 73
1
 74
1
 75
0
 76
0
 77
0
 78
4
 79
1
170
0
171
3
172
0
173
0
174
0
175
0
176
0
177
0
178
0
270
2
179
4
271
4
272
4
273
2
274
2
275
0
280
0
281
0
282
0
283
1
284
4
285
0
286
0
287
3
288
0
340
11
278
46
  0
ENDTAB
  0
ENDSEC
  0
SECTION
  2
BLOCKS
  0
BLOCK
  5
20
100
AcDbEntity
  8
0
100
AcDbBlockBegin
  2
*Model_Space
 70
0
 10
0.0
 20
0.0
 30
0.0
  3
*Model_Space
  1

  0
ENDBLK
  5
21
100
AcDbEntity
  8
0
100
AcDbBlockEnd
  0
BLOCK
  5
1C
100
AcDbEntity
  8
0
100
AcDbBlockBegin
  2
*Paper_Space
 70
0
 10
0.0
 20
0.0
 30
0.0
  3
*Paper_Space
  1

  0
ENDBLK
  5
1D
100
AcDbEntity
  8
0
100
AcDbBlockEnd
  0
ENDSEC
  0
SECTION
  2
ENTITIES
  0
MTEXT
  5
225
100
AcDbEntity
  8
0
100
AcDbMText
 62
7
  6
CONTINUOUS
  7
STANDARD
 71
1
 72
1
 10
15.9560215477
 20
0.9479130325
 30
0.0
 11
1.0
 21
0.0
 31
0.0
 44
0.9
  1
SCALE: 1:0.500
 40
0.3
 41
3.36
  0
LINE
  5
226
100
AcDbEntity
  8
0
100
AcDbLine
 62
7
  6
CONTINUOUS
 10
0.0
 20
0.0
 11
0.0
 21
17.0
  0
LINE
  5
227
100
AcDbEntity
  8
0
100
AcDbLine
 62
7
  6
CONTINUOUS
 10
0.0
 20
0.0
 11
22.0
 21
0.0
  0
LINE
  5
228
100
AcDbEntity
  8
0
100
AcDbLine
 62
7
  6
CONTINUOUS
 10
0.0
 20
17.0
 11
22.0
 21
17.0
  0
LINE
  5
229
100
AcDbEntity
  8
0
100
AcDbLine
 62
7
  6
CONTINUOUS
 10
22.0
 20
0.0
 11
22.0
 21
17.0
  0
LINE
  5
22A
100
AcDbEntity
  8
LAYER_FEATURE
100
AcDbLine
 62
7
  6
CONTINUOUS
 10
6.5913672762
 20
4.1676198968
 11
6.5453619494
 21
4.1676198968
  0
LINE
  5
22B
100
AcDbEntity
  8
LAYER_FEATURE
100
AcDbLine
 62
7
  6
CONTINUOUS
 10
5.6693672762
 20
4.1676198968
 11
5.7153726029
 21
4.1676198968
  0
LINE
  5
22C
100
AcDbEntity
  8
02___PRT_ALL_AXES
100
AcDbLine
 62
7
  6
CONTINUOUS
 10
5.7353672762
 20
4.2826198968
 11
6.5253672762
 21
4.2826198968
  0
LINE
  5
22D
100
AcDbEntity
  8
02___PRT_ALL_AXES
100
AcDbLine
 62
7
  6
CONTINUOUS
 10
6.5913672762
 20
6.6028358927
 11
6.5953672762
 21
6.6041198968
  0
LINE
  5
22E
100
AcDbEntity
  8
02___PRT_ALL_AXES
100
AcDbLine
 62
7
  6
CONTINUOUS
 10
6.5913672762
 20
4.4374039008
 11
6.5953672762
 21
4.4361198968
  0
LINE
  5
22F
100
AcDbEntity
  8
02___PRT_ALL_AXES
100
AcDbLine
 62
7
  6
CONTINUOUS
 10
5.6653672762
 20
4.4361198968
 11
5.6653672762
 21
6.6041198968
  0
LINE
  5
230
100
AcDbEntity
  8
LAYER_FEATURE
100
AcDbLine
 62
7
  6
CONTINUOUS
 10
5.6693672762
 20
6.8726198968
 11
5.6693672762
 21
4.1676198968
  0
LINE
  5
231
100
AcDbEntity
  8
LAYER_FEATURE
100
AcDbLine
 62
7
  6
CONTINUOUS
 10
5.7153726029
 20
6.8726198968
 11
5.7153726029
 21
4.1676198968
  0
LINE
  5
232
100
AcDbEntity
  8
LAYER_FEATURE
100
AcDbLine
 62
7
  6
CONTINUOUS
 10
5.7353672762
 20
6.778552355
 11
5.7353672762
 21
4.2616874385
  0
LINE
  5
233
100
AcDbEntity
  8
LAYER_FEATURE
100
AcDbLine
 62
7
  6
CONTINUOUS
 10
5.7153726029
 20
4.1676198968
 11
5.7353672762
 21
4.2616874385
  0
LINE
  5
234
100
AcDbEntity
  8
LAYER_FEATURE
100
AcDbLine
 62
7
  6
CONTINUOUS
 10
5.7153726029
 20
6.8726198968
 11
5.7353672762
 21
6.778552355
  0
LINE
  5
235
100
AcDbEntity
  8
LAYER_FEATURE
100
AcDbLine
 62
7
  6
CONTINUOUS
 10
6.5453619494
 20
6.8726198968
 11
6.5253672762
 21
6.778552355
  0
LINE
  5
236
100
AcDbEntity
  8
LAYER_FEATURE
100
AcDbLine
 62
7
  6
CONTINUOUS
 10
6.5453619494
 20
4.1676198968
 11
6.5253672762
 21
4.2616874385
  0
LINE
  5
237
100
AcDbEntity
  8
LAYER_FEATURE
100
AcDbLine
 62
7
  6
CONTINUOUS
 10
6.5253672762
 20
6.778552355
 11
6.5253672762
 21
4.2616874385
  0
LINE
  5
238
100
AcDbEntity
  8
LAYER_FEATURE
100
AcDbLine
 62
7
  6
CONTINUOUS
 10
6.5453619494
 20
6.8726198968
 11
6.5453619494
 21
4.1676198968
  0
LINE
  5
239
100
AcDbEntity
  8
LAYER_FEATURE
100
AcDbLine
 62
7
  6
CONTINUOUS
 10
6.5913672762
 20
6.8726198968
 11
6.5913672762
 21
4.1676198968
  0
LINE
  5
23A
100
AcDbEntity
  8
02___PRT_ALL_AXES
100
AcDbLine
 62
7
  6
CONTINUOUS
 10
6.5953672762
 20
4.4361198968
 11
6.5953672762
 21
6.6041198968
  0
LINE
  5
23B
100
AcDbEntity
  8
02___PRT_ALL_AXES
100
AcDbLine
 62
7
  6
CONTINUOUS
 10
5.6653672762
 20
4.4361198968
 11
5.6693672762
 21
4.4374039008
  0
LINE
  5
23C
100
AcDbEntity
  8
02___PRT_ALL_AXES
100
AcDbLine
 62
7
  6
CONTINUOUS
 10
5.6653672762
 20
6.6041198968
 11
5.6693672762
 21
6.6028358927
  0
LINE
  5
23D
100
AcDbEntity
  8
LAYER_FEATURE
100
AcDbLine
 62
7
  6
CONTINUOUS
 10
5.7353672762
 20
6.6452540344
 11
6.5253672762
 21
6.6452540344
  0
LINE
  5
23E
100
AcDbEntity
  8
0
100
AcDbLine
 62
7
  6
CONTINUOUS
 10
5.7353672762
 20
6.6462100375
 11
6.5253672762
 21
6.6462100375
  0
LINE
  5
23F
100
AcDbEntity
  8
LAYER_FEATURE
100
AcDbLine
 62
7
  6
CONTINUOUS
 10
5.7353672762
 20
6.6930181951
 11
6.5253672762
 21
6.6930181951
  0
LINE
  5
240
100
AcDbEntity
  8
LAYER_FEATURE
100
AcDbLine
 62
7
  6
CONTINUOUS
 10
5.7353672762
 20
6.7009595823
 11
6.5253672762
 21
6.7009595823
  0
LINE
  5
241
100
AcDbEntity
  8
0
100
AcDbLine
 62
7
  6
CONTINUOUS
 10
5.7353672762
 20
6.7013872823
 11
6.5253672762
 21
6.7013872823
  0
LINE
  5
242
100
AcDbEntity
  8
LAYER_FEATURE
100
AcDbLine
 62
7
  6
CONTINUOUS
 10
5.7353672762
 20
6.7332270952
 11
6.5253672762
 21
6.7332270952
  0
LINE
  5
243
100
AcDbEntity
  8
LAYER_FEATURE
100
AcDbLine
 62
7
  6
CONTINUOUS
 10
5.7353672762
 20
6.738042583
 11
6.5253672762
 21
6.738042583
  0
LINE
  5
244
100
AcDbEntity
  8
0
100
AcDbLine
 62
7
  6
CONTINUOUS
 10
5.7353672762
 20
6.7381499312
 11
6.5253672762
 21
6.7381499312
  0
LINE
  5
245
100
AcDbEntity
  8
LAYER_FEATURE
100
AcDbLine
 62
7
  6
CONTINUOUS
 10
5.7353672762
 20
6.7543045701
 11
6.5253672762
 21
6.7543045701
  0
LINE
  5
246
100
AcDbEntity
  8
LAYER_FEATURE
100
AcDbLine
 62
7
  6
CONTINUOUS
 10
5.7353672762
 20
6.7559182154
 11
6.5253672762
 21
6.7559182154
  0
LINE
  5
247
100
AcDbEntity
  8
LAYER_FEATURE
100
AcDbLine
 62
7
  6
CONTINUOUS
 10
6.5913672762
 20
6.8726198968
 11
6.5453619494
 21
6.8726198968
  0
LINE
  5
248
100
AcDbEntity
  8
LAYER_FEATURE
100
AcDbLine
 62
7
  6
CONTINUOUS
 10
5.6693672762
 20
6.8726198968
 11
5.7153726029
 21
6.8726198968
  0
LINE
  5
249
100
AcDbEntity
  8
LAYER_FEATURE
100
AcDbLine
 62
7
  6
CONTINUOUS
 10
5.6098720839
 20
11.2475477814
 11
5.6558774106
 21
11.2475477814
  0
LINE
  5
24A
100
AcDbEntity
  8
LAYER_FEATURE
100
AcDbLine
 62
7
  6
CONTINUOUS
 10
6.4858667571
 20
11.2475477814
 11
6.5318720839
 21
11.2475477814
  0
LINE
  5
24B
100
AcDbEntity
  8
02___PRT_ALL_AXES
100
AcDbLine
 62
7
  6
CONTINUOUS
 10
5.6758720839
 20
11.3625477814
 11
6.4658720839
 21
11.3625477814
  0
LINE
  5
24C
100
AcDbEntity
  8
02___PRT_ALL_AXES
100
AcDbLine
 62
7
  6
CONTINUOUS
 10
6.5358720839
 20
13.6840477814
 11
6.5318720839
 21
13.6827637773
  0
LINE
  5
24D
100
AcDbEntity
  8
02___PRT_ALL_AXES
100
AcDbLine
 62
7
  6
CONTINUOUS
 10
6.5358720839
 20
11.5160477814
 11
6.5318720839
 21
11.5173317854
  0
LINE
  5
24E
100
AcDbEntity
  8
02___PRT_ALL_AXES
100
AcDbLine
 62
7
  6
CONTINUOUS
 10
5.6058720839
 20
11.5160477814
 11
5.6058720839
 21
13.6840477814
  0
LINE
  5
24F
100
AcDbEntity
  8
LAYER_FEATURE
100
AcDbLine
 62
7
  6
CONTINUOUS
 10
5.6758720839
 20
12.0848008286
 11
6.4658720839
 21
12.0848008286
  0
LINE
  5
250
100
AcDbEntity
  8
LAYER_FEATURE
100
AcDbLine
 62
7
  6
CONTINUOUS
 10
5.6098720839
 20
11.2475477814
 11
5.6098720839
 21
13.9525477814
  0
LINE
  5
251
100
AcDbEntity
  8
LAYER_FEATURE
100
AcDbLine
 62
7
  6
CONTINUOUS
 10
5.6558774106
 20
11.2475477814
 11
5.6558774106
 21
13.9525477814
  0
LINE
  5
252
100
AcDbEntity
  8
LAYER_FEATURE
100
AcDbLine
 62
7
  6
CONTINUOUS
 10
5.6758720839
 20
11.3416153231
 11
5.6758720839
 21
13.8584802397
  0
LINE
  5
253
100
AcDbEntity
  8
LAYER_FEATURE
100
AcDbLine
 62
7
  6
CONTINUOUS
 10
6.4658720839
 20
12.153400174
 11
5.6758720839
 21
12.153400174
  0
LINE
  5
254
100
AcDbEntity
  8
LAYER_FEATURE
100
AcDbLine
 62
7
  6
CONTINUOUS
 10
6.4658720839
 20
12.1845476863
 11
5.6758720839
 21
12.1845476863
  0
LINE
  5
255
100
AcDbEntity
  8
0
100
AcDbLine
 62
7
  6
CONTINUOUS
 10
5.6758720839
 20
12.1968371537
 11
6.4658720839
 21
12.1968371537
  0
LINE
  5
256
100
AcDbEntity
  8
LAYER_FEATURE
100
AcDbLine
 62
7
  6
CONTINUOUS
 10
5.6758720839
 20
12.2054393276
 11
6.4658720839
 21
12.2054393276
  0
LINE
  5
257
100
AcDbEntity
  8
LAYER_FEATURE
100
AcDbLine
 62
7
  6
CONTINUOUS
 10
5.6758720839
 20
12.2298804044
 11
6.4658720839
 21
12.2298804044
  0
LINE
  5
258
100
AcDbEntity
  8
LAYER_FEATURE
100
AcDbLine
 62
7
  6
CONTINUOUS
 10
6.4658720839
 20
12.2926081555
 11
5.6758720839
 21
12.2926081555
  0
LINE
  5
259
100
AcDbEntity
  8
LAYER_FEATURE
100
AcDbLine
 62
7
  6
CONTINUOUS
 10
6.4658720839
 20
12.3250556914
 11
5.6758720839
 21
12.3250556914
  0
LINE
  5
25A
100
AcDbEntity
  8
LAYER_FEATURE
100
AcDbLine
 62
7
  6
CONTINUOUS
 10
5.6758720839
 20
12.3555540695
 11
6.4658720839
 21
12.3555540695
  0
LINE
  5
25B
100
AcDbEntity
  8
LAYER_FEATURE
100
AcDbLine
 62
7
  6
CONTINUOUS
 10
5.6758720839
 20
12.3807977408
 11
6.4658720839
 21
12.3807977408
  0
LINE
  5
25C
100
AcDbEntity
  8
LAYER_FEATURE
100
AcDbLine
 62
7
  6
CONTINUOUS
 10
5.6558774106
 20
11.2475477814
 11
5.6758720839
 21
11.3416153231
  0
LINE
  5
25D
100
AcDbEntity
  8
LAYER_FEATURE
100
AcDbLine
 62
7
  6
CONTINUOUS
 10
6.4658720839
 20
12.4366646436
 11
5.6758720839
 21
12.4366646436
  0
LINE
  5
25E
100
AcDbEntity
  8
LAYER_FEATURE
100
AcDbLine
 62
7
  6
CONTINUOUS
 10
6.4658720839
 20
12.4699004861
 11
5.6758720839
 21
12.4699004861
  0
LINE
  5
25F
100
AcDbEntity
  8
LAYER_FEATURE
100
AcDbLine
 62
7
  6
CONTINUOUS
 10
5.6758720839
 20
12.5095246233
 11
6.4658720839
 21
12.5095246233
  0
LINE
  5
260
100
AcDbEntity
  8
LAYER_FEATURE
100
AcDbLine
 62
7
  6
CONTINUOUS
 10
5.6558774106
 20
13.9525477814
 11
5.6758720839
 21
13.8584802397
  0
LINE
  5
261
100
AcDbEntity
  8
LAYER_FEATURE
100
AcDbLine
 62
7
  6
CONTINUOUS
 10
5.6758720839
 20
12.5351727814
 11
6.4658720839
 21
12.5351727814
  0
LINE
  5
262
100
AcDbEntity
  8
LAYER_FEATURE
100
AcDbLine
 62
7
  6
CONTINUOUS
 10
6.4658720839
 20
12.5832977814
 11
5.6758720839
 21
12.5832977814
  0
LINE
  5
263
100
AcDbEntity
  8
LAYER_FEATURE
100
AcDbLine
 62
7
  6
CONTINUOUS
 10
6.4658720839
 20
12.6167977814
 11
5.6758720839
 21
12.6167977814
  0
LINE
  5
264
100
AcDbEntity
  8
LAYER_FEATURE
100
AcDbLine
 62
7
  6
CONTINUOUS
 10
5.6758720839
 20
12.6649227814
 11
6.4658720839
 21
12.6649227814
  0
LINE
  5
265
100
AcDbEntity
  8
LAYER_FEATURE
100
AcDbLine
 62
7
  6
CONTINUOUS
 10
6.4658720839
 20
13.8584802397
 11
6.4858667571
 21
13.9525477814
  0
LINE
  5
266
100
AcDbEntity
  8
LAYER_FEATURE
100
AcDbLine
 62
7
  6
CONTINUOUS
 10
6.4658720839
 20
11.3416153231
 11
6.4858667571
 21
11.2475477814
  0
LINE
  5
267
100
AcDbEntity
  8
LAYER_FEATURE
100
AcDbLine
 62
7
  6
CONTINUOUS
 10
6.4658720839
 20
11.3416153231
 11
6.4658720839
 21
13.8584802397
  0
LINE
  5
268
100
AcDbEntity
  8
LAYER_FEATURE
100
AcDbLine
 62
7
  6
CONTINUOUS
 10
6.4858667571
 20
11.2475477814
 11
6.4858667571
 21
13.9525477814
  0
LINE
  5
269
100
AcDbEntity
  8
LAYER_FEATURE
100
AcDbLine
 62
7
  6
CONTINUOUS
 10
6.5318720839
 20
11.2475477814
 11
6.5318720839
 21
13.9525477814
  0
LINE
  5
26A
100
AcDbEntity
  8
02___PRT_ALL_AXES
100
AcDbLine
 62
7
  6
CONTINUOUS
 10
6.5358720839
 20
11.5160477814
 11
6.5358720839
 21
13.6840477814
  0
LINE
  5
26B
100
AcDbEntity
  8
02___PRT_ALL_AXES
100
AcDbLine
 62
7
  6
CONTINUOUS
 10
5.6098720839
 20
11.5173317854
 11
5.6058720839
 21
11.5160477814
  0
LINE
  5
26C
100
AcDbEntity
  8
02___PRT_ALL_AXES
100
AcDbLine
 62
7
  6
CONTINUOUS
 10
5.6098720839
 20
13.6827637773
 11
5.6058720839
 21
13.6840477814
  0
LINE
  5
26D
100
AcDbEntity
  8
02___PRT_ALL_AXES
100
AcDbLine
 62
7
  6
CONTINUOUS
 10
5.6758720839
 20
13.8375477814
 11
6.4658720839
 21
13.8375477814
  0
LINE
  5
26E
100
AcDbEntity
  8
LAYER_FEATURE
100
AcDbLine
 62
7
  6
CONTINUOUS
 10
5.6098720839
 20
13.9525477814
 11
5.6558774106
 21
13.9525477814
  0
LINE
  5
26F
100
AcDbEntity
  8
LAYER_FEATURE
100
AcDbLine
 62
7
  6
CONTINUOUS
 10
6.4858667571
 20
13.9525477814
 11
6.5318720839
 21
13.9525477814
  0
LINE
  5
270
100
AcDbEntity
  8
LAYER_FEATURE
100
AcDbLine
 62
7
  6
CONTINUOUS
 10
15.0464814935
 20
11.1583049929
 11
15.0888552055
 21
11.1583049929
  0
LINE
  5
271
100
AcDbEntity
  8
LAYER_FEATURE
100
AcDbLine
 62
7
  6
CONTINUOUS
 10
15.853326018
 20
11.1583049929
 11
15.89569973
 21
11.1583049929
  0
LINE
  5
272
100
AcDbEntity
  8
02___PRT_ALL_AXES
100
AcDbLine
 62
7
  6
CONTINUOUS
 10
15.1072715191
 20
11.2733049929
 11
15.6408688068
 21
11.2733049929
  0
LINE
  5
273
100
AcDbEntity
  8
LAYER_FEATURE
100
AcDbLine
 62
7
  6
CONTINUOUS
 10
14.7139749823
 20
13.1036831414
 11
14.7207394924
 21
13.1323276022
  0
LINE
  5
274
100
AcDbEntity
  8
LAYER_FEATURE
100
AcDbLine
 62
7
  6
CONTINUOUS
 10
14.7484025503
 20
13.2333225083
 11
14.7541221042
 21
13.2518309915
  0
LINE
  5
275
100
AcDbEntity
  8
02___PRT_ALL_AXES
100
AcDbLine
 62
7
  6
CONTINUOUS
 10
15.8420938041
 20
13.584775432
 11
15.8081648375
 21
13.5728403445
  0
LINE
  5
276
100
AcDbEntity
  8
02___PRT_ALL_AXES
100
AcDbLine
 62
7
  6
CONTINUOUS
 10
15.8420938041
 20
11.4368345539
 11
15.8081348507
 21
11.4487801897
  0
LINE
  5
277
100
AcDbEntity
  8
LAYER_FEATURE
100
AcDbLine
 62
7
  6
CONTINUOUS
 10
14.6689141855
 20
12.8338902089
 11
14.6726921204
 21
12.8659546948
  0
LINE
  5
278
100
AcDbEntity
  8
LAYER_FEATURE
100
AcDbLine
 62
7
  6
CONTINUOUS
 10
14.6881396036
 20
12.9724267002
 11
14.6934527216
 21
13.00302243
  0
LINE
  5
279
100
AcDbEntity
  8
LAYER_FEATURE
100
AcDbLine
 62
7
  6
CONTINUOUS
 10
14.6646950967
 20
12.9006380155
 11
14.6560783499
 21
12.9155513106
  0
LINE
  5
27A
100
AcDbEntity
  8
LAYER_FEATURE
100
AcDbLine
 62
7
  6
CONTINUOUS
 10
14.6872115477
 20
13.0400060826
 11
14.6793906206
 21
13.0575750584
  0
LINE
  5
27B
100
AcDbEntity
  8
LAYER_FEATURE
100
AcDbLine
 62
7
  6
CONTINUOUS
 10
14.7163525954
 20
13.1710283325
 11
14.7094508288
 21
13.1909759157
  0
LINE
  5
27C
100
AcDbEntity
  8
LAYER_FEATURE
100
AcDbLine
 62
7
  6
CONTINUOUS
 10
14.7516586681
 20
13.2916384658
 11
14.7457849068
 21
13.3136500712
  0
LINE
  5
27D
100
AcDbEntity
  8
LAYER_FEATURE
100
AcDbLine
 62
7
  6
CONTINUOUS
 10
14.6443799967
 20
12.8162638171
 11
14.6547709693
 21
12.8164089182
  0
LINE
  5
27E
100
AcDbEntity
  8
LAYER_FEATURE
100
AcDbLine
 62
7
  6
CONTINUOUS
 10
14.6393345661
 20
12.8065927853
 11
15.3394806722
 21
12.8065927853
  0
LINE
  5
27F
100
AcDbEntity
  8
LAYER_FEATURE
100
AcDbLine
 62
7
  6
CONTINUOUS
 10
15.3419539849
 20
12.8338902089
 11
14.6689141855
 21
12.8338902089
  0
LINE
  5
280
100
AcDbEntity
  8
LAYER_FEATURE
100
AcDbLine
 62
7
  6
CONTINUOUS
 10
15.3451854796
 20
12.8659546948
 11
14.6726921204
 21
12.8659546948
  0
LINE
  5
281
100
AcDbEntity
  8
LAYER_FEATURE
100
AcDbLine
 62
7
  6
CONTINUOUS
 10
14.6539670152
 20
12.9307828463
 11
15.3527027961
 21
12.9307828463
  0
LINE
  5
282
100
AcDbEntity
  8
LAYER_FEATURE
100
AcDbLine
 62
7
  6
CONTINUOUS
 10
14.6574609212
 20
12.9548646449
 11
15.3559440822
 21
12.9548646449
  0
LINE
  5
283
100
AcDbEntity
  8
0
100
AcDbLine
 62
7
  6
CONTINUOUS
 10
14.6623027469
 20
12.9629338293
 11
15.3570301529
 21
12.9629338293
  0
LINE
  5
284
100
AcDbEntity
  8
LAYER_FEATURE
100
AcDbLine
 62
7
  6
CONTINUOUS
 10
15.3583078444
 20
12.9724267002
 11
14.6881396036
 21
12.9724267002
  0
LINE
  5
285
100
AcDbEntity
  8
LAYER_FEATURE
100
AcDbLine
 62
7
  6
CONTINUOUS
 10
15.3628667737
 20
13.00302243
 11
14.6934527216
 21
13.00302243
  0
LINE
  5
286
100
AcDbEntity
  8
LAYER_FEATURE
100
AcDbLine
 62
7
  6
CONTINUOUS
 10
14.678039341
 20
13.0733660163
 11
15.3743940291
 21
13.0733660163
  0
LINE
  5
287
100
AcDbEntity
  8
LAYER_CUT_FEAT
100
AcDbLine
 62
7
  6
CONTINUOUS
 10
15.6062395965
 20
13.1975883739
 11
15.610545191
 21
13.1980043684
  0
LINE
  5
288
100
AcDbEntity
  8
LAYER_CUT_FEAT
100
AcDbLine
 62
7
  6
CONTINUOUS
 10
15.6062395965
 20
13.1975883739
 11
15.5824324666
 21
13.195787654
  0
LINE
  5
289
100
AcDbEntity
  8
LAYER_FEATURE
100
AcDbLine
 62
7
  6
CONTINUOUS
 10
14.6826810583
 20
13.0961334186
 11
15.3786253016
 21
13.0961334186
  0
LINE
  5
28A
100
AcDbEntity
  8
0
100
AcDbLine
 62
7
  6
CONTINUOUS
 10
14.6872140924
 20
13.1026879949
 11
15.379864834
 21
13.1026879949
  0
LINE
  5
28B
100
AcDbEntity
  8
LAYER_FEATURE
100
AcDbLine
 62
7
  6
CONTINUOUS
 10
15.3800530257
 20
13.1036831414
 11
14.7139749823
 21
13.1036831414
  0
LINE
  5
28C
100
AcDbEntity
  8
LAYER_FEATURE
100
AcDbLine
 62
7
  6
CONTINUOUS
 10
15.3855994178
 20
13.1323276022
 11
14.7207394924
 21
13.1323276022
  0
LINE
  5
28D
100
AcDbEntity
  8
LAYER_FEATURE
100
AcDbLine
 62
7
  6
CONTINUOUS
 10
14.7088809145
 20
13.2070772629
 11
15.4018870423
 21
13.2070772629
  0
LINE
  5
28E
100
AcDbEntity
  8
LAYER_FEATURE
100
AcDbLine
 62
7
  6
CONTINUOUS
 10
14.7145972405
 20
13.2281712133
 11
15.4069037281
 21
13.2281712133
  0
LINE
  5
28F
100
AcDbEntity
  8
0
100
AcDbLine
 62
7
  6
CONTINUOUS
 10
14.7187499943
 20
13.2333225083
 11
15.4081934224
 21
13.2333225083
  0
LINE
  5
290
100
AcDbEntity
  8
LAYER_FEATURE
100
AcDbLine
 62
7
  6
CONTINUOUS
 10
15.4128272641
 20
13.2518309915
 11
14.7541221042
 21
13.2518309915
  0
LINE
  5
291
100
AcDbEntity
  8
LAYER_FEATURE
100
AcDbLine
 62
7
  6
CONTINUOUS
 10
14.7460053459
 20
13.3298078798
 11
15.4343134038
 21
13.3298078798
  0
LINE
  5
292
100
AcDbEntity
  8
02___PRT_ALL_AXES
100
AcDbLine
 62
7
  6
CONTINUOUS
 10
15.1072715191
 20
13.7483049929
 11
15.640959992
 21
13.7483049929
  0
LINE
  5
293
100
AcDbEntity
  8
LAYER_FEATURE
100
AcDbLine
 62
7
  6
CONTINUOUS
 10
15.0464814935
 20
13.8633049929
 11
15.0888552055
 21
13.8633049929
  0
LINE
  5
294
100
AcDbEntity
  8
LAYER_FEATURE
100
AcDbLine
 62
7
  6
CONTINUOUS
 10
15.853326018
 20
13.8633049929
 11
15.89569973
 21
13.8633049929
  0
CIRCLE
  5
295
100
AcDbEntity
  8
LAYER_FEATURE
100
AcDbCircle
 62
7
  6
CONTINUOUS
 10
15.5603552569
 20
5.4606247044
 40
1.3525
  0
CIRCLE
  5
296
100
AcDbEntity
  8
LAYER_FEATURE
100
AcDbCircle
 62
7
  6
CONTINUOUS
 10
15.5603552569
 20
5.4606247044
 40
1.2584324583
  0
CIRCLE
  5
297
100
AcDbEntity
  8
02___PRT_ALL_AXES
100
AcDbCircle
 62
7
  6
CONTINUOUS
 10
15.5603552569
 20
5.4606247044
 40
1.084
  0
CIRCLE
  5
298
100
AcDbEntity
  8
LAYER_CHAMFER_FEAT
100
AcDbCircle
 62
7
  6
CONTINUOUS
 10
15.5603552569
 20
5.4606247044
 40
1.064
  0
CIRCLE
  5
299
100
AcDbEntity
  8
LAYER_CHAMFER_FEAT
100
AcDbCircle
 62
7
  6
CONTINUOUS
 10
15.5603552569
 20
5.4606247044
 40
1.0325
  0
ARC
  5
29A
100
AcDbEntity
  8
02___PRT_ALL_AXES
100
AcDbCircle
 62
7
  6
CONTINUOUS
 10
15.5603552569
 20
5.4606247044
 40
0.6875
100
AcDbArc
 50
153.9499278124
 51
231.0500721876
  0
ARC
  5
29B
100
AcDbEntity
  8
02___PRT_ALL_AXES
100
AcDbCircle
 62
7
  6
CONTINUOUS
 10
15.5603552569
 20
5.4606247044
 40
0.6875
100
AcDbArc
 50
58.9499278124
 51
136.0500721876
  0
ARC
  5
29C
100
AcDbEntity
  8
LAYER_CUT_FEAT
100
AcDbCircle
 62
7
  6
CONTINUOUS
 10
15.5603552569
 20
5.4606247044
 40
0.6875
100
AcDbArc
 50
248.9499278124
 51
41.0500721876
  0
ARC
  5
29D
100
AcDbEntity
  8
02___PRT_ALL_AXES
100
AcDbCircle
 62
7
  6
CONTINUOUS
 10
15.5603552569
 20
5.4606247044
 40
0.6656478713
100
AcDbArc
 50
135.5426864311
 51
154.4573135689
  0
ARC
  5
29E
100
AcDbEntity
  8
LAYER_CUT_FEAT
100
AcDbCircle
 62
7
  6
CONTINUOUS
 10
15.5603552569
 20
5.4606247044
 40
0.6437957425
100
AcDbArc
 50
59.5897023119
 51
230.4102976881
  0
ARC
  5
29F
100
AcDbEntity
  8
LAYER_CUT_FEAT
100
AcDbCircle
 62
7
  6
CONTINUOUS
 10
15.5603552569
 20
5.4606247044
 40
0.6437957425
100
AcDbArc
 50
249.5897023119
 51
40.4102976881
  0
ARC
  5
2A0
100
AcDbEntity
  8
LAYER_CUT_FEAT
100
AcDbCircle
 62
7
  6
CONTINUOUS
 10
15.9821846258
 20
5.9633413702
 40
0.109375
100
AcDbArc
 50
308.6898214686
 51
151.3101785314
  0
ARC
  5
2A1
100
AcDbEntity
  8
02___PRT_ALL_AXES
100
AcDbCircle
 62
7
  6
CONTINUOUS
 10
15.2322302569
 20
4.8922955332
 40
0.109375
100
AcDbArc
 50
138.6898214686
 51
341.3101785314
  0
ARC
  5
2A2
100
AcDbEntity
  8
02___PRT_ALL_AXES
100
AcDbCircle
 62
7
  6
CONTINUOUS
 10
15.0227867279
 20
5.8370342408
 40
0.109375
100
AcDbArc
 50
55.1836503003
 51
234.8163496997
  0
ARC
  5
2A3
100
AcDbEntity
  8
02___PRT_ALL_AXES
100
AcDbCircle
 62
7
  6
CONTINUOUS
 10
13.1582598905
 20
-20.6472726164
 40
32.6691243109
100
AcDbArc
 50
85.4420196496
 51
85.7992407475
  0
ARC
  5
2A4
100
AcDbEntity
  8
LAYER_FEATURE
100
AcDbCircle
 62
7
  6
CONTINUOUS
 10
17.3212538876
 20
12.5560940795
 40
2.693475623
100
AcDbArc
 50
171.4860296724
 51
172.0036644023
  0
ARC
  5
2A5
100
AcDbEntity
  8
LAYER_FEATURE
100
AcDbCircle
 62
7
  6
CONTINUOUS
 10
16.9766853665
 20
12.6165850964
 40
2.3435917647
100
AcDbArc
 50
168.1926805603
 51
168.7607470488
  0
ARC
  5
2A6
100
AcDbEntity
  8
LAYER_FEATURE
100
AcDbCircle
 62
7
  6
CONTINUOUS
 10
16.5926840265
 20
12.7079001611
 40
1.9488180889
100
AcDbArc
 50
164.5161064397
 51
165.1586460665
  0
ARC
  5
2A7
100
AcDbEntity
  8
LAYER_FEATURE
100
AcDbCircle
 62
7
  6
CONTINUOUS
 10
14.6830914949
 20
13.119804957
 40
0.0348382366
100
AcDbArc
 50
330.5019776337
 51
332.4345150895
  0
SPLINE
  5
2A8
100
AcDbEntity
  8
02___PRT_ALL_AXES
100
AcDbSpline
 62
7
  6
CONTINUOUS
 70
0
 71
3
 72
39
 73
35
 74
0
 42
0.0000001
 43
0.0000001
 44
0.0000000001
 40
0.0
 40
0.0
 40
0.0
 40
0.0
 40
0.0461924461
 40
0.0914257975
 40
0.1356692115
 40
0.1788965352
 40
0.2210827672
 40
0.2622059797
 40
0.3022470771
 40
0.3411900763
 40
0.3790224195
 40
0.4157352652
 40
0.4513238685
 40
0.4857879668
 40
0.5191322157
 40
0.5513666874
 40
0.5825074317
 40
0.6125770965
 40
0.641605567
 40
0.6696306559
 40
0.6966988102
 40
0.7228658067
 40
0.7481973518
 40
0.7727695203
 40
0.7966689601
 40
0.8199927491
 40
0.8428478038
 40
0.8653497382
 40
0.8876211711
 40
0.9097895224
 40
0.9319844221
 40
0.9543349267
 40
0.9769667879
 40
1.0
 40
1.0
 40
1.0
 40
1.0
 10
16.2300493574
 20
11.8369797873
 30
0.0
 10
16.2272458122
 20
11.8279075118
 30
0.0
 10
16.2215301539
 20
11.8100023022
 30
0.0
 10
16.2125315067
 20
11.7836031463
 30
0.0
 10
16.2032049186
 20
11.7579654892
 30
0.0
 10
16.1935603024
 20
11.7331163962
 30
0.0
 10
16.1836076481
 20
11.7090816862
 30
0.0
 10
16.1733573884
 20
11.6858865193
 30
0.0
 10
16.1628202214
 20
11.6635550924
 30
0.0
 10
16.1520071316
 20
11.6421107046
 30
0.0
 10
16.1409293755
 20
11.6215757199
 30
0.0
 10
16.1295984544
 20
11.6019715429
 30
0.0
 10
16.1180261171
 20
11.583318589
 30
0.0
 10
16.1062243288
 20
11.5656362706
 30
0.0
 10
16.0942052486
 20
11.5489429899
 30
0.0
 10
16.0819812094
 20
11.5332561284
 30
0.0
 10
16.0695646979
 20
11.518592037
 30
0.0
 10
16.0569683484
 20
11.5049660225
 30
0.0
 10
16.0442049094
 20
11.4923923696
 30
0.0
 10
16.0312872376
 20
11.480884357
 30
0.0
 10
16.0182282929
 20
11.470454281
 30
0.0
 10
16.0050411631
 20
11.4611134643
 30
0.0
 10
15.9917390943
 20
11.4528722773
 30
0.0
 10
15.9783355359
 20
11.445740168
 30
0.0
 10
15.9648442203
 20
11.4397256484
 30
0.0
 10
15.9512792456
 20
11.4348362484
 30
0.0
 10
15.9376551634
 20
11.4310783866
 30
0.0
 10
15.9239870044
 20
11.4284572499
 30
0.0
 10
15.9102902639
 20
11.42697662
 30
0.0
 10
15.8965807676
 20
11.4266387179
 30
0.0
 10
15.8828746046
 20
11.4274440377
 30
0.0
 10
15.8691874914
 20
11.4293914383
 30
0.0
 10
15.8555361182
 20
11.432477724
 30
0.0
 10
15.8465603525
 20
11.4352633668
 30
0.0
 10
15.8420938041
 20
11.4368345543
 30
0.0
  0
SPLINE
  5
2A9
100
AcDbEntity
  8
02___PRT_ALL_AXES
100
AcDbSpline
 62
7
  6
CONTINUOUS
 70
0
 71
3
 72
23
 73
19
 74
0
 42
0.0000001
 43
0.0000001
 44
0.0000000001
 40
0.0
 40
0.0
 40
0.0
 40
0.0
 40
0.0888376409
 40
0.174505467
 40
0.2567846962
 40
0.335494344
 40
0.4104786557
 40
0.4816207752
 40
0.5488460967
 40
0.6121310695
 40
0.6715128681
 40
0.7271015292
 40
0.7790945523
 40
0.8277932425
 40
0.8736186965
 40
0.9171228279
 40
0.958986951
 40
1.0
 40
1.0
 40
1.0
 40
1.0
 10
15.6769370026
 20
11.8399048432
 30
0.0
 10
15.6774124355
 20
11.8380701019
 30
0.0
 10
15.6784036708
 20
11.8344805876
 30
0.0
 10
15.680043989
 20
11.8292522672
 30
0.0
 10
15.6818060323
 20
11.8242922259
 30
0.0
 10
15.6836830867
 20
11.8196191513
 30
0.0
 10
15.685668195
 20
11.815250413
 30
0.0
 10
15.6877539606
 20
11.8112022817
 30
0.0
 10
15.6899327365
 20
11.8074897438
 30
0.0
 10
15.6921966405
 20
11.8041264914
 30
0.0
 10
15.6945376655
 20
11.8011248989
 30
0.0
 10
15.6969477795
 20
11.798496064
 30
0.0
 10
15.6994189952
 20
11.796249923
 30
0.0
 10
15.7019434065
 20
11.7943954704
 30
0.0
 10
15.7045128671
 20
11.7929410516
 30
0.0
 10
15.707118871
 20
11.7918945362
 30
0.0
 10
15.7097503135
 20
11.7912630464
 30
0.0
 10
15.7115215416
 20
11.7911217758
 30
0.0
 10
15.7123965497
 20
11.79112178
 30
0.0
  0
SPLINE
  5
2AA
100
AcDbEntity
  8
LAYER_CHAMFER_FEAT
100
AcDbSpline
 62
7
  6
CONTINUOUS
 70
0
 71
3
 72
15
 73
11
 74
0
 42
0.0000001
 43
0.0000001
 44
0.0000000001
 40
0.0
 40
0.0
 40
0.0
 40
0.0
 40
0.1375061211
 40
0.2714667129
 40
0.4018485709
 40
0.5286396893
 40
0.651835306
 40
0.7714433908
 40
0.887486038
 40
1.0
 40
1.0
 40
1.0
 40
1.0
 10
15.6418254059
 20
11.6773451611
 30
0.0
 10
15.6449533474
 20
11.6709710864
 30
0.0
 10
15.6512765234
 20
11.6584591482
 30
0.0
 10
15.6610968291
 20
11.6401779918
 30
0.0
 10
15.6711215387
 20
11.6226423131
 30
0.0
 10
15.681341937
 20
11.6058673481
 30
0.0
 10
15.6917494342
 20
11.5898672605
 30
0.0
 10
15.7023352604
 20
11.5746556507
 30
0.0
 10
15.7130902634
 20
11.5602457622
 30
0.0
 10
15.7204805024
 20
11.5510405147
 30
0.0
 10
15.7242033612
 20
11.5465803425
 30
0.0
  0
SPLINE
  5
2AB
100
AcDbEntity
  8
02___PRT_ALL_AXES
100
AcDbSpline
 62
7
  6
CONTINUOUS
 70
0
 71
3
 72
11
 73
7
 74
0
 42
0.0000001
 43
0.0000001
 44
0.0000000001
 40
0.0
 40
0.0
 40
0.0
 40
0.0
 40
0.2457881921
 40
0.4937262975
 40
0.7448127978
 40
1.0
 40
1.0
 40
1.0
 40
1.0
 10
15.6105451899
 20
11.8236055255
 30
0.0
 10
15.6080629206
 20
11.8237940644
 30
0.0
 10
15.6030884286
 20
11.8243505119
 30
0.0
 10
15.5956629326
 20
11.8257132813
 30
0.0
 10
15.58825619
 20
11.8276051826
 30
0.0
 10
15.5833794528
 20
11.8292035362
 30
0.0
 10
15.5809502383
 20
11.8300862328
 30
0.0
  0
SPLINE
  5
2AC
100
AcDbEntity
  8
LAYER_FEATURE
100
AcDbSpline
 62
7
  6
CONTINUOUS
 70
0
 71
3
 72
23
 73
19
 74
0
 42
0.0000001
 43
0.0000001
 44
0.0000000001
 40
0.0
 40
0.0
 40
0.0
 40
0.0
 40
0.0549205675
 40
0.1100470773
 40
0.1655826208
 40
0.221724776
 40
0.2786632185
 40
0.336577671
 40
0.3956364373
 40
0.4559952583
 40
0.5177966281
 40
0.5811696423
 40
0.6462299283
 40
0.7130799822
 40
0.7818097549
 40
0.8524970877
 40
0.9252085103
 40
1.0
 40
1.0
 40
1.0
 40
1.0
 10
15.0888552055
 20
13.8633049853
 30
0.0
 10
15.0934101872
 20
13.8633049809
 30
0.0
 10
15.1025401337
 20
13.8630004442
 30
0.0
 10
15.1162142969
 20
13.8616311637
 30
0.0
 10
15.1298693945
 20
13.859350374
 30
0.0
 10
15.1434949222
 20
13.856159972
 30
0.0
 10
15.1570815276
 20
13.8520625541
 30
0.0
 10
15.1706197776
 20
13.8470614576
 30
0.0
 10
15.1841004576
 20
13.8411605458
 30
0.0
 10
15.1975144955
 20
13.8343642845
 30
0.0
 10
15.2108529959
 20
13.8266777311
 30
0.0
 10
15.2241071391
 20
13.818106393
 30
0.0
 10
15.2372682353
 20
13.8086563534
 30
0.0
 10
15.2503276968
 20
13.7983342155
 30
0.0
 10
15.263276947
 20
13.7871470649
 30
0.0
 10
15.2761075867
 20
13.7751025041
 30
0.0
 10
15.2888110367
 20
13.7622089152
 30
0.0
 10
15.297071902
 20
13.7531815704
 30
0.0
 10
15.3011802902
 20
13.7485341289
 30
0.0
  0
SPLINE
  5
2AD
100
AcDbEntity
  8
LAYER_FEATURE
100
AcDbSpline
 62
7
  6
CONTINUOUS
 70
0
 71
3
 72
23
 73
19
 74
0
 42
0.0000001
 43
0.0000001
 44
0.0000000001
 40
0.0
 40
0.0
 40
0.0
 40
0.0
 40
0.0549104702
 40
0.1100271955
 40
0.165553591
 40
0.2216875086
 40
0.2786188847
 40
0.3365277141
 40
0.3955824558
 40
0.4559390387
 40
0.5177401216
 40
0.5811148312
 40
0.6461789222
 40
0.7130349356
 40
0.781772765
 40
0.8524703386
 40
0.9251941236
 40
1.0
 40
1.0
 40
1.0
 40
1.0
 10
15.0888552055
 20
11.1583050005
 30
0.0
 10
15.0934141328
 20
11.158304996
 30
0.0
 10
15.1025520212
 20
11.1586100914
 30
0.0
 10
15.1162380474
 20
11.1599817133
 30
0.0
 10
15.1299049501
 20
11.1622664882
 30
0.0
 10
15.1435422044
 20
11.1654624254
 30
0.0
 10
15.1571404414
 20
11.1695669206
 30
0.0
 10
15.1706901779
 20
11.1745766927
 30
0.0
 10
15.1841822051
 20
11.1804877841
 30
0.0
 10
15.1976074185
 20
11.1872957477
 30
0.0
 10
15.2109568784
 20
11.1949955399
 30
0.0
 10
15.2242217859
 20
11.2035815656
 30
0.0
 10
15.2373933969
 20
11.2130477756
 30
0.0
 10
15.2504630985
 20
11.2233875418
 30
0.0
 10
15.2634223351
 20
11.2345937079
 30
0.0
 10
15.2762626366
 20
11.2466587028
 30
0.0
 10
15.2889754201
 20
11.2595740937
 30
0.0
 10
15.2972421228
 20
11.2686165275
 30
0.0
 10
15.3013533686
 20
11.2732717318
 30
0.0
  0
SPLINE
  5
2AE
100
AcDbEntity
  8
LAYER_FEATURE
100
AcDbSpline
 62
7
  6
CONTINUOUS
 70
0
 71
3
 72
67
 73
63
 74
0
 42
0.0000001
 43
0.0000001
 44
0.0000000001
 40
0.0
 40
0.0
 40
0.0
 40
0.0
 40
0.003844833
 40
0.0076962527
 40
0.0115608028
 40
0.0154449469
 40
0.0193550249
 40
0.0232972228
 40
0.0313000211
 40
0.0395004234
 40
0.0479395776
 40
0.0566541327
 40
0.0656760981
 40
0.0750329003
 40
0.0847475773
 40
0.0948390585
 40
0.1053224871
 40
0.1162095548
 40
0.127508829
 40
0.1392260584
 40
0.1513644541
 40
0.1639249427
 40
0.1769063911
 40
0.1903058053
 40
0.2041185056
 40
0.2183382812
 40
0.2329575257
 40
0.2479673577
 40
0.2633577274
 40
0.2791175127
 40
0.2952346051
 40
0.3116959882
 40
0.3284878083
 40
0.345595439
 40
0.3630035422
 40
0.3806961234
 40
0.3986565843
 40
0.4168677729
 40
0.4353120304
 40
0.4539712376
 40
0.4728268572
 40
0.4918599768
 40
0.5110513492
 40
0.5498294602
 40
0.5890030127
 40
0.6284099461
 40
0.6678865234
 40
0.7072685091
 40
0.7463923438
 40
0.7850963267
 40
0.8042416476
 40
0.8232228322
 40
0.8420207304
 40
0.860616539
 40
0.8789918432
 40
0.8971286589
 40
0.9150094791
 40
0.9326173078
 40
0.9499357498
 40
0.9669489345
 40
0.9836418922
 40
1.0
 40
1.0
 40
1.0
 40
1.0
 10
15.89569973
 20
13.8633049853
 30
0.0
 10
15.8987748828
 20
13.8633049878
 30
0.0
 10
15.9049313534
 20
13.8631664539
 30
0.0
 10
15.9141597727
 20
13.8625432322
 30
0.0
 10
15.9233825511
 20
13.8615048236
 30
0.0
 10
15.9325964727
 20
13.8600515187
 30
0.0
 10
15.941798887
 20
13.8581838105
 30
0.0
 10
15.954109463
 20
13.8551270961
 30
0.0
 10
15.9694865998
 20
13.8502468338
 30
0.0
 10
15.9877451911
 20
13.8427723524
 30
0.0
 10
16.005883043
 20
13.8336613532
 30
0.0
 10
16.0238773355
 20
13.8229272101
 30
0.0
 10
16.041707122
 20
13.8105846546
 30
0.0
 10
16.0593515107
 20
13.796649999
 30
0.0
 10
16.0767899954
 20
13.7811410841
 30
0.0
 10
16.0940022464
 20
13.7640773526
 30
0.0
 10
16.110968112
 20
13.7454799
 30
0.0
 10
16.1276676078
 20
13.725371525
 30
0.0
 10
16.1440809391
 20
13.7037767619
 30
0.0
 10
16.1601885347
 20
13.6807218989
 30
0.0
 10
16.1759710878
 20
13.6562349798
 30
0.0
 10
16.1914095937
 20
13.6303457903
 30
0.0
 10
16.2064853909
 20
13.6030858363
 30
0.0
 10
16.2211801986
 20
13.5744883144
 30
0.0
 10
16.2354761519
 20
13.5445880769
 30
0.0
 10
16.2493558348
 20
13.513421591
 30
0.0
 10
16.2628023097
 20
13.4810268957
 30
0.0
 10
16.2757991454
 20
13.4474435551
 30
0.0
 10
16.2883304452
 20
13.4127126101
 30
0.0
 10
16.3003808686
 20
13.3768765257
 30
0.0
 10
16.3119356536
 20
13.3399791365
 30
0.0
 10
16.3229806378
 20
13.3020655913
 30
0.0
 10
16.3335022777
 20
13.2631822967
 30
0.0
 10
16.3434876668
 20
13.2233768587
 30
0.0
 10
16.352924553
 20
13.1826980234
 30
0.0
 10
16.3618013543
 20
13.1411956163
 30
0.0
 10
16.3701071752
 20
13.098920481
 30
0.0
 10
16.3778318207
 20
13.0559244151
 30
0.0
 10
16.3849658072
 20
13.0122601081
 30
0.0
 10
16.3915003786
 20
12.9679810638
 30
0.0
 10
16.3974275001
 20
12.9231415798
 30
0.0
 10
16.402739936
 20
12.8777965082
 30
0.0
 10
16.4090161396
 20
12.8165275519
 30
0.0
 10
16.4152685003
 20
12.7390717493
 30
0.0
 10
16.4202083265
 20
12.6453250817
 30
0.0
 10
16.422586234
 20
12.5509194292
 30
0.0
 10
16.422390526
 20
12.4563175372
 30
0.0
 10
16.4196221612
 20
12.3619822487
 30
0.0
 10
16.4142947602
 20
12.2683759649
 30
0.0
 10
16.4077212751
 20
12.1910830599
 30
0.0
 10
16.4011904824
 20
12.1299791445
 30
0.0
 10
16.3956904581
 20
12.0847818834
 30
0.0
 10
16.3895778814
 20
12.0401069861
 30
0.0
 10
16.3828602135
 20
11.9960091029
 30
0.0
 10
16.3755457138
 20
11.9525423087
 30
0.0
 10
16.3676433617
 20
11.9097598614
 30
0.0
 10
16.3591628583
 20
11.8677141921
 30
0.0
 10
16.3501146163
 20
11.8264567931
 30
0.0
 10
16.3405097406
 20
11.7860382652
 30
0.0
 10
16.3303600051
 20
11.7465079595
 30
0.0
 10
16.3196779137
 20
11.7079146105
 30
0.0
 10
16.3121317089
 20
11.682577712
 30
0.0
 10
16.3082688546
 20
11.6700775108
 30
0.0
  0
SPLINE
  5
2AF
100
AcDbEntity
  8
LAYER_FEATURE
100
AcDbSpline
 62
7
  6
CONTINUOUS
 70
0
 71
3
 72
39
 73
35
 74
0
 42
0.0000001
 43
0.0000001
 44
0.0000000001
 40
0.0
 40
0.0
 40
0.0
 40
0.0
 40
0.02127698
 40
0.0426477422
 40
0.0642045501
 40
0.0860367276
 40
0.1082294289
 40
0.13086263
 40
0.1540103821
 40
0.1777403583
 40
0.2021136209
 40
0.227184563
 40
0.2530010579
 40
0.2796047152
 40
0.3070311728
 40
0.3353104595
 40
0.3644674098
 40
0.3945220365
 40
0.4254898723
 40
0.4573823633
 40
0.4902072054
 40
0.5239686104
 40
0.558667601
 40
0.5943022909
 40
0.6308680905
 40
0.6683578916
 40
0.706762302
 40
0.7460698023
 40
0.7862668438
 40
0.8273381185
 40
0.8692664962
 40
0.9120330786
 40
0.9556187218
 40
1.0
 40
1.0
 40
1.0
 40
1.0
 10
15.89569973
 20
11.1583050005
 30
0.0
 10
15.9006400003
 20
11.1583050046
 30
0.0
 10
15.9105460154
 20
11.1586634711
 30
0.0
 10
15.9253784194
 20
11.1602749073
 30
0.0
 10
15.9401862221
 20
11.1629587558
 30
0.0
 10
15.9549559487
 20
11.1667122676
 30
0.0
 10
15.9696756613
 20
11.1715317433
 30
0.0
 10
15.9843333352
 20
11.1774125769
 30
0.0
 10
15.9989173218
 20
11.1843493035
 30
0.0
 10
16.0134161726
 20
11.192335729
 30
0.0
 10
16.0278186333
 20
11.2013649523
 30
0.0
 10
16.0421136348
 20
11.2114293222
 30
0.0
 10
16.0562902346
 20
11.2225205041
 30
0.0
 10
16.0703375798
 20
11.2346294842
 30
0.0
 10
16.0842449225
 20
11.2477465162
 30
0.0
 10
16.0980016146
 20
11.2618611186
 30
0.0
 10
16.1115970758
 20
11.2769621029
 30
0.0
 10
16.1250208086
 20
11.2930375476
 30
0.0
 10
16.1382624446
 20
11.3100747634
 30
0.0
 10
16.1513117099
 20
11.3280603361
 30
0.0
 10
16.164158434
 20
11.3469801275
 30
0.0
 10
16.1767926003
 20
11.3668192487
 30
0.0
 10
16.1892043394
 20
11.3875620843
 30
0.0
 10
16.2013839181
 20
11.4091923189
 30
0.0
 10
16.2133217694
 20
11.4316929296
 30
0.0
 10
16.2250085274
 20
11.4550461872
 30
0.0
 10
16.2364349948
 20
11.4792336952
 30
0.0
 10
16.2475921543
 20
11.5042363957
 30
0.0
 10
16.2584712294
 20
11.5300345767
 30
0.0
 10
16.2690636355
 20
11.5566078885
 30
0.0
 10
16.2793609839
 20
11.5839353183
 30
0.0
 10
16.2893552298
 20
11.6119954904
 30
0.0
 10
16.2990383266
 20
11.6407659483
 30
0.0
 10
16.3052263827
 20
11.6602320682
 30
0.0
 10
16.3082688546
 20
11.6700775108
 30
0.0
  0
SPLINE
  5
2B0
100
AcDbEntity
  8
LAYER_FEATURE
100
AcDbSpline
 62
7
  6
CONTINUOUS
 70
0
 71
3
 72
34
 73
30
 74
0
 42
0.0000001
 43
0.0000001
 44
0.0000000001
 40
0.0
 40
0.0
 40
0.0
 40
0.0
 40
0.0847727855
 40
0.1667691653
 40
0.2458692112
 40
0.3219685311
 40
0.3588673636
 40
0.3949858886
 40
0.430316845
 40
0.4648545655
 40
0.4985949627
 40
0.5315357513
 40
0.5636765397
 40
0.5950189352
 40
0.6255668026
 40
0.6553263062
 40
0.6843062034
 40
0.7125179874
 40
0.7399760794
 40
0.7666981333
 40
0.7927051472
 40
0.8180218022
 40
0.8426766241
 40
0.8667021931
 40
0.9130029467
 40
0.9353795495
 40
0.9573008918
 40
0.9788214894
 40
1.0
 40
1.0
 40
1.0
 40
1.0
 10
15.548753326
 20
13.1802789287
 30
0.0
 10
15.5530225179
 20
13.1940940388
 30
0.0
 10
15.5618078384
 20
13.2211544224
 30
0.0
 10
15.5759808711
 20
13.260632188
 30
0.0
 10
15.5909019034
 20
13.2982470057
 30
0.0
 10
15.6040605222
 20
13.3282639887
 30
0.0
 10
15.6149478753
 20
13.3512524739
 30
0.0
 10
15.623192864
 20
13.3677938408
 30
0.0
 10
15.6315959708
 20
13.3838019949
 30
0.0
 10
15.640152005
 20
13.3992670648
 30
0.0
 10
15.6488556877
 20
13.414179431
 30
0.0
 10
15.657701628
 20
13.4285298528
 30
0.0
 10
15.6666843498
 20
13.4423094384
 30
0.0
 10
15.675798347
 20
13.4555096257
 30
0.0
 10
15.6850379656
 20
13.4681222558
 30
0.0
 10
15.6943975643
 20
13.4801394854
 30
0.0
 10
15.7038713841
 20
13.4915538704
 30
0.0
 10
15.713453619
 20
13.5023583287
 30
0.0
 10
15.7231384513
 20
13.5125461182
 30
0.0
 10
15.7329199239
 20
13.5221109157
 30
0.0
 10
15.7427921784
 20
13.5310467309
 30
0.0
 10
15.7527490199
 20
13.5393478656
 30
0.0
 10
15.7627850493
 20
13.5470094321
 30
0.0
 10
15.7760968441
 20
13.5562499324
 30
0.0
 10
15.7897169332
 20
13.5643448151
 30
0.0
 10
15.8035915399
 20
13.571163349
 30
0.0
 10
15.8139284806
 20
13.5755592934
 30
0.0
 10
15.8243059662
 20
13.5792911271
 30
0.0
 10
15.8312976299
 20
13.5813494881
 30
0.0
 10
15.8347925265
 20
13.5822634344
 30
0.0
  0
SPLINE
  5
2B1
100
AcDbEntity
  8
LAYER_FEATURE
100
AcDbSpline
 62
7
  6
CONTINUOUS
 70
0
 71
3
 72
57
 73
53
 74
0
 42
0.0000001
 43
0.0000001
 44
0.0000000001
 40
0.0
 40
0.0
 40
0.0
 40
0.0
 40
0.0159677314
 40
0.0322483472
 40
0.0488286139
 40
0.065695452
 40
0.0828347778
 40
0.1002321178
 40
0.1357393476
 40
0.1720930788
 40
0.2091620483
 40
0.2468100117
 40
0.2848968037
 40
0.3232793313
 40
0.3618125575
 40
0.4003504612
 40
0.4387469909
 40
0.4768570174
 40
0.5145372952
 40
0.551647441
 40
0.5880509289
 40
0.6236161457
 40
0.641045433
 40
0.6582186018
 40
0.6751210856
 40
0.6917388461
 40
0.7080584157
 40
0.7240669437
 40
0.7397522488
 40
0.755102874
 40
0.770108142
 40
0.7847582178
 40
0.7990441786
 40
0.8129580954
 40
0.8264931202
 40
0.8396435795
 40
0.8524050816
 40
0.8647746402
 40
0.8767508157
 40
0.8883338729
 40
0.8995259518
 40
0.9103312649
 40
0.9207563157
 40
0.9308101432
 40
0.9405045798
 40
0.9498545176
 40
0.9588781776
 40
0.9675973627
 40
0.976037669
 40
0.9842286149
 40
0.9922036492
 40
1.0
 40
1.0
 40
1.0
 40
1.0
 10
15.548753326
 20
13.1802789287
 30
0.0
 10
15.5458185317
 20
13.1707819307
 30
0.0
 10
15.5400788117
 20
13.1515434437
 30
0.0
 10
15.5319313391
 20
13.1222576222
 30
0.0
 10
15.5241693174
 20
13.0922887213
 30
0.0
 10
15.5168014684
 20
13.0616705278
 30
0.0
 10
15.5098359684
 20
13.0304369528
 30
0.0
 10
15.5010361371
 20
12.9877293082
 30
0.0
 10
15.491117607
 20
12.933047501
 30
0.0
 10
15.4810128718
 20
12.8659848613
 30
0.0
 10
15.4726716862
 20
12.7973376396
 30
0.0
 10
15.4661314557
 20
12.7274123754
 30
0.0
 10
15.4614215533
 20
12.6565207613
 30
0.0
 10
15.4585631156
 20
12.5849790546
 30
0.0
 10
15.4575689619
 20
12.5131064119
 30
0.0
 10
15.4584435807
 20
12.4412235009
 30
0.0
 10
15.4611830163
 20
12.3696510364
 30
0.0
 10
15.465774994
 20
12.2987083144
 30
0.0
 10
15.4721988929
 20
12.2287118232
 30
0.0
 10
15.4804258732
 20
12.1599735806
 30
0.0
 10
15.4904190364
 20
12.0928005358
 30
0.0
 10
15.5002459425
 20
12.0380138888
 30
0.0
 10
15.5089739865
 20
11.9952128827
 30
0.0
 10
15.5158874175
 20
11.9639030828
 30
0.0
 10
15.5232042207
 20
11.9332041855
 30
0.0
 10
15.5309162648
 20
11.903150377
 30
0.0
 10
15.5390149159
 20
11.8737752157
 30
0.0
 10
15.5474911304
 20
11.8451114733
 30
0.0
 10
15.5563354389
 20
11.8171911247
 30
0.0
 10
15.5655379595
 20
11.7900453008
 30
0.0
 10
15.5750884187
 20
11.7637042603
 30
0.0
 10
15.5849761622
 20
11.7381973567
 30
0.0
 10
15.5951901713
 20
11.7135530042
 30
0.0
 10
15.6057190714
 20
11.68979864
 30
0.0
 10
15.6165511441
 20
11.6669606905
 30
0.0
 10
15.6276743557
 20
11.6450645484
 30
0.0
 10
15.639076371
 20
11.6241345465
 30
0.0
 10
15.6507445769
 20
11.6041939317
 30
0.0
 10
15.6626660961
 20
11.5852648347
 30
0.0
 10
15.6748278073
 20
11.5673682467
 30
0.0
 10
15.6872163797
 20
11.5505240132
 30
0.0
 10
15.6998182937
 20
11.534750824
 30
0.0
 10
15.712619869
 20
11.5200662104
 30
0.0
 10
15.7256072782
 20
11.5064865384
 30
0.0
 10
15.7387665635
 20
11.4940270193
 30
0.0
 10
15.7520836579
 20
11.4827017426
 30
0.0
 10
15.7655443605
 20
11.4725237086
 30
0.0
 10
15.7791343599
 20
11.4635048513
 30
0.0
 10
15.7928390057
 20
11.4556560902
 30
0.0
 10
15.8066438131
 20
11.4489871834
 30
0.0
 10
15.8205322831
 20
11.4435072387
 30
0.0
 10
15.8299299336
 20
11.440623165
 30
0.0
 10
15.8346241602
 20
11.4393906693
 30
0.0
  0
SPLINE
  5
2B2
100
AcDbEntity
  8
LAYER_FEATURE
100
AcDbSpline
 62
7
  6
CONTINUOUS
 70
0
 71
3
 72
67
 73
63
 74
0
 42
0.0000001
 43
0.0000001
 44
0.0000000001
 40
0.0
 40
0.0
 40
0.0
 40
0.0
 40
0.0163581078
 40
0.0330510655
 40
0.0500642502
 40
0.0673826922
 40
0.0849905209
 40
0.1028713411
 40
0.1210081568
 40
0.139383461
 40
0.1579792696
 40
0.1767771678
 40
0.1957583524
 40
0.2149036733
 40
0.2536076562
 40
0.2927314909
 40
0.3321134766
 40
0.3715900539
 40
0.4109969873
 40
0.4501705398
 40
0.4889486508
 40
0.5081400232
 40
0.5271731428
 40
0.5460287624
 40
0.5646879696
 40
0.5831322271
 40
0.6013434157
 40
0.6193038766
 40
0.6369964578
 40
0.654404561
 40
0.6715121917
 40
0.6883040118
 40
0.7047653949
 40
0.7208824873
 40
0.7366422726
 40
0.7520326423
 40
0.7670424743
 40
0.7816617188
 40
0.7958814944
 40
0.8096941947
 40
0.8230936089
 40
0.8360750573
 40
0.8486355459
 40
0.8607739416
 40
0.872491171
 40
0.8837904452
 40
0.8946775129
 40
0.9051609415
 40
0.9152524227
 40
0.9249670997
 40
0.9343239019
 40
0.9433458673
 40
0.9520604224
 40
0.9604995766
 40
0.9686999789
 40
0.9767027772
 40
0.9806449751
 40
0.9845550531
 40
0.9884391972
 40
0.9923037473
 40
0.996155167
 40
1.0
 40
1.0
 40
1.0
 40
1.0
 10
15.4407568934
 20
13.351532475
 30
0.0
 10
15.436894039
 20
13.3390322738
 30
0.0
 10
15.4293478342
 20
13.3136953753
 30
0.0
 10
15.4186657428
 20
13.2751020263
 30
0.0
 10
15.4085160074
 20
13.2355717206
 30
0.0
 10
15.3989111316
 20
13.1951531928
 30
0.0
 10
15.3898628896
 20
13.1538957937
 30
0.0
 10
15.3813823863
 20
13.1118501245
 30
0.0
 10
15.3734800341
 20
13.0690676771
 30
0.0
 10
15.3661655345
 20
13.0256008829
 30
0.0
 10
15.3594478666
 20
12.9815029997
 30
0.0
 10
15.3533352899
 20
12.9368281024
 30
0.0
 10
15.3478352655
 20
12.8916308413
 30
0.0
 10
15.3413044728
 20
12.830526926
 30
0.0
 10
15.3347309877
 20
12.7532340209
 30
0.0
 10
15.3294035867
 20
12.6596277371
 30
0.0
 10
15.326635222
 20
12.5652924486
 30
0.0
 10
15.3264395139
 20
12.4706905566
 30
0.0
 10
15.3288174214
 20
12.3762849041
 30
0.0
 10
15.3337572476
 20
12.2825382365
 30
0.0
 10
15.3400096084
 20
12.2050824339
 30
0.0
 10
15.3462858119
 20
12.1438134777
 30
0.0
 10
15.3515982478
 20
12.098468406
 30
0.0
 10
15.3575253694
 20
12.053628922
 30
0.0
 10
15.3640599408
 20
12.0093498777
 30
0.0
 10
15.3711939272
 20
11.9656855707
 30
0.0
 10
15.3789185728
 20
11.9226895048
 30
0.0
 10
15.3872243936
 20
11.8804143695
 30
0.0
 10
15.3961011949
 20
11.8389119624
 30
0.0
 10
15.4055380812
 20
11.7982331271
 30
0.0
 10
15.4155234703
 20
11.7584276891
 30
0.0
 10
15.4260451101
 20
11.7195443945
 30
0.0
 10
15.4370900943
 20
11.6816308493
 30
0.0
 10
15.4486448794
 20
11.6447334601
 30
0.0
 10
15.4606953028
 20
11.6088973757
 30
0.0
 10
15.4732266026
 20
11.5741664307
 30
0.0
 10
15.4862234382
 20
11.5405830901
 30
0.0
 10
15.4996699132
 20
11.5081883948
 30
0.0
 10
15.513549596
 20
11.4770219089
 30
0.0
 10
15.5278455494
 20
11.4471216714
 30
0.0
 10
15.5425403571
 20
11.4185241495
 30
0.0
 10
15.5576161543
 20
11.3912641955
 30
0.0
 10
15.5730546602
 20
11.365375006
 30
0.0
 10
15.5888372133
 20
11.3408880869
 30
0.0
 10
15.6049448089
 20
11.3178332239
 30
0.0
 10
15.6213581401
 20
11.2962384609
 30
0.0
 10
15.6380576359
 20
11.2761300859
 30
0.0
 10
15.6550235016
 20
11.2575326332
 30
0.0
 10
15.6722357526
 20
11.2404689017
 30
0.0
 10
15.6896742373
 20
11.2249599868
 30
0.0
 10
15.7073186259
 20
11.2110253312
 30
0.0
 10
15.7251484124
 20
11.1986827757
 30
0.0
 10
15.743142705
 20
11.1879486326
 30
0.0
 10
15.7612805568
 20
11.1788376334
 30
0.0
 10
15.7795391482
 20
11.171363152
 30
0.0
 10
15.794916285
 20
11.1664828897
 30
0.0
 10
15.8072268609
 20
11.1634261753
 30
0.0
 10
15.8164292752
 20
11.1615584672
 30
0.0
 10
15.8256431969
 20
11.1601051622
 30
0.0
 10
15.8348659753
 20
11.1590667536
 30
0.0
 10
15.8440943946
 20
11.1584435319
 30
0.0
 10
15.8502508651
 20
11.158304998
 30
0.0
 10
15.853326018
 20
11.1583050005
 30
0.0
  0
SPLINE
  5
2B3
100
AcDbEntity
  8
02___PRT_ALL_AXES
100
AcDbSpline
 62
7
  6
CONTINUOUS
 70
0
 71
3
 72
65
 73
61
 74
0
 42
0.0000001
 43
0.0000001
 44
0.0000000001
 40
0.0
 40
0.0
 40
0.0
 40
0.0
 40
0.0082131187
 40
0.0162688957
 40
0.0242244051
 40
0.0321394504
 40
0.0400749735
 40
0.0480913374
 40
0.0562466742
 40
0.0645954707
 40
0.0731875091
 40
0.0820672019
 40
0.086627983
 40
0.0912747239
 40
0.100840292
 40
0.1107929605
 40
0.1211552472
 40
0.1319449784
 40
0.1431757242
 40
0.154857224
 40
0.1669957851
 40
0.1795946443
 40
0.1926542909
 40
0.2061727511
 40
0.2201458378
 40
0.2345673689
 40
0.249429358
 40
0.2647221816
 40
0.2804347261
 40
0.2965545183
 40
0.3130678416
 40
0.3299598406
 40
0.3472146153
 40
0.3648153068
 40
0.3827441766
 40
0.4009826797
 40
0.4195115333
 40
0.4383107811
 40
0.4573598542
 40
0.47663763
 40
0.4961224885
 40
0.5356236525
 40
0.5756836711
 40
0.6161170242
 40
0.6567351527
 40
0.6973480059
 40
0.7377655765
 40
0.7777994336
 40
0.7976149697
 40
0.8172654321
 40
0.8367284078
 40
0.8559818803
 40
0.8750042823
 40
0.8937745496
 40
0.912272181
 40
0.9304772839
 40
0.9483706776
 40
0.9659338382
 40
0.9831492661
 40
1.0
 40
1.0
 40
1.0
 40
1.0
 10
15.8420938045
 20
13.5847754238
 30
0.0
 10
15.847211201
 20
13.5865755537
 30
0.0
 10
15.857506983
 20
13.5897094861
 30
0.0
 10
15.8731942067
 20
13.5929677482
 30
0.0
 10
15.8889238387
 20
13.5947229038
 30
0.0
 10
15.9046697763
 20
13.5949707061
 30
0.0
 10
15.9204073902
 20
13.5937107432
 30
0.0
 10
15.9361117628
 20
13.5909456976
 30
0.0
 10
15.9517587693
 20
13.5866813512
 30
0.0
 10
15.967325391
 20
13.5809260021
 30
0.0
 10
15.9827891602
 20
13.5736904357
 30
0.0
 10
15.9954592674
 20
13.5665016356
 30
0.0
 10
16.0055159233
 20
13.5600491637
 30
0.0
 10
16.0157115703
 20
13.5529881864
 30
0.0
 10
16.0283589966
 20
13.5432313617
 30
0.0
 10
16.0432077876
 20
13.5302127815
 30
0.0
 10
16.0578542406
 20
13.5157904188
 30
0.0
 10
16.0722786432
 20
13.499984759
 30
0.0
 10
16.0864621316
 20
13.4828174935
 30
0.0
 10
16.1003858227
 20
13.4643122032
 30
0.0
 10
16.114031103
 20
13.4444941979
 30
0.0
 10
16.1273796017
 20
13.4233905721
 30
0.0
 10
16.1404132571
 20
13.4010301789
 30
0.0
 10
16.1531143553
 20
13.3774436108
 30
0.0
 10
16.1654655736
 20
13.3526631657
 30
0.0
 10
16.1774500187
 20
13.3267228078
 30
0.0
 10
16.189051262
 20
13.299658123
 30
0.0
 10
16.2002533716
 20
13.2715062701
 30
0.0
 10
16.2110409426
 20
13.2423059292
 30
0.0
 10
16.2213991248
 20
13.2120972469
 30
0.0
 10
16.2313136464
 20
13.1809217785
 30
0.0
 10
16.2407708375
 20
13.1488224283
 30
0.0
 10
16.2497576519
 20
13.1158433894
 30
0.0
 10
16.2582616873
 20
13.0820300804
 30
0.0
 10
16.2662712032
 20
13.0474290817
 30
0.0
 10
16.2737751398
 20
13.0120880694
 30
0.0
 10
16.2807631317
 20
12.976055751
 30
0.0
 10
16.2872255286
 20
12.9393817862
 30
0.0
 10
16.2931533903
 20
12.9021167606
 30
0.0
 10
16.2985385752
 20
12.8643119525
 30
0.0
 10
16.305014361
 20
12.8130240093
 30
0.0
 10
16.3116864774
 20
12.7479337877
 30
0.0
 10
16.3173930796
 20
12.6688715649
 30
0.0
 10
16.3208038785
 20
12.5889385161
 30
0.0
 10
16.3218999667
 20
12.508575357
 30
0.0
 10
16.3206752673
 20
12.4282243347
 30
0.0
 10
16.3171365503
 20
12.3483284734
 30
0.0
 10
16.3122593443
 20
12.2822710382
 30
0.0
 10
16.3072049893
 20
12.230003382
 30
0.0
 10
16.3028647502
 20
12.191321819
 30
0.0
 10
16.2979684089
 20
12.1530809923
 30
0.0
 10
16.2925226908
 20
12.1153335331
 30
0.0
 10
16.2865351313
 20
12.0781315179
 30
0.0
 10
16.2800140012
 20
12.0415262293
 30
0.0
 10
16.2729683091
 20
12.0055681376
 30
0.0
 10
16.2654077893
 20
11.9703067886
 30
0.0
 10
16.2573428831
 20
11.9357908274
 30
0.0
 10
16.2487847156
 20
11.9020676842
 30
0.0
 10
16.2397451509
 20
11.8691841055
 30
0.0
 10
16.2333354418
 20
11.8476135603
 30
0.0
 10
16.2300493574
 20
11.8369797873
 30
0.0
  0
SPLINE
  5
2B4
100
AcDbEntity
  8
LAYER_CHAMFER_FEAT
100
AcDbSpline
 62
7
  6
CONTINUOUS
 70
0
 71
3
 72
55
 73
51
 74
0
 42
0.0000001
 43
0.0000001
 44
0.0000000001
 40
0.0
 40
0.0
 40
0.0
 40
0.0
 40
0.0101614394
 40
0.0206686836
 40
0.0315254314
 40
0.042733694
 40
0.0542939473
 40
0.0662052605
 40
0.0784654233
 40
0.091071062
 40
0.1040177361
 40
0.1173000157
 40
0.1309115654
 40
0.144845219
 40
0.1590930413
 40
0.1736463765
 40
0.1884959055
 40
0.2036316975
 40
0.2190432525
 40
0.2347195341
 40
0.2506490118
 40
0.2668197009
 40
0.2998337606
 40
0.3336588662
 40
0.3681858258
 40
0.4033009569
 40
0.4388869326
 40
0.4748235532
 40
0.5109885236
 40
0.5472581906
 40
0.5835082859
 40
0.6196146562
 40
0.6554539949
 40
0.6909045872
 40
0.7258470518
 40
0.7601651257
 40
0.7937464453
 40
0.8264834075
 40
0.842503645
 40
0.8582750719
 40
0.8737859888
 40
0.8890251727
 40
0.9039819155
 40
0.9186460731
 40
0.9330080922
 40
0.9470590759
 40
0.9607908164
 40
0.9741957646
 40
0.9872675821
 40
1.0
 40
1.0
 40
1.0
 40
1.0
 10
15.7242033599
 20
13.4750296505
 30
0.0
 10
15.7201571196
 20
13.4701820465
 30
0.0
 10
15.712130587
 20
13.4601503067
 30
0.0
 10
15.700480786
 20
13.4443954283
 30
0.0
 10
15.6890321899
 20
13.4276988326
 30
0.0
 10
15.6777964475
 20
13.410077607
 30
0.0
 10
15.666784673
 20
13.3915493265
 30
0.0
 10
15.6560078768
 20
13.3721326186
 30
0.0
 10
15.6454768301
 20
13.3518469804
 30
0.0
 10
15.6352020938
 20
13.3307127945
 30
0.0
 10
15.6251939951
 20
13.3087513011
 30
0.0
 10
15.6154625924
 20
13.2859845955
 30
0.0
 10
15.6060176754
 20
13.2624355957
 30
0.0
 10
15.5968687611
 20
13.2381280111
 30
0.0
 10
15.5880250831
 20
13.213086321
 30
0.0
 10
15.5794955575
 20
13.187335762
 30
0.0
 10
15.5712887875
 20
13.1609022934
 30
0.0
 10
15.563413061
 20
13.1338125658
 30
0.0
 10
15.5558763386
 20
13.1060938897
 30
0.0
 10
15.5486862404
 20
13.0777742442
 30
0.0
 10
15.5418499811
 20
13.0488821362
 30
0.0
 10
15.5331563831
 20
13.0093633416
 30
0.0
 10
15.5232417769
 20
12.9587337295
 30
0.0
 10
15.5129380022
 20
12.8965844009
 30
0.0
 10
15.5041892918
 20
12.8328791928
 30
0.0
 10
15.4970310831
 20
12.7678752712
 30
0.0
 10
15.4914924397
 20
12.7018345527
 30
0.0
 10
15.4875957835
 20
12.635023364
 30
0.0
 10
15.4853569592
 20
12.5677111411
 30
0.0
 10
15.4847850069
 20
12.5001693833
 30
0.0
 10
15.4858822874
 20
12.4326705255
 30
0.0
 10
15.4886443088
 20
12.3654868266
 30
0.0
 10
15.4930599098
 20
12.2988892605
 30
0.0
 10
15.4991111403
 20
12.2331463881
 30
0.0
 10
15.5067735019
 20
12.1685233176
 30
0.0
 10
15.5160158875
 20
12.1052803988
 30
0.0
 10
15.5268008611
 20
12.0436729152
 30
0.0
 10
15.5371101798
 20
11.9935478005
 30
0.0
 10
15.5461125964
 20
11.9544715034
 30
0.0
 10
15.5531724976
 20
11.9259364375
 30
0.0
 10
15.5605817025
 20
11.8979918925
 30
0.0
 10
15.5683327756
 20
11.8706659926
 30
0.0
 10
15.5764178844
 20
11.843986318
 30
0.0
 10
15.5848288604
 20
11.8179797656
 30
0.0
 10
15.5935572071
 20
11.7926725467
 30
0.0
 10
15.602594126
 20
11.7680901578
 30
0.0
 10
15.6119304975
 20
11.7442574328
 30
0.0
 10
15.6215569488
 20
11.7211981705
 30
0.0
 10
15.6314636866
 20
11.6989359651
 30
0.0
 10
15.6383398342
 20
11.6844480092
 30
0.0
 10
15.6418254059
 20
11.6773451611
 30
0.0
  0
SPLINE
  5
2B5
100
AcDbEntity
  8
LAYER_CHAMFER_FEAT
100
AcDbSpline
 62
7
  6
CONTINUOUS
 70
0
 71
3
 72
22
 73
18
 74
0
 42
0.0000001
 43
0.0000001
 44
0.0000000001
 40
0.0
 40
0.0
 40
0.0
 40
0.0
 40
0.0743637654
 40
0.1467097929
 40
0.2170952342
 40
0.2855871928
 40
0.3522636821
 40
0.4172139908
 40
0.5423131963
 40
0.6027414637
 40
0.6619227267
 40
0.7200076575
 40
0.7771584872
 40
0.8335479806
 40
0.8893578938
 40
0.9447772356
 40
1.0
 40
1.0
 40
1.0
 40
1.0
 10
15.7122228358
 20
11.5615269779
 30
0.0
 10
15.7152936202
 20
11.558153442
 30
0.0
 10
15.7214665697
 20
11.5516010575
 30
0.0
 10
15.7309506583
 20
11.5422472308
 30
0.0
 10
15.7405246945
 20
11.5335107774
 30
0.0
 10
15.7501824531
 20
11.5253976269
 30
0.0
 10
15.759918568
 20
11.5179126015
 30
0.0
 10
15.7728319759
 20
11.5088911961
 30
0.0
 10
15.7860493586
 20
11.5009938365
 30
0.0
 10
15.7995178911
 20
11.4943506643
 30
0.0
 10
15.8095512453
 20
11.490074217
 30
0.0
 10
15.8196249348
 20
11.486450335
 30
0.0
 10
15.8297327773
 20
11.4834815054
 30
0.0
 10
15.8398680004
 20
11.4811699766
 30
0.0
 10
15.8500240538
 20
11.4795176025
 30
0.0
 10
15.8601935154
 20
11.4785256192
 30
0.0
 10
15.8669829098
 20
11.4783050018
 30
0.0
 10
15.8703705526
 20
11.4783049965
 30
0.0
  0
SPLINE
  5
2B6
100
AcDbEntity
  8
LAYER_CHAMFER_FEAT
100
AcDbSpline
 62
7
  6
CONTINUOUS
 70
0
 71
3
 72
22
 73
18
 74
0
 42
0.0000001
 43
0.0000001
 44
0.0000000001
 40
0.0
 40
0.0
 40
0.0
 40
0.0
 40
0.0551589195
 40
0.1105163966
 40
0.1662683763
 40
0.2226056495
 40
0.2797116956
 40
0.3377607479
 40
0.3969163149
 40
0.4573302246
 40
0.5824375335
 40
0.6474117529
 40
0.7141257352
 40
0.7826690071
 40
0.8531194386
 40
0.925544159
 40
1.0
 40
1.0
 40
1.0
 40
1.0
 10
15.8703705526
 20
13.5433049893
 30
0.0
 10
15.8669638031
 20
13.5433049947
 30
0.0
 10
15.8601359573
 20
13.5430818444
 30
0.0
 10
15.8499090663
 20
13.5420786513
 30
0.0
 10
15.8396958321
 20
13.5404075097
 30
0.0
 10
15.829503781
 20
13.5380698427
 30
0.0
 10
15.8193396007
 20
13.5350674259
 30
0.0
 10
15.8092101662
 20
13.53140262
 30
0.0
 10
15.7991217514
 20
13.5270779881
 30
0.0
 10
15.7855786945
 20
13.5203593495
 30
0.0
 10
15.7722908726
 20
13.5123732101
 30
0.0
 10
15.7593113356
 20
13.5032518972
 30
0.0
 10
15.7495251965
 20
13.4956834659
 30
0.0
 10
15.7398187615
 20
13.4874801296
 30
0.0
 10
15.7301974082
 20
13.4786469
 30
0.0
 10
15.7206675388
 20
13.469189758
 30
0.0
 10
15.7144659646
 20
13.46256575
 30
0.0
 10
15.7113811157
 20
13.4591553842
 30
0.0
  0
SPLINE
  5
2B7
100
AcDbEntity
  8
LAYER_FEATURE
100
AcDbSpline
 62
7
  6
CONTINUOUS
 70
0
 71
3
 72
39
 73
35
 74
0
 42
0.0000001
 43
0.0000001
 44
0.0000000001
 40
0.0
 40
0.0
 40
0.0
 40
0.0
 40
0.0443812782
 40
0.0879669214
 40
0.1307335038
 40
0.1726618815
 40
0.2137331562
 40
0.2539301977
 40
0.293237698
 40
0.3316421084
 40
0.3691319095
 40
0.4056977091
 40
0.441332399
 40
0.4760313896
 40
0.5097927946
 40
0.5426176367
 40
0.5745101277
 40
0.6054779635
 40
0.6355325902
 40
0.6646895405
 40
0.6929688272
 40
0.7203952848
 40
0.7469989421
 40
0.772815437
 40
0.7978863791
 40
0.8222596417
 40
0.8459896179
 40
0.86913737
 40
0.8917705711
 40
0.9139632724
 40
0.9357954499
 40
0.9573522578
 40
0.97872302
 40
1.0
 40
1.0
 40
1.0
 40
1.0
 10
15.4407568934
 20
13.351532475
 30
0.0
 10
15.4437993652
 20
13.3613779176
 30
0.0
 10
15.4499874213
 20
13.3808440375
 30
0.0
 10
15.4596705181
 20
13.4096144954
 30
0.0
 10
15.4696647641
 20
13.4376746675
 30
0.0
 10
15.4799621125
 20
13.4650020973
 30
0.0
 10
15.4905545186
 20
13.4915754092
 30
0.0
 10
15.5014335936
 20
13.5173735901
 30
0.0
 10
15.5125907531
 20
13.5423762906
 30
0.0
 10
15.5240172206
 20
13.5665637986
 30
0.0
 10
15.5357039786
 20
13.5899170562
 30
0.0
 10
15.5476418298
 20
13.6124176669
 30
0.0
 10
15.5598214085
 20
13.6340479015
 30
0.0
 10
15.5722331477
 20
13.6547907371
 30
0.0
 10
15.584867314
 20
13.6746298583
 30
0.0
 10
15.5977140381
 20
13.6935496497
 30
0.0
 10
15.6107633033
 20
13.7115352224
 30
0.0
 10
15.6240049393
 20
13.7285724382
 30
0.0
 10
15.6374286722
 20
13.7446478829
 30
0.0
 10
15.6510241334
 20
13.7597488672
 30
0.0
 10
15.6647808254
 20
13.7738634696
 30
0.0
 10
15.6786881682
 20
13.7869805017
 30
0.0
 10
15.6927355134
 20
13.7990894817
 30
0.0
 10
15.7069121132
 20
13.8101806636
 30
0.0
 10
15.7212071147
 20
13.8202450336
 30
0.0
 10
15.7356095753
 20
13.8292742568
 30
0.0
 10
15.7501084262
 20
13.8372606823
 30
0.0
 10
15.7646924127
 20
13.8441974089
 30
0.0
 10
15.7793500867
 20
13.8500782425
 30
0.0
 10
15.7940697992
 20
13.8548977182
 30
0.0
 10
15.8088395259
 20
13.85865123
 30
0.0
 10
15.8236473286
 20
13.8613350785
 30
0.0
 10
15.8384797325
 20
13.8629465147
 30
0.0
 10
15.8483857477
 20
13.8633049812
 30
0.0
 10
15.853326018
 20
13.8633049853
 30
0.0
  0
LINE
  5
2B8
100
AcDbEntity
  8
02___PRT_ALL_AXES
100
AcDbLine
 62
7
  6
CONTINUOUS
 10
15.6769370026
 20
11.8399048432
 11
15.575645143
 21
11.8467260286
  0
SPLINE
  5
2B9
100
AcDbEntity
  8
LAYER_FEATURE
100
AcDbSpline
 62
7
  6
CONTINUOUS
 70
0
 71
3
 72
67
 73
63
 74
0
 42
0.0000001
 43
0.0000001
 44
0.0000000001
 40
0.0
 40
0.0
 40
0.0
 40
0.0
 40
0.0163581013
 40
0.0330510694
 40
0.0500642491
 40
0.0673826926
 40
0.0849905208
 40
0.1028713409
 40
0.1210081566
 40
0.1393834611
 40
0.15797927
 40
0.1767771682
 40
0.1957583526
 40
0.2149036734
 40
0.2536076561
 40
0.292731491
 40
0.3321134768
 40
0.371590054
 40
0.4109969877
 40
0.45017054
 40
0.4889486503
 40
0.5081400228
 40
0.5271731428
 40
0.546028763
 40
0.5646879707
 40
0.5831322282
 40
0.601343416
 40
0.6193038759
 40
0.6369964566
 40
0.65440456
 40
0.6715121917
 40
0.6883040129
 40
0.7047653969
 40
0.720882489
 40
0.7366422729
 40
0.7520326412
 40
0.7670424724
 40
0.7816617173
 40
0.7958814943
 40
0.8096941963
 40
0.8230936114
 40
0.8360750592
 40
0.8486355463
 40
0.8607739405
 40
0.872491169
 40
0.8837904436
 40
0.8946775128
 40
0.905160943
 40
0.9152524249
 40
0.9249671014
 40
0.9343239024
 40
0.9433458667
 40
0.9520604213
 40
0.9604995757
 40
0.9686999787
 40
0.9767027777
 40
0.9806449746
 40
0.9845550535
 40
0.9884391969
 40
0.9923037475
 40
0.9961551669
 40
1.0
 40
1.0
 40
1.0
 40
1.0
 10
14.6339123689
 20
13.351532475
 30
0.0
 10
14.6300495161
 20
13.3390322789
 30
0.0
 10
14.6225033112
 20
13.3136953771
 30
0.0
 10
14.6118212187
 20
13.2751020294
 30
0.0
 10
14.6016714833
 20
13.2355717179
 30
0.0
 10
14.5920666073
 20
13.1951531935
 30
0.0
 10
14.583018365
 20
13.1538957937
 30
0.0
 10
14.5745378612
 20
13.1118501251
 30
0.0
 10
14.5666355088
 20
13.0690676777
 30
0.0
 10
14.5593210099
 20
13.0256008828
 30
0.0
 10
14.5526033432
 20
12.981502999
 30
0.0
 10
14.5464907667
 20
12.9368281015
 30
0.0
 10
14.5409907421
 20
12.8916308408
 30
0.0
 10
14.5344599484
 20
12.830526926
 30
0.0
 10
14.527886461
 20
12.7532340213
 30
0.0
 10
14.5225590621
 20
12.6596277373
 30
0.0
 10
14.5197907006
 20
12.5652924486
 30
0.0
 10
14.5195949899
 20
12.4706905565
 30
0.0
 10
14.5219728935
 20
12.3762849039
 30
0.0
 10
14.5269127228
 20
12.2825382368
 30
0.0
 10
14.5331650874
 20
12.2050824352
 30
0.0
 10
14.5394412895
 20
12.143813479
 30
0.0
 10
14.5447537236
 20
12.0984684063
 30
0.0
 10
14.5506808432
 20
12.0536289208
 30
0.0
 10
14.5572154132
 20
12.0093498754
 30
0.0
 10
14.5643494001
 20
11.9656855688
 30
0.0
 10
14.5720740482
 20
11.9226895048
 30
0.0
 10
14.5803798716
 20
11.880414372
 30
0.0
 10
14.5892566739
 20
11.8389119661
 30
0.0
 10
14.598693559
 20
11.79823313
 30
0.0
 10
14.608678946
 20
11.7584276896
 30
0.0
 10
14.6192005837
 20
11.719544392
 30
0.0
 10
14.6302455665
 20
11.6816308449
 30
0.0
 10
14.6418003524
 20
11.6447334566
 30
0.0
 10
14.6538507782
 20
11.6088973756
 30
0.0
 10
14.6663820803
 20
11.5741664346
 30
0.0
 10
14.6793789172
 20
11.540583096
 30
0.0
 10
14.692825391
 20
11.5081883994
 30
0.0
 10
14.7067050718
 20
11.4770219096
 30
0.0
 10
14.721001023
 20
11.4471216675
 30
0.0
 10
14.7356958294
 20
11.4185241432
 30
0.0
 10
14.7507716277
 20
11.3912641908
 30
0.0
 10
14.7662101356
 20
11.3653750058
 30
0.0
 10
14.7819926905
 20
11.3408880917
 30
0.0
 10
14.7981002872
 20
11.3178332315
 30
0.0
 10
14.8145136177
 20
11.2962384669
 30
0.0
 10
14.8312131116
 20
11.2761300867
 30
0.0
 10
14.8481789754
 20
11.2575326283
 30
0.0
 10
14.8653912257
 20
11.240468894
 30
0.0
 10
14.8828297116
 20
11.2249599815
 30
0.0
 10
14.9004741015
 20
11.211025331
 30
0.0
 10
14.918303889
 20
11.1986827806
 30
0.0
 10
14.9362981821
 20
11.1879486413
 30
0.0
 10
14.9544360331
 20
11.1788376392
 30
0.0
 10
14.9726946246
 20
11.1713631577
 30
0.0
 10
14.9880717558
 20
11.1664828715
 30
0.0
 10
15.0003823403
 20
11.1634261919
 30
0.0
 10
15.0095847469
 20
11.1615584479
 30
0.0
 10
15.0187986752
 20
11.1601051813
 30
0.0
 10
15.0280214491
 20
11.1590667401
 30
0.0
 10
15.0372498707
 20
11.1584435398
 30
0.0
 10
15.0434063406
 20
11.1583050035
 30
0.0
 10
15.0464814935
 20
11.1583050005
 30
0.0
  0
SPLINE
  5
2BA
100
AcDbEntity
  8
LAYER_FEATURE
100
AcDbSpline
 62
7
  6
CONTINUOUS
 70
0
 71
3
 72
39
 73
35
 74
0
 42
0.0000001
 43
0.0000001
 44
0.0000000001
 40
0.0
 40
0.0
 40
0.0
 40
0.0
 40
0.0443812481
 40
0.0879669295
 40
0.1307335086
 40
0.172661876
 40
0.2137331571
 40
0.2539301992
 40
0.2932376968
 40
0.3316421073
 40
0.369131911
 40
0.4056977099
 40
0.4413323968
 40
0.4760313903
 40
0.5097927974
 40
0.5426176342
 40
0.5745101269
 40
0.6054779669
 40
0.6355325892
 40
0.664689538
 40
0.6929688298
 40
0.7203952869
 40
0.7469989387
 40
0.7728154376
 40
0.7978863828
 40
0.8222596394
 40
0.8459896168
 40
0.869137373
 40
0.8917705712
 40
0.9139632708
 40
0.935795451
 40
0.9573522592
 40
0.9787230199
 40
1.0
 40
1.0
 40
1.0
 40
1.0
 10
14.6339123689
 20
13.351532475
 30
0.0
 10
14.6369548387
 20
13.3613779109
 30
0.0
 10
14.6431428963
 20
13.3808440323
 30
0.0
 10
14.6528259921
 20
13.4096144917
 30
0.0
 10
14.6628202393
 20
13.4376746694
 30
0.0
 10
14.6731175893
 20
13.4650020968
 30
0.0
 10
14.6837099941
 20
13.4915754083
 30
0.0
 10
14.694589068
 20
13.5173735908
 30
0.0
 10
14.7057462295
 20
13.54237629
 30
0.0
 10
14.7171726972
 20
13.5665637977
 30
0.0
 10
14.728859453
 20
13.5899170569
 30
0.0
 10
14.7407973045
 20
13.6124176673
 30
0.0
 10
14.7529768864
 20
13.6340478998
 30
0.0
 10
14.765388623
 20
13.6547907374
 30
0.0
 10
14.7780227866
 20
13.6746298603
 30
0.0
 10
14.7908695165
 20
13.6935496473
 30
0.0
 10
14.80391878
 20
13.7115352213
 30
0.0
 10
14.8171604114
 20
13.7285724412
 30
0.0
 10
14.830584149
 20
13.7446478815
 30
0.0
 10
14.8441796117
 20
13.759748864
 30
0.0
 10
14.8579362988
 20
13.7738634722
 30
0.0
 10
14.8718436415
 20
13.7869805043
 30
0.0
 10
14.8858909932
 20
13.7990894759
 30
0.0
 10
14.9000675884
 20
13.8101806639
 30
0.0
 10
14.9143625859
 20
13.8202450405
 30
0.0
 10
14.9287650546
 20
13.8292742503
 30
0.0
 10
14.9432639031
 20
13.8372606787
 30
0.0
 10
14.9578478849
 20
13.8441974171
 30
0.0
 10
14.972505563
 20
13.8500782411
 30
0.0
 10
14.987225277
 20
13.8548977095
 30
0.0
 10
15.001995
 20
13.8586512351
 30
0.0
 10
15.0168028035
 20
13.8613350874
 30
0.0
 10
15.0316352091
 20
13.8629464963
 30
0.0
 10
15.0415412232
 20
13.8633049902
 30
0.0
 10
15.0464814935
 20
13.8633049853
 30
0.0
  0
SPLINE
  5
2BB
100
AcDbEntity
  8
LAYER_CUT_FEAT
100
AcDbSpline
 62
7
  6
CONTINUOUS
 70
0
 71
3
 72
13
 73
9
 74
0
 42
0.0000001
 43
0.0000001
 44
0.0000000001
 40
0.0
 40
0.0
 40
0.0
 40
0.0
 40
0.2713313526
 40
0.5297752228
 40
0.6535128472
 40
0.7732662531
 40
0.8888242375
 40
1.0
 40
1.0
 40
1.0
 40
1.0
 10
15.6062395965
 20
13.1975883739
 30
0.0
 10
15.6056513078
 20
13.2010395088
 30
0.0
 10
15.6043460517
 20
13.2077524346
 30
0.0
 10
15.6023114057
 20
13.2159400225
 30
0.0
 10
15.600475814
 20
13.2221516748
 30
0.0
 10
15.5990268099
 20
13.2265528038
 30
0.0
 10
15.5974896934
 20
13.2307517344
 30
0.0
 10
15.5963870955
 20
13.2334623414
 30
0.0
 10
15.5958206965
 20
13.2347802565
 30
0.0
  0
SPLINE
  5
2BC
100
AcDbEntity
  8
LAYER_FEATURE
100
AcDbSpline
 62
7
  6
CONTINUOUS
 70
0
 71
3
 72
11
 73
7
 74
0
 42
0.0000001
 43
0.0000001
 44
0.0000000001
 40
0.0
 40
0.0
 40
0.0
 40
0.0
 40
0.2170116498
 40
0.455987776
 40
0.7171496711
 40
1.0
 40
1.0
 40
1.0
 40
1.0
 10
14.6824856828
 20
12.9629074181
 30
0.0
 10
14.6830354912
 20
12.9634953293
 30
0.0
 10
14.6841072288
 20
12.9648099003
 30
0.0
 10
14.6855624889
 20
12.9670410049
 30
0.0
 10
14.6869307368
 20
12.9696063526
 30
0.0
 10
14.6877459815
 20
12.97145419
 30
0.0
 10
14.6881396036
 20
12.9724267002
 30
0.0
  0
SPLINE
  5
2BD
100
AcDbEntity
  8
LAYER_FEATURE
100
AcDbSpline
 62
7
  6
CONTINUOUS
 70
0
 71
3
 72
20
 73
16
 74
0
 42
0.0000001
 43
0.0000001
 44
0.0000000001
 40
0.0
 40
0.0
 40
0.0
 40
0.0
 40
0.038248543
 40
0.077575017
 40
0.1189575251
 40
0.1631952538
 40
0.2108914155
 40
0.2624662595
 40
0.3181797711
 40
0.3781615789
 40
0.4424377176
 40
0.5109464345
 40
0.6600459302
 40
0.8238364678
 40
1.0
 40
1.0
 40
1.0
 40
1.0
 10
14.6623027469
 20
12.9629338302
 30
0.0
 10
14.6621751525
 20
12.962933834
 30
0.0
 10
14.6619157651
 20
12.9629095216
 30
0.0
 10
14.6615320058
 20
12.9628012019
 30
0.0
 10
14.6611536121
 20
12.9626223017
 30
0.0
 10
14.6607826573
 20
12.9623744947
 30
0.0
 10
14.6604206266
 20
12.9620595783
 30
0.0
 10
14.6600690303
 20
12.9616793425
 30
0.0
 10
14.6597293644
 20
12.9612357713
 30
0.0
 10
14.6594031694
 20
12.9607310947
 30
0.0
 10
14.659092002
 20
12.9601678209
 30
0.0
 10
14.6586877799
 20
12.9593182683
 30
0.0
 10
14.6582362609
 20
12.9581263646
 30
0.0
 10
14.6577906824
 20
12.9565553958
 30
0.0
 10
14.6575614684
 20
12.9554436484
 30
0.0
 10
14.6574609212
 20
12.9548646449
 30
0.0
  0
SPLINE
  5
2BE
100
AcDbEntity
  8
LAYER_FEATURE
100
AcDbSpline
 62
7
  6
CONTINUOUS
 70
0
 71
3
 72
18
 73
14
 74
0
 42
0.0000001
 43
0.0000001
 44
0.0000000001
 40
0.0
 40
0.0
 40
0.0
 40
0.0
 40
0.0402725329
 40
0.0814524843
 40
0.124374849
 40
0.1697529929
 40
0.2181544353
 40
0.2700038577
 40
0.3850175297
 40
0.5160481353
 40
0.6629757809
 40
0.8248183816
 40
1.0
 40
1.0
 40
1.0
 40
1.0
 10
14.6872140924
 20
13.1026879921
 30
0.0
 10
14.6871005059
 20
13.1026879871
 30
0.0
 10
14.6868703447
 20
13.1026688291
 30
0.0
 10
14.6865287271
 20
13.1025832562
 30
0.0
 10
14.686190754
 20
13.1024415356
 30
0.0
 10
14.6858579777
 20
13.1022447283
 30
0.0
 10
14.6855315244
 20
13.1019940105
 30
0.0
 10
14.6850910503
 20
13.1015747971
 30
0.0
 10
14.6845673302
 20
13.1009125582
 30
0.0
 10
14.6840041699
 20
13.0999551457
 30
0.0
 10
14.6834930286
 20
13.0988227177
 30
0.0
 10
14.683041871
 20
13.0975330234
 30
0.0
 10
14.6827946162
 20
13.0966142819
 30
0.0
 10
14.6826810583
 20
13.0961334186
 30
0.0
  0
SPLINE
  5
2BF
100
AcDbEntity
  8
LAYER_FEATURE
100
AcDbSpline
 62
7
  6
CONTINUOUS
 70
0
 71
3
 72
16
 73
12
 74
0
 42
0.0000001
 43
0.0000001
 44
0.0000000001
 40
0.0
 40
0.0
 40
0.0
 40
0.0
 40
0.0426527257
 40
0.0860484769
 40
0.17759946
 40
0.2793792901
 40
0.3942713203
 40
0.5237379918
 40
0.6681800605
 40
0.8272402624
 40
1.0
 40
1.0
 40
1.0
 40
1.0
 10
14.7187499943
 20
13.2333225063
 30
0.0
 10
14.718650386
 20
13.2333225035
 30
0.0
 10
14.7184491312
 20
13.2333078268
 30
0.0
 10
14.7180428004
 20
13.233218896
 30
0.0
 10
14.7175328567
 20
13.2329890491
 30
0.0
 10
14.7169564953
 20
13.232550298
 30
0.0
 10
14.7164071307
 20
13.2319528309
 30
0.0
 10
14.715889327
 20
13.231204247
 30
0.0
 10
14.7154079036
 20
13.2303132187
 30
0.0
 10
14.7149683223
 20
13.2292902487
 30
0.0
 10
14.7147163585
 20
13.2285566794
 30
0.0
 10
14.7145972405
 20
13.2281712133
 30
0.0
  0
SPLINE
  5
2C0
100
AcDbEntity
  8
LAYER_CHAMFER_FEAT
100
AcDbSpline
 62
7
  6
CONTINUOUS
 70
0
 71
3
 72
41
 73
37
 74
0
 42
0.0000001
 43
0.0000001
 44
0.0000000001
 40
0.0
 40
0.0
 40
0.0
 40
0.0
 40
0.0439501712
 40
0.0865552352
 40
0.1278034947
 40
0.1676910387
 40
0.2062191662
 40
0.2433966268
 40
0.2792398852
 40
0.3137740872
 40
0.3470339812
 40
0.3790649119
 40
0.409923867
 40
0.4249369009
 40
0.439684215
 40
0.4684217792
 40
0.4962378025
 40
0.5232444185
 40
0.5495681417
 40
0.5753489258
 40
0.6007383777
 40
0.6258970849
 40
0.6509911761
 40
0.6761883667
 40
0.7016538493
 40
0.7275464261
 40
0.7540152264
 40
0.7811972411
 40
0.8092157353
 40
0.8235752975
 40
0.8381835113
 40
0.8681867194
 40
0.8993094304
 40
0.9316182996
 40
0.9651675491
 40
1.0
 40
1.0
 40
1.0
 40
1.0
 10
16.1569425421
 20
13.3442648248
 30
0.0
 10
16.1532550145
 20
13.3517792158
 30
0.0
 10
16.1457876939
 20
13.3664786097
 30
0.0
 10
16.134119477
 20
13.387844278
 30
0.0
 10
16.1221701005
 20
13.4081619012
 30
0.0
 10
16.1099539182
 20
13.4274070371
 30
0.0
 10
16.0974851787
 20
13.4455569565
 30
0.0
 10
16.0847785429
 20
13.4625900583
 30
0.0
 10
16.071848804
 20
13.4784861231
 30
0.0
 10
16.0587109914
 20
13.4932262069
 30
0.0
 10
16.0453801393
 20
13.5067927856
 30
0.0
 10
16.031871905
 20
13.5191692209
 30
0.0
 10
16.0203760034
 20
13.5285635875
 30
0.0
 10
16.011107659
 20
13.5354502995
 30
0.0
 10
16.0019583379
 20
13.5418101333
 30
0.0
 10
15.9904348497
 20
13.5490151956
 30
0.0
 10
15.976371586
 20
13.5564933074
 30
0.0
 10
15.9622094965
 20
13.5627181655
 30
0.0
 10
15.947965828
 20
13.5676804424
 30
0.0
 10
15.9336580786
 20
13.5713724524
 30
0.0
 10
15.9193045519
 20
13.5737880949
 30
0.0
 10
15.9049241607
 20
13.5749231977
 30
0.0
 10
15.890536262
 20
13.574775734
 30
0.0
 10
15.8761603455
 20
13.5733459689
 30
0.0
 10
15.8618156858
 20
13.5706364304
 30
0.0
 10
15.8475210919
 20
13.5666517757
 30
0.0
 10
15.8332945921
 20
13.5613984537
 30
0.0
 10
15.8191539598
 20
13.5548847382
 30
0.0
 10
15.8075507354
 20
13.5484667208
 30
0.0
 10
15.7983341216
 20
13.5427324736
 30
0.0
 10
15.7889995052
 20
13.5364837951
 30
0.0
 10
15.7774102076
 20
13.5278798332
 30
0.0
 10
15.7637756755
 20
13.516430087
 30
0.0
 10
15.7503065731
 20
13.5037784077
 30
0.0
 10
15.7370190207
 20
13.4899408323
 30
0.0
 10
15.7284543692
 20
13.4801225783
 30
0.0
 10
15.7242033599
 20
13.4750296505
 30
0.0
  0
SPLINE
  5
2C1
100
AcDbEntity
  8
LAYER_FEATURE
100
AcDbSpline
 62
7
  6
CONTINUOUS
 70
0
 71
3
 72
99
 73
95
 74
0
 42
0.0000001
 43
0.0000001
 44
0.0000000001
 40
0.0
 40
0.0
 40
0.0
 40
0.0
 40
0.0178412071
 40
0.0361831519
 40
0.0549943238
 40
0.0742409385
 40
0.0938874902
 40
0.1138968377
 40
0.1342304219
 40
0.1548484491
 40
0.1757100653
 40
0.1967735239
 40
0.2179963484
 40
0.2393354938
 40
0.2607475032
 40
0.2821886636
 40
0.3036151592
 40
0.3249832258
 40
0.3462493049
 40
0.367370198
 40
0.388303223
 40
0.4090063738
 40
0.4294384831
 40
0.4495593875
 40
0.4693300999
 40
0.4887129906
 40
0.5076719791
 40
0.526172735
 40
0.5441828959
 40
0.5616723064
 40
0.5786132867
 40
0.5949809318
 40
0.6107534497
 40
0.6184110076
 40
0.6259132495
 40
0.6332585109
 40
0.6404454203
 40
0.6474728993
 40
0.6543401936
 40
0.6610469005
 40
0.6675929778
 40
0.673978793
 40
0.6802051366
 40
0.686273259
 40
0.6921849161
 40
0.6979423874
 40
0.7035485368
 40
0.7090068425
 40
0.7143214394
 40
0.7245373784
 40
0.7294529549
 40
0.7342488484
 40
0.738933111
 40
0.7435146696
 40
0.7480033129
 40
0.7524096819
 40
0.7567452282
 40
0.7610221427
 40
0.7652532713
 40
0.7694519891
 40
0.7736320618
 40
0.7778074851
 40
0.781992312
 40
0.7862004788
 40
0.7904456363
 40
0.7947409961
 40
0.799099192
 40
0.8035321769
 40
0.8080511314
 40
0.8126664113
 40
0.8173875178
 40
0.822223075
 40
0.8322653857
 40
0.837487551
 40
0.8428503033
 40
0.8483582374
 40
0.8540152668
 40
0.8598246554
 40
0.8657890608
 40
0.8719105884
 40
0.8781908109
 40
0.8846308237
 40
0.8912312714
 40
0.8979923736
 40
0.9049139714
 40
0.9119955335
 40
0.9192361955
 40
0.9266347807
 40
0.9341898098
 40
0.9418995372
 40
0.9497619477
 40
0.9659350457
 40
0.9826889852
 40
1.0
 40
1.0
 40
1.0
 40
1.0
 10
15.4934088303
 20
13.2930591534
 30
0.0
 10
15.4883507607
 20
13.2766912341
 30
0.0
 10
15.4785704931
 20
13.2433466183
 30
0.0
 10
15.4650693517
 20
13.1922887647
 30
0.0
 10
15.452558391
 20
13.1395912576
 30
0.0
 10
15.4410679494
 20
13.0853811456
 30
0.0
 10
15.4306257033
 20
13.0297886108
 30
0.0
 10
15.421256865
 20
12.9729473285
 30
0.0
 10
15.4129840374
 20
12.9149939827
 30
0.0
 10
15.405827192
 20
12.8560679748
 30
0.0
 10
15.3998036089
 20
12.7963110664
 30
0.0
 10
15.3949278381
 20
12.7358670396
 30
0.0
 10
15.3912116487
 20
12.6748813475
 30
0.0
 10
15.3886640113
 20
12.6135007586
 30
0.0
 10
15.3872910782
 20
12.5518729992
 30
0.0
 10
15.3870961687
 20
12.4901463955
 30
0.0
 10
15.3880797563
 20
12.428469514
 30
0.0
 10
15.3902394598
 20
12.3669908001
 30
0.0
 10
15.393570063
 20
12.3058582182
 30
0.0
 10
15.398063524
 20
12.245218893
 30
0.0
 10
15.4037089984
 20
12.1852187522
 30
0.0
 10
15.4104928522
 20
12.1260021696
 30
0.0
 10
15.4183987024
 20
12.0677116137
 30
0.0
 10
15.4274074631
 20
12.0104873023
 30
0.0
 10
15.4374973922
 20
11.9544668608
 30
0.0
 10
15.4486441449
 20
11.8997849823
 30
0.0
 10
15.4608208239
 20
11.8465730922
 30
0.0
 10
15.4739980629
 20
11.7949590314
 30
0.0
 10
15.4881441068
 20
11.7450667238
 30
0.0
 10
15.5032248868
 20
11.6970159303
 30
0.0
 10
15.5192041601
 20
11.6509217133
 30
0.0
 10
15.5360434276
 20
11.606894956
 30
0.0
 10
15.5509020237
 20
11.5716774339
 30
0.0
 10
15.5632041633
 20
11.5446411458
 30
0.0
 10
15.5725291418
 20
11.525145045
 30
0.0
 10
15.5820375745
 20
11.5062422719
 30
0.0
 10
15.5917237816
 20
11.4879441137
 30
0.0
 10
15.6015819593
 20
11.4702615761
 30
0.0
 10
15.611606214
 20
11.4532052728
 30
0.0
 10
15.621790519
 20
11.436785425
 30
0.0
 10
15.6321288276
 20
11.4210119038
 30
0.0
 10
15.6426149402
 20
11.4058941545
 30
0.0
 10
15.6532426171
 20
11.3914412498
 30
0.0
 10
15.6640055585
 20
11.3776618716
 30
0.0
 10
15.6748973294
 20
11.364564276
 30
0.0
 10
15.6859115531
 20
11.3521563244
 30
0.0
 10
15.6970415605
 20
11.3404455919
 30
0.0
 10
15.7082812688
 20
11.3294386848
 30
0.0
 10
15.7232064354
 20
11.3158904801
 30
0.0
 10
15.7385185655
 20
11.3035580945
 30
0.0
 10
15.7541987922
 20
11.2925815698
 30
0.0
 10
15.7658847649
 20
11.2851876757
 30
0.0
 10
15.7776393801
 20
11.2785321292
 30
0.0
 10
15.7894559203
 20
11.2726189883
 30
0.0
 10
15.8013272839
 20
11.2674522146
 30
0.0
 10
15.813246336
 20
11.2630352665
 30
0.0
 10
15.8252057999
 20
11.2593711462
 30
0.0
 10
15.8371983203
 20
11.2564624985
 30
0.0
 10
15.8492163895
 20
11.2543113619
 30
0.0
 10
15.8612524226
 20
11.2529193463
 30
0.0
 10
15.8732987421
 20
11.2522875097
 30
0.0
 10
15.8853476213
 20
11.2524162739
 30
0.0
 10
15.8973913202
 20
11.2533056105
 30
0.0
 10
15.9094221271
 20
11.2549547981
 30
0.0
 10
15.9214323935
 20
11.2573626211
 30
0.0
 10
15.9334145479
 20
11.2605273517
 30
0.0
 10
15.9453611573
 20
11.2644466659
 30
0.0
 10
15.9572648607
 20
11.2691178803
 30
0.0
 10
15.9691184672
 20
11.2745377866
 30
0.0
 10
15.9809147914
 20
11.2807027216
 30
0.0
 10
15.9926470846
 20
11.2876088877
 30
0.0
 10
16.0083919741
 20
11.2979282413
 30
0.0
 10
16.0237833521
 20
11.3096224557
 30
0.0
 10
16.0387949213
 20
11.3225490414
 30
0.0
 10
16.0501033316
 20
11.3330865162
 30
0.0
 10
16.0613063868
 20
11.3443322589
 30
0.0
 10
16.0723979924
 20
11.3562799467
 30
0.0
 10
16.083371452
 20
11.368922254
 30
0.0
 10
16.0942203413
 20
11.3822515953
 30
0.0
 10
16.1049381782
 20
11.3962599831
 30
0.0
 10
16.1155186344
 20
11.4109389888
 30
0.0
 10
16.1259553986
 20
11.4262798151
 30
0.0
 10
16.1362422375
 20
11.4422732661
 30
0.0
 10
16.1463730421
 20
11.4589097306
 30
0.0
 10
16.1563417184
 20
11.4761792467
 30
0.0
 10
16.1661423269
 20
11.4940714373
 30
0.0
 10
16.1757689922
 20
11.5125755634
 30
0.0
 10
16.1852159246
 20
11.5316805273
 30
0.0
 10
16.1944774757
 20
11.5513748282
 30
0.0
 10
16.2035481038
 20
11.5716466965
 30
0.0
 10
16.2154925422
 20
11.5996932277
 30
0.0
 10
16.2298871937
 20
11.6361282029
 30
0.0
 10
16.2461550872
 20
11.6815501317
 30
0.0
 10
16.256250245
 20
11.7126693233
 30
0.0
 10
16.2611580025
 20
11.7285508324
 30
0.0
  0
SPLINE
  5
2C2
100
AcDbEntity
  8
LAYER_FEATURE
100
AcDbSpline
 62
7
  6
CONTINUOUS
 70
0
 71
3
 72
67
 73
63
 74
0
 42
0.0000001
 43
0.0000001
 44
0.0000000001
 40
0.0
 40
0.0
 40
0.0
 40
0.0
 40
0.0163581078
 40
0.0330510655
 40
0.0500642502
 40
0.0673826922
 40
0.0849905209
 40
0.1028713411
 40
0.1210081568
 40
0.139383461
 40
0.1579792696
 40
0.1767771678
 40
0.1957583524
 40
0.2149036733
 40
0.2536076562
 40
0.2927314909
 40
0.3321134766
 40
0.3715900539
 40
0.4109969873
 40
0.4501705398
 40
0.4889486508
 40
0.5081400232
 40
0.5271731428
 40
0.5460287624
 40
0.5646879696
 40
0.5831322271
 40
0.6013434157
 40
0.6193038766
 40
0.6369964578
 40
0.654404561
 40
0.6715121917
 40
0.6883040118
 40
0.7047653949
 40
0.7208824873
 40
0.7366422726
 40
0.7520326423
 40
0.7670424743
 40
0.7816617188
 40
0.7958814944
 40
0.8096941947
 40
0.8230936089
 40
0.8360750573
 40
0.8486355459
 40
0.8607739416
 40
0.872491171
 40
0.8837904452
 40
0.8946775129
 40
0.9051609415
 40
0.9152524227
 40
0.9249670997
 40
0.9343239019
 40
0.9433458673
 40
0.9520604224
 40
0.9604995766
 40
0.9686999789
 40
0.9767027772
 40
0.9806449751
 40
0.9845550531
 40
0.9884391972
 40
0.9923037473
 40
0.996155167
 40
1.0
 40
1.0
 40
1.0
 40
1.0
 10
15.4831306054
 20
13.351532475
 30
0.0
 10
15.479267751
 20
13.3390322738
 30
0.0
 10
15.4717215462
 20
13.3136953753
 30
0.0
 10
15.4610394548
 20
13.2751020263
 30
0.0
 10
15.4508897194
 20
13.2355717206
 30
0.0
 10
15.4412848436
 20
13.1951531928
 30
0.0
 10
15.4322366016
 20
13.1538957937
 30
0.0
 10
15.4237560983
 20
13.1118501245
 30
0.0
 10
15.4158537461
 20
13.0690676771
 30
0.0
 10
15.4085392465
 20
13.0256008829
 30
0.0
 10
15.4018215786
 20
12.9815029997
 30
0.0
 10
15.3957090019
 20
12.9368281024
 30
0.0
 10
15.3902089775
 20
12.8916308413
 30
0.0
 10
15.3836781848
 20
12.830526926
 30
0.0
 10
15.3771046997
 20
12.7532340209
 30
0.0
 10
15.3717772987
 20
12.6596277371
 30
0.0
 10
15.369008934
 20
12.5652924486
 30
0.0
 10
15.3688132259
 20
12.4706905566
 30
0.0
 10
15.3711911335
 20
12.3762849041
 30
0.0
 10
15.3761309596
 20
12.2825382365
 30
0.0
 10
15.3823833204
 20
12.2050824339
 30
0.0
 10
15.388659524
 20
12.1438134777
 30
0.0
 10
15.3939719598
 20
12.098468406
 30
0.0
 10
15.3998990814
 20
12.053628922
 30
0.0
 10
15.4064336528
 20
12.0093498777
 30
0.0
 10
15.4135676392
 20
11.9656855707
 30
0.0
 10
15.4212922848
 20
11.9226895048
 30
0.0
 10
15.4295981056
 20
11.8804143695
 30
0.0
 10
15.4384749069
 20
11.8389119624
 30
0.0
 10
15.4479117932
 20
11.7982331271
 30
0.0
 10
15.4578971823
 20
11.7584276891
 30
0.0
 10
15.4684188221
 20
11.7195443945
 30
0.0
 10
15.4794638064
 20
11.6816308493
 30
0.0
 10
15.4910185914
 20
11.6447334601
 30
0.0
 10
15.5030690148
 20
11.6088973757
 30
0.0
 10
15.5156003146
 20
11.5741664307
 30
0.0
 10
15.5285971502
 20
11.5405830901
 30
0.0
 10
15.5420436252
 20
11.5081883948
 30
0.0
 10
15.5559233081
 20
11.4770219089
 30
0.0
 10
15.5702192614
 20
11.4471216714
 30
0.0
 10
15.5849140691
 20
11.4185241495
 30
0.0
 10
15.5999898663
 20
11.3912641955
 30
0.0
 10
15.6154283722
 20
11.365375006
 30
0.0
 10
15.6312109253
 20
11.3408880869
 30
0.0
 10
15.6473185209
 20
11.3178332239
 30
0.0
 10
15.6637318521
 20
11.2962384609
 30
0.0
 10
15.6804313479
 20
11.2761300859
 30
0.0
 10
15.6973972136
 20
11.2575326332
 30
0.0
 10
15.7146094646
 20
11.2404689017
 30
0.0
 10
15.7320479493
 20
11.2249599868
 30
0.0
 10
15.7496923379
 20
11.2110253312
 30
0.0
 10
15.7675221244
 20
11.1986827757
 30
0.0
 10
15.785516417
 20
11.1879486326
 30
0.0
 10
15.8036542688
 20
11.1788376334
 30
0.0
 10
15.8219128602
 20
11.171363152
 30
0.0
 10
15.837289997
 20
11.1664828897
 30
0.0
 10
15.849600573
 20
11.1634261753
 30
0.0
 10
15.8588029872
 20
11.1615584672
 30
0.0
 10
15.8680169089
 20
11.1601051622
 30
0.0
 10
15.8772396873
 20
11.1590667536
 30
0.0
 10
15.8864681066
 20
11.1584435319
 30
0.0
 10
15.8926245771
 20
11.158304998
 30
0.0
 10
15.89569973
 20
11.1583050005
 30
0.0
  0
SPLINE
  5
2C3
100
AcDbEntity
  8
LAYER_CHAMFER_FEAT
100
AcDbSpline
 62
7
  6
CONTINUOUS
 70
0
 71
3
 72
27
 73
23
 74
0
 42
0.0000001
 43
0.0000001
 44
0.0000000001
 40
0.0
 40
0.0
 40
0.0
 40
0.0
 40
0.0835111469
 40
0.1639083329
 40
0.2411670976
 40
0.3152835253
 40
0.3862766073
 40
0.4541914554
 40
0.5191027311
 40
0.5811185606
 40
0.640384714
 40
0.6970888453
 40
0.7514643505
 40
0.8037931727
 40
0.8292988651
 40
0.8544212665
 40
0.8792091152
 40
0.9037137734
 40
0.9279888829
 40
0.9520900446
 40
0.9760743644
 40
1.0
 40
1.0
 40
1.0
 40
1.0
 10
16.1203040316
 20
13.3195900271
 30
0.0
 10
16.1159826726
 20
13.3283960309
 30
0.0
 10
16.1072117682
 20
13.3455399254
 30
0.0
 10
16.0933924136
 20
13.3702752327
 30
0.0
 10
16.0791808917
 20
13.3935043697
 30
0.0
 10
16.0646018042
 20
13.415186603
 30
0.0
 10
16.0496799643
 20
13.435284388
 30
0.0
 10
16.0344406133
 20
13.4537627787
 30
0.0
 10
16.0189092606
 20
13.470589558
 30
0.0
 10
16.0031115921
 20
13.4857351482
 30
0.0
 10
15.9870735981
 20
13.499172449
 30
0.0
 10
15.9708210577
 20
13.5108768707
 30
0.0
 10
15.9543817016
 20
13.5208254831
 30
0.0
 10
15.9404284096
 20
13.527694774
 30
0.0
 10
15.9292257332
 20
13.532260028
 30
0.0
 10
15.920867776
 20
13.5352059928
 30
0.0
 10
15.9124869584
 20
13.5377011504
 30
0.0
 10
15.9040868762
 20
13.5397444102
 30
0.0
 10
15.8956713741
 20
13.5413346752
 30
0.0
 10
15.8872441882
 20
13.5424711832
 30
0.0
 10
15.8788094917
 20
13.5431533118
 30
0.0
 10
15.8731808441
 20
13.5433049849
 30
0.0
 10
15.8703705526
 20
13.5433049893
 30
0.0
  0
SPLINE
  5
2C4
100
AcDbEntity
  8
02___PRT_ALL_AXES
100
AcDbSpline
 62
7
  6
CONTINUOUS
 70
0
 71
3
 72
33
 73
29
 74
0
 42
0.0000001
 43
0.0000001
 44
0.0000000001
 40
0.0
 40
0.0
 40
0.0
 40
0.0
 40
0.0161690664
 40
0.0326006172
 40
0.0495419716
 40
0.0672133727
 40
0.0763858214
 40
0.0858075729
 40
0.1054621709
 40
0.1262993332
 40
0.1484034977
 40
0.1718318085
 40
0.1966179848
 40
0.222775688
 40
0.2503016182
 40
0.2791780431
 40
0.3093747779
 40
0.3408507722
 40
0.3735556363
 40
0.4074308199
 40
0.4424105214
 40
0.5153822181
 40
0.5918375523
 40
0.6710656261
 40
0.7523037822
 40
0.834753237
 40
0.9175936205
 40
1.0
 40
1.0
 40
1.0
 40
1.0
 10
15.7123965497
 20
11.79112178
 30
0.0
 10
15.7131684589
 20
11.7911217837
 30
0.0
 10
15.7147269191
 20
11.7912312231
 30
0.0
 10
15.7170477075
 20
11.7917214091
 30
0.0
 10
15.7193516344
 20
11.7925350624
 30
0.0
 10
15.7212278951
 20
11.7934677666
 30
0.0
 10
15.7227104589
 20
11.7943631364
 30
0.0
 10
15.7242224752
 20
11.7953882426
 30
0.0
 10
15.7260912983
 20
11.7968728522
 30
0.0
 10
15.7282602434
 20
11.7989333215
 30
0.0
 10
15.730381111
 20
11.8012912248
 30
0.0
 10
15.7324480511
 20
11.803939509
 30
0.0
 10
15.7344554574
 20
11.8068705572
 30
0.0
 10
15.7363977224
 20
11.8100758945
 30
0.0
 10
15.7382693471
 20
11.8135462664
 30
0.0
 10
15.7400649565
 20
11.8172716313
 30
0.0
 10
15.7417793462
 20
11.8212411781
 30
0.0
 10
15.7434075381
 20
11.8254433466
 30
0.0
 10
15.7449447634
 20
11.8298658703
 30
0.0
 10
15.7463865472
 20
11.8344958521
 30
0.0
 10
15.7482014561
 20
11.8410197651
 30
0.0
 10
15.7501905071
 20
11.8496006428
 30
0.0
 10
15.7521057184
 20
11.8603515805
 30
0.0
 10
15.7535590274
 20
11.8715725048
 30
0.0
 10
15.7545331522
 20
11.8831319697
 30
0.0
 10
15.7550165243
 20
11.8948948545
 30
0.0
 10
15.7550033876
 20
11.906723143
 30
0.0
 10
15.7546616674
 20
11.9146074385
 30
0.0
 10
15.7544060684
 20
11.9185331968
 30
0.0
  0
SPLINE
  5
2C5
100
AcDbEntity
  8
02___PRT_ALL_AXES
100
AcDbSpline
 62
7
  6
CONTINUOUS
 70
0
 71
3
 72
57
 73
53
 74
0
 42
0.0000001
 43
0.0000001
 44
0.0000000001
 40
0.0
 40
0.0
 40
0.0
 40
0.0
 40
0.0079137958
 40
0.0160386248
 40
0.0244066096
 40
0.0330461573
 40
0.0419819692
 40
0.051235158
 40
0.0608234351
 40
0.0707613452
 40
0.0810605192
 40
0.0917299261
 40
0.1027761133
 40
0.1142034281
 40
0.1260142273
 40
0.1382090663
 40
0.1507868653
 40
0.1637450569
 40
0.177079713
 40
0.1907856672
 40
0.2048566199
 40
0.2192852307
 40
0.2340631997
 40
0.2491813384
 40
0.2646296417
 40
0.2803973498
 40
0.2964730036
 40
0.3128444938
 40
0.3294991064
 40
0.3464235714
 40
0.363604104
 40
0.3810264435
 40
0.4165363521
 40
0.4528320755
 40
0.4897859415
 40
0.5272658774
 40
0.5651363778
 40
0.6032594281
 40
0.6414954079
 40
0.6797039844
 40
0.7177449973
 40
0.7554793471
 40
0.792769888
 40
0.8294823462
 40
0.8654862464
 40
0.9006559013
 40
0.9178907021
 40
0.9348725189
 40
0.951587486
 40
0.9680221059
 40
0.9841638452
 40
1.0
 40
1.0
 40
1.0
 40
1.0
 10
15.8420938041
 20
11.4368345543
 30
0.0
 10
15.8374536622
 20
11.4384668065
 30
0.0
 10
15.8281746047
 20
11.4421408791
 30
0.0
 10
15.8145041303
 20
11.448744912
 30
0.0
 10
15.8009298207
 20
11.4564991723
 30
0.0
 10
15.787467057
 20
11.4653938774
 30
0.0
 10
15.7741294993
 20
11.4754187485
 30
0.0
 10
15.7609310267
 20
11.4865623872
 30
0.0
 10
15.7478852502
 20
11.4988124107
 30
0.0
 10
15.7350056946
 20
11.5121553883
 30
0.0
 10
15.7223057659
 20
11.5265768339
 30
0.0
 10
15.7097987545
 20
11.5420611813
 30
0.0
 10
15.69749782
 20
11.5585917706
 30
0.0
 10
15.6854159574
 20
11.5761508324
 30
0.0
 10
15.6735659869
 20
11.5947195025
 30
0.0
 10
15.661960531
 20
11.6142778346
 30
0.0
 10
15.6506119918
 20
11.634804814
 30
0.0
 10
15.6395325317
 20
11.6562783717
 30
0.0
 10
15.62873404
 20
11.6786753985
 30
0.0
 10
15.6182281285
 20
11.7019717772
 30
0.0
 10
15.6080261115
 20
11.7261424106
 30
0.0
 10
15.5981389914
 20
11.7511612482
 30
0.0
 10
15.5885774426
 20
11.7770013107
 30
0.0
 10
15.5793517869
 20
11.8036347157
 30
0.0
 10
15.570471993
 20
11.8310327149
 30
0.0
 10
15.561947662
 20
11.859165728
 30
0.0
 10
15.5537880169
 20
11.8880033749
 30
0.0
 10
15.5460018904
 20
11.9175145037
 30
0.0
 10
15.5385977008
 20
11.9476672309
 30
0.0
 10
15.5315834741
 20
11.9784289504
 30
0.0
 10
15.5249667587
 20
12.0097664879
 30
0.0
 10
15.5166316091
 20
12.0525423818
 30
0.0
 10
15.507275366
 20
12.1072166718
 30
0.0
 10
15.4978073481
 20
12.1741592161
 30
0.0
 10
15.4900700881
 20
12.242556133
 30
0.0
 10
15.484097191
 20
12.3121116615
 30
0.0
 10
15.4799146079
 20
12.3825255484
 30
0.0
 10
15.477540533
 20
12.4534936083
 30
0.0
 10
15.4769852567
 20
12.524709268
 30
0.0
 10
15.4782512205
 20
12.5958648576
 30
0.0
 10
15.4813329024
 20
12.6666529708
 30
0.0
 10
15.4862169149
 20
12.7367678245
 30
0.0
 10
15.4928820448
 20
12.8059065433
 30
0.0
 10
15.5012993098
 20
12.8737707122
 30
0.0
 10
15.5114321656
 20
12.9400668923
 30
0.0
 10
15.5213346313
 20
12.9941273411
 30
0.0
 10
15.530098055
 20
13.0363565237
 30
0.0
 10
15.5370257706
 20
13.0672474517
 30
0.0
 10
15.5443451029
 20
13.0975364954
 30
0.0
 10
15.5520481876
 20
13.127191175
 30
0.0
 10
15.5601266436
 20
13.1561791151
 30
0.0
 10
15.5658124593
 20
13.1752259545
 30
0.0
 10
15.5687185905
 20
13.1846301985
 30
0.0
  0
SPLINE
  5
2C6
100
AcDbEntity
  8
LAYER_CUT_FEAT
100
AcDbSpline
 62
7
  6
CONTINUOUS
 70
0
 71
3
 72
67
 73
63
 74
0
 42
0.0000001
 43
0.0000001
 44
0.0000000001
 40
0.0
 40
0.0
 40
0.0
 40
0.0
 40
0.003921388
 40
0.0078387425
 40
0.011761264
 40
0.015698285
 40
0.0196589862
 40
0.0236522803
 40
0.031768445
 40
0.0401144562
 40
0.0487486849
 40
0.0577220237
 40
0.0670776684
 40
0.0768513121
 40
0.0870716133
 40
0.0977608017
 40
0.1089353297
 40
0.120606509
 40
0.1327811003
 40
0.1454618439
 40
0.1586479235
 40
0.1723353693
 40
0.1865174054
 40
0.2011847488
 40
0.216325868
 40
0.231927207
 40
0.2479733796
 40
0.2644473424
 40
0.2813305482
 40
0.2986030835
 40
0.3162437921
 40
0.3342303895
 40
0.3525395675
 40
0.3711470925
 40
0.3900278974
 40
0.4091561697
 40
0.4285054352
 40
0.4677568341
 40
0.5075615571
 40
0.5476919823
 40
0.5879172344
 40
0.6280054974
 40
0.6677263167
 40
0.7068529127
 40
0.7261248297
 40
0.7451660438
 40
0.7639503129
 40
0.7824520863
 40
0.8006465901
 40
0.8185099163
 40
0.8360191175
 40
0.8531523069
 40
0.8698887667
 40
0.8862090652
 40
0.9020951867
 40
0.9175306732
 40
0.9325007862
 40
0.9469926748
 40
0.9609956226
 40
0.9745011581
 40
0.9875036462
 40
1.0
 40
1.0
 40
1.0
 40
1.0
 10
15.61054519
 20
13.1980044528
 30
0.0
 10
15.6123814159
 20
13.1981439132
 30
0.0
 10
15.6160600658
 20
13.1983261263
 30
0.0
 10
15.6215856723
 20
13.1983069251
 30
0.0
 10
15.6271100022
 20
13.1979948826
 30
0.0
 10
15.6326303739
 20
13.197390205
 30
0.0
 10
15.6381445847
 20
13.196493091
 30
0.0
 10
15.6455239418
 20
13.1948995836
 30
0.0
 10
15.6547484166
 20
13.1921580175
 30
0.0
 10
15.6656855955
 20
13.1877232128
 30
0.0
 10
15.6765347869
 20
13.1821355172
 30
0.0
 10
15.6872772603
 20
13.175406806
 30
0.0
 10
15.6978960674
 20
13.1675501743
 30
0.0
 10
15.7083743553
 20
13.1585800769
 30
0.0
 10
15.7186955884
 20
13.1485123551
 30
0.0
 10
15.7288433441
 20
13.1373643496
 30
0.0
 10
15.7388013241
 20
13.1251549884
 30
0.0
 10
15.7485533668
 20
13.1119048529
 30
0.0
 10
15.758083496
 20
13.0976362134
 30
0.0
 10
15.76737597
 20
13.0823730359
 30
0.0
 10
15.7764153364
 20
13.0661409706
 30
0.0
 10
15.7851864827
 20
13.0489673253
 30
0.0
 10
15.7936746827
 20
13.030881028
 30
0.0
 10
15.8018656385
 20
13.0119125815
 30
0.0
 10
15.8097455177
 20
12.9920940128
 30
0.0
 10
15.8173009871
 20
12.9714588177
 30
0.0
 10
15.8245192441
 20
12.9500419029
 30
0.0
 10
15.8313880448
 20
12.9278795247
 30
0.0
 10
15.8378957275
 20
12.905009223
 30
0.0
 10
15.8440312361
 20
12.8814697559
 30
0.0
 10
15.8497841417
 20
12.8573010318
 30
0.0
 10
15.8551446617
 20
12.8325440389
 30
0.0
 10
15.8601036773
 20
12.8072407768
 30
0.0
 10
15.8646527541
 20
12.7814341741
 30
0.0
 10
15.8687841391
 20
12.7551680511
 30
0.0
 10
15.8724908456
 20
12.7284869065
 30
0.0
 10
15.8768790255
 20
12.6922479716
 30
0.0
 10
15.8812480608
 20
12.6462333758
 30
0.0
 10
15.8846914526
 20
12.5903587644
 30
0.0
 10
15.8863363391
 20
12.5339446507
 30
0.0
 10
15.8861714912
 20
12.477373848
 30
0.0
 10
15.8841980426
 20
12.4210294781
 30
0.0
 10
15.8804294671
 20
12.3652938777
 30
0.0
 10
15.8757916059
 20
12.3194405166
 30
0.0
 10
15.871191034
 20
12.2833648213
 30
0.0
 10
15.8673289423
 20
12.2568295314
 30
0.0
 10
15.8630446503
 20
12.23072558
 30
0.0
 10
15.8583454042
 20
12.2050971874
 30
0.0
 10
15.853239212
 20
12.1799878683
 30
0.0
 10
15.8477347569
 20
12.1554402191
 30
0.0
 10
15.8418414016
 20
12.1314958807
 30
0.0
 10
15.8355691656
 20
12.108195457
 30
0.0
 10
15.8289287082
 20
12.0855784463
 30
0.0
 10
15.8219313078
 20
12.0636831713
 30
0.0
 10
15.8145888418
 20
12.0425467118
 30
0.0
 10
15.8069137623
 20
12.0222048364
 30
0.0
 10
15.7989190678
 20
12.0026919512
 30
0.0
 10
15.7906182748
 20
11.9840410033
 30
0.0
 10
15.7820254035
 20
11.9662835336
 30
0.0
 10
15.7731548444
 20
11.9494493029
 30
0.0
 10
15.7640217156
 20
11.9335671323
 30
0.0
 10
15.7576409269
 20
11.9234294841
 30
0.0
 10
15.7544060684
 20
11.9185331968
 30
0.0
  0
SPLINE
  5
2C7
100
AcDbEntity
  8
LAYER_CHAMFER_FEAT
100
AcDbSpline
 62
7
  6
CONTINUOUS
 70
0
 71
3
 72
80
 73
76
 74
0
 42
0.0000001
 43
0.0000001
 44
0.0000000001
 40
0.0
 40
0.0
 40
0.0
 40
0.0
 40
0.0113884473
 40
0.0222283211
 40
0.0325468831
 40
0.0423803614
 40
0.0517748931
 40
0.056326169
 40
0.0607899191
 40
0.0651749235
 40
0.0694906189
 40
0.0737470403
 40
0.0779547792
 40
0.0821248938
 40
0.0862688264
 40
0.0903982886
 40
0.0945251465
 40
0.0986612935
 40
0.1028185244
 40
0.1070084124
 40
0.1112421978
 40
0.1155306842
 40
0.1198841619
 40
0.1243123309
 40
0.128824268
 40
0.1381299455
 40
0.1478630766
 40
0.1580720727
 40
0.1687952548
 40
0.1800617607
 40
0.1918925519
 40
0.2043014002
 40
0.2172957938
 40
0.2308777364
 40
0.2450444369
 40
0.2597888984
 40
0.275100417
 40
0.2909650059
 40
0.3073657578
 40
0.3242831555
 40
0.341695342
 40
0.3595783572
 40
0.377906348
 40
0.3966517574
 40
0.4157854961
 40
0.4352771012
 40
0.4550948833
 40
0.4752060652
 40
0.4955769143
 40
0.5161728687
 40
0.5369586597
 40
0.5578984304
 40
0.5789558525
 40
0.6000942398
 40
0.6212766619
 40
0.6424660558
 40
0.6636253375
 40
0.6847175136
 40
0.7057057928
 40
0.726553699
 40
0.7472251845
 40
0.7676847456
 40
0.7878975407
 40
0.8078295109
 40
0.8274475049
 40
0.8467194087
 40
0.8656142813
 40
0.8841024992
 40
0.9021559102
 40
0.9197479989
 40
0.9368540721
 40
0.9534514497
 40
0.9695197243
 40
0.9850409232
 40
1.0
 40
1.0
 40
1.0
 40
1.0
 10
15.7242033612
 20
11.5465803425
 30
0.0
 10
15.7297512364
 20
11.5399337088
 30
0.0
 10
15.7409516749
 20
11.527263883
 30
0.0
 10
15.7585079259
 20
11.5098031571
 30
0.0
 10
15.7763651305
 20
11.4943994454
 30
0.0
 10
15.7944874735
 20
11.4810874885
 30
0.0
 10
15.8099458001
 20
11.4716630553
 30
0.0
 10
15.8223877006
 20
11.4652443077
 30
0.0
 10
15.8316624076
 20
11.4610201563
 30
0.0
 10
15.8409731303
 20
11.4573381529
 30
0.0
 10
15.8503151786
 20
11.4542002155
 30
0.0
 10
15.8596836468
 20
11.4516083014
 30
0.0
 10
15.8690735615
 20
11.4495638559
 30
0.0
 10
15.8784799239
 20
11.4480682129
 30
0.0
 10
15.8878976494
 20
11.4471222136
 30
0.0
 10
15.8973216364
 20
11.4467265153
 30
0.0
 10
15.9067467469
 20
11.4468813166
 30
0.0
 10
15.9161678441
 20
11.4475865504
 30
0.0
 10
15.9255798037
 20
11.448841766
 30
0.0
 10
15.9349775406
 20
11.4506461732
 30
0.0
 10
15.9443560011
 20
11.4529986982
 30
0.0
 10
15.9537102287
 20
11.4558978841
 30
0.0
 10
15.9630352317
 20
11.459342053
 30
0.0
 10
15.9723263651
 20
11.4633292539
 30
0.0
 10
15.9847896291
 20
11.4694285097
 30
0.0
 10
16.0002828952
 20
11.47845652
 30
0.0
 10
16.0184589792
 20
11.4913068615
 30
0.0
 10
16.0363772607
 20
11.5062556309
 30
0.0
 10
16.054002478
 20
11.5232696254
 30
0.0
 10
16.0713015467
 20
11.5423132731
 30
0.0
 10
16.0882410234
 20
11.5633472761
 30
0.0
 10
16.1047878582
 20
11.5863287039
 30
0.0
 10
16.1209093146
 20
11.6112107893
 30
0.0
 10
16.1365731756
 20
11.6379429201
 30
0.0
 10
16.1517478732
 20
11.6664706597
 30
0.0
 10
16.1664026286
 20
11.6967358218
 30
0.0
 10
16.1805075715
 20
11.7286765715
 30
0.0
 10
16.1940338461
 20
11.7622275472
 30
0.0
 10
16.2069537042
 20
11.7973199979
 30
0.0
 10
16.2192405872
 20
11.8338819304
 30
0.0
 10
16.2308691992
 20
11.8718382641
 30
0.0
 10
16.2418155727
 20
11.9111109937
 30
0.0
 10
16.2520571271
 20
11.9516193565
 30
0.0
 10
16.261572723
 20
11.993280005
 30
0.0
 10
16.2703427102
 20
12.0360071849
 30
0.0
 10
16.2783489722
 20
12.0797129161
 30
0.0
 10
16.2855749658
 20
12.1243071785
 30
0.0
 10
16.2920057578
 20
12.1696981011
 30
0.0
 10
16.2976280567
 20
12.2157921547
 30
0.0
 10
16.3024302409
 20
12.2624943476
 30
0.0
 10
16.3064023832
 20
12.3097084234
 30
0.0
 10
16.3095362722
 20
12.3573370625
 30
0.0
 10
16.3118254287
 20
12.4052820838
 30
0.0
 10
16.3132651202
 20
12.4534446489
 30
0.0
 10
16.3138523701
 20
12.5017254681
 30
0.0
 10
16.3135859644
 20
12.5500250057
 30
0.0
 10
16.3124664536
 20
12.5982436873
 30
0.0
 10
16.3104961523
 20
12.6462821065
 30
0.0
 10
16.3076791338
 20
12.6940412309
 30
0.0
 10
16.3040212221
 20
12.7414226083
 30
0.0
 10
16.299529979
 20
12.7883285712
 30
0.0
 10
16.2942146891
 20
12.8346624397
 30
0.0
 10
16.2880863401
 20
12.8803287236
 30
0.0
 10
16.2811575993
 20
12.9252333211
 30
0.0
 10
16.2734427867
 20
12.9692837153
 30
0.0
 10
16.2649578441
 20
13.0123891682
 30
0.0
 10
16.2557203009
 20
13.054460911
 30
0.0
 10
16.2457492358
 20
13.0954123308
 30
0.0
 10
16.2350652331
 20
13.135159155
 30
0.0
 10
16.2236903399
 20
13.1736196263
 30
0.0
 10
16.2116480012
 20
13.2107146916
 30
0.0
 10
16.1989630457
 20
13.2463681168
 30
0.0
 10
16.185661483
 20
13.2805068671
 30
0.0
 10
16.1717709141
 20
13.3130603959
 30
0.0
 10
16.1619524922
 20
13.3340556198
 30
0.0
 10
16.1569425421
 20
13.3442648248
 30
0.0
  0
SPLINE
  5
2C8
100
AcDbEntity
  8
LAYER_CHAMFER_FEAT
100
AcDbSpline
 62
7
  6
CONTINUOUS
 70
0
 71
3
 72
70
 73
66
 74
0
 42
0.0000001
 43
0.0000001
 44
0.0000000001
 40
0.0
 40
0.0
 40
0.0
 40
0.0
 40
0.0038601804
 40
0.0077283923
 40
0.0116126051
 40
0.0155206678
 40
0.0194602491
 40
0.0234387937
 40
0.0274634666
 40
0.0315411298
 40
0.0398792429
 40
0.0485028817
 40
0.0574535699
 40
0.0667666199
 40
0.0764713586
 40
0.0865915165
 40
0.0971456977
 40
0.1081478756
 40
0.119607875
 40
0.1315318201
 40
0.1439225389
 40
0.156779922
 40
0.1701012365
 40
0.1838813999
 40
0.1981132184
 40
0.2127875935
 40
0.2278937037
 40
0.2434191622
 40
0.2593501584
 40
0.2756715825
 40
0.2923671375
 40
0.3094194414
 40
0.3268101189
 40
0.3445198875
 40
0.3625286369
 40
0.3808155031
 40
0.3993589391
 40
0.4181367815
 40
0.4371263152
 40
0.4563043351
 40
0.4756472063
 40
0.4951309231
 40
0.5344222089
 40
0.5739820543
 40
0.613610783
 40
0.653108119
 40
0.69227493
 40
0.7116735006
 40
0.7309161899
 40
0.7499792175
 40
0.7688392099
 40
0.7874732613
 40
0.8058589935
 40
0.8239746204
 40
0.8417990132
 40
0.8593117701
 40
0.8764932888
 40
0.8933248441
 40
0.9097886703
 40
0.9258680537
 40
0.9415474206
 40
0.9568124772
 40
0.9716502377
 40
0.9860493855
 40
1.0
 40
1.0
 40
1.0
 40
1.0
 10
15.8703705526
 20
11.4783049965
 30
0.0
 10
15.8729582803
 20
11.4783049924
 30
0.0
 10
15.8781400351
 20
11.4784335555
 30
0.0
 10
15.8859062249
 20
11.4790117738
 30
0.0
 10
15.8936665951
 20
11.4799751852
 30
0.0
 10
15.9014178905
 20
11.4813234084
 30
0.0
 10
15.9091572239
 20
11.4830558208
 30
0.0
 10
15.9168815648
 20
11.4851717473
 30
0.0
 10
15.9245881505
 20
11.4876703085
 30
0.0
 10
15.9349113499
 20
11.491538728
 30
0.0
 10
15.9477793559
 20
11.4973584604
 30
0.0
 10
15.9629801204
 20
11.5058020668
 30
0.0
 10
15.9780349379
 20
11.5157430354
 30
0.0
 10
15.992921665
 20
11.5271646433
 30
0.0
 10
16.0076197675
 20
11.5400489073
 30
0.0
 10
16.0221086011
 20
11.554376036
 30
0.0
 10
16.0363677918
 20
11.5701244699
 30
0.0
 10
16.0503770973
 20
11.5872707652
 30
0.0
 10
16.0641164699
 20
11.6057895492
 30
0.0
 10
16.0775660914
 20
11.6256534886
 30
0.0
 10
16.0907064299
 20
11.6468332853
 30
0.0
 10
16.103518293
 20
11.66929769
 30
0.0
 10
16.1159828812
 20
11.6930135308
 30
0.0
 10
16.1280818364
 20
11.717945752
 30
0.0
 10
16.1397972863
 20
11.7440574618
 30
0.0
 10
16.1511118849
 20
11.7713099853
 30
0.0
 10
16.1620088493
 20
11.7996629221
 30
0.0
 10
16.1724719942
 20
11.8290742077
 30
0.0
 10
16.1824857614
 20
11.8595001785
 30
0.0
 10
16.1920352481
 20
11.8908956398
 30
0.0
 10
16.2011062333
 20
11.9232139353
 30
0.0
 10
16.2096852013
 20
11.9564070182
 30
0.0
 10
16.2177593647
 20
11.9904255252
 30
0.0
 10
16.2253166847
 20
12.0252188516
 30
0.0
 10
16.2323458902
 20
12.0607352281
 30
0.0
 10
16.2388364959
 20
12.0969217995
 30
0.0
 10
16.2447788186
 20
12.1337247047
 30
0.0
 10
16.250163991
 20
12.1710891555
 30
0.0
 10
16.254983981
 20
12.2089595305
 30
0.0
 10
16.2592315857
 20
12.2472794133
 30
0.0
 10
16.2629005074
 20
12.2859918532
 30
0.0
 10
16.267024693
 20
12.3381984039
 30
0.0
 10
16.2706896104
 20
12.4040279065
 30
0.0
 10
16.2727022443
 20
12.4834387455
 30
0.0
 10
16.2723295353
 20
12.5630128122
 30
0.0
 10
16.2695737168
 20
12.6422759619
 30
0.0
 10
16.2652916457
 20
12.7078855087
 30
0.0
 10
16.2606769095
 20
12.7598425198
 30
0.0
 10
16.2566457975
 20
12.7983165273
 30
0.0
 10
16.2520398632
 20
12.8363622613
 30
0.0
 10
16.2468659369
 20
12.8739231814
 30
0.0
 10
16.2411317501
 20
12.9109433354
 30
0.0
 10
16.2348458553
 20
12.9473676186
 30
0.0
 10
16.2280176312
 20
12.98314181
 30
0.0
 10
16.2206572628
 20
13.0182126673
 30
0.0
 10
16.2127757288
 20
13.0525280038
 30
0.0
 10
16.204384782
 20
13.086036769
 30
0.0
 10
16.1954969315
 20
13.1186891242
 30
0.0
 10
16.1861254226
 20
13.150436522
 30
0.0
 10
16.1762842138
 20
13.18123177
 30
0.0
 10
16.1659879548
 20
13.2110291357
 30
0.0
 10
16.1552519694
 20
13.2397843176
 30
0.0
 10
16.1440921684
 20
13.2674548006
 30
0.0
 10
16.1325252725
 20
13.2939991291
 30
0.0
 10
16.1244239851
 20
13.3111944445
 30
0.0
 10
16.1203040316
 20
13.3195900271
 30
0.0
  0
SPLINE
  5
2C9
100
AcDbEntity
  8
02___PRT_ALL_AXES
100
AcDbSpline
 62
7
  6
CONTINUOUS
 70
0
 71
3
 72
24
 73
20
 74
0
 42
0.0000001
 43
0.0000001
 44
0.0000000001
 40
0.0
 40
0.0
 40
0.0
 40
0.0
 40
0.0836226877
 40
0.1646325421
 40
0.2429204405
 40
0.3183904576
 40
0.3909632578
 40
0.4605774992
 40
0.5271924702
 40
0.5907909668
 40
0.6513827541
 40
0.7090086475
 40
0.7637452835
 40
0.8157105524
 40
0.8650695127
 40
0.9120403406
 40
0.9568994601
 40
0.9786477835
 40
1.0
 40
1.0
 40
1.0
 40
1.0
 10
15.5687185905
 20
13.1846301985
 30
0.0
 10
15.5728319555
 20
13.1979410525
 30
0.0
 10
15.5812871774
 20
13.224038423
 30
0.0
 10
15.594887485
 20
13.2621628051
 30
0.0
 10
15.6091798094
 20
13.2985788568
 30
0.0
 10
15.6241317036
 20
13.3332038586
 30
0.0
 10
15.63970938
 20
13.365959646
 30
0.0
 10
15.6558777901
 20
13.3967723403
 30
0.0
 10
15.672600748
 20
13.4255725952
 30
0.0
 10
15.6898410958
 20
13.4522957144
 30
0.0
 10
15.7075608928
 20
13.4768817529
 30
0.0
 10
15.7257215979
 20
13.4992755317
 30
0.0
 10
15.7442843492
 20
13.5194266039
 30
0.0
 10
15.763209855
 20
13.5372889653
 30
0.0
 10
15.7824593717
 20
13.5528210733
 30
0.0
 10
15.8019912696
 20
13.5659841804
 30
0.0
 10
15.8186434119
 20
13.5750441376
 30
0.0
 10
15.8320294788
 20
13.5810216506
 30
0.0
 10
15.8387379961
 20
13.583594962
 30
0.0
 10
15.8420938045
 20
13.5847754238
 30
0.0
  0
SPLINE
  5
2CA
100
AcDbEntity
  8
LAYER_FEATURE
100
AcDbSpline
 62
7
  6
CONTINUOUS
 70
0
 71
3
 72
38
 73
34
 74
0
 42
0.0000001
 43
0.0000001
 44
0.0000000001
 40
0.0
 40
0.0
 40
0.0
 40
0.0
 40
0.0218283758
 40
0.0437421157
 40
0.0658253522
 40
0.0881598409
 40
0.1108239265
 40
0.1338916833
 40
0.1574322947
 40
0.1815095717
 40
0.2061817014
 40
0.2315011911
 40
0.2575148569
 40
0.2842640043
 40
0.3117846784
 40
0.3401078665
 40
0.3692598578
 40
0.3992625575
 40
0.4301337297
 40
0.4618873763
 40
0.4945339977
 40
0.5280808111
 40
0.5625320816
 40
0.5978893
 40
0.6341513679
 40
0.6713148663
 40
0.7093741612
 40
0.7483215445
 40
0.788147479
 40
0.8288406926
 40
0.8703879938
 40
0.9127748915
 40
1.0
 40
1.0
 40
1.0
 40
1.0
 10
15.1072715191
 20
13.7483049877
 30
0.0
 10
15.1030149782
 20
13.748304982
 30
0.0
 10
15.0944824214
 20
13.7480142844
 30
0.0
 10
15.0817038453
 20
13.746707291
 30
0.0
 10
15.0689439031
 20
13.7445303254
 30
0.0
 10
15.0562128537
 20
13.7414852692
 30
0.0
 10
15.0435198123
 20
13.7375747489
 30
0.0
 10
15.0308739694
 20
13.7328020881
 30
0.0
 10
15.0182842973
 20
13.727171133
 30
0.0
 10
15.0057596092
 20
13.7206863522
 30
0.0
 10
14.9933085559
 20
13.7133527642
 30
0.0
 10
14.9809397098
 20
13.7051758442
 30
0.0
 10
14.9686615048
 20
13.6961616461
 30
0.0
 10
14.9564822941
 20
13.6863167222
 30
0.0
 10
14.9444103971
 20
13.6756480998
 30
0.0
 10
14.9324540157
 20
13.6641633882
 30
0.0
 10
14.9206213106
 20
13.6518706935
 30
0.0
 10
14.9089204038
 20
13.6387786337
 30
0.0
 10
14.8973592935
 20
13.6248964083
 30
0.0
 10
14.8859459418
 20
13.6102337173
 30
0.0
 10
14.8746882378
 20
13.5948007924
 30
0.0
 10
14.8635939344
 20
13.5786084295
 30
0.0
 10
14.8526707354
 20
13.5616679196
 30
0.0
 10
14.8419262308
 20
13.5439910855
 30
0.0
 10
14.831367865
 20
13.5255902842
 30
0.0
 10
14.8210030131
 20
13.5064783539
 30
0.0
 10
14.8108388999
 20
13.4866686502
 30
0.0
 10
14.8008825996
 20
13.4661750305
 30
0.0
 10
14.7911410823
 20
13.4450117908
 30
0.0
 10
14.7816211853
 20
13.4231937865
 30
0.0
 10
14.7723294673
 20
13.400736188
 30
0.0
 10
14.7601375782
 20
13.3696651064
 30
0.0
 10
14.7515351532
 20
13.3458928052
 30
0.0
 10
14.7460053459
 20
13.3298078798
 30
0.0
  0
SPLINE
  5
2CB
100
AcDbEntity
  8
LAYER_FEATURE
100
AcDbSpline
 62
7
  6
CONTINUOUS
 70
0
 71
3
 72
99
 73
95
 74
0
 42
0.0000001
 43
0.0000001
 44
0.0000000001
 40
0.0
 40
0.0
 40
0.0
 40
0.0
 40
0.0173110148
 40
0.0340649543
 40
0.0502380523
 40
0.0581004628
 40
0.0658101902
 40
0.0733652193
 40
0.0807638045
 40
0.0880044665
 40
0.0950860286
 40
0.1020076264
 40
0.1087687286
 40
0.1153691763
 40
0.1218091891
 40
0.1280894116
 40
0.1342109392
 40
0.1401753446
 40
0.1459847332
 40
0.1516417626
 40
0.1571496967
 40
0.162512449
 40
0.1677346143
 40
0.177776925
 40
0.1826124822
 40
0.1873335887
 40
0.1919488686
 40
0.1964678231
 40
0.200900808
 40
0.2052590039
 40
0.2095543637
 40
0.2137995212
 40
0.218007688
 40
0.2221925149
 40
0.2263679382
 40
0.2305480109
 40
0.2347467287
 40
0.2389778573
 40
0.2432547718
 40
0.2475903181
 40
0.2519966871
 40
0.2564853304
 40
0.261066889
 40
0.2657511516
 40
0.2705470451
 40
0.2754626216
 40
0.2856785606
 40
0.2909931575
 40
0.2964514632
 40
0.3020576126
 40
0.3078150839
 40
0.313726741
 40
0.3197948634
 40
0.326021207
 40
0.3324070222
 40
0.3389530995
 40
0.3456598064
 40
0.3525271007
 40
0.3595545797
 40
0.3667414891
 40
0.3740867505
 40
0.3815889924
 40
0.3892465503
 40
0.4050190682
 40
0.4213867133
 40
0.4383276936
 40
0.4558171041
 40
0.473827265
 40
0.4923280209
 40
0.5112870094
 40
0.5306699001
 40
0.5504406125
 40
0.5705615169
 40
0.5909936262
 40
0.611696777
 40
0.632629802
 40
0.6537506951
 40
0.6750167742
 40
0.6963848408
 40
0.7178113364
 40
0.7392524968
 40
0.7606645062
 40
0.7820036516
 40
0.8032264761
 40
0.8242899347
 40
0.8451515509
 40
0.8657695781
 40
0.8861031623
 40
0.9061125098
 40
0.9257590615
 40
0.9450056762
 40
0.9638168481
 40
0.9821587929
 40
1.0
 40
1.0
 40
1.0
 40
1.0
 10
15.4934088303
 20
13.2930591534
 30
0.0
 10
15.4983165878
 20
13.3089406625
 30
0.0
 10
15.5084117456
 20
13.3400598541
 30
0.0
 10
15.5246796391
 20
13.3854817829
 30
0.0
 10
15.5390742905
 20
13.4219167581
 30
0.0
 10
15.551018729
 20
13.4499632894
 30
0.0
 10
15.560089357
 20
13.4702351576
 30
0.0
 10
15.5693509081
 20
13.4899294585
 30
0.0
 10
15.5787978406
 20
13.5090344224
 30
0.0
 10
15.5884245058
 20
13.5275385486
 30
0.0
 10
15.5982251144
 20
13.5454307391
 30
0.0
 10
15.6081937907
 20
13.5627002552
 30
0.0
 10
15.6183245953
 20
13.5793367197
 30
0.0
 10
15.6286114342
 20
13.5953301707
 30
0.0
 10
15.6390481983
 20
13.6106709971
 30
0.0
 10
15.6496286546
 20
13.6253500027
 30
0.0
 10
15.6603464915
 20
13.6393583905
 30
0.0
 10
15.6711953807
 20
13.6526877318
 30
0.0
 10
15.6821688404
 20
13.6653300391
 30
0.0
 10
15.6932604459
 20
13.6772777269
 30
0.0
 10
15.7044635012
 20
13.6885234696
 30
0.0
 10
15.7157719115
 20
13.6990609444
 30
0.0
 10
15.7307834807
 20
13.7119875301
 30
0.0
 10
15.7461748587
 20
13.7236817445
 30
0.0
 10
15.7619197482
 20
13.7340010981
 30
0.0
 10
15.7736520414
 20
13.7409072642
 30
0.0
 10
15.7854483656
 20
13.7470721992
 30
0.0
 10
15.797301972
 20
13.7524921055
 30
0.0
 10
15.8092056755
 20
13.7571633199
 30
0.0
 10
15.8211522848
 20
13.7610826341
 30
0.0
 10
15.8331344392
 20
13.7642473647
 30
0.0
 10
15.8451447057
 20
13.7666551877
 30
0.0
 10
15.8571755125
 20
13.7683043753
 30
0.0
 10
15.8692192115
 20
13.769193712
 30
0.0
 10
15.8812680906
 20
13.7693224761
 30
0.0
 10
15.8933144101
 20
13.7686906395
 30
0.0
 10
15.9053504433
 20
13.7672986239
 30
0.0
 10
15.9173685124
 20
13.7651474874
 30
0.0
 10
15.9293610329
 20
13.7622388396
 30
0.0
 10
15.9413204967
 20
13.7585747193
 30
0.0
 10
15.9532395489
 20
13.7541577712
 30
0.0
 10
15.9651109125
 20
13.7489909975
 30
0.0
 10
15.9769274527
 20
13.7430778566
 30
0.0
 10
15.9886820678
 20
13.7364223101
 30
0.0
 10
16.0003680406
 20
13.729028416
 30
0.0
 10
16.0160482672
 20
13.7180518913
 30
0.0
 10
16.0313603973
 20
13.7057195057
 30
0.0
 10
16.046285564
 20
13.692171301
 30
0.0
 10
16.0575252722
 20
13.6811643939
 30
0.0
 10
16.0686552797
 20
13.6694536614
 30
0.0
 10
16.0796695034
 20
13.6570457098
 30
0.0
 10
16.0905612742
 20
13.6439481142
 30
0.0
 10
16.1013242156
 20
13.630168736
 30
0.0
 10
16.1119518926
 20
13.6157158313
 30
0.0
 10
16.1224380052
 20
13.600598082
 30
0.0
 10
16.1327763138
 20
13.5848245608
 30
0.0
 10
16.1429606188
 20
13.5684047131
 30
0.0
 10
16.1529848735
 20
13.5513484098
 30
0.0
 10
16.1628430511
 20
13.5336658721
 30
0.0
 10
16.1725292582
 20
13.515367714
 30
0.0
 10
16.182037691
 20
13.4964649408
 30
0.0
 10
16.1913626694
 20
13.4769688401
 30
0.0
 10
16.2036648091
 20
13.4499325519
 30
0.0
 10
16.2185234051
 20
13.4147150298
 30
0.0
 10
16.2353626727
 20
13.3706882725
 30
0.0
 10
16.2513419459
 20
13.3245940555
 30
0.0
 10
16.266422726
 20
13.276543262
 30
0.0
 10
16.2805687699
 20
13.2266509544
 30
0.0
 10
16.2937460089
 20
13.1750368936
 30
0.0
 10
16.3059226878
 20
13.1218250035
 30
0.0
 10
16.3170694405
 20
13.067143125
 30
0.0
 10
16.3271593697
 20
13.0111226835
 30
0.0
 10
16.3361681304
 20
12.9538983721
 30
0.0
 10
16.3440739806
 20
12.8956078162
 30
0.0
 10
16.3508578343
 20
12.8363912337
 30
0.0
 10
16.3565033087
 20
12.7763910929
 30
0.0
 10
16.3609967698
 20
12.7157517677
 30
0.0
 10
16.364327373
 20
12.6546191857
 30
0.0
 10
16.3664870765
 20
12.5931404718
 30
0.0
 10
16.3674706641
 20
12.5314635903
 30
0.0
 10
16.3672757546
 20
12.4697369866
 30
0.0
 10
16.3659028215
 20
12.4081092272
 30
0.0
 10
16.3633551841
 20
12.3467286383
 30
0.0
 10
16.3596389946
 20
12.2857429463
 30
0.0
 10
16.3547632239
 20
12.2252989195
 30
0.0
 10
16.3487396408
 20
12.165542011
 30
0.0
 10
16.3415827954
 20
12.1066160031
 30
0.0
 10
16.3333099677
 20
12.0486626573
 30
0.0
 10
16.3239411295
 20
11.991821375
 30
0.0
 10
16.3134988834
 20
11.9362288402
 30
0.0
 10
16.3020084418
 20
11.8820187283
 30
0.0
 10
16.2894974811
 20
11.8293212211
 30
0.0
 10
16.2759963397
 20
11.7782633676
 30
0.0
 10
16.2662160721
 20
11.7449187517
 30
0.0
 10
16.2611580025
 20
11.7285508324
 30
0.0
  0
SPLINE
  5
2CC
100
AcDbEntity
  8
LAYER_FEATURE
100
AcDbSpline
 62
7
  6
CONTINUOUS
 70
0
 71
3
 72
39
 73
35
 74
0
 42
0.0000001
 43
0.0000001
 44
0.0000000001
 40
0.0
 40
0.0
 40
0.0
 40
0.0
 40
0.0443812782
 40
0.0879669214
 40
0.1307335038
 40
0.1726618815
 40
0.2137331562
 40
0.2539301977
 40
0.293237698
 40
0.3316421084
 40
0.3691319095
 40
0.4056977091
 40
0.441332399
 40
0.4760313896
 40
0.5097927946
 40
0.5426176367
 40
0.5745101277
 40
0.6054779635
 40
0.6355325902
 40
0.6646895405
 40
0.6929688272
 40
0.7203952848
 40
0.7469989421
 40
0.772815437
 40
0.7978863791
 40
0.8222596417
 40
0.8459896179
 40
0.86913737
 40
0.8917705711
 40
0.9139632724
 40
0.9357954499
 40
0.9573522578
 40
0.97872302
 40
1.0
 40
1.0
 40
1.0
 40
1.0
 10
15.4831306054
 20
13.351532475
 30
0.0
 10
15.4861730772
 20
13.3613779176
 30
0.0
 10
15.4923611333
 20
13.3808440375
 30
0.0
 10
15.5020442301
 20
13.4096144954
 30
0.0
 10
15.5120384761
 20
13.4376746675
 30
0.0
 10
15.5223358245
 20
13.4650020973
 30
0.0
 10
15.5329282306
 20
13.4915754092
 30
0.0
 10
15.5438073056
 20
13.5173735901
 30
0.0
 10
15.5549644652
 20
13.5423762906
 30
0.0
 10
15.5663909326
 20
13.5665637986
 30
0.0
 10
15.5780776906
 20
13.5899170562
 30
0.0
 10
15.5900155418
 20
13.6124176669
 30
0.0
 10
15.6021951205
 20
13.6340479015
 30
0.0
 10
15.6146068597
 20
13.6547907371
 30
0.0
 10
15.627241026
 20
13.6746298583
 30
0.0
 10
15.6400877501
 20
13.6935496497
 30
0.0
 10
15.6531370153
 20
13.7115352224
 30
0.0
 10
15.6663786513
 20
13.7285724382
 30
0.0
 10
15.6798023842
 20
13.7446478829
 30
0.0
 10
15.6933978454
 20
13.7597488672
 30
0.0
 10
15.7071545374
 20
13.7738634696
 30
0.0
 10
15.7210618802
 20
13.7869805017
 30
0.0
 10
15.7351092254
 20
13.7990894817
 30
0.0
 10
15.7492858252
 20
13.8101806636
 30
0.0
 10
15.7635808267
 20
13.8202450336
 30
0.0
 10
15.7779832873
 20
13.8292742568
 30
0.0
 10
15.7924821382
 20
13.8372606823
 30
0.0
 10
15.8070661247
 20
13.8441974089
 30
0.0
 10
15.8217237987
 20
13.8500782425
 30
0.0
 10
15.8364435112
 20
13.8548977182
 30
0.0
 10
15.8512132379
 20
13.85865123
 30
0.0
 10
15.8660210406
 20
13.8613350785
 30
0.0
 10
15.8808534445
 20
13.8629465147
 30
0.0
 10
15.8907594597
 20
13.8633049812
 30
0.0
 10
15.89569973
 20
13.8633049853
 30
0.0
  0
SPLINE
  5
2CD
100
AcDbEntity
  8
LAYER_FEATURE
100
AcDbSpline
 62
7
  6
CONTINUOUS
 70
0
 71
3
 72
67
 73
63
 74
0
 42
0.0000001
 43
0.0000001
 44
0.0000000001
 40
0.0
 40
0.0
 40
0.0
 40
0.0
 40
0.0163581013
 40
0.0330510694
 40
0.0500642491
 40
0.0673826926
 40
0.0849905208
 40
0.1028713409
 40
0.1210081566
 40
0.1393834611
 40
0.15797927
 40
0.1767771682
 40
0.1957583526
 40
0.2149036734
 40
0.2536076561
 40
0.292731491
 40
0.3321134768
 40
0.371590054
 40
0.4109969877
 40
0.45017054
 40
0.4889486503
 40
0.5081400228
 40
0.5271731428
 40
0.546028763
 40
0.5646879707
 40
0.5831322282
 40
0.601343416
 40
0.6193038759
 40
0.6369964566
 40
0.65440456
 40
0.6715121917
 40
0.6883040129
 40
0.7047653969
 40
0.720882489
 40
0.7366422729
 40
0.7520326412
 40
0.7670424724
 40
0.7816617173
 40
0.7958814943
 40
0.8096941963
 40
0.8230936114
 40
0.8360750592
 40
0.8486355463
 40
0.8607739405
 40
0.872491169
 40
0.8837904436
 40
0.8946775128
 40
0.905160943
 40
0.9152524249
 40
0.9249671014
 40
0.9343239024
 40
0.9433458667
 40
0.9520604213
 40
0.9604995757
 40
0.9686999787
 40
0.9767027777
 40
0.9806449746
 40
0.9845550535
 40
0.9884391969
 40
0.9923037475
 40
0.9961551669
 40
1.0
 40
1.0
 40
1.0
 40
1.0
 10
14.6762860809
 20
13.351532475
 30
0.0
 10
14.6724232281
 20
13.3390322789
 30
0.0
 10
14.6648770232
 20
13.3136953771
 30
0.0
 10
14.6541949307
 20
13.2751020294
 30
0.0
 10
14.6440451953
 20
13.2355717179
 30
0.0
 10
14.6344403193
 20
13.1951531935
 30
0.0
 10
14.625392077
 20
13.1538957937
 30
0.0
 10
14.6169115732
 20
13.1118501251
 30
0.0
 10
14.6090092208
 20
13.0690676777
 30
0.0
 10
14.6016947219
 20
13.0256008828
 30
0.0
 10
14.5949770552
 20
12.981502999
 30
0.0
 10
14.5888644787
 20
12.9368281015
 30
0.0
 10
14.5833644541
 20
12.8916308408
 30
0.0
 10
14.5768336604
 20
12.830526926
 30
0.0
 10
14.570260173
 20
12.7532340213
 30
0.0
 10
14.5649327741
 20
12.6596277373
 30
0.0
 10
14.5621644126
 20
12.5652924486
 30
0.0
 10
14.5619687019
 20
12.4706905565
 30
0.0
 10
14.5643466056
 20
12.3762849039
 30
0.0
 10
14.5692864348
 20
12.2825382368
 30
0.0
 10
14.5755387994
 20
12.2050824352
 30
0.0
 10
14.5818150015
 20
12.143813479
 30
0.0
 10
14.5871274356
 20
12.0984684063
 30
0.0
 10
14.5930545552
 20
12.0536289208
 30
0.0
 10
14.5995891252
 20
12.0093498754
 30
0.0
 10
14.6067231121
 20
11.9656855688
 30
0.0
 10
14.6144477602
 20
11.9226895048
 30
0.0
 10
14.6227535836
 20
11.880414372
 30
0.0
 10
14.6316303859
 20
11.8389119661
 30
0.0
 10
14.641067271
 20
11.79823313
 30
0.0
 10
14.651052658
 20
11.7584276896
 30
0.0
 10
14.6615742957
 20
11.719544392
 30
0.0
 10
14.6726192785
 20
11.6816308449
 30
0.0
 10
14.6841740644
 20
11.6447334566
 30
0.0
 10
14.6962244902
 20
11.6088973756
 30
0.0
 10
14.7087557923
 20
11.5741664346
 30
0.0
 10
14.7217526292
 20
11.540583096
 30
0.0
 10
14.735199103
 20
11.5081883994
 30
0.0
 10
14.7490787838
 20
11.4770219096
 30
0.0
 10
14.763374735
 20
11.4471216675
 30
0.0
 10
14.7780695414
 20
11.4185241432
 30
0.0
 10
14.7931453397
 20
11.3912641908
 30
0.0
 10
14.8085838476
 20
11.3653750058
 30
0.0
 10
14.8243664025
 20
11.3408880917
 30
0.0
 10
14.8404739992
 20
11.3178332315
 30
0.0
 10
14.8568873297
 20
11.2962384669
 30
0.0
 10
14.8735868236
 20
11.2761300867
 30
0.0
 10
14.8905526874
 20
11.2575326283
 30
0.0
 10
14.9077649377
 20
11.240468894
 30
0.0
 10
14.9252034236
 20
11.2249599815
 30
0.0
 10
14.9428478135
 20
11.211025331
 30
0.0
 10
14.960677601
 20
11.1986827806
 30
0.0
 10
14.9786718941
 20
11.1879486413
 30
0.0
 10
14.9968097451
 20
11.1788376392
 30
0.0
 10
15.0150683366
 20
11.1713631577
 30
0.0
 10
15.0304454678
 20
11.1664828715
 30
0.0
 10
15.0427560523
 20
11.1634261919
 30
0.0
 10
15.0519584589
 20
11.1615584479
 30
0.0
 10
15.0611723872
 20
11.1601051813
 30
0.0
 10
15.0703951611
 20
11.1590667401
 30
0.0
 10
15.0796235827
 20
11.1584435398
 30
0.0
 10
15.0857800526
 20
11.1583050035
 30
0.0
 10
15.0888552055
 20
11.1583050005
 30
0.0
  0
SPLINE
  5
2CE
100
AcDbEntity
  8
LAYER_FEATURE
100
AcDbSpline
 62
7
  6
CONTINUOUS
 70
0
 71
3
 72
39
 73
35
 74
0
 42
0.0000001
 43
0.0000001
 44
0.0000000001
 40
0.0
 40
0.0
 40
0.0
 40
0.0
 40
0.0466512439
 40
0.0922889496
 40
0.1368797144
 40
0.1803947708
 40
0.222807074
 40
0.2640930909
 40
0.3042325684
 40
0.3432089605
 40
0.38100976
 40
0.4176268814
 40
0.45305711
 40
0.4873026039
 40
0.5203714686
 40
0.5522783799
 40
0.5830452824
 40
0.6127021553
 40
0.6412878321
 40
0.6688508553
 40
0.6954503063
 40
0.7211565498
 40
0.7460518137
 40
0.7702304803
 40
0.7937989554
 40
0.8168749791
 40
0.8395862629
 40
0.8620684312
 40
0.8844623284
 40
0.906910865
 40
0.92955567
 40
0.9525338618
 40
0.9759752261
 40
1.0
 40
1.0
 40
1.0
 40
1.0
 10
14.723396933
 20
13.2930591534
 30
0.0
 10
14.7267940633
 20
13.3040522709
 30
0.0
 10
14.7337253451
 20
13.3257352703
 30
0.0
 10
14.7446601298
 20
13.3576777879
 30
0.0
 10
14.7560089393
 20
13.388653364
 30
0.0
 10
14.7677586562
 20
13.4186264006
 30
0.0
 10
14.7798959895
 20
13.4475629157
 30
0.0
 10
14.7924070763
 20
13.4754299029
 30
0.0
 10
14.8052777001
 20
13.5021956727
 30
0.0
 10
14.8184932372
 20
13.5278297916
 30
0.0
 10
14.8320387061
 20
13.5523031358
 30
0.0
 10
14.8458987888
 20
13.5755879168
 30
0.0
 10
14.8600578558
 20
13.5976577093
 30
0.0
 10
14.8744999981
 20
13.6184874766
 30
0.0
 10
14.8892090454
 20
13.6380535983
 30
0.0
 10
14.9041686085
 20
13.656333873
 30
0.0
 10
14.9193621083
 20
13.6733075171
 30
0.0
 10
14.9347728003
 20
13.6889551566
 30
0.0
 10
14.9503837976
 20
13.7032588055
 30
0.0
 10
14.9661780675
 20
13.7162018447
 30
0.0
 10
14.9821384168
 20
13.7277689841
 30
0.0
 10
14.9982474524
 20
13.7379462125
 30
0.0
 10
15.0144874973
 20
13.7467207722
 30
0.0
 10
15.0308404756
 20
13.7540811694
 30
0.0
 10
15.047287778
 20
13.7600172451
 30
0.0
 10
15.0638101316
 20
13.7645203439
 30
0.0
 10
15.0803875445
 20
13.7675835243
 30
0.0
 10
15.0969993469
 20
13.7692018304
 30
0.0
 10
15.1136243582
 20
13.7693725559
 30
0.0
 10
15.1302412095
 20
13.7680953928
 30
0.0
 10
15.1468285681
 20
13.7653725223
 30
0.0
 10
15.1633659098
 20
13.761208272
 30
0.0
 10
15.1798319764
 20
13.7556096399
 30
0.0
 10
15.1906028093
 20
13.7509890908
 30
0.0
 10
15.1959602438
 20
13.7484574907
 30
0.0
  0
SPLINE
  5
2CF
100
AcDbEntity
  8
LAYER_FEATURE
100
AcDbSpline
 62
7
  6
CONTINUOUS
 70
0
 71
3
 72
75
 73
71
 74
0
 42
0.0000001
 43
0.0000001
 44
0.0000000001
 40
0.0
 40
0.0
 40
0.0
 40
0.0
 40
0.0170002673
 40
0.0343750683
 40
0.0521066569
 40
0.0701766242
 40
0.0885655261
 40
0.1072532008
 40
0.1262187403
 40
0.1454405918
 40
0.1648966102
 40
0.1845641226
 40
0.2044199859
 40
0.2244406451
 40
0.2446021884
 40
0.2648804024
 40
0.3056876746
 40
0.3466658993
 40
0.3876159227
 40
0.4283388263
 40
0.4485540017
 40
0.4686387692
 40
0.4885690796
 40
0.508321216
 40
0.5278718496
 40
0.5471980963
 40
0.5662775746
 40
0.5850884663
 40
0.6036095783
 40
0.6218204082
 40
0.6397012127
 40
0.6572330806
 40
0.6743980101
 40
0.6911789928
 40
0.7075601043
 40
0.7235266043
 40
0.7390650458
 40
0.7541633979
 40
0.7688111831
 40
0.7829996324
 40
0.7967218629
 40
0.8099730788
 40
0.8227508039
 40
0.8350551462
 40
0.8468891026
 40
0.8582589039
 40
0.8691744041
 40
0.8796495101
 40
0.8897026425
 40
0.8993572096
 40
0.90864206
 40
0.9175918616
 40
0.9262473327
 40
0.930480068
 40
0.9346572545
 40
0.9387856254
 40
0.9428722236
 40
0.9469243709
 40
0.9509496282
 40
0.9549557457
 40
0.9589506143
 40
0.9629422066
 40
0.9669385197
 40
0.9709475168
 40
0.9749770656
 40
0.9790348879
 40
0.9831285027
 40
0.9872651855
 40
0.9914519256
 40
1.0
 40
1.0
 40
1.0
 40
1.0
 10
14.723396933
 20
13.2930591534
 30
0.0
 10
14.7195083848
 20
13.2804758067
 30
0.0
 10
14.7119274022
 20
13.2549439844
 30
0.0
 10
14.7012493446
 20
13.2160109342
 30
0.0
 10
14.6911522301
 20
13.1760678032
 30
0.0
 10
14.6816505992
 20
13.1351720674
 30
0.0
 10
14.6727580637
 20
13.0933821081
 30
0.0
 10
14.6644873797
 20
13.0507577885
 30
0.0
 10
14.6568504146
 20
13.0073601067
 30
0.0
 10
14.6498581251
 20
12.9632512008
 30
0.0
 10
14.6435205455
 20
12.9184942266
 30
0.0
 10
14.6378467716
 20
12.8731532797
 30
0.0
 10
14.6328449436
 20
12.8272932855
 30
0.0
 10
14.6285222519
 20
12.7809799605
 30
0.0
 10
14.6248848585
 20
12.7342795132
 30
0.0
 10
14.6209478246
 20
12.671456952
 30
0.0
 10
14.6177789771
 20
12.5924367677
 30
0.0
 10
14.6167758042
 20
12.4973427105
 30
0.0
 10
14.6185702434
 20
12.4023256467
 30
0.0
 10
14.6223973592
 20
12.3234707227
 30
0.0
 10
14.6268588771
 20
12.2608573244
 30
0.0
 10
14.6308848316
 20
12.2143677251
 30
0.0
 10
14.6355926918
 20
12.1683028642
 30
0.0
 10
14.640975745
 20
12.122728593
 30
0.0
 10
14.6470262531
 20
12.0777102159
 30
0.0
 10
14.6537355359
 20
12.0333121935
 30
0.0
 10
14.6610939642
 20
11.9895981034
 30
0.0
 10
14.6690909796
 20
11.9466305336
 30
0.0
 10
14.6777151082
 20
11.9044709957
 30
0.0
 10
14.6869539784
 20
11.8631798347
 30
0.0
 10
14.6967943392
 20
11.8228161415
 30
0.0
 10
14.7072220804
 20
11.7834376664
 30
0.0
 10
14.7182222543
 20
11.7451007348
 30
0.0
 10
14.7297790988
 20
11.7078601644
 30
0.0
 10
14.7418760629
 20
11.6717691844
 30
0.0
 10
14.7544958324
 20
11.6368793566
 30
0.0
 10
14.7676203606
 20
11.6032404991
 30
0.0
 10
14.7812308997
 20
11.5709006133
 30
0.0
 10
14.7953080342
 20
11.5399058131
 30
0.0
 10
14.8098317193
 20
11.5103002569
 30
0.0
 10
14.8247813207
 20
11.4821260849
 30
0.0
 10
14.8401356597
 20
11.4554233604
 30
0.0
 10
14.8558730625
 20
11.4302300183
 30
0.0
 10
14.8719714132
 20
11.4065818226
 30
0.0
 10
14.8884082116
 20
11.3845123345
 30
0.0
 10
14.9051606321
 20
11.3640528978
 30
0.0
 10
14.9222055845
 20
11.3452326413
 30
0.0
 10
14.9395197514
 20
11.3280785118
 30
0.0
 10
14.9570796595
 20
11.3126153191
 30
0.0
 10
14.9748615267
 20
11.2988658656
 30
0.0
 10
14.9928416997
 20
11.2868508819
 30
0.0
 10
15.0109947272
 20
11.2765896788
 30
0.0
 10
15.0263614779
 20
11.26946106
 30
0.0
 10
15.0386914852
 20
11.264680107
 30
0.0
 10
15.0478964793
 20
11.2615675481
 30
0.0
 10
15.0571232561
 20
11.2589032291
 30
0.0
 10
15.0663686186
 20
11.2566881223
 30
0.0
 10
15.0756291395
 20
11.2549231545
 30
0.0
 10
15.0849014122
 20
11.2536089939
 30
0.0
 10
15.0941820099
 20
11.2527462424
 30
0.0
 10
15.103467479
 20
11.2523351701
 30
0.0
 10
15.1127543662
 20
11.2523760454
 30
0.0
 10
15.1220392122
 20
11.2528687452
 30
0.0
 10
15.1313185572
 20
11.2538131725
 30
0.0
 10
15.1405889597
 20
11.2552088398
 30
0.0
 10
15.1498470027
 20
11.2570552709
 30
0.0
 10
15.1590892024
 20
11.2593516151
 30
0.0
 10
15.1683125007
 20
11.2620971574
 30
0.0
 10
15.1806635345
 20
11.2663838857
 30
0.0
 10
15.189765163
 20
11.2702319703
 30
0.0
 10
15.1957553202
 20
11.2730557819
 30
0.0
  0
SPLINE
  5
2D0
100
AcDbEntity
  8
LAYER_FEATURE
100
AcDbSpline
 62
7
  6
CONTINUOUS
 70
0
 71
3
 72
15
 73
11
 74
0
 42
0.0000001
 43
0.0000001
 44
0.0000000001
 40
0.0
 40
0.0
 40
0.0
 40
0.0
 40
0.1207889382
 40
0.2482170018
 40
0.3796553187
 40
0.5123119652
 40
0.6433528953
 40
0.7700039763
 40
0.8896569734
 40
1.0
 40
1.0
 40
1.0
 40
1.0
 10
14.7088809145
 20
13.2070772629
 30
0.0
 10
14.7087301396
 20
13.2064388031
 30
0.0
 10
14.7084741473
 20
13.2051137054
 30
0.0
 10
14.7082244373
 20
13.2030655159
 30
0.0
 10
14.7081026133
 20
13.2009411731
 30
0.0
 10
14.7081118643
 20
13.1987938117
 30
0.0
 10
14.70825192
 20
13.1966770175
 30
0.0
 10
14.7085192051
 20
13.1946435038
 30
0.0
 10
14.7089067664
 20
13.1927440035
 30
0.0
 10
14.7092548755
 20
13.1915422624
 30
0.0
 10
14.7094508288
 20
13.1909759157
 30
0.0
  0
SPLINE
  5
2D1
100
AcDbEntity
  8
LAYER_FEATURE
100
AcDbSpline
 62
7
  6
CONTINUOUS
 70
0
 71
3
 72
15
 73
11
 74
0
 42
0.0000001
 43
0.0000001
 44
0.0000000001
 40
0.0
 40
0.0
 40
0.0
 40
0.0
 40
0.1322252673
 40
0.2650596797
 40
0.3971275503
 40
0.5270587766
 40
0.6535253668
 40
0.7752643173
 40
0.8911030695
 40
1.0
 40
1.0
 40
1.0
 40
1.0
 10
14.7207394924
 20
13.1323276022
 30
0.0
 10
14.7208477322
 20
13.1340510266
 30
0.0
 10
14.7209883257
 20
13.1375110607
 30
0.0
 10
14.7209756818
 20
13.1426989183
 30
0.0
 10
14.7207409325
 20
13.1478516194
 30
0.0
 10
14.7202869552
 20
13.1529062146
 30
0.0
 10
14.7196193956
 20
13.1578010806
 30
0.0
 10
14.7187464953
 20
13.1624767168
 30
0.0
 10
14.7176791454
 20
13.1668761374
 30
0.0
 10
14.7168176083
 20
13.1696843457
 30
0.0
 10
14.7163525954
 20
13.1710283325
 30
0.0
  0
SPLINE
  5
2D2
100
AcDbEntity
  8
02___PRT_ALL_AXES
100
AcDbSpline
 62
7
  6
CONTINUOUS
 70
0
 71
3
 72
15
 73
11
 74
0
 42
0.0000001
 43
0.0000001
 44
0.0000000001
 40
0.0
 40
0.0
 40
0.0
 40
0.0
 40
0.1336139935
 40
0.2636882879
 40
0.3907018448
 40
0.515194631
 40
0.6377451191
 40
0.7589671508
 40
0.8795009225
 40
1.0
 40
1.0
 40
1.0
 40
1.0
 10
15.6769370026
 20
11.8399048432
 30
0.0
 10
15.6742571463
 20
11.8383645508
 30
0.0
 10
15.6688717557
 20
11.8354887632
 30
0.0
 10
15.6606256109
 20
11.8317717263
 30
0.0
 10
15.6523352245
 20
11.8287175441
 30
0.0
 10
15.6440093431
 20
11.8263300999
 30
0.0
 10
15.6356563221
 20
11.8246122877
 30
0.0
 10
15.6272847316
 20
11.823566398
 30
0.0
 10
15.618904182
 20
11.8231938172
 30
0.0
 10
15.6133247638
 20
11.8233944051
 30
0.0
 10
15.6105451899
 20
11.8236055255
 30
0.0
  0
SPLINE
  5
2D3
100
AcDbEntity
  8
LAYER_FEATURE
100
AcDbSpline
 62
7
  6
CONTINUOUS
 70
0
 71
3
 72
15
 73
11
 74
0
 42
0.0000001
 43
0.0000001
 44
0.0000000001
 40
0.0
 40
0.0
 40
0.0
 40
0.0
 40
0.1282380269
 40
0.261118935
 40
0.395840941
 40
0.529522833
 40
0.6593254563
 40
0.7825567321
 40
0.8967874124
 40
1.0
 40
1.0
 40
1.0
 40
1.0
 10
14.678039341
 20
13.0733660163
 30
0.0
 10
14.6779220218
 20
13.072690431
 30
0.0
 10
14.677733508
 20
13.0713056913
 30
0.0
 10
14.6775845522
 20
13.0691930431
 30
0.0
 10
14.6775662528
 20
13.0670460532
 30
0.0
 10
14.6776791203
 20
13.0649184321
 30
0.0
 10
14.6779202077
 20
13.0628632505
 30
0.0
 10
14.6782833616
 20
13.0609314867
 30
0.0
 10
14.678759161
 20
13.0591711339
 30
0.0
 10
14.6791661801
 20
13.058079243
 30
0.0
 10
14.6793906206
 20
13.0575750584
 30
0.0
  0
SPLINE
  5
2D4
100
AcDbEntity
  8
LAYER_FEATURE
100
AcDbSpline
 62
7
  6
CONTINUOUS
 70
0
 71
3
 72
15
 73
11
 74
0
 42
0.0000001
 43
0.0000001
 44
0.0000000001
 40
0.0
 40
0.0
 40
0.0
 40
0.0
 40
0.1377818707
 40
0.2745709908
 40
0.4089585104
 40
0.5395708575
 40
0.6651089939
 40
0.7843744899
 40
0.8963004339
 40
1.0
 40
1.0
 40
1.0
 40
1.0
 10
14.6934527216
 20
13.00302243
 30
0.0
 10
14.6934758551
 20
13.0047567928
 30
0.0
 10
14.6934475174
 20
13.0082144782
 30
0.0
 10
14.6931830874
 20
13.0133575603
 30
0.0
 10
14.6927000614
 20
13.0183942563
 30
0.0
 10
14.6920043951
 20
13.0232631079
 30
0.0
 10
14.6911047257
 20
13.0279048632
 30
0.0
 10
14.690012119
 20
13.0322633346
 30
0.0
 10
14.6887401663
 20
13.0362855855
 30
0.0
 10
14.6877424532
 20
13.0388134535
 30
0.0
 10
14.6872115477
 20
13.0400060826
 30
0.0
  0
SPLINE
  5
2D5
100
AcDbEntity
  8
LAYER_FEATURE
100
AcDbSpline
 62
7
  6
CONTINUOUS
 70
0
 71
3
 72
16
 73
12
 74
0
 42
0.0000001
 43
0.0000001
 44
0.0000000001
 40
0.0
 40
0.0
 40
0.0
 40
0.0
 40
0.1359524966
 40
0.2744057507
 40
0.4124126187
 40
0.5470308462
 40
0.6754499034
 40
0.7951047132
 40
0.9038107587
 40
0.9535520763
 40
1.0
 40
1.0
 40
1.0
 40
1.0
 10
14.6539670152
 20
12.9307828463
 30
0.0
 10
14.6538843374
 20
12.9300811343
 30
0.0
 10
14.653765102
 20
12.9286588269
 30
0.0
 10
14.6537193071
 20
12.9265146735
 30
0.0
 10
14.6538048272
 20
12.9243785546
 30
0.0
 10
14.6540194881
 20
12.9223038961
 30
0.0
 10
14.6543577274
 20
12.9203421983
 30
0.0
 10
14.6548109205
 20
12.9185422544
 30
0.0
 10
14.655287947
 20
12.917174953
 30
0.0
 10
14.6557239964
 20
12.9162028541
 30
0.0
 10
14.6559575826
 20
12.9157603267
 30
0.0
 10
14.6560783499
 20
12.9155513106
 30
0.0
  0
SPLINE
  5
2D6
100
AcDbEntity
  8
LAYER_FEATURE
100
AcDbSpline
 62
7
  6
CONTINUOUS
 70
0
 71
3
 72
15
 73
11
 74
0
 42
0.0000001
 43
0.0000001
 44
0.0000000001
 40
0.0
 40
0.0
 40
0.0
 40
0.0
 40
0.1436478097
 40
0.2845662959
 40
0.4213279457
 40
0.5525750263
 40
0.6770635807
 40
0.7936957036
 40
0.9015607529
 40
1.0
 40
1.0
 40
1.0
 40
1.0
 10
14.6726921204
 20
12.8659546948
 30
0.0
 10
14.6726307865
 20
12.8676726254
 30
0.0
 10
14.6724359617
 20
12.8710737252
 30
0.0
 10
14.6719239644
 20
12.8760913355
 30
0.0
 10
14.6712003657
 20
12.8809330836
 30
0.0
 10
14.6702740896
 20
12.8855400217
 30
0.0
 10
14.6691566061
 20
12.8898562767
 30
0.0
 10
14.6678615386
 20
12.8938299903
 30
0.0
 10
14.6664048825
 20
12.8974132057
 30
0.0
 10
14.6652844412
 20
12.8996180171
 30
0.0
 10
14.6646950967
 20
12.9006380155
 30
0.0
  0
SPLINE
  5
2D7
100
AcDbEntity
  8
LAYER_FEATURE
100
AcDbSpline
 62
7
  6
CONTINUOUS
 70
0
 71
3
 72
22
 73
18
 74
0
 42
0.0000001
 43
0.0000001
 44
0.0000000001
 40
0.0
 40
0.0
 40
0.0
 40
0.0
 40
0.0427497929
 40
0.0862973754
 40
0.1313044644
 40
0.1783686052
 40
0.2279858158
 40
0.2805505072
 40
0.3363620397
 40
0.3956341799
 40
0.458507144
 40
0.5250567429
 40
0.5953065221
 40
0.669234809
 40
0.746777716
 40
0.8278426479
 40
1.0
 40
1.0
 40
1.0
 40
1.0
 10
14.6547709693
 20
12.8164089182
 30
0.0
 10
14.6551098664
 20
12.8164136506
 30
0.0
 10
14.6557942509
 20
12.8164724097
 30
0.0
 10
14.6568118247
 20
12.8167062864
 30
0.0
 10
14.6578213499
 20
12.817084925
 30
0.0
 10
14.6588192409
 20
12.8176062756
 30
0.0
 10
14.6598027531
 20
12.8182680407
 30
0.0
 10
14.6607691564
 20
12.8190678131
 30
0.0
 10
14.6617158838
 20
12.8200028932
 30
0.0
 10
14.6626403741
 20
12.8210703468
 30
0.0
 10
14.6635400189
 20
12.8222669484
 30
0.0
 10
14.6644122793
 20
12.8235890737
 30
0.0
 10
14.6652546008
 20
12.8250327691
 30
0.0
 10
14.6660644583
 20
12.8265936796
 30
0.0
 10
14.6668394984
 20
12.828267102
 30
0.0
 10
14.6678433503
 20
12.830690315
 30
0.0
 10
14.66850495
 20
12.8325881008
 30
0.0
 10
14.6689141855
 20
12.8338902089
 30
0.0
  0
SPLINE
  5
2D8
100
AcDbEntity
  8
LAYER_FEATURE
100
AcDbSpline
 62
7
  6
CONTINUOUS
 70
0
 71
3
 72
20
 73
16
 74
0
 42
0.0000001
 43
0.0000001
 44
0.0000000001
 40
0.0
 40
0.0
 40
0.0
 40
0.0
 40
0.0365233417
 40
0.0743851236
 40
0.1146620255
 40
0.1582153076
 40
0.2056483648
 40
0.257343389
 40
0.313502683
 40
0.3741829197
 40
0.4393266618
 40
0.5087866061
 40
0.6596672928
 40
0.8244387034
 40
1.0
 40
1.0
 40
1.0
 40
1.0
 10
14.6443799967
 20
12.8162638171
 30
0.0
 10
14.6442388221
 20
12.8162618458
 30
0.0
 10
14.6439509326
 20
12.8162278369
 30
0.0
 10
14.643527271
 20
12.8160892207
 30
0.0
 10
14.6431112962
 20
12.815864862
 30
0.0
 10
14.6427055369
 20
12.8155573918
 30
0.0
 10
14.6423118094
 20
12.815169281
 30
0.0
 10
14.6419320395
 20
12.8147031039
 30
0.0
 10
14.6415682198
 20
12.814161713
 30
0.0
 10
14.6412224056
 20
12.8135483806
 30
0.0
 10
14.6408966035
 20
12.8128668345
 30
0.0
 10
14.6404801061
 20
12.8118442826
 30
0.0
 10
14.640029647
 20
12.8104227052
 30
0.0
 10
14.639610187
 20
12.8085689817
 30
0.0
 10
14.6394139794
 20
12.8072667907
 30
0.0
 10
14.6393345661
 20
12.8065927853
 30
0.0
  0
SPLINE
  5
2D9
100
AcDbEntity
  8
LAYER_FEATURE
100
AcDbSpline
 62
7
  6
CONTINUOUS
 70
0
 71
3
 72
56
 73
52
 74
0
 42
0.0000001
 43
0.0000001
 44
0.0000000001
 40
0.0
 40
0.0
 40
0.0
 40
0.0
 40
0.0401310208
 40
0.080621863
 40
0.1213635537
 40
0.1622455122
 40
0.2031566265
 40
0.243985645
 40
0.2846216979
 40
0.3249548209
 40
0.3648764814
 40
0.4042801209
 40
0.4430616933
 40
0.4811202434
 40
0.518358495
 40
0.5546834683
 40
0.590007171
 40
0.6072680987
 40
0.6242483651
 40
0.6409387057
 40
0.6573303221
 40
0.6734149179
 40
0.6891847171
 40
0.7046325069
 40
0.7197516908
 40
0.7345363149
 40
0.748981115
 40
0.7630815879
 40
0.7768340351
 40
0.7902356198
 40
0.8032844562
 40
0.8159796823
 40
0.8283215339
 40
0.8403114541
 40
0.8519522052
 40
0.8632479666
 40
0.8742044681
 40
0.8848291398
 40
0.8951312372
 40
0.905121989
 40
0.9148147627
 40
0.9242251922
 40
0.9333712975
 40
0.9422735942
 40
0.950955141
 40
0.9594415232
 40
0.9677607749
 40
0.9759432026
 40
0.9840210969
 40
0.9920283535
 40
1.0
 40
1.0
 40
1.0
 40
1.0
 10
14.6393345661
 20
12.8065927853
 30
0.0
 10
14.6371485375
 20
12.7837877831
 30
0.0
 10
14.6332900913
 20
12.7379205265
 30
0.0
 10
14.6290488914
 20
12.6687622863
 30
0.0
 10
14.6263366254
 20
12.5990979294
 30
0.0
 10
14.6251620829
 20
12.529150898
 30
0.0
 10
14.625529005
 20
12.4591450985
 30
0.0
 10
14.6274362425
 20
12.3893047277
 30
0.0
 10
14.6308776409
 20
12.3198534043
 30
0.0
 10
14.6358421337
 20
12.2510135015
 30
0.0
 10
14.6423137723
 20
12.1830054078
 30
0.0
 10
14.6502717181
 20
12.1160468172
 30
0.0
 10
14.6596904079
 20
12.0503520107
 30
0.0
 10
14.6705395512
 20
11.9861312066
 30
0.0
 10
14.6827842782
 20
11.9235896743
 30
0.0
 10
14.6963852445
 20
11.8629277875
 30
0.0
 10
14.7089074852
 20
11.8137326275
 30
0.0
 10
14.7195870126
 20
11.7754817305
 30
0.0
 10
14.7278457964
 20
11.7476027962
 30
0.0
 10
14.7364084269
 20
11.7203353883
 30
0.0
 10
14.7452680938
 20
11.6937012733
 30
0.0
 10
14.7544176728
 20
11.6677217745
 30
0.0
 10
14.7638498463
 20
11.6424176759
 30
0.0
 10
14.7735570758
 20
11.6178092238
 30
0.0
 10
14.7835315782
 20
11.5939160886
 30
0.0
 10
14.7937653776
 20
11.5707573701
 30
0.0
 10
14.8042503142
 20
11.548351584
 30
0.0
 10
14.814978003
 20
11.5267166219
 30
0.0
 10
14.8259398815
 20
11.5058697551
 30
0.0
 10
14.837127234
 20
11.4858276336
 30
0.0
 10
14.8485311555
 20
11.4666062456
 30
0.0
 10
14.8601425762
 20
11.4482209119
 30
0.0
 10
14.8719523051
 20
11.4306863008
 30
0.0
 10
14.8839510079
 20
11.4140163965
 30
0.0
 10
14.8961292019
 20
11.3982244768
 30
0.0
 10
14.9084773143
 20
11.3833231458
 30
0.0
 10
14.9209856778
 20
11.369324322
 30
0.0
 10
14.9336444973
 20
11.3562391973
 30
0.0
 10
14.9464439109
 20
11.3440782855
 30
0.0
 10
14.9593739947
 20
11.3328514386
 30
0.0
 10
14.9724247111
 20
11.3225677933
 30
0.0
 10
14.9855859441
 20
11.313235821
 30
0.0
 10
14.9988474999
 20
11.3048633684
 30
0.0
 10
15.0121990405
 20
11.297457598
 30
0.0
 10
15.0256300721
 20
11.2910249942
 30
0.0
 10
15.0391299266
 20
11.2855714044
 30
0.0
 10
15.0526877286
 20
11.2811019555
 30
0.0
 10
15.0662922505
 20
11.2776209601
 30
0.0
 10
15.0799323544
 20
11.2751319279
 30
0.0
 10
15.0935954516
 20
11.2736374751
 30
0.0
 10
15.1027207571
 20
11.2733049961
 30
0.0
 10
15.1072715191
 20
11.2733050005
 30
0.0
  0
SPLINE
  5
2DA
100
AcDbEntity
  8
LAYER_FEATURE
100
AcDbSpline
 62
7
  6
CONTINUOUS
 70
0
 71
3
 72
15
 73
11
 74
0
 42
0.0000001
 43
0.0000001
 44
0.0000000001
 40
0.0
 40
0.0
 40
0.0
 40
0.0
 40
0.1135221525
 40
0.2355595209
 40
0.3636921872
 40
0.495247625
 40
0.627426586
 40
0.7574067911
 40
0.8824451299
 40
1.0
 40
1.0
 40
1.0
 40
1.0
 10
14.7460053459
 20
13.3298078798
 30
0.0
 10
14.7458227954
 20
13.3292171461
 30
0.0
 10
14.7455021503
 20
13.3279730159
 30
0.0
 10
14.7451557141
 20
13.3260211325
 30
0.0
 10
14.7449323301
 20
13.3239525743
 30
0.0
 10
14.7448378164
 20
13.3218190071
 30
0.0
 10
14.7448745777
 20
13.3196736156
 30
0.0
 10
14.745041697
 20
13.3175699216
 30
0.0
 10
14.7453348129
 20
13.315560519
 30
0.0
 10
14.7456198305
 20
13.3142686858
 30
0.0
 10
14.7457849068
 20
13.3136500712
 30
0.0
  0
SPLINE
  5
2DB
100
AcDbEntity
  8
LAYER_FEATURE
100
AcDbSpline
 62
7
  6
CONTINUOUS
 70
0
 71
3
 72
15
 73
11
 74
0
 42
0.0000001
 43
0.0000001
 44
0.0000000001
 40
0.0
 40
0.0
 40
0.0
 40
0.0
 40
0.1268997237
 40
0.2559111064
 40
0.3857038519
 40
0.5149258567
 40
0.6422383017
 40
0.7663370526
 40
0.8859752718
 40
1.0
 40
1.0
 40
1.0
 40
1.0
 10
14.7541221042
 20
13.2518309915
 30
0.0
 10
14.7543147646
 20
13.2535161257
 30
0.0
 10
14.7546240463
 20
13.2569239455
 30
0.0
 10
14.754863389
 20
13.262075148
 30
0.0
 10
14.7548806629
 20
13.267263006
 30
0.0
 10
14.7546756149
 20
13.2724241069
 30
0.0
 10
14.7542508022
 20
13.2774954795
 30
0.0
 10
14.7536114753
 20
13.2824153348
 30
0.0
 10
14.7527656252
 20
13.2871236003
 30
0.0
 10
14.7520516029
 20
13.2901659637
 30
0.0
 10
14.7516586681
 20
13.2916384658
 30
0.0
  0
SPLINE
  5
2DC
100
AcDbEntity
  8
LAYER_FEATURE
100
AcDbSpline
 62
7
  6
CONTINUOUS
 70
0
 71
3
 72
39
 73
35
 74
0
 42
0.0000001
 43
0.0000001
 44
0.0000000001
 40
0.0
 40
0.0
 40
0.0
 40
0.0
 40
0.0443812481
 40
0.0879669295
 40
0.1307335086
 40
0.172661876
 40
0.2137331571
 40
0.2539301992
 40
0.2932376968
 40
0.3316421073
 40
0.369131911
 40
0.4056977099
 40
0.4413323968
 40
0.4760313903
 40
0.5097927974
 40
0.5426176342
 40
0.5745101269
 40
0.6054779669
 40
0.6355325892
 40
0.664689538
 40
0.6929688298
 40
0.7203952869
 40
0.7469989387
 40
0.7728154376
 40
0.7978863828
 40
0.8222596394
 40
0.8459896168
 40
0.869137373
 40
0.8917705712
 40
0.9139632708
 40
0.935795451
 40
0.9573522592
 40
0.9787230199
 40
1.0
 40
1.0
 40
1.0
 40
1.0
 10
14.6762860809
 20
13.351532475
 30
0.0
 10
14.6793285507
 20
13.3613779109
 30
0.0
 10
14.6855166083
 20
13.3808440323
 30
0.0
 10
14.6951997041
 20
13.4096144917
 30
0.0
 10
14.7051939513
 20
13.4376746694
 30
0.0
 10
14.7154913013
 20
13.4650020968
 30
0.0
 10
14.7260837061
 20
13.4915754083
 30
0.0
 10
14.73696278
 20
13.5173735908
 30
0.0
 10
14.7481199415
 20
13.54237629
 30
0.0
 10
14.7595464092
 20
13.5665637977
 30
0.0
 10
14.771233165
 20
13.5899170569
 30
0.0
 10
14.7831710165
 20
13.6124176673
 30
0.0
 10
14.7953505984
 20
13.6340478998
 30
0.0
 10
14.807762335
 20
13.6547907374
 30
0.0
 10
14.8203964986
 20
13.6746298603
 30
0.0
 10
14.8332432285
 20
13.6935496473
 30
0.0
 10
14.846292492
 20
13.7115352213
 30
0.0
 10
14.8595341234
 20
13.7285724412
 30
0.0
 10
14.872957861
 20
13.7446478815
 30
0.0
 10
14.8865533237
 20
13.759748864
 30
0.0
 10
14.9003100108
 20
13.7738634722
 30
0.0
 10
14.9142173535
 20
13.7869805043
 30
0.0
 10
14.9282647052
 20
13.7990894759
 30
0.0
 10
14.9424413004
 20
13.8101806639
 30
0.0
 10
14.9567362979
 20
13.8202450405
 30
0.0
 10
14.9711387666
 20
13.8292742503
 30
0.0
 10
14.9856376151
 20
13.8372606787
 30
0.0
 10
15.0002215969
 20
13.8441974171
 30
0.0
 10
15.014879275
 20
13.8500782411
 30
0.0
 10
15.029598989
 20
13.8548977095
 30
0.0
 10
15.044368712
 20
13.8586512351
 30
0.0
 10
15.0591765155
 20
13.8613350874
 30
0.0
 10
15.0740089211
 20
13.8629464963
 30
0.0
 10
15.0839149352
 20
13.8633049902
 30
0.0
 10
15.0888552055
 20
13.8633049853
 30
0.0
  0
ENDSEC
  0
SECTION
  2
OBJECTS
  0
DICTIONARY
  5
C
100
AcDbDictionary
280
0
281
1
  3
ACAD_GROUP
350
D
  3
ACAD_MLINESTYLE
350
17
  3
ACAD_LAYOUT
350
1A
  3
ACAD_PLOTSETTINGS
350
19
  3
ACAD_PLOTSTYLENAME
350
E
  0
DICTIONARY
  5
D
102
{ACAD_REACTORS
330
C
102
}
100
AcDbDictionary
280
0
281
1
  0
ACDBDICTIONARYWDFLT
  5
E
102
{ACAD_REACTORS
330
C
102
}
100
AcDbDictionary
281
1
  3
Normal
350
F
100
AcDbDictionaryWithDefault
340
F
  0
DICTIONARY
  5
17
102
{ACAD_REACTORS
330
C
102
}
100
AcDbDictionary
280
0
281
1
  3
Standard
350
18
  0
DICTIONARY
  5
19
102
{ACAD_REACTORS
330
C
102
}
100
AcDbDictionary
281
1
  0
DICTIONARY
  5
1A
102
{ACAD_REACTORS
330
C
102
}
100
AcDbDictionary
281
1
  3
Model
350
2DD
  3
Layout1
350
2DE
  0
ACDBPLACEHOLDER
  5
F
102
{ACAD_REACTORS
330
E
102
}
  0
MLINESTYLE
  5
18
102
{ACAD_REACTORS
330
17
102
}
100
AcDbMlineStyle
  2
STANDARD
 70
0
  3

 62
256
 51
90.0
 52
90.0
 71
2
 49
0.5
 62
256
  6
BYLAYER
 49
-0.5
 62
256
  6
BYLAYER
  0
LAYOUT
  5
2DD
102
{ACAD_REACTORS
330
1A
102
}
100
AcDbPlotSettings
  1

  2
none_device
  4
ANSI_C_(22.00_x_17.00_Inches)
  6

 40
0.0
 41
0.0
 42
0.0
 43
0.0
 44
558.8
 45
431.8
 46
0.0
 47
0.0
 48
0.0
 49
0.0
140
0.0
141
0.0
142
1.0
143
1.0
 70
1024
 72
0
 73
0
 74
0
  7

 75
0
147
1.0
148
0.0
149
0.0
100
AcDbLayout
  1
Model
 70
0
 71
0
 10
0.0
 20
0.0
 11
22.0
 21
17.0
 12
0.0
 22
0.0
 32
0.0
 14
0.0
 24
0.0
 34
0.0
 15
0.0
 25
0.0
 35
0.0
146
0.0
 13
0.0
 23
0.0
 33
0.0
 16
1.0
 26
0.0
 36
0.0
 17
0.0
 27
1.0
 37
0.0
 76
0
330
222
345
0
346
0
  0
LAYOUT
  5
2DE
102
{ACAD_REACTORS
330
1A
102
}
100
AcDbPlotSettings
  1

  2
none_device
  4
ANSI_C_(22.00_x_17.00_Inches)
  6

 40
0.0
 41
0.0
 42
0.0
 43
0.0
 44
558.8
 45
431.8
 46
0.0
 47
0.0
 48
0.0
 49
0.0
140
0.0
141
0.0
142
1.0
143
1.0
 70
0
 72
0
 73
0
 74
0
  7

 75
0
147
1.0
148
0.0
149
0.0
100
AcDbLayout
  1
Layout1
 70
0
 71
1
 10
0.0
 20
0.0
 11
22.0
 21
17.0
 12
0.0
 22
0.0
 32
0.0
 14
0.0
 24
0.0
 34
0.0
 15
0.0
 25
0.0
 35
0.0
146
0.0
 13
0.0
 23
0.0
 33
0.0
 16
1.0
 26
0.0
 36
0.0
 17
0.0
 27
1.0
 37
0.0
 76
0
330
223
345
0
346
0
  0
ENDSEC
  0
EOF