999
DXF file: _cgs_temp_output.dxf
999
Pro/ENGINEER 2016360 by Parametric Technology Corporation
  0
SECTION
  2
HEADER
  9
$ACADVER
  1
AC1021
  9
$DWGCODEPAGE
  3
ANSI_1252
  9
$EXTMAX
 10
22.0
 20
17.0
 30
0.0
  9
$EXTMIN
 10
0.0
 20
0.0
 30
0.0
  9
$LIMMIN
 10
0.0
 20
0.0
  9
$LIMMAX
 10
22.0
 20
17.0
  9
$VIEWCTR
 10
11.0
 20
8.5
  9
$VIEWSIZE
 40
17.0
  9
$CLAYER
  8
0
  9
$LTSCALE
 40
1.21
  9
$CELTYPE
  6
BYLAYER
  9
$DIMSCALE
 40
1.0
  9
$DIMASZ
 40
0.1875
  9
$DIMEXO
 40
0.0625
  9
$DIMDLI
 40
0.836
  9
$DIMEXE
 40
0.125
  9
$DIMCEN
 40
0.198
  9
$DIMLFAC
 40
1.0
  9
$DIMBLK
  1
_CLOSED
  9
$DIMALT
 70
0
  9
$DIMALTF
 40
25.4
  9
$DIMTXT
 40
0.15625
  9
$DIMTOL
 70
0
  9
$DIMLIM
 70
0
  9
$DIMTFAC
 40
1.0
  9
$DIMGAP
 40
0.09
  9
$DIMDSEP
 70
46
  9
$AUNITS
 70
0
  9
$PDMODE
 70
3
  9
$PDSIZE
 40
0.3125
  9
$HANDSEED
  5
2F8
  9
$TILEMODE
 70
1
  9
$MEASUREMENT
 70
0
  9
$INSUNITS
 70
1
  0
ENDSEC
  0
SECTION
  2
CLASSES
  0
CLASS
  1
ACDBDICTIONARYWDFLT
  2
AcDbDictionaryWithDefault
  3
AutoCAD 2000
 90
0
 91
1
280
0
281
0
  0
CLASS
  1
ACDBPLACEHOLDER
  2
AcDbPlaceHolder
  3
AutoCAD 2000
 90
0
 91
1
280
0
281
0
  0
CLASS
  1
LAYOUT
  2
AcDbLayout
  3
AutoCAD 2000
 90
0
 91
0
280
0
281
0
  0
ENDSEC
  0
SECTION
  2
TABLES
  0
TABLE
  2
VPORT
  5
8
100
AcDbSymbolTable
 70
2
  0
VPORT
  5
1F4
100
AcDbSymbolTableRecord
100
AcDbViewportTableRecord
  2
*ACTIVE
 70
0
 10
0.0
 20
0.0
 11
1.0
 21
1.0
 12
11.0
 22
8.5
 13
0.0
 23
0.0
 14
1.0
 24
1.0
 15
0.0
 25
0.0
 16
0.0
 26
0.0
 36
1.0
 17
0.0
 27
0.0
 37
0.0
 40
17.0
 41
1.2941176471
 42
50.0
 43
0.0
 44
0.0
 50
0.0
 51
0.0
 71
0
 72
100
 73
1
 74
1
 75
0
 76
0
 77
0
 78
0
  0
ENDTAB
  0
TABLE
  2
LTYPE
  5
5
100
AcDbSymbolTable
 70
6
  0
LTYPE
  5
14
100
AcDbSymbolTableRecord
100
AcDbLinetypeTableRecord
  2
BYBLOCK
 70
0
  3

 72
65
 73
0
 40
0.0
  0
LTYPE
  5
15
100
AcDbSymbolTableRecord
100
AcDbLinetypeTableRecord
  2
BYLAYER
 70
0
  3

 72
65
 73
0
 40
0.0
  0
LTYPE
  5
16
100
AcDbSymbolTableRecord
100
AcDbLinetypeTableRecord
  2
CONTINUOUS
 70
64
  3
Solid line
 72
65
 73
0
 40
0.0
  0
LTYPE
  5
1F5
100
AcDbSymbolTableRecord
100
AcDbLinetypeTableRecord
  2
CENTER
 70
64
  3
____ _ ____ _ ____ _ ____ _ ____ _ ____ _ ____
 72
65
 73
4
 40
0.6
 49
0.375
 74
0
 49
-0.075
 74
0
 49
0.075
 74
0
 49
-0.075
 74
0
  0
LTYPE
  5
1F6
100
AcDbSymbolTableRecord
100
AcDbLinetypeTableRecord
  2
HIDDEN
 70
64
  3
- - - - - - - - - - - - - - - - - - - -
 72
65
 73
2
 40
0.2
 49
0.1
 74
0
 49
-0.1
 74
0
  0
LTYPE
  5
1F7
100
AcDbSymbolTableRecord
100
AcDbLinetypeTableRecord
  2
PHANTOM
 70
64
  3
_____ _ _ _____ _ _ _____ _ _ _____
 72
65
 73
6
 40
0.8
 49
0.45
 74
0
 49
-0.05
 74
0
 49
0.1
 74
0
 49
-0.05
 74
0
 49
0.1
 74
0
 49
-0.05
 74
0
  0
LTYPE
  5
1F8
100
AcDbSymbolTableRecord
100
AcDbLinetypeTableRecord
  2
DOT
 70
64
  3
. . . . . . . . . . . . . . . . . . . .
 72
65
 73
2
 40
0.2
 49
0.1
 74
0
 49
-0.1
 74
0
  0
LTYPE
  5
1F9
100
AcDbSymbolTableRecord
100
AcDbLinetypeTableRecord
  2
DASHED
 70
64
  3
- - - - - - - - - - - - - - - - - - - -
 72
65
 73
2
 40
0.2
 49
0.1
 74
0
 49
-0.1
 74
0
  0
ENDTAB
  0
TABLE
  2
LAYER
  5
2
100
AcDbSymbolTable
 70
36
  0
LAYER
  5
10
100
AcDbSymbolTableRecord
100
AcDbLayerTableRecord
  2
0
 70
0
 62
7
  6
CONTINUOUS
370
-3
390
F
  0
LAYER
  5
1FA
100
AcDbSymbolTableRecord
100
AcDbLayerTableRecord
  2
DEFAULT_1
 70
0
 62
7
  6
CENTER
370
-3
390
F
  0
LAYER
  5
1FB
100
AcDbSymbolTableRecord
100
AcDbLayerTableRecord
  2
DEFAULT_2
 70
0
 62
8
  6
HIDDEN
370
-3
390
F
  0
LAYER
  5
1FC
100
AcDbSymbolTableRecord
100
AcDbLayerTableRecord
  2
DEFAULT_3
 70
0
 62
7
  6
PHANTOM
370
-3
390
F
  0
LAYER
  5
1FD
100
AcDbSymbolTableRecord
100
AcDbLayerTableRecord
  2
01_ALL_DTM_PLN
 70
0
 62
7
  6
CONTINUOUS
370
-3
390
F
  0
LAYER
  5
1FE
100
AcDbSymbolTableRecord
100
AcDbLayerTableRecord
  2
01__ASM_ALL_DTM_PLN
 70
0
 62
7
  6
CONTINUOUS
370
-3
390
F
  0
LAYER
  5
1FF
100
AcDbSymbolTableRecord
100
AcDbLayerTableRecord
  2
01__ASM_DEF_DTM_PLN
 70
0
 62
7
  6
CONTINUOUS
370
-3
390
F
  0
LAYER
  5
200
100
AcDbSymbolTableRecord
100
AcDbLayerTableRecord
  2
01___PRT_ALL_DTM_PLN
 70
0
 62
7
  6
CONTINUOUS
370
-3
390
F
  0
LAYER
  5
201
100
AcDbSymbolTableRecord
100
AcDbLayerTableRecord
  2
01___PRT_DEF_DTM_PLN
 70
0
 62
7
  6
CONTINUOUS
370
-3
390
F
  0
LAYER
  5
202
100
AcDbSymbolTableRecord
100
AcDbLayerTableRecord
  2
02_ALL_AXES
 70
0
 62
7
  6
CONTINUOUS
370
-3
390
F
  0
LAYER
  5
203
100
AcDbSymbolTableRecord
100
AcDbLayerTableRecord
  2
02__ASM_ALL_AXES
 70
0
 62
7
  6
CONTINUOUS
370
-3
390
F
  0
LAYER
  5
204
100
AcDbSymbolTableRecord
100
AcDbLayerTableRecord
  2
02___PRT_ALL_AXES
 70
0
 62
7
  6
CONTINUOUS
370
-3
390
F
  0
LAYER
  5
205
100
AcDbSymbolTableRecord
100
AcDbLayerTableRecord
  2
03_ALL_CURVES
 70
0
 62
7
  6
CONTINUOUS
370
-3
390
F
  0
LAYER
  5
206
100
AcDbSymbolTableRecord
100
AcDbLayerTableRecord
  2
03__ASM_ALL_CURVES
 70
0
 62
7
  6
CONTINUOUS
370
-3
390
F
  0
LAYER
  5
207
100
AcDbSymbolTableRecord
100
AcDbLayerTableRecord
  2
03___PRT_ALL_CURVES
 70
0
 62
7
  6
CONTINUOUS
370
-3
390
F
  0
LAYER
  5
208
100
AcDbSymbolTableRecord
100
AcDbLayerTableRecord
  2
04_ALL_DTM_PNT
 70
0
 62
7
  6
CONTINUOUS
370
-3
390
F
  0
LAYER
  5
209
100
AcDbSymbolTableRecord
100
AcDbLayerTableRecord
  2
04__ASM_ALL_DTM_PNT
 70
0
 62
7
  6
CONTINUOUS
370
-3
390
F
  0
LAYER
  5
20A
100
AcDbSymbolTableRecord
100
AcDbLayerTableRecord
  2
04___PRT_ALL_DTM_PNT
 70
0
 62
7
  6
CONTINUOUS
370
-3
390
F
  0
LAYER
  5
20B
100
AcDbSymbolTableRecord
100
AcDbLayerTableRecord
  2
05_ALL_DTM_CSYS
 70
0
 62
7
  6
CONTINUOUS
370
-3
390
F
  0
LAYER
  5
20C
100
AcDbSymbolTableRecord
100
AcDbLayerTableRecord
  2
05__ASM_ALL_DTM_CSYS
 70
0
 62
7
  6
CONTINUOUS
370
-3
390
F
  0
LAYER
  5
20D
100
AcDbSymbolTableRecord
100
AcDbLayerTableRecord
  2
05__ASM_DEF_DTM_CSYS
 70
0
 62
7
  6
CONTINUOUS
370
-3
390
F
  0
LAYER
  5
20E
100
AcDbSymbolTableRecord
100
AcDbLayerTableRecord
  2
05___PRT_ALL_DTM_CSYS
 70
0
 62
7
  6
CONTINUOUS
370
-3
390
F
  0
LAYER
  5
20F
100
AcDbSymbolTableRecord
100
AcDbLayerTableRecord
  2
05___PRT_DEF_DTM_CSYS
 70
0
 62
7
  6
CONTINUOUS
370
-3
390
F
  0
LAYER
  5
210
100
AcDbSymbolTableRecord
100
AcDbLayerTableRecord
  2
06_ALL_SURFS
 70
0
 62
7
  6
CONTINUOUS
370
-3
390
F
  0
LAYER
  5
211
100
AcDbSymbolTableRecord
100
AcDbLayerTableRecord
  2
06__ASM_ALL_SURFS
 70
0
 62
7
  6
CONTINUOUS
370
-3
390
F
  0
LAYER
  5
212
100
AcDbSymbolTableRecord
100
AcDbLayerTableRecord
  2
06___PRT_ALL_SURFS
 70
0
 62
7
  6
CONTINUOUS
370
-3
390
F
  0
LAYER
  5
213
100
AcDbSymbolTableRecord
100
AcDbLayerTableRecord
  2
07__ASM_ALL_SKELETONS
 70
0
 62
7
  6
CONTINUOUS
370
-3
390
F
  0
LAYER
  5
214
100
AcDbSymbolTableRecord
100
AcDbLayerTableRecord
  2
LAYER_AXIS
 70
0
 62
7
  6
CONTINUOUS
370
-3
390
F
  0
LAYER
  5
215
100
AcDbSymbolTableRecord
100
AcDbLayerTableRecord
  2
LAYER_CHAMFER_FEAT
 70
0
 62
7
  6
CONTINUOUS
370
-3
390
F
  0
LAYER
  5
216
100
AcDbSymbolTableRecord
100
AcDbLayerTableRecord
  2
LAYER_CUT_FEAT
 70
0
 62
7
  6
CONTINUOUS
370
-3
390
F
  0
LAYER
  5
217
100
AcDbSymbolTableRecord
100
AcDbLayerTableRecord
  2
LAYER_DATUM
 70
0
 62
7
  6
CONTINUOUS
370
-3
390
F
  0
LAYER
  5
218
100
AcDbSymbolTableRecord
100
AcDbLayerTableRecord
  2
LAYER_DIM
 70
0
 62
7
  6
CONTINUOUS
370
-3
390
F
  0
LAYER
  5
219
100
AcDbSymbolTableRecord
100
AcDbLayerTableRecord
  2
LAYER_FEATURE
 70
0
 62
7
  6
CONTINUOUS
370
-3
390
F
  0
LAYER
  5
21A
100
AcDbSymbolTableRecord
100
AcDbLayerTableRecord
  2
LAYER_GEOM_FEAT
 70
0
 62
7
  6
CONTINUOUS
370
-3
390
F
  0
LAYER
  5
21B
100
AcDbSymbolTableRecord
100
AcDbLayerTableRecord
  2
LAYER_NOGEOM_FEAT
 70
0
 62
7
  6
CONTINUOUS
370
-3
390
F
  0
LAYER
  5
21C
100
AcDbSymbolTableRecord
100
AcDbLayerTableRecord
  2
LAYER_PARAMETER_DIM
 70
0
 62
7
  6
CONTINUOUS
370
-3
390
F
  0
LAYER
  5
21D
100
AcDbSymbolTableRecord
100
AcDbLayerTableRecord
  2
LAYER_PROTRUSION_FEAT
 70
0
 62
7
  6
CONTINUOUS
370
-3
390
F
  0
LAYER
  5
21E
100
AcDbSymbolTableRecord
100
AcDbLayerTableRecord
  2
LAYER_QUILT
 70
0
 62
7
  6
CONTINUOUS
370
-3
390
F
  0
LAYER
  5
21F
100
AcDbSymbolTableRecord
100
AcDbLayerTableRecord
  2
LAYER_ROUND_FEAT
 70
0
 62
7
  6
CONTINUOUS
370
-3
390
F
  0
ENDTAB
  0
TABLE
  2
STYLE
  5
3
100
AcDbSymbolTable
 70
1
  0
STYLE
  5
11
100
AcDbSymbolTableRecord
100
AcDbTextStyleTableRecord
  2
STANDARD
 70
0
 40
0.0
 41
0.8
 50
0.0
 71
0
 42
0.2
  3
txt
  4

  0
STYLE
  5
220
100
AcDbSymbolTableRecord
100
AcDbTextStyleTableRecord
  2
TEXTSTYLE_1
 70
0
 40
0.0
 41
0.8
 50
0.0
 71
0
 42
0.2
  3
gdt
  4

  0
ENDTAB
  0
TABLE
  2
VIEW
  5
6
100
AcDbSymbolTable
 70
0
  0
ENDTAB
  0
TABLE
  2
UCS
  5
7
100
AcDbSymbolTable
 70
0
  0
ENDTAB
  0
TABLE
  2
APPID
  5
9
100
AcDbSymbolTable
 70
1
  0
APPID
  5
221
100
AcDbSymbolTableRecord
100
AcDbRegAppTableRecord
  2
ACAD
 70
0
  0
ENDTAB
  0
TABLE
  2
BLOCK_RECORD
  5
1
100
AcDbSymbolTable
 70
0
  0
BLOCK_RECORD
  5
222
100
AcDbSymbolTableRecord
100
AcDbBlockTableRecord
  2
*Model_Space
  0
BLOCK_RECORD
  5
223
100
AcDbSymbolTableRecord
100
AcDbBlockTableRecord
  2
*Paper_Space
  0
ENDTAB
  0
TABLE
  2
DIMSTYLE
  5
A
100
AcDbSymbolTable
 70
1
100
AcDbDimStyleTable
 71
0
  0
DIMSTYLE
105
224
100
AcDbSymbolTableRecord
100
AcDbDimStyleTableRecord
  2
STANDARD
 70
0
  3

  4

 40
1.0
 41
0.1875
 42
0.0625
 43
0.38
 44
0.125
 45
0.0
 46
0.0
 47
0.0001
 48
0.0001
140
0.15625
141
0.09
142
0.0
143
25.4
144
1.0
145
0.0
146
1.0
147
0.09
 71
0.0
 72
0.0
 73
1
 74
1
 75
0
 76
0
 77
0
 78
4
 79
1
170
0
171
3
172
0
173
0
174
0
175
0
176
0
177
0
178
0
270
2
179
4
271
4
272
4
273
2
274
2
275
0
280
0
281
0
282
0
283
1
284
4
285
0
286
0
287
3
288
0
340
11
278
46
  0
ENDTAB
  0
ENDSEC
  0
SECTION
  2
BLOCKS
  0
BLOCK
  5
20
100
AcDbEntity
  8
0
100
AcDbBlockBegin
  2
*Model_Space
 70
0
 10
0.0
 20
0.0
 30
0.0
  3
*Model_Space
  1

  0
ENDBLK
  5
21
100
AcDbEntity
  8
0
100
AcDbBlockEnd
  0
BLOCK
  5
1C
100
AcDbEntity
  8
0
100
AcDbBlockBegin
  2
*Paper_Space
 70
0
 10
0.0
 20
0.0
 30
0.0
  3
*Paper_Space
  1

  0
ENDBLK
  5
1D
100
AcDbEntity
  8
0
100
AcDbBlockEnd
  0
ENDSEC
  0
SECTION
  2
ENTITIES
  0
MTEXT
  5
225
100
AcDbEntity
  8
0
100
AcDbMText
 62
7
  6
CONTINUOUS
  7
STANDARD
 71
1
 72
1
 10
15.9560215477
 20
0.9479130325
 30
0.0
 11
1.0
 21
0.0
 31
0.0
 44
0.9
  1
SCALE: 1:0.500
 40
0.3
 41
3.36
  0
LINE
  5
226
100
AcDbEntity
  8
0
100
AcDbLine
 62
7
  6
CONTINUOUS
 10
0.0
 20
0.0
 11
0.0
 21
17.0
  0
LINE
  5
227
100
AcDbEntity
  8
0
100
AcDbLine
 62
7
  6
CONTINUOUS
 10
0.0
 20
0.0
 11
22.0
 21
0.0
  0
LINE
  5
228
100
AcDbEntity
  8
0
100
AcDbLine
 62
7
  6
CONTINUOUS
 10
0.0
 20
17.0
 11
22.0
 21
17.0
  0
LINE
  5
229
100
AcDbEntity
  8
0
100
AcDbLine
 62
7
  6
CONTINUOUS
 10
22.0
 20
0.0
 11
22.0
 21
17.0
  0
LINE
  5
22A
100
AcDbEntity
  8
LAYER_FEATURE
100
AcDbLine
 62
7
  6
CONTINUOUS
 10
6.2368672762
 20
4.0176198968
 11
6.1908619494
 21
4.0176198968
  0
LINE
  5
22B
100
AcDbEntity
  8
LAYER_FEATURE
100
AcDbLine
 62
7
  6
CONTINUOUS
 10
5.8238672762
 20
4.0176198968
 11
5.8698726029
 21
4.0176198968
  0
LINE
  5
22C
100
AcDbEntity
  8
02___PRT_ALL_AXES
100
AcDbLine
 62
7
  6
CONTINUOUS
 10
5.8878672762
 20
4.1323698968
 11
6.1728672762
 21
4.1323698968
  0
LINE
  5
22D
100
AcDbEntity
  8
02___PRT_ALL_AXES
100
AcDbLine
 62
7
  6
CONTINUOUS
 10
6.2368672762
 20
6.8007442398
 11
6.2428672762
 21
6.8026198968
  0
LINE
  5
22E
100
AcDbEntity
  8
02___PRT_ALL_AXES
100
AcDbLine
 62
7
  6
CONTINUOUS
 10
6.2368672762
 20
4.2394955537
 11
6.2428672762
 21
4.2376198968
  0
LINE
  5
22F
100
AcDbEntity
  8
02___PRT_ALL_AXES
100
AcDbLine
 62
7
  6
CONTINUOUS
 10
6.4113672762
 20
4.5801198968
 11
6.2428672762
 21
4.5801198968
  0
LINE
  5
230
100
AcDbEntity
  8
02___PRT_ALL_AXES
100
AcDbLine
 62
7
  6
CONTINUOUS
 10
5.8178672762
 20
4.2376198968
 11
5.8178672762
 21
6.8026198968
  0
LINE
  5
231
100
AcDbEntity
  8
LAYER_FEATURE
100
AcDbLine
 62
7
  6
CONTINUOUS
 10
5.8238672762
 20
7.0226198968
 11
5.8238672762
 21
4.0176198968
  0
LINE
  5
232
100
AcDbEntity
  8
LAYER_FEATURE
100
AcDbLine
 62
7
  6
CONTINUOUS
 10
5.8698726029
 20
7.0226198968
 11
5.8698726029
 21
4.0176198968
  0
LINE
  5
233
100
AcDbEntity
  8
LAYER_FEATURE
100
AcDbLine
 62
7
  6
CONTINUOUS
 10
5.8878672762
 20
6.9379616153
 11
5.8878672762
 21
4.1022781782
  0
LINE
  5
234
100
AcDbEntity
  8
LAYER_FEATURE
100
AcDbLine
 62
7
  6
CONTINUOUS
 10
6.1908619494
 20
7.0226198968
 11
6.1728672762
 21
6.9379616153
  0
LINE
  5
235
100
AcDbEntity
  8
LAYER_FEATURE
100
AcDbLine
 62
7
  6
CONTINUOUS
 10
6.1908619494
 20
4.0176198968
 11
6.1728672762
 21
4.1022781782
  0
LINE
  5
236
100
AcDbEntity
  8
LAYER_FEATURE
100
AcDbLine
 62
7
  6
CONTINUOUS
 10
6.1728672762
 20
6.9379616153
 11
6.1728672762
 21
4.1022781782
  0
LINE
  5
237
100
AcDbEntity
  8
LAYER_FEATURE
100
AcDbLine
 62
7
  6
CONTINUOUS
 10
6.1908619494
 20
7.0226198968
 11
6.1908619494
 21
4.0176198968
  0
LINE
  5
238
100
AcDbEntity
  8
LAYER_FEATURE
100
AcDbLine
 62
7
  6
CONTINUOUS
 10
6.2368672762
 20
7.0226198968
 11
6.2368672762
 21
4.0176198968
  0
LINE
  5
239
100
AcDbEntity
  8
02___PRT_ALL_AXES
100
AcDbLine
 62
7
  6
CONTINUOUS
 10
6.2428672762
 20
4.2376198968
 11
6.2428672762
 21
6.8026198968
  0
LINE
  5
23A
100
AcDbEntity
  8
LAYER_FEATURE
100
AcDbLine
 62
7
  6
CONTINUOUS
 10
5.8698726029
 20
4.0176198968
 11
5.8878672762
 21
4.1022781782
  0
LINE
  5
23B
100
AcDbEntity
  8
LAYER_FEATURE
100
AcDbLine
 62
7
  6
CONTINUOUS
 10
5.8698726029
 20
7.0226198968
 11
5.8878672762
 21
6.9379616153
  0
LINE
  5
23C
100
AcDbEntity
  8
02___PRT_ALL_AXES
100
AcDbLine
 62
7
  6
CONTINUOUS
 10
6.4113672762
 20
6.4601198968
 11
6.4113672762
 21
4.5801198968
  0
LINE
  5
23D
100
AcDbEntity
  8
02___PRT_ALL_AXES
100
AcDbLine
 62
7
  6
CONTINUOUS
 10
6.4428672762
 20
6.4286198968
 11
6.4428672762
 21
4.6116198968
  0
LINE
  5
23E
100
AcDbEntity
  8
02___PRT_ALL_AXES
100
AcDbLine
 62
7
  6
CONTINUOUS
 10
6.4428672762
 20
4.6116198968
 11
6.4113672762
 21
4.5801198968
  0
LINE
  5
23F
100
AcDbEntity
  8
02___PRT_ALL_AXES
100
AcDbLine
 62
7
  6
CONTINUOUS
 10
6.4428672762
 20
6.4286198968
 11
6.4113672762
 21
6.4601198968
  0
LINE
  5
240
100
AcDbEntity
  8
02___PRT_ALL_AXES
100
AcDbLine
 62
7
  6
CONTINUOUS
 10
6.4113672762
 20
6.4601198968
 11
6.2428672762
 21
6.4601198968
  0
LINE
  5
241
100
AcDbEntity
  8
02___PRT_ALL_AXES
100
AcDbLine
 62
7
  6
CONTINUOUS
 10
5.8178672762
 20
4.2376198968
 11
5.8238672762
 21
4.2394955537
  0
LINE
  5
242
100
AcDbEntity
  8
02___PRT_ALL_AXES
100
AcDbLine
 62
7
  6
CONTINUOUS
 10
5.8178672762
 20
6.8026198968
 11
5.8238672762
 21
6.8007442398
  0
LINE
  5
243
100
AcDbEntity
  8
LAYER_FEATURE
100
AcDbLine
 62
7
  6
CONTINUOUS
 10
5.8878672762
 20
6.8071350476
 11
6.1728672762
 21
6.8071350476
  0
LINE
  5
244
100
AcDbEntity
  8
0
100
AcDbLine
 62
7
  6
CONTINUOUS
 10
5.8878672762
 20
6.8078946771
 11
6.1728672762
 21
6.8078946771
  0
LINE
  5
245
100
AcDbEntity
  8
LAYER_FEATURE
100
AcDbLine
 62
7
  6
CONTINUOUS
 10
5.8878672762
 20
6.8499887559
 11
6.1728672762
 21
6.8499887559
  0
LINE
  5
246
100
AcDbEntity
  8
LAYER_FEATURE
100
AcDbLine
 62
7
  6
CONTINUOUS
 10
5.8878672762
 20
6.8571608729
 11
6.1728672762
 21
6.8571608729
  0
LINE
  5
247
100
AcDbEntity
  8
0
100
AcDbLine
 62
7
  6
CONTINUOUS
 10
5.8878672762
 20
6.857500264
 11
6.1728672762
 21
6.857500264
  0
LINE
  5
248
100
AcDbEntity
  8
LAYER_FEATURE
100
AcDbLine
 62
7
  6
CONTINUOUS
 10
5.8878672762
 20
6.8860329641
 11
6.1728672762
 21
6.8860329641
  0
LINE
  5
249
100
AcDbEntity
  8
LAYER_FEATURE
100
AcDbLine
 62
7
  6
CONTINUOUS
 10
5.8878672762
 20
6.8903726322
 11
6.1728672762
 21
6.8903726322
  0
LINE
  5
24A
100
AcDbEntity
  8
0
100
AcDbLine
 62
7
  6
CONTINUOUS
 10
5.8878672762
 20
6.8904577476
 11
6.1728672762
 21
6.8904577476
  0
LINE
  5
24B
100
AcDbEntity
  8
LAYER_FEATURE
100
AcDbLine
 62
7
  6
CONTINUOUS
 10
5.8878672762
 20
6.904900023
 11
6.1728672762
 21
6.904900023
  0
LINE
  5
24C
100
AcDbEntity
  8
LAYER_FEATURE
100
AcDbLine
 62
7
  6
CONTINUOUS
 10
5.8878672762
 20
6.9063526683
 11
6.1728672762
 21
6.9063526683
  0
LINE
  5
24D
100
AcDbEntity
  8
LAYER_FEATURE
100
AcDbLine
 62
7
  6
CONTINUOUS
 10
6.2368672762
 20
7.0226198968
 11
6.1908619494
 21
7.0226198968
  0
LINE
  5
24E
100
AcDbEntity
  8
LAYER_FEATURE
100
AcDbLine
 62
7
  6
CONTINUOUS
 10
5.8238672762
 20
7.0226198968
 11
5.8698726029
 21
7.0226198968
  0
LINE
  5
24F
100
AcDbEntity
  8
LAYER_FEATURE
100
AcDbLine
 62
7
  6
CONTINUOUS
 10
5.7643720839
 20
11.0975477814
 11
5.8103774106
 21
11.0975477814
  0
LINE
  5
250
100
AcDbEntity
  8
LAYER_FEATURE
100
AcDbLine
 62
7
  6
CONTINUOUS
 10
6.1313667571
 20
11.0975477814
 11
6.1773720839
 21
11.0975477814
  0
LINE
  5
251
100
AcDbEntity
  8
02___PRT_ALL_AXES
100
AcDbLine
 62
7
  6
CONTINUOUS
 10
5.8283720839
 20
11.2122977814
 11
6.1133720839
 21
11.2122977814
  0
LINE
  5
252
100
AcDbEntity
  8
02___PRT_ALL_AXES
100
AcDbLine
 62
7
  6
CONTINUOUS
 10
6.1833720839
 20
13.8825477814
 11
6.1773720839
 21
13.8806721244
  0
LINE
  5
253
100
AcDbEntity
  8
02___PRT_ALL_AXES
100
AcDbLine
 62
7
  6
CONTINUOUS
 10
6.1833720839
 20
11.3175477814
 11
6.1773720839
 21
11.3194234383
  0
LINE
  5
254
100
AcDbEntity
  8
02___PRT_ALL_AXES
100
AcDbLine
 62
7
  6
CONTINUOUS
 10
6.1833720839
 20
11.6600477814
 11
6.3518720839
 21
11.6600477814
  0
LINE
  5
255
100
AcDbEntity
  8
LAYER_FEATURE
100
AcDbLine
 62
7
  6
CONTINUOUS
 10
5.8283720839
 20
12.0809696909
 11
6.1133720839
 21
12.0809696909
  0
LINE
  5
256
100
AcDbEntity
  8
LAYER_FEATURE
100
AcDbLine
 62
7
  6
CONTINUOUS
 10
6.1133720839
 20
12.147856525
 11
5.8283720839
 21
12.147856525
  0
LINE
  5
257
100
AcDbEntity
  8
LAYER_FEATURE
100
AcDbLine
 62
7
  6
CONTINUOUS
 10
6.1133720839
 20
12.1794766165
 11
5.8283720839
 21
12.1794766165
  0
LINE
  5
258
100
AcDbEntity
  8
0
100
AcDbLine
 62
7
  6
CONTINUOUS
 10
5.8283720839
 20
12.1943728015
 11
6.1133720839
 21
12.1943728015
  0
LINE
  5
259
100
AcDbEntity
  8
LAYER_FEATURE
100
AcDbLine
 62
7
  6
CONTINUOUS
 10
5.8283720839
 20
12.203438553
 11
6.1133720839
 21
12.203438553
  0
LINE
  5
25A
100
AcDbEntity
  8
02___PRT_ALL_AXES
100
AcDbLine
 62
7
  6
CONTINUOUS
 10
5.7583720839
 20
11.3175477814
 11
5.7583720839
 21
13.8825477814
  0
LINE
  5
25B
100
AcDbEntity
  8
LAYER_FEATURE
100
AcDbLine
 62
7
  6
CONTINUOUS
 10
5.7643720839
 20
11.0975477814
 11
5.7643720839
 21
14.1025477814
  0
LINE
  5
25C
100
AcDbEntity
  8
LAYER_FEATURE
100
AcDbLine
 62
7
  6
CONTINUOUS
 10
5.8283720839
 20
12.2283335221
 11
6.1133720839
 21
12.2283335221
  0
LINE
  5
25D
100
AcDbEntity
  8
LAYER_FEATURE
100
AcDbLine
 62
7
  6
CONTINUOUS
 10
6.1133720839
 20
12.2897119548
 11
5.8283720839
 21
12.2897119548
  0
LINE
  5
25E
100
AcDbEntity
  8
LAYER_FEATURE
100
AcDbLine
 62
7
  6
CONTINUOUS
 10
5.8103774106
 20
11.0975477814
 11
5.8103774106
 21
14.1025477814
  0
LINE
  5
25F
100
AcDbEntity
  8
LAYER_FEATURE
100
AcDbLine
 62
7
  6
CONTINUOUS
 10
5.8283720839
 20
11.1822061549
 11
5.8283720839
 21
14.0178894078
  0
LINE
  5
260
100
AcDbEntity
  8
LAYER_FEATURE
100
AcDbLine
 62
7
  6
CONTINUOUS
 10
6.1133720839
 20
14.0178894999
 11
6.1313667571
 21
14.1025477814
  0
LINE
  5
261
100
AcDbEntity
  8
LAYER_FEATURE
100
AcDbLine
 62
7
  6
CONTINUOUS
 10
6.1133720839
 20
12.3223720399
 11
5.8283720839
 21
12.3223720399
  0
LINE
  5
262
100
AcDbEntity
  8
LAYER_FEATURE
100
AcDbLine
 62
7
  6
CONTINUOUS
 10
5.8283720839
 20
12.3548304187
 11
6.1133720839
 21
12.3548304187
  0
LINE
  5
263
100
AcDbEntity
  8
LAYER_FEATURE
100
AcDbLine
 62
7
  6
CONTINUOUS
 10
5.8283720839
 20
12.3803718757
 11
6.1133720839
 21
12.3803718757
  0
LINE
  5
264
100
AcDbEntity
  8
LAYER_FEATURE
100
AcDbLine
 62
7
  6
CONTINUOUS
 10
6.1133720839
 20
11.1822060629
 11
6.1313667571
 21
11.0975477814
  0
LINE
  5
265
100
AcDbEntity
  8
LAYER_FEATURE
100
AcDbLine
 62
7
  6
CONTINUOUS
 10
6.1133720839
 20
12.4354700378
 11
5.8283720839
 21
12.4354700378
  0
LINE
  5
266
100
AcDbEntity
  8
LAYER_FEATURE
100
AcDbLine
 62
7
  6
CONTINUOUS
 10
6.1133720839
 20
12.4687593968
 11
5.8283720839
 21
12.4687593968
  0
LINE
  5
267
100
AcDbEntity
  8
LAYER_FEATURE
100
AcDbLine
 62
7
  6
CONTINUOUS
 10
5.8283720839
 20
12.509306035
 11
6.1133720839
 21
12.509306035
  0
LINE
  5
268
100
AcDbEntity
  8
LAYER_FEATURE
100
AcDbLine
 62
7
  6
CONTINUOUS
 10
5.8283720839
 20
12.5351727814
 11
6.1133720839
 21
12.5351727814
  0
LINE
  5
269
100
AcDbEntity
  8
LAYER_FEATURE
100
AcDbLine
 62
7
  6
CONTINUOUS
 10
6.1133720839
 20
12.5832977814
 11
5.8283720839
 21
12.5832977814
  0
LINE
  5
26A
100
AcDbEntity
  8
LAYER_FEATURE
100
AcDbLine
 62
7
  6
CONTINUOUS
 10
6.1133720839
 20
11.182206146
 11
6.1133720839
 21
14.0178894168
  0
LINE
  5
26B
100
AcDbEntity
  8
LAYER_FEATURE
100
AcDbLine
 62
7
  6
CONTINUOUS
 10
6.1313667571
 20
11.0975477814
 11
6.1313667571
 21
14.1025477814
  0
LINE
  5
26C
100
AcDbEntity
  8
LAYER_FEATURE
100
AcDbLine
 62
7
  6
CONTINUOUS
 10
6.1773720839
 20
11.0975477814
 11
6.1773720839
 21
14.1025477814
  0
LINE
  5
26D
100
AcDbEntity
  8
02___PRT_ALL_AXES
100
AcDbLine
 62
7
  6
CONTINUOUS
 10
6.1833720839
 20
11.3175477814
 11
6.1833720839
 21
13.8825477814
  0
LINE
  5
26E
100
AcDbEntity
  8
LAYER_FEATURE
100
AcDbLine
 62
7
  6
CONTINUOUS
 10
5.8103774106
 20
11.0975477814
 11
5.8283720839
 21
11.1822060629
  0
LINE
  5
26F
100
AcDbEntity
  8
LAYER_FEATURE
100
AcDbLine
 62
7
  6
CONTINUOUS
 10
6.1133720839
 20
12.6167977814
 11
5.8283720839
 21
12.6167977814
  0
LINE
  5
270
100
AcDbEntity
  8
LAYER_FEATURE
100
AcDbLine
 62
7
  6
CONTINUOUS
 10
5.8283720839
 20
12.6649227814
 11
6.1133720839
 21
12.6649227814
  0
LINE
  5
271
100
AcDbEntity
  8
LAYER_FEATURE
100
AcDbLine
 62
7
  6
CONTINUOUS
 10
5.8103774106
 20
14.1025477814
 11
5.8283720839
 21
14.0178894999
  0
LINE
  5
272
100
AcDbEntity
  8
02___PRT_ALL_AXES
100
AcDbLine
 62
7
  6
CONTINUOUS
 10
6.3518720839
 20
11.6600477814
 11
6.3518720839
 21
13.5400477814
  0
LINE
  5
273
100
AcDbEntity
  8
02___PRT_ALL_AXES
100
AcDbLine
 62
7
  6
CONTINUOUS
 10
6.3833720839
 20
11.6915477814
 11
6.3833720839
 21
13.5085477814
  0
LINE
  5
274
100
AcDbEntity
  8
02___PRT_ALL_AXES
100
AcDbLine
 62
7
  6
CONTINUOUS
 10
6.3518720839
 20
11.6600477814
 11
6.3833720839
 21
11.6915477814
  0
LINE
  5
275
100
AcDbEntity
  8
02___PRT_ALL_AXES
100
AcDbLine
 62
7
  6
CONTINUOUS
 10
6.3518720839
 20
13.5400477814
 11
6.3833720839
 21
13.5085477814
  0
LINE
  5
276
100
AcDbEntity
  8
02___PRT_ALL_AXES
100
AcDbLine
 62
7
  6
CONTINUOUS
 10
6.1833720839
 20
13.5400477814
 11
6.3518720839
 21
13.5400477814
  0
LINE
  5
277
100
AcDbEntity
  8
02___PRT_ALL_AXES
100
AcDbLine
 62
7
  6
CONTINUOUS
 10
5.7643720839
 20
11.3194234383
 11
5.7583720839
 21
11.3175477814
  0
LINE
  5
278
100
AcDbEntity
  8
02___PRT_ALL_AXES
100
AcDbLine
 62
7
  6
CONTINUOUS
 10
5.7643720839
 20
13.8806721244
 11
5.7583720839
 21
13.8825477814
  0
LINE
  5
279
100
AcDbEntity
  8
02___PRT_ALL_AXES
100
AcDbLine
 62
7
  6
CONTINUOUS
 10
5.8283720839
 20
13.9877977814
 11
6.1133720839
 21
13.9877977814
  0
LINE
  5
27A
100
AcDbEntity
  8
LAYER_FEATURE
100
AcDbLine
 62
7
  6
CONTINUOUS
 10
5.7643720839
 20
14.1025477814
 11
5.8103774106
 21
14.1025477814
  0
LINE
  5
27B
100
AcDbEntity
  8
LAYER_FEATURE
100
AcDbLine
 62
7
  6
CONTINUOUS
 10
6.1313667571
 20
14.1025477814
 11
6.1773720839
 21
14.1025477814
  0
LINE
  5
27C
100
AcDbEntity
  8
LAYER_FEATURE
100
AcDbLine
 62
7
  6
CONTINUOUS
 10
15.2808865774
 20
11.0083049929
 11
15.3232602894
 21
11.0083049929
  0
LINE
  5
27D
100
AcDbEntity
  8
LAYER_FEATURE
100
AcDbLine
 62
7
  6
CONTINUOUS
 10
15.6189110559
 20
11.0083049929
 11
15.6612847679
 21
11.0083049929
  0
LINE
  5
27E
100
AcDbEntity
  8
02___PRT_ALL_AXES
100
AcDbLine
 62
7
  6
CONTINUOUS
 10
15.339834481
 20
11.1230549929
 11
15.3947211194
 21
11.1230549929
  0
LINE
  5
27F
100
AcDbEntity
  8
02___PRT_ALL_AXES
100
AcDbLine
 62
7
  6
CONTINUOUS
 10
15.6008020122
 20
13.7820538429
 11
15.5606185568
 21
13.7682948118
  0
LINE
  5
280
100
AcDbEntity
  8
02___PRT_ALL_AXES
100
AcDbLine
 62
7
  6
CONTINUOUS
 10
15.6008020122
 20
11.2395561429
 11
15.5612771036
 21
11.2530896841
  0
LINE
  5
281
100
AcDbEntity
  8
02___PRT_ALL_AXES
100
AcDbLine
 62
7
  6
CONTINUOUS
 10
15.6668111338
 20
11.5708049929
 11
15.8220099113
 21
11.5708049929
  0
LINE
  5
282
100
AcDbEntity
  8
LAYER_FEATURE
100
AcDbLine
 62
7
  6
CONTINUOUS
 10
14.8516422544
 20
12.9283659867
 11
14.8559213242
 21
12.9600125647
  0
LINE
  5
283
100
AcDbEntity
  8
LAYER_FEATURE
100
AcDbLine
 62
7
  6
CONTINUOUS
 10
14.8729179902
 20
13.0661041188
 11
14.8785499772
 21
13.0963214035
  0
LINE
  5
284
100
AcDbEntity
  8
LAYER_FEATURE
100
AcDbLine
 62
7
  6
CONTINUOUS
 10
14.9000654718
 20
13.1968590421
 11
14.9069795504
 21
13.2252670337
  0
LINE
  5
285
100
AcDbEntity
  8
LAYER_FEATURE
100
AcDbLine
 62
7
  6
CONTINUOUS
 10
14.9351593874
 20
13.3268048873
 11
14.9408525256
 21
13.3452278892
  0
LINE
  5
286
100
AcDbEntity
  8
LAYER_FEATURE
100
AcDbLine
 62
7
  6
CONTINUOUS
 10
14.8484762209
 20
12.9954968514
 11
14.8400225676
 21
13.0114394428
  0
LINE
  5
287
100
AcDbEntity
  8
02___PRT_ALL_AXES
100
AcDbLine
 62
7
  6
CONTINUOUS
 10
15.6060754276
 20
12.21431802
 11
15.6094110439
 21
12.2146539405
  0
LINE
  5
288
100
AcDbEntity
  8
02___PRT_ALL_AXES
100
AcDbLine
 62
7
  6
CONTINUOUS
 10
15.6094110439
 20
12.2146539405
 11
15.602617585
 21
12.2147000595
  0
LINE
  5
289
100
AcDbEntity
  8
LAYER_FEATURE
100
AcDbLine
 62
7
  6
CONTINUOUS
 10
14.8726988383
 20
13.1337231678
 11
14.864993453
 21
13.1519960864
  0
LINE
  5
28A
100
AcDbEntity
  8
LAYER_FEATURE
100
AcDbLine
 62
7
  6
CONTINUOUS
 10
14.9027959574
 20
13.2641159267
 11
14.8959357398
 21
13.2844893799
  0
LINE
  5
28B
100
AcDbEntity
  8
LAYER_FEATURE
100
AcDbLine
 62
7
  6
CONTINUOUS
 10
14.9383890895
 20
13.3850353636
 11
14.9324603109
 21
13.4072531434
  0
LINE
  5
28C
100
AcDbEntity
  8
LAYER_FEATURE
100
AcDbLine
 62
7
  6
CONTINUOUS
 10
14.8215896521
 20
12.9042186035
 11
15.0543273196
 21
12.9042186035
  0
LINE
  5
28D
100
AcDbEntity
  8
0
100
AcDbLine
 62
7
  6
CONTINUOUS
 10
14.8265694106
 20
12.9133150594
 11
15.0552638247
 21
12.9133150594
  0
LINE
  5
28E
100
AcDbEntity
  8
LAYER_FEATURE
100
AcDbLine
 62
7
  6
CONTINUOUS
 10
15.0568974714
 20
12.9283659867
 11
14.8516422544
 21
12.9283659867
  0
LINE
  5
28F
100
AcDbEntity
  8
LAYER_FEATURE
100
AcDbLine
 62
7
  6
CONTINUOUS
 10
15.0606790558
 20
12.9600125647
 11
14.8559213242
 21
12.9600125647
  0
LINE
  5
290
100
AcDbEntity
  8
LAYER_FEATURE
100
AcDbLine
 62
7
  6
CONTINUOUS
 10
14.8381630641
 20
13.026790051
 11
15.0694567956
 21
13.026790051
  0
LINE
  5
291
100
AcDbEntity
  8
LAYER_FEATURE
100
AcDbLine
 62
7
  6
CONTINUOUS
 10
14.8420015017
 20
13.0507492097
 11
15.0729937356
 21
13.0507492097
  0
LINE
  5
292
100
AcDbEntity
  8
0
100
AcDbLine
 62
7
  6
CONTINUOUS
 10
14.8467563533
 20
13.0584418181
 11
15.0741773033
 21
13.0584418181
  0
LINE
  5
293
100
AcDbEntity
  8
LAYER_FEATURE
100
AcDbLine
 62
7
  6
CONTINUOUS
 10
15.075356208
 20
13.0661041188
 11
14.8729179902
 21
13.0661041188
  0
LINE
  5
294
100
AcDbEntity
  8
02___PRT_ALL_AXES
100
AcDbLine
 62
7
  6
CONTINUOUS
 10
15.8388025583
 20
13.1975883739
 11
15.843108153
 21
13.1980043525
  0
LINE
  5
295
100
AcDbEntity
  8
LAYER_FEATURE
100
AcDbLine
 62
7
  6
CONTINUOUS
 10
15.0801146976
 20
13.0963214035
 11
14.8785499772
 21
13.0963214035
  0
LINE
  5
296
100
AcDbEntity
  8
LAYER_FEATURE
100
AcDbLine
 62
7
  6
CONTINUOUS
 10
14.8638149438
 20
13.1677848124
 11
15.092832359
 21
13.1677848124
  0
LINE
  5
297
100
AcDbEntity
  8
LAYER_FEATURE
100
AcDbLine
 62
7
  6
CONTINUOUS
 10
14.86867389
 20
13.190489704
 11
15.0971559825
 21
13.190489704
  0
LINE
  5
298
100
AcDbEntity
  8
0
100
AcDbLine
 62
7
  6
CONTINUOUS
 10
14.8731440396
 20
13.1968519566
 11
15.098367527
 21
13.1968519566
  0
LINE
  5
299
100
AcDbEntity
  8
LAYER_FEATURE
100
AcDbLine
 62
7
  6
CONTINUOUS
 10
15.1043207463
 20
13.2252670337
 11
14.9069795504
 21
13.2252670337
  0
LINE
  5
29A
100
AcDbEntity
  8
LAYER_FEATURE
100
AcDbLine
 62
7
  6
CONTINUOUS
 10
14.8954530455
 20
13.3005176714
 11
15.1211524929
 21
13.3005176714
  0
LINE
  5
29B
100
AcDbEntity
  8
LAYER_FEATURE
100
AcDbLine
 62
7
  6
CONTINUOUS
 10
14.901271396
 20
13.3216827688
 11
15.1264659406
 21
13.3216827688
  0
LINE
  5
29C
100
AcDbEntity
  8
0
100
AcDbLine
 62
7
  6
CONTINUOUS
 10
14.905400629
 20
13.3268048873
 11
15.1277518364
 21
13.3268048873
  0
LINE
  5
29D
100
AcDbEntity
  8
LAYER_FEATURE
100
AcDbLine
 62
7
  6
CONTINUOUS
 10
15.1323768876
 20
13.3452278892
 11
14.9408525256
 21
13.3452278892
  0
LINE
  5
29E
100
AcDbEntity
  8
LAYER_FEATURE
100
AcDbLine
 62
7
  6
CONTINUOUS
 10
14.9326795015
 20
13.4233194353
 11
15.1542189795
 21
13.4233194353
  0
LINE
  5
29F
100
AcDbEntity
  8
02___PRT_ALL_AXES
100
AcDbLine
 62
7
  6
CONTINUOUS
 10
15.9767747396
 20
11.6589523812
 11
16.0006018928
 21
11.6874985059
  0
LINE
  5
2A0
100
AcDbEntity
  8
02___PRT_ALL_AXES
100
AcDbLine
 62
7
  6
CONTINUOUS
 10
15.6668111338
 20
13.4508049929
 11
15.8220099113
 21
13.4508049929
  0
LINE
  5
2A1
100
AcDbEntity
  8
02___PRT_ALL_AXES
100
AcDbLine
 62
7
  6
CONTINUOUS
 10
15.9767747396
 20
13.3626576046
 11
16.0006018928
 21
13.3341114799
  0
LINE
  5
2A2
100
AcDbEntity
  8
02___PRT_ALL_AXES
100
AcDbLine
 62
7
  6
CONTINUOUS
 10
15.339834481
 20
13.8985549929
 11
15.3947472582
 21
13.8985549929
  0
LINE
  5
2A3
100
AcDbEntity
  8
LAYER_FEATURE
100
AcDbLine
 62
7
  6
CONTINUOUS
 10
15.2808865774
 20
14.0133049929
 11
15.3232602894
 21
14.0133049929
  0
LINE
  5
2A4
100
AcDbEntity
  8
LAYER_FEATURE
100
AcDbLine
 62
7
  6
CONTINUOUS
 10
15.6189110559
 20
14.0133049929
 11
15.6612847679
 21
14.0133049929
  0
CIRCLE
  5
2A5
100
AcDbEntity
  8
LAYER_FEATURE
100
AcDbCircle
 62
7
  6
CONTINUOUS
 10
15.5603552569
 20
5.4606247044
 40
1.5025
  0
CIRCLE
  5
2A6
100
AcDbEntity
  8
LAYER_FEATURE
100
AcDbCircle
 62
7
  6
CONTINUOUS
 10
15.5603552569
 20
5.4606247044
 40
1.4178417185
  0
CIRCLE
  5
2A7
100
AcDbEntity
  8
02___PRT_ALL_AXES
100
AcDbCircle
 62
7
  6
CONTINUOUS
 10
15.5603552569
 20
5.4606247044
 40
1.2825
  0
CIRCLE
  5
2A8
100
AcDbEntity
  8
02___PRT_ALL_AXES
100
AcDbCircle
 62
7
  6
CONTINUOUS
 10
15.5603552569
 20
5.4606247044
 40
0.94
  0
CIRCLE
  5
2A9
100
AcDbEntity
  8
02___PRT_ALL_AXES
100
AcDbCircle
 62
7
  6
CONTINUOUS
 10
15.5603552569
 20
5.4606247044
 40
0.9085
  0
ARC
  5
2AA
100
AcDbEntity
  8
02___PRT_ALL_AXES
100
AcDbCircle
 62
7
  6
CONTINUOUS
 10
15.5603552569
 20
5.4606247044
 40
0.6875
100
AcDbArc
 50
153.9499278124
 51
231.0500721876
  0
ARC
  5
2AB
100
AcDbEntity
  8
02___PRT_ALL_AXES
100
AcDbCircle
 62
7
  6
CONTINUOUS
 10
15.5603552569
 20
5.4606247044
 40
0.6875
100
AcDbArc
 50
58.9499278124
 51
136.0500721876
  0
ARC
  5
2AC
100
AcDbEntity
  8
02___PRT_ALL_AXES
100
AcDbCircle
 62
7
  6
CONTINUOUS
 10
15.5603552569
 20
5.4606247044
 40
0.6875
100
AcDbArc
 50
248.9499278124
 51
41.0500721876
  0
ARC
  5
2AD
100
AcDbEntity
  8
02___PRT_ALL_AXES
100
AcDbCircle
 62
7
  6
CONTINUOUS
 10
15.5603552569
 20
5.4606247044
 40
0.6656478713
100
AcDbArc
 50
135.5426864311
 51
154.4573135689
  0
ARC
  5
2AE
100
AcDbEntity
  8
02___PRT_ALL_AXES
100
AcDbCircle
 62
7
  6
CONTINUOUS
 10
15.5603552569
 20
5.4606247044
 40
0.6437957425
100
AcDbArc
 50
59.5897023119
 51
230.4102976881
  0
ARC
  5
2AF
100
AcDbEntity
  8
02___PRT_ALL_AXES
100
AcDbCircle
 62
7
  6
CONTINUOUS
 10
15.5603552569
 20
5.4606247044
 40
0.6437957425
100
AcDbArc
 50
249.5897023119
 51
40.4102976881
  0
ARC
  5
2B0
100
AcDbEntity
  8
02___PRT_ALL_AXES
100
AcDbCircle
 62
7
  6
CONTINUOUS
 10
15.9821846258
 20
5.9633413702
 40
0.109375
100
AcDbArc
 50
308.6898214686
 51
151.3101785314
  0
ARC
  5
2B1
100
AcDbEntity
  8
02___PRT_ALL_AXES
100
AcDbCircle
 62
7
  6
CONTINUOUS
 10
15.2322302569
 20
4.8922955332
 40
0.109375
100
AcDbArc
 50
138.6898214686
 51
341.3101785314
  0
ARC
  5
2B2
100
AcDbEntity
  8
02___PRT_ALL_AXES
100
AcDbCircle
 62
7
  6
CONTINUOUS
 10
15.0227867279
 20
5.8370342408
 40
0.109375
100
AcDbArc
 50
55.1836503003
 51
234.8163496997
  0
ARC
  5
2B3
100
AcDbEntity
  8
02___PRT_ALL_AXES
100
AcDbCircle
 62
7
  6
CONTINUOUS
 10
20.2363128219
 20
76.8510737929
 40
65.1549951862
100
AcDbArc
 50
266.0772449768
 51
266.1922997506
  0
ARC
  5
2B4
100
AcDbEntity
  8
02___PRT_ALL_AXES
100
AcDbCircle
 62
7
  6
CONTINUOUS
 10
13.3633697294
 20
-21.000709423
 40
33.0236249972
100
AcDbArc
 50
85.443269842
 51
85.9390441874
  0
ARC
  5
2B5
100
AcDbEntity
  8
LAYER_FEATURE
100
AcDbCircle
 62
7
  6
CONTINUOUS
 10
17.7263393666
 20
12.5763695071
 40
2.9230875835
100
AcDbArc
 50
170.6603214393
 51
171.1359376951
  0
ARC
  5
2B6
100
AcDbEntity
  8
LAYER_FEATURE
100
AcDbCircle
 62
7
  6
CONTINUOUS
 10
17.3694994034
 20
12.6434297376
 40
2.5599614949
100
AcDbArc
 50
167.6608168385
 51
168.1804944384
  0
ARC
  5
2B7
100
AcDbEntity
  8
LAYER_FEATURE
100
AcDbCircle
 62
7
  6
CONTINUOUS
 10
16.9827209469
 20
12.7381035751
 40
2.1617115691
100
AcDbArc
 50
164.3380159643
 51
164.9198065723
  0
ARC
  5
2B8
100
AcDbEntity
  8
LAYER_FEATURE
100
AcDbCircle
 62
7
  6
CONTINUOUS
 10
16.9539547948
 20
12.7606882651
 40
2.1418222353
100
AcDbArc
 50
162.8529971638
 51
165.1855104942
  0
ARC
  5
2B9
100
AcDbEntity
  8
LAYER_FEATURE
100
AcDbCircle
 62
7
  6
CONTINUOUS
 10
15.6470316619
 20
11.4426869979
 40
0.2080906393
100
AcDbArc
 50
255.7483104783
 51
257.1913122138
  0
SPLINE
  5
2BA
100
AcDbEntity
  8
02___PRT_ALL_AXES
100
AcDbSpline
 62
7
  6
CONTINUOUS
 70
0
 71
3
 72
42
 73
38
 74
0
 42
0.0000001
 43
0.0000001
 44
0.0000000001
 40
0.0
 40
0.0
 40
0.0
 40
0.0
 40
0.0246261644
 40
0.0512698422
 40
0.0798923797
 40
0.1104132576
 40
0.1427192596
 40
0.1766699935
 40
0.212102836
 40
0.2488367732
 40
0.2866757234
 40
0.3254114567
 40
0.3648262632
 40
0.4046954551
 40
0.4447897635
 40
0.4848776768
 40
0.5247277479
 40
0.564110902
 40
0.6028027749
 40
0.6405861138
 40
0.6772532865
 40
0.7126089609
 40
0.7464730451
 40
0.778684024
 40
0.8091028927
 40
0.8376179839
 40
0.8641511198
 40
0.8886657197
 40
0.9111776694
 40
0.9317697923
 40
0.9414004167
 40
0.9506226786
 40
0.9679846389
 40
0.9762386595
 40
0.9842806554
 40
0.99217717
 40
1.0
 40
1.0
 40
1.0
 40
1.0
 10
15.5856601105
 20
12.4196851727
 30
0.0
 10
15.584587864
 20
12.4181813998
 30
0.0
 10
15.582505163
 20
12.4149425078
 30
0.0
 10
15.5796654068
 20
12.4096610776
 30
0.0
 10
15.5770042488
 20
12.403798647
 30
0.0
 10
15.5745396792
 20
12.3973946031
 30
0.0
 10
15.5722880823
 20
12.3904914986
 30
0.0
 10
15.5702647418
 20
12.3831357044
 30
0.0
 10
15.5684834165
 20
12.375376775
 30
0.0
 10
15.5669562753
 20
12.3672671472
 30
0.0
 10
15.5656937654
 20
12.358861729
 30
0.0
 10
15.5647045345
 20
12.3502175076
 30
0.0
 10
15.5639953621
 20
12.3413931407
 30
0.0
 10
15.5635711103
 20
12.3324485437
 30
0.0
 10
15.5634346875
 20
12.3234444691
 30
0.0
 10
15.5635870289
 20
12.3144420832
 30
0.0
 10
15.5640270894
 20
12.3055025404
 30
0.0
 10
15.5647518516
 20
12.2966865576
 30
0.0
 10
15.5657563471
 20
12.2880539911
 30
0.0
 10
15.5670336921
 20
12.2796634173
 30
0.0
 10
15.5685751385
 20
12.271571719
 30
0.0
 10
15.5703701415
 20
12.2638336798
 30
0.0
 10
15.5724064444
 20
12.2565015856
 30
0.0
 10
15.5746701916
 20
12.2496248347
 30
0.0
 10
15.5771460622
 20
12.2432495668
 30
0.0
 10
15.5798174848
 20
12.2374182757
 30
0.0
 10
15.5826668199
 20
12.2321695705
 30
0.0
 10
15.5856760121
 20
12.227537628
 30
0.0
 10
15.5888262017
 20
12.2235531116
 30
0.0
 10
15.5916144304
 20
12.2207328359
 30
0.0
 10
15.5938994446
 20
12.2188500181
 30
0.0
 10
15.5961168269
 20
12.2172789637
 30
0.0
 10
15.5984237029
 20
12.2160196867
 30
0.0
 10
15.600790236
 20
12.2151319236
 30
0.0
 10
15.6025462055
 20
12.2146627944
 30
0.0
 10
15.6043088784
 20
12.2143808427
 30
0.0
 10
15.6054887347
 20
12.214318012
 30
0.0
 10
15.6060754276
 20
12.214318017
 30
0.0
  0
SPLINE
  5
2BB
100
AcDbEntity
  8
02___PRT_ALL_AXES
100
AcDbSpline
 62
7
  6
CONTINUOUS
 70
0
 71
3
 72
23
 73
19
 74
0
 42
0.0000001
 43
0.0000001
 44
0.0000000001
 40
0.0
 40
0.0
 40
0.0
 40
0.0
 40
0.0888373073
 40
0.1745056181
 40
0.2567846461
 40
0.3354943553
 40
0.4104786866
 40
0.4816207576
 40
0.5488460546
 40
0.6121310341
 40
0.6715128734
 40
0.7271015726
 40
0.7790945831
 40
0.8277932149
 40
0.8736186486
 40
0.9171227981
 40
0.9589869432
 40
1.0
 40
1.0
 40
1.0
 40
1.0
 10
15.9094999644
 20
11.8399048432
 30
0.0
 10
15.9099753955
 20
11.8380701088
 30
0.0
 10
15.9109666336
 20
11.834480592
 30
0.0
 10
15.9126069484
 20
11.8292522716
 30
0.0
 10
15.9143689964
 20
11.8242922241
 30
0.0
 10
15.9162460476
 20
11.8196191512
 30
0.0
 10
15.918231155
 20
11.8152504116
 30
0.0
 10
15.9203169231
 20
11.8112022828
 30
0.0
 10
15.9224957001
 20
11.8074897473
 30
0.0
 10
15.9247596036
 20
11.8041264941
 30
0.0
 10
15.9271006271
 20
11.8011248982
 30
0.0
 10
15.9295107393
 20
11.7984960596
 30
0.0
 10
15.9319819551
 20
11.7962499195
 30
0.0
 10
15.9345063702
 20
11.7943954752
 30
0.0
 10
15.9370758307
 20
11.7929410593
 30
0.0
 10
15.9396818329
 20
11.79189454
 30
0.0
 10
15.9423132745
 20
11.7912630402
 30
0.0
 10
15.9440845033
 20
11.7911217712
 30
0.0
 10
15.9449595115
 20
11.7911217726
 30
0.0
  0
SPLINE
  5
2BC
100
AcDbEntity
  8
02___PRT_ALL_AXES
100
AcDbSpline
 62
7
  6
CONTINUOUS
 70
0
 71
3
 72
39
 73
35
 74
0
 42
0.0000001
 43
0.0000001
 44
0.0000000001
 40
0.0
 40
0.0
 40
0.0
 40
0.0
 40
0.0461531089
 40
0.0913512749
 40
0.1355640855
 40
0.1787654562
 40
0.220930575
 40
0.2620376493
 40
0.30206766
 40
0.3410046826
 40
0.3788361678
 40
0.4155532338
 40
0.4511510238
 40
0.4856291057
 40
0.5189918995
 40
0.5512491625
 40
0.582416531
 40
0.6125161206
 40
0.6415771815
 40
0.6696367708
 40
0.6967404435
 40
0.7229429274
 40
0.7483087272
 40
0.7729125889
 40
0.7968397132
 40
0.8201856374
 40
0.8430556832
 40
0.8655638891
 40
0.8878313923
 40
0.9099842909
 40
0.9321511157
 40
0.9544600998
 40
0.9770364726
 40
1.0
 40
1.0
 40
1.0
 40
1.0
 10
16.0580273278
 20
11.7135902086
 30
0.0
 10
16.0547217425
 20
11.7028933306
 30
0.0
 10
16.0479829904
 20
11.6817808015
 30
0.0
 10
16.0373752838
 20
11.6506508059
 30
0.0
 10
16.0263821891
 20
11.6204153348
 30
0.0
 10
16.0150152937
 20
11.5911060649
 30
0.0
 10
16.0032863035
 20
11.5627532563
 30
0.0
 10
15.9912074253
 20
11.5353863823
 30
0.0
 10
15.9787911747
 20
11.5090337981
 30
0.0
 10
15.9660504103
 20
11.4837228099
 30
0.0
 10
15.9529983047
 20
11.4594796298
 30
0.0
 10
15.9396483239
 20
11.4363293515
 30
0.0
 10
15.9260142073
 20
11.4142959258
 30
0.0
 10
15.912109958
 20
11.3934021293
 30
0.0
 10
15.8979498082
 20
11.3736695536
 30
0.0
 10
15.8835481951
 20
11.3551185979
 30
0.0
 10
15.8689197387
 20
11.3377684611
 30
0.0
 10
15.854079215
 20
11.3216371416
 30
0.0
 10
15.8390415514
 20
11.3067414292
 30
0.0
 10
15.823821801
 20
11.2930969314
 30
0.0
 10
15.8084351411
 20
11.2807181024
 30
0.0
 10
15.7928968889
 20
11.2696182705
 30
0.0
 10
15.7772225351
 20
11.2598096675
 30
0.0
 10
15.7614278164
 20
11.2513034228
 30
0.0
 10
15.7455287894
 20
11.2441095673
 30
0.0
 10
15.7295419286
 20
11.2382369856
 30
0.0
 10
15.7134842188
 20
11.2336933067
 30
0.0
 10
15.6973732028
 20
11.2304847433
 30
0.0
 10
15.6812269751
 20
11.2286158607
 30
0.0
 10
15.6650640248
 20
11.2280894114
 30
0.0
 10
15.6489031658
 20
11.2289061559
 30
0.0
 10
15.6327628008
 20
11.2310649794
 30
0.0
 10
15.6166625139
 20
11.2345623487
 30
0.0
 10
15.6060722062
 20
11.2377516125
 30
0.0
 10
15.6008020126
 20
11.2395561504
 30
0.0
  0
SPLINE
  5
2BD
100
AcDbEntity
  8
02___PRT_ALL_AXES
100
AcDbSpline
 62
7
  6
CONTINUOUS
 70
0
 71
3
 72
31
 73
27
 74
0
 42
0.0000001
 43
0.0000001
 44
0.0000000001
 40
0.0
 40
0.0
 40
0.0
 40
0.0
 40
0.016764577
 40
0.033749967
 40
0.0511665081
 40
0.0692055922
 40
0.0880340921
 40
0.1077917619
 40
0.1285915736
 40
0.1505211949
 40
0.1736454024
 40
0.1980091273
 40
0.223639726
 40
0.2505494469
 40
0.2787377146
 40
0.3081924459
 40
0.3388917811
 40
0.3708053914
 40
0.4381081882
 40
0.5097299133
 40
0.5852038939
 40
0.6639953117
 40
0.745515462
 40
0.8291340353
 40
0.9141885839
 40
1.0
 40
1.0
 40
1.0
 40
1.0
 10
15.7997843869
 20
13.2631039722
 30
0.0
 10
15.7990903185
 20
13.2631039674
 30
0.0
 10
15.7976914926
 20
13.2630157551
 30
0.0
 10
15.7956053104
 20
13.2626201738
 30
0.0
 10
15.7935309072
 20
13.2619628678
 30
0.0
 10
15.7914740867
 20
13.2610463897
 30
0.0
 10
15.7894396175
 20
13.2598738558
 30
0.0
 10
15.78743203
 20
13.258448828
 30
0.0
 10
15.7854556584
 20
13.2567751327
 30
0.0
 10
15.7835147543
 20
13.2548569931
 30
0.0
 10
15.781613504
 20
13.2526990759
 30
0.0
 10
15.7797561343
 20
13.2503064718
 30
0.0
 10
15.7779468081
 20
13.2476848105
 30
0.0
 10
15.7761896328
 20
13.2448402442
 30
0.0
 10
15.7744886896
 20
13.2417794228
 30
0.0
 10
15.7728479297
 20
13.2385095497
 30
0.0
 10
15.7712711486
 20
13.2350383061
 30
0.0
 10
15.7692228444
 20
13.2300639377
 30
0.0
 10
15.766861192
 20
13.2233916507
 30
0.0
 10
15.7643852288
 20
13.2148633659
 30
0.0
 10
15.7622426206
 20
13.2057562877
 30
0.0
 10
15.7604538475
 20
13.1961565145
 30
0.0
 10
15.75903605
 20
13.1861546037
 30
0.0
 10
15.7580028528
 20
13.1758452298
 30
0.0
 10
15.7573641363
 20
13.1653262153
 30
0.0
 10
15.7572057061
 20
13.1582519667
 30
0.0
 10
15.7571934319
 20
13.1546993189
 30
0.0
  0
SPLINE
  5
2BE
100
AcDbEntity
  8
02___PRT_ALL_AXES
100
AcDbSpline
 62
7
  6
CONTINUOUS
 70
0
 71
3
 72
37
 73
33
 74
0
 42
0.0000001
 43
0.0000001
 44
0.0000000001
 40
0.0
 40
0.0
 40
0.0
 40
0.0
 40
0.019166813
 40
0.0385630946
 40
0.0583055114
 40
0.0785031656
 40
0.0992559402
 40
0.1206534361
 40
0.1427745409
 40
0.1656874695
 40
0.1894500953
 40
0.2141105156
 40
0.2397078071
 40
0.2662727759
 40
0.2938286525
 40
0.3223918528
 40
0.3519726641
 40
0.3825758019
 40
0.4142009363
 40
0.4468432273
 40
0.4804937352
 40
0.5151397384
 40
0.5507651164
 40
0.5873506601
 40
0.6248742863
 40
0.6633112643
 40
0.7026344815
 40
0.7428146068
 40
0.783820186
 40
0.8256179954
 40
0.9114447278
 40
1.0
 40
1.0
 40
1.0
 40
1.0
 10
15.8431081517
 20
11.8236055219
 30
0.0
 10
15.8400423525
 20
11.8238383856
 30
0.0
 10
15.8338914323
 20
11.8245787553
 30
0.0
 10
15.8247256992
 20
11.8264941598
 30
0.0
 10
15.8155933739
 20
11.8292156991
 30
0.0
 10
15.8065066399
 20
11.8327390524
 30
0.0
 10
15.7974760734
 20
11.8370590519
 30
0.0
 10
15.7885121982
 20
11.8421696384
 30
0.0
 10
15.7796251578
 20
11.8480640231
 30
0.0
 10
15.7708249291
 20
11.8547347248
 30
0.0
 10
15.7621213321
 20
11.8621735275
 30
0.0
 10
15.7535240628
 20
11.8703714495
 30
0.0
 10
15.7450427491
 20
11.8793187693
 30
0.0
 10
15.736686954
 20
11.8890049882
 30
0.0
 10
15.728466124
 20
11.8994187728
 30
0.0
 10
15.720389614
 20
11.9105479848
 30
0.0
 10
15.7124666807
 20
11.9223796862
 30
0.0
 10
15.704706438
 20
11.9349001156
 30
0.0
 10
15.6971178294
 20
11.9480946935
 30
0.0
 10
15.6897096468
 20
11.9619480624
 30
0.0
 10
15.6824905086
 20
11.9764440923
 30
0.0
 10
15.6754688026
 20
11.9915658741
 30
0.0
 10
15.6686527105
 20
12.0072957623
 30
0.0
 10
15.662050202
 20
12.0236154006
 30
0.0
 10
15.6556689963
 20
12.0405057259
 30
0.0
 10
15.6495165459
 20
12.0579469908
 30
0.0
 10
15.6436000546
 20
12.0759188081
 30
0.0
 10
15.6379264812
 20
12.0944001474
 30
0.0
 10
15.6325024092
 20
12.1133694283
 30
0.0
 10
15.6255504533
 20
12.1395129068
 30
0.0
 10
15.6175479955
 20
12.1732628523
 30
0.0
 10
15.6120070675
 20
12.2006876344
 30
0.0
 10
15.6094110439
 20
12.2146539405
 30
0.0
  0
SPLINE
  5
2BF
100
AcDbEntity
  8
LAYER_FEATURE
100
AcDbSpline
 62
7
  6
CONTINUOUS
 70
0
 71
3
 72
15
 73
11
 74
0
 42
0.0000001
 43
0.0000001
 44
0.0000000001
 40
0.0
 40
0.0
 40
0.0
 40
0.0
 40
0.1183437699
 40
0.2373593361
 40
0.3577045485
 40
0.4800104839
 40
0.6048707239
 40
0.7328332628
 40
0.8643952008
 40
1.0
 40
1.0
 40
1.0
 40
1.0
 10
15.3232602894
 20
14.0133049845
 30
0.0
 10
15.329493101
 20
14.0133049784
 30
0.0
 10
15.342000113
 20
14.0127907348
 30
0.0
 10
15.3607168836
 20
14.0104798656
 30
0.0
 10
15.3793927857
 20
14.006632096
 30
0.0
 10
15.3980057083
 20
14.0012527524
 30
0.0
 10
15.4165361882
 20
13.9943490076
 30
0.0
 10
15.434965064
 20
13.9859294377
 30
0.0
 10
15.4532728672
 20
13.9760047022
 30
0.0
 10
15.4651953089
 20
13.9685116441
 30
0.0
 10
15.4711265614
 20
13.9645333335
 30
0.0
  0
SPLINE
  5
2C0
100
AcDbEntity
  8
LAYER_FEATURE
100
AcDbSpline
 62
7
  6
CONTINUOUS
 70
0
 71
3
 72
15
 73
11
 74
0
 42
0.0000001
 43
0.0000001
 44
0.0000000001
 40
0.0
 40
0.0
 40
0.0
 40
0.0
 40
0.1183297168
 40
0.2373327295
 40
0.3576683231
 40
0.479968916
 40
0.6048292522
 40
0.7327982787
 40
0.8643738433
 40
1.0
 40
1.0
 40
1.0
 40
1.0
 10
15.3232602894
 20
11.0083050013
 30
0.0
 10
15.3295004906
 20
11.0083049952
 30
0.0
 10
15.342022428
 20
11.0088204948
 30
0.0
 10
15.3607614261
 20
11.0111368555
 30
0.0
 10
15.3794594049
 20
11.0149937646
 30
0.0
 10
15.3980941675
 20
11.0203858826
 30
0.0
 10
15.4166461814
 20
11.0273059967
 30
0.0
 10
15.4350962216
 20
11.0357454745
 30
0.0
 10
15.4534247559
 20
11.0456936005
 30
0.0
 10
15.4653601619
 20
11.0532040431
 30
0.0
 10
15.4712978031
 20
11.0571915739
 30
0.0
  0
SPLINE
  5
2C1
100
AcDbEntity
  8
LAYER_FEATURE
100
AcDbSpline
 62
7
  6
CONTINUOUS
 70
0
 71
3
 72
68
 73
64
 74
0
 42
0.0000001
 43
0.0000001
 44
0.0000000001
 40
0.0
 40
0.0
 40
0.0
 40
0.0
 40
0.0038448265
 40
0.0076962392
 40
0.0115607831
 40
0.0154449202
 40
0.0193549915
 40
0.0232971829
 40
0.0272774884
 40
0.0313016907
 40
0.0395020789
 40
0.0479412181
 40
0.0566557572
 40
0.0656777061
 40
0.0750344918
 40
0.0847491527
 40
0.0948406176
 40
0.1053240294
 40
0.1162110792
 40
0.1275103338
 40
0.1392275419
 40
0.1513659152
 40
0.163926381
 40
0.1769078068
 40
0.1903071987
 40
0.2041198767
 40
0.2183396291
 40
0.232958849
 40
0.2479686547
 40
0.2633589967
 40
0.2791187536
 40
0.2952358175
 40
0.3116971723
 40
0.3284889642
 40
0.3455965666
 40
0.3630046406
 40
0.3806971914
 40
0.3986576209
 40
0.4168687774
 40
0.4353130026
 40
0.4539721773
 40
0.4728277646
 40
0.4918608519
 40
0.5110521918
 40
0.549830236
 40
0.5890037206
 40
0.6284105861
 40
0.6678870956
 40
0.7072690133
 40
0.7463927805
 40
0.7850966971
 40
0.8042419852
 40
0.823223137
 40
0.8420210026
 40
0.8606167789
 40
0.8789920514
 40
0.8971288359
 40
0.9150096254
 40
0.9326174244
 40
0.9499358349
 40
0.9669489951
 40
0.9836419142
 40
1.0
 40
1.0
 40
1.0
 40
1.0
 10
15.6612847679
 20
14.0133049921
 30
0.0
 10
15.6647009729
 20
14.0133049948
 30
0.0
 10
15.6715402297
 20
14.0131510685
 30
0.0
 10
15.6817921384
 20
14.0124587657
 30
0.0
 10
15.6920377645
 20
14.0113051639
 30
0.0
 10
15.7022735954
 20
14.009690685
 30
0.0
 10
15.7124964974
 20
14.0076158862
 30
0.0
 10
15.7227031891
 20
14.005081456
 30
0.0
 10
15.7328906737
 20
14.0020882221
 30
0.0
 10
15.7465280302
 20
13.9974584277
 30
0.0
 10
15.7635392452
 20
13.9904950002
 30
0.0
 10
15.7836878585
 20
13.9803737428
 30
0.0
 10
15.8036780558
 20
13.9684490719
 30
0.0
 10
15.8234852034
 20
13.9547376776
 30
0.0
 10
15.843086475
 20
13.9392575859
 30
0.0
 10
15.8624589818
 20
13.9220286422
 30
0.0
 10
15.8815801704
 20
13.9030724399
 30
0.0
 10
15.9004276459
 20
13.8824124181
 30
0.0
 10
15.9189792102
 20
13.8600739057
 30
0.0
 10
15.9372128737
 20
13.83608416
 30
0.0
 10
15.9551068955
 20
13.8104723847
 30
0.0
 10
15.972639826
 20
13.7832697312
 30
0.0
 10
15.9897905525
 20
13.7545092862
 30
0.0
 10
16.0065383426
 20
13.7242260479
 30
0.0
 10
16.0228628875
 20
13.6924568944
 30
0.0
 10
16.0387443421
 20
13.6592405448
 30
0.0
 10
16.0541633592
 20
13.6246175129
 30
0.0
 10
16.0691011239
 20
13.5886300583
 30
0.0
 10
16.0835393839
 20
13.5513221341
 30
0.0
 10
16.0974604785
 20
13.5127393316
 30
0.0
 10
16.110847365
 20
13.4729288237
 30
0.0
 10
16.1236836436
 20
13.4319393049
 30
0.0
 10
16.1359535803
 20
13.3898209304
 30
0.0
 10
16.1476421288
 20
13.3466252535
 30
0.0
 10
16.1587349523
 20
13.3024051612
 30
0.0
 10
16.169218441
 20
13.2572148076
 30
0.0
 10
16.1790797298
 20
13.2111095452
 30
0.0
 10
16.188306715
 20
13.1641458564
 30
0.0
 10
16.1968880699
 20
13.1163812824
 30
0.0
 10
16.2048132583
 20
13.0678743553
 30
0.0
 10
16.2120725525
 20
13.0186845121
 30
0.0
 10
16.2186570259
 20
12.9688720721
 30
0.0
 10
16.2245586398
 20
12.9184979709
 30
0.0
 10
16.2315309067
 20
12.850433935
 30
0.0
 10
16.2384766886
 20
12.7643878399
 30
0.0
 10
16.2439643736
 20
12.6602441302
 30
0.0
 10
16.2466060075
 20
12.5553683501
 30
0.0
 10
16.2463885923
 20
12.4502745662
 30
0.0
 10
16.243313196
 20
12.3454769539
 30
0.0
 10
16.237394958
 20
12.2414891967
 30
0.0
 10
16.2300924374
 20
12.155624065
 30
0.0
 10
16.2228373428
 20
12.0877433748
 30
0.0
 10
16.216727334
 20
12.0375334786
 30
0.0
 10
16.2099368365
 20
11.9879038798
 30
0.0
 10
16.2024741397
 20
11.9389152893
 30
0.0
 10
16.1943484201
 20
11.8906277788
 30
0.0
 10
16.1855696521
 20
11.8431005128
 30
0.0
 10
16.1761486129
 20
11.7963917371
 30
0.0
 10
16.1660968692
 20
11.7505586569
 30
0.0
 10
16.155426758
 20
11.7056574792
 30
0.0
 10
16.1441513585
 20
11.6617430422
 30
0.0
 10
16.1322845632
 20
11.6188694682
 30
0.0
 10
16.1239014411
 20
11.5907225658
 30
0.0
 10
16.1196101725
 20
11.5768360156
 30
0.0
  0
SPLINE
  5
2C2
100
AcDbEntity
  8
LAYER_FEATURE
100
AcDbSpline
 62
7
  6
CONTINUOUS
 70
0
 71
3
 72
39
 73
35
 74
0
 42
0.0000001
 43
0.0000001
 44
0.0000000001
 40
0.0
 40
0.0
 40
0.0
 40
0.0
 40
0.0212769805
 40
0.0426477427
 40
0.0642045486
 40
0.0860367268
 40
0.1082294314
 40
0.1308626295
 40
0.1540103791
 40
0.1777403604
 40
0.2021136227
 40
0.2271845602
 40
0.2530010567
 40
0.2796047186
 40
0.307031172
 40
0.3353104562
 40
0.3644674123
 40
0.3945220379
 40
0.4254898696
 40
0.4573823626
 40
0.4902072078
 40
0.5239686095
 40
0.5586675988
 40
0.5943022926
 40
0.630868091
 40
0.6683578902
 40
0.7067623015
 40
0.7460698034
 40
0.7862668444
 40
0.8273381134
 40
0.8692665
 40
0.9120330868
 40
0.9556186933
 40
1.0
 40
1.0
 40
1.0
 40
1.0
 10
15.6612847679
 20
11.0083049937
 30
0.0
 10
15.6667729426
 20
11.0083049982
 30
0.0
 10
15.6777775914
 20
11.008703235
 30
0.0
 10
15.6942549928
 20
11.0104933894
 30
0.0
 10
15.7107050681
 20
11.0134748769
 30
0.0
 10
15.7271128426
 20
11.0176446771
 30
0.0
 10
15.7434650505
 20
11.0229986758
 30
0.0
 10
15.7597483479
 20
11.0295317162
 30
0.0
 10
15.7759497862
 20
11.037237758
 30
0.0
 10
15.7920566357
 20
11.046109938
 30
0.0
 10
15.8080564125
 20
11.056140552
 30
0.0
 10
15.8239368167
 20
11.0673211095
 30
0.0
 10
15.8396856813
 20
11.07964237
 30
0.0
 10
15.8552909517
 20
11.0930943127
 30
0.0
 10
15.8707407035
 20
11.1076660924
 30
0.0
 10
15.8860230947
 20
11.123346082
 30
0.0
 10
15.9011263632
 20
11.1401218592
 30
0.0
 10
15.916038867
 20
11.1579801612
 30
0.0
 10
15.9307490801
 20
11.1769068979
 30
0.0
 10
15.9452455817
 20
11.1968871755
 30
0.0
 10
15.9595170777
 20
11.217905283
 30
0.0
 10
15.9735524491
 20
11.2399446737
 30
0.0
 10
15.9873407227
 20
11.2629880076
 30
0.0
 10
16.0008710819
 20
11.2870171621
 30
0.0
 10
16.0141329112
 20
11.3120132187
 30
0.0
 10
16.0271157994
 20
11.3379564848
 30
0.0
 10
16.039809526
 20
11.364826527
 30
0.0
 10
16.0522040776
 20
11.3926021712
 30
0.0
 10
16.0642897054
 20
11.4212615165
 30
0.0
 10
16.076056871
 20
11.4507819613
 30
0.0
 10
16.087496253
 20
11.4811401623
 30
0.0
 10
16.0985989167
 20
11.5123123623
 30
0.0
 10
16.1093559255
 20
11.5442736275
 30
0.0
 10
16.1162302709
 20
11.5658986499
 30
0.0
 10
16.1196101725
 20
11.5768360156
 30
0.0
  0
SPLINE
  5
2C3
100
AcDbEntity
  8
LAYER_FEATURE
100
AcDbSpline
 62
7
  6
CONTINUOUS
 70
0
 71
3
 72
35
 73
31
 74
0
 42
0.0000001
 43
0.0000001
 44
0.0000000001
 40
0.0
 40
0.0
 40
0.0
 40
0.0
 40
0.084887471
 40
0.1669818985
 40
0.2461622162
 40
0.2846275323
 40
0.3223264981
 40
0.3592490046
 40
0.3953863736
 40
0.4307313379
 40
0.465278218
 40
0.4990230117
 40
0.5319634726
 40
0.564099341
 40
0.5954323894
 40
0.6259666378
 40
0.6557085445
 40
0.6846671162
 40
0.7128542132
 40
0.7402846886
 40
0.766976626
 40
0.7929516278
 40
0.8182349595
 40
0.8428558591
 40
0.8668477144
 40
0.9130848365
 40
0.9354337569
 40
0.9573314775
 40
0.9788336399
 40
1.0
 40
1.0
 40
1.0
 40
1.0
 10
15.2554771544
 20
13.3039793124
 30
0.0
 10
15.2605568911
 20
13.3204173462
 30
0.0
 10
15.2710113725
 20
13.3526124139
 30
0.0
 10
15.2878820593
 20
13.399574065
 30
0.0
 10
15.3028263783
 20
13.4372077671
 30
0.0
 10
15.315234334
 20
13.4661466819
 30
0.0
 10
15.3246575092
 20
13.4870420582
 30
0.0
 10
15.3342815555
 20
13.5073246668
 30
0.0
 10
15.3441004692
 20
13.5269818716
 30
0.0
 10
15.3541081239
 20
13.5460013386
 30
0.0
 10
15.3642982587
 20
13.5643711709
 30
0.0
 10
15.3746644937
 20
13.5820798802
 30
0.0
 10
15.3852003999
 20
13.5991163697
 30
0.0
 10
15.3958993764
 20
13.6154700033
 30
0.0
 10
15.4067547898
 20
13.6311305436
 30
0.0
 10
15.4177599058
 20
13.6460881914
 30
0.0
 10
15.4289078731
 20
13.660333611
 30
0.0
 10
15.4401918373
 20
13.6738578592
 30
0.0
 10
15.4516048024
 20
13.6866524845
 30
0.0
 10
15.4631397501
 20
13.6987094601
 30
0.0
 10
15.4747895993
 20
13.7100211701
 30
0.0
 10
15.4865472288
 20
13.7205805438
 30
0.0
 10
15.4984052605
 20
13.7303807238
 30
0.0
 10
15.5103572019
 20
13.7394158963
 30
0.0
 10
15.5262096892
 20
13.7502989491
 30
0.0
 10
15.542428917
 20
13.7598097269
 30
0.0
 10
15.5589482869
 20
13.7677915776
 30
0.0
 10
15.5712555399
 20
13.7729210959
 30
0.0
 10
15.5836102147
 20
13.777256526
 30
0.0
 10
15.5919320801
 20
13.7796321459
 30
0.0
 10
15.596091565
 20
13.7806822997
 30
0.0
  0
SPLINE
  5
2C4
100
AcDbEntity
  8
LAYER_FEATURE
100
AcDbSpline
 62
7
  6
CONTINUOUS
 70
0
 71
3
 72
59
 73
55
 74
0
 42
0.0000001
 43
0.0000001
 44
0.0000000001
 40
0.0
 40
0.0
 40
0.0
 40
0.0
 40
0.0159804448
 40
0.0322744362
 40
0.0488687738
 40
0.0657502733
 40
0.0829048058
 40
0.1003178397
 40
0.1179743125
 40
0.1358587101
 40
0.1722462044
 40
0.2093495608
 40
0.2470319735
 40
0.2851526956
 40
0.3235680548
 40
0.3621324321
 40
0.4006992339
 40
0.4391218499
 40
0.4772546146
 40
0.5149537751
 40
0.5520784709
 40
0.5884917523
 40
0.606390654
 40
0.6240626693
 40
0.6414922569
 40
0.6586643293
 40
0.675564291
 40
0.6921780792
 40
0.7084922084
 40
0.7244938169
 40
0.7401707205
 40
0.7555114645
 40
0.7705053817
 40
0.785142657
 40
0.7994143982
 40
0.8133127171
 40
0.8268308183
 40
0.8399630946
 40
0.8527052377
 40
0.865054362
 40
0.8770091461
 40
0.8885699945
 40
0.8997392143
 40
0.9105212137
 40
0.9209227244
 40
0.9309530447
 40
0.9406243027
 40
0.94995173
 40
0.9589539299
 40
0.9676531281
 40
0.9760753768
 40
0.9842506766
 40
0.9922129759
 40
1.0
 40
1.0
 40
1.0
 40
1.0
 10
15.2554771544
 20
13.3039793124
 30
0.0
 10
15.2519946614
 20
13.2927099607
 30
0.0
 10
15.2451840376
 20
13.2698807388
 30
0.0
 10
15.235517298
 20
13.2351281902
 30
0.0
 10
15.226308675
 20
13.1995639892
 30
0.0
 10
15.2175685337
 20
13.1632282964
 30
0.0
 10
15.2093066612
 20
13.1261615934
 30
0.0
 10
15.2015323419
 20
13.088405481
 30
0.0
 10
15.1942542477
 20
13.0500021295
 30
0.0
 10
15.1851708672
 20
12.9976928569
 30
0.0
 10
15.1751343113
 20
12.9309889746
 30
0.0
 10
15.1652547112
 20
12.8495182998
 30
0.0
 10
15.1575157992
 20
12.7665316137
 30
0.0
 10
15.1519523956
 20
12.682400688
 30
0.0
 10
15.1485895719
 20
12.5975018054
 30
0.0
 10
15.1474424633
 20
12.5122149312
 30
0.0
 10
15.1485162236
 20
12.4269217471
 30
0.0
 10
15.1518060401
 20
12.3420039632
 30
0.0
 10
15.1572970827
 20
12.2578416301
 30
0.0
 10
15.1649646234
 20
12.1748111747
 30
0.0
 10
15.1747741644
 20
12.0932845665
 30
0.0
 10
15.1847530213
 20
12.0265260568
 30
0.0
 10
15.193791027
 20
11.974167109
 30
0.0
 10
15.2010360391
 20
11.9357225054
 30
0.0
 10
15.2087778327
 20
11.8979223165
 30
0.0
 10
15.2170077703
 20
11.860808783
 30
0.0
 10
15.2257166061
 20
11.8244234846
 30
0.0
 10
15.2348945768
 20
11.788807151
 30
0.0
 10
15.2445313917
 20
11.7539996537
 30
0.0
 10
15.2546162517
 20
11.7200399485
 30
0.0
 10
15.2651378516
 20
11.68696603
 30
0.0
 10
15.2760844029
 20
11.65481489
 30
0.0
 10
15.2874436488
 20
11.6236224775
 30
0.0
 10
15.2992028785
 20
11.5934236586
 30
0.0
 10
15.3113489465
 20
11.5642521755
 30
0.0
 10
15.3238682855
 20
11.5361406042
 30
0.0
 10
15.3367469222
 20
11.5091203151
 30
0.0
 10
15.3499705069
 20
11.4832214421
 30
0.0
 10
15.3635243322
 20
11.4584728519
 30
0.0
 10
15.3773933571
 20
11.4349021126
 30
0.0
 10
15.3915622353
 20
11.4125354658
 30
0.0
 10
15.4060153322
 20
11.3913977947
 30
0.0
 10
15.4207367604
 20
11.3715126097
 30
0.0
 10
15.4357104118
 20
11.3529020405
 30
0.0
 10
15.4509199845
 20
11.3355868331
 30
0.0
 10
15.4663490109
 20
11.319586355
 30
0.0
 10
15.4819808754
 20
11.304918608
 30
0.0
 10
15.49779882
 20
11.2916002454
 30
0.0
 10
15.5137859296
 20
11.2796466229
 30
0.0
 10
15.5299251482
 20
11.2690718242
 30
0.0
 10
15.5461990146
 20
11.2598887374
 30
0.0
 10
15.5625902616
 20
11.2521088886
 30
0.0
 10
15.5790791869
 20
11.2457429808
 30
0.0
 10
15.5902327811
 20
11.2424154934
 30
0.0
 10
15.5958035185
 20
11.2410006287
 30
0.0
  0
SPLINE
  5
2C5
100
AcDbEntity
  8
LAYER_FEATURE
100
AcDbSpline
 62
7
  6
CONTINUOUS
 70
0
 71
3
 72
68
 73
64
 74
0
 42
0.0000001
 43
0.0000001
 44
0.0000000001
 40
0.0
 40
0.0
 40
0.0
 40
0.0
 40
0.0163580858
 40
0.0330510049
 40
0.0500641651
 40
0.0673825756
 40
0.0849903746
 40
0.1028711641
 40
0.1210079486
 40
0.1393832211
 40
0.1579789974
 40
0.176776863
 40
0.1957580148
 40
0.2149033029
 40
0.2536072195
 40
0.2927309867
 40
0.3321129044
 40
0.3715894139
 40
0.4109962794
 40
0.450169764
 40
0.4889478082
 40
0.5081391481
 40
0.5271722354
 40
0.5460278227
 40
0.5646869974
 40
0.5831312226
 40
0.6013423791
 40
0.6193028086
 40
0.6369953594
 40
0.6544034334
 40
0.6715110358
 40
0.6883028277
 40
0.7047641825
 40
0.7208812464
 40
0.7366410033
 40
0.7520313453
 40
0.767041151
 40
0.7816603709
 40
0.7958801233
 40
0.8096928013
 40
0.8230921932
 40
0.836073619
 40
0.8486340848
 40
0.8607724581
 40
0.8724896662
 40
0.8837889208
 40
0.8946759706
 40
0.9051593824
 40
0.9152508473
 40
0.9249655082
 40
0.9343222939
 40
0.9433442428
 40
0.9520587819
 40
0.9604979211
 40
0.9686983093
 40
0.9727225116
 40
0.9767028171
 40
0.9806450085
 40
0.9845550798
 40
0.9884392169
 40
0.9923037608
 40
0.9961551735
 40
1.0
 40
1.0
 40
1.0
 40
1.0
 10
15.1605856513
 20
13.4447739702
 30
0.0
 10
15.1562943827
 20
13.43088742
 30
0.0
 10
15.1479112606
 20
13.4027405176
 30
0.0
 10
15.1360444652
 20
13.3598669436
 30
0.0
 10
15.1247690658
 20
13.3159525066
 30
0.0
 10
15.1140989545
 20
13.2710513289
 30
0.0
 10
15.1040472108
 20
13.2252182487
 30
0.0
 10
15.0946261716
 20
13.178509473
 30
0.0
 10
15.0858474037
 20
13.130982207
 30
0.0
 10
15.0777216841
 20
13.0826946965
 30
0.0
 10
15.0702589873
 20
13.033706106
 30
0.0
 10
15.0634684898
 20
12.9840765072
 30
0.0
 10
15.057358481
 20
12.933866611
 30
0.0
 10
15.0501033864
 20
12.8659859209
 30
0.0
 10
15.0428008658
 20
12.7801207892
 30
0.0
 10
15.0368826278
 20
12.6761330319
 30
0.0
 10
15.0338072315
 20
12.5713354196
 30
0.0
 10
15.0335898162
 20
12.4662416357
 30
0.0
 10
15.0362314502
 20
12.3613658556
 30
0.0
 10
15.0417191351
 20
12.2572221459
 30
0.0
 10
15.0486649171
 20
12.1711760508
 30
0.0
 10
15.055637184
 20
12.1031120149
 30
0.0
 10
15.0615387978
 20
12.0527379137
 30
0.0
 10
15.0681232713
 20
12.0029254737
 30
0.0
 10
15.0753825655
 20
11.9537356306
 30
0.0
 10
15.0833077538
 20
11.9052287034
 30
0.0
 10
15.0918891088
 20
11.8574641294
 30
0.0
 10
15.1011160939
 20
11.8105004406
 30
0.0
 10
15.1109773827
 20
11.7643951782
 30
0.0
 10
15.1214608714
 20
11.7192048246
 30
0.0
 10
15.132553695
 20
11.6749847323
 30
0.0
 10
15.1442422434
 20
11.6317890554
 30
0.0
 10
15.1565121802
 20
11.5896706809
 30
0.0
 10
15.1693484588
 20
11.5486811621
 30
0.0
 10
15.1827353453
 20
11.5088706542
 30
0.0
 10
15.1966564399
 20
11.4702878517
 30
0.0
 10
15.2110946998
 20
11.4329799275
 30
0.0
 10
15.2260324645
 20
11.3969924729
 30
0.0
 10
15.2414514817
 20
11.362369441
 30
0.0
 10
15.2573329363
 20
11.3291530914
 30
0.0
 10
15.2736574812
 20
11.2973839379
 30
0.0
 10
15.2904052713
 20
11.2671006996
 30
0.0
 10
15.3075559977
 20
11.2383402547
 30
0.0
 10
15.3250889283
 20
11.2111376012
 30
0.0
 10
15.3429829501
 20
11.1855258258
 30
0.0
 10
15.3612166135
 20
11.1615360801
 30
0.0
 10
15.3797681778
 20
11.1391975677
 30
0.0
 10
15.3986156534
 20
11.1185375459
 30
0.0
 10
15.417736842
 20
11.0995813436
 30
0.0
 10
15.4371093487
 20
11.0823523999
 30
0.0
 10
15.4567106204
 20
11.0668723082
 30
0.0
 10
15.476517768
 20
11.053160914
 30
0.0
 10
15.4965079652
 20
11.041236243
 30
0.0
 10
15.5166565786
 20
11.0311149856
 30
0.0
 10
15.5336677935
 20
11.0241515581
 30
0.0
 10
15.5473051501
 20
11.0195217637
 30
0.0
 10
15.5574926347
 20
11.0165285298
 30
0.0
 10
15.5676993264
 20
11.0139940996
 30
0.0
 10
15.5779222284
 20
11.0119193009
 30
0.0
 10
15.5881580593
 20
11.0103048219
 30
0.0
 10
15.5984036853
 20
11.0091512201
 30
0.0
 10
15.6086555941
 20
11.0084589173
 30
0.0
 10
15.6154948509
 20
11.008304991
 30
0.0
 10
15.6189110559
 20
11.0083049937
 30
0.0
  0
SPLINE
  5
2C6
100
AcDbEntity
  8
02___PRT_ALL_AXES
100
AcDbSpline
 62
7
  6
CONTINUOUS
 70
0
 71
3
 72
39
 73
35
 74
0
 42
0.0000001
 43
0.0000001
 44
0.0000000001
 40
0.0
 40
0.0
 40
0.0
 40
0.0
 40
0.0215633114
 40
0.042731376
 40
0.0636495804
 40
0.0844698903
 40
0.1053469298
 40
0.1264337765
 40
0.1478779232
 40
0.1698178156
 40
0.1923802405
 40
0.2156786613
 40
0.2398124438
 40
0.2648668107
 40
0.2909133254
 40
0.3180107147
 40
0.3462058711
 40
0.3755349168
 40
0.4060242534
 40
0.4376915498
 40
0.470546646
 40
0.5045923631
 40
0.5398252217
 40
0.5762360729
 40
0.6138106521
 40
0.6525300631
 40
0.6923712057
 40
0.733307151
 40
0.7753074735
 40
0.8183385476
 40
0.8623638123
 40
0.9073440111
 40
0.9532374104
 40
1.0
 40
1.0
 40
1.0
 40
1.0
 10
15.6008020122
 20
13.7820538425
 30
0.0
 10
15.6067531754
 20
13.7840915489
 30
0.0
 10
15.6187242534
 20
13.7876335257
 30
0.0
 10
15.6369517583
 20
13.7912971309
 30
0.0
 10
15.6552257553
 20
13.7932459087
 30
0.0
 10
15.6735170672
 20
13.7934753389
 30
0.0
 10
15.6917982394
 20
13.7919850892
 30
0.0
 10
15.7100414809
 20
13.7887781858
 30
0.0
 10
15.7282198939
 20
13.7838609979
 30
0.0
 10
15.7463076074
 20
13.7772427402
 30
0.0
 10
15.764279903
 20
13.7689350143
 30
0.0
 10
15.7821130766
 20
13.7589514179
 30
0.0
 10
15.7997842182
 20
13.7473073083
 30
0.0
 10
15.8172709756
 20
13.7340197074
 30
0.0
 10
15.8345513674
 20
13.7191073105
 30
0.0
 10
15.8516036592
 20
13.7025905445
 30
0.0
 10
15.8684063041
 20
13.6844916418
 30
0.0
 10
15.88493793
 20
13.6648347077
 30
0.0
 10
15.9011773598
 20
13.6436457682
 30
0.0
 10
15.9171036489
 20
13.620952796
 30
0.0
 10
15.9326961312
 20
13.5967857177
 30
0.0
 10
15.9479344689
 20
13.5711764031
 30
0.0
 10
15.9627986994
 20
13.5441586423
 30
0.0
 10
15.9772692816
 20
13.5157681126
 30
0.0
 10
15.9913271371
 20
13.4860423373
 30
0.0
 10
16.0049536906
 20
13.4550206394
 30
0.0
 10
16.0181309038
 20
13.4227440893
 30
0.0
 10
16.030841308
 20
13.3892554486
 30
0.0
 10
16.0430680341
 20
13.3545991134
 30
0.0
 10
16.0547948414
 20
13.3188210489
 30
0.0
 10
16.0660061385
 20
13.2819687438
 30
0.0
 10
16.0766870244
 20
13.2440910768
 30
0.0
 10
16.0868232473
 20
13.2052385165
 30
0.0
 10
16.0931514614
 20
13.1789586652
 30
0.0
 10
16.0962250917
 20
13.1656680628
 30
0.0
  0
SPLINE
  5
2C7
100
AcDbEntity
  8
02___PRT_ALL_AXES
100
AcDbSpline
 62
7
  6
CONTINUOUS
 70
0
 71
3
 72
11
 73
7
 74
0
 42
0.0000001
 43
0.0000001
 44
0.0000000001
 40
0.0
 40
0.0
 40
0.0
 40
0.0
 40
0.2567641143
 40
0.5091532275
 40
0.7569655162
 40
1.0
 40
1.0
 40
1.0
 40
1.0
 10
16.096053287
 20
11.8551996066
 30
0.0
 10
16.0932210009
 20
11.8429713503
 30
0.0
 10
16.0874027602
 20
11.8187693979
 30
0.0
 10
16.0781300313
 20
11.7829436606
 30
0.0
 10
16.0683948169
 20
11.7479369092
 30
0.0
 10
16.0615351026
 20
11.7249413721
 30
0.0
 10
16.0580273278
 20
11.7135902086
 30
0.0
  0
SPLINE
  5
2C8
100
AcDbEntity
  8
02___PRT_ALL_AXES
100
AcDbSpline
 62
7
  6
CONTINUOUS
 70
0
 71
3
 72
22
 73
18
 74
0
 42
0.0000001
 43
0.0000001
 44
0.0000000001
 40
0.0
 40
0.0
 40
0.0
 40
0.0
 40
0.0543139459
 40
0.1088532194
 40
0.1638397136
 40
0.2194886612
 40
0.276005797
 40
0.3335850349
 40
0.3924067221
 40
0.4526364741
 40
0.514424542
 40
0.5779056552
 40
0.7103731966
 40
0.7795913338
 40
0.8508940617
 40
0.9243459633
 40
1.0
 40
1.0
 40
1.0
 40
1.0
 10
15.8220099113
 20
13.4508049916
 30
0.0
 10
15.8253405304
 20
13.4508049891
 30
0.0
 10
15.8320179334
 20
13.450570615
 30
0.0
 10
15.842017187
 20
13.4495169751
 30
0.0
 10
15.8520009031
 20
13.4477620457
 30
0.0
 10
15.8619605488
 20
13.4453074914
 30
0.0
 10
15.8718885574
 20
13.4421555812
 30
0.0
 10
15.8817772892
 20
13.4383091415
 30
0.0
 10
15.8916193448
 20
13.4337714961
 30
0.0
 10
15.9014073582
 20
13.4285465002
 30
0.0
 10
15.9111344453
 20
13.4226382564
 30
0.0
 10
15.9241969332
 20
13.4137304876
 30
0.0
 10
15.9369223145
 20
13.4035615383
 30
0.0
 10
15.9492900965
 20
13.3922755547
 30
0.0
 10
15.9586071229
 20
13.3830308556
 30
0.0
 10
15.9678211361
 20
13.3731383719
 30
0.0
 10
15.9738019286
 20
13.3662191794
 30
0.0
 10
15.9767747392
 20
13.3626576021
 30
0.0
  0
SPLINE
  5
2C9
100
AcDbEntity
  8
02___PRT_ALL_AXES
100
AcDbSpline
 62
7
  6
CONTINUOUS
 70
0
 71
3
 72
45
 73
41
 74
0
 42
0.0000001
 43
0.0000001
 44
0.0000000001
 40
0.0
 40
0.0
 40
0.0
 40
0.0
 40
0.0099899769
 40
0.0202817441
 40
0.0308784042
 40
0.041781871
 40
0.0529929656
 40
0.0645115043
 40
0.0763363779
 40
0.088465623
 40
0.100896487
 40
0.1136254878
 40
0.1266484665
 40
0.1399606355
 40
0.167429321
 40
0.1959835393
 40
0.2255663035
 40
0.2561139432
 40
0.2875569183
 40
0.3198205408
 40
0.3528256273
 40
0.3864890875
 40
0.4207244724
 40
0.4554424972
 40
0.4905515334
 40
0.5259580847
 40
0.5615672539
 40
0.597283198
 40
0.6330095777
 40
0.6686500057
 40
0.7041084932
 40
0.7392898995
 40
0.7741003875
 40
0.8084478836
 40
0.8422425533
 40
0.8753972933
 40
0.9078282403
 40
0.9394553119
 40
0.9702027821
 40
1.0
 40
1.0
 40
1.0
 40
1.0
 10
16.0006018928
 20
13.3341114799
 30
0.0
 10
16.0036617181
 20
13.3304456559
 30
0.0
 10
16.0097375907
 20
13.3228886024
 30
0.0
 10
16.0185899754
 20
13.3110756233
 30
0.0
 10
16.0273089149
 20
13.2986268385
 30
0.0
 10
16.0358874084
 20
13.2855522989
 30
0.0
 10
16.0443187645
 20
13.2718622905
 30
0.0
 10
16.0525963329
 20
13.2575676602
 30
0.0
 10
16.0607135889
 20
13.2426797164
 30
0.0
 10
16.0686641199
 20
13.2272102495
 30
0.0
 10
16.0764416429
 20
13.2111715104
 30
0.0
 10
16.0840399854
 20
13.1945762215
 30
0.0
 10
16.0914531841
 20
13.1774374905
 30
0.0
 10
16.1011841547
 20
13.1536308157
 30
0.0
 10
16.1128222492
 20
13.1225916324
 30
0.0
 10
16.1258162903
 20
13.0837836545
 30
0.0
 10
16.1379396715
 20
13.0431570986
 30
0.0
 10
16.1491537844
 20
13.0008409424
 30
0.0
 10
16.1594229737
 20
12.9569690337
 30
0.0
 10
16.1687145323
 20
12.9116804467
 30
0.0
 10
16.1769988482
 20
12.8651187901
 30
0.0
 10
16.1842495045
 20
12.8174318009
 30
0.0
 10
16.1904433816
 20
12.7687708444
 30
0.0
 10
16.1955607196
 20
12.7192904244
 30
0.0
 10
16.1995851875
 20
12.6691476821
 30
0.0
 10
16.2025039487
 20
12.61850189
 30
0.0
 10
16.2043076901
 20
12.5675139376
 30
0.0
 10
16.204990651
 20
12.5163458134
 30
0.0
 10
16.2045506553
 20
12.4651600852
 30
0.0
 10
16.202989109
 20
12.4141193771
 30
0.0
 10
16.2003109907
 20
12.3633858476
 30
0.0
 10
16.1965248475
 20
12.3131206678
 30
0.0
 10
16.1916427638
 20
12.2634835036
 30
0.0
 10
16.1856803123
 20
12.2146320004
 30
0.0
 10
16.178656514
 20
12.1667212794
 30
0.0
 10
16.1705937723
 20
12.1199034132
 30
0.0
 10
16.1615178082
 20
12.0743270126
 30
0.0
 10
16.1514574974
 20
12.0301364656
 30
0.0
 10
16.1404450672
 20
11.9874724347
 30
0.0
 10
16.1323589293
 20
11.9596799185
 30
0.0
 10
16.1281538685
 20
11.9460723367
 30
0.0
  0
SPLINE
  5
2CA
100
AcDbEntity
  8
02___PRT_ALL_AXES
100
AcDbSpline
 62
7
  6
CONTINUOUS
 70
0
 71
3
 72
22
 73
18
 74
0
 42
0.0000001
 43
0.0000001
 44
0.0000000001
 40
0.0
 40
0.0
 40
0.0
 40
0.0
 40
0.0543139468
 40
0.1088532203
 40
0.1638397129
 40
0.2194886588
 40
0.2760057962
 40
0.3335850396
 40
0.3924067309
 40
0.4526364805
 40
0.5144245425
 40
0.5779056525
 40
0.7103732078
 40
0.7795913485
 40
0.8508940709
 40
0.924345965
 40
1.0
 40
1.0
 40
1.0
 40
1.0
 10
15.8220099113
 20
11.5708049942
 30
0.0
 10
15.8253405304
 20
11.5708049918
 30
0.0
 10
15.8320179333
 20
11.5710393769
 30
0.0
 10
15.8420171867
 20
11.5720930125
 30
0.0
 10
15.8520009031
 20
11.5738479399
 30
0.0
 10
15.8619605492
 20
11.5763024912
 30
0.0
 10
15.8718885579
 20
11.5794544023
 30
0.0
 10
15.8817772891
 20
11.5833008454
 30
0.0
 10
15.8916193439
 20
11.5878384929
 30
0.0
 10
15.9014073577
 20
11.5930634872
 30
0.0
 10
15.9111344456
 20
11.5989717282
 30
0.0
 10
15.924196935
 20
11.607879495
 30
0.0
 10
15.9369223139
 20
11.6180484488
 30
0.0
 10
15.9492900954
 20
11.6293344337
 30
0.0
 10
15.9586071225
 20
11.638579131
 30
0.0
 10
15.9678211372
 20
11.6484716119
 30
0.0
 10
15.9738019284
 20
11.6553908046
 30
0.0
 10
15.9767747396
 20
11.6589523812
 30
0.0
  0
SPLINE
  5
2CB
100
AcDbEntity
  8
02___PRT_ALL_AXES
100
AcDbSpline
 62
7
  6
CONTINUOUS
 70
0
 71
3
 72
22
 73
18
 74
0
 42
0.0000001
 43
0.0000001
 44
0.0000000001
 40
0.0
 40
0.0
 40
0.0
 40
0.0
 40
0.050737946
 40
0.1030499862
 40
0.1569524707
 40
0.212455238
 40
0.2695621568
 40
0.3282716175
 40
0.3885769762
 40
0.4504669554
 40
0.5139260034
 40
0.5789346164
 40
0.6454696385
 40
0.713504491
 40
0.7830095556
 40
0.8539519388
 40
1.0
 40
1.0
 40
1.0
 40
1.0
 10
16.0006018927
 20
11.6874985065
 30
0.0
 10
16.0037457619
 20
11.6912650221
 30
0.0
 10
16.0099872016
 20
11.6990360054
 30
0.0
 10
16.0190734265
 20
11.7111956346
 30
0.0
 10
16.0280184782
 20
11.724025333
 30
0.0
 10
16.0368147833
 20
11.737514179
 30
0.0
 10
16.0454551085
 20
11.7516509809
 30
0.0
 10
16.0539322673
 20
11.7664239259
 30
0.0
 10
16.0622392138
 20
11.7818206881
 30
0.0
 10
16.0703690267
 20
11.7978284095
 30
0.0
 10
16.0783149246
 20
11.8144337183
 30
0.0
 10
16.086070271
 20
11.8316227343
 30
0.0
 10
16.0936285864
 20
11.8493810907
 30
0.0
 10
16.100983535
 20
11.86769391
 30
0.0
 10
16.1081290164
 20
11.8865459638
 30
0.0
 10
16.1174590181
 20
11.9126318868
 30
0.0
 10
16.1239842915
 20
11.9325795808
 30
0.0
 10
16.1281538685
 20
11.9460723367
 30
0.0
  0
SPLINE
  5
2CC
100
AcDbEntity
  8
LAYER_FEATURE
100
AcDbSpline
 62
7
  6
CONTINUOUS
 70
0
 71
3
 72
39
 73
35
 74
0
 42
0.0000001
 43
0.0000001
 44
0.0000000001
 40
0.0
 40
0.0
 40
0.0
 40
0.0
 40
0.0443813067
 40
0.0879669132
 40
0.1307335
 40
0.1726618866
 40
0.2137331556
 40
0.2539301966
 40
0.2932376985
 40
0.3316421098
 40
0.369131909
 40
0.4056977074
 40
0.4413324012
 40
0.4760313905
 40
0.5097927922
 40
0.5426176374
 40
0.5745101304
 40
0.6054779621
 40
0.6355325877
 40
0.6646895438
 40
0.692968828
 40
0.7203952814
 40
0.7469989433
 40
0.7728154398
 40
0.7978863773
 40
0.8222596396
 40
0.8459896209
 40
0.8691373705
 40
0.8917705686
 40
0.9139632732
 40
0.9357954514
 40
0.9573522573
 40
0.9787230195
 40
1.0
 40
1.0
 40
1.0
 40
1.0
 10
15.1605856513
 20
13.4447739702
 30
0.0
 10
15.1639655529
 20
13.4557113359
 30
0.0
 10
15.1708398982
 20
13.4773363583
 30
0.0
 10
15.181596907
 20
13.5092976235
 30
0.0
 10
15.1926995707
 20
13.5404698235
 30
0.0
 10
15.2041389527
 20
13.5708280245
 30
0.0
 10
15.2159061184
 20
13.6003484693
 30
0.0
 10
15.2279917462
 20
13.6290078146
 30
0.0
 10
15.2403862977
 20
13.6567834589
 30
0.0
 10
15.2530800244
 20
13.683653501
 30
0.0
 10
15.2660629126
 20
13.7095967671
 30
0.0
 10
15.2793247418
 20
13.7345928237
 30
0.0
 10
15.2928551011
 20
13.7586219782
 30
0.0
 10
15.3066433746
 20
13.7816653122
 30
0.0
 10
15.3206787461
 20
13.8037047028
 30
0.0
 10
15.3349502421
 20
13.8247228103
 30
0.0
 10
15.3494467436
 20
13.8447030879
 30
0.0
 10
15.3641569568
 20
13.8636298246
 30
0.0
 10
15.3790694605
 20
13.8814881266
 30
0.0
 10
15.3941727291
 20
13.8982639038
 30
0.0
 10
15.4094551203
 20
13.9139438934
 30
0.0
 10
15.4249048721
 20
13.9285156731
 30
0.0
 10
15.4405101425
 20
13.9419676159
 30
0.0
 10
15.456259007
 20
13.9542888763
 30
0.0
 10
15.4721394113
 20
13.9654694338
 30
0.0
 10
15.4881391881
 20
13.9755000478
 30
0.0
 10
15.5042460376
 20
13.9843722278
 30
0.0
 10
15.5204474758
 20
13.9920782696
 30
0.0
 10
15.5367307733
 20
13.99861131
 30
0.0
 10
15.5530829812
 20
14.0039653087
 30
0.0
 10
15.5694907556
 20
14.0081351089
 30
0.0
 10
15.585940831
 20
14.0111165964
 30
0.0
 10
15.6024182323
 20
14.0129067508
 30
0.0
 10
15.6134228811
 20
14.0133049876
 30
0.0
 10
15.6189110559
 20
14.0133049921
 30
0.0
  0
SPLINE
  5
2CD
100
AcDbEntity
  8
LAYER_FEATURE
100
AcDbSpline
 62
7
  6
CONTINUOUS
 70
0
 71
3
 72
67
 73
63
 74
0
 42
0.0000001
 43
0.0000001
 44
0.0000000001
 40
0.0
 40
0.0
 40
0.0
 40
0.0
 40
0.0163581013
 40
0.0330510694
 40
0.0500642491
 40
0.0673826926
 40
0.0849905208
 40
0.1028713409
 40
0.1210081566
 40
0.1393834611
 40
0.15797927
 40
0.1767771682
 40
0.1957583526
 40
0.2149036734
 40
0.2536076561
 40
0.292731491
 40
0.3321134768
 40
0.371590054
 40
0.4109969877
 40
0.45017054
 40
0.4889486503
 40
0.5081400228
 40
0.5271731428
 40
0.546028763
 40
0.5646879707
 40
0.5831322282
 40
0.601343416
 40
0.6193038759
 40
0.6369964566
 40
0.65440456
 40
0.6715121917
 40
0.6883040129
 40
0.7047653969
 40
0.720882489
 40
0.7366422729
 40
0.7520326412
 40
0.7670424724
 40
0.7816617173
 40
0.7958814943
 40
0.8096941963
 40
0.8230936114
 40
0.8360750592
 40
0.8486355463
 40
0.8607739405
 40
0.872491169
 40
0.8837904436
 40
0.8946775128
 40
0.905160943
 40
0.9152524249
 40
0.9249671014
 40
0.9343239024
 40
0.9433458667
 40
0.9520604213
 40
0.9604995757
 40
0.9686999787
 40
0.9767027777
 40
0.9806449746
 40
0.9845550535
 40
0.9884391969
 40
0.9923037475
 40
0.9961551669
 40
1.0
 40
1.0
 40
1.0
 40
1.0
 10
14.8225611727
 20
13.4447739702
 30
0.0
 10
14.8182699075
 20
13.4308874307
 30
0.0
 10
14.8098867852
 20
13.4027405214
 30
0.0
 10
14.7980199874
 20
13.3598669503
 30
0.0
 10
14.7867445882
 20
13.3159525007
 30
0.0
 10
14.7760744764
 20
13.2710513303
 30
0.0
 10
14.7660227322
 20
13.2252182485
 30
0.0
 10
14.756601692
 20
13.1785094743
 30
0.0
 10
14.7478229234
 20
13.1309822083
 30
0.0
 10
14.7396972047
 20
13.0826946969
 30
0.0
 10
14.7322345101
 20
13.033706105
 30
0.0
 10
14.7254440139
 20
12.9840765054
 30
0.0
 10
14.7193340051
 20
12.9338666095
 30
0.0
 10
14.7120789089
 20
12.8659859204
 30
0.0
 10
14.7047763841
 20
12.7801207897
 30
0.0
 10
14.6988581461
 20
12.6761330324
 30
0.0
 10
14.6957827576
 20
12.5713354196
 30
0.0
 10
14.6955653413
 20
12.4662416357
 30
0.0
 10
14.6982069682
 20
12.3613658552
 30
0.0
 10
14.7036946528
 20
12.2572221455
 30
0.0
 10
14.7106404405
 20
12.1711760517
 30
0.0
 10
14.7176127094
 20
12.1031120172
 30
0.0
 10
14.7235143228
 20
12.0527379161
 30
0.0
 10
14.7300987939
 20
12.0029254747
 30
0.0
 10
14.7373580852
 20
11.9537356295
 30
0.0
 10
14.7452832721
 20
11.905228701
 30
0.0
 10
14.753864628
 20
11.8574641272
 30
0.0
 10
14.7630916148
 20
11.8105004399
 30
0.0
 10
14.7729529053
 20
11.7643951794
 30
0.0
 10
14.783436395
 20
11.7192048273
 30
0.0
 10
14.7945292187
 20
11.6749847354
 30
0.0
 10
14.8062177663
 20
11.6317890573
 30
0.0
 10
14.818487701
 20
11.5896706807
 30
0.0
 10
14.8313239788
 20
11.5486811605
 30
0.0
 10
14.8447108659
 20
11.5088706528
 30
0.0
 10
14.8586319612
 20
11.4702878514
 30
0.0
 10
14.8730702217
 20
11.4329799281
 30
0.0
 10
14.8880079866
 20
11.396992474
 30
0.0
 10
14.9034270035
 20
11.3623694419
 30
0.0
 10
14.9193084576
 20
11.3291530917
 30
0.0
 10
14.9356330022
 20
11.2973839381
 30
0.0
 10
14.952380793
 20
11.2671007007
 30
0.0
 10
14.9695315199
 20
11.2383402568
 30
0.0
 10
14.9870644506
 20
11.2111376035
 30
0.0
 10
15.004958472
 20
11.1855258273
 30
0.0
 10
15.0231921349
 20
11.1615360795
 30
0.0
 10
15.0417436983
 20
11.1391975648
 30
0.0
 10
15.0605911737
 20
11.1185375417
 30
0.0
 10
15.0797123611
 20
11.0995813414
 30
0.0
 10
15.0990848751
 20
11.0823524016
 30
0.0
 10
15.1186861289
 20
11.0668723185
 30
0.0
 10
15.138493342
 20
11.0531609087
 30
0.0
 10
15.1584833053
 20
11.0412362917
 30
0.0
 10
15.178632748
 20
11.0311148273
 30
0.0
 10
15.1989163219
 20
11.022811383
 30
0.0
 10
15.215998865
 20
11.0173898451
 30
0.0
 10
15.2296747639
 20
11.0139941622
 30
0.0
 10
15.2398977701
 20
11.0119192747
 30
0.0
 10
15.2501335759
 20
11.0103048325
 30
0.0
 10
15.2603792083
 20
11.0091512222
 30
0.0
 10
15.2706311147
 20
11.0084589055
 30
0.0
 10
15.2774703724
 20
11.0083050047
 30
0.0
 10
15.2808865774
 20
11.0083050013
 30
0.0
  0
LINE
  5
2CE
100
AcDbEntity
  8
02___PRT_ALL_AXES
100
AcDbLine
 62
7
  6
CONTINUOUS
 10
15.8388025583
 20
13.1975883739
 11
15.7599649408
 21
13.1916321897
  0
SPLINE
  5
2CF
100
AcDbEntity
  8
02___PRT_ALL_AXES
100
AcDbSpline
 62
7
  6
CONTINUOUS
 70
0
 71
3
 72
34
 73
30
 74
0
 42
0.0000001
 43
0.0000001
 44
0.0000000001
 40
0.0
 40
0.0
 40
0.0
 40
0.0
 40
0.0746186072
 40
0.1494976381
 40
0.2241884002
 40
0.2982438448
 40
0.3712235684
 40
0.4071768008
 40
0.4427014173
 40
0.4777463766
 40
0.5122619751
 40
0.5462000182
 40
0.5795139985
 40
0.6121592855
 40
0.6440933293
 40
0.6752758754
 40
0.7056691992
 40
0.7352383641
 40
0.763951508
 40
0.791780165
 40
0.8186996289
 40
0.8446893711
 40
0.8697335219
 40
0.8938214287
 40
0.9169482817
 40
0.9391159381
 40
0.9603335731
 40
0.9806192583
 40
1.0
 40
1.0
 40
1.0
 40
1.0
 10
15.5856601105
 20
12.4196851727
 30
0.0
 10
15.5846616499
 20
12.4388597598
 30
0.0
 10
15.5833011834
 20
12.4773120989
 30
0.0
 10
15.5831494624
 20
12.5350088916
 30
0.0
 10
15.5848800132
 20
12.5925358037
 30
0.0
 10
15.588480598
 20
12.649485994
 30
0.0
 10
15.593040329
 20
12.6963608484
 30
0.0
 10
15.5976162624
 20
12.7332510241
 30
0.0
 10
15.6014786756
 20
12.7603891444
 30
0.0
 10
15.6057815022
 20
12.7870862793
 30
0.0
 10
15.6105171712
 20
12.8132953782
 30
0.0
 10
15.615677287
 20
12.8389701444
 30
0.0
 10
15.6212527204
 20
12.8640652637
 30
0.0
 10
15.6272336058
 20
12.8885364492
 30
0.0
 10
15.6336093622
 20
12.9123405316
 30
0.0
 10
15.6403687152
 20
12.9354355346
 30
0.0
 10
15.6474997196
 20
12.9577807516
 30
0.0
 10
15.6549897831
 20
12.9793368189
 30
0.0
 10
15.6628256932
 20
13.0000657885
 30
0.0
 10
15.6709936457
 20
13.0199311971
 30
0.0
 10
15.6794792769
 20
13.038898134
 30
0.0
 10
15.6882676994
 20
13.0569333037
 30
0.0
 10
15.697343538
 20
13.0740050919
 30
0.0
 10
15.7066909755
 20
13.0900836029
 30
0.0
 10
15.7162938155
 20
13.1051407528
 30
0.0
 10
15.7261354694
 20
13.1191501548
 30
0.0
 10
15.7361992948
 20
13.1320875844
 30
0.0
 10
15.7464676233
 20
13.143929692
 30
0.0
 10
15.7535975702
 20
13.1512439307
 30
0.0
 10
15.7571934319
 20
13.1546993189
 30
0.0
  0
SPLINE
  5
2D0
100
AcDbEntity
  8
LAYER_FEATURE
100
AcDbSpline
 62
7
  6
CONTINUOUS
 70
0
 71
3
 72
39
 73
35
 74
0
 42
0.0000001
 43
0.0000001
 44
0.0000000001
 40
0.0
 40
0.0
 40
0.0
 40
0.0
 40
0.0443812481
 40
0.0879669295
 40
0.1307335086
 40
0.172661876
 40
0.2137331571
 40
0.2539301992
 40
0.2932376968
 40
0.3316421073
 40
0.369131911
 40
0.4056977099
 40
0.4413323968
 40
0.4760313903
 40
0.5097927974
 40
0.5426176342
 40
0.5745101269
 40
0.6054779669
 40
0.6355325892
 40
0.664689538
 40
0.6929688298
 40
0.7203952869
 40
0.7469989387
 40
0.7728154376
 40
0.7978863828
 40
0.8222596394
 40
0.8459896168
 40
0.869137373
 40
0.8917705712
 40
0.9139632708
 40
0.935795451
 40
0.9573522592
 40
0.9787230199
 40
1.0
 40
1.0
 40
1.0
 40
1.0
 10
14.8225611727
 20
13.4447739702
 30
0.0
 10
14.8259410699
 20
13.4557113214
 30
0.0
 10
14.8328154185
 20
13.4773363472
 30
0.0
 10
14.8435724251
 20
13.5092976154
 30
0.0
 10
14.8546750916
 20
13.5404698276
 30
0.0
 10
14.8661144768
 20
13.5708280233
 30
0.0
 10
14.8778816399
 20
13.6003484673
 30
0.0
 10
14.8899672654
 20
13.6290078161
 30
0.0
 10
14.9023618201
 20
13.6567834578
 30
0.0
 10
14.9150555486
 20
13.6836534988
 30
0.0
 10
14.9280384325
 20
13.7095967683
 30
0.0
 10
14.9413002601
 20
13.7345928252
 30
0.0
 10
14.9548306275
 20
13.7586219745
 30
0.0
 10
14.9686188968
 20
13.7816653116
 30
0.0
 10
14.9826542616
 20
13.8037047069
 30
0.0
 10
14.9969257674
 20
13.8247228068
 30
0.0
 10
15.011422269
 20
13.844703084
 30
0.0
 10
15.0261324732
 20
13.8636298292
 30
0.0
 10
15.0410449803
 20
13.8814881279
 30
0.0
 10
15.0561482576
 20
13.8982638959
 30
0.0
 10
15.0714306401
 20
13.913943895
 30
0.0
 10
15.0868803868
 20
13.9285156811
 30
0.0
 10
15.1024856704
 20
13.9419676071
 30
0.0
 10
15.1182345312
 20
13.9542888714
 30
0.0
 10
15.1341149258
 20
13.965469445
 30
0.0
 10
15.1501147108
 20
13.9755000459
 30
0.0
 10
15.1662215647
 20
13.984372215
 30
0.0
 10
15.1824229936
 20
13.9920782775
 30
0.0
 10
15.1987062922
 20
13.9986113185
 30
0.0
 10
15.2150585069
 20
14.0039652936
 30
0.0
 10
15.2314662768
 20
14.0081351066
 30
0.0
 10
15.2479163505
 20
14.0111166136
 30
0.0
 10
15.2643937549
 20
14.0129067369
 30
0.0
 10
15.2753984027
 20
14.0133049899
 30
0.0
 10
15.2808865774
 20
14.0133049845
 30
0.0
  0
SPLINE
  5
2D1
100
AcDbEntity
  8
02___PRT_ALL_AXES
100
AcDbSpline
 62
7
  6
CONTINUOUS
 70
0
 71
3
 72
46
 73
42
 74
0
 42
0.0000001
 43
0.0000001
 44
0.0000000001
 40
0.0
 40
0.0
 40
0.0
 40
0.0
 40
0.0475538314
 40
0.0938175025
 40
0.1387424939
 40
0.1822851287
 40
0.2244077392
 40
0.2650791136
 40
0.304275264
 40
0.3419802795
 40
0.3781873263
 40
0.4128998164
 40
0.4461327432
 40
0.4779142216
 40
0.5082872334
 40
0.5373115462
 40
0.5650657096
 40
0.591648996
 40
0.617183032
 40
0.6418127464
 40
0.6538436638
 40
0.6657133796
 40
0.6774461867
 40
0.6890674787
 40
0.7006035791
 40
0.7120815518
 40
0.7235289721
 40
0.7349736905
 40
0.7464435814
 40
0.7579662939
 40
0.769569007
 40
0.7812782045
 40
0.7931194764
 40
0.8051173357
 40
0.8296680523
 40
0.8551078154
 40
0.8815838194
 40
0.9092199253
 40
0.9381175061
 40
0.9683570321
 40
1.0
 40
1.0
 40
1.0
 40
1.0
 10
15.5738927968
 20
13.0755376491
 30
0.0
 10
15.5769145707
 20
13.0853161129
 30
0.0
 10
15.5831065342
 20
13.1045375917
 30
0.0
 10
15.5929847511
 20
13.132720518
 30
0.0
 10
15.6033121046
 20
13.1598205678
 30
0.0
 10
15.6140706085
 20
13.1857905306
 30
0.0
 10
15.6252416064
 20
13.2105854183
 30
0.0
 10
15.6368057611
 20
13.234162288
 30
0.0
 10
15.6487431182
 20
13.2564803691
 30
0.0
 10
15.6610331605
 20
13.2775011128
 30
0.0
 10
15.6736548731
 20
13.2971882558
 30
0.0
 10
15.6865868038
 20
13.3155078705
 30
0.0
 10
15.6998071464
 20
13.3324283844
 30
0.0
 10
15.7132938201
 20
13.347920578
 30
0.0
 10
15.7270245282
 20
13.3619575459
 30
0.0
 10
15.7409768367
 20
13.3745146412
 30
0.0
 10
15.755128032
 20
13.3855693076
 30
0.0
 10
15.7694555464
 20
13.3951010736
 30
0.0
 10
15.7839349347
 20
13.4030909237
 30
0.0
 10
15.7962055106
 20
13.4084927477
 30
0.0
 10
15.8060475308
 20
13.4120004741
 30
0.0
 10
15.8133926395
 20
13.414217665
 30
0.0
 10
15.8207546703
 20
13.4160401988
 30
0.0
 10
15.8281304833
 20
13.4174672685
 30
0.0
 10
15.8355167164
 20
13.4184981103
 30
0.0
 10
15.8429100266
 20
13.4191322248
 30
0.0
 10
15.8503070438
 20
13.4193692757
 30
0.0
 10
15.8577043881
 20
13.4192091335
 30
0.0
 10
15.8650986805
 20
13.4186518994
 30
0.0
 10
15.8724865451
 20
13.4176978422
 30
0.0
 10
15.8798646382
 20
13.4163474525
 30
0.0
 10
15.8872295909
 20
13.4146014441
 30
0.0
 10
15.8945782551
 20
13.4124605767
 30
0.0
 10
15.9044243526
 20
13.4090556646
 30
0.0
 10
15.9167024792
 20
13.4037820568
 30
0.0
 10
15.9311953813
 20
13.3959424017
 30
0.0
 10
15.9455387229
 20
13.3865591199
 30
0.0
 10
15.9597079534
 20
13.3756510674
 30
0.0
 10
15.9736805905
 20
13.3632384002
 30
0.0
 10
15.9874334434
 20
13.3493440313
 30
0.0
 10
15.9962378475
 20
13.3393398246
 30
0.0
 10
16.0006018928
 20
13.3341114799
 30
0.0
  0
SPLINE
  5
2D2
100
AcDbEntity
  8
LAYER_FEATURE
100
AcDbSpline
 62
7
  6
CONTINUOUS
 70
0
 71
3
 72
14
 73
10
 74
0
 42
0.0000001
 43
0.0000001
 44
0.0000000001
 40
0.0
 40
0.0
 40
0.0
 40
0.0
 40
0.1919853964
 40
0.3015751216
 40
0.4211018702
 40
0.550845165
 40
0.6907800095
 40
0.8406508718
 40
1.0
 40
1.0
 40
1.0
 40
1.0
 10
14.8415119851
 20
12.9132739764
 30
0.0
 10
14.8425651284
 20
12.9138222495
 30
0.0
 10
14.8440632059
 20
12.9149903065
 30
0.0
 10
14.8458083302
 20
12.9169239643
 30
0.0
 10
14.8471229779
 20
12.9187174345
 30
0.0
 10
14.8483745676
 20
12.9207759861
 30
0.0
 10
14.8495570621
 20
12.9230879064
 30
0.0
 10
14.8506624867
 20
12.9256379206
 30
0.0
 10
14.8513240632
 20
12.9274332909
 30
0.0
 10
14.8516422544
 20
12.9283659867
 30
0.0
  0
SPLINE
  5
2D3
100
AcDbEntity
  8
LAYER_FEATURE
100
AcDbSpline
 62
7
  6
CONTINUOUS
 70
0
 71
3
 72
20
 73
16
 74
0
 42
0.0000001
 43
0.0000001
 44
0.0000000001
 40
0.0
 40
0.0
 40
0.0
 40
0.0
 40
0.0370654179
 40
0.0753318297
 40
0.1158648733
 40
0.159525727
 40
0.2069315925
 40
0.258487711
 40
0.3144237845
 40
0.3748241651
 40
0.4396629816
 40
0.5088213143
 40
0.6592325347
 40
0.8239115406
 40
1.0
 40
1.0
 40
1.0
 40
1.0
 10
14.8265694106
 20
12.9133150471
 30
0.0
 10
14.8264330573
 20
12.9133150352
 30
0.0
 10
14.8261551966
 20
12.9132870252
 30
0.0
 10
14.8257451458
 20
12.9131623813
 30
0.0
 10
14.8253419114
 20
12.91295691
 30
0.0
 10
14.8249478849
 20
12.9126728976
 30
0.0
 10
14.824564776
 20
12.9123126005
 30
0.0
 10
14.8241943707
 20
12.9118783195
 30
0.0
 10
14.8238385094
 20
12.9113725917
 30
0.0
 10
14.8234990406
 20
12.9107983368
 30
0.0
 10
14.8231778622
 20
12.9101588323
 30
0.0
 10
14.8227649153
 20
12.9091969596
 30
0.0
 10
14.8223133718
 20
12.9078549064
 30
0.0
 10
14.8218842851
 20
12.9060979993
 30
0.0
 10
14.8216764513
 20
12.904860542
 30
0.0
 10
14.8215896521
 20
12.9042186035
 30
0.0
  0
SPLINE
  5
2D4
100
AcDbEntity
  8
LAYER_FEATURE
100
AcDbSpline
 62
7
  6
CONTINUOUS
 70
0
 71
3
 72
11
 73
7
 74
0
 42
0.0000001
 43
0.0000001
 44
0.0000000001
 40
0.0
 40
0.0
 40
0.0
 40
0.0
 40
0.2240050941
 40
0.4653777468
 40
0.7241605222
 40
1.0
 40
1.0
 40
1.0
 40
1.0
 10
14.8684579102
 20
13.0584052704
 30
0.0
 10
14.8688797132
 20
13.0589211381
 30
0.0
 10
14.8697047734
 20
13.0600353561
 30
0.0
 10
14.8708466428
 20
13.0618641334
 30
0.0
 10
14.8719329133
 20
13.0639027503
 30
0.0
 10
14.872595634
 20
13.0653495338
 30
0.0
 10
14.8729179902
 20
13.0661041188
 30
0.0
  0
SPLINE
  5
2D5
100
AcDbEntity
  8
LAYER_FEATURE
100
AcDbSpline
 62
7
  6
CONTINUOUS
 70
0
 71
3
 72
18
 73
14
 74
0
 42
0.0000001
 43
0.0000001
 44
0.0000000001
 40
0.0
 40
0.0
 40
0.0
 40
0.0
 40
0.0386604652
 40
0.0783618665
 40
0.1200523492
 40
0.1645130658
 40
0.2638125241
 40
0.3194885035
 40
0.3793671738
 40
0.5117425733
 40
0.6604298857
 40
0.8239005662
 40
1.0
 40
1.0
 40
1.0
 40
1.0
 10
14.8467563533
 20
13.0584418208
 30
0.0
 10
14.846632471
 20
13.058441821
 30
0.0
 10
14.8463808101
 20
13.0584188045
 30
0.0
 10
14.846008216
 20
13.0583161719
 30
0.0
 10
14.8456405145
 20
13.0581465804
 30
0.0
 10
14.8451412395
 20
13.0578211874
 30
0.0
 10
14.8446787406
 20
13.0573713335
 30
0.0
 10
14.8442526793
 20
13.0568302393
 30
0.0
 10
14.8438122278
 20
13.0561680031
 30
0.0
 10
14.8433057426
 20
13.0551966325
 30
0.0
 10
14.8427835441
 20
13.0538692332
 30
0.0
 10
14.8423378071
 20
13.0523678317
 30
0.0
 10
14.8421048947
 20
13.0513039437
 30
0.0
 10
14.8420015017
 20
13.0507492097
 30
0.0
  0
SPLINE
  5
2D6
100
AcDbEntity
  8
LAYER_FEATURE
100
AcDbSpline
 62
7
  6
CONTINUOUS
 70
0
 71
3
 72
17
 73
13
 74
0
 42
0.0000001
 43
0.0000001
 44
0.0000000001
 40
0.0
 40
0.0
 40
0.0
 40
0.0
 40
0.0405168599
 40
0.0819236411
 40
0.1703673613
 40
0.2188742982
 40
0.2707799178
 40
0.3857775389
 40
0.5166576982
 40
0.6633594316
 40
0.824977187
 40
1.0
 40
1.0
 40
1.0
 40
1.0
 10
14.8731440396
 20
13.1968519556
 30
0.0
 10
14.8730325879
 20
13.1968519508
 30
0.0
 10
14.8728068089
 20
13.1968333746
 30
0.0
 10
14.8723502234
 20
13.1967206826
 30
0.0
 10
14.8719069337
 20
13.1964940201
 30
0.0
 10
14.8714925239
 20
13.1961799282
 30
0.0
 10
14.8710595065
 20
13.1957738819
 30
0.0
 10
14.8705441797
 20
13.1951321379
 30
0.0
 10
14.8699885731
 20
13.1942033681
 30
0.0
 10
14.8694828842
 20
13.1931040146
 30
0.0
 10
14.8690347204
 20
13.1918508456
 30
0.0
 10
14.8687877426
 20
13.1909574923
 30
0.0
 10
14.86867389
 20
13.190489704
 30
0.0
  0
SPLINE
  5
2D7
100
AcDbEntity
  8
02___PRT_ALL_AXES
100
AcDbSpline
 62
7
  6
CONTINUOUS
 70
0
 71
3
 72
37
 73
33
 74
0
 42
0.0000001
 43
0.0000001
 44
0.0000000001
 40
0.0
 40
0.0
 40
0.0
 40
0.0
 40
0.087964253
 40
0.172656407
 40
0.2137279222
 40
0.2539252466
 40
0.2932330014
 40
0.3316376703
 40
0.3691277207
 40
0.405693756
 40
0.4413286861
 40
0.4760279129
 40
0.5097895391
 40
0.5426145969
 40
0.5745073042
 40
0.6054753434
 40
0.6355301637
 40
0.664687313
 40
0.6929667917
 40
0.7203934275
 40
0.7469972608
 40
0.7728139304
 40
0.7978850362
 40
0.8222584574
 40
0.8459885957
 40
0.8691365033
 40
0.891769852
 40
0.913962701
 40
0.9357950248
 40
0.9573519747
 40
0.9787228783
 40
1.0
 40
1.0
 40
1.0
 40
1.0
 10
15.5352705567
 20
13.0951183631
 30
0.0
 10
15.5394615858
 20
13.1086805384
 30
0.0
 10
15.5481137244
 20
13.135171261
 30
0.0
 10
15.5599633141
 20
13.1675701791
 30
0.0
 10
15.5698803388
 20
13.1924494816
 30
0.0
 10
15.5774414289
 20
13.2103794766
 30
0.0
 10
15.5851957532
 20
13.2277565787
 30
0.0
 10
15.5931372522
 20
13.2445671231
 30
0.0
 10
15.6012596564
 20
13.260797852
 30
0.0
 10
15.609556578
 20
13.2764359815
 30
0.0
 10
15.6180214954
 20
13.291469196
 30
0.0
 10
15.6266477658
 20
13.3058856615
 30
0.0
 10
15.6354286306
 20
13.3196740327
 30
0.0
 10
15.6443572244
 20
13.3328234611
 30
0.0
 10
15.6534265807
 20
13.345323603
 30
0.0
 10
15.662629641
 20
13.3571646241
 30
0.0
 10
15.6719592637
 20
13.3683372024
 30
0.0
 10
15.6814082313
 20
13.3788325299
 30
0.0
 10
15.6909692573
 20
13.3886423125
 30
0.0
 10
15.7006349924
 20
13.3977587674
 30
0.0
 10
15.7103980275
 20
13.4061746196
 30
0.0
 10
15.7202508923
 20
13.4138830974
 30
0.0
 10
15.7301860522
 20
13.4208779245
 30
0.0
 10
15.7401958983
 20
13.4271533128
 30
0.0
 10
15.75027273
 20
13.4327039596
 30
0.0
 10
15.7604087349
 20
13.4375250518
 30
0.0
 10
15.7705959564
 20
13.4416122786
 30
0.0
 10
15.7808262918
 20
13.4449618602
 30
0.0
 10
15.7910913873
 20
13.4475705899
 30
0.0
 10
15.8013829482
 20
13.4494358847
 30
0.0
 10
15.811691606
 20
13.4505558396
 30
0.0
 10
15.8185763777
 20
13.4508049941
 30
0.0
 10
15.8220099113
 20
13.4508049916
 30
0.0
  0
SPLINE
  5
2D8
100
AcDbEntity
  8
LAYER_FEATURE
100
AcDbSpline
 62
7
  6
CONTINUOUS
 70
0
 71
3
 72
101
 73
97
 74
0
 42
0.0000001
 43
0.0000001
 44
0.0000000001
 40
0.0
 40
0.0
 40
0.0
 40
0.0
 40
0.0178411556
 40
0.0361830484
 40
0.0549941649
 40
0.0742407246
 40
0.0938872201
 40
0.1138965098
 40
0.1342300352
 40
0.154848003
 40
0.1757095594
 40
0.1967729574
 40
0.2179957207
 40
0.2393348045
 40
0.2607467523
 40
0.282187851
 40
0.3036142849
 40
0.3249822902
 40
0.3462483081
 40
0.3673691399
 40
0.3883021044
 40
0.4090051962
 40
0.4294372472
 40
0.449558093
 40
0.4693287475
 40
0.488711583
 40
0.5076705182
 40
0.5261712207
 40
0.5441813279
 40
0.5616706878
 40
0.5786116212
 40
0.5949792201
 40
0.6029413741
 40
0.6107523059
 40
0.6184098434
 40
0.6259120607
 40
0.6332573039
 40
0.6404441912
 40
0.6474716491
 40
0.6543389264
 40
0.6610456106
 40
0.6675916713
 40
0.673977468
 40
0.6802037917
 40
0.6862718998
 40
0.6921835371
 40
0.6979409929
 40
0.7035471272
 40
0.7090054147
 40
0.7143199989
 40
0.7194957198
 40
0.724538171
 40
0.729453735
 40
0.7342496124
 40
0.7389338631
 40
0.7435154082
 40
0.7480040379
 40
0.7524103954
 40
0.7567459281
 40
0.7610228308
 40
0.7652539473
 40
0.7694526527
 40
0.7736327136
 40
0.7778081248
 40
0.7819929397
 40
0.786201094
 40
0.79044624
 40
0.7947415867
 40
0.7990997705
 40
0.8035327428
 40
0.8080516833
 40
0.8126669514
 40
0.8173880432
 40
0.8222235865
 40
0.8322658678
 40
0.8374880196
 40
0.8428507557
 40
0.8483586734
 40
0.8540156878
 40
0.8598250585
 40
0.8657894475
 40
0.8719109574
 40
0.878191161
 40
0.8846311565
 40
0.8912315843
 40
0.8979926672
 40
0.9049142455
 40
0.9119957864
 40
0.9192364285
 40
0.9266349919
 40
0.9341899989
 40
0.9418997047
 40
0.9497620925
 40
0.9659351431
 40
0.9826890352
 40
1.0
 40
1.0
 40
1.0
 40
1.0
 10
15.2122094919
 20
13.3921495386
 30
0.0
 10
15.206510702
 20
13.3737082479
 30
0.0
 10
15.1954915399
 20
13.3361397729
 30
0.0
 10
15.1802801697
 20
13.2786142749
 30
0.0
 10
15.1661844094
 20
13.2192414229
 30
0.0
 10
15.15323844
 20
13.1581643607
 30
0.0
 10
15.1414734468
 20
13.0955297584
 30
0.0
 10
15.1309178303
 20
13.0314882275
 30
0.0
 10
15.1215970584
 20
12.9661937653
 30
0.0
 10
15.1135336333
 20
12.8998034308
 30
0.0
 10
15.1067470285
 20
12.8324769421
 30
0.0
 10
15.1012536312
 20
12.7643762961
 30
0.0
 10
15.0970666992
 20
12.6956653713
 30
0.0
 10
15.0941963427
 20
12.6265095269
 30
0.0
 10
15.0926494972
 20
12.557075202
 30
0.0
 10
15.0924299028
 20
12.4875295117
 30
0.0
 10
15.0935380824
 20
12.4180398419
 30
0.0
 10
15.0959713584
 20
12.348773442
 30
0.0
 10
15.0997238568
 20
12.2798970201
 30
0.0
 10
15.1047865236
 20
12.2115763382
 30
0.0
 10
15.1111471276
 20
12.1439758071
 30
0.0
 10
15.1187903077
 20
12.0772580881
 30
0.0
 10
15.1276976107
 20
12.0115836987
 30
0.0
 10
15.1378475408
 20
11.9471106209
 30
0.0
 10
15.1492155958
 20
11.8839939112
 30
0.0
 10
15.1617743367
 20
11.8223853196
 30
0.0
 10
15.1754934647
 20
11.7624329255
 30
0.0
 10
15.1903399044
 20
11.704280755
 30
0.0
 10
15.2062778691
 20
11.6480684808
 30
0.0
 10
15.223268999
 20
11.5939308445
 30
0.0
 10
15.2412723233
 20
11.5419981305
 30
0.0
 10
15.2572258239
 20
11.5002867003
 30
0.0
 10
15.2704789395
 20
11.4681378861
 30
0.0
 10
15.2805528989
 20
11.4448752799
 30
0.0
 10
15.2908460228
 20
11.4222543613
 30
0.0
 10
15.3013522045
 20
11.400288675
 30
0.0
 10
15.3120650874
 20
11.378991416
 30
0.0
 10
15.3229782819
 20
11.358375384
 30
0.0
 10
15.3340852291
 20
11.3384529505
 30
0.0
 10
15.3453792662
 20
11.3192360669
 30
0.0
 10
15.3568536698
 20
11.3007362822
 30
0.0
 10
15.3685015453
 20
11.2829646748
 30
0.0
 10
15.3803159653
 20
11.265931917
 30
0.0
 10
15.3922898951
 20
11.2496482302
 30
0.0
 10
15.4044161845
 20
11.2341233646
 30
0.0
 10
15.4166876753
 20
11.2193666672
 30
0.0
 10
15.4290970679
 20
11.2053869828
 30
0.0
 10
15.4416370309
 20
11.1921927238
 30
0.0
 10
15.4543001907
 20
11.1797918698
 30
0.0
 10
15.4670790538
 20
11.1681918879
 30
0.0
 10
15.4799661424
 20
11.1573998617
 30
0.0
 10
15.4929538769
 20
11.1474223843
 30
0.0
 10
15.5060346169
 20
11.1382655916
 30
0.0
 10
15.519200706
 20
11.1299352439
 30
0.0
 10
15.5324443484
 20
11.122436565
 30
0.0
 10
15.5457577153
 20
11.1157744041
 30
0.0
 10
15.5591328674
 20
11.109953152
 30
0.0
 10
15.5725617283
 20
11.1049766676
 30
0.0
 10
15.5860361428
 20
11.1008484347
 30
0.0
 10
15.5995477844
 20
11.0975713221
 30
0.0
 10
15.6130882174
 20
11.0951476889
 30
0.0
 10
15.6266488917
 20
11.0935793682
 30
0.0
 10
15.6402211513
 20
11.0928674627
 30
0.0
 10
15.6537962972
 20
11.0930125634
 30
0.0
 10
15.6673656054
 20
11.0940145482
 30
0.0
 10
15.6809203925
 20
11.095872627
 30
0.0
 10
15.6944520276
 20
11.0985854848
 30
0.0
 10
15.7079520028
 20
11.1021510751
 30
0.0
 10
15.7214119201
 20
11.1065668725
 30
0.0
 10
15.7348234971
 20
11.1118298072
 30
0.0
 10
15.7481786434
 20
11.1179362507
 30
0.0
 10
15.7614692295
 20
11.1248821382
 30
0.0
 10
15.7746876953
 20
11.1326631127
 30
0.0
 10
15.7924270302
 20
11.1442896539
 30
0.0
 10
15.8097680866
 20
11.1574651991
 30
0.0
 10
15.8266812039
 20
11.1720292456
 30
0.0
 10
15.8394220875
 20
11.1839015279
 30
0.0
 10
15.8520442702
 20
11.1965717975
 30
0.0
 10
15.8645408711
 20
11.2100329418
 30
0.0
 10
15.8769043812
 20
11.2242766784
 30
0.0
 10
15.8891275236
 20
11.2392944908
 30
0.0
 10
15.9012030202
 20
11.2550773607
 30
0.0
 10
15.9131237392
 20
11.2716157945
 30
0.0
 10
15.9248825494
 20
11.2888998929
 30
0.0
 10
15.9364724588
 20
11.3069192765
 30
0.0
 10
15.9478865594
 20
11.3256631309
 30
0.0
 10
15.9591179941
 20
11.3451202274
 30
0.0
 10
15.9701600793
 20
11.3652788708
 30
0.0
 10
15.9810061762
 20
11.3861269705
 30
0.0
 10
15.9916497821
 20
11.4076520136
 30
0.0
 10
16.0020845208
 20
11.429841048
 30
0.0
 10
16.012304149
 20
11.4526808135
 30
0.0
 10
16.0257616268
 20
11.4842800778
 30
0.0
 10
16.0419796882
 20
11.525330377
 30
0.0
 10
16.0603082826
 20
11.5765060319
 30
0.0
 10
16.0716822235
 20
11.6115671819
 30
0.0
 10
16.0772116607
 20
11.6294604473
 30
0.0
  0
SPLINE
  5
2D9
100
AcDbEntity
  8
LAYER_FEATURE
100
AcDbSpline
 62
7
  6
CONTINUOUS
 70
0
 71
3
 72
68
 73
64
 74
0
 42
0.0000001
 43
0.0000001
 44
0.0000000001
 40
0.0
 40
0.0
 40
0.0
 40
0.0
 40
0.0163580858
 40
0.0330510049
 40
0.0500641651
 40
0.0673825756
 40
0.0849903746
 40
0.1028711641
 40
0.1210079486
 40
0.1393832211
 40
0.1579789974
 40
0.176776863
 40
0.1957580148
 40
0.2149033029
 40
0.2536072195
 40
0.2927309867
 40
0.3321129044
 40
0.3715894139
 40
0.4109962794
 40
0.450169764
 40
0.4889478082
 40
0.5081391481
 40
0.5271722354
 40
0.5460278227
 40
0.5646869974
 40
0.5831312226
 40
0.6013423791
 40
0.6193028086
 40
0.6369953594
 40
0.6544034334
 40
0.6715110358
 40
0.6883028277
 40
0.7047641825
 40
0.7208812464
 40
0.7366410033
 40
0.7520313453
 40
0.767041151
 40
0.7816603709
 40
0.7958801233
 40
0.8096928013
 40
0.8230921932
 40
0.836073619
 40
0.8486340848
 40
0.8607724581
 40
0.8724896662
 40
0.8837889208
 40
0.8946759706
 40
0.9051593824
 40
0.9152508473
 40
0.9249655082
 40
0.9343222939
 40
0.9433442428
 40
0.9520587819
 40
0.9604979211
 40
0.9686983093
 40
0.9727225116
 40
0.9767028171
 40
0.9806450085
 40
0.9845550798
 40
0.9884392169
 40
0.9923037608
 40
0.9961551735
 40
1.0
 40
1.0
 40
1.0
 40
1.0
 10
15.2029593633
 20
13.4447739702
 30
0.0
 10
15.1986680947
 20
13.43088742
 30
0.0
 10
15.1902849726
 20
13.4027405176
 30
0.0
 10
15.1784181772
 20
13.3598669436
 30
0.0
 10
15.1671427778
 20
13.3159525066
 30
0.0
 10
15.1564726666
 20
13.2710513289
 30
0.0
 10
15.1464209228
 20
13.2252182487
 30
0.0
 10
15.1369998836
 20
13.178509473
 30
0.0
 10
15.1282211157
 20
13.130982207
 30
0.0
 10
15.1200953961
 20
13.0826946965
 30
0.0
 10
15.1126326993
 20
13.033706106
 30
0.0
 10
15.1058422018
 20
12.9840765072
 30
0.0
 10
15.099732193
 20
12.933866611
 30
0.0
 10
15.0924770984
 20
12.8659859209
 30
0.0
 10
15.0851745778
 20
12.7801207892
 30
0.0
 10
15.0792563398
 20
12.6761330319
 30
0.0
 10
15.0761809435
 20
12.5713354196
 30
0.0
 10
15.0759635282
 20
12.4662416357
 30
0.0
 10
15.0786051622
 20
12.3613658556
 30
0.0
 10
15.0840928471
 20
12.2572221459
 30
0.0
 10
15.0910386291
 20
12.1711760508
 30
0.0
 10
15.098010896
 20
12.1031120149
 30
0.0
 10
15.1039125098
 20
12.0527379137
 30
0.0
 10
15.1104969833
 20
12.0029254737
 30
0.0
 10
15.1177562775
 20
11.9537356306
 30
0.0
 10
15.1256814659
 20
11.9052287034
 30
0.0
 10
15.1342628208
 20
11.8574641294
 30
0.0
 10
15.1434898059
 20
11.8105004406
 30
0.0
 10
15.1533510947
 20
11.7643951782
 30
0.0
 10
15.1638345834
 20
11.7192048246
 30
0.0
 10
15.174927407
 20
11.6749847323
 30
0.0
 10
15.1866159554
 20
11.6317890554
 30
0.0
 10
15.1988858922
 20
11.5896706809
 30
0.0
 10
15.2117221708
 20
11.5486811621
 30
0.0
 10
15.2251090573
 20
11.5088706542
 30
0.0
 10
15.2390301519
 20
11.4702878517
 30
0.0
 10
15.2534684118
 20
11.4329799275
 30
0.0
 10
15.2684061765
 20
11.3969924729
 30
0.0
 10
15.2838251937
 20
11.362369441
 30
0.0
 10
15.2997066483
 20
11.3291530914
 30
0.0
 10
15.3160311932
 20
11.2973839379
 30
0.0
 10
15.3327789833
 20
11.2671006996
 30
0.0
 10
15.3499297097
 20
11.2383402547
 30
0.0
 10
15.3674626403
 20
11.2111376012
 30
0.0
 10
15.3853566621
 20
11.1855258258
 30
0.0
 10
15.4035903255
 20
11.1615360801
 30
0.0
 10
15.4221418898
 20
11.1391975677
 30
0.0
 10
15.4409893654
 20
11.1185375459
 30
0.0
 10
15.460110554
 20
11.0995813436
 30
0.0
 10
15.4794830607
 20
11.0823523999
 30
0.0
 10
15.4990843324
 20
11.0668723082
 30
0.0
 10
15.51889148
 20
11.053160914
 30
0.0
 10
15.5388816772
 20
11.041236243
 30
0.0
 10
15.5590302906
 20
11.0311149856
 30
0.0
 10
15.5760415055
 20
11.0241515581
 30
0.0
 10
15.5896788621
 20
11.0195217637
 30
0.0
 10
15.5998663467
 20
11.0165285298
 30
0.0
 10
15.6100730384
 20
11.0139940996
 30
0.0
 10
15.6202959404
 20
11.0119193009
 30
0.0
 10
15.6305317713
 20
11.0103048219
 30
0.0
 10
15.6407773974
 20
11.0091512201
 30
0.0
 10
15.6510293061
 20
11.0084589173
 30
0.0
 10
15.6578685629
 20
11.008304991
 30
0.0
 10
15.6612847679
 20
11.0083049937
 30
0.0
  0
SPLINE
  5
2DA
100
AcDbEntity
  8
LAYER_FEATURE
100
AcDbSpline
 62
7
  6
CONTINUOUS
 70
0
 71
3
 72
16
 73
12
 74
0
 42
0.0000001
 43
0.0000001
 44
0.0000000001
 40
0.0
 40
0.0
 40
0.0
 40
0.0
 40
0.0426530477
 40
0.0860488065
 40
0.1775998948
 40
0.2793800045
 40
0.3942716821
 40
0.5237394487
 40
0.6681779635
 40
0.82724443
 40
1.0
 40
1.0
 40
1.0
 40
1.0
 10
14.905400629
 20
13.3268048858
 30
0.0
 10
14.9053015841
 20
13.3268048899
 30
0.0
 10
14.9051014691
 20
13.3267902806
 30
0.0
 10
14.9046974376
 20
13.326701866
 30
0.0
 10
14.9041903848
 20
13.3264733078
 30
0.0
 10
14.9036172895
 20
13.3260370434
 30
0.0
 10
14.9030710333
 20
13.3254429596
 30
0.0
 10
14.9025561718
 20
13.3246986181
 30
0.0
 10
14.9020774597
 20
13.3238126357
 30
0.0
 10
14.9016403796
 20
13.3227954587
 30
0.0
 10
14.9013898364
 20
13.3220660421
 30
0.0
 10
14.901271396
 20
13.3216827688
 30
0.0
  0
SPLINE
  5
2DB
100
AcDbEntity
  8
02___PRT_ALL_AXES
100
AcDbSpline
 62
7
  6
CONTINUOUS
 70
0
 71
3
 72
25
 73
21
 74
0
 42
0.0000001
 43
0.0000001
 44
0.0000000001
 40
0.0
 40
0.0
 40
0.0
 40
0.0
 40
0.0894529808
 40
0.1761709046
 40
0.259808937
 40
0.3400533655
 40
0.4166232736
 40
0.4892787455
 40
0.5578276849
 40
0.6221356347
 40
0.6821378766
 40
0.7378552589
 40
0.7894145401
 40
0.8370737512
 40
0.8812511853
 40
0.9225523409
 40
0.9423863936
 40
0.9618192694
 40
0.9809788823
 40
1.0
 40
1.0
 40
1.0
 40
1.0
 10
15.8388025583
 20
13.1975883739
 30
0.0
 10
15.8383961305
 20
13.1999726407
 30
0.0
 10
15.8375201844
 20
13.2046558388
 30
0.0
 10
15.8359912009
 20
13.2115136794
 30
0.0
 10
15.8342736803
 20
13.2180699259
 30
0.0
 10
15.8323766561
 20
13.2242903846
 30
0.0
 10
15.8303100184
 20
13.2301428378
 30
0.0
 10
15.8280845172
 20
13.2355970283
 30
0.0
 10
15.8257116221
 20
13.240624903
 30
0.0
 10
15.8232034079
 20
13.2452007525
 30
0.0
 10
15.820572383
 20
13.2493013395
 30
0.0
 10
15.8178312258
 20
13.2529059548
 30
0.0
 10
15.8149926356
 20
13.2559963014
 30
0.0
 10
15.8120686734
 20
13.258556204
 30
0.0
 10
15.809072222
 20
13.2605706581
 30
0.0
 10
15.8064889061
 20
13.2617993792
 30
0.0
 10
15.8044168049
 20
13.262479264
 30
0.0
 10
15.8028764248
 20
13.2628394284
 30
0.0
 10
15.801331668
 20
13.263055805
 30
0.0
 10
15.8002986862
 20
13.2631039758
 30
0.0
 10
15.7997843869
 20
13.2631039722
 30
0.0
  0
SPLINE
  5
2DC
100
AcDbEntity
  8
02___PRT_ALL_AXES
100
AcDbSpline
 62
7
  6
CONTINUOUS
 70
0
 71
3
 72
58
 73
54
 74
0
 42
0.0000001
 43
0.0000001
 44
0.0000000001
 40
0.0
 40
0.0
 40
0.0
 40
0.0
 40
0.0078997821
 40
0.0160074672
 40
0.0243557073
 40
0.0329734243
 40
0.0418858029
 40
0.0511143994
 40
0.0606773304
 40
0.0705895045
 40
0.080862874
 40
0.0915066878
 40
0.1025277332
 40
0.1139305683
 40
0.1257177324
 40
0.1378899356
 40
0.1504462286
 40
0.1633841513
 40
0.1766998673
 40
0.1903882855
 40
0.2044431662
 40
0.2188572153
 40
0.2336221672
 40
0.2487288586
 40
0.2641672994
 40
0.2799267349
 40
0.2959957032
 40
0.3123620861
 40
0.3290131556
 40
0.345935619
 40
0.3631156629
 40
0.3805389929
 40
0.416055162
 40
0.4523625636
 40
0.4893331061
 40
0.5268342573
 40
0.5647300019
 40
0.6028817821
 40
0.6411494078
 40
0.6793919535
 40
0.7174686536
 40
0.7552397934
 40
0.7925676166
 40
0.8293172372
 40
0.865357588
 40
0.8830726112
 40
0.9005634185
 40
0.9178151474
 40
0.934813366
 40
0.9515441479
 40
0.9679939464
 40
0.9841501227
 40
1.0
 40
1.0
 40
1.0
 40
1.0
 10
15.6008020126
 20
11.2395561504
 30
0.0
 10
15.5953013044
 20
11.2414396175
 30
0.0
 10
15.5843000812
 20
11.2456927579
 30
0.0
 10
15.5680874923
 20
11.2533740523
 30
0.0
 10
15.5519872728
 20
11.2624219497
 30
0.0
 10
15.5360177628
 20
11.2728249423
 30
0.0
 10
15.5201952308
 20
11.2845709185
 30
0.0
 10
15.5045361898
 20
11.2976464249
 30
0.0
 10
15.4890568415
 20
11.3120368604
 30
0.0
 10
15.473773283
 20
11.3277263826
 30
0.0
 10
15.4587014683
 20
11.3446978918
 30
0.0
 10
15.4438572167
 20
11.3629329988
 30
0.0
 10
15.429256181
 20
11.3824120023
 30
0.0
 10
15.4149138348
 20
11.4031138933
 30
0.0
 10
15.4008454447
 20
11.42501636
 30
0.0
 10
15.3870660422
 20
11.4480957983
 30
0.0
 10
15.3735904001
 20
11.4723273269
 30
0.0
 10
15.3604330001
 20
11.4976848027
 30
0.0
 10
15.3476080094
 20
11.5241408468
 30
0.0
 10
15.3351292649
 20
11.551666878
 30
0.0
 10
15.3230102503
 20
11.5802331438
 30
0.0
 10
15.3112640771
 20
11.6098087521
 30
0.0
 10
15.2999034679
 20
11.6403617022
 30
0.0
 10
15.28894073
 20
11.6718589167
 30
0.0
 10
15.2783877489
 20
11.7042662832
 30
0.0
 10
15.2682559731
 20
11.7375486937
 30
0.0
 10
15.258556399
 20
11.7716700845
 30
0.0
 10
15.2492995612
 20
11.8065934723
 30
0.0
 10
15.2404955083
 20
11.842281001
 30
0.0
 10
15.2321538139
 20
11.8786939486
 30
0.0
 10
15.2242834845
 20
11.9157929111
 30
0.0
 10
15.2143668201
 20
11.9664408454
 30
0.0
 10
15.2032316889
 20
12.031186592
 30
0.0
 10
15.191957554
 20
12.1104717972
 30
0.0
 10
15.1827368949
 20
12.1914923824
 30
0.0
 10
15.1756099363
 20
12.273896814
 30
0.0
 10
15.1706077378
 20
12.3573281676
 30
0.0
 10
15.1677521066
 20
12.4414247987
 30
0.0
 10
15.1670555165
 20
12.525822189
 30
0.0
 10
15.1685209842
 20
12.6101544782
 30
0.0
 10
15.172142125
 20
12.6940561093
 30
0.0
 10
15.1779031608
 20
12.77716337
 30
0.0
 10
15.1857789486
 20
12.8591162309
 30
0.0
 10
15.195735167
 20
12.9395590784
 30
0.0
 10
15.2057861065
 20
13.0054183133
 30
0.0
 10
15.2148511568
 20
13.057067573
 30
0.0
 10
15.2221015174
 20
13.094990974
 30
0.0
 10
15.2298341735
 20
13.1322803362
 30
0.0
 10
15.2380407719
 20
13.16889532
 30
0.0
 10
15.2467123798
 20
13.2047961218
 30
0.0
 10
15.2558395932
 20
13.2399440044
 30
0.0
 10
15.2654124612
 20
13.27430052
 30
0.0
 10
15.2721507361
 20
13.2968743298
 30
0.0
 10
15.2755949399
 20
13.3080197772
 30
0.0
  0
SPLINE
  5
2DD
100
AcDbEntity
  8
02___PRT_ALL_AXES
100
AcDbSpline
 62
7
  6
CONTINUOUS
 70
0
 71
3
 72
33
 73
29
 74
0
 42
0.0000001
 43
0.0000001
 44
0.0000000001
 40
0.0
 40
0.0
 40
0.0
 40
0.0
 40
0.0161690722
 40
0.0326006242
 40
0.0495419553
 40
0.0672133579
 40
0.0763858183
 40
0.0858075986
 40
0.1054621802
 40
0.1262992983
 40
0.148403495
 40
0.1718318447
 40
0.1966179769
 40
0.222775654
 40
0.2503016329
 40
0.2791780709
 40
0.3093747541
 40
0.3408507558
 40
0.3735556576
 40
0.4074308293
 40
0.4424104989
 40
0.5153822335
 40
0.5918375424
 40
0.67106563
 40
0.7523037817
 40
0.8347532628
 40
0.917593556
 40
1.0
 40
1.0
 40
1.0
 40
1.0
 10
15.9449595115
 20
11.7911217726
 30
0.0
 10
15.945731421
 20
11.7911217739
 30
0.0
 10
15.947289881
 20
11.7912312317
 30
0.0
 10
15.9496106664
 20
11.7917214187
 30
0.0
 10
15.9519145986
 20
11.7925350549
 30
0.0
 10
15.9537908585
 20
11.7934677608
 30
0.0
 10
15.955273422
 20
11.7943631353
 30
0.0
 10
15.9567854317
 20
11.7953882532
 30
0.0
 10
15.9586542579
 20
11.796872855
 30
0.0
 10
15.9608232116
 20
11.7989333141
 30
0.0
 10
15.9629440734
 20
11.8012912248
 30
0.0
 10
15.9650110061
 20
11.8039395159
 30
0.0
 10
15.9670184205
 20
11.8068705565
 30
0.0
 10
15.9689606901
 20
11.8100758901
 30
0.0
 10
15.9708323063
 20
11.8135462687
 30
0.0
 10
15.9726279129
 20
11.8172716352
 30
0.0
 10
15.9743423124
 20
11.821241176
 30
0.0
 10
15.9759705026
 20
11.8254433451
 30
0.0
 10
15.9775077212
 20
11.8298658727
 30
0.0
 10
15.9789495067
 20
11.8344958536
 30
0.0
 10
15.9807644251
 20
11.8410197637
 30
0.0
 10
15.9827534609
 20
11.8496006439
 30
0.0
 10
15.9846686861
 20
11.8603515802
 30
0.0
 10
15.9861219846
 20
11.8715725052
 30
0.0
 10
15.9870961166
 20
11.883131971
 30
0.0
 10
15.9875794838
 20
11.8948948528
 30
0.0
 10
15.9875663503
 20
11.9067231412
 30
0.0
 10
15.9872246295
 20
11.9146074355
 30
0.0
 10
15.9869690303
 20
11.9185331968
 30
0.0
  0
SPLINE
  5
2DE
100
AcDbEntity
  8
02___PRT_ALL_AXES
100
AcDbSpline
 62
7
  6
CONTINUOUS
 70
0
 71
3
 72
74
 73
70
 74
0
 42
0.0000001
 43
0.0000001
 44
0.0000000001
 40
0.0
 40
0.0
 40
0.0
 40
0.0
 40
0.0176375518
 40
0.0357018205
 40
0.0541704606
 40
0.0730196745
 40
0.0922245505
 40
0.1117591001
 40
0.1315963785
 40
0.1517085844
 40
0.1720671545
 40
0.1926428545
 40
0.2134058691
 40
0.2343258891
 40
0.2765123014
 40
0.3189543679
 40
0.3614002533
 40
0.4035980829
 40
0.4245266267
 40
0.4453000142
 40
0.4658879089
 40
0.4862604633
 40
0.5063884054
 40
0.5262431289
 40
0.5457967835
 40
0.5650223695
 40
0.5838938387
 40
0.6023862017
 40
0.6204756378
 40
0.6381396158
 40
0.6553570268
 40
0.6721083305
 40
0.6883757123
 40
0.7041432633
 40
0.7193971854
 40
0.7341260252
 40
0.7483209397
 40
0.7619760053
 40
0.7750885814
 40
0.787659731
 40
0.7996947041
 40
0.8112034964
 40
0.8222014828
 40
0.8327101133
 40
0.8427576387
 40
0.8523798211
 40
0.8616205342
 40
0.8705321173
 40
0.8748844331
 40
0.8791779277
 40
0.8834213938
 40
0.8876240281
 40
0.8917953682
 40
0.8959452239
 40
0.9000835954
 40
0.904220586
 40
0.9083663115
 40
0.9125308093
 40
0.9167239493
 40
0.9209553506
 40
0.92523431
 40
0.9295697351
 40
0.9384409566
 40
0.9476335117
 40
0.9572009004
 40
0.9671881378
 40
0.9776320604
 40
0.988561903
 40
1.0
 40
1.0
 40
1.0
 40
1.0
 10
15.5738927968
 20
13.0755376491
 30
0.0
 10
15.5707865067
 20
13.0654856906
 30
0.0
 10
15.5647480476
 20
13.0450607539
 30
0.0
 10
15.5563025646
 20
13.0138680639
 30
0.0
 10
15.5483719705
 20
12.9817954342
 30
0.0
 10
15.5409702319
 20
12.9488990975
 30
0.0
 10
15.5341103019
 20
12.9152364933
 30
0.0
 10
15.527804206
 20
12.8808664729
 30
0.0
 10
15.5220629959
 20
12.8458491185
 30
0.0
 10
15.5168967395
 20
12.8102456624
 30
0.0
 10
15.5123144943
 20
12.7741183582
 30
0.0
 10
15.5083243052
 20
12.7375304255
 30
0.0
 10
15.5049331212
 20
12.7005457415
 30
0.0
 10
15.5012081568
 20
12.6506536876
 30
0.0
 10
15.4980951398
 20
12.5877574451
 30
0.0
 10
15.4968254286
 20
12.5119538245
 30
0.0
 10
15.4980205663
 20
12.4361421827
 30
0.0
 10
15.5010715682
 20
12.3732287235
 30
0.0
 10
15.504747166
 20
12.32331488
 30
0.0
 10
15.5081018772
 20
12.2863082502
 30
0.0
 10
15.512055984
 20
12.2496944733
 30
0.0
 10
15.5166026008
 20
12.213537472
 30
0.0
 10
15.5217337445
 20
12.177900518
 30
0.0
 10
15.5274404185
 20
12.1428459243
 30
0.0
 10
15.5337126163
 20
12.1084349876
 30
0.0
 10
15.5405393449
 20
12.0747278672
 30
0.0
 10
15.5479086412
 20
12.0417834796
 30
0.0
 10
15.5558075898
 20
12.0096593916
 30
0.0
 10
15.5642223543
 20
11.9784117194
 30
0.0
 10
15.5731382033
 20
11.9480950292
 30
0.0
 10
15.5825395374
 20
11.9187622364
 30
0.0
 10
15.592409915
 20
11.8904645083
 30
0.0
 10
15.6027320947
 20
11.8632511743
 30
0.0
 10
15.6134880719
 20
11.837169637
 30
0.0
 10
15.6246591178
 20
11.8122652837
 30
0.0
 10
15.6362258201
 20
11.7885814023
 30
0.0
 10
15.6481681418
 20
11.7661591088
 30
0.0
 10
15.6604654776
 20
11.7450372802
 30
0.0
 10
15.6730967146
 20
11.7252524916
 30
0.0
 10
15.686040298
 20
11.7068389671
 30
0.0
 10
15.6992743148
 20
11.6898285598
 30
0.0
 10
15.7127765735
 20
11.6742507524
 30
0.0
 10
15.7265246601
 20
11.6601326908
 30
0.0
 10
15.7404960242
 20
11.6474992436
 30
0.0
 10
15.7546678366
 20
11.6363731725
 30
0.0
 10
15.7690174202
 20
11.6267751355
 30
0.0
 10
15.7835202162
 20
11.6187243225
 30
0.0
 10
15.7958121689
 20
11.6132755794
 30
0.0
 10
15.805671903
 20
11.6097334046
 30
0.0
 10
15.8130300173
 20
11.6074921558
 30
0.0
 10
15.8204052852
 20
11.6056470216
 30
0.0
 10
15.827794546
 20
11.6041988133
 30
0.0
 10
15.8351944205
 20
11.6031483078
 30
0.0
 10
15.8426015479
 20
11.602496027
 30
0.0
 10
15.8500125379
 20
11.6022423032
 30
0.0
 10
15.8574239918
 20
11.6023872866
 30
0.0
 10
15.8648325098
 20
11.6029308819
 30
0.0
 10
15.872234697
 20
11.6038728159
 30
0.0
 10
15.8796271875
 20
11.6052126178
 30
0.0
 10
15.8870065931
 20
11.6069495642
 30
0.0
 10
15.8943697476
 20
11.6090828975
 30
0.0
 10
15.9042352572
 20
11.6124797224
 30
0.0
 10
15.9165379165
 20
11.6177471847
 30
0.0
 10
15.9310598566
 20
11.625585672
 30
0.0
 10
15.945431854
 20
11.6349738111
 30
0.0
 10
15.9596292191
 20
11.6458926432
 30
0.0
 10
15.9736293468
 20
11.6583219039
 30
0.0
 10
15.987408917
 20
11.6722385602
 30
0.0
 10
15.9962297645
 20
11.6822604741
 30
0.0
 10
16.0006018927
 20
11.6874985065
 30
0.0
  0
SPLINE
  5
2DF
100
AcDbEntity
  8
02___PRT_ALL_AXES
100
AcDbSpline
 62
7
  6
CONTINUOUS
 70
0
 71
3
 72
67
 73
63
 74
0
 42
0.0000001
 43
0.0000001
 44
0.0000000001
 40
0.0
 40
0.0
 40
0.0
 40
0.0
 40
0.0039213869
 40
0.0078387564
 40
0.0117612853
 40
0.0156983018
 40
0.0196589984
 40
0.0236522926
 40
0.0317684605
 40
0.0401144709
 40
0.0487486996
 40
0.0577220375
 40
0.0670776813
 40
0.0768513251
 40
0.0870716287
 40
0.0977608203
 40
0.1089353501
 40
0.1206065288
 40
0.132781118
 40
0.1454618591
 40
0.1586479378
 40
0.1723353855
 40
0.1865174246
 40
0.2011847704
 40
0.2163258904
 40
0.231927228
 40
0.2479733981
 40
0.2644473594
 40
0.2813305658
 40
0.2986031023
 40
0.3162438119
 40
0.3342304095
 40
0.3525395871
 40
0.3711471111
 40
0.3900279154
 40
0.4091561875
 40
0.428505453
 40
0.4677568508
 40
0.5075615728
 40
0.5476919974
 40
0.5879172479
 40
0.6280055102
 40
0.6677263288
 40
0.7068529215
 40
0.7261248372
 40
0.7451660513
 40
0.7639503212
 40
0.7824520956
 40
0.800646599
 40
0.8185099233
 40
0.8360191221
 40
0.8531523095
 40
0.8698887685
 40
0.886209068
 40
0.902095191
 40
0.9175306777
 40
0.9325007894
 40
0.9469926754
 40
0.9609956267
 40
0.9745011467
 40
0.9875036664
 40
1.0
 40
1.0
 40
1.0
 40
1.0
 10
15.8431081519
 20
13.1980044512
 30
0.0
 10
15.8449443773
 20
13.1981439104
 30
0.0
 10
15.8486230337
 20
13.198326121
 30
0.0
 10
15.8541486503
 20
13.1983069277
 30
0.0
 10
15.8596729883
 20
13.1979948784
 30
0.0
 10
15.8651933599
 20
13.1973902066
 30
0.0
 10
15.8707075649
 20
13.1964930832
 30
0.0
 10
15.8780869216
 20
13.1948995778
 30
0.0
 10
15.8873113966
 20
13.1921580074
 30
0.0
 10
15.898248575
 20
13.1877231988
 30
0.0
 10
15.9090977661
 20
13.1821355046
 30
0.0
 10
15.9198402396
 20
13.1754067952
 30
0.0
 10
15.9304590474
 20
13.1675501658
 30
0.0
 10
15.9409373358
 20
13.1585800676
 30
0.0
 10
15.9512585668
 20
13.1485123397
 30
0.0
 10
15.9614063197
 20
13.1373643271
 30
0.0
 10
15.9713642978
 20
13.1251549617
 30
0.0
 10
15.9811163405
 20
13.1119048269
 30
0.0
 10
15.9906464708
 20
13.0976361911
 30
0.0
 10
15.9999389464
 20
13.0823730177
 30
0.0
 10
16.0089783138
 20
13.0661409537
 30
0.0
 10
16.0177494579
 20
13.0489673052
 30
0.0
 10
16.0262376551
 20
13.0308810027
 30
0.0
 10
16.0344286083
 20
13.011912552
 30
0.0
 10
16.042308486
 20
12.9920939819
 30
0.0
 10
16.0498639559
 20
12.9714587885
 30
0.0
 10
16.0570822151
 20
12.9500418772
 30
0.0
 10
16.0639510171
 20
12.927879501
 30
0.0
 10
16.0704586984
 20
12.9050091987
 30
0.0
 10
16.076594205
 20
12.8814697298
 30
0.0
 10
16.0823471086
 20
12.8573010041
 30
0.0
 10
16.0877076273
 20
12.8325440106
 30
0.0
 10
16.0926666426
 20
12.8072407489
 30
0.0
 10
16.0972157198
 20
12.7814341474
 30
0.0
 10
16.1013471054
 20
12.7551680253
 30
0.0
 10
16.1050538108
 20
12.728486881
 30
0.0
 10
16.1094419892
 20
12.6922479465
 30
0.0
 10
16.1138110239
 20
12.6462333518
 30
0.0
 10
16.1172544179
 20
12.5903587418
 30
0.0
 10
16.1188992989
 20
12.5339446295
 30
0.0
 10
16.1187344497
 20
12.4773738283
 30
0.0
 10
16.1167610058
 20
12.4210294597
 30
0.0
 10
16.1129924311
 20
12.3652938614
 30
0.0
 10
16.1083545628
 20
12.3194405036
 30
0.0
 10
16.1037539901
 20
12.2833648107
 30
0.0
 10
16.0998919001
 20
12.2568295208
 30
0.0
 10
16.0956076109
 20
12.230725568
 30
0.0
 10
16.0909083673
 20
12.2050971743
 30
0.0
 10
16.0858021747
 20
12.1799878558
 30
0.0
 10
16.0802977175
 20
12.1554402094
 30
0.0
 10
16.07440436
 20
12.1314958748
 30
0.0
 10
16.0681321227
 20
12.108195454
 30
0.0
 10
16.0614916654
 20
12.0855784441
 30
0.0
 10
16.054494267
 20
12.0636831676
 30
0.0
 10
16.0471518038
 20
12.0425467058
 30
0.0
 10
16.0394767244
 20
12.0222048302
 30
0.0
 10
16.031482029
 20
12.0026919473
 30
0.0
 10
16.0231812354
 20
11.9840409998
 30
0.0
 10
16.0145883635
 20
11.9662835382
 30
0.0
 10
16.0057178049
 20
11.9494492969
 30
0.0
 10
15.9965846724
 20
11.9335671305
 30
0.0
 10
15.9902038835
 20
11.9234294762
 30
0.0
 10
15.9869690303
 20
11.9185331968
 30
0.0
  0
SPLINE
  5
2E0
100
AcDbEntity
  8
LAYER_FEATURE
100
AcDbSpline
 62
7
  6
CONTINUOUS
 70
0
 71
3
 72
38
 73
34
 74
0
 42
0.0000001
 43
0.0000001
 44
0.0000000001
 40
0.0
 40
0.0
 40
0.0
 40
0.0
 40
0.0217670654
 40
0.0436203947
 40
0.0656449953
 40
0.0879234406
 40
0.1105348037
 40
0.133553813
 40
0.1570501901
 40
0.1810881681
 40
0.2057262782
 40
0.2310172472
 40
0.2570080201
 40
0.2837399744
 40
0.3112491216
 40
0.3395663655
 40
0.3687178747
 40
0.3987253525
 40
0.4296063444
 40
0.4613746069
 40
0.4940403357
 40
0.527610445
 40
0.5620888743
 40
0.5974767482
 40
0.6337726102
 40
0.6709726619
 40
0.7090708652
 40
0.7480591168
 40
0.7879274576
 40
0.8286641887
 40
0.8702557095
 40
0.9126870496
 40
1.0
 40
1.0
 40
1.0
 40
1.0
 10
15.339834481
 20
13.8985549929
 30
0.0
 10
15.3350291002
 20
13.8985549923
 30
0.0
 10
15.3253960592
 20
13.898224563
 30
0.0
 10
15.3109696839
 20
13.8967391139
 30
0.0
 10
15.2965646472
 20
13.894264891
 30
0.0
 10
15.2821926995
 20
13.8908040724
 30
0.0
 10
15.2678642536
 20
13.886359746
 30
0.0
 10
15.2535898395
 20
13.8809356838
 30
0.0
 10
15.2393797159
 20
13.8745363359
 30
0.0
 10
15.2252439393
 20
13.8671668833
 30
0.0
 10
15.2111924244
 20
13.8588330556
 30
0.0
 10
15.197234956
 20
13.8495411834
 30
0.0
 10
15.1833811621
 20
13.8392982466
 30
0.0
 10
15.1696406173
 20
13.828111752
 30
0.0
 10
15.1560228083
 20
13.8159898165
 30
0.0
 10
15.1425371082
 20
13.8029411956
 30
0.0
 10
15.1291928664
 20
13.7889751986
 30
0.0
 10
15.1159993394
 20
13.7741017692
 30
0.0
 10
15.1029656746
 20
13.7583314881
 30
0.0
 10
15.0901009843
 20
13.7416755097
 30
0.0
 10
15.0774142575
 20
13.7241456291
 30
0.0
 10
15.0649143614
 20
13.7057542634
 30
0.0
 10
15.0526101015
 20
13.6865144042
 30
0.0
 10
15.0405101248
 20
13.6664396702
 30
0.0
 10
15.0286229413
 20
13.6455442757
 30
0.0
 10
15.0169569687
 20
13.6238429945
 30
0.0
 10
15.005520437
 20
13.6013512015
 30
0.0
 10
14.994321425
 20
13.5780848372
 30
0.0
 10
14.9833678765
 20
13.5540603523
 30
0.0
 10
14.9726675766
 20
13.5292948363
 30
0.0
 10
14.962228008
 20
13.5038057426
 30
0.0
 10
14.9485361889
 20
13.4685444423
 30
0.0
 10
14.9388822239
 20
13.4415697159
 30
0.0
 10
14.9326795015
 20
13.4233194353
 30
0.0
  0
SPLINE
  5
2E1
100
AcDbEntity
  8
LAYER_FEATURE
100
AcDbSpline
 62
7
  6
CONTINUOUS
 70
0
 71
3
 72
70
 73
66
 74
0
 42
0.0000001
 43
0.0000001
 44
0.0000000001
 40
0.0
 40
0.0
 40
0.0
 40
0.0
 40
0.0198015887
 40
0.039155308
 40
0.0580461903
 40
0.0764609916
 40
0.094387567
 40
0.1118153836
 40
0.128735506
 40
0.1451408044
 40
0.1610261173
 40
0.1763884568
 40
0.1912272371
 40
0.2055445332
 40
0.2193453732
 40
0.232638067
 40
0.2454345692
 40
0.2577508728
 40
0.2696074241
 40
0.2810295401
 40
0.2920477989
 40
0.3026983581
 40
0.3130231437
 40
0.3230698395
 40
0.3328916043
 40
0.3425464551
 40
0.3520962919
 40
0.3616055893
 40
0.3711398442
 40
0.3807639223
 40
0.390540467
 40
0.4005285231
 40
0.4107824767
 40
0.4213513541
 40
0.4322784638
 40
0.4436013274
 40
0.4553518281
 40
0.4675565037
 40
0.4802369239
 40
0.4934101054
 40
0.5070889285
 40
0.5212825376
 40
0.5359967122
 40
0.551234203
 40
0.566995034
 40
0.5832767682
 40
0.6000747433
 40
0.61738228
 40
0.6351908648
 40
0.6534903116
 40
0.6722689049
 40
0.6915135266
 40
0.7112097703
 40
0.7313420442
 40
0.7518936634
 40
0.7728469355
 40
0.7941832399
 40
0.8158831005
 40
0.8379262537
 40
0.8602917129
 40
0.8829578286
 40
0.9059023466
 40
0.9291024635
 40
0.9525348796
 40
1.0
 40
1.0
 40
1.0
 40
1.0
 10
15.2122094919
 20
13.3921495386
 30
0.0
 10
15.2161844871
 20
13.405012628
 30
0.0
 10
15.2243006462
 20
13.4303696896
 30
0.0
 10
15.2371286626
 20
13.4676959609
 30
0.0
 10
15.2504589501
 20
13.5038429113
 30
0.0
 10
15.2642749533
 20
13.5387657985
 30
0.0
 10
15.2785597556
 20
13.5724218258
 30
0.0
 10
15.2932957683
 20
13.6047696037
 30
0.0
 10
15.3084649262
 20
13.6357694375
 30
0.0
 10
15.324048646
 20
13.6653832962
 30
0.0
 10
15.3400278871
 20
13.6935748822
 30
0.0
 10
15.3563831768
 20
13.7203096675
 30
0.0
 10
15.3730946509
 20
13.7455549317
 30
0.0
 10
15.3901420965
 20
13.7692797888
 30
0.0
 10
15.4075049942
 20
13.7914552059
 30
0.0
 10
15.4251625619
 20
13.8120540112
 30
0.0
 10
15.4430937942
 20
13.8310508868
 30
0.0
 10
15.4612774947
 20
13.8484223449
 30
0.0
 10
15.4796922911
 20
13.8641466871
 30
0.0
 10
15.4983166232
 20
13.878203947
 30
0.0
 10
15.5171286878
 20
13.890575833
 30
0.0
 10
15.5361063361
 20
13.9012456778
 30
0.0
 10
15.5552269147
 20
13.9101984328
 30
0.0
 10
15.574467069
 20
13.917420747
 30
0.0
 10
15.5938025511
 20
13.9229011613
 30
0.0
 10
15.6132081039
 20
13.926630426
 30
0.0
 10
15.6326574989
 20
13.9286019003
 30
0.0
 10
15.6521237757
 20
13.9288119386
 30
0.0
 10
15.6715796622
 20
13.9272601455
 30
0.0
 10
15.69099808
 20
13.9239494082
 30
0.0
 10
15.7103525968
 20
13.9188856855
 30
0.0
 10
15.7296177134
 20
13.9120776431
 30
0.0
 10
15.7487689472
 20
13.9035362466
 30
0.0
 10
15.7677827465
 20
13.8932744186
 30
0.0
 10
15.7866363096
 20
13.881306814
 30
0.0
 10
15.8053073838
 20
13.8676497168
 30
0.0
 10
15.8237740948
 20
13.8523210272
 30
0.0
 10
15.8420148308
 20
13.8353403064
 30
0.0
 10
15.8600081776
 20
13.816728835
 30
0.0
 10
15.877732896
 20
13.7965096697
 30
0.0
 10
15.8951679329
 20
13.7747076896
 30
0.0
 10
15.9122924495
 20
13.7513496234
 30
0.0
 10
15.9290858598
 20
13.7264640607
 30
0.0
 10
15.9455278741
 20
13.7000814471
 30
0.0
 10
15.9615985413
 20
13.6722340681
 30
0.0
 10
15.9772782914
 20
13.6429560229
 30
0.0
 10
15.9925479767
 20
13.6122831917
 30
0.0
 10
16.0073889054
 20
13.5802531935
 30
0.0
 10
16.0217828759
 20
13.5469053412
 30
0.0
 10
16.0357122077
 20
13.5122805929
 30
0.0
 10
16.0491597703
 20
13.4764215009
 30
0.0
 10
16.0621090091
 20
13.4393721584
 30
0.0
 10
16.0745439709
 20
13.4011781431
 30
0.0
 10
16.0864493257
 20
13.3618864604
 30
0.0
 10
16.0978103908
 20
13.3215454843
 30
0.0
 10
16.1086131501
 20
13.2802048963
 30
0.0
 10
16.1188442716
 20
13.2379156215
 30
0.0
 10
16.1284911258
 20
13.1947297646
 30
0.0
 10
16.1375418021
 20
13.1507005428
 30
0.0
 10
16.1459851229
 20
13.105882226
 30
0.0
 10
16.1538106642
 20
13.0603300445
 30
0.0
 10
16.1610087444
 20
13.0141002122
 30
0.0
 10
16.1675705292
 20
12.9672495078
 30
0.0
 10
16.175493734
 20
12.9037625646
 30
0.0
 10
16.1804035417
 20
12.8558004212
 30
0.0
 10
16.1832356301
 20
12.8236529849
 30
0.0
  0
SPLINE
  5
2E2
100
AcDbEntity
  8
LAYER_FEATURE
100
AcDbSpline
 62
7
  6
CONTINUOUS
 70
0
 71
3
 72
15
 73
11
 74
0
 42
0.0000001
 43
0.0000001
 44
0.0000000001
 40
0.0
 40
0.0
 40
0.0
 40
0.0
 40
0.1335095263
 40
0.2652385282
 40
0.3948467006
 40
0.5220040655
 40
0.6463929645
 40
0.767710032
 40
0.8856681077
 40
1.0
 40
1.0
 40
1.0
 40
1.0
 10
16.1832714221
 20
12.1983635451
 30
0.0
 10
16.181010328
 20
12.172662375
 30
0.0
 10
16.1759404413
 20
12.1216515646
 30
0.0
 10
16.1666261516
 20
12.0459120549
 30
0.0
 10
16.1556760052
 20
11.9716315305
 30
0.0
 10
16.1431245214
 20
11.8990435142
 30
0.0
 10
16.1290112889
 20
11.8283755739
 30
0.0
 10
16.1133806803
 20
11.7598490402
 30
0.0
 10
16.0962821655
 20
11.6936794126
 30
0.0
 10
16.0837349747
 20
11.6505698991
 30
0.0
 10
16.0772116607
 20
11.6294604473
 30
0.0
  0
SPLINE
  5
2E3
100
AcDbEntity
  8
LAYER_FEATURE
100
AcDbSpline
 62
7
  6
CONTINUOUS
 70
0
 71
3
 72
39
 73
35
 74
0
 42
0.0000001
 43
0.0000001
 44
0.0000000001
 40
0.0
 40
0.0
 40
0.0
 40
0.0
 40
0.0443813067
 40
0.0879669132
 40
0.1307335
 40
0.1726618866
 40
0.2137331556
 40
0.2539301966
 40
0.2932376985
 40
0.3316421098
 40
0.369131909
 40
0.4056977074
 40
0.4413324012
 40
0.4760313905
 40
0.5097927922
 40
0.5426176374
 40
0.5745101304
 40
0.6054779621
 40
0.6355325877
 40
0.6646895438
 40
0.692968828
 40
0.7203952814
 40
0.7469989433
 40
0.7728154398
 40
0.7978863773
 40
0.8222596396
 40
0.8459896209
 40
0.8691373705
 40
0.8917705686
 40
0.9139632732
 40
0.9357954514
 40
0.9573522573
 40
0.9787230195
 40
1.0
 40
1.0
 40
1.0
 40
1.0
 10
15.2029593633
 20
13.4447739702
 30
0.0
 10
15.2063392649
 20
13.4557113359
 30
0.0
 10
15.2132136102
 20
13.4773363583
 30
0.0
 10
15.223970619
 20
13.5092976235
 30
0.0
 10
15.2350732827
 20
13.5404698235
 30
0.0
 10
15.2465126647
 20
13.5708280245
 30
0.0
 10
15.2582798304
 20
13.6003484693
 30
0.0
 10
15.2703654582
 20
13.6290078146
 30
0.0
 10
15.2827600097
 20
13.6567834589
 30
0.0
 10
15.2954537364
 20
13.683653501
 30
0.0
 10
15.3084366246
 20
13.7095967671
 30
0.0
 10
15.3216984538
 20
13.7345928237
 30
0.0
 10
15.3352288131
 20
13.7586219782
 30
0.0
 10
15.3490170866
 20
13.7816653122
 30
0.0
 10
15.3630524581
 20
13.8037047028
 30
0.0
 10
15.3773239541
 20
13.8247228103
 30
0.0
 10
15.3918204556
 20
13.8447030879
 30
0.0
 10
15.4065306688
 20
13.8636298246
 30
0.0
 10
15.4214431726
 20
13.8814881266
 30
0.0
 10
15.4365464411
 20
13.8982639038
 30
0.0
 10
15.4518288323
 20
13.9139438934
 30
0.0
 10
15.4672785841
 20
13.9285156731
 30
0.0
 10
15.4828838545
 20
13.9419676159
 30
0.0
 10
15.498632719
 20
13.9542888763
 30
0.0
 10
15.5145131233
 20
13.9654694338
 30
0.0
 10
15.5305129001
 20
13.9755000478
 30
0.0
 10
15.5466197496
 20
13.9843722278
 30
0.0
 10
15.5628211878
 20
13.9920782696
 30
0.0
 10
15.5791044853
 20
13.99861131
 30
0.0
 10
15.5954566932
 20
14.0039653087
 30
0.0
 10
15.6118644676
 20
14.0081351089
 30
0.0
 10
15.628314543
 20
14.0111165964
 30
0.0
 10
15.6447919443
 20
14.0129067508
 30
0.0
 10
15.6557965932
 20
14.0133049876
 30
0.0
 10
15.6612847679
 20
14.0133049921
 30
0.0
  0
SPLINE
  5
2E4
100
AcDbEntity
  8
02___PRT_ALL_AXES
100
AcDbSpline
 62
7
  6
CONTINUOUS
 70
0
 71
3
 72
58
 73
54
 74
0
 42
0.0000001
 43
0.0000001
 44
0.0000000001
 40
0.0
 40
0.0
 40
0.0
 40
0.0
 40
0.0163583614
 40
0.0330514355
 40
0.0500648697
 40
0.0673835057
 40
0.084991554
 40
0.1028725905
 40
0.1393839946
 40
0.1767770747
 40
0.2149030237
 40
0.2536074771
 40
0.2927317874
 40
0.3321142516
 40
0.3715913087
 40
0.4109987211
 40
0.4501727493
 40
0.4889513313
 40
0.5271752769
 40
0.5646894899
 40
0.6013442339
 40
0.6193049128
 40
0.6369977089
 40
0.654406024
 40
0.6715138631
 40
0.6883058876
 40
0.7047674708
 40
0.7208847587
 40
0.7366447347
 40
0.7520352906
 40
0.7670453046
 40
0.7816647271
 40
0.7958846763
 40
0.8096975453
 40
0.8230971229
 40
0.836078729
 40
0.8486393699
 40
0.8607779125
 40
0.8724952838
 40
0.8837946954
 40
0.8946818961
 40
0.9051654526
 40
0.9152570568
 40
0.9249718518
 40
0.9343287671
 40
0.9433508414
 40
0.9520655019
 40
0.9605047585
 40
0.9687052606
 40
0.9767081566
 40
0.984558703
 40
0.9923055922
 40
1.0
 40
1.0
 40
1.0
 40
1.0
 10
15.5352705567
 20
13.0951183631
 30
0.0
 10
15.5325858283
 20
13.0864305786
 30
0.0
 10
15.5273411469
 20
13.0688212178
 30
0.0
 10
15.5199170023
 20
13.0419984761
 30
0.0
 10
15.5128628392
 20
13.0145245798
 30
0.0
 10
15.5061873713
 20
12.9864333231
 30
0.0
 10
15.4998987264
 20
12.957759009
 30
0.0
 10
15.4919853449
 20
12.9185244956
 30
0.0
 10
15.4831348293
 20
12.8682673527
 30
0.0
 10
15.4742406742
 20
12.8066218844
 30
0.0
 10
15.4670444333
 20
12.7435282503
 30
0.0
 10
15.4615815625
 20
12.6792956004
 30
0.0
 10
15.4578789818
 20
12.6142381228
 30
0.0
 10
15.4559549396
 20
12.548674296
 30
0.0
 10
15.4558189189
 20
12.4829250713
 30
0.0
 10
15.4574715898
 20
12.4173123402
 30
0.0
 10
15.4609048064
 20
12.3521572978
 30
0.0
 10
15.4661016482
 20
12.2877789079
 30
0.0
 10
15.4730365053
 20
12.2244920878
 30
0.0
 10
15.4816752098
 20
12.1626069437
 30
0.0
 10
15.4903159415
 20
12.1121193498
 30
0.0
 10
15.4980649499
 20
12.0726777207
 30
0.0
 10
15.5042344401
 20
12.0438331169
 30
0.0
 10
15.5107931544
 20
12.0155609621
 30
0.0
 10
15.5177330936
 20
11.9878958107
 30
0.0
 10
15.5250457296
 20
11.9608715618
 30
0.0
 10
15.532722096
 20
11.9345212972
 30
0.0
 10
15.5407527789
 20
11.9088772715
 30
0.0
 10
15.5491279353
 20
11.883970863
 30
0.0
 10
15.5578373054
 20
11.8598325368
 30
0.0
 10
15.5668702268
 20
11.8364918053
 30
0.0
 10
15.5762156506
 20
11.813977192
 30
0.0
 10
15.5858621576
 20
11.7923161947
 30
0.0
 10
15.5957979767
 20
11.7715352516
 30
0.0
 10
15.6060110035
 20
11.7516597085
 30
0.0
 10
15.6164888219
 20
11.7327137884
 30
0.0
 10
15.6272187266
 20
11.7147205632
 30
0.0
 10
15.6381877474
 20
11.6977019295
 30
0.0
 10
15.6493826758
 20
11.6816785877
 30
0.0
 10
15.6607900925
 20
11.6666700274
 30
0.0
 10
15.6723963958
 20
11.6526945194
 30
0.0
 10
15.6841878288
 20
11.6397691164
 30
0.0
 10
15.6961505024
 20
11.6279096644
 30
0.0
 10
15.7082704098
 20
11.6171308257
 30
0.0
 10
15.7205334262
 20
11.6074461124
 30
0.0
 10
15.7329252832
 20
11.5988679262
 30
0.0
 10
15.7454315181
 20
11.5914075945
 30
0.0
 10
15.758037369
 20
11.5850753859
 30
0.0
 10
15.7707277014
 20
11.5798804816
 30
0.0
 10
15.7834867084
 20
11.5758308776
 30
0.0
 10
15.7962984247
 20
11.5729332083
 30
0.0
 10
15.8091444784
 20
11.5711924962
 30
0.0
 10
15.8177328082
 20
11.5708049974
 30
0.0
 10
15.8220099113
 20
11.5708049942
 30
0.0
  0
SPLINE
  5
2E5
100
AcDbEntity
  8
LAYER_FEATURE
100
AcDbSpline
 62
7
  6
CONTINUOUS
 70
0
 71
3
 72
67
 73
63
 74
0
 42
0.0000001
 43
0.0000001
 44
0.0000000001
 40
0.0
 40
0.0
 40
0.0
 40
0.0
 40
0.0163581013
 40
0.0330510694
 40
0.0500642491
 40
0.0673826926
 40
0.0849905208
 40
0.1028713409
 40
0.1210081566
 40
0.1393834611
 40
0.15797927
 40
0.1767771682
 40
0.1957583526
 40
0.2149036734
 40
0.2536076561
 40
0.292731491
 40
0.3321134768
 40
0.371590054
 40
0.4109969877
 40
0.45017054
 40
0.4889486503
 40
0.5081400228
 40
0.5271731428
 40
0.546028763
 40
0.5646879707
 40
0.5831322282
 40
0.601343416
 40
0.6193038759
 40
0.6369964566
 40
0.65440456
 40
0.6715121917
 40
0.6883040129
 40
0.7047653969
 40
0.720882489
 40
0.7366422729
 40
0.7520326412
 40
0.7670424724
 40
0.7816617173
 40
0.7958814943
 40
0.8096941963
 40
0.8230936114
 40
0.8360750592
 40
0.8486355463
 40
0.8607739405
 40
0.872491169
 40
0.8837904436
 40
0.8946775128
 40
0.905160943
 40
0.9152524249
 40
0.9249671014
 40
0.9343239024
 40
0.9433458667
 40
0.9520604213
 40
0.9604995757
 40
0.9686999787
 40
0.9767027777
 40
0.9806449746
 40
0.9845550535
 40
0.9884391969
 40
0.9923037475
 40
0.9961551669
 40
1.0
 40
1.0
 40
1.0
 40
1.0
 10
14.8649348847
 20
13.4447739702
 30
0.0
 10
14.8606436195
 20
13.4308874307
 30
0.0
 10
14.8522604972
 20
13.4027405214
 30
0.0
 10
14.8403936994
 20
13.3598669503
 30
0.0
 10
14.8291183002
 20
13.3159525007
 30
0.0
 10
14.8184481884
 20
13.2710513303
 30
0.0
 10
14.8083964442
 20
13.2252182485
 30
0.0
 10
14.798975404
 20
13.1785094743
 30
0.0
 10
14.7901966354
 20
13.1309822083
 30
0.0
 10
14.7820709167
 20
13.0826946969
 30
0.0
 10
14.7746082222
 20
13.033706105
 30
0.0
 10
14.767817726
 20
12.9840765054
 30
0.0
 10
14.7617077171
 20
12.9338666095
 30
0.0
 10
14.7544526209
 20
12.8659859204
 30
0.0
 10
14.7471500961
 20
12.7801207897
 30
0.0
 10
14.7412318581
 20
12.6761330324
 30
0.0
 10
14.7381564696
 20
12.5713354196
 30
0.0
 10
14.7379390533
 20
12.4662416357
 30
0.0
 10
14.7405806802
 20
12.3613658552
 30
0.0
 10
14.7460683648
 20
12.2572221455
 30
0.0
 10
14.7530141525
 20
12.1711760517
 30
0.0
 10
14.7599864214
 20
12.1031120172
 30
0.0
 10
14.7658880348
 20
12.0527379161
 30
0.0
 10
14.7724725059
 20
12.0029254747
 30
0.0
 10
14.7797317972
 20
11.9537356295
 30
0.0
 10
14.7876569841
 20
11.905228701
 30
0.0
 10
14.79623834
 20
11.8574641272
 30
0.0
 10
14.8054653268
 20
11.8105004399
 30
0.0
 10
14.8153266173
 20
11.7643951794
 30
0.0
 10
14.825810107
 20
11.7192048273
 30
0.0
 10
14.8369029307
 20
11.6749847354
 30
0.0
 10
14.8485914783
 20
11.6317890573
 30
0.0
 10
14.860861413
 20
11.5896706807
 30
0.0
 10
14.8736976908
 20
11.5486811605
 30
0.0
 10
14.8870845779
 20
11.5088706528
 30
0.0
 10
14.9010056732
 20
11.4702878514
 30
0.0
 10
14.9154439337
 20
11.4329799281
 30
0.0
 10
14.9303816986
 20
11.396992474
 30
0.0
 10
14.9458007155
 20
11.3623694419
 30
0.0
 10
14.9616821696
 20
11.3291530917
 30
0.0
 10
14.9780067142
 20
11.2973839381
 30
0.0
 10
14.994754505
 20
11.2671007007
 30
0.0
 10
15.0119052319
 20
11.2383402568
 30
0.0
 10
15.0294381626
 20
11.2111376035
 30
0.0
 10
15.047332184
 20
11.1855258273
 30
0.0
 10
15.0655658469
 20
11.1615360795
 30
0.0
 10
15.0841174104
 20
11.1391975648
 30
0.0
 10
15.1029648857
 20
11.1185375417
 30
0.0
 10
15.1220860731
 20
11.0995813414
 30
0.0
 10
15.1414585871
 20
11.0823524016
 30
0.0
 10
15.1610598409
 20
11.0668723185
 30
0.0
 10
15.180867054
 20
11.0531609087
 30
0.0
 10
15.2008570174
 20
11.0412362917
 30
0.0
 10
15.22100646
 20
11.0311148273
 30
0.0
 10
15.2412900339
 20
11.022811383
 30
0.0
 10
15.258372577
 20
11.0173898451
 30
0.0
 10
15.2720484759
 20
11.0139941622
 30
0.0
 10
15.2822714821
 20
11.0119192747
 30
0.0
 10
15.2925072879
 20
11.0103048325
 30
0.0
 10
15.3027529203
 20
11.0091512222
 30
0.0
 10
15.3130048267
 20
11.0084589055
 30
0.0
 10
15.3198440844
 20
11.0083050047
 30
0.0
 10
15.3232602894
 20
11.0083050013
 30
0.0
  0
SPLINE
  5
2E6
100
AcDbEntity
  8
LAYER_FEATURE
100
AcDbSpline
 62
7
  6
CONTINUOUS
 70
0
 71
3
 72
39
 73
35
 74
0
 42
0.0000001
 43
0.0000001
 44
0.0000000001
 40
0.0
 40
0.0
 40
0.0
 40
0.0
 40
0.0461411296
 40
0.091328669
 40
0.1355321509
 40
0.178725617
 40
0.2208842878
 40
0.2619864051
 40
0.3020129867
 40
0.3409481196
 40
0.3787792555
 40
0.415497496
 40
0.4510979588
 40
0.4855801653
 40
0.518948462
 40
0.5512125063
 40
0.5823878074
 40
0.6124963345
 40
0.6415671507
 40
0.6696370822
 40
0.6967514107
 40
0.7229645505
 40
0.7483406596
 40
0.7729540866
 40
0.7968895937
 40
0.8202422519
 40
0.8431169068
 40
0.8656271292
 40
0.8878936073
 40
0.9100420366
 40
0.9322006139
 40
0.9544973204
 40
0.9770572189
 40
1.0
 40
1.0
 40
1.0
 40
1.0
 10
14.9073333966
 20
13.3921495386
 30
0.0
 10
14.9109840424
 20
13.4039630327
 30
0.0
 10
14.9184261009
 20
13.4272797869
 30
0.0
 10
14.9301403391
 20
13.4616605325
 30
0.0
 10
14.9422797785
 20
13.495054495
 30
0.0
 10
14.9548316387
 20
13.5274267458
 30
0.0
 10
14.9677830292
 20
13.5587439429
 30
0.0
 10
14.981120497
 20
13.5889735966
 30
0.0
 10
14.9948302473
 20
13.618084452
 30
0.0
 10
15.0088981139
 20
13.6460464076
 30
0.0
 10
15.0233095815
 20
13.6728305638
 30
0.0
 10
15.0380498166
 20
13.6984092515
 30
0.0
 10
15.0531036748
 20
13.722756066
 30
0.0
 10
15.0684557247
 20
13.7458458948
 30
0.0
 10
15.084090286
 20
13.7676549236
 30
0.0
 10
15.09999145
 20
13.7881606506
 30
0.0
 10
15.1161431126
 20
13.8073418929
 30
0.0
 10
15.1325289815
 20
13.825178805
 30
0.0
 10
15.1491326073
 20
13.8416528649
 30
0.0
 10
15.1659374041
 20
13.8567468456
 30
0.0
 10
15.1829266477
 20
13.8704447903
 30
0.0
 10
15.2000834642
 20
13.8827319794
 30
0.0
 10
15.2173907737
 20
13.8935949288
 30
0.0
 10
15.2348312413
 20
13.9030213503
 30
0.0
 10
15.252387182
 20
13.9110001578
 30
0.0
 10
15.2700404536
 20
13.9175215228
 30
0.0
 10
15.2877723539
 20
13.9225769986
 30
0.0
 10
15.3055635603
 20
13.9261597264
 30
0.0
 10
15.3233941534
 20
13.9282646236
 30
0.0
 10
15.3412437725
 20
13.9288885919
 30
0.0
 10
15.3590916897
 20
13.9280307151
 30
0.0
 10
15.3769176227
 20
13.9256921618
 30
0.0
 10
15.3946999744
 20
13.9218767725
 30
0.0
 10
15.4063981702
 20
13.9183862903
 30
0.0
 10
15.4122197569
 20
13.9164093326
 30
0.0
  0
SPLINE
  5
2E7
100
AcDbEntity
  8
LAYER_FEATURE
100
AcDbSpline
 62
7
  6
CONTINUOUS
 70
0
 71
3
 72
71
 73
67
 74
0
 42
0.0000001
 43
0.0000001
 44
0.0000000001
 40
0.0
 40
0.0
 40
0.0
 40
0.0
 40
0.017582546
 40
0.0354860849
 40
0.0536933048
 40
0.0721863048
 40
0.0909465271
 40
0.109954855
 40
0.1291916515
 40
0.1486368123
 40
0.1682698133
 40
0.1880697577
 40
0.2280842492
 40
0.2685084516
 40
0.3091663028
 40
0.3498799727
 40
0.3904712118
 40
0.4307626937
 40
0.4705793647
 40
0.4902564521
 40
0.5097509359
 40
0.5290421942
 40
0.5481100125
 40
0.5669346316
 40
0.585496797
 40
0.60377781
 40
0.6217595816
 40
0.6394246888
 40
0.6567564355
 40
0.6737389155
 40
0.690357081
 40
0.706596817
 40
0.7224450219
 40
0.7378896975
 40
0.7529200472
 40
0.7675265868
 40
0.7817012694
 40
0.7954376251
 40
0.808730919
 40
0.8215783325
 40
0.8339791685
 40
0.8459350861
 40
0.8574503659
 40
0.8685322078
 40
0.8791910629
 40
0.8894409933
 40
0.8993000496
 40
0.9087906511
 40
0.9179399377
 40
0.9267800518
 40
0.9353482923
 40
0.9436870725
 40
0.9477859529
 40
0.9518455524
 40
0.9558724164
 40
0.9598732978
 40
0.9638551132
 40
0.9678249045
 40
0.9717897932
 40
0.9757569335
 40
0.9797334639
 40
0.9837264622
 40
0.9877428954
 40
0.9917895823
 40
0.9958731496
 40
1.0
 40
1.0
 40
1.0
 40
1.0
 10
14.8833293905
 20
13.3083313264
 30
0.0
 10
14.8795742422
 20
13.2941572496
 30
0.0
 10
14.8722712271
 20
13.2654765413
 30
0.0
 10
14.8620220136
 20
13.221885074
 30
0.0
 10
14.8523887013
 20
13.1773761512
 30
0.0
 10
14.8433837814
 20
13.1320074096
 30
0.0
 10
14.8350188775
 20
13.08583727
 30
0.0
 10
14.8273048014
 20
13.0389252943
 30
0.0
 10
14.8202515189
 20
12.9913319693
 30
0.0
 10
14.8138681585
 20
12.9431187155
 30
0.0
 10
14.8081629198
 20
12.8943476026
 30
0.0
 10
14.8014468463
 20
12.8284311811
 30
0.0
 10
14.7948101907
 20
12.7450875718
 30
0.0
 10
14.7896744157
 20
12.6442159054
 30
0.0
 10
14.7873660857
 20
12.5426564636
 30
0.0
 10
14.7878971494
 20
12.4409330989
 30
0.0
 10
14.7912648445
 20
12.3395695231
 30
0.0
 10
14.7974517235
 20
12.2390885768
 30
0.0
 10
14.8049590188
 20
12.1561983239
 30
0.0
 10
14.8123650291
 20
12.0907411833
 30
0.0
 10
14.8185781457
 20
12.0423812742
 30
0.0
 10
14.8254632936
 20
11.9946258028
 30
0.0
 10
14.8330116265
 20
11.9475362446
 30
0.0
 10
14.8412133763
 20
11.9011733637
 30
0.0
 10
14.850057949
 20
11.8555969408
 30
0.0
 10
14.8595339169
 20
11.810865746
 30
0.0
 10
14.8696290399
 20
11.7670374488
 30
0.0
 10
14.8803302798
 20
11.7241685448
 30
0.0
 10
14.8916238167
 20
11.6823142801
 30
0.0
 10
14.9034950705
 20
11.6415285797
 30
0.0
 10
14.9159287212
 20
11.6018639767
 30
0.0
 10
14.9289087306
 20
11.563371543
 30
0.0
 10
14.9424183657
 20
11.526100822
 30
0.0
 10
14.9564402237
 20
11.4900997626
 30
0.0
 10
14.9709562589
 20
11.4554146557
 30
0.0
 10
14.9859478123
 20
11.4220900723
 30
0.0
 10
15.00139564
 20
11.3901688027
 30
0.0
 10
15.0172799491
 20
11.3596918023
 30
0.0
 10
15.0335804355
 20
11.3306981405
 30
0.0
 10
15.0502763236
 20
11.3032249551
 30
0.0
 10
15.0673464098
 20
11.2773074113
 30
0.0
 10
15.0847691093
 20
11.2529786701
 30
0.0
 10
15.1025225047
 20
11.2302698665
 30
0.0
 10
15.1205843962
 20
11.2092101019
 30
0.0
 10
15.1389323455
 20
11.1898264516
 30
0.0
 10
15.1575437132
 20
11.1721439919
 30
0.0
 10
15.1763956661
 20
11.1561858568
 30
0.0
 10
15.1954651987
 20
11.141973297
 30
0.0
 10
15.214728921
 20
11.1295257844
 30
0.0
 10
15.2341634418
 20
11.1188609561
 30
0.0
 10
15.2537433485
 20
11.1099950011
 30
0.0
 10
15.2702574905
 20
11.1040831392
 30
0.0
 10
15.283485924
 20
11.1002896091
 30
0.0
 10
15.293370379
 20
11.0979160294
 30
0.0
 10
15.3032701612
 20
11.0959992046
 30
0.0
 10
15.3131821643
 20
11.0945396748
 30
0.0
 10
15.3231030543
 20
11.0935380179
 30
0.0
 10
15.3330295366
 20
11.0929946075
 30
0.0
 10
15.3429582926
 20
11.0929095929
 30
0.0
 10
15.3528860034
 20
11.0932830875
 30
0.0
 10
15.3628093558
 20
11.0941148523
 30
0.0
 10
15.3727250347
 20
11.0954046912
 30
0.0
 10
15.3826297386
 20
11.0971520336
 30
0.0
 10
15.3925202339
 20
11.0993563394
 30
0.0
 10
15.4023930409
 20
11.102016707
 30
0.0
 10
15.4089238373
 20
11.1040819627
 30
0.0
 10
15.4121828421
 20
11.1051881169
 30
0.0
  0
SPLINE
  5
2E8
100
AcDbEntity
  8
LAYER_FEATURE
100
AcDbSpline
 62
7
  6
CONTINUOUS
 70
0
 71
3
 72
15
 73
11
 74
0
 42
0.0000001
 43
0.0000001
 44
0.0000000001
 40
0.0
 40
0.0
 40
0.0
 40
0.0
 40
0.1200035582
 40
0.2468515211
 40
0.3779379406
 40
0.5104801776
 40
0.6416471188
 40
0.7686587288
 40
0.888888669
 40
1.0
 40
1.0
 40
1.0
 40
1.0
 10
14.8954530455
 20
13.3005176714
 30
0.0
 10
14.8952996503
 20
13.299887414
 30
0.0
 10
14.8950380663
 20
13.2985774516
 30
0.0
 10
14.894779254
 20
13.296549631
 30
0.0
 10
14.894647174
 20
13.294441702
 30
0.0
 10
14.8946452898
 20
13.2923063761
 30
0.0
 10
14.8947736318
 20
13.2901969407
 30
0.0
 10
14.8950289125
 20
13.2881659434
 30
0.0
 10
14.8954044793
 20
13.2862640609
 30
0.0
 10
14.8957440806
 20
13.2850585688
 30
0.0
 10
14.8959357398
 20
13.2844893799
 30
0.0
  0
SPLINE
  5
2E9
100
AcDbEntity
  8
LAYER_FEATURE
100
AcDbSpline
 62
7
  6
CONTINUOUS
 70
0
 71
3
 72
15
 73
11
 74
0
 42
0.0000001
 43
0.0000001
 44
0.0000000001
 40
0.0
 40
0.0
 40
0.0
 40
0.0
 40
0.1316450842
 40
0.2640644908
 40
0.3958868239
 40
0.5257432647
 40
0.6523038891
 40
0.7743003193
 40
0.890550777
 40
1.0
 40
1.0
 40
1.0
 40
1.0
 10
14.9069795504
 20
13.2252670337
 30
0.0
 10
14.9070968912
 20
13.2269876597
 30
0.0
 10
14.9072556174
 20
13.2304447069
 30
0.0
 10
14.9072700336
 20
13.2356325327
 30
0.0
 10
14.9070621783
 20
13.240792889
 30
0.0
 10
14.9066345949
 20
13.2458627276
 30
0.0
 10
14.9059926019
 20
13.2507802314
 30
0.0
 10
14.905144127
 20
13.2554856056
 30
0.0
 10
14.9040997588
 20
13.2599214871
 30
0.0
 10
14.9032535227
 20
13.2627570507
 30
0.0
 10
14.9027959574
 20
13.2641159267
 30
0.0
  0
SPLINE
  5
2EA
100
AcDbEntity
  8
LAYER_FEATURE
100
AcDbSpline
 62
7
  6
CONTINUOUS
 70
0
 71
3
 72
15
 73
11
 74
0
 42
0.0000001
 43
0.0000001
 44
0.0000000001
 40
0.0
 40
0.0
 40
0.0
 40
0.0
 40
0.1266224476
 40
0.2583254122
 40
0.3923443928
 40
0.525812853
 40
0.6558906301
 40
0.7798656484
 40
0.8952640286
 40
1.0
 40
1.0
 40
1.0
 40
1.0
 10
14.8638149438
 20
13.1677848124
 30
0.0
 10
14.863691044
 20
13.1671200529
 30
0.0
 10
14.8634890319
 20
13.1657540397
 30
0.0
 10
14.863319202
 20
13.1636643609
 30
0.0
 10
14.8632788629
 20
13.1615315574
 30
0.0
 10
14.8633691037
 20
13.1594089804
 30
0.0
 10
14.8635875755
 20
13.1573495918
 30
0.0
 10
14.8639286862
 20
13.1554045305
 30
0.0
 10
14.8643835699
 20
13.1536221649
 30
0.0
 10
14.8647761265
 20
13.1525114648
 30
0.0
 10
14.864993453
 20
13.1519960864
 30
0.0
  0
SPLINE
  5
2EB
100
AcDbEntity
  8
LAYER_FEATURE
100
AcDbSpline
 62
7
  6
CONTINUOUS
 70
0
 71
3
 72
15
 73
11
 74
0
 42
0.0000001
 43
0.0000001
 44
0.0000000001
 40
0.0
 40
0.0
 40
0.0
 40
0.0
 40
0.1365676154
 40
0.272495776
 40
0.4063816426
 40
0.5368509848
 40
0.6625967167
 40
0.7824040924
 40
0.8951801406
 40
1.0
 40
1.0
 40
1.0
 40
1.0
 10
14.8785499772
 20
13.0963214035
 30
0.0
 10
14.8785913393
 20
13.0980557323
 30
0.0
 10
14.8785990873
 20
13.1015185114
 30
0.0
 10
14.8783883926
 20
13.1066780269
 30
0.0
 10
14.8779580534
 20
13.1117463118
 30
0.0
 10
14.8773133731
 20
13.1166615024
 30
0.0
 10
14.8764623588
 20
13.121363753
 30
0.0
 10
14.8754154896
 20
13.1257960803
 30
0.0
 10
14.874185799
 20
13.1299046006
 30
0.0
 10
14.8732162048
 20
13.1324962602
 30
0.0
 10
14.8726988383
 20
13.1337231678
 30
0.0
  0
SPLINE
  5
2EC
100
AcDbEntity
  8
02___PRT_ALL_AXES
100
AcDbSpline
 62
7
  6
CONTINUOUS
 70
0
 71
3
 72
58
 73
54
 74
0
 42
0.0000001
 43
0.0000001
 44
0.0000000001
 40
0.0
 40
0.0
 40
0.0
 40
0.0
 40
0.0163583614
 40
0.0330514355
 40
0.0500648697
 40
0.0673835057
 40
0.084991554
 40
0.1028725905
 40
0.1393839946
 40
0.1767770747
 40
0.2149030237
 40
0.2536074771
 40
0.2927317874
 40
0.3321142516
 40
0.3715913087
 40
0.4109987211
 40
0.4501727493
 40
0.4889513313
 40
0.5271752769
 40
0.5646894899
 40
0.6013442339
 40
0.6193049128
 40
0.6369977089
 40
0.654406024
 40
0.6715138631
 40
0.6883058876
 40
0.7047674708
 40
0.7208847587
 40
0.7366447347
 40
0.7520352906
 40
0.7670453046
 40
0.7816647271
 40
0.7958846763
 40
0.8096975453
 40
0.8230971229
 40
0.836078729
 40
0.8486393699
 40
0.8607779125
 40
0.8724952838
 40
0.8837946954
 40
0.8946818961
 40
0.9051654526
 40
0.9152570568
 40
0.9249718518
 40
0.9343287671
 40
0.9433508414
 40
0.9520655019
 40
0.9605047585
 40
0.9687052606
 40
0.9767081566
 40
0.984558703
 40
0.9923055922
 40
1.0
 40
1.0
 40
1.0
 40
1.0
 10
15.3800717792
 20
13.0951183631
 30
0.0
 10
15.3773870508
 20
13.0864305786
 30
0.0
 10
15.3721423694
 20
13.0688212178
 30
0.0
 10
15.3647182248
 20
13.0419984761
 30
0.0
 10
15.3576640617
 20
13.0145245798
 30
0.0
 10
15.3509885938
 20
12.9864333231
 30
0.0
 10
15.3446999489
 20
12.957759009
 30
0.0
 10
15.3367865674
 20
12.9185244956
 30
0.0
 10
15.3279360518
 20
12.8682673527
 30
0.0
 10
15.3190418967
 20
12.8066218844
 30
0.0
 10
15.3118456558
 20
12.7435282503
 30
0.0
 10
15.306382785
 20
12.6792956004
 30
0.0
 10
15.3026802043
 20
12.6142381228
 30
0.0
 10
15.3007561621
 20
12.548674296
 30
0.0
 10
15.3006201414
 20
12.4829250713
 30
0.0
 10
15.3022728123
 20
12.4173123402
 30
0.0
 10
15.3057060289
 20
12.3521572978
 30
0.0
 10
15.3109028708
 20
12.2877789079
 30
0.0
 10
15.3178377278
 20
12.2244920878
 30
0.0
 10
15.3264764323
 20
12.1626069437
 30
0.0
 10
15.335117164
 20
12.1121193498
 30
0.0
 10
15.3428661724
 20
12.0726777207
 30
0.0
 10
15.3490356627
 20
12.0438331169
 30
0.0
 10
15.3555943769
 20
12.0155609621
 30
0.0
 10
15.3625343161
 20
11.9878958107
 30
0.0
 10
15.3698469521
 20
11.9608715618
 30
0.0
 10
15.3775233185
 20
11.9345212972
 30
0.0
 10
15.3855540014
 20
11.9088772715
 30
0.0
 10
15.3939291578
 20
11.883970863
 30
0.0
 10
15.4026385279
 20
11.8598325368
 30
0.0
 10
15.4116714493
 20
11.8364918053
 30
0.0
 10
15.4210168731
 20
11.813977192
 30
0.0
 10
15.4306633801
 20
11.7923161947
 30
0.0
 10
15.4405991992
 20
11.7715352516
 30
0.0
 10
15.450812226
 20
11.7516597085
 30
0.0
 10
15.4612900444
 20
11.7327137884
 30
0.0
 10
15.4720199491
 20
11.7147205632
 30
0.0
 10
15.4829889699
 20
11.6977019295
 30
0.0
 10
15.4941838983
 20
11.6816785877
 30
0.0
 10
15.505591315
 20
11.6666700274
 30
0.0
 10
15.5171976184
 20
11.6526945194
 30
0.0
 10
15.5289890513
 20
11.6397691164
 30
0.0
 10
15.5409517249
 20
11.6279096644
 30
0.0
 10
15.5530716323
 20
11.6171308257
 30
0.0
 10
15.5653346487
 20
11.6074461124
 30
0.0
 10
15.5777265057
 20
11.5988679262
 30
0.0
 10
15.5902327406
 20
11.5914075945
 30
0.0
 10
15.6028385915
 20
11.5850753859
 30
0.0
 10
15.6155289239
 20
11.5798804816
 30
0.0
 10
15.628287931
 20
11.5758308776
 30
0.0
 10
15.6410996472
 20
11.5729332083
 30
0.0
 10
15.6539457009
 20
11.5711924962
 30
0.0
 10
15.6625340307
 20
11.5708049974
 30
0.0
 10
15.6668111338
 20
11.5708049942
 30
0.0
  0
SPLINE
  5
2ED
100
AcDbEntity
  8
02___PRT_ALL_AXES
100
AcDbSpline
 62
7
  6
CONTINUOUS
 70
0
 71
3
 72
37
 73
33
 74
0
 42
0.0000001
 43
0.0000001
 44
0.0000000001
 40
0.0
 40
0.0
 40
0.0
 40
0.0
 40
0.087964253
 40
0.172656407
 40
0.2137279222
 40
0.2539252466
 40
0.2932330014
 40
0.3316376703
 40
0.3691277207
 40
0.405693756
 40
0.4413286861
 40
0.4760279129
 40
0.5097895391
 40
0.5426145969
 40
0.5745073042
 40
0.6054753434
 40
0.6355301637
 40
0.664687313
 40
0.6929667917
 40
0.7203934275
 40
0.7469972608
 40
0.7728139304
 40
0.7978850362
 40
0.8222584574
 40
0.8459885957
 40
0.8691365033
 40
0.891769852
 40
0.913962701
 40
0.9357950248
 40
0.9573519747
 40
0.9787228783
 40
1.0
 40
1.0
 40
1.0
 40
1.0
 10
15.3800717792
 20
13.0951183631
 30
0.0
 10
15.3842628084
 20
13.1086805384
 30
0.0
 10
15.3929149469
 20
13.135171261
 30
0.0
 10
15.4047645367
 20
13.1675701791
 30
0.0
 10
15.4146815613
 20
13.1924494816
 30
0.0
 10
15.4222426514
 20
13.2103794766
 30
0.0
 10
15.4299969757
 20
13.2277565787
 30
0.0
 10
15.4379384747
 20
13.2445671231
 30
0.0
 10
15.4460608789
 20
13.260797852
 30
0.0
 10
15.4543578005
 20
13.2764359815
 30
0.0
 10
15.4628227179
 20
13.291469196
 30
0.0
 10
15.4714489883
 20
13.3058856615
 30
0.0
 10
15.4802298531
 20
13.3196740327
 30
0.0
 10
15.4891584469
 20
13.3328234611
 30
0.0
 10
15.4982278032
 20
13.345323603
 30
0.0
 10
15.5074308635
 20
13.3571646241
 30
0.0
 10
15.5167604862
 20
13.3683372024
 30
0.0
 10
15.5262094538
 20
13.3788325299
 30
0.0
 10
15.5357704798
 20
13.3886423125
 30
0.0
 10
15.5454362149
 20
13.3977587674
 30
0.0
 10
15.55519925
 20
13.4061746196
 30
0.0
 10
15.5650521148
 20
13.4138830974
 30
0.0
 10
15.5749872747
 20
13.4208779245
 30
0.0
 10
15.5849971208
 20
13.4271533128
 30
0.0
 10
15.5950739525
 20
13.4327039596
 30
0.0
 10
15.6052099574
 20
13.4375250518
 30
0.0
 10
15.6153971789
 20
13.4416122786
 30
0.0
 10
15.6256275143
 20
13.4449618602
 30
0.0
 10
15.6358926098
 20
13.4475705899
 30
0.0
 10
15.6461841707
 20
13.4494358847
 30
0.0
 10
15.6564928285
 20
13.4505558396
 30
0.0
 10
15.6633776003
 20
13.4508049941
 30
0.0
 10
15.6668111338
 20
13.4508049916
 30
0.0
  0
SPLINE
  5
2EE
100
AcDbEntity
  8
LAYER_FEATURE
100
AcDbSpline
 62
7
  6
CONTINUOUS
 70
0
 71
3
 72
15
 73
11
 74
0
 42
0.0000001
 43
0.0000001
 44
0.0000000001
 40
0.0
 40
0.0
 40
0.0
 40
0.0
 40
0.1334427034
 40
0.2700914408
 40
0.4070459539
 40
0.5413781001
 40
0.6702642862
 40
0.7910935811
 40
0.9015920806
 40
1.0
 40
1.0
 40
1.0
 40
1.0
 10
14.8381630641
 20
13.026790051
 30
0.0
 10
14.8380696848
 20
13.0260994491
 30
0.0
 10
14.83792885
 20
13.024694781
 30
0.0
 10
14.8378501905
 20
13.0225692219
 30
0.0
 10
14.8379021107
 20
13.0204380985
 30
0.0
 10
14.8380833155
 20
13.0183546883
 30
0.0
 10
14.8383891056
 20
13.0163709043
 30
0.0
 10
14.8388116933
 20
13.014535735
 30
0.0
 10
14.8393401364
 20
13.0128945472
 30
0.0
 10
14.8397818104
 20
13.0118934823
 30
0.0
 10
14.8400225676
 20
13.0114394428
 30
0.0
  0
SPLINE
  5
2EF
100
AcDbEntity
  8
LAYER_FEATURE
100
AcDbSpline
 62
7
  6
CONTINUOUS
 70
0
 71
3
 72
15
 73
11
 74
0
 42
0.0000001
 43
0.0000001
 44
0.0000000001
 40
0.0
 40
0.0
 40
0.0
 40
0.0
 40
0.1417244768
 40
0.2812949259
 40
0.4172879753
 40
0.5483382239
 40
0.673180423
 40
0.7906793062
 40
0.8998667458
 40
1.0
 40
1.0
 40
1.0
 40
1.0
 10
14.8559213242
 20
12.9600125647
 30
0.0
 10
14.8558869894
 20
12.9617387459
 30
0.0
 10
14.8557452475
 20
12.9651638926
 30
0.0
 10
14.8553121224
 20
12.9702305343
 30
0.0
 10
14.8546647737
 20
12.9751433832
 30
0.0
 10
14.8538111874
 20
12.979842574
 30
0.0
 10
14.8527619445
 20
12.9842710387
 30
0.0
 10
14.8515298838
 20
12.9883754173
 30
0.0
 10
14.8501302684
 20
12.9921060528
 30
0.0
 10
14.8490476833
 20
12.9944191409
 30
0.0
 10
14.8484762209
 20
12.9954968514
 30
0.0
  0
SPLINE
  5
2F0
100
AcDbEntity
  8
02___PRT_ALL_AXES
100
AcDbSpline
 62
7
  6
CONTINUOUS
 70
0
 71
3
 72
15
 73
11
 74
0
 42
0.0000001
 43
0.0000001
 44
0.0000000001
 40
0.0
 40
0.0
 40
0.0
 40
0.0
 40
0.1336136089
 40
0.2636883504
 40
0.390701947
 40
0.5151945695
 40
0.6377451248
 40
0.7589671686
 40
0.8795009196
 40
1.0
 40
1.0
 40
1.0
 40
1.0
 10
15.9094999644
 20
11.8399048432
 30
0.0
 10
15.9068201159
 20
11.8383645553
 30
0.0
 10
15.9014347217
 20
11.8354887716
 30
0.0
 10
15.8931885783
 20
11.8317717265
 30
0.0
 10
15.884898185
 20
11.8287175402
 30
0.0
 10
15.8765723022
 20
11.8263301073
 30
0.0
 10
15.8682192859
 20
11.8246122834
 30
0.0
 10
15.8598476929
 20
11.8235663977
 30
0.0
 10
15.8514671439
 20
11.8231938268
 30
0.0
 10
15.8458877254
 20
11.8233943986
 30
0.0
 10
15.8431081517
 20
11.8236055219
 30
0.0
  0
SPLINE
  5
2F1
100
AcDbEntity
  8
02___PRT_ALL_AXES
100
AcDbSpline
 62
7
  6
CONTINUOUS
 70
0
 71
3
 72
33
 73
29
 74
0
 42
0.0000001
 43
0.0000001
 44
0.0000000001
 40
0.0
 40
0.0
 40
0.0
 40
0.0
 40
0.0837375787
 40
0.1648457279
 40
0.2432142452
 40
0.3187463604
 40
0.3913621387
 40
0.4265581627
 40
0.4610037229
 40
0.4946944087
 40
0.5276273397
 40
0.5598012339
 40
0.5912164926
 40
0.6218754135
 40
0.6517822142
 40
0.6809432782
 40
0.7093672623
 40
0.7370652532
 40
0.7640510185
 40
0.7903410918
 40
0.8159550635
 40
0.8409157146
 40
0.8652492093
 40
0.9121452907
 40
0.9347908897
 40
0.9569511343
 40
0.9786711695
 40
1.0
 40
1.0
 40
1.0
 40
1.0
 10
15.2755949399
 20
13.3080197772
 30
0.0
 10
15.2804839919
 20
13.3238407552
 30
0.0
 10
15.290534841
 20
13.354856473
 30
0.0
 10
15.3067066585
 20
13.4001594767
 30
0.0
 10
15.3237045732
 20
13.4434215645
 30
0.0
 10
15.3414894747
 20
13.4845430061
 30
0.0
 10
15.3570906348
 20
13.5172819057
 30
0.0
 10
15.3699499498
 20
13.5423041697
 30
0.0
 10
15.3796649029
 20
13.5602828723
 30
0.0
 10
15.3895449384
 20
13.5776584284
 30
0.0
 10
15.3995844608
 20
13.5944209361
 30
0.0
 10
15.409777707
 20
13.6105607839
 30
0.0
 10
15.4201188994
 20
13.6260687106
 30
0.0
 10
15.430602102
 20
13.6409358555
 30
0.0
 10
15.4412213898
 20
13.6551536798
 30
0.0
 10
15.4519707119
 20
13.6687140482
 30
0.0
 10
15.4628439683
 20
13.6816091907
 30
0.0
 10
15.4738350399
 20
13.6938316866
 30
0.0
 10
15.4849376646
 20
13.7053745366
 30
0.0
 10
15.496145673
 20
13.716231089
 30
0.0
 10
15.5074525681
 20
13.7263949779
 30
0.0
 10
15.5188525939
 20
13.7358607104
 30
0.0
 10
15.5339793477
 20
13.7473994901
 30
0.0
 10
15.5494587481
 20
13.7577028358
 30
0.0
 10
15.5652488067
 20
13.7666324182
 30
0.0
 10
15.5770150946
 20
13.7725300657
 30
0.0
 10
15.588834173
 20
13.777701261
 30
0.0
 10
15.5968116545
 20
13.7806875252
 30
0.0
 10
15.6008020122
 20
13.7820538425
 30
0.0
  0
SPLINE
  5
2F2
100
AcDbEntity
  8
LAYER_FEATURE
100
AcDbSpline
 62
7
  6
CONTINUOUS
 70
0
 71
3
 72
56
 73
52
 74
0
 42
0.0000001
 43
0.0000001
 44
0.0000000001
 40
0.0
 40
0.0
 40
0.0
 40
0.0
 40
0.0394995602
 40
0.0794521739
 40
0.1197453166
 40
0.160264391
 40
0.200893783
 40
0.2415173374
 40
0.2820189256
 40
0.3222830174
 40
0.3621952615
 40
0.4016430597
 40
0.4405161694
 40
0.4787073093
 40
0.5161127931
 40
0.5526332059
 40
0.5881740957
 40
0.6055497768
 40
0.6226478331
 40
0.6394582152
 40
0.6559713493
 40
0.6721781592
 40
0.6880701033
 40
0.7036392256
 40
0.7188781852
 40
0.7337802968
 40
0.7483395912
 40
0.7625508709
 40
0.7764097575
 40
0.7899127607
 40
0.8030573665
 40
0.8158421052
 40
0.8282666381
 40
0.84033187
 40
0.8520400612
 40
0.8633949383
 40
0.8744018311
 40
0.8850678316
 40
0.8954019355
 40
0.9054151994
 40
0.9151209157
 40
0.9245347702
 40
0.9336749744
 40
0.9425623834
 40
0.9512205739
 40
0.95967584
 40
0.9679571117
 40
0.9760957812
 40
0.9841254068
 40
0.9920812975
 40
1.0
 40
1.0
 40
1.0
 40
1.0
 10
14.8215896521
 20
12.9042186035
 30
0.0
 10
14.81860432
 20
12.8782860411
 30
0.0
 10
14.8132358324
 20
12.8260481583
 30
0.0
 10
14.8070065731
 20
12.7471515212
 30
0.0
 10
14.8025682032
 20
12.667458781
 30
0.0
 10
14.7999357974
 20
12.5872387121
 30
0.0
 10
14.7991182407
 20
12.5067612792
 30
0.0
 10
14.8001183201
 20
12.4262974713
 30
0.0
 10
14.8029326217
 20
12.3461181738
 30
0.0
 10
14.8075516646
 20
12.266493321
 30
0.0
 10
14.8139597881
 20
12.1876909511
 30
0.0
 10
14.8221353498
 20
12.1099763053
 30
0.0
 10
14.8320506866
 20
12.0336108984
 30
0.0
 10
14.84367227
 20
11.9588516893
 30
0.0
 10
14.8569608439
 20
11.8859499676
 30
0.0
 10
14.8718714347
 20
11.8151513136
 30
0.0
 10
14.8857086961
 20
11.7576784146
 30
0.0
 10
14.8975705743
 20
11.7129529488
 30
0.0
 10
14.9067727708
 20
11.6803327687
 30
0.0
 10
14.9163396134
 20
11.6484122814
 30
0.0
 10
14.9262630826
 20
11.6172182776
 30
0.0
 10
14.9365348072
 20
11.5867770271
 30
0.0
 10
14.9471461542
 20
11.5571141425
 30
0.0
 10
14.9580881754
 20
11.5282545693
 30
0.0
 10
14.9693516591
 20
11.5002225715
 30
0.0
 10
14.9809271446
 20
11.4730417209
 30
0.0
 10
14.9928049038
 20
11.4467348592
 30
0.0
 10
15.0049749486
 20
11.4213240763
 30
0.0
 10
15.0174270717
 20
11.3968307113
 30
0.0
 10
15.0301508536
 20
11.3732753311
 30
0.0
 10
15.0431356316
 20
11.3506776881
 30
0.0
 10
15.0563705525
 20
11.3290567274
 30
0.0
 10
15.0698445937
 20
11.3084305835
 30
0.0
 10
15.0835465459
 20
11.2888165443
 30
0.0
 10
15.0974650256
 20
11.2702310359
 30
0.0
 10
15.1115885208
 20
11.2526896437
 30
0.0
 10
15.1259054009
 20
11.2362071063
 30
0.0
 10
15.1404038854
 20
11.220797272
 30
0.0
 10
15.1550720975
 20
11.2064731374
 30
0.0
 10
15.1698980786
 20
11.193246872
 30
0.0
 10
15.1848697589
 20
11.1811297915
 30
0.0
 10
15.1999749518
 20
11.170132363
 30
0.0
 10
15.2152013688
 20
11.1602642615
 30
0.0
 10
15.230536583
 20
11.1515343768
 30
0.0
 10
15.2459679568
 20
11.1439507428
 30
0.0
 10
15.2614826241
 20
11.1375205761
 30
0.0
 10
15.2770674781
 20
11.1322502552
 30
0.0
 10
15.2927089717
 20
11.1281451939
 30
0.0
 10
15.3083936208
 20
11.1252097419
 30
0.0
 10
15.3241061773
 20
11.1234471281
 30
0.0
 10
15.3346012968
 20
11.123055006
 30
0.0
 10
15.339834481
 20
11.1230549994
 30
0.0
  0
SPLINE
  5
2F3
100
AcDbEntity
  8
LAYER_FEATURE
100
AcDbSpline
 62
7
  6
CONTINUOUS
 70
0
 71
3
 72
15
 73
11
 74
0
 42
0.0000001
 43
0.0000001
 44
0.0000000001
 40
0.0
 40
0.0
 40
0.0
 40
0.0
 40
0.1135225319
 40
0.2355592166
 40
0.3636923714
 40
0.4952476134
 40
0.6274264102
 40
0.7574071313
 40
0.8824447333
 40
1.0
 40
1.0
 40
1.0
 40
1.0
 10
14.9326795015
 20
13.4233194353
 30
0.0
 10
14.9324979843
 20
13.4227320455
 30
0.0
 10
14.9321791534
 20
13.4214949641
 30
0.0
 10
14.9318346871
 20
13.4195541336
 30
0.0
 10
14.9316125645
 20
13.4174972945
 30
0.0
 10
14.9315185805
 20
13.415375811
 30
0.0
 10
14.9315551392
 20
13.41324257
 30
0.0
 10
14.9317213158
 20
13.4111507938
 30
0.0
 10
14.9320127638
 20
13.4091527703
 30
0.0
 10
14.932296169
 20
13.4078682562
 30
0.0
 10
14.9324603109
 20
13.4072531434
 30
0.0
  0
SPLINE
  5
2F4
100
AcDbEntity
  8
LAYER_FEATURE
100
AcDbSpline
 62
7
  6
CONTINUOUS
 70
0
 71
3
 72
15
 73
11
 74
0
 42
0.0000001
 43
0.0000001
 44
0.0000000001
 40
0.0
 40
0.0
 40
0.0
 40
0.0
 40
0.1268997237
 40
0.2559111064
 40
0.3857038519
 40
0.5149258567
 40
0.6422383017
 40
0.7663370526
 40
0.8859752718
 40
1.0
 40
1.0
 40
1.0
 40
1.0
 10
14.9408525256
 20
13.3452278892
 30
0.0
 10
14.941045186
 20
13.3469130234
 30
0.0
 10
14.9413544677
 20
13.3503208433
 30
0.0
 10
14.9415938104
 20
13.3554720457
 30
0.0
 10
14.9416110843
 20
13.3606599038
 30
0.0
 10
14.9414060363
 20
13.3658210047
 30
0.0
 10
14.9409812236
 20
13.3708923773
 30
0.0
 10
14.9403418967
 20
13.3758122326
 30
0.0
 10
14.9394960466
 20
13.380520498
 30
0.0
 10
14.9387820243
 20
13.3835628614
 30
0.0
 10
14.9383890895
 20
13.3850353636
 30
0.0
  0
SPLINE
  5
2F5
100
AcDbEntity
  8
LAYER_FEATURE
100
AcDbSpline
 62
7
  6
CONTINUOUS
 70
0
 71
3
 72
39
 73
35
 74
0
 42
0.0000001
 43
0.0000001
 44
0.0000000001
 40
0.0
 40
0.0
 40
0.0
 40
0.0
 40
0.0443812481
 40
0.0879669295
 40
0.1307335086
 40
0.172661876
 40
0.2137331571
 40
0.2539301992
 40
0.2932376968
 40
0.3316421073
 40
0.369131911
 40
0.4056977099
 40
0.4413323968
 40
0.4760313903
 40
0.5097927974
 40
0.5426176342
 40
0.5745101269
 40
0.6054779669
 40
0.6355325892
 40
0.664689538
 40
0.6929688298
 40
0.7203952869
 40
0.7469989387
 40
0.7728154376
 40
0.7978863828
 40
0.8222596394
 40
0.8459896168
 40
0.869137373
 40
0.8917705712
 40
0.9139632708
 40
0.935795451
 40
0.9573522592
 40
0.9787230199
 40
1.0
 40
1.0
 40
1.0
 40
1.0
 10
14.8649348847
 20
13.4447739702
 30
0.0
 10
14.8683147819
 20
13.4557113214
 30
0.0
 10
14.8751891305
 20
13.4773363472
 30
0.0
 10
14.8859461372
 20
13.5092976154
 30
0.0
 10
14.8970488037
 20
13.5404698276
 30
0.0
 10
14.9084881888
 20
13.5708280233
 30
0.0
 10
14.920255352
 20
13.6003484673
 30
0.0
 10
14.9323409774
 20
13.6290078161
 30
0.0
 10
14.9447355321
 20
13.6567834578
 30
0.0
 10
14.9574292606
 20
13.6836534988
 30
0.0
 10
14.9704121445
 20
13.7095967683
 30
0.0
 10
14.9836739722
 20
13.7345928252
 30
0.0
 10
14.9972043395
 20
13.7586219745
 30
0.0
 10
15.0109926088
 20
13.7816653116
 30
0.0
 10
15.0250279736
 20
13.8037047069
 30
0.0
 10
15.0392994794
 20
13.8247228068
 30
0.0
 10
15.053795981
 20
13.844703084
 30
0.0
 10
15.0685061852
 20
13.8636298292
 30
0.0
 10
15.0834186923
 20
13.8814881279
 30
0.0
 10
15.0985219696
 20
13.8982638959
 30
0.0
 10
15.1138043521
 20
13.913943895
 30
0.0
 10
15.1292540988
 20
13.9285156811
 30
0.0
 10
15.1448593824
 20
13.9419676071
 30
0.0
 10
15.1606082432
 20
13.9542888714
 30
0.0
 10
15.1764886378
 20
13.965469445
 30
0.0
 10
15.1924884228
 20
13.9755000459
 30
0.0
 10
15.2085952767
 20
13.984372215
 30
0.0
 10
15.2247967056
 20
13.9920782775
 30
0.0
 10
15.2410800042
 20
13.9986113185
 30
0.0
 10
15.2574322189
 20
14.0039652936
 30
0.0
 10
15.2738399888
 20
14.0081351066
 30
0.0
 10
15.2902900625
 20
14.0111166136
 30
0.0
 10
15.3067674669
 20
14.0129067369
 30
0.0
 10
15.3177721147
 20
14.0133049899
 30
0.0
 10
15.3232602894
 20
14.0133049845
 30
0.0
  0
ENDSEC
  0
SECTION
  2
OBJECTS
  0
DICTIONARY
  5
C
100
AcDbDictionary
280
0
281
1
  3
ACAD_GROUP
350
D
  3
ACAD_MLINESTYLE
350
17
  3
ACAD_LAYOUT
350
1A
  3
ACAD_PLOTSETTINGS
350
19
  3
ACAD_PLOTSTYLENAME
350
E
  0
DICTIONARY
  5
D
102
{ACAD_REACTORS
330
C
102
}
100
AcDbDictionary
280
0
281
1
  0
ACDBDICTIONARYWDFLT
  5
E
102
{ACAD_REACTORS
330
C
102
}
100
AcDbDictionary
281
1
  3
Normal
350
F
100
AcDbDictionaryWithDefault
340
F
  0
DICTIONARY
  5
17
102
{ACAD_REACTORS
330
C
102
}
100
AcDbDictionary
280
0
281
1
  3
Standard
350
18
  0
DICTIONARY
  5
19
102
{ACAD_REACTORS
330
C
102
}
100
AcDbDictionary
281
1
  0
DICTIONARY
  5
1A
102
{ACAD_REACTORS
330
C
102
}
100
AcDbDictionary
281
1
  3
Model
350
2F6
  3
Layout1
350
2F7
  0
ACDBPLACEHOLDER
  5
F
102
{ACAD_REACTORS
330
E
102
}
  0
MLINESTYLE
  5
18
102
{ACAD_REACTORS
330
17
102
}
100
AcDbMlineStyle
  2
STANDARD
 70
0
  3

 62
256
 51
90.0
 52
90.0
 71
2
 49
0.5
 62
256
  6
BYLAYER
 49
-0.5
 62
256
  6
BYLAYER
  0
LAYOUT
  5
2F6
102
{ACAD_REACTORS
330
1A
102
}
100
AcDbPlotSettings
  1

  2
none_device
  4
ANSI_C_(22.00_x_17.00_Inches)
  6

 40
0.0
 41
0.0
 42
0.0
 43
0.0
 44
558.8
 45
431.8
 46
0.0
 47
0.0
 48
0.0
 49
0.0
140
0.0
141
0.0
142
1.0
143
1.0
 70
1024
 72
0
 73
0
 74
0
  7

 75
0
147
1.0
148
0.0
149
0.0
100
AcDbLayout
  1
Model
 70
0
 71
0
 10
0.0
 20
0.0
 11
22.0
 21
17.0
 12
0.0
 22
0.0
 32
0.0
 14
0.0
 24
0.0
 34
0.0
 15
0.0
 25
0.0
 35
0.0
146
0.0
 13
0.0
 23
0.0
 33
0.0
 16
1.0
 26
0.0
 36
0.0
 17
0.0
 27
1.0
 37
0.0
 76
0
330
222
345
0
346
0
  0
LAYOUT
  5
2F7
102
{ACAD_REACTORS
330
1A
102
}
100
AcDbPlotSettings
  1

  2
none_device
  4
ANSI_C_(22.00_x_17.00_Inches)
  6

 40
0.0
 41
0.0
 42
0.0
 43
0.0
 44
558.8
 45
431.8
 46
0.0
 47
0.0
 48
0.0
 49
0.0
140
0.0
141
0.0
142
1.0
143
1.0
 70
0
 72
0
 73
0
 74
0
  7

 75
0
147
1.0
148
0.0
149
0.0
100
AcDbLayout
  1
Layout1
 70
0
 71
1
 10
0.0
 20
0.0
 11
22.0
 21
17.0
 12
0.0
 22
0.0
 32
0.0
 14
0.0
 24
0.0
 34
0.0
 15
0.0
 25
0.0
 35
0.0
146
0.0
 13
0.0
 23
0.0
 33
0.0
 16
1.0
 26
0.0
 36
0.0
 17
0.0
 27
1.0
 37
0.0
 76
0
330
223
345
0
346
0
  0
ENDSEC
  0
EOF