999
DXF file: _cgs_temp_output.dxf
999
Pro/ENGINEER 2016360 by Parametric Technology Corporation
  0
SECTION
  2
HEADER
  9
$ACADVER
  1
AC1021
  9
$DWGCODEPAGE
  3
ANSI_1252
  9
$EXTMAX
 10
22.0
 20
17.0
 30
0.0
  9
$EXTMIN
 10
0.0
 20
0.0
 30
0.0
  9
$LIMMIN
 10
0.0
 20
0.0
  9
$LIMMAX
 10
22.0
 20
17.0
  9
$VIEWCTR
 10
11.0
 20
8.5
  9
$VIEWSIZE
 40
17.0
  9
$CLAYER
  8
0
  9
$LTSCALE
 40
1.21
  9
$CELTYPE
  6
BYLAYER
  9
$DIMSCALE
 40
1.0
  9
$DIMASZ
 40
0.1875
  9
$DIMEXO
 40
0.0625
  9
$DIMDLI
 40
0.836
  9
$DIMEXE
 40
0.125
  9
$DIMCEN
 40
0.198
  9
$DIMLFAC
 40
1.0
  9
$DIMBLK
  1
_CLOSED
  9
$DIMALT
 70
0
  9
$DIMALTF
 40
25.4
  9
$DIMTXT
 40
0.15625
  9
$DIMTOL
 70
0
  9
$DIMLIM
 70
0
  9
$DIMTFAC
 40
1.0
  9
$DIMGAP
 40
0.09
  9
$DIMDSEP
 70
46
  9
$AUNITS
 70
0
  9
$PDMODE
 70
3
  9
$PDSIZE
 40
0.3125
  9
$HANDSEED
  5
363
  9
$TILEMODE
 70
1
  9
$MEASUREMENT
 70
0
  9
$INSUNITS
 70
1
  0
ENDSEC
  0
SECTION
  2
CLASSES
  0
CLASS
  1
ACDBDICTIONARYWDFLT
  2
AcDbDictionaryWithDefault
  3
AutoCAD 2000
 90
0
 91
1
280
0
281
0
  0
CLASS
  1
ACDBPLACEHOLDER
  2
AcDbPlaceHolder
  3
AutoCAD 2000
 90
0
 91
1
280
0
281
0
  0
CLASS
  1
LAYOUT
  2
AcDbLayout
  3
AutoCAD 2000
 90
0
 91
0
280
0
281
0
  0
ENDSEC
  0
SECTION
  2
TABLES
  0
TABLE
  2
VPORT
  5
8
100
AcDbSymbolTable
 70
2
  0
VPORT
  5
1F4
100
AcDbSymbolTableRecord
100
AcDbViewportTableRecord
  2
*ACTIVE
 70
0
 10
0.0
 20
0.0
 11
1.0
 21
1.0
 12
11.0
 22
8.5
 13
0.0
 23
0.0
 14
1.0
 24
1.0
 15
0.0
 25
0.0
 16
0.0
 26
0.0
 36
1.0
 17
0.0
 27
0.0
 37
0.0
 40
17.0
 41
1.2941176471
 42
50.0
 43
0.0
 44
0.0
 50
0.0
 51
0.0
 71
0
 72
100
 73
1
 74
1
 75
0
 76
0
 77
0
 78
0
  0
ENDTAB
  0
TABLE
  2
LTYPE
  5
5
100
AcDbSymbolTable
 70
6
  0
LTYPE
  5
14
100
AcDbSymbolTableRecord
100
AcDbLinetypeTableRecord
  2
BYBLOCK
 70
0
  3

 72
65
 73
0
 40
0.0
  0
LTYPE
  5
15
100
AcDbSymbolTableRecord
100
AcDbLinetypeTableRecord
  2
BYLAYER
 70
0
  3

 72
65
 73
0
 40
0.0
  0
LTYPE
  5
16
100
AcDbSymbolTableRecord
100
AcDbLinetypeTableRecord
  2
CONTINUOUS
 70
64
  3
Solid line
 72
65
 73
0
 40
0.0
  0
LTYPE
  5
1F5
100
AcDbSymbolTableRecord
100
AcDbLinetypeTableRecord
  2
CENTER
 70
64
  3
____ _ ____ _ ____ _ ____ _ ____ _ ____ _ ____
 72
65
 73
4
 40
0.6
 49
0.375
 74
0
 49
-0.075
 74
0
 49
0.075
 74
0
 49
-0.075
 74
0
  0
LTYPE
  5
1F6
100
AcDbSymbolTableRecord
100
AcDbLinetypeTableRecord
  2
HIDDEN
 70
64
  3
- - - - - - - - - - - - - - - - - - - -
 72
65
 73
2
 40
0.2
 49
0.1
 74
0
 49
-0.1
 74
0
  0
LTYPE
  5
1F7
100
AcDbSymbolTableRecord
100
AcDbLinetypeTableRecord
  2
PHANTOM
 70
64
  3
_____ _ _ _____ _ _ _____ _ _ _____
 72
65
 73
6
 40
0.8
 49
0.45
 74
0
 49
-0.05
 74
0
 49
0.1
 74
0
 49
-0.05
 74
0
 49
0.1
 74
0
 49
-0.05
 74
0
  0
LTYPE
  5
1F8
100
AcDbSymbolTableRecord
100
AcDbLinetypeTableRecord
  2
DOT
 70
64
  3
. . . . . . . . . . . . . . . . . . . .
 72
65
 73
2
 40
0.2
 49
0.1
 74
0
 49
-0.1
 74
0
  0
LTYPE
  5
1F9
100
AcDbSymbolTableRecord
100
AcDbLinetypeTableRecord
  2
DASHED
 70
64
  3
- - - - - - - - - - - - - - - - - - - -
 72
65
 73
2
 40
0.2
 49
0.1
 74
0
 49
-0.1
 74
0
  0
ENDTAB
  0
TABLE
  2
LAYER
  5
2
100
AcDbSymbolTable
 70
36
  0
LAYER
  5
10
100
AcDbSymbolTableRecord
100
AcDbLayerTableRecord
  2
0
 70
0
 62
7
  6
CONTINUOUS
370
-3
390
F
  0
LAYER
  5
1FA
100
AcDbSymbolTableRecord
100
AcDbLayerTableRecord
  2
DEFAULT_1
 70
0
 62
7
  6
CENTER
370
-3
390
F
  0
LAYER
  5
1FB
100
AcDbSymbolTableRecord
100
AcDbLayerTableRecord
  2
DEFAULT_2
 70
0
 62
8
  6
HIDDEN
370
-3
390
F
  0
LAYER
  5
1FC
100
AcDbSymbolTableRecord
100
AcDbLayerTableRecord
  2
DEFAULT_3
 70
0
 62
7
  6
PHANTOM
370
-3
390
F
  0
LAYER
  5
1FD
100
AcDbSymbolTableRecord
100
AcDbLayerTableRecord
  2
01_ALL_DTM_PLN
 70
0
 62
7
  6
CONTINUOUS
370
-3
390
F
  0
LAYER
  5
1FE
100
AcDbSymbolTableRecord
100
AcDbLayerTableRecord
  2
01__ASM_ALL_DTM_PLN
 70
0
 62
7
  6
CONTINUOUS
370
-3
390
F
  0
LAYER
  5
1FF
100
AcDbSymbolTableRecord
100
AcDbLayerTableRecord
  2
01__ASM_DEF_DTM_PLN
 70
0
 62
7
  6
CONTINUOUS
370
-3
390
F
  0
LAYER
  5
200
100
AcDbSymbolTableRecord
100
AcDbLayerTableRecord
  2
01___PRT_ALL_DTM_PLN
 70
0
 62
7
  6
CONTINUOUS
370
-3
390
F
  0
LAYER
  5
201
100
AcDbSymbolTableRecord
100
AcDbLayerTableRecord
  2
01___PRT_DEF_DTM_PLN
 70
0
 62
7
  6
CONTINUOUS
370
-3
390
F
  0
LAYER
  5
202
100
AcDbSymbolTableRecord
100
AcDbLayerTableRecord
  2
02_ALL_AXES
 70
0
 62
7
  6
CONTINUOUS
370
-3
390
F
  0
LAYER
  5
203
100
AcDbSymbolTableRecord
100
AcDbLayerTableRecord
  2
02__ASM_ALL_AXES
 70
0
 62
7
  6
CONTINUOUS
370
-3
390
F
  0
LAYER
  5
204
100
AcDbSymbolTableRecord
100
AcDbLayerTableRecord
  2
02___PRT_ALL_AXES
 70
0
 62
7
  6
CONTINUOUS
370
-3
390
F
  0
LAYER
  5
205
100
AcDbSymbolTableRecord
100
AcDbLayerTableRecord
  2
03_ALL_CURVES
 70
0
 62
7
  6
CONTINUOUS
370
-3
390
F
  0
LAYER
  5
206
100
AcDbSymbolTableRecord
100
AcDbLayerTableRecord
  2
03__ASM_ALL_CURVES
 70
0
 62
7
  6
CONTINUOUS
370
-3
390
F
  0
LAYER
  5
207
100
AcDbSymbolTableRecord
100
AcDbLayerTableRecord
  2
03___PRT_ALL_CURVES
 70
0
 62
7
  6
CONTINUOUS
370
-3
390
F
  0
LAYER
  5
208
100
AcDbSymbolTableRecord
100
AcDbLayerTableRecord
  2
04_ALL_DTM_PNT
 70
0
 62
7
  6
CONTINUOUS
370
-3
390
F
  0
LAYER
  5
209
100
AcDbSymbolTableRecord
100
AcDbLayerTableRecord
  2
04__ASM_ALL_DTM_PNT
 70
0
 62
7
  6
CONTINUOUS
370
-3
390
F
  0
LAYER
  5
20A
100
AcDbSymbolTableRecord
100
AcDbLayerTableRecord
  2
04___PRT_ALL_DTM_PNT
 70
0
 62
7
  6
CONTINUOUS
370
-3
390
F
  0
LAYER
  5
20B
100
AcDbSymbolTableRecord
100
AcDbLayerTableRecord
  2
05_ALL_DTM_CSYS
 70
0
 62
7
  6
CONTINUOUS
370
-3
390
F
  0
LAYER
  5
20C
100
AcDbSymbolTableRecord
100
AcDbLayerTableRecord
  2
05__ASM_ALL_DTM_CSYS
 70
0
 62
7
  6
CONTINUOUS
370
-3
390
F
  0
LAYER
  5
20D
100
AcDbSymbolTableRecord
100
AcDbLayerTableRecord
  2
05__ASM_DEF_DTM_CSYS
 70
0
 62
7
  6
CONTINUOUS
370
-3
390
F
  0
LAYER
  5
20E
100
AcDbSymbolTableRecord
100
AcDbLayerTableRecord
  2
05___PRT_ALL_DTM_CSYS
 70
0
 62
7
  6
CONTINUOUS
370
-3
390
F
  0
LAYER
  5
20F
100
AcDbSymbolTableRecord
100
AcDbLayerTableRecord
  2
05___PRT_DEF_DTM_CSYS
 70
0
 62
7
  6
CONTINUOUS
370
-3
390
F
  0
LAYER
  5
210
100
AcDbSymbolTableRecord
100
AcDbLayerTableRecord
  2
06_ALL_SURFS
 70
0
 62
7
  6
CONTINUOUS
370
-3
390
F
  0
LAYER
  5
211
100
AcDbSymbolTableRecord
100
AcDbLayerTableRecord
  2
06__ASM_ALL_SURFS
 70
0
 62
7
  6
CONTINUOUS
370
-3
390
F
  0
LAYER
  5
212
100
AcDbSymbolTableRecord
100
AcDbLayerTableRecord
  2
06___PRT_ALL_SURFS
 70
0
 62
7
  6
CONTINUOUS
370
-3
390
F
  0
LAYER
  5
213
100
AcDbSymbolTableRecord
100
AcDbLayerTableRecord
  2
07__ASM_ALL_SKELETONS
 70
0
 62
7
  6
CONTINUOUS
370
-3
390
F
  0
LAYER
  5
214
100
AcDbSymbolTableRecord
100
AcDbLayerTableRecord
  2
LAYER_AXIS
 70
0
 62
7
  6
CONTINUOUS
370
-3
390
F
  0
LAYER
  5
215
100
AcDbSymbolTableRecord
100
AcDbLayerTableRecord
  2
LAYER_CHAMFER_FEAT
 70
0
 62
7
  6
CONTINUOUS
370
-3
390
F
  0
LAYER
  5
216
100
AcDbSymbolTableRecord
100
AcDbLayerTableRecord
  2
LAYER_CUT_FEAT
 70
0
 62
7
  6
CONTINUOUS
370
-3
390
F
  0
LAYER
  5
217
100
AcDbSymbolTableRecord
100
AcDbLayerTableRecord
  2
LAYER_DATUM
 70
0
 62
7
  6
CONTINUOUS
370
-3
390
F
  0
LAYER
  5
218
100
AcDbSymbolTableRecord
100
AcDbLayerTableRecord
  2
LAYER_DIM
 70
0
 62
7
  6
CONTINUOUS
370
-3
390
F
  0
LAYER
  5
219
100
AcDbSymbolTableRecord
100
AcDbLayerTableRecord
  2
LAYER_FEATURE
 70
0
 62
7
  6
CONTINUOUS
370
-3
390
F
  0
LAYER
  5
21A
100
AcDbSymbolTableRecord
100
AcDbLayerTableRecord
  2
LAYER_GEOM_FEAT
 70
0
 62
7
  6
CONTINUOUS
370
-3
390
F
  0
LAYER
  5
21B
100
AcDbSymbolTableRecord
100
AcDbLayerTableRecord
  2
LAYER_NOGEOM_FEAT
 70
0
 62
7
  6
CONTINUOUS
370
-3
390
F
  0
LAYER
  5
21C
100
AcDbSymbolTableRecord
100
AcDbLayerTableRecord
  2
LAYER_PARAMETER_DIM
 70
0
 62
7
  6
CONTINUOUS
370
-3
390
F
  0
LAYER
  5
21D
100
AcDbSymbolTableRecord
100
AcDbLayerTableRecord
  2
LAYER_PROTRUSION_FEAT
 70
0
 62
7
  6
CONTINUOUS
370
-3
390
F
  0
LAYER
  5
21E
100
AcDbSymbolTableRecord
100
AcDbLayerTableRecord
  2
LAYER_QUILT
 70
0
 62
7
  6
CONTINUOUS
370
-3
390
F
  0
LAYER
  5
21F
100
AcDbSymbolTableRecord
100
AcDbLayerTableRecord
  2
LAYER_ROUND_FEAT
 70
0
 62
7
  6
CONTINUOUS
370
-3
390
F
  0
ENDTAB
  0
TABLE
  2
STYLE
  5
3
100
AcDbSymbolTable
 70
1
  0
STYLE
  5
11
100
AcDbSymbolTableRecord
100
AcDbTextStyleTableRecord
  2
STANDARD
 70
0
 40
0.0
 41
0.8
 50
0.0
 71
0
 42
0.2
  3
txt
  4

  0
STYLE
  5
220
100
AcDbSymbolTableRecord
100
AcDbTextStyleTableRecord
  2
TEXTSTYLE_1
 70
0
 40
0.0
 41
0.8
 50
0.0
 71
0
 42
0.2
  3
gdt
  4

  0
ENDTAB
  0
TABLE
  2
VIEW
  5
6
100
AcDbSymbolTable
 70
0
  0
ENDTAB
  0
TABLE
  2
UCS
  5
7
100
AcDbSymbolTable
 70
0
  0
ENDTAB
  0
TABLE
  2
APPID
  5
9
100
AcDbSymbolTable
 70
1
  0
APPID
  5
221
100
AcDbSymbolTableRecord
100
AcDbRegAppTableRecord
  2
ACAD
 70
0
  0
ENDTAB
  0
TABLE
  2
BLOCK_RECORD
  5
1
100
AcDbSymbolTable
 70
0
  0
BLOCK_RECORD
  5
222
100
AcDbSymbolTableRecord
100
AcDbBlockTableRecord
  2
*Model_Space
  0
BLOCK_RECORD
  5
223
100
AcDbSymbolTableRecord
100
AcDbBlockTableRecord
  2
*Paper_Space
  0
ENDTAB
  0
TABLE
  2
DIMSTYLE
  5
A
100
AcDbSymbolTable
 70
1
100
AcDbDimStyleTable
 71
0
  0
DIMSTYLE
105
224
100
AcDbSymbolTableRecord
100
AcDbDimStyleTableRecord
  2
STANDARD
 70
0
  3

  4

 40
1.0
 41
0.1875
 42
0.0625
 43
0.38
 44
0.125
 45
0.0
 46
0.0
 47
0.0001
 48
0.0001
140
0.15625
141
0.09
142
0.0
143
25.4
144
1.0
145
0.0
146
1.0
147
0.09
 71
0.0
 72
0.0
 73
1
 74
1
 75
0
 76
0
 77
0
 78
4
 79
1
170
0
171
3
172
0
173
0
174
0
175
0
176
0
177
0
178
0
270
2
179
4
271
4
272
4
273
2
274
2
275
0
280
0
281
0
282
0
283
1
284
4
285
0
286
0
287
3
288
0
340
11
278
46
  0
ENDTAB
  0
ENDSEC
  0
SECTION
  2
BLOCKS
  0
BLOCK
  5
20
100
AcDbEntity
  8
0
100
AcDbBlockBegin
  2
*Model_Space
 70
0
 10
0.0
 20
0.0
 30
0.0
  3
*Model_Space
  1

  0
ENDBLK
  5
21
100
AcDbEntity
  8
0
100
AcDbBlockEnd
  0
BLOCK
  5
1C
100
AcDbEntity
  8
0
100
AcDbBlockBegin
  2
*Paper_Space
 70
0
 10
0.0
 20
0.0
 30
0.0
  3
*Paper_Space
  1

  0
ENDBLK
  5
1D
100
AcDbEntity
  8
0
100
AcDbBlockEnd
  0
ENDSEC
  0
SECTION
  2
ENTITIES
  0
MTEXT
  5
225
100
AcDbEntity
  8
0
100
AcDbMText
 62
7
  6
CONTINUOUS
  7
STANDARD
 71
1
 72
1
 10
15.9560215477
 20
0.9479130325
 30
0.0
 11
1.0
 21
0.0
 31
0.0
 44
0.9
  1
SCALE: 1:0.333
 40
0.3
 41
3.36
  0
LINE
  5
226
100
AcDbEntity
  8
0
100
AcDbLine
 62
7
  6
CONTINUOUS
 10
0.0
 20
0.0
 11
0.0
 21
17.0
  0
LINE
  5
227
100
AcDbEntity
  8
0
100
AcDbLine
 62
7
  6
CONTINUOUS
 10
0.0
 20
0.0
 11
22.0
 21
0.0
  0
LINE
  5
228
100
AcDbEntity
  8
0
100
AcDbLine
 62
7
  6
CONTINUOUS
 10
0.0
 20
17.0
 11
22.0
 21
17.0
  0
LINE
  5
229
100
AcDbEntity
  8
0
100
AcDbLine
 62
7
  6
CONTINUOUS
 10
22.0
 20
0.0
 11
22.0
 21
17.0
  0
LINE
  5
22A
100
AcDbEntity
  8
02___PRT_ALL_AXES
100
AcDbLine
 62
7
  6
CONTINUOUS
 10
5.8387006095
 20
4.0270843988
 11
6.2387006095
 21
4.0270843988
  0
LINE
  5
22B
100
AcDbEntity
  8
02___PRT_ALL_AXES
100
AcDbLine
 62
7
  6
CONTINUOUS
 10
6.4010339428
 20
4.7704177321
 11
6.2387006095
 21
4.7704177321
  0
LINE
  5
22C
100
AcDbEntity
  8
0
100
AcDbLine
 62
7
  6
CONTINUOUS
 10
5.8387006095
 20
4.0270844239
 11
5.8387006095
 21
7.0131246297
  0
LINE
  5
22D
100
AcDbEntity
  8
0
100
AcDbLine
 62
7
  6
CONTINUOUS
 10
6.2387006095
 20
4.0270844239
 11
6.2387006095
 21
7.0131246297
  0
LINE
  5
22E
100
AcDbEntity
  8
02___PRT_ALL_AXES
100
AcDbLine
 62
7
  6
CONTINUOUS
 10
6.4010339428
 20
6.2704177321
 11
6.4010339428
 21
4.7704177321
  0
LINE
  5
22F
100
AcDbEntity
  8
02___PRT_ALL_AXES
100
AcDbLine
 62
7
  6
CONTINUOUS
 10
6.4220339428
 20
6.2494177321
 11
6.4220339428
 21
4.7914177321
  0
LINE
  5
230
100
AcDbEntity
  8
02___PRT_ALL_AXES
100
AcDbLine
 62
7
  6
CONTINUOUS
 10
6.4220339428
 20
4.7914177321
 11
6.4010339428
 21
4.7704177321
  0
LINE
  5
231
100
AcDbEntity
  8
02___PRT_ALL_AXES
100
AcDbLine
 62
7
  6
CONTINUOUS
 10
6.4220339428
 20
6.2494177321
 11
6.4010339428
 21
6.2704177321
  0
LINE
  5
232
100
AcDbEntity
  8
02___PRT_ALL_AXES
100
AcDbLine
 62
7
  6
CONTINUOUS
 10
6.4010339428
 20
6.2704177321
 11
6.2387006095
 21
6.2704177321
  0
LINE
  5
233
100
AcDbEntity
  8
0
100
AcDbLine
 62
7
  6
CONTINUOUS
 10
5.8387006095
 20
6.9715132219
 11
6.2387006095
 21
6.9715132219
  0
LINE
  5
234
100
AcDbEntity
  8
0
100
AcDbLine
 62
7
  6
CONTINUOUS
 10
5.8387006095
 20
6.9717069095
 11
6.2387006095
 21
6.9717069095
  0
LINE
  5
235
100
AcDbEntity
  8
0
100
AcDbLine
 62
7
  6
CONTINUOUS
 10
5.8387006095
 20
6.9894975832
 11
6.2387006095
 21
6.9894975832
  0
LINE
  5
236
100
AcDbEntity
  8
0
100
AcDbLine
 62
7
  6
CONTINUOUS
 10
5.8387006095
 20
6.9925784721
 11
6.2387006095
 21
6.9925784721
  0
LINE
  5
237
100
AcDbEntity
  8
0
100
AcDbLine
 62
7
  6
CONTINUOUS
 10
5.8387006095
 20
6.9926647306
 11
6.2387006095
 21
6.9926647306
  0
LINE
  5
238
100
AcDbEntity
  8
0
100
AcDbLine
 62
7
  6
CONTINUOUS
 10
5.8387006095
 20
7.0046169454
 11
6.2387006095
 21
7.0046169454
  0
LINE
  5
239
100
AcDbEntity
  8
0
100
AcDbLine
 62
7
  6
CONTINUOUS
 10
5.8387006095
 20
7.0064715032
 11
6.2387006095
 21
7.0064715032
  0
LINE
  5
23A
100
AcDbEntity
  8
0
100
AcDbLine
 62
7
  6
CONTINUOUS
 10
5.8387006095
 20
7.0064930941
 11
6.2387006095
 21
7.0064930941
  0
LINE
  5
23B
100
AcDbEntity
  8
0
100
AcDbLine
 62
7
  6
CONTINUOUS
 10
5.8387006095
 20
7.0125054382
 11
6.2387006095
 21
7.0125054382
  0
LINE
  5
23C
100
AcDbEntity
  8
0
100
AcDbLine
 62
7
  6
CONTINUOUS
 10
5.8387006095
 20
7.0131246297
 11
6.2387006095
 21
7.0131246297
  0
LINE
  5
23D
100
AcDbEntity
  8
02___PRT_ALL_AXES
100
AcDbLine
 62
7
  6
CONTINUOUS
 10
5.7792054172
 20
11.106733277
 11
6.1792054172
 21
11.106733277
  0
LINE
  5
23E
100
AcDbEntity
  8
02___PRT_ALL_AXES
100
AcDbLine
 62
7
  6
CONTINUOUS
 10
6.1792054172
 20
11.8500666103
 11
6.3415387505
 21
11.8500666103
  0
LINE
  5
23F
100
AcDbEntity
  8
0
100
AcDbLine
 62
7
  6
CONTINUOUS
 10
5.7792054172
 20
11.1067332905
 11
5.7792054172
 21
14.0933999053
  0
LINE
  5
240
100
AcDbEntity
  8
0
100
AcDbLine
 62
7
  6
CONTINUOUS
 10
5.7792054172
 20
12.2474105116
 11
6.1792054172
 21
12.2474105116
  0
LINE
  5
241
100
AcDbEntity
  8
0
100
AcDbLine
 62
7
  6
CONTINUOUS
 10
6.1792054172
 20
12.2878799221
 11
5.7792054172
 21
12.2878799221
  0
LINE
  5
242
100
AcDbEntity
  8
0
100
AcDbLine
 62
7
  6
CONTINUOUS
 10
6.1792054172
 20
12.3097252185
 11
5.7792054172
 21
12.3097252185
  0
LINE
  5
243
100
AcDbEntity
  8
0
100
AcDbLine
 62
7
  6
CONTINUOUS
 10
5.7792054172
 20
12.3320202791
 11
6.1792054172
 21
12.3320202791
  0
LINE
  5
244
100
AcDbEntity
  8
0
100
AcDbLine
 62
7
  6
CONTINUOUS
 10
5.7792054172
 20
12.3494928686
 11
6.1792054172
 21
12.3494928686
  0
LINE
  5
245
100
AcDbEntity
  8
0
100
AcDbLine
 62
7
  6
CONTINUOUS
 10
6.1792054172
 20
12.3873467936
 11
5.7792054172
 21
12.3873467936
  0
LINE
  5
246
100
AcDbEntity
  8
0
100
AcDbLine
 62
7
  6
CONTINUOUS
 10
6.1792054172
 20
12.4094627805
 11
5.7792054172
 21
12.4094627805
  0
LINE
  5
247
100
AcDbEntity
  8
0
100
AcDbLine
 62
7
  6
CONTINUOUS
 10
5.7792054172
 20
12.4351510565
 11
6.1792054172
 21
12.4351510565
  0
LINE
  5
248
100
AcDbEntity
  8
0
100
AcDbLine
 62
7
  6
CONTINUOUS
 10
5.7792054172
 20
12.4527959956
 11
6.1792054172
 21
12.4527959956
  0
LINE
  5
249
100
AcDbEntity
  8
0
100
AcDbLine
 62
7
  6
CONTINUOUS
 10
6.1792054172
 20
12.4878500146
 11
5.7792054172
 21
12.4878500146
  0
LINE
  5
24A
100
AcDbEntity
  8
0
100
AcDbLine
 62
7
  6
CONTINUOUS
 10
6.1792054172
 20
12.5101289451
 11
5.7792054172
 21
12.5101289451
  0
LINE
  5
24B
100
AcDbEntity
  8
0
100
AcDbLine
 62
7
  6
CONTINUOUS
 10
5.7792054172
 20
12.539085286
 11
6.1792054172
 21
12.539085286
  0
LINE
  5
24C
100
AcDbEntity
  8
0
100
AcDbLine
 62
7
  6
CONTINUOUS
 10
5.7792054172
 20
12.5568166103
 11
6.1792054172
 21
12.5568166103
  0
LINE
  5
24D
100
AcDbEntity
  8
0
100
AcDbLine
 62
7
  6
CONTINUOUS
 10
6.1792054172
 20
12.5888999437
 11
5.7792054172
 21
12.5888999437
  0
LINE
  5
24E
100
AcDbEntity
  8
0
100
AcDbLine
 62
7
  6
CONTINUOUS
 10
6.1792054172
 20
12.611233277
 11
5.7792054172
 21
12.611233277
  0
LINE
  5
24F
100
AcDbEntity
  8
0
100
AcDbLine
 62
7
  6
CONTINUOUS
 10
6.1792054172
 20
11.1067332905
 11
6.1792054172
 21
14.0933999053
  0
LINE
  5
250
100
AcDbEntity
  8
0
100
AcDbLine
 62
7
  6
CONTINUOUS
 10
5.7792054172
 20
12.6433166103
 11
6.1792054172
 21
12.6433166103
  0
LINE
  5
251
100
AcDbEntity
  8
02___PRT_ALL_AXES
100
AcDbLine
 62
7
  6
CONTINUOUS
 10
6.3415387505
 20
11.8500666103
 11
6.3415387505
 21
13.3500666103
  0
LINE
  5
252
100
AcDbEntity
  8
02___PRT_ALL_AXES
100
AcDbLine
 62
7
  6
CONTINUOUS
 10
6.3625387505
 20
11.8710666103
 11
6.3625387505
 21
13.3290666103
  0
LINE
  5
253
100
AcDbEntity
  8
02___PRT_ALL_AXES
100
AcDbLine
 62
7
  6
CONTINUOUS
 10
6.3415387505
 20
11.8500666103
 11
6.3625387505
 21
11.8710666103
  0
LINE
  5
254
100
AcDbEntity
  8
02___PRT_ALL_AXES
100
AcDbLine
 62
7
  6
CONTINUOUS
 10
6.3415387505
 20
13.3500666103
 11
6.3625387505
 21
13.3290666103
  0
LINE
  5
255
100
AcDbEntity
  8
02___PRT_ALL_AXES
100
AcDbLine
 62
7
  6
CONTINUOUS
 10
6.1792054172
 20
13.3500666103
 11
6.3415387505
 21
13.3500666103
  0
LINE
  5
256
100
AcDbEntity
  8
02___PRT_ALL_AXES
100
AcDbLine
 62
7
  6
CONTINUOUS
 10
5.7792054172
 20
14.0933999437
 11
6.1792054172
 21
14.0933999437
  0
LINE
  5
257
100
AcDbEntity
  8
0
100
AcDbLine
 62
7
  6
CONTINUOUS
 10
15.283685724
 20
6.9037244787
 11
15.2853428406
 21
6.9221275335
  0
LINE
  5
258
100
AcDbEntity
  8
0
100
AcDbLine
 62
7
  6
CONTINUOUS
 10
15.3850044986
 20
6.9195106902
 11
15.3879413107
 21
6.9377533214
  0
LINE
  5
259
100
AcDbEntity
  8
0
100
AcDbLine
 62
7
  6
CONTINUOUS
 10
15.4871776561
 20
6.9281908068
 11
15.4913798559
 21
6.9461841382
  0
LINE
  5
25A
100
AcDbEntity
  8
0
100
AcDbLine
 62
7
  6
CONTINUOUS
 10
15.5897074192
 20
6.9297225398
 11
15.595154534
 21
6.9473789098
  0
LINE
  5
25B
100
AcDbEntity
  8
LAYER_CUT_FEAT
100
AcDbLine
 62
7
  6
CONTINUOUS
 10
15.5956040599
 20
6.3855171989
 11
15.6366848129
 21
6.5198862875
  0
LINE
  5
25C
100
AcDbEntity
  8
LAYER_CUT_FEAT
100
AcDbLine
 62
7
  6
CONTINUOUS
 10
14.5913734724
 20
5.02702698
 11
14.7035886683
 21
5.1115871954
  0
LINE
  5
25D
100
AcDbEntity
  8
LAYER_CUT_FEAT
100
AcDbLine
 62
7
  6
CONTINUOUS
 10
16.5993494609
 20
5.2423871514
 11
16.4588622129
 21
5.2399349374
  0
LINE
  5
25E
100
AcDbEntity
  8
LAYER_CUT_FEAT
100
AcDbLine
 62
7
  6
CONTINUOUS
 10
14.6919189711
 20
5.7801436988
 11
14.5768210247
 21
5.8607361485
  0
LINE
  5
25F
100
AcDbEntity
  8
LAYER_CUT_FEAT
100
AcDbLine
 62
7
  6
CONTINUOUS
 10
15.6735956283
 20
4.4052670903
 11
15.627850487
 21
4.5381206272
  0
LINE
  5
260
100
AcDbEntity
  8
LAYER_CUT_FEAT
100
AcDbLine
 62
7
  6
CONTINUOUS
 10
16.0892746387
 20
6.3815156916
 11
16.0481938857
 21
6.2471466031
  0
LINE
  5
261
100
AcDbEntity
  8
LAYER_CUT_FEAT
100
AcDbLine
 62
7
  6
CONTINUOUS
 10
14.9884093332
 20
4.7336174069
 11
14.8761941373
 21
4.6490571915
  0
LINE
  5
262
100
AcDbEntity
  8
LAYER_CUT_FEAT
100
AcDbLine
 62
7
  6
CONTINUOUS
 10
16.4506025221
 20
5.713132306
 11
16.5910897701
 21
5.7155845201
  0
LINE
  5
263
100
AcDbEntity
  8
LAYER_CUT_FEAT
100
AcDbLine
 62
7
  6
CONTINUOUS
 10
14.8482772292
 20
6.2484157859
 11
14.9633751756
 21
6.1678233362
  0
LINE
  5
264
100
AcDbEntity
  8
LAYER_CUT_FEAT
100
AcDbLine
 62
7
  6
CONTINUOUS
 10
16.0753355432
 20
4.6922020885
 11
16.1210806844
 21
4.5593485516
  0
LINE
  5
265
100
AcDbEntity
  8
0
100
AcDbLine
 62
7
  6
CONTINUOUS
 10
15.2173020168
 20
6.9076650099
 11
15.2263010648
 21
6.8915269929
  0
LINE
  5
266
100
AcDbEntity
  8
0
100
AcDbLine
 62
7
  6
CONTINUOUS
 10
15.3190573762
 20
6.9280723158
 11
15.3269087719
 21
6.9113458682
  0
LINE
  5
267
100
AcDbEntity
  8
0
100
AcDbLine
 62
7
  6
CONTINUOUS
 10
15.4219884064
 20
6.9413318154
 11
15.4286538984
 21
6.924098427
  0
LINE
  5
268
100
AcDbEntity
  8
0
100
AcDbLine
 62
7
  6
CONTINUOUS
 10
15.5255936377
 20
6.9473789098
 11
15.5310407526
 21
6.9297225398
  0
LINE
  5
269
100
AcDbEntity
  8
0
100
AcDbLine
 62
7
  6
CONTINUOUS
 10
15.2481873977
 20
6.8759367328
 11
15.2700326941
 21
6.8805800938
  0
LINE
  5
26A
100
AcDbEntity
  8
0
100
AcDbLine
 62
7
  6
CONTINUOUS
 10
15.3476542692
 20
6.8942668718
 11
15.369770256
 21
6.8973750711
  0
LINE
  5
26B
100
AcDbEntity
  8
0
100
AcDbLine
 62
7
  6
CONTINUOUS
 10
15.4481574902
 20
6.9056139014
 11
15.4704364207
 21
6.907171796
  0
LINE
  5
26C
100
AcDbEntity
  8
0
100
AcDbLine
 62
7
  6
CONTINUOUS
 10
15.5492074192
 20
6.9099225398
 11
15.5715407526
 21
6.9099225398
  0
LINE
  5
26D
100
AcDbEntity
  8
02___PRT_ALL_AXES
100
AcDbLine
 62
7
  6
CONTINUOUS
 10
15.2869026473
 20
11.0174835358
 11
15.6553270449
 21
11.0174835358
  0
LINE
  5
26E
100
AcDbEntity
  8
0
100
AcDbLine
 62
7
  6
CONTINUOUS
 10
14.7796941928
 20
13.145859563
 11
14.7835657838
 21
13.165857931
  0
LINE
  5
26F
100
AcDbEntity
  8
0
100
AcDbLine
 62
7
  6
CONTINUOUS
 10
14.7981803128
 20
13.2351688372
 11
14.8025857175
 21
13.2544249725
  0
LINE
  5
270
100
AcDbEntity
  8
0
100
AcDbLine
 62
7
  6
CONTINUOUS
 10
14.8196091889
 20
13.3230532485
 11
14.8239651946
 21
13.3393692299
  0
LINE
  5
271
100
AcDbEntity
  8
0
100
AcDbLine
 62
7
  6
CONTINUOUS
 10
14.8438597744
 20
13.4081733064
 11
14.8476000565
 21
13.4202768636
  0
LINE
  5
272
100
AcDbEntity
  8
02___PRT_ALL_AXES
100
AcDbLine
 62
7
  6
CONTINUOUS
 10
15.5779579214
 20
11.7608168691
 11
15.8048459463
 21
11.7608168691
  0
LINE
  5
273
100
AcDbEntity
  8
0
100
AcDbLine
 62
7
  6
CONTINUOUS
 10
15.1481185904
 20
13.145859563
 11
15.1519901814
 21
13.165857931
  0
LINE
  5
274
100
AcDbEntity
  8
0
100
AcDbLine
 62
7
  6
CONTINUOUS
 10
15.1666047104
 20
13.2351688372
 11
15.1710101151
 21
13.2544249725
  0
LINE
  5
275
100
AcDbEntity
  8
0
100
AcDbLine
 62
7
  6
CONTINUOUS
 10
15.1874718365
 20
13.3209491414
 11
15.1923895922
 21
13.3393692299
  0
LINE
  5
276
100
AcDbEntity
  8
0
100
AcDbLine
 62
7
  6
CONTINUOUS
 10
15.2106183062
 20
13.4027825626
 11
15.2160244541
 21
13.4202768636
  0
LINE
  5
277
100
AcDbEntity
  8
0
100
AcDbLine
 62
7
  6
CONTINUOUS
 10
14.7798107162
 20
13.1909394971
 11
14.7745981461
 21
13.2036770834
  0
LINE
  5
278
100
AcDbEntity
  8
0
100
AcDbLine
 62
7
  6
CONTINUOUS
 10
14.799521124
 20
13.280118086
 11
14.794667261
 21
13.2937583714
  0
LINE
  5
279
100
AcDbEntity
  8
0
100
AcDbLine
 62
7
  6
CONTINUOUS
 10
14.8216060057
 20
13.3655487168
 11
14.8171344973
 21
13.3800252472
  0
LINE
  5
27A
100
AcDbEntity
  8
0
100
AcDbLine
 62
7
  6
CONTINUOUS
 10
14.8459577657
 20
13.4468151798
 11
14.8418903967
 21
13.462057427
  0
LINE
  5
27B
100
AcDbEntity
  8
02___PRT_ALL_AXES
100
AcDbLine
 62
7
  6
CONTINUOUS
 10
15.6182476165
 20
12.2736171433
 11
15.6255811024
 21
12.2735482979
  0
LINE
  5
27C
100
AcDbEntity
  8
02___PRT_ALL_AXES
100
AcDbLine
 62
7
  6
CONTINUOUS
 10
15.6182433356
 20
12.2736388019
 11
15.6255811024
 21
12.2735482979
  0
LINE
  5
27D
100
AcDbEntity
  8
LAYER_CUT_FEAT
100
AcDbLine
 62
7
  6
CONTINUOUS
 10
15.2826093189
 20
11.6053138858
 11
15.2827770612
 21
11.6225234633
  0
LINE
  5
27E
100
AcDbEntity
  8
LAYER_CUT_FEAT
100
AcDbLine
 62
7
  6
CONTINUOUS
 10
15.5259151556
 20
13.3774835358
 11
15.555433042
 21
13.4765046262
  0
LINE
  5
27F
100
AcDbEntity
  8
LAYER_CUT_FEAT
100
AcDbLine
 62
7
  6
CONTINUOUS
 10
15.1460225628
 20
12.4425258907
 11
15.1984679708
 21
12.4825881392
  0
LINE
  5
280
100
AcDbEntity
  8
LAYER_CUT_FEAT
100
AcDbLine
 62
7
  6
CONTINUOUS
 10
15.4564095361
 20
11.4820588079
 11
15.4577786501
 21
11.6225234633
  0
LINE
  5
281
100
AcDbEntity
  8
LAYER_CUT_FEAT
100
AcDbLine
 62
7
  6
CONTINUOUS
 10
15.6971754272
 20
13.3649328636
 11
15.7304346309
 21
13.4765046262
  0
LINE
  5
282
100
AcDbEntity
  8
0
100
AcDbLine
 62
7
  6
CONTINUOUS
 10
15.1482351138
 20
13.1909394971
 11
15.1430225437
 21
13.2036770834
  0
LINE
  5
283
100
AcDbEntity
  8
0
100
AcDbLine
 62
7
  6
CONTINUOUS
 10
15.1679455216
 20
13.280118086
 11
15.1630916587
 21
13.2937583714
  0
LINE
  5
284
100
AcDbEntity
  8
0
100
AcDbLine
 62
7
  6
CONTINUOUS
 10
15.1900304033
 20
13.3655487168
 11
15.1855588949
 21
13.3800252472
  0
LINE
  5
285
100
AcDbEntity
  8
LAYER_CUT_FEAT
100
AcDbLine
 62
7
  6
CONTINUOUS
 10
15.2851035501
 20
13.1131507125
 11
15.2540596194
 21
13.2288555366
  0
LINE
  5
286
100
AcDbEntity
  8
0
100
AcDbLine
 62
7
  6
CONTINUOUS
 10
15.2143821633
 20
13.4468151798
 11
15.2103147943
 21
13.462057427
  0
LINE
  5
287
100
AcDbEntity
  8
LAYER_CUT_FEAT
100
AcDbLine
 62
7
  6
CONTINUOUS
 10
15.6420207511
 20
11.6106813663
 11
15.6406516371
 21
11.4702167109
  0
LINE
  5
288
100
AcDbEntity
  8
LAYER_CUT_FEAT
100
AcDbLine
 62
7
  6
CONTINUOUS
 10
15.4058251994
 20
13.4973687845
 11
15.4368691301
 21
13.3816639604
  0
LINE
  5
289
100
AcDbEntity
  8
LAYER_CUT_FEAT
100
AcDbLine
 62
7
  6
CONTINUOUS
 10
15.2510160857
 20
12.0289636623
 11
15.1985706777
 21
11.9889014138
  0
LINE
  5
28A
100
AcDbEntity
  8
0
100
AcDbLine
 62
7
  6
CONTINUOUS
 10
15.1309638268
 20
13.1413888264
 11
15.1380649642
 21
13.1384064705
  0
LINE
  5
28B
100
AcDbEntity
  8
0
100
AcDbLine
 62
7
  6
CONTINUOUS
 10
15.1493702899
 20
13.2337819223
 11
15.1563731152
 21
13.2295348053
  0
LINE
  5
28C
100
AcDbEntity
  8
0
100
AcDbLine
 62
7
  6
CONTINUOUS
 10
15.1702417235
 20
13.3226528053
 11
15.1771121196
 21
13.3171616185
  0
LINE
  5
28D
100
AcDbEntity
  8
0
100
AcDbLine
 62
7
  6
CONTINUOUS
 10
15.1934764439
 20
13.4075685051
 11
15.200180939
 21
13.4008600011
  0
LINE
  5
28E
100
AcDbEntity
  8
02___PRT_ALL_AXES
100
AcDbLine
 62
7
  6
CONTINUOUS
 10
15.8120238615
 20
13.0724488509
 11
15.8177121709
 21
13.0730709028
  0
LINE
  5
28F
100
AcDbEntity
  8
0
100
AcDbLine
 62
7
  6
CONTINUOUS
 10
14.7588916052
 20
13.1365872785
 11
15.1273160028
 21
13.1365872785
  0
LINE
  5
290
100
AcDbEntity
  8
0
100
AcDbLine
 62
7
  6
CONTINUOUS
 10
14.7619823271
 20
13.141505041
 11
15.1304067247
 21
13.141505041
  0
LINE
  5
291
100
AcDbEntity
  8
0
100
AcDbLine
 62
7
  6
CONTINUOUS
 10
15.1481185904
 20
13.145859563
 11
14.7796941928
 21
13.145859563
  0
LINE
  5
292
100
AcDbEntity
  8
0
100
AcDbLine
 62
7
  6
CONTINUOUS
 10
15.1519901814
 20
13.165857931
 11
14.7835657838
 21
13.165857931
  0
LINE
  5
293
100
AcDbEntity
  8
02___PRT_ALL_AXES
100
AcDbLine
 62
7
  6
CONTINUOUS
 10
15.928328522
 20
11.8311472321
 11
15.9442132908
 21
11.8501779819
  0
LINE
  5
294
100
AcDbEntity
  8
0
100
AcDbLine
 62
7
  6
CONTINUOUS
 10
14.7738867974
 20
13.2140436444
 11
15.142311195
 21
13.2140436444
  0
LINE
  5
295
100
AcDbEntity
  8
0
100
AcDbLine
 62
7
  6
CONTINUOUS
 10
14.7771765228
 20
13.2296455052
 11
15.1456009204
 21
13.2296455052
  0
LINE
  5
296
100
AcDbEntity
  8
0
100
AcDbLine
 62
7
  6
CONTINUOUS
 10
14.7801525335
 20
13.2340192385
 11
15.1485769311
 21
13.2340192385
  0
LINE
  5
297
100
AcDbEntity
  8
0
100
AcDbLine
 62
7
  6
CONTINUOUS
 10
15.1666047104
 20
13.2351688372
 11
14.7981803128
 21
13.2351688372
  0
LINE
  5
298
100
AcDbEntity
  8
0
100
AcDbLine
 62
7
  6
CONTINUOUS
 10
15.1710101151
 20
13.2544249725
 11
14.8025857175
 21
13.2544249725
  0
LINE
  5
299
100
AcDbEntity
  8
02___PRT_ALL_AXES
100
AcDbLine
 62
7
  6
CONTINUOUS
 10
15.5779579214
 20
13.2608168691
 11
15.8048459463
 21
13.2608168691
  0
LINE
  5
29A
100
AcDbEntity
  8
0
100
AcDbLine
 62
7
  6
CONTINUOUS
 10
14.7942392471
 20
13.3042271038
 11
15.1626636447
 21
13.3042271038
  0
LINE
  5
29B
100
AcDbEntity
  8
02___PRT_ALL_AXES
100
AcDbLine
 62
7
  6
CONTINUOUS
 10
15.928328522
 20
13.1904865061
 11
15.9442132908
 21
13.1714557563
  0
LINE
  5
29C
100
AcDbEntity
  8
0
100
AcDbLine
 62
7
  6
CONTINUOUS
 10
14.7979447748
 20
13.3192016711
 11
15.1663691724
 21
13.3192016711
  0
LINE
  5
29D
100
AcDbEntity
  8
0
100
AcDbLine
 62
7
  6
CONTINUOUS
 10
15.1874718365
 20
13.3209491414
 11
15.1723732929
 21
13.3209491414
  0
LINE
  5
29E
100
AcDbEntity
  8
0
100
AcDbLine
 62
7
  6
CONTINUOUS
 10
14.8007915756
 20
13.3230532485
 11
15.1692159732
 21
13.3230532485
  0
LINE
  5
29F
100
AcDbEntity
  8
0
100
AcDbLine
 62
7
  6
CONTINUOUS
 10
15.1923895922
 20
13.3393692299
 11
14.8239651946
 21
13.3393692299
  0
LINE
  5
2A0
100
AcDbEntity
  8
LAYER_CUT_FEAT
100
AcDbLine
 62
7
  6
CONTINUOUS
 10
15.4380918671
 20
13.3774835358
 11
15.5586156405
 21
13.3774835358
  0
LINE
  5
2A1
100
AcDbEntity
  8
0
100
AcDbLine
 62
7
  6
CONTINUOUS
 10
14.8169919033
 20
13.3905451484
 11
15.1854163009
 21
13.3905451484
  0
LINE
  5
2A2
100
AcDbEntity
  8
0
100
AcDbLine
 62
7
  6
CONTINUOUS
 10
15.2106183062
 20
13.4027825626
 11
15.1982595264
 21
13.4027825626
  0
LINE
  5
2A3
100
AcDbEntity
  8
0
100
AcDbLine
 62
7
  6
CONTINUOUS
 10
14.8210951805
 20
13.4048194675
 11
15.1895195781
 21
13.4048194675
  0
LINE
  5
2A4
100
AcDbEntity
  8
0
100
AcDbLine
 62
7
  6
CONTINUOUS
 10
14.823798902
 20
13.4081733064
 11
15.1922232996
 21
13.4081733064
  0
LINE
  5
2A5
100
AcDbEntity
  8
0
100
AcDbLine
 62
7
  6
CONTINUOUS
 10
15.2160244541
 20
13.4202768636
 11
14.8476000565
 21
13.4202768636
  0
LINE
  5
2A6
100
AcDbEntity
  8
0
100
AcDbLine
 62
7
  6
CONTINUOUS
 10
14.8420339174
 20
13.4725772452
 11
15.210458315
 21
13.4725772452
  0
LINE
  5
2A7
100
AcDbEntity
  8
02___PRT_ALL_AXES
100
AcDbLine
 62
7
  6
CONTINUOUS
 10
15.2869026473
 20
14.0041502024
 11
15.6553270449
 21
14.0041502024
  0
ARC
  5
2A8
100
AcDbEntity
  8
0
100
AcDbCircle
 62
7
  6
CONTINUOUS
 10
15.5603740859
 20
5.4609225398
 40
1.4933333333
100
AcDbArc
 50
99.659635508
 51
100.340364492
  0
ARC
  5
2A9
100
AcDbEntity
  8
0
100
AcDbCircle
 62
7
  6
CONTINUOUS
 10
15.5603740859
 20
5.4609225398
 40
1.4933333333
100
AcDbArc
 50
95.659635508
 51
96.340364492
  0
ARC
  5
2AA
100
AcDbEntity
  8
0
100
AcDbCircle
 62
7
  6
CONTINUOUS
 10
15.5603740859
 20
5.4609225398
 40
1.4933333333
100
AcDbArc
 50
91.659635508
 51
92.340364492
  0
ARC
  5
2AB
100
AcDbEntity
  8
0
100
AcDbCircle
 62
7
  6
CONTINUOUS
 10
15.5603740859
 20
5.4609225398
 40
1.4933333333
100
AcDbArc
 50
103.659635508
 51
88.340364492
  0
CIRCLE
  5
2AC
100
AcDbEntity
  8
02___PRT_ALL_AXES
100
AcDbCircle
 62
7
  6
CONTINUOUS
 10
15.5603740859
 20
5.4609225398
 40
1.3176666667
  0
CIRCLE
  5
2AD
100
AcDbEntity
  8
02___PRT_ALL_AXES
100
AcDbCircle
 62
7
  6
CONTINUOUS
 10
15.5603740859
 20
5.4609225398
 40
1.2966666667
  0
ARC
  5
2AE
100
AcDbEntity
  8
LAYER_CUT_FEAT
100
AcDbCircle
 62
7
  6
CONTINUOUS
 10
15.5603740859
 20
5.4609225398
 40
1.1666666667
100
AcDbArc
 50
234.1788337802
 51
271.8211662198
  0
ARC
  5
2AF
100
AcDbEntity
  8
LAYER_CUT_FEAT
100
AcDbCircle
 62
7
  6
CONTINUOUS
 10
15.5603740859
 20
5.4609225398
 40
1.1666666667
100
AcDbArc
 50
162.1788337802
 51
199.8211662198
  0
ARC
  5
2B0
100
AcDbEntity
  8
LAYER_CUT_FEAT
100
AcDbCircle
 62
7
  6
CONTINUOUS
 10
15.5603740859
 20
5.4609225398
 40
1.1666666667
100
AcDbArc
 50
90.1788337802
 51
127.8211662198
  0
ARC
  5
2B1
100
AcDbEntity
  8
LAYER_CUT_FEAT
100
AcDbCircle
 62
7
  6
CONTINUOUS
 10
15.5603740859
 20
5.4609225398
 40
1.1666666667
100
AcDbArc
 50
18.1788337802
 51
55.8211662198
  0
ARC
  5
2B2
100
AcDbEntity
  8
LAYER_CUT_FEAT
100
AcDbCircle
 62
7
  6
CONTINUOUS
 10
15.5603740859
 20
5.4609225398
 40
1.1666666667
100
AcDbArc
 50
306.1788337802
 51
343.8211662198
  0
ARC
  5
2B3
100
AcDbEntity
  8
LAYER_CUT_FEAT
100
AcDbCircle
 62
7
  6
CONTINUOUS
 10
15.5603740859
 20
5.4609225398
 40
0.8666666667
100
AcDbArc
 50
308.6825484081
 51
341.3174515919
  0
ARC
  5
2B4
100
AcDbEntity
  8
LAYER_CUT_FEAT
100
AcDbCircle
 62
7
  6
CONTINUOUS
 10
15.5603740859
 20
5.4609225398
 40
0.8666666667
100
AcDbArc
 50
236.6825484081
 51
269.3174515919
  0
ARC
  5
2B5
100
AcDbEntity
  8
LAYER_CUT_FEAT
100
AcDbCircle
 62
7
  6
CONTINUOUS
 10
15.5603740859
 20
5.4609225398
 40
0.8666666667
100
AcDbArc
 50
164.6825484081
 51
197.3174515919
  0
ARC
  5
2B6
100
AcDbEntity
  8
LAYER_CUT_FEAT
100
AcDbCircle
 62
7
  6
CONTINUOUS
 10
15.5603740859
 20
5.4609225398
 40
0.8666666667
100
AcDbArc
 50
92.6825484081
 51
125.3174515919
  0
ARC
  5
2B7
100
AcDbEntity
  8
LAYER_CUT_FEAT
100
AcDbCircle
 62
7
  6
CONTINUOUS
 10
15.5603740859
 20
5.4609225398
 40
0.8666666667
100
AcDbArc
 50
20.6825484081
 51
53.3174515919
  0
CIRCLE
  5
2B8
100
AcDbEntity
  8
02___PRT_ALL_AXES
100
AcDbCircle
 62
7
  6
CONTINUOUS
 10
15.5603740859
 20
5.4609225398
 40
0.75
  0
CIRCLE
  5
2B9
100
AcDbEntity
  8
02___PRT_ALL_AXES
100
AcDbCircle
 62
7
  6
CONTINUOUS
 10
15.5603740859
 20
5.4609225398
 40
0.729
  0
ARC
  5
2BA
100
AcDbEntity
  8
02___PRT_ALL_AXES
100
AcDbCircle
 62
7
  6
CONTINUOUS
 10
15.5603740859
 20
5.4609225398
 40
0.5625
100
AcDbArc
 50
58.3827617612
 51
136.6172382388
  0
ARC
  5
2BB
100
AcDbEntity
  8
02___PRT_ALL_AXES
100
AcDbCircle
 62
7
  6
CONTINUOUS
 10
15.5603740859
 20
5.4609225398
 40
0.5625
100
AcDbArc
 50
153.3827617612
 51
231.6172382388
  0
ARC
  5
2BC
100
AcDbEntity
  8
02___PRT_ALL_AXES
100
AcDbCircle
 62
7
  6
CONTINUOUS
 10
15.5603740859
 20
5.4609225398
 40
0.5625
100
AcDbArc
 50
248.3827617612
 51
41.6172382388
  0
ARC
  5
2BD
100
AcDbEntity
  8
02___PRT_ALL_AXES
100
AcDbCircle
 62
7
  6
CONTINUOUS
 10
15.5603740859
 20
5.4609225398
 40
0.5421046798
100
AcDbArc
 50
136.1802428979
 51
153.8197571021
  0
ARC
  5
2BE
100
AcDbEntity
  8
02___PRT_ALL_AXES
100
AcDbCircle
 62
7
  6
CONTINUOUS
 10
15.5603740859
 20
5.4609225398
 40
0.5217093597
100
AcDbArc
 50
58.7288156508
 51
231.2711843492
  0
ARC
  5
2BF
100
AcDbEntity
  8
02___PRT_ALL_AXES
100
AcDbCircle
 62
7
  6
CONTINUOUS
 10
15.5603740859
 20
5.4609225398
 40
0.5217093597
100
AcDbArc
 50
248.7288156508
 51
41.2711843492
  0
ARC
  5
2C0
100
AcDbEntity
  8
02___PRT_ALL_AXES
100
AcDbCircle
 62
7
  6
CONTINUOUS
 10
15.2895407526
 20
4.9918254461
 40
0.0833333333
100
AcDbArc
 50
131.820265907
 51
348.179734093
  0
ARC
  5
2C1
100
AcDbEntity
  8
LAYER_CUT_FEAT
100
AcDbCircle
 62
7
  6
CONTINUOUS
 10
14.9263453892
 20
4.5825042323
 40
0.0833333333
100
AcDbArc
 50
127.0
 51
234.1788337802
  0
ARC
  5
2C2
100
AcDbEntity
  8
LAYER_CUT_FEAT
100
AcDbCircle
 62
7
  6
CONTINUOUS
 10
15.5490572724
 20
4.5109899476
 40
0.0833333333
100
AcDbArc
 50
19.0
 51
89.3174515919
  0
ARC
  5
2C3
100
AcDbEntity
  8
LAYER_CUT_FEAT
100
AcDbCircle
 62
7
  6
CONTINUOUS
 10
15.0385605852
 20
4.6670644477
 40
0.0833333333
100
AcDbArc
 50
56.6825484081
 51
127.0
  0
ARC
  5
2C4
100
AcDbEntity
  8
LAYER_CUT_FEAT
100
AcDbCircle
 62
7
  6
CONTINUOUS
 10
14.5412222204
 20
5.0935799392
 40
0.0833333333
100
AcDbArc
 50
199.8211662198
 51
307.0
  0
ARC
  5
2C5
100
AcDbEntity
  8
LAYER_CUT_FEAT
100
AcDbCircle
 62
7
  6
CONTINUOUS
 10
14.6534374163
 20
5.1781401546
 40
0.0833333333
100
AcDbArc
 50
307.0
 51
17.3174515919
  0
ARC
  5
2C6
100
AcDbEntity
  8
02___PRT_ALL_AXES
100
AcDbCircle
 62
7
  6
CONTINUOUS
 10
15.1166667286
 20
5.7716097762
 40
0.0833333333
100
AcDbArc
 50
50.8903869362
 51
239.1096130638
  0
ARC
  5
2C7
100
AcDbEntity
  8
LAYER_CUT_FEAT
100
AcDbCircle
 62
7
  6
CONTINUOUS
 10
14.5290229883
 20
5.7924734781
 40
0.0833333333
100
AcDbArc
 50
55.0
 51
162.1788337802
  0
ARC
  5
2C8
100
AcDbEntity
  8
LAYER_CUT_FEAT
100
AcDbCircle
 62
7
  6
CONTINUOUS
 10
14.6441209347
 20
5.7118810284
 40
0.0833333333
100
AcDbArc
 50
344.6825484081
 51
55.0
  0
ARC
  5
2C9
100
AcDbEntity
  8
LAYER_CUT_FEAT
100
AcDbCircle
 62
7
  6
CONTINUOUS
 10
15.5569927499
 20
6.5442505962
 40
0.0833333333
100
AcDbArc
 50
343.0
 51
90.1788337802
  0
ARC
  5
2CA
100
AcDbEntity
  8
LAYER_CUT_FEAT
100
AcDbCircle
 62
7
  6
CONTINUOUS
 10
14.8960752656
 20
6.3166784562
 40
0.0833333333
100
AcDbArc
 50
127.8211662198
 51
235.0
  0
ARC
  5
2CB
100
AcDbEntity
  8
LAYER_CUT_FEAT
100
AcDbCircle
 62
7
  6
CONTINUOUS
 10
15.011173212
 20
6.2360860065
 40
0.0833333333
100
AcDbArc
 50
235.0
 51
305.3174515919
  0
ARC
  5
2CC
100
AcDbEntity
  8
LAYER_CUT_FEAT
100
AcDbCircle
 62
7
  6
CONTINUOUS
 10
15.5159119969
 20
6.4098815077
 40
0.0833333333
100
AcDbArc
 50
272.6825484081
 51
343.0
  0
ARC
  5
2CD
100
AcDbEntity
  8
0
100
AcDbCircle
 62
7
  6
CONTINUOUS
 10
15.5597665421
 20
6.9389595119
 40
0.0313333333
100
AcDbArc
 50
292.0720769471
 51
342.8546362042
  0
ARC
  5
2CE
100
AcDbEntity
  8
0
100
AcDbCircle
 62
7
  6
CONTINUOUS
 10
15.5609816297
 20
6.9389595119
 40
0.0313333333
100
AcDbArc
 50
197.1453637958
 51
247.9279230529
  0
ARC
  5
2CF
100
AcDbEntity
  8
0
100
AcDbCircle
 62
7
  6
CONTINUOUS
 10
15.4566653748
 20
6.935316708
 40
0.0313333333
100
AcDbArc
 50
296.0720769471
 51
346.8546362042
  0
ARC
  5
2D0
100
AcDbEntity
  8
0
100
AcDbCircle
 62
7
  6
CONTINUOUS
 10
15.4578775025
 20
6.9354014682
 40
0.0313333333
100
AcDbArc
 50
201.1453637958
 51
251.9279230529
  0
ARC
  5
2D1
100
AcDbEntity
  8
0
100
AcDbCircle
 62
7
  6
CONTINUOUS
 10
15.3540694659
 20
6.9244908039
 40
0.0313333333
100
AcDbArc
 50
300.0720769471
 51
350.8546362042
  0
ARC
  5
2D2
100
AcDbEntity
  8
0
100
AcDbCircle
 62
7
  6
CONTINUOUS
 10
15.3552727284
 20
6.9246599114
 40
0.0313333333
100
AcDbArc
 50
205.1453637958
 51
255.9279230529
  0
ARC
  5
2D3
100
AcDbEntity
  8
0
100
AcDbCircle
 62
7
  6
CONTINUOUS
 10
15.2524786524
 20
6.9065345424
 40
0.0313333333
100
AcDbArc
 50
304.0720769471
 51
354.8546362042
  0
ARC
  5
2D4
100
AcDbEntity
  8
0
100
AcDbCircle
 62
7
  6
CONTINUOUS
 10
15.2536671875
 20
6.9067871733
 40
0.0313333333
100
AcDbArc
 50
209.1453637958
 51
259.9279230529
  0
ARC
  5
2D5
100
AcDbEntity
  8
0
100
AcDbCircle
 62
7
  6
CONTINUOUS
 10
15.5171240859
 20
6.9447659933
 40
0.0088634441
100
AcDbArc
 50
17.1453637958
 51
90.0
  0
ARC
  5
2D6
100
AcDbEntity
  8
0
100
AcDbCircle
 62
7
  6
CONTINUOUS
 10
15.5000110442
 20
6.9441683927
 40
0.0088634441
100
AcDbArc
 50
94.0
 51
166.8546362042
  0
ARC
  5
2D7
100
AcDbEntity
  8
0
100
AcDbCircle
 62
7
  6
CONTINUOUS
 10
15.4137217538
 20
6.9381344577
 40
0.0088634441
100
AcDbArc
 50
21.1453637958
 51
94.0000000001
  0
ARC
  5
2D8
100
AcDbEntity
  8
0
100
AcDbCircle
 62
7
  6
CONTINUOUS
 10
15.3966920851
 20
6.9363445674
 40
0.0088634441
100
AcDbArc
 50
98.0
 51
170.8546362042
  0
ARC
  5
2D9
100
AcDbEntity
  8
0
100
AcDbCircle
 62
7
  6
CONTINUOUS
 10
15.3110338972
 20
6.9243060942
 40
0.0088634441
100
AcDbArc
 50
25.1453637958
 51
98.0
  0
ARC
  5
2DA
100
AcDbEntity
  8
0
100
AcDbCircle
 62
7
  6
CONTINUOUS
 10
15.2941705683
 20
6.9213326343
 40
0.0088634441
100
AcDbArc
 50
102.0
 51
174.8546362042
  0
ARC
  5
2DB
100
AcDbEntity
  8
0
100
AcDbCircle
 62
7
  6
CONTINUOUS
 10
15.2095608008
 20
6.903348273
 40
0.0088634441
100
AcDbArc
 50
29.1453637958
 51
102.0000000001
  0
ARC
  5
2DC
100
AcDbEntity
  8
LAYER_CUT_FEAT
100
AcDbCircle
 62
7
  6
CONTINUOUS
 10
16.1541287578
 20
4.7193327681
 40
0.0833333333
100
AcDbArc
 50
128.6825484081
 51
199.0
  0
ARC
  5
2DD
100
AcDbEntity
  8
LAYER_CUT_FEAT
100
AcDbCircle
 62
7
  6
CONTINUOUS
 10
15.5948024137
 20
4.3781364107
 40
0.0833333333
100
AcDbArc
 50
271.8211662198
 51
19.0
  0
ARC
  5
2DE
100
AcDbEntity
  8
LAYER_CUT_FEAT
100
AcDbCircle
 62
7
  6
CONTINUOUS
 10
16.1998738991
 20
4.5864792312
 40
0.0833333333
100
AcDbArc
 50
199.0
 51
306.1788337802
  0
ARC
  5
2DF
100
AcDbEntity
  8
LAYER_CUT_FEAT
100
AcDbCircle
 62
7
  6
CONTINUOUS
 10
16.6008038281
 20
5.1590665101
 40
0.0833333333
100
AcDbArc
 50
343.8211662198
 51
91.0
  0
ARC
  5
2E0
100
AcDbEntity
  8
LAYER_CUT_FEAT
100
AcDbCircle
 62
7
  6
CONTINUOUS
 10
16.4603165801
 20
5.1566142961
 40
0.0833333333
100
AcDbArc
 50
91.0
 51
161.3174515919
  0
ARC
  5
2E1
100
AcDbEntity
  8
02___PRT_ALL_AXES
100
AcDbCircle
 62
7
  6
CONTINUOUS
 10
15.9085507078
 20
5.8758632799
 40
0.0833333333
100
AcDbArc
 50
301.820265907
 51
158.179734093
  0
ARC
  5
2E2
100
AcDbEntity
  8
LAYER_CUT_FEAT
100
AcDbCircle
 62
7
  6
CONTINUOUS
 10
16.5896354029
 20
5.7989051613
 40
0.0833333333
100
AcDbArc
 50
271.0
 51
18.1788337802
  0
ARC
  5
2E3
100
AcDbEntity
  8
LAYER_CUT_FEAT
100
AcDbCircle
 62
7
  6
CONTINUOUS
 10
16.1689667017
 20
6.3571513829
 40
0.0833333333
100
AcDbArc
 50
55.8211662198
 51
163.0
  0
ARC
  5
2E4
100
AcDbEntity
  8
LAYER_CUT_FEAT
100
AcDbCircle
 62
7
  6
CONTINUOUS
 10
16.1278859487
 20
6.2227822944
 40
0.0833333333
100
AcDbArc
 50
163.0
 51
233.3174515919
  0
ARC
  5
2E5
100
AcDbEntity
  8
LAYER_CUT_FEAT
100
AcDbCircle
 62
7
  6
CONTINUOUS
 10
16.4491481549
 20
5.7964529473
 40
0.0833333333
100
AcDbArc
 50
200.6825484081
 51
271.0
  0
ARC
  5
2E6
100
AcDbEntity
  8
0
100
AcDbCircle
 62
7
  6
CONTINUOUS
 10
15.6036240859
 20
6.9447659933
 40
0.0088634441
100
AcDbArc
 50
90.0
 51
162.8546362042
  0
ARC
  5
2E7
100
AcDbEntity
  8
02___PRT_ALL_AXES
100
AcDbCircle
 62
7
  6
CONTINUOUS
 10
19.2550537134
 20
62.4325760318
 40
50.5825497881
100
AcDbArc
 50
266.0413932994
 51
266.1675271547
  0
ARC
  5
2E8
100
AcDbEntity
  8
02___PRT_ALL_AXES
100
AcDbCircle
 62
7
  6
CONTINUOUS
 10
13.8832846104
 20
-14.2665185187
 40
26.3697707291
100
AcDbArc
 50
85.5407334412
 51
86.039916982
  0
ARC
  5
2E9
100
AcDbEntity
  8
0
100
AcDbCircle
 62
7
  6
CONTINUOUS
 10
17.5026557403
 20
12.6468176972
 40
2.7870997863
100
AcDbArc
 50
167.9294337284
 51
168.2572216519
  0
ARC
  5
2EA
100
AcDbEntity
  8
0
100
AcDbCircle
 62
7
  6
CONTINUOUS
 10
17.8639644523
 20
12.6483180729
 40
2.77982767
100
AcDbArc
 50
167.9290049754
 51
168.2576504048
  0
ARC
  5
2EB
100
AcDbEntity
  8
0
100
AcDbCircle
 62
7
  6
CONTINUOUS
 10
17.2465400603
 20
12.705339385
 40
2.5243703727
100
AcDbArc
 50
165.9260270992
 51
166.2761576942
  0
ARC
  5
2EC
100
AcDbEntity
  8
0
100
AcDbCircle
 62
7
  6
CONTINUOUS
 10
17.6075809458
 20
12.7071664702
 40
2.5167641943
100
AcDbArc
 50
165.9254980143
 51
166.2766867792
  0
ARC
  5
2ED
100
AcDbEntity
  8
0
100
AcDbCircle
 62
7
  6
CONTINUOUS
 10
16.984798036
 20
12.7751173438
 40
2.2534717242
100
AcDbArc
 50
163.7734272283
 51
164.151057879
  0
ARC
  5
2EE
100
AcDbEntity
  8
0
100
AcDbCircle
 62
7
  6
CONTINUOUS
 10
17.3457931646
 20
12.7772529518
 40
2.2457416395
100
AcDbArc
 50
163.7727773032
 51
164.151707804
  0
ARC
  5
2EF
100
AcDbEntity
  8
02___PRT_ALL_AXES
100
AcDbCircle
 62
7
  6
CONTINUOUS
 10
13.8525717138
 20
12.2589835381
 40
1.9218914132
100
AcDbArc
 50
342.8336189867
 51
343.7578237714
  0
ARC
  5
2F0
100
AcDbEntity
  8
02___PRT_ALL_AXES
100
AcDbCircle
 62
7
  6
CONTINUOUS
 10
13.8857753515
 20
12.2657029256
 40
1.9006574606
100
AcDbArc
 50
342.8357415286
 51
343.9117111918
  0
ARC
  5
2F1
100
AcDbEntity
  8
02___PRT_ALL_AXES
100
AcDbCircle
 62
7
  6
CONTINUOUS
 10
15.8171739365
 20
13.3572961859
 40
0.5135532385
100
AcDbArc
 50
137.4481257137
 51
138.8817325014
  0
ARC
  5
2F2
100
AcDbEntity
  8
02___PRT_ALL_AXES
100
AcDbCircle
 62
7
  6
CONTINUOUS
 10
15.8150677513
 20
11.6624421445
 40
0.5107199006
100
AcDbArc
 50
221.3416632142
 51
222.5556763516
  0
ARC
  5
2F3
100
AcDbEntity
  8
0
100
AcDbCircle
 62
7
  6
CONTINUOUS
 10
14.7775479088
 20
13.2456101303
 40
0.023123942
100
AcDbArc
 50
329.8355595299
 51
333.1577228501
  0
SPLINE
  5
2F4
100
AcDbEntity
  8
0
100
AcDbSpline
 62
7
  6
CONTINUOUS
 70
0
 71
3
 72
14
 73
10
 74
0
 42
0.0000001
 43
0.0000001
 44
0.0000000001
 40
0.0
 40
0.0
 40
0.0
 40
0.0
 40
0.2713058423
 40
0.4049227874
 40
0.5353200142
 40
0.6611868288
 40
0.7813000887
 40
0.894552732
 40
1.0
 40
1.0
 40
1.0
 40
1.0
 10
14.7835657838
 20
13.165857931
 30
0.0
 10
14.7836343179
 20
13.1681652876
 30
0.0
 10
14.7835888889
 20
13.1716159377
 30
0.0
 10
14.7832308986
 20
13.1761575812
 30
0.0
 10
14.7828200921
 20
13.1794506123
 30
0.0
 10
14.7822709641
 20
13.1826068588
 30
0.0
 10
14.7815902097
 20
13.1855881963
 30
0.0
 10
14.7807863267
 20
13.1883583246
 30
0.0
 10
14.7801505173
 20
13.1901091493
 30
0.0
 10
14.7798107162
 20
13.1909394971
 30
0.0
  0
SPLINE
  5
2F5
100
AcDbEntity
  8
0
100
AcDbSpline
 62
7
  6
CONTINUOUS
 70
0
 71
3
 72
15
 73
11
 74
0
 42
0.0000001
 43
0.0000001
 44
0.0000000001
 40
0.0
 40
0.0
 40
0.0
 40
0.0
 40
0.1135222053
 40
0.2355589583
 40
0.3636925526
 40
0.4952476419
 40
0.6274262472
 40
0.7574073952
 40
0.8824450636
 40
1.0
 40
1.0
 40
1.0
 40
1.0
 10
14.8420339174
 20
13.4725772452
 30
0.0
 10
14.8419150647
 20
13.4721926377
 30
0.0
 10
14.8417063013
 20
13.4713826279
 30
0.0
 10
14.8414807537
 20
13.4701118185
 30
0.0
 10
14.8413353137
 20
13.4687650488
 30
0.0
 10
14.8412737802
 20
13.4673759525
 30
0.0
 10
14.841297713
 20
13.4659791578
 30
0.0
 10
14.8414065209
 20
13.4646095124
 30
0.0
 10
14.8415973534
 20
13.4633012544
 30
0.0
 10
14.8417829209
 20
13.4624601869
 30
0.0
 10
14.8418903967
 20
13.462057427
 30
0.0
  0
SPLINE
  5
2F6
100
AcDbEntity
  8
0
100
AcDbSpline
 62
7
  6
CONTINUOUS
 70
0
 71
3
 72
15
 73
11
 74
0
 42
0.0000001
 43
0.0000001
 44
0.0000000001
 40
0.0
 40
0.0
 40
0.0
 40
0.0
 40
0.1268995675
 40
0.2559109795
 40
0.3857039222
 40
0.5149258142
 40
0.6422382048
 40
0.7663371714
 40
0.8859754231
 40
1.0
 40
1.0
 40
1.0
 40
1.0
 10
14.8476000565
 20
13.4202768636
 30
0.0
 10
14.8477284966
 20
13.421400285
 30
0.0
 10
14.847934685
 20
13.4236721637
 30
0.0
 10
14.8480942463
 20
13.4271062993
 30
0.0
 10
14.8481057619
 20
13.4305648724
 30
0.0
 10
14.8479690588
 20
13.4340056063
 30
0.0
 10
14.8476858546
 20
13.4373865221
 30
0.0
 10
14.8472596369
 20
13.4406664274
 30
0.0
 10
14.8466957373
 20
13.443805272
 30
0.0
 10
14.8462197219
 20
13.4458335131
 30
0.0
 10
14.8459577657
 20
13.4468151798
 30
0.0
  0
SPLINE
  5
2F7
100
AcDbEntity
  8
LAYER_CUT_FEAT
100
AcDbSpline
 62
7
  6
CONTINUOUS
 70
0
 71
3
 72
11
 73
7
 74
0
 42
0.0000001
 43
0.0000001
 44
0.0000000001
 40
0.0
 40
0.0
 40
0.0
 40
0.0
 40
0.2342462911
 40
0.4751619278
 40
0.7287740643
 40
1.0
 40
1.0
 40
1.0
 40
1.0
 10
15.2602687631
 20
12.0324227431
 30
0.0
 10
15.2594841755
 20
12.0324227422
 30
0.0
 10
15.2578889463
 20
12.0322725511
 30
0.0
 10
15.2555290243
 20
12.0316033923
 30
0.0
 10
15.2532028848
 20
12.0304983719
 30
0.0
 10
15.2517380041
 20
12.0295151249
 30
0.0
 10
15.2510160857
 20
12.0289636623
 30
0.0
  0
SPLINE
  5
2F8
100
AcDbEntity
  8
0
100
AcDbSpline
 62
7
  6
CONTINUOUS
 70
0
 71
3
 72
15
 73
11
 74
0
 42
0.0000001
 43
0.0000001
 44
0.0000000001
 40
0.0
 40
0.0
 40
0.0
 40
0.0
 40
0.1175418469
 40
0.242569814
 40
0.372545019
 40
0.5047216511
 40
0.6362787962
 40
0.7644183861
 40
0.8864648284
 40
1.0
 40
1.0
 40
1.0
 40
1.0
 10
14.8169919033
 20
13.3905451484
 30
0.0
 10
14.8168843901
 20
13.3901424438
 30
0.0
 10
14.8166987465
 20
13.3893014698
 30
0.0
 10
14.8165078002
 20
13.3879933228
 30
0.0
 10
14.8163988731
 20
13.3866237406
 30
0.0
 10
14.8163748186
 20
13.3852269599
 30
0.0
 10
14.816436231
 20
13.3838378278
 30
0.0
 10
14.8165815538
 20
13.3824909736
 30
0.0
 10
14.816806991
 20
13.3812200333
 30
0.0
 10
14.8170156807
 20
13.3804099166
 30
0.0
 10
14.8171344973
 20
13.3800252472
 30
0.0
  0
SPLINE
  5
2F9
100
AcDbEntity
  8
0
100
AcDbSpline
 62
7
  6
CONTINUOUS
 70
0
 71
3
 72
14
 73
10
 74
0
 42
0.0000001
 43
0.0000001
 44
0.0000000001
 40
0.0
 40
0.0
 40
0.0
 40
0.0
 40
0.2609109478
 40
0.3919717312
 40
0.5215987181
 40
0.6484574874
 40
0.7712644504
 40
0.8888104058
 40
1.0
 40
1.0
 40
1.0
 40
1.0
 10
14.8239651946
 20
13.3393692299
 30
0.0
 10
14.8241606761
 20
13.341659676
 30
0.0
 10
14.8242996966
 20
13.3451161674
 30
0.0
 10
14.824190741
 20
13.3497113467
 30
0.0
 10
14.8239613676
 20
13.353119354
 30
0.0
 10
14.8235875411
 20
13.3564413093
 30
0.0
 10
14.8230738133
 20
13.3596369553
 30
0.0
 10
14.8224266176
 20
13.36266726
 30
0.0
 10
14.8218951201
 20
13.3646127074
 30
0.0
 10
14.8216060057
 20
13.3655487168
 30
0.0
  0
SPLINE
  5
2FA
100
AcDbEntity
  8
0
100
AcDbSpline
 62
7
  6
CONTINUOUS
 70
0
 71
3
 72
15
 73
11
 74
0
 42
0.0000001
 43
0.0000001
 44
0.0000000001
 40
0.0
 40
0.0
 40
0.0
 40
0.0
 40
0.1216061071
 40
0.2496349917
 40
0.3814394984
 40
0.5142133758
 40
0.645121865
 40
0.7713993755
 40
0.890452367
 40
1.0
 40
1.0
 40
1.0
 40
1.0
 10
14.7942392471
 20
13.3042271038
 30
0.0
 10
14.7941434544
 20
13.3038083916
 30
0.0
 10
14.7939815867
 20
13.3029406559
 30
0.0
 10
14.7938261924
 20
13.301601442
 30
0.0
 10
14.7937543205
 20
13.3002156414
 30
0.0
 10
14.7937678653
 20
13.2988179148
 30
0.0
 10
14.7938664508
 20
13.2974431439
 30
0.0
 10
14.7940475654
 20
13.2961255541
 30
0.0
 10
14.7943064877
 20
13.2948980016
 30
0.0
 10
14.7945375386
 20
13.2941229164
 30
0.0
 10
14.794667261
 20
13.2937583714
 30
0.0
  0
SPLINE
  5
2FB
100
AcDbEntity
  8
0
100
AcDbSpline
 62
7
  6
CONTINUOUS
 70
0
 71
3
 72
14
 73
10
 74
0
 42
0.0000001
 43
0.0000001
 44
0.0000000001
 40
0.0
 40
0.0
 40
0.0
 40
0.0
 40
0.2660503931
 40
0.3983818624
 40
0.5283982597
 40
0.6547741694
 40
0.7762525026
 40
0.89167012
 40
1.0
 40
1.0
 40
1.0
 40
1.0
 10
14.8025857175
 20
13.2544249725
 30
0.0
 10
14.8027176276
 20
13.2567295414
 30
0.0
 10
14.8027642382
 20
13.2601914357
 30
0.0
 10
14.8025305995
 20
13.2647709891
 30
0.0
 10
14.8022097199
 20
13.268129639
 30
0.0
 10
14.8017471038
 20
13.2713765873
 30
0.0
 10
14.8011483939
 20
13.2744725366
 30
0.0
 10
14.8004210766
 20
13.2773797225
 30
0.0
 10
14.7998362311
 20
13.2792325747
 30
0.0
 10
14.799521124
 20
13.280118086
 30
0.0
  0
SPLINE
  5
2FC
100
AcDbEntity
  8
0
100
AcDbSpline
 62
7
  6
CONTINUOUS
 70
0
 71
3
 72
15
 73
11
 74
0
 42
0.0000001
 43
0.0000001
 44
0.0000000001
 40
0.0
 40
0.0
 40
0.0
 40
0.0
 40
0.1257293899
 40
0.2567808083
 40
0.3904094107
 40
0.5237575416
 40
0.6539857104
 40
0.7783714075
 40
0.8944171277
 40
1.0
 40
1.0
 40
1.0
 40
1.0
 10
14.7738867974
 20
13.2140436444
 30
0.0
 10
14.7738030521
 20
13.2136110655
 30
0.0
 10
14.7736655067
 20
13.2127208764
 30
0.0
 10
14.773546439
 20
13.2113570323
 30
0.0
 10
14.7735119806
 20
13.2099616931
 30
0.0
 10
14.7735630573
 20
13.208569764
 30
0.0
 10
14.7736983238
 20
13.2072159772
 30
0.0
 10
14.7739143309
 20
13.205933968
 30
0.0
 10
14.7742054576
 20
13.2047556367
 30
0.0
 10
14.7744580087
 20
13.2040195273
 30
0.0
 10
14.7745981461
 20
13.2036770834
 30
0.0
  0
SPLINE
  5
2FD
100
AcDbEntity
  8
LAYER_CUT_FEAT
100
AcDbSpline
 62
7
  6
CONTINUOUS
 70
0
 71
3
 72
15
 73
11
 74
0
 42
0.0000001
 43
0.0000001
 44
0.0000000001
 40
0.0
 40
0.0
 40
0.0
 40
0.0
 40
0.1160065144
 40
0.2329401601
 40
0.3517011441
 40
0.4731387845
 40
0.5980331894
 40
0.7270823152
 40
0.8608976573
 40
1.0
 40
1.0
 40
1.0
 40
1.0
 10
15.5586156405
 20
13.6774835279
 30
0.0
 10
15.552865564
 20
13.6774835324
 30
0.0
 10
15.5413116618
 20
13.6769186014
 30
0.0
 10
15.5240388037
 20
13.6743817706
 30
0.0
 10
15.5068210513
 20
13.6701600251
 30
0.0
 10
15.4896874721
 20
13.6642622749
 30
0.0
 10
15.472663162
 20
13.6567001321
 30
0.0
 10
15.4557724446
 20
13.6474872125
 30
0.0
 10
15.4390396469
 20
13.6366397859
 30
0.0
 10
15.4282237647
 20
13.6284948151
 30
0.0
 10
15.422850595
 20
13.6241741444
 30
0.0
  0
SPLINE
  5
2FE
100
AcDbEntity
  8
LAYER_CUT_FEAT
100
AcDbSpline
 62
7
  6
CONTINUOUS
 70
0
 71
3
 72
9
 73
5
 74
0
 42
0.0000001
 43
0.0000001
 44
0.0000000001
 40
0.0
 40
0.0
 40
0.0
 40
0.0
 40
0.4954503636
 40
1.0
 40
1.0
 40
1.0
 40
1.0
 10
15.9025473697
 20
13.2215100938
 30
0.0
 10
15.9019210379
 20
13.2215101002
 30
0.0
 10
15.9006551511
 20
13.2214153629
 30
0.0
 10
15.8994171946
 20
13.2211365851
 30
0.0
 10
15.8988059346
 20
13.2209543915
 30
0.0
  0
SPLINE
  5
2FF
100
AcDbEntity
  8
LAYER_CUT_FEAT
100
AcDbSpline
 62
7
  6
CONTINUOUS
 70
0
 71
3
 72
15
 73
11
 74
0
 42
0.0000001
 43
0.0000001
 44
0.0000000001
 40
0.0
 40
0.0
 40
0.0
 40
0.0
 40
0.1132276509
 40
0.2299249349
 40
0.3500523252
 40
0.4735587558
 40
0.6003825357
 40
0.7304523294
 40
0.863687998
 40
1.0
 40
1.0
 40
1.0
 40
1.0
 10
15.641432021
 20
11.5501978925
 30
0.0
 10
15.6456896539
 20
11.5577331388
 30
0.0
 10
15.6540966755
 20
11.573170525
 30
0.0
 10
15.666209955
 20
11.5970326283
 30
0.0
 10
15.6780042807
 20
11.6219262541
 30
0.0
 10
15.6894662342
 20
11.6478231114
 30
0.0
 10
15.7005829669
 20
11.6746941402
 30
0.0
 10
15.7113419599
 20
11.7025091206
 30
0.0
 10
15.7217310084
 20
11.731236523
 30
0.0
 10
15.7283289964
 20
11.7507570231
 30
0.0
 10
15.7315668441
 20
11.7606605997
 30
0.0
  0
SPLINE
  5
300
100
AcDbEntity
  8
LAYER_CUT_FEAT
100
AcDbSpline
 62
7
  6
CONTINUOUS
 70
0
 71
3
 72
9
 73
5
 74
0
 42
0.0000001
 43
0.0000001
 44
0.0000000001
 40
0.0
 40
0.0
 40
0.0
 40
0.0
 40
0.2557682242
 40
1.0
 40
1.0
 40
1.0
 40
1.0
 10
15.2445453233
 20
11.7211479119
 30
0.0
 10
15.2459737386
 20
11.7194890647
 30
0.0
 10
15.2516178781
 20
11.7130548061
 30
0.0
 10
15.257503965
 20
11.7068315702
 30
0.0
 10
15.2620267772
 20
11.7023461866
 30
0.0
  0
SPLINE
  5
301
100
AcDbEntity
  8
LAYER_CUT_FEAT
100
AcDbSpline
 62
7
  6
CONTINUOUS
 70
0
 71
3
 72
21
 73
17
 74
0
 42
0.0000001
 43
0.0000001
 44
0.0000000001
 40
0.0
 40
0.0
 40
0.0
 40
0.0
 40
0.1515939401
 40
0.3006654296
 40
0.3733438355
 40
0.4443073125
 40
0.5132216056
 40
0.5797722895
 40
0.6436688618
 40
0.7046495796
 40
0.762487073
 40
0.8169950642
 40
0.8680370804
 40
0.9155367917
 40
0.9594938713
 40
1.0
 40
1.0
 40
1.0
 40
1.0
 10
15.2827770612
 20
11.6225234633
 30
0.0
 10
15.2828185072
 20
11.626775627
 30
0.0
 10
15.2826501968
 20
11.6352136265
 30
0.0
 10
15.2818128548
 20
11.6456598237
 30
0.0
 10
15.2807642436
 20
11.6538047917
 30
0.0
 10
15.279806332
 20
11.6596909639
 30
0.0
 10
15.2786761936
 20
11.6653714153
 30
0.0
 10
15.2773804491
 20
11.6708129675
 30
0.0
 10
15.2759267445
 20
11.6759838387
 30
0.0
 10
15.274323617
 20
11.6808539162
 30
0.0
 10
15.272580443
 20
11.6853949256
 30
0.0
 10
15.2707073275
 20
11.6895806541
 30
0.0
 10
15.2687150358
 20
11.6933870232
 30
0.0
 10
15.2666145975
 20
11.6967925369
 30
0.0
 10
15.2644178878
 20
11.6997774178
 30
0.0
 10
15.2628335505
 20
11.7015460898
 30
0.0
 10
15.2620267772
 20
11.7023461866
 30
0.0
  0
SPLINE
  5
302
100
AcDbEntity
  8
02___PRT_ALL_AXES
100
AcDbSpline
 62
7
  6
CONTINUOUS
 70
0
 71
3
 72
29
 73
25
 74
0
 42
0.0000001
 43
0.0000001
 44
0.0000000001
 40
0.0
 40
0.0
 40
0.0
 40
0.0
 40
0.0166411062
 40
0.0335103074
 40
0.0508245307
 40
0.0687803837
 40
0.0875482602
 40
0.1072702086
 40
0.1280598106
 40
0.1500043562
 40
0.1731676789
 40
0.1975926347
 40
0.22330443
 40
0.2503127827
 40
0.3081801028
 40
0.3710520487
 40
0.4386278215
 40
0.5104967741
 40
0.5861617245
 40
0.6650569267
 40
0.7465627377
 40
0.8300186633
 40
0.9147330512
 40
1.0
 40
1.0
 40
1.0
 40
1.0
 10
15.781895764
 20
13.1248176197
 30
0.0
 10
15.7813561135
 20
13.1248176217
 30
0.0
 10
15.7802681659
 20
13.1247475613
 30
0.0
 10
15.778646037
 20
13.1244336125
 30
0.0
 10
15.7770335056
 20
13.1239119859
 30
0.0
 10
15.7754352722
 20
13.1231848322
 30
0.0
 10
15.7738551352
 20
13.1222547851
 30
0.0
 10
15.7722967809
 20
13.1211246967
 30
0.0
 10
15.7707636605
 20
13.1197977654
 30
0.0
 10
15.7692591848
 20
13.1182774606
 30
0.0
 10
15.7677867757
 20
13.1165675762
 30
0.0
 10
15.7663497964
 20
13.1146723517
 30
0.0
 10
15.7649515769
 20
13.1125963951
 30
0.0
 10
15.7631008598
 20
13.1095231316
 30
0.0
 10
15.7609204465
 20
13.1052495756
 30
0.0
 10
15.7585671341
 20
13.0996092541
 30
0.0
 10
15.7564422855
 20
13.0933975598
 30
0.0
 10
15.7545668064
 20
13.0866751493
 30
0.0
 10
15.7529592231
 20
13.0795074546
 30
0.0
 10
15.7516355523
 20
13.0719647983
 30
0.0
 10
15.7506090105
 20
13.0641213586
 30
0.0
 10
15.7498898702
 20
13.056054436
 30
0.0
 10
15.7494852931
 20
13.0478437385
 30
0.0
 10
15.7494280387
 20
13.0423301188
 30
0.0
 10
15.7494528424
 20
13.0395651282
 30
0.0
  0
SPLINE
  5
303
100
AcDbEntity
  8
LAYER_CUT_FEAT
100
AcDbSpline
 62
7
  6
CONTINUOUS
 70
0
 71
3
 72
27
 73
23
 74
0
 42
0.0000001
 43
0.0000001
 44
0.0000000001
 40
0.0
 40
0.0
 40
0.0
 40
0.0
 40
0.0622554134
 40
0.1280956615
 40
0.1968270413
 40
0.2676892608
 40
0.3398778053
 40
0.4125611892
 40
0.4848979924
 40
0.5560537115
 40
0.6252178434
 40
0.6916213752
 40
0.7545561191
 40
0.8133960291
 40
0.8411189564
 40
0.8676350585
 40
0.8929024714
 40
0.9168912687
 40
0.9395851515
 40
0.9609839077
 40
0.9811089582
 40
1.0
 40
1.0
 40
1.0
 40
1.0
 10
15.555433042
 20
13.4765046262
 30
0.0
 10
15.5562272058
 20
13.4791687384
 30
0.0
 10
15.5576750991
 20
13.4847069998
 30
0.0
 10
15.5594022383
 20
13.4933289541
 30
0.0
 10
15.5607290136
 20
13.5024100261
 30
0.0
 10
15.5616370006
 20
13.5118268554
 30
0.0
 10
15.562113674
 20
13.5214518807
 30
0.0
 10
15.5621524231
 20
13.5311543949
 30
0.0
 10
15.5617527356
 20
13.5408026387
 30
0.0
 10
15.5609201076
 20
13.5502656225
 30
0.0
 10
15.5596660894
 20
13.5594149589
 30
0.0
 10
15.5580079606
 20
13.5681269346
 30
0.0
 10
15.5559685729
 20
13.5762835699
 30
0.0
 10
15.553936172
 20
13.5826486665
 30
0.0
 10
15.5521282699
 20
13.5873646074
 30
0.0
 10
15.5507227795
 20
13.5906260444
 30
0.0
 10
15.5492456476
 20
13.5936715043
 30
0.0
 10
15.5477017533
 20
13.5964907735
 30
0.0
 10
15.5460962332
 20
13.5990743621
 30
0.0
 10
15.544434249
 20
13.6014137796
 30
0.0
 10
15.5427213108
 20
13.6035009001
 30
0.0
 10
15.5415116826
 20
13.604758199
 30
0.0
 10
15.5408993704
 20
13.6053384342
 30
0.0
  0
SPLINE
  5
304
100
AcDbEntity
  8
02___PRT_ALL_AXES
100
AcDbSpline
 62
7
  6
CONTINUOUS
 70
0
 71
3
 72
34
 73
30
 74
0
 42
0.0000001
 43
0.0000001
 44
0.0000000001
 40
0.0
 40
0.0
 40
0.0
 40
0.0
 40
0.0190926473
 40
0.0384170149
 40
0.0580913302
 40
0.0782260382
 40
0.0989221175
 40
0.1202700122
 40
0.1423491782
 40
0.1652281617
 40
0.1889649783
 40
0.2136076772
 40
0.2391951288
 40
0.2657578206
 40
0.2933185735
 40
0.3218932902
 40
0.3514916804
 40
0.3821178427
 40
0.4137707684
 40
0.4464448946
 40
0.4801305346
 40
0.5148141935
 40
0.5504789389
 40
0.5871047326
 40
0.6631404533
 40
0.7427126739
 40
0.8255714148
 40
0.9114357661
 40
1.0
 40
1.0
 40
1.0
 40
1.0
 10
15.8177121701
 20
11.9485627597
 30
0.0
 10
15.8151810325
 20
11.9487550121
 30
0.0
 10
15.8101024983
 20
11.949368361
 30
0.0
 10
15.8025354349
 20
11.9509588791
 30
0.0
 10
15.7949964218
 20
11.9532209388
 30
0.0
 10
15.7874956975
 20
11.9561508578
 30
0.0
 10
15.7800421407
 20
11.9597442508
 30
0.0
 10
15.7726445932
 20
11.9639960016
 30
0.0
 10
15.7653115609
 20
11.9689003492
 30
0.0
 10
15.7580514093
 20
11.9744509545
 30
0.0
 10
15.7508723866
 20
11.9806408757
 30
0.0
 10
15.7437826282
 20
11.987462509
 30
0.0
 10
15.7367902098
 20
11.9949076189
 30
0.0
 10
15.7299031566
 20
12.0029673173
 30
0.0
 10
15.7231294036
 20
12.0116320148
 30
0.0
 10
15.7164767936
 20
12.0208914265
 30
0.0
 10
15.7099530877
 20
12.0307345929
 30
0.0
 10
15.7035659355
 20
12.0411498647
 30
0.0
 10
15.6973228302
 20
12.0521248935
 30
0.0
 10
15.6912311363
 20
12.0636466706
 30
0.0
 10
15.685298067
 20
12.0757015411
 30
0.0
 10
15.6795306638
 20
12.0882751788
 30
0.0
 10
15.6739356975
 20
12.1013526885
 30
0.0
 10
15.6666235139
 20
12.1196691448
 30
0.0
 10
15.6579846885
 20
12.1437328029
 30
0.0
 10
15.6485324358
 20
12.1740044745
 30
0.0
 10
15.6399140028
 20
12.2058792733
 30
0.0
 10
15.632170648
 20
12.2392051712
 30
0.0
 10
15.6276801522
 20
12.2619620044
 30
0.0
 10
15.6255811024
 20
12.2735482979
 30
0.0
  0
SPLINE
  5
305
100
AcDbEntity
  8
0
100
AcDbSpline
 62
7
  6
CONTINUOUS
 70
0
 71
3
 72
9
 73
5
 74
0
 42
0.0000001
 43
0.0000001
 44
0.0000000001
 40
0.0
 40
0.0
 40
0.0
 40
0.0
 40
0.4709260858
 40
1.0
 40
1.0
 40
1.0
 40
1.0
 10
14.7771955492
 20
13.1414713749
 30
0.0
 10
14.7776745018
 20
13.1421046392
 30
0.0
 10
14.7785882923
 20
13.1435281817
 30
0.0
 10
14.7793347689
 20
13.1450431514
 30
0.0
 10
14.7796941928
 20
13.145859563
 30
0.0
  0
SPLINE
  5
306
100
AcDbEntity
  8
LAYER_CUT_FEAT
100
AcDbSpline
 62
7
  6
CONTINUOUS
 70
0
 71
3
 72
11
 73
7
 74
0
 42
0.0000001
 43
0.0000001
 44
0.0000000001
 40
0.0
 40
0.0
 40
0.0
 40
0.0
 40
0.2657734826
 40
0.520446589
 40
0.7648514691
 40
1.0
 40
1.0
 40
1.0
 40
1.0
 10
15.5408993704
 20
13.6053384342
 30
0.0
 10
15.5353579981
 20
13.6105895111
 30
0.0
 10
15.5241950869
 20
13.6205509568
 30
0.0
 10
15.5068504169
 20
13.6340640131
 30
0.0
 10
15.4893014412
 20
13.6457956617
 30
0.0
 10
15.477267277
 20
13.652535838
 30
0.0
 10
15.4712373648
 20
13.6555794083
 30
0.0
  0
SPLINE
  5
307
100
AcDbEntity
  8
0
100
AcDbSpline
 62
7
  6
CONTINUOUS
 70
0
 71
3
 72
16
 73
12
 74
0
 42
0.0000001
 43
0.0000001
 44
0.0000000001
 40
0.0
 40
0.0
 40
0.0
 40
0.0
 40
0.0389044868
 40
0.0788280197
 40
0.1650818429
 40
0.2645111395
 40
0.3799251198
 40
0.5121364891
 40
0.6606162209
 40
0.8239306565
 40
1.0
 40
1.0
 40
1.0
 40
1.0
 10
14.7619823271
 20
13.1415050437
 30
0.0
 10
14.761902297
 20
13.1415050441
 30
0.0
 10
14.7617397846
 20
13.1414903681
 30
0.0
 10
14.7614106137
 20
13.1414010275
 30
0.0
 10
14.7610002565
 20
13.1411690179
 30
0.0
 10
14.7605503505
 20
13.1407371325
 30
0.0
 10
14.7601311028
 20
13.1401556483
 30
0.0
 10
14.7597481009
 20
13.139434298
 30
0.0
 10
14.7594071791
 20
13.1385854619
 30
0.0
 10
14.7591145945
 20
13.1376244303
 30
0.0
 10
14.7589604454
 20
13.1369428668
 30
0.0
 10
14.7588916052
 20
13.1365872785
 30
0.0
  0
SPLINE
  5
308
100
AcDbEntity
  8
0
100
AcDbSpline
 62
7
  6
CONTINUOUS
 70
0
 71
3
 72
16
 73
12
 74
0
 42
0.0000001
 43
0.0000001
 44
0.0000000001
 40
0.0
 40
0.0
 40
0.0
 40
0.0
 40
0.0400430055
 40
0.0810149834
 40
0.1688066634
 40
0.2688124616
 40
0.3839121986
 40
0.5151759577
 40
0.662411112
 40
0.8245807865
 40
1.0
 40
1.0
 40
1.0
 40
1.0
 10
14.7801525335
 20
13.2340192385
 30
0.0
 10
14.7800775737
 20
13.234019239
 30
0.0
 10
14.7799256182
 20
13.2340064007
 30
0.0
 10
14.7796181461
 20
13.2339283557
 30
0.0
 10
14.7792337408
 20
13.2337259319
 30
0.0
 10
14.7788078346
 20
13.2333458081
 30
0.0
 10
14.7784077993
 20
13.2328321252
 30
0.0
 10
14.7780381781
 20
13.2321927039
 30
0.0
 10
14.777703764
 20
13.2314372092
 30
0.0
 10
14.7774098766
 20
13.2305775504
 30
0.0
 10
14.7772497576
 20
13.2299656164
 30
0.0
 10
14.7771765228
 20
13.2296455052
 30
0.0
  0
SPLINE
  5
309
100
AcDbEntity
  8
02___PRT_ALL_AXES
100
AcDbSpline
 62
7
  6
CONTINUOUS
 70
0
 71
3
 72
41
 73
37
 74
0
 42
0.0000001
 43
0.0000001
 44
0.0000000001
 40
0.0
 40
0.0
 40
0.0
 40
0.0
 40
0.0239321359
 40
0.0499145127
 40
0.0779254175
 40
0.1078962085
 40
0.1397214679
 40
0.1732655916
 40
0.2083683511
 40
0.2448491985
 40
0.2825109273
 40
0.321142849
 40
0.360523668
 40
0.4004241547
 40
0.4406096922
 40
0.4808427471
 40
0.5208853024
 40
0.560501284
 40
0.5994590125
 40
0.637533714
 40
0.6745101361
 40
0.7101853312
 40
0.7443716988
 40
0.7769004244
 40
0.8076255138
 40
0.8364287319
 40
0.8632258932
 40
0.8879751509
 40
0.9106881393
 40
0.9314448829
 40
0.9504128184
 40
0.967867881
 40
0.9761577452
 40
0.9842300559
 40
0.9921530421
 40
1.0
 40
1.0
 40
1.0
 40
1.0
 10
15.6073708829
 20
12.4307490144
 30
0.0
 10
15.6065287637
 20
12.4296560493
 30
0.0
 10
15.6048903292
 20
12.42728435
 30
0.0
 10
15.6026535701
 20
12.4233834245
 30
0.0
 10
15.6005510422
 20
12.4190189926
 30
0.0
 10
15.5985972219
 20
12.414221028
 30
0.0
 10
15.5968053277
 20
12.4090220606
 30
0.0
 10
15.5951877867
 20
12.4034577911
 30
0.0
 10
15.593755847
 20
12.3975665581
 30
0.0
 10
15.5925195209
 20
12.3913891039
 30
0.0
 10
15.5914874679
 20
12.3849682421
 30
0.0
 10
15.5906669279
 20
12.3783485427
 30
0.0
 10
15.5900636605
 20
12.3715760025
 30
0.0
 10
15.5896819022
 20
12.3646977121
 30
0.0
 10
15.5895243346
 20
12.3577615174
 30
0.0
 10
15.5895920644
 20
12.350815677
 30
0.0
 10
15.5898846159
 20
12.3439085184
 30
0.0
 10
15.5903999343
 20
12.3370880933
 30
0.0
 10
15.5911344003
 20
12.3304018347
 30
0.0
 10
15.5920828573
 20
12.3238962161
 30
0.0
 10
15.5932386502
 20
12.3176164165
 30
0.0
 10
15.5945936772
 20
12.3116059897
 30
0.0
 10
15.5961384576
 20
12.3059065409
 30
0.0
 10
15.5978622173
 20
12.3005574103
 30
0.0
 10
15.5997530002
 20
12.295595366
 30
0.0
 10
15.6017978212
 20
12.2910543079
 30
0.0
 10
15.6039828609
 20
12.2869650011
 30
0.0
 10
15.6062938113
 20
12.2833548529
 30
0.0
 10
15.6087161383
 20
12.2802478797
 30
0.0
 10
15.6112361307
 20
12.2776648571
 30
0.0
 10
15.6138395719
 20
12.2756245954
 30
0.0
 10
15.6161082406
 20
12.2743703572
 30
0.0
 10
15.6179334306
 20
12.2736771687
 30
0.0
 10
15.6192873966
 20
12.2733110485
 30
0.0
 10
15.6206466727
 20
12.2730909363
 30
0.0
 10
15.6215566031
 20
12.2730419066
 30
0.0
 10
15.622009004
 20
12.273041905
 30
0.0
  0
SPLINE
  5
30A
100
AcDbEntity
  8
02___PRT_ALL_AXES
100
AcDbSpline
 62
7
  6
CONTINUOUS
 70
0
 71
3
 72
22
 73
18
 74
0
 42
0.0000001
 43
0.0000001
 44
0.0000000001
 40
0.0
 40
0.0
 40
0.0
 40
0.0
 40
0.1749971989
 40
0.2575982647
 40
0.3366426207
 40
0.4119520776
 40
0.4833887688
 40
0.5508583393
 40
0.6143186054
 40
0.6737899266
 40
0.7293679716
 40
0.7812395533
 40
0.8297007507
 40
0.8751749325
 40
0.9182261978
 40
0.9595598202
 40
1.0
 40
1.0
 40
1.0
 40
1.0
 10
15.8741463461
 20
11.963141634
 30
0.0
 10
15.8748458505
 20
11.9602459723
 30
0.0
 10
15.8760080761
 20
11.9560128354
 30
0.0
 10
15.8778358432
 20
11.9505803223
 30
0.0
 10
15.87927608
 20
11.9468112126
 30
0.0
 10
15.8808062571
 20
11.943283839
 30
0.0
 10
15.8824203571
 20
11.9400121471
 30
0.0
 10
15.8841120296
 20
11.9370090602
 30
0.0
 10
15.8858747398
 20
11.9342863725
 30
0.0
 10
15.8877018222
 20
11.9318547483
 30
0.0
 10
15.8895865857
 20
11.9297237389
 30
0.0
 10
15.8915223831
 20
11.9279018743
 30
0.0
 10
15.8935026522
 20
11.9263968375
 30
0.0
 10
15.8955206774
 20
11.9252157496
 30
0.0
 10
15.8975694812
 20
11.924365388
 30
0.0
 10
15.899639863
 20
11.9238519726
 30
0.0
 10
15.9010344434
 20
11.9237370797
 30
0.0
 10
15.901722851
 20
11.9237370726
 30
0.0
  0
SPLINE
  5
30B
100
AcDbEntity
  8
LAYER_CUT_FEAT
100
AcDbSpline
 62
7
  6
CONTINUOUS
 70
0
 71
3
 72
29
 73
25
 74
0
 42
0.0000001
 43
0.0000001
 44
0.0000000001
 40
0.0
 40
0.0
 40
0.0
 40
0.0
 40
0.0852316809
 40
0.1699237292
 40
0.253368672
 40
0.3348729333
 40
0.4137741944
 40
0.4894508094
 40
0.5613350943
 40
0.6289279858
 40
0.6918169853
 40
0.7496994115
 40
0.7767140921
 40
0.802431121
 40
0.8268601944
 40
0.8500261048
 40
0.8719718495
 40
0.8927610838
 40
0.9124809666
 40
0.9312453514
 40
0.9491962065
 40
0.9665042514
 40
0.9833664281
 40
1.0
 40
1.0
 40
1.0
 40
1.0
 10
15.6406516371
 20
11.4702167109
 30
0.0
 10
15.6406246521
 20
11.4674481692
 30
0.0
 10
15.6406778487
 20
11.4619269699
 30
0.0
 10
15.6410771686
 20
11.4537042023
 30
0.0
 10
15.6417919303
 20
11.445624155
 30
0.0
 10
15.6428149987
 20
11.4377668631
 30
0.0
 10
15.6441361063
 20
11.4302099603
 30
0.0
 10
15.6457420369
 20
11.4230279525
 30
0.0
 10
15.6476167458
 20
11.4162914799
 30
0.0
 10
15.6497416639
 20
11.4100662751
 30
0.0
 10
15.6520958231
 20
11.4044132774
 30
0.0
 10
15.6542775957
 20
11.4001298252
 30
0.0
 10
15.6561297732
 20
11.3970492865
 30
0.0
 10
15.6575292131
 20
11.3949683911
 30
0.0
 10
15.6589675258
 20
11.3930685992
 30
0.0
 10
15.6604414302
 20
11.3913545832
 30
0.0
 10
15.661947494
 20
11.389830561
 30
0.0
 10
15.6634823063
 20
11.3885003567
 30
0.0
 10
15.665042469
 20
11.3873674936
 30
0.0
 10
15.6666244635
 20
11.3864351057
 30
0.0
 10
15.6682246482
 20
11.3857061419
 30
0.0
 10
15.6698391802
 20
11.3851832123
 30
0.0
 10
15.6714633433
 20
11.3848684339
 30
0.0
 10
15.6725526788
 20
11.3847982302
 30
0.0
 10
15.6730930052
 20
11.3847982267
 30
0.0
  0
SPLINE
  5
30C
100
AcDbEntity
  8
LAYER_CUT_FEAT
100
AcDbSpline
 62
7
  6
CONTINUOUS
 70
0
 71
3
 72
11
 73
7
 74
0
 42
0.0000001
 43
0.0000001
 44
0.0000000001
 40
0.0
 40
0.0
 40
0.0
 40
0.0
 40
0.2295799157
 40
0.4723940402
 40
0.7290698074
 40
1.0
 40
1.0
 40
1.0
 40
1.0
 10
15.6643001474
 20
11.6877383719
 30
0.0
 10
15.6699579726
 20
11.6925289375
 30
0.0
 10
15.6811716692
 20
11.7028998906
 30
0.0
 10
15.6972015578
 20
11.7201685721
 30
0.0
 10
15.712858044
 20
11.7395243021
 30
0.0
 10
15.7227513989
 20
11.7534083346
 30
0.0
 10
15.72763635
 20
11.760666357
 30
0.0
  0
SPLINE
  5
30D
100
AcDbEntity
  8
LAYER_CUT_FEAT
100
AcDbSpline
 62
7
  6
CONTINUOUS
 70
0
 71
3
 72
21
 73
17
 74
0
 42
0.0000001
 43
0.0000001
 44
0.0000000001
 40
0.0
 40
0.0
 40
0.0
 40
0.0
 40
0.0393389769
 40
0.0820915464
 40
0.1284274915
 40
0.1784066703
 40
0.2319990407
 40
0.2891037136
 40
0.3495617518
 40
0.4131666281
 40
0.4796721924
 40
0.5487991644
 40
0.6202405999
 40
0.6936664342
 40
0.8450424331
 40
1.0
 40
1.0
 40
1.0
 40
1.0
 10
15.6643001474
 20
11.6877383719
 30
0.0
 10
15.6634789473
 20
11.6870430495
 30
0.0
 10
15.661860101
 20
11.6854781021
 30
0.0
 10
15.6596065157
 20
11.6827766797
 30
0.0
 10
15.6574416933
 20
11.6796433274
 30
0.0
 10
15.6553776321
 20
11.6760962948
 30
0.0
 10
15.6534254851
 20
11.6721554877
 30
0.0
 10
15.6515963427
 20
11.6678434663
 30
0.0
 10
15.6499007234
 20
11.6631850188
 30
0.0
 10
15.6483485001
 20
11.6582071114
 30
0.0
 10
15.6469487625
 20
11.6529386721
 30
0.0
 10
15.6457097571
 20
11.6474104258
 30
0.0
 10
15.6446387345
 20
11.6416546298
 30
0.0
 10
15.6434311497
 20
11.6336406694
 30
0.0
 10
15.6423918291
 20
11.623297992
 30
0.0
 10
15.6420620622
 20
11.6149196877
 30
0.0
 10
15.6420207511
 20
11.6106813663
 30
0.0
  0
SPLINE
  5
30E
100
AcDbEntity
  8
LAYER_CUT_FEAT
100
AcDbSpline
 62
7
  6
CONTINUOUS
 70
0
 71
3
 72
13
 73
9
 74
0
 42
0.0000001
 43
0.0000001
 44
0.0000000001
 40
0.0
 40
0.0
 40
0.0
 40
0.0
 40
0.2115268841
 40
0.3265277132
 40
0.4479896631
 40
0.5760541434
 40
0.7107764894
 40
1.0
 40
1.0
 40
1.0
 40
1.0
 10
15.1985706777
 20
11.9889014138
 30
0.0
 10
15.1974501308
 20
11.9880454451
 30
0.0
 10
15.1958434627
 20
11.9865585409
 30
0.0
 10
15.1938756818
 20
11.9843110854
 30
0.0
 10
15.1923953005
 20
11.982381754
 30
0.0
 10
15.1909557909
 20
11.9802615387
 30
0.0
 10
15.189050369
 20
11.9771120008
 30
0.0
 10
15.1877642046
 20
11.9745901615
 30
0.0
 10
15.1869531654
 20
11.9728410339
 30
0.0
  0
SPLINE
  5
30F
100
AcDbEntity
  8
LAYER_CUT_FEAT
100
AcDbSpline
 62
7
  6
CONTINUOUS
 70
0
 71
3
 72
15
 73
11
 74
0
 42
0.0000001
 43
0.0000001
 44
0.0000000001
 40
0.0
 40
0.0
 40
0.0
 40
0.0
 40
0.1394369256
 40
0.274663128
 40
0.4056965289
 40
0.5325736249
 40
0.6553511795
 40
0.7741074863
 40
0.8889484338
 40
1.0
 40
1.0
 40
1.0
 40
1.0
 10
15.3128708859
 20
11.529552622
 30
0.0
 10
15.316739557
 20
11.5231637037
 30
0.0
 10
15.3245466133
 20
11.5106904179
 30
0.0
 10
15.3366590884
 20
11.4926434852
 30
0.0
 10
15.3489830614
 20
11.4755626248
 30
0.0
 10
15.3615069294
 20
11.4594641773
 30
0.0
 10
15.3742190513
 20
11.4443633835
 30
0.0
 10
15.3871078131
 20
11.4302743272
 30
0.0
 10
15.400160843
 20
11.4172109598
 30
0.0
 10
15.4091114011
 20
11.4090602526
 30
0.0
 10
15.4136106702
 20
11.4051691268
 30
0.0
  0
SPLINE
  5
310
100
AcDbEntity
  8
LAYER_CUT_FEAT
100
AcDbSpline
 62
7
  6
CONTINUOUS
 70
0
 71
3
 72
13
 73
9
 74
0
 42
0.0000001
 43
0.0000001
 44
0.0000000001
 40
0.0
 40
0.0
 40
0.0
 40
0.0
 40
0.275507871
 40
0.5298765585
 40
0.6509684654
 40
0.7690424992
 40
0.8850472076
 40
1.0
 40
1.0
 40
1.0
 40
1.0
 10
15.4136106702
 20
11.4051691268
 30
0.0
 10
15.4144078018
 20
11.4044797395
 30
0.0
 10
15.4160275893
 20
11.4032484262
 30
0.0
 10
15.4182333801
 20
11.4020649382
 30
0.0
 10
15.4200069817
 20
11.4014106393
 30
0.0
 10
15.4213231963
 20
11.4010647751
 30
0.0
 10
15.4226442942
 20
11.400856953
 30
0.0
 10
15.4235284455
 20
11.400810632
 30
0.0
 10
15.4239681681
 20
11.4008106322
 30
0.0
  0
SPLINE
  5
311
100
AcDbEntity
  8
LAYER_CUT_FEAT
100
AcDbSpline
 62
7
  6
CONTINUOUS
 70
0
 71
3
 72
28
 73
24
 74
0
 42
0.0000001
 43
0.0000001
 44
0.0000000001
 40
0.0
 40
0.0
 40
0.0
 40
0.0
 40
0.0180880018
 40
0.0373647015
 40
0.0578938649
 40
0.0797168027
 40
0.1028499129
 40
0.1272907024
 40
0.1530207745
 40
0.1800079596
 40
0.2082082531
 40
0.2375675671
 40
0.2994964583
 40
0.3652149441
 40
0.434039757
 40
0.5052171689
 40
0.5779435019
 40
0.6513832608
 40
0.7246866589
 40
0.7970066552
 40
0.8675160205
 40
0.9354243611
 40
1.0
 40
1.0
 40
1.0
 40
1.0
 10
15.422850595
 20
13.6241741444
 30
0.0
 10
15.4222280226
 20
13.6236735218
 30
0.0
 10
15.4209947154
 20
13.6225726173
 30
0.0
 10
15.4192422781
 20
13.6207069337
 30
0.0
 10
15.417536197
 20
13.6185828849
 30
0.0
 10
15.4158820587
 20
13.6162079318
 30
0.0
 10
15.4142850714
 20
13.6135898632
 30
0.0
 10
15.4127504706
 20
13.6107374692
 30
0.0
 10
15.411283332
 20
13.6076602981
 30
0.0
 10
15.4098886036
 20
13.6043686912
 30
0.0
 10
15.408570932
 20
13.6008737421
 30
0.0
 10
15.4068930042
 20
13.5958691307
 30
0.0
 10
15.4050327292
 20
13.5891833484
 30
0.0
 10
15.4032082663
 20
13.5806953214
 30
0.0
 10
15.4017788183
 20
13.5717183311
 30
0.0
 10
15.4007640372
 20
13.5623741367
 30
0.0
 10
15.4001779948
 20
13.5527892711
 30
0.0
 10
15.4000287613
 20
13.5430938629
 30
0.0
 10
15.4003184254
 20
13.5334195596
 30
0.0
 10
15.4010429645
 20
13.5238977691
 30
0.0
 10
15.4021923796
 20
13.5146575696
 30
0.0
 10
15.4037507041
 20
13.5058245617
 30
0.0
 10
15.4050861155
 20
13.5001234475
 30
0.0
 10
15.4058251994
 20
13.4973687845
 30
0.0
  0
SPLINE
  5
312
100
AcDbEntity
  8
LAYER_CUT_FEAT
100
AcDbSpline
 62
7
  6
CONTINUOUS
 70
0
 71
3
 72
22
 73
18
 74
0
 42
0.0000001
 43
0.0000001
 44
0.0000000001
 40
0.0
 40
0.0
 40
0.0
 40
0.0
 40
0.174187649
 40
0.2562935411
 40
0.3348278407
 40
0.4096448607
 40
0.4806377797
 40
0.54774237
 40
0.6109438382
 40
0.6702874471
 40
0.7258902721
 40
0.7779547942
 40
0.8267844267
 40
0.8727987243
 40
0.9165431392
 40
0.9586865358
 40
1.0
 40
1.0
 40
1.0
 40
1.0
 10
15.4368691301
 20
13.3816639604
 30
0.0
 10
15.4375855096
 20
13.3789939197
 30
0.0
 10
15.4387618462
 20
13.375095563
 30
0.0
 10
15.4405845594
 20
13.3701028699
 30
0.0
 10
15.442008441
 20
13.3666466387
 30
0.0
 10
15.4435108789
 20
13.3634172455
 30
0.0
 10
15.445086522
 20
13.360426265
 30
0.0
 10
15.4467297566
 20
13.3576844176
 30
0.0
 10
15.4484348604
 20
13.3552014915
 30
0.0
 10
15.45019601
 20
13.3529863433
 30
0.0
 10
15.4520073523
 20
13.351046902
 30
0.0
 10
15.4538630746
 20
13.3493902829
 30
0.0
 10
15.4557574208
 20
13.3480229535
 30
0.0
 10
15.4576844284
 20
13.3469508998
 30
0.0
 10
15.4596378594
 20
13.3461797367
 30
0.0
 10
15.4616096233
 20
13.345714501
 30
0.0
 10
15.4629363568
 20
13.3456104754
 30
0.0
 10
15.463592029
 20
13.3456104693
 30
0.0
  0
SPLINE
  5
313
100
AcDbEntity
  8
LAYER_CUT_FEAT
100
AcDbSpline
 62
7
  6
CONTINUOUS
 70
0
 71
3
 72
16
 73
12
 74
0
 42
0.0000001
 43
0.0000001
 44
0.0000000001
 40
0.0
 40
0.0
 40
0.0
 40
0.0
 40
0.1395741752
 40
0.2072977241
 40
0.2737192619
 40
0.4029174275
 40
0.5278171443
 40
0.6491350764
 40
0.7676761945
 40
0.8843197654
 40
1.0
 40
1.0
 40
1.0
 40
1.0
 10
15.6615131031
 20
13.3362207975
 30
0.0
 10
15.6574484105
 20
13.3395622326
 30
0.0
 10
15.6512493897
 20
13.3443341565
 30
0.0
 10
15.6427446978
 20
13.3501813391
 30
0.0
 10
15.6343602542
 20
13.3555012134
 30
0.0
 10
15.6237933066
 20
13.3613898414
 30
0.0
 10
15.6108897225
 20
13.3672446847
 30
0.0
 10
15.5978993034
 20
13.3718116552
 30
0.0
 10
15.5848421848
 20
13.3750811498
 30
0.0
 10
15.5717412744
 20
13.3770459492
 30
0.0
 10
15.5629766936
 20
13.3774835395
 30
0.0
 10
15.5586156405
 20
13.3774835352
 30
0.0
  0
SPLINE
  5
314
100
AcDbEntity
  8
LAYER_CUT_FEAT
100
AcDbSpline
 62
7
  6
CONTINUOUS
 70
0
 71
3
 72
13
 73
9
 74
0
 42
0.0000001
 43
0.0000001
 44
0.0000000001
 40
0.0
 40
0.0
 40
0.0
 40
0.0
 40
0.2736349282
 40
0.5276239061
 40
0.6489898706
 40
0.7675804291
 40
0.8842723446
 40
1.0
 40
1.0
 40
1.0
 40
1.0
 10
15.6615131031
 20
13.3362207975
 30
0.0
 10
15.6622790214
 20
13.3355911641
 30
0.0
 10
15.6638343824
 20
13.3344673623
 30
0.0
 10
15.6659391794
 20
13.3333928832
 30
0.0
 10
15.6676297912
 20
13.3327986402
 30
0.0
 10
15.668885308
 20
13.3324842202
 30
0.0
 10
15.6701450077
 20
13.3322953093
 30
0.0
 10
15.6709877583
 20
13.3322532342
 30
0.0
 10
15.6714070899
 20
13.3322532301
 30
0.0
  0
SPLINE
  5
315
100
AcDbEntity
  8
02___PRT_ALL_AXES
100
AcDbSpline
 62
7
  6
CONTINUOUS
 70
0
 71
3
 72
45
 73
41
 74
0
 42
0.0000001
 43
0.0000001
 44
0.0000000001
 40
0.0
 40
0.0
 40
0.0
 40
0.0
 40
0.0297971987
 40
0.0605446856
 40
0.0921717601
 40
0.1246027067
 40
0.1577574465
 40
0.1915521166
 40
0.2258996125
 40
0.2607101002
 40
0.2958915067
 40
0.3313499942
 40
0.3669904222
 40
0.402716802
 40
0.4384327461
 40
0.4740419154
 40
0.5094484666
 40
0.5445575025
 40
0.5792755276
 40
0.6135109128
 40
0.6471743726
 40
0.6801794595
 40
0.7124430825
 40
0.7438860569
 40
0.7744336965
 40
0.8040164613
 40
0.8325706788
 40
0.8600393639
 40
0.8733515335
 40
0.8863745127
 40
0.8991035135
 40
0.9115343772
 40
0.9236636218
 40
0.9354884954
 40
0.9470070347
 40
0.95821813
 40
0.969121597
 40
0.9797182569
 40
0.9900100235
 40
1.0
 40
1.0
 40
1.0
 40
1.0
 10
15.2533835453
 20
13.329891604
 30
0.0
 10
15.2472846296
 20
13.3101555056
 30
0.0
 10
15.2355566891
 20
13.2698459067
 30
0.0
 10
15.2195845208
 20
13.2079670173
 30
0.0
 10
15.2049932871
 20
13.1438740913
 30
0.0
 10
15.1918297239
 20
13.0777711691
 30
0.0
 10
15.1801357151
 20
13.009867656
 30
0.0
 10
15.1699485685
 20
12.9403790921
 30
0.0
 10
15.1613007708
 20
12.8695260407
 30
0.0
 10
15.1542199111
 20
12.7975334856
 30
0.0
 10
15.1487285811
 20
12.7246300712
 30
0.0
 10
15.1448443029
 20
12.6510473735
 30
0.0
 10
15.1425794712
 20
12.5770191515
 30
0.0
 10
15.1419413133
 20
12.5027805956
 30
0.0
 10
15.1429318654
 20
12.4285675723
 30
0.0
 10
15.1455479665
 20
12.3546158658
 30
0.0
 10
15.1497812684
 20
12.2811604206
 30
0.0
 10
15.1556182628
 20
12.2084345869
 30
0.0
 10
15.163040325
 20
12.136669369
 30
0.0
 10
15.1720237753
 20
12.0660926815
 30
0.0
 10
15.1825399562
 20
11.9969286133
 30
0.0
 10
15.194555328
 20
11.9293966999
 30
0.0
 10
15.2080315808
 20
11.8637112161
 30
0.0
 10
15.22292577
 20
11.8000804502
 30
0.0
 10
15.2391904511
 20
11.7387061097
 30
0.0
 10
15.2567739112
 20
11.6797823244
 30
0.0
 10
15.2756201597
 20
11.6234961627
 30
0.0
 10
15.2924997743
 20
11.5784776746
 30
0.0
 10
15.3066133398
 20
11.543949042
 30
0.0
 10
15.3173652653
 20
11.5190914354
 30
0.0
 10
15.3283857194
 20
11.4950220252
 30
0.0
 10
15.3396660532
 20
11.4717598224
 30
0.0
 10
15.3511973139
 20
11.4493232788
 30
0.0
 10
15.3629703881
 20
11.4277301612
 30
0.0
 10
15.3749759744
 20
11.4069975699
 30
0.0
 10
15.3872046109
 20
11.3871419074
 30
0.0
 10
15.3996466524
 20
11.3681789072
 30
0.0
 10
15.4122923941
 20
11.3501234884
 30
0.0
 10
15.4251316811
 20
11.332990227
 30
0.0
 10
15.4339439835
 20
11.3220296602
 30
0.0
 10
15.4383818796
 20
11.316712836
 30
0.0
  0
SPLINE
  5
316
100
AcDbEntity
  8
02___PRT_ALL_AXES
100
AcDbSpline
 62
7
  6
CONTINUOUS
 70
0
 71
3
 72
22
 73
18
 74
0
 42
0.0000001
 43
0.0000001
 44
0.0000000001
 40
0.0
 40
0.0
 40
0.0
 40
0.0
 40
0.1460479775
 40
0.2169904842
 40
0.2864955038
 40
0.3545303694
 40
0.4210653857
 40
0.4860739971
 40
0.5495330449
 40
0.6114230258
 40
0.6717283869
 40
0.7304378488
 40
0.7875447671
 40
0.8430475324
 40
0.8969500143
 40
0.9492620529
 40
1.0
 40
1.0
 40
1.0
 40
1.0
 10
15.2533835453
 20
13.329891604
 30
0.0
 10
15.2594309965
 20
13.3494611632
 30
0.0
 10
15.2688951008
 20
13.3783928258
 30
0.0
 10
15.2824271054
 20
13.4162272261
 30
0.0
 10
15.2927907482
 20
13.4435698048
 30
0.0
 10
15.3034581866
 20
13.4701302753
 30
0.0
 10
15.3144205884
 20
13.4958865707
 30
0.0
 10
15.3256687575
 20
13.5208171069
 30
0.0
 10
15.3371932979
 20
13.5449010494
 30
0.0
 10
15.3489845836
 20
13.5681182664
 30
0.0
 10
15.3610327795
 20
13.5904493631
 30
0.0
 10
15.3733278477
 20
13.6118756897
 30
0.0
 10
15.3858595688
 20
13.6323793686
 30
0.0
 10
15.3986175198
 20
13.651943267
 30
0.0
 10
15.4115912092
 20
13.6705511533
 30
0.0
 10
15.4247696535
 20
13.6881871871
 30
0.0
 10
15.4338220862
 20
13.6994580369
 30
0.0
 10
15.4383818799
 20
13.7049209004
 30
0.0
  0
LINE
  5
317
100
AcDbEntity
  8
0
100
AcDbLine
 62
7
  6
CONTINUOUS
 10
15.1309638268
 20
13.1413888264
 11
15.1304067247
 21
13.1415050437
  0
SPLINE
  5
318
100
AcDbEntity
  8
0
100
AcDbSpline
 62
7
  6
CONTINUOUS
 70
0
 71
3
 72
9
 73
5
 74
0
 42
0.0000001
 43
0.0000001
 44
0.0000000001
 40
0.0
 40
0.0
 40
0.0
 40
0.0
 40
0.5087230915
 40
1.0
 40
1.0
 40
1.0
 40
1.0
 10
15.1380649642
 20
13.1384064705
 30
0.0
 10
15.1383810858
 20
13.1382737049
 30
0.0
 10
15.1390275407
 20
13.1380672203
 30
0.0
 10
15.1397032757
 20
13.1379956386
 30
0.0
 10
15.140034387
 20
13.1379956377
 30
0.0
  0
LINE
  5
319
100
AcDbEntity
  8
0
100
AcDbLine
 62
7
  6
CONTINUOUS
 10
15.1493702899
 20
13.2337819223
 11
15.1485769311
 21
13.2340192385
  0
SPLINE
  5
31A
100
AcDbEntity
  8
0
100
AcDbSpline
 62
7
  6
CONTINUOUS
 70
0
 71
3
 72
10
 73
6
 74
0
 42
0.0000001
 43
0.0000001
 44
0.0000000001
 40
0.0
 40
0.0
 40
0.0
 40
0.0
 40
0.5163736327
 40
0.760404288
 40
1.0
 40
1.0
 40
1.0
 40
1.0
 10
15.1563731152
 20
13.2295348053
 30
0.0
 10
15.1568086378
 20
13.2292706668
 30
0.0
 10
15.1574987222
 20
13.2289495961
 30
0.0
 10
15.1584635135
 20
13.228731819
 30
0.0
 10
15.1589413912
 20
13.2286958706
 30
0.0
 10
15.1591777333
 20
13.2286958743
 30
0.0
  0
LINE
  5
31B
100
AcDbEntity
  8
0
100
AcDbLine
 62
7
  6
CONTINUOUS
 10
15.1702417235
 20
13.3226528053
 11
15.1692159732
 21
13.3230532441
  0
SPLINE
  5
31C
100
AcDbEntity
  8
0
100
AcDbSpline
 62
7
  6
CONTINUOUS
 70
0
 71
3
 72
11
 73
7
 74
0
 42
0.0000001
 43
0.0000001
 44
0.0000000001
 40
0.0
 40
0.0
 40
0.0
 40
0.0
 40
0.2727678381
 40
0.5267036014
 40
0.7669541914
 40
1.0
 40
1.0
 40
1.0
 40
1.0
 10
15.1771121196
 20
13.3171616185
 30
0.0
 10
15.1773936878
 20
13.3169365742
 30
0.0
 10
15.1779654091
 20
13.3165350403
 30
0.0
 10
15.1788770112
 20
13.3160822149
 30
0.0
 10
15.1798032868
 20
13.3158077066
 30
0.0
 10
15.1804303084
 20
13.315746002
 30
0.0
 10
15.1807382692
 20
13.3157460038
 30
0.0
  0
SPLINE
  5
31D
100
AcDbEntity
  8
0
100
AcDbSpline
 62
7
  6
CONTINUOUS
 70
0
 71
3
 72
11
 73
7
 74
0
 42
0.0000001
 43
0.0000001
 44
0.0000000001
 40
0.0
 40
0.0
 40
0.0
 40
0.0
 40
0.2815676288
 40
0.5374564918
 40
0.7739545313
 40
1.0
 40
1.0
 40
1.0
 40
1.0
 10
15.1934764439
 20
13.4075685051
 30
0.0
 10
15.1933818112
 20
13.4076631944
 30
0.0
 10
15.1931890489
 20
13.4078326288
 30
0.0
 10
15.1928744185
 20
13.4080273593
 30
0.0
 10
15.1925514977
 20
13.4081463516
 30
0.0
 10
15.1923307725
 20
13.4081732893
 30
0.0
 10
15.1922232996
 20
13.4081732949
 30
0.0
  0
SPLINE
  5
31E
100
AcDbEntity
  8
0
100
AcDbSpline
 62
7
  6
CONTINUOUS
 70
0
 71
3
 72
11
 73
7
 74
0
 42
0.0000001
 43
0.0000001
 44
0.0000000001
 40
0.0
 40
0.0
 40
0.0
 40
0.0
 40
0.2816104631
 40
0.5374429644
 40
0.7739512668
 40
1.0
 40
1.0
 40
1.0
 40
1.0
 10
15.200180939
 20
13.4008600011
 30
0.0
 10
15.2005155285
 20
13.4005252116
 30
0.0
 10
15.2011968956
 20
13.3999261832
 30
0.0
 10
15.2023092256
 20
13.3992379032
 30
0.0
 10
15.2034507075
 20
13.3988172757
 30
0.0
 10
15.204231018
 20
13.3987219659
 30
0.0
 10
15.2046109539
 20
13.3987219595
 30
0.0
  0
SPLINE
  5
31F
100
AcDbEntity
  8
0
100
AcDbSpline
 62
7
  6
CONTINUOUS
 70
0
 71
3
 72
37
 73
33
 74
0
 42
0.0000001
 43
0.0000001
 44
0.0000000001
 40
0.0
 40
0.0
 40
0.0
 40
0.0
 40
0.0875760605
 40
0.1718635892
 40
0.2127327356
 40
0.2527305856
 40
0.2918440862
 40
0.3300619146
 40
0.3673747125
 40
0.4037751888
 40
0.4392582918
 40
0.4738214235
 40
0.5074645892
 40
0.5401906222
 40
0.5720054681
 40
0.6029184037
 40
0.6329423126
 40
0.6620940378
 40
0.6903946813
 40
0.7178699194
 40
0.744550383
 40
0.7704719933
 40
0.7956762416
 40
0.8202104759
 40
0.8441281074
 40
0.867488657
 40
0.8903576961
 40
0.9128066206
 40
0.9349121658
 40
0.9567557179
 40
0.9784224111
 40
1.0
 40
1.0
 40
1.0
 40
1.0
 10
14.8420339174
 20
13.4725772452
 30
0.0
 10
14.8487085971
 20
13.4929365349
 30
0.0
 10
14.8624490075
 20
13.5326840631
 30
0.0
 10
14.8811736978
 20
13.5812574215
 30
0.0
 10
14.8967886261
 20
13.6185257536
 30
0.0
 10
14.9086684681
 20
13.6453698257
 30
0.0
 10
14.9208282549
 20
13.6713739974
 30
0.0
 10
14.9332591034
 20
13.6965191306
 30
0.0
 10
14.9459518081
 20
13.720786655
 30
0.0
 10
14.9588970329
 20
13.7441586619
 30
0.0
 10
14.9720852639
 20
13.7666179033
 30
0.0
 10
14.9855067931
 20
13.7881478301
 30
0.0
 10
14.9991517788
 20
13.8087325695
 30
0.0
 10
15.0130102513
 20
13.8283569349
 30
0.0
 10
15.0270720699
 20
13.8470064734
 30
0.0
 10
15.0413269851
 20
13.8646674374
 30
0.0
 10
15.0557646585
 20
13.8813267734
 30
0.0
 10
15.0703746183
 20
13.8969721734
 30
0.0
 10
15.0851462987
 20
13.9115920515
 30
0.0
 10
15.1000690731
 20
13.9251755065
 30
0.0
 10
15.1151322138
 20
13.9377123608
 30
0.0
 10
15.1303248913
 20
13.9491931608
 30
0.0
 10
15.1456362076
 20
13.9596091126
 30
0.0
 10
15.161055155
 20
13.9689521033
 30
0.0
 10
15.1765705673
 20
13.9772147508
 30
0.0
 10
15.1921711411
 20
13.9843903352
 30
0.0
 10
15.2078453797
 20
13.9904728225
 30
0.0
 10
15.2235815643
 20
13.995456992
 30
0.0
 10
15.2393676494
 20
13.9993384082
 30
0.0
 10
15.2551917039
 20
14.0021134684
 30
0.0
 10
15.2710402613
 20
14.003779565
 30
0.0
 10
15.2816236862
 20
14.0041502061
 30
0.0
 10
15.2869026473
 20
14.0041501999
 30
0.0
  0
SPLINE
  5
320
100
AcDbEntity
  8
0
100
AcDbSpline
 62
7
  6
CONTINUOUS
 70
0
 71
3
 72
15
 73
11
 74
0
 42
0.0000001
 43
0.0000001
 44
0.0000000001
 40
0.0
 40
0.0
 40
0.0
 40
0.0
 40
0.0831993384
 40
0.1727748359
 40
0.273585201
 40
0.3885353914
 40
0.5189149717
 40
0.6648370577
 40
0.8256375817
 40
1.0
 40
1.0
 40
1.0
 40
1.0
 10
14.8007915756
 20
13.3230532441
 30
0.0
 10
14.8006507621
 20
13.3230532329
 30
0.0
 10
14.800356701
 20
13.3230055515
 30
0.0
 10
14.7999362641
 20
13.3227995408
 30
0.0
 10
14.799534916
 20
13.3224682325
 30
0.0
 10
14.7991555367
 20
13.3220187475
 30
0.0
 10
14.7988012078
 20
13.3214574124
 30
0.0
 10
14.7984759961
 20
13.3207916397
 30
0.0
 10
14.7981842838
 20
13.320030552
 30
0.0
 10
14.7980208953
 20
13.3194867903
 30
0.0
 10
14.7979447748
 20
13.3192016711
 30
0.0
  0
SPLINE
  5
321
100
AcDbEntity
  8
0
100
AcDbSpline
 62
7
  6
CONTINUOUS
 70
0
 71
3
 72
15
 73
11
 74
0
 42
0.0000001
 43
0.0000001
 44
0.0000000001
 40
0.0
 40
0.0
 40
0.0
 40
0.0
 40
0.0858519507
 40
0.177422275
 40
0.2792236664
 40
0.3941407429
 40
0.5236384192
 40
0.6681032319
 40
0.8272152382
 40
1.0
 40
1.0
 40
1.0
 40
1.0
 10
14.823798902
 20
13.4081732949
 30
0.0
 10
14.823668396
 20
13.4081733016
 30
0.0
 10
14.8233973315
 20
13.408132727
 30
0.0
 10
14.823006664
 20
13.4079561776
 30
0.0
 10
14.8226311454
 20
13.407670551
 30
0.0
 10
14.8222735561
 20
13.4072815469
 30
0.0
 10
14.8219364205
 20
13.4067941706
 30
0.0
 10
14.8216229655
 20
13.4062140442
 30
0.0
 10
14.8213367856
 20
13.4055480195
 30
0.0
 10
14.8211727287
 20
13.4050704136
 30
0.0
 10
14.8210951805
 20
13.4048194675
 30
0.0
  0
SPLINE
  5
322
100
AcDbEntity
  8
02___PRT_ALL_AXES
100
AcDbSpline
 62
7
  6
CONTINUOUS
 70
0
 71
3
 72
19
 73
15
 74
0
 42
0.0000001
 43
0.0000001
 44
0.0000000001
 40
0.0
 40
0.0
 40
0.0
 40
0.0
 40
0.146458511
 40
0.2851561402
 40
0.4166745479
 40
0.5417735733
 40
0.602227409
 40
0.6614498994
 40
0.719590225
 40
0.7768088231
 40
0.8332763548
 40
0.889172279
 40
0.9446830522
 40
1.0
 40
1.0
 40
1.0
 40
1.0
 10
15.4388570496
 20
13.7045903866
 30
0.0
 10
15.4464157912
 20
13.7128211979
 30
0.0
 10
15.4616801206
 20
13.7283578348
 30
0.0
 10
15.4856730491
 20
13.7492700337
 30
0.0
 10
15.5100654283
 20
13.7670816133
 30
0.0
 10
15.5309176494
 20
13.7794381425
 30
0.0
 10
15.5477013235
 20
13.7876494468
 30
0.0
 10
15.5602047655
 20
13.7929357494
 30
0.0
 10
15.5727577442
 20
13.7974153182
 30
0.0
 10
15.5853525547
 20
13.8010850844
 30
0.0
 10
15.5979809365
 20
13.8039422728
 30
0.0
 10
15.6106348302
 20
13.8059847198
 30
0.0
 10
15.6233051577
 20
13.8072108327
 30
0.0
 10
15.631763996
 20
13.807483537
 30
0.0
 10
15.635984764
 20
13.8074835355
 30
0.0
  0
SPLINE
  5
323
100
AcDbEntity
  8
02___PRT_ALL_AXES
100
AcDbSpline
 62
7
  6
CONTINUOUS
 70
0
 71
3
 72
18
 73
14
 74
0
 42
0.0000001
 43
0.0000001
 44
0.0000000001
 40
0.0
 40
0.0
 40
0.0
 40
0.0
 40
0.0543221186
 40
0.1088695981
 40
0.1638643689
 40
0.2195216891
 40
0.276047325
 40
0.3336352343
 40
0.4526540041
 40
0.5778986276
 40
0.7103860966
 40
0.8508973733
 40
1.0
 40
1.0
 40
1.0
 40
1.0
 10
15.8048459463
 20
13.2608168649
 30
0.0
 10
15.807503355
 20
13.2608168648
 30
0.0
 10
15.8128310707
 20
13.2606298622
 30
0.0
 10
15.8208091963
 20
13.2597891983
 30
0.0
 10
15.8287749367
 20
13.2583889774
 30
0.0
 10
15.836721424
 20
13.2564305836
 30
0.0
 10
15.8446428557
 20
13.2539156675
 30
0.0
 10
15.8552779098
 20
13.2497791381
 30
0.0
 10
15.8685192792
 20
13.2431598067
 30
0.0
 10
15.884016371
 20
13.2331235717
 30
0.0
 10
15.8992583545
 20
13.2209432616
 30
0.0
 10
15.9142025451
 20
13.2066604176
 30
0.0
 10
15.9236545208
 20
13.1960861879
 30
0.0
 10
15.9283285219
 20
13.1904865055
 30
0.0
  0
SPLINE
  5
324
100
AcDbEntity
  8
02___PRT_ALL_AXES
100
AcDbSpline
 62
7
  6
CONTINUOUS
 70
0
 71
3
 72
39
 73
35
 74
0
 42
0.0000001
 43
0.0000001
 44
0.0000000001
 40
0.0
 40
0.0
 40
0.0
 40
0.0
 40
0.0202790429
 40
0.0417769555
 40
0.0645047731
 40
0.0884573932
 40
0.1136160203
 40
0.1399501438
 40
0.1674191635
 40
0.1959737304
 40
0.2255568551
 40
0.2561048687
 40
0.2875482255
 40
0.3198122433
 40
0.3528177314
 40
0.3864816028
 40
0.4207174047
 40
0.455435854
 40
0.4905453177
 40
0.5259523013
 40
0.5615619049
 40
0.5972782847
 40
0.6330051003
 40
0.6686459629
 40
0.704104883
 40
0.7392867187
 40
0.774097631
 40
0.8084455463
 40
0.8422406282
 40
0.8753957732
 40
0.9078271155
 40
0.9394545779
 40
0.9702023875
 40
1.0
 40
1.0
 40
1.0
 40
1.0
 10
15.9442132907
 20
13.1714557557
 30
0.0
 10
15.9491972803
 20
13.1654846918
 30
0.0
 10
15.959009738
 20
13.1527988512
 30
0.0
 10
15.9728703615
 20
13.1322893482
 30
0.0
 10
15.9862576039
 20
13.10981199
 30
0.0
 10
15.9991293271
 20
13.0854382462
 30
0.0
 10
16.0114459696
 20
13.0592438795
 30
0.0
 10
16.0231689133
 20
13.0313111469
 30
0.0
 10
16.0342612935
 20
13.0017278527
 30
0.0
 10
16.0446880332
 20
12.9705872555
 30
0.0
 10
16.0544160858
 20
12.9379876981
 30
0.0
 10
16.0634145313
 20
12.9040322819
 30
0.0
 10
16.0716547551
 20
12.8688285222
 30
0.0
 10
16.079110497
 20
12.8324879808
 30
0.0
 10
16.0857580148
 20
12.7951259038
 30
0.0
 10
16.0915760943
 20
12.7568608347
 30
0.0
 10
16.0965461995
 20
12.7178142337
 30
0.0
 10
16.100652456
 20
12.6781100768
 30
0.0
 10
16.1038817814
 20
12.6378744589
 30
0.0
 10
16.1062238548
 20
12.5972351827
 30
0.0
 10
16.1076712176
 20
12.5563213497
 30
0.0
 10
16.1082192385
 20
12.515262943
 30
0.0
 10
16.1078661789
 20
12.4741904105
 30
0.0
 10
16.106613158
 20
12.4332342452
 30
0.0
 10
16.1044641788
 20
12.3925245666
 30
0.0
 10
16.1014260973
 20
12.3521907019
 30
0.0
 10
16.0975086057
 20
12.3123607707
 30
0.0
 10
16.0927242078
 20
12.2731612706
 30
0.0
 10
16.0870881591
 20
12.2347166745
 30
0.0
 10
16.080618444
 20
12.197149008
 30
0.0
 10
16.0733356892
 20
12.1605775201
 30
0.0
 10
16.0652630865
 20
12.1251180823
 30
0.0
 10
16.0564264731
 20
12.0908835438
 30
0.0
 10
16.0499379829
 20
12.0685822308
 30
0.0
 10
16.0465637479
 20
12.0576632022
 30
0.0
  0
SPLINE
  5
325
100
AcDbEntity
  8
02___PRT_ALL_AXES
100
AcDbSpline
 62
7
  6
CONTINUOUS
 70
0
 71
3
 72
32
 73
28
 74
0
 42
0.0000001
 43
0.0000001
 44
0.0000000001
 40
0.0
 40
0.0
 40
0.0
 40
0.0
 40
0.0746751554
 40
0.1496618694
 40
0.2244975214
 40
0.2987207876
 40
0.3718769361
 40
0.443522829
 40
0.5132321173
 40
0.5472349683
 40
0.5806042979
 40
0.6132940683
 40
0.6452604189
 40
0.6764618947
 40
0.7068596953
 40
0.7364179507
 40
0.7651040265
 40
0.7928888685
 40
0.8197473932
 40
0.8456589368
 40
0.870607775
 40
0.8945837266
 40
0.9175828334
 40
0.9396082514
 40
0.9606709744
 40
0.9807915114
 40
1.0
 40
1.0
 40
1.0
 40
1.0
 10
15.6073708829
 20
12.4307490144
 30
0.0
 10
15.6064802618
 20
12.4466526343
 30
0.0
 10
15.6052354989
 20
12.4785589691
 30
0.0
 10
15.6049600052
 20
12.5264528064
 30
0.0
 10
15.6062703243
 20
12.5742337177
 30
0.0
 10
15.609156895
 20
12.621554197
 30
0.0
 10
15.6135985507
 20
12.668071231
 30
0.0
 10
15.6195627603
 20
12.7134468477
 30
0.0
 10
15.6258159492
 20
12.750335411
 30
0.0
 10
15.6315648613
 20
12.7790065125
 30
0.0
 10
15.6361910392
 20
12.7998444372
 30
0.0
 10
15.6411587196
 20
12.8201567042
 30
0.0
 10
15.646458914
 20
12.839906497
 30
0.0
 10
15.6520819566
 20
12.8590579402
 30
0.0
 10
15.6580176201
 20
12.8775762862
 30
0.0
 10
15.6642551124
 20
12.8954279497
 30
0.0
 10
15.6707831064
 20
12.9125805787
 30
0.0
 10
15.6775897638
 20
12.9290031137
 30
0.0
 10
15.6846627645
 20
12.9446658474
 30
0.0
 10
15.6919893386
 20
12.9595404797
 30
0.0
 10
15.6995562985
 20
12.9736001753
 30
0.0
 10
15.7073500806
 20
12.9868195955
 30
0.0
 10
15.7153568015
 20
12.9991749792
 30
0.0
 10
15.7235622473
 20
13.0106440404
 30
0.0
 10
15.7319521772
 20
13.0212063698
 30
0.0
 10
15.7405114498
 20
13.0308423114
 30
0.0
 10
15.7464556217
 20
13.0367715345
 30
0.0
 10
15.7494528424
 20
13.0395651282
 30
0.0
  0
LINE
  5
326
100
AcDbEntity
  8
02___PRT_ALL_AXES
100
AcDbLine
 62
7
  6
CONTINUOUS
 10
15.8120238615
 20
13.0724488509
 11
15.7512448661
 21
13.0678693288
  0
SPLINE
  5
327
100
AcDbEntity
  8
0
100
AcDbSpline
 62
7
  6
CONTINUOUS
 70
0
 71
3
 72
79
 73
75
 74
0
 42
0.0000001
 43
0.0000001
 44
0.0000000001
 40
0.0
 40
0.0
 40
0.0
 40
0.0
 40
0.0041771
 40
0.008368234
 40
0.0125872629
 40
0.0168477087
 40
0.021162605
 40
0.0255443741
 40
0.0300047192
 40
0.0345545544
 40
0.0439592342
 40
0.0538319263
 40
0.0642291883
 40
0.0751948009
 40
0.0867610437
 40
0.0989500795
 40
0.1117752896
 40
0.1252424734
 40
0.1393508809
 40
0.1540940831
 40
0.1694607083
 40
0.1854350607
 40
0.2019976368
 40
0.2191255595
 40
0.2367929559
 40
0.2549712864
 40
0.2736296311
 40
0.2927349416
 40
0.3122522751
 40
0.3321450099
 40
0.3523750422
 40
0.3729029705
 40
0.3936882742
 40
0.4146894854
 40
0.4358643538
 40
0.4571700055
 40
0.4785631029
 40
0.5
 40
0.5214368971
 40
0.5428299943
 40
0.5641356459
 40
0.5853105145
 40
0.606311726
 40
0.6270970294
 40
0.6476249572
 40
0.66785499
 40
0.6877477253
 40
0.7072650584
 40
0.7263703681
 40
0.7450287134
 40
0.7632070448
 40
0.7808744405
 40
0.7980023623
 40
0.8145649391
 40
0.8305392926
 40
0.845905917
 40
0.8606491182
 40
0.8747575264
 40
0.8882247113
 40
0.9010499206
 40
0.9132389554
 40
0.9248051988
 40
0.9357708126
 40
0.946168074
 40
0.9560407652
 40
0.9654454454
 40
0.9699952805
 40
0.9744556263
 40
0.9788373945
 40
0.9831522913
 40
0.9874127373
 40
0.9916317658
 40
0.9958229
 40
1.0
 40
1.0
 40
1.0
 40
1.0
 10
15.6553270449
 20
11.0174835361
 30
0.0
 10
15.6600865717
 20
11.0174835334
 30
0.0
 10
15.669624333
 20
11.0177846048
 30
0.0
 10
15.6839116154
 20
11.0191382301
 30
0.0
 10
15.6981811764
 20
11.0213931685
 30
0.0
 10
15.7124232106
 20
11.0245477458
 30
0.0
 10
15.7266290247
 20
11.0285996405
 30
0.0
 10
15.740789664
 20
11.0335459846
 30
0.0
 10
15.7548968124
 20
11.0393835033
 30
0.0
 10
15.7738298035
 20
11.0484482844
 30
0.0
 10
15.7973609989
 20
11.0620894448
 30
0.0
 10
15.8249132508
 20
11.0817646822
 30
0.0
 10
15.8520342485
 20
11.1048724643
 30
0.0
 10
15.8786624806
 20
11.1313527763
 30
0.0
 10
15.9047402696
 20
11.1611411851
 30
0.0
 10
15.9302091595
 20
11.1941662211
 30
0.0
 10
15.9550113532
 20
11.2303494755
 30
0.0
 10
15.9790896322
 20
11.2696052182
 30
0.0
 10
16.0023877982
 20
11.3118403956
 30
0.0
 10
16.0248509842
 20
11.3569546894
 30
0.0
 10
16.0464259296
 20
11.404840713
 30
0.0
 10
16.0670612149
 20
11.4553842558
 30
0.0
 10
16.086707471
 20
11.5084645574
 30
0.0
 10
16.1053175833
 20
11.5639545972
 30
0.0
 10
16.1228468366
 20
11.6217214243
 30
0.0
 10
16.1392530474
 20
11.6816265021
 30
0.0
 10
16.1544966871
 20
11.7435260551
 30
0.0
 10
16.1685410131
 20
11.8072714217
 30
0.0
 10
16.1813521583
 20
11.8727094287
 30
0.0
 10
16.1928992115
 20
11.939682777
 30
0.0
 10
16.2031542962
 20
12.0080304274
 30
0.0
 10
16.2120926606
 20
12.0775879913
 30
0.0
 10
16.2196927316
 20
12.1481881356
 30
0.0
 10
16.2259361585
 20
12.2196609946
 30
0.0
 10
16.2308078577
 20
12.2918345834
 30
0.0
 10
16.2342960675
 20
12.3645352135
 30
0.0
 10
16.236392371
 20
12.4375879161
 30
0.0
 10
16.2370917054
 20
12.5108168688
 30
0.0
 10
16.2363923741
 20
12.5840458215
 30
0.0
 10
16.2342960676
 20
12.6570985238
 30
0.0
 10
16.2308078546
 20
12.7297991537
 30
0.0
 10
16.2259361584
 20
12.8019727431
 30
0.0
 10
16.2196927349
 20
12.8734456027
 30
0.0
 10
16.2120926608
 20
12.9440457461
 30
0.0
 10
16.2031542932
 20
13.0136033092
 30
0.0
 10
16.1928992111
 20
13.0819509607
 30
0.0
 10
16.1813521618
 20
13.1489243102
 30
0.0
 10
16.1685410135
 20
13.214362316
 30
0.0
 10
16.1544966841
 20
13.278107681
 30
0.0
 10
16.1392530469
 20
13.3400072354
 30
0.0
 10
16.1228468402
 20
13.3999123153
 30
0.0
 10
16.1053175839
 20
13.4576791407
 30
0.0
 10
16.086707468
 20
13.5131691782
 30
0.0
 10
16.067061214
 20
13.5662494815
 30
0.0
 10
16.0464259334
 20
13.6167930276
 30
0.0
 10
16.0248509849
 20
13.6646790489
 30
0.0
 10
16.0023877951
 20
13.7097933394
 30
0.0
 10
15.979089631
 20
13.7520285187
 30
0.0
 10
15.9550113573
 20
13.7912842662
 30
0.0
 10
15.9302091603
 20
13.8274675178
 30
0.0
 10
15.9047402666
 20
13.8604925489
 30
0.0
 10
15.8786624793
 20
13.8902809599
 30
0.0
 10
15.8520342524
 20
13.9167612791
 30
0.0
 10
15.8249132516
 20
13.9398690579
 30
0.0
 10
15.7973609956
 20
13.9595442861
 30
0.0
 10
15.7738298052
 20
13.9731854547
 30
0.0
 10
15.75489681
 20
13.9822502292
 30
0.0
 10
15.7407896686
 20
13.988087765
 30
0.0
 10
15.7266290211
 20
13.993034087
 30
0.0
 10
15.7124232118
 20
13.9970859951
 30
0.0
 10
15.6981811774
 20
14.0002405768
 30
0.0
 10
15.683911614
 20
14.0024954951
 30
0.0
 10
15.669624334
 20
14.0038491492
 30
0.0
 10
15.6600865717
 20
14.0041501944
 30
0.0
 10
15.6553270449
 20
14.0041501999
 30
0.0
  0
SPLINE
  5
328
100
AcDbEntity
  8
0
100
AcDbSpline
 62
7
  6
CONTINUOUS
 70
0
 71
3
 72
55
 73
51
 74
0
 42
0.0000001
 43
0.0000001
 44
0.0000000001
 40
0.0
 40
0.0
 40
0.0
 40
0.0
 40
0.0077901107
 40
0.0156227068
 40
0.0235394253
 40
0.0315802734
 40
0.0397829705
 40
0.0481824434
 40
0.0568104866
 40
0.0656955828
 40
0.0748628585
 40
0.0843341426
 40
0.0941280993
 40
0.1042604054
 40
0.1147439606
 40
0.1255891047
 40
0.1368038323
 40
0.1483939959
 40
0.1603634929
 40
0.1727144447
 40
0.1854473567
 40
0.1985612605
 40
0.2120538403
 40
0.2259215433
 40
0.2401596867
 40
0.2547625489
 40
0.2697234511
 40
0.2850348283
 40
0.3006882929
 40
0.3166746991
 40
0.3329841976
 40
0.3496062849
 40
0.3665298469
 40
0.3837432005
 40
0.4189888741
 40
0.4552411414
 40
0.4923898758
 40
0.5303191842
 40
0.568908321
 40
0.6080325449
 40
0.6475639515
 40
0.68737226
 40
0.7273255972
 40
0.7672912583
 40
0.8071364696
 40
0.8467291443
 40
0.8859386507
 40
0.9246365768
 40
0.962697492
 40
1.0
 40
1.0
 40
1.0
 40
1.0
 10
15.2869026473
 20
11.0174835361
 30
0.0
 10
15.2808314687
 20
11.0174835397
 30
0.0
 10
15.2686503785
 20
11.0179743606
 30
0.0
 10
15.2504196038
 20
11.0201800632
 30
0.0
 10
15.2322269252
 20
11.0238528807
 30
0.0
 10
15.2140930157
 20
11.0289879732
 30
0.0
 10
15.1960360419
 20
11.0355788433
 30
0.0
 10
15.1780741673
 20
11.0436175338
 30
0.0
 10
15.1602248969
 20
11.053094755
 30
0.0
 10
15.142505356
 20
11.0640000138
 30
0.0
 10
15.1249323311
 20
11.0763216732
 30
0.0
 10
15.107522365
 20
11.0900469653
 30
0.0
 10
15.0902918163
 20
11.1051619776
 30
0.0
 10
15.0732568814
 20
11.1216516104
 30
0.0
 10
15.0564336245
 20
11.1394995704
 30
0.0
 10
15.0398379765
 20
11.1586883497
 30
0.0
 10
15.023485725
 20
11.1791992094
 30
0.0
 10
15.0073924975
 20
11.2010121675
 30
0.0
 10
14.9915737251
 20
11.2241059856
 30
0.0
 10
14.976044635
 20
11.2484581902
 30
0.0
 10
14.960820224
 20
11.2740450855
 30
0.0
 10
14.9459152369
 20
11.3008417693
 30
0.0
 10
14.9313441433
 20
11.3288221469
 30
0.0
 10
14.917121105
 20
11.3579589474
 30
0.0
 10
14.9032599716
 20
11.3882237598
 30
0.0
 10
14.8897742589
 20
11.4195870615
 30
0.0
 10
14.8766771336
 20
11.4520182466
 30
0.0
 10
14.8639813942
 20
11.4854856504
 30
0.0
 10
14.8516994461
 20
11.5199565784
 30
0.0
 10
14.8398433035
 20
11.5553973442
 30
0.0
 10
14.8284245645
 20
11.5917733146
 30
0.0
 10
14.817454431
 20
11.6290489048
 30
0.0
 10
14.8069435751
 20
11.667187755
 30
0.0
 10
14.7934494808
 20
11.7195520224
 30
0.0
 10
14.7778333385
 20
11.7869147859
 30
0.0
 10
14.7612241828
 20
11.8699551494
 30
0.0
 10
14.7466659876
 20
11.9555014793
 30
0.0
 10
14.7342159869
 20
12.0432189801
 30
0.0
 10
14.7239231238
 20
12.1327650803
 30
0.0
 10
14.7158278356
 20
12.2237896894
 30
0.0
 10
14.7099619846
 20
12.3159369126
 30
0.0
 10
14.706348614
 20
12.4088463791
 30
0.0
 10
14.7050019403
 20
12.5021546992
 30
0.0
 10
14.7059272716
 20
12.5954969027
 30
0.0
 10
14.7091209418
 20
12.6885078782
 30
0.0
 10
14.7145704273
 20
12.7808238523
 30
0.0
 10
14.722254258
 20
12.8720837138
 30
0.0
 10
14.7321422753
 20
12.9619308471
 30
0.0
 10
14.7441954469
 20
13.0500131319
 30
0.0
 10
14.7537491661
 20
13.1079742166
 30
0.0
 10
14.7588916052
 20
13.1365872785
 30
0.0
  0
SPLINE
  5
329
100
AcDbEntity
  8
02___PRT_ALL_AXES
100
AcDbSpline
 62
7
  6
CONTINUOUS
 70
0
 71
3
 72
19
 73
15
 74
0
 42
0.0000001
 43
0.0000001
 44
0.0000000001
 40
0.0
 40
0.0
 40
0.0
 40
0.0
 40
0.1464578761
 40
0.2851550668
 40
0.4166732452
 40
0.5417722444
 40
0.6022261341
 40
0.6614487185
 40
0.7195891769
 40
0.7768079424
 40
0.8332756696
 40
0.8891718105
 40
0.9446828144
 40
1.0
 40
1.0
 40
1.0
 40
1.0
 10
15.4388610059
 20
11.3170390443
 30
0.0
 10
15.4464196205
 20
11.3088085696
 30
0.0
 10
15.4616836805
 20
11.293272563
 30
0.0
 10
15.4856761613
 20
11.2723612392
 30
0.0
 10
15.5100680647
 20
11.2545504075
 30
0.0
 10
15.530919858
 20
11.2421944029
 30
0.0
 10
15.547703182
 20
11.2339834484
 30
0.0
 10
15.560206366
 20
11.2286973712
 30
0.0
 10
15.5727590832
 20
11.2242179935
 30
0.0
 10
15.5853536291
 20
11.2205483826
 30
0.0
 10
15.5979817442
 20
11.2176913145
 30
0.0
 10
15.6106353695
 20
11.2156489539
 30
0.0
 10
15.6233054276
 20
11.2144228907
 30
0.0
 10
15.6317640857
 20
11.2141502042
 30
0.0
 10
15.635984764
 20
11.2141502027
 30
0.0
  0
SPLINE
  5
32A
100
AcDbEntity
  8
02___PRT_ALL_AXES
100
AcDbSpline
 62
7
  6
CONTINUOUS
 70
0
 71
3
 72
18
 73
14
 74
0
 42
0.0000001
 43
0.0000001
 44
0.0000000001
 40
0.0
 40
0.0
 40
0.0
 40
0.0
 40
0.0543221186
 40
0.108869598
 40
0.1638643688
 40
0.2195216895
 40
0.2760473254
 40
0.333635234
 40
0.4526540051
 40
0.5778986276
 40
0.7103860974
 40
0.850897374
 40
1.0
 40
1.0
 40
1.0
 40
1.0
 10
15.8048459463
 20
11.7608168733
 30
0.0
 10
15.807503355
 20
11.7608168732
 30
0.0
 10
15.8128310707
 20
11.7610038766
 30
0.0
 10
15.8208091964
 20
11.7618445396
 30
0.0
 10
15.8287749368
 20
11.7632447606
 30
0.0
 10
15.836721424
 20
11.7652031548
 30
0.0
 10
15.8446428556
 20
11.7677180709
 30
0.0
 10
15.85527791
 20
11.7718545996
 30
0.0
 10
15.8685192789
 20
11.7784739319
 30
0.0
 10
15.8840163713
 20
11.7885101662
 30
0.0
 10
15.8992583544
 20
11.8006904767
 30
0.0
 10
15.9142025449
 20
11.8149733207
 30
0.0
 10
15.9236545211
 20
11.8255475499
 30
0.0
 10
15.928328522
 20
11.8311472326
 30
0.0
  0
SPLINE
  5
32B
100
AcDbEntity
  8
02___PRT_ALL_AXES
100
AcDbSpline
 62
7
  6
CONTINUOUS
 70
0
 71
3
 72
15
 73
11
 74
0
 42
0.0000001
 43
0.0000001
 44
0.0000000001
 40
0.0
 40
0.0
 40
0.0
 40
0.0
 40
0.1030415435
 40
0.2124413721
 40
0.3282548753
 40
0.4504494228
 40
0.5789180738
 40
0.7134904066
 40
0.8539414368
 40
1.0
 40
1.0
 40
1.0
 40
1.0
 10
15.9442132907
 20
11.8501779824
 30
0.0
 10
15.949336194
 20
11.8563154721
 30
0.0
 10
15.9594170478
 20
11.8693760236
 30
0.0
 10
15.9736321565
 20
11.8905256502
 30
0.0
 10
15.9873454422
 20
11.9137465865
 30
0.0
 10
16.0005114292
 20
11.9389610271
 30
0.0
 10
16.013087428
 20
11.96608633
 30
0.0
 10
16.0250318917
 20
11.9950327702
 30
0.0
 10
16.036305057
 20
12.0257039781
 30
0.0
 10
16.043217986
 20
12.0468363127
 30
0.0
 10
16.0465637479
 20
12.0576632022
 30
0.0
  0
SPLINE
  5
32C
100
AcDbEntity
  8
02___PRT_ALL_AXES
100
AcDbSpline
 62
7
  6
CONTINUOUS
 70
0
 71
3
 72
11
 73
7
 74
0
 42
0.0000001
 43
0.0000001
 44
0.0000000001
 40
0.0
 40
0.0
 40
0.0
 40
0.0
 40
0.2411003854
 40
0.4882482843
 40
0.7412754065
 40
1.0
 40
1.0
 40
1.0
 40
1.0
 10
15.6415500939
 20
11.5585293705
 30
0.0
 10
15.6458357786
 20
11.5690542292
 30
0.0
 10
15.6542568143
 20
11.5904737827
 30
0.0
 10
15.6662992859
 20
11.6232748461
 30
0.0
 10
15.6778979872
 20
11.6571146751
 30
0.0
 10
15.685245705
 20
11.6800910999
 30
0.0
 10
15.6888461469
 20
11.6917421342
 30
0.0
  0
LINE
  5
32D
100
AcDbEntity
  8
LAYER_CUT_FEAT
100
AcDbLine
 62
7
  6
CONTINUOUS
 10
15.1429898909
 20
12.4406118571
 11
15.1460225628
 21
12.4425258907
  0
SPLINE
  5
32E
100
AcDbEntity
  8
0
100
AcDbSpline
 62
7
  6
CONTINUOUS
 70
0
 71
3
 72
14
 73
10
 74
0
 42
0.0000001
 43
0.0000001
 44
0.0000000001
 40
0.0
 40
0.0
 40
0.0
 40
0.0
 40
0.2660503931
 40
0.3983818624
 40
0.5283982597
 40
0.6547741694
 40
0.7762525026
 40
0.89167012
 40
1.0
 40
1.0
 40
1.0
 40
1.0
 10
15.1710101151
 20
13.2544249725
 30
0.0
 10
15.1711420252
 20
13.2567295414
 30
0.0
 10
15.1711886358
 20
13.2601914357
 30
0.0
 10
15.1709549971
 20
13.2647709891
 30
0.0
 10
15.1706341175
 20
13.268129639
 30
0.0
 10
15.1701715014
 20
13.2713765873
 30
0.0
 10
15.1695727915
 20
13.2744725366
 30
0.0
 10
15.1688454742
 20
13.2773797225
 30
0.0
 10
15.1682606287
 20
13.2792325747
 30
0.0
 10
15.1679455216
 20
13.280118086
 30
0.0
  0
SPLINE
  5
32F
100
AcDbEntity
  8
0
100
AcDbSpline
 62
7
  6
CONTINUOUS
 70
0
 71
3
 72
15
 73
11
 74
0
 42
0.0000001
 43
0.0000001
 44
0.0000000001
 40
0.0
 40
0.0
 40
0.0
 40
0.0
 40
0.1216061071
 40
0.2496349917
 40
0.3814394984
 40
0.5142133758
 40
0.645121865
 40
0.7713993755
 40
0.890452367
 40
1.0
 40
1.0
 40
1.0
 40
1.0
 10
15.1626636447
 20
13.3042271038
 30
0.0
 10
15.162567852
 20
13.3038083916
 30
0.0
 10
15.1624059843
 20
13.3029406559
 30
0.0
 10
15.16225059
 20
13.301601442
 30
0.0
 10
15.1621787181
 20
13.3002156414
 30
0.0
 10
15.1621922629
 20
13.2988179148
 30
0.0
 10
15.1622908484
 20
13.2974431439
 30
0.0
 10
15.162471963
 20
13.2961255541
 30
0.0
 10
15.1627308853
 20
13.2948980016
 30
0.0
 10
15.1629619362
 20
13.2941229164
 30
0.0
 10
15.1630916587
 20
13.2937583714
 30
0.0
  0
SPLINE
  5
330
100
AcDbEntity
  8
0
100
AcDbSpline
 62
7
  6
CONTINUOUS
 70
0
 71
3
 72
15
 73
11
 74
0
 42
0.0000001
 43
0.0000001
 44
0.0000000001
 40
0.0
 40
0.0
 40
0.0
 40
0.0
 40
0.0970111492
 40
0.1975355966
 40
0.3046568545
 40
0.420776107
 40
0.547575777
 40
0.6860933421
 40
0.8368694553
 40
1.0
 40
1.0
 40
1.0
 40
1.0
 10
15.1591777333
 20
13.2286958743
 30
0.0
 10
15.1595118937
 20
13.2286958796
 30
0.0
 10
15.1601943206
 20
13.2287688707
 30
0.0
 10
15.1611991313
 20
13.2290928787
 30
0.0
 10
15.1621849265
 20
13.2296260269
 30
0.0
 10
15.1631454539
 20
13.2303617084
 30
0.0
 10
15.1640761883
 20
13.2312935854
 30
0.0
 10
15.1649724447
 20
13.2324151745
 30
0.0
 10
15.1658291551
 20
13.2337191519
 30
0.0
 10
15.1663503706
 20
13.2346677813
 30
0.0
 10
15.1666047104
 20
13.2351688372
 30
0.0
  0
SPLINE
  5
331
100
AcDbEntity
  8
02___PRT_ALL_AXES
100
AcDbSpline
 62
7
  6
CONTINUOUS
 70
0
 71
3
 72
30
 73
26
 74
0
 42
0.0000001
 43
0.0000001
 44
0.0000000001
 40
0.0
 40
0.0
 40
0.0
 40
0.0
 40
0.0160814747
 40
0.0324335314
 40
0.0493106062
 40
0.0669383732
 40
0.0855065959
 40
0.1051673632
 40
0.126036719
 40
0.1481981219
 40
0.171706949
 40
0.1965945919
 40
0.2228718443
 40
0.2505322465
 40
0.2795547043
 40
0.3099053144
 40
0.3743922036
 40
0.4435392078
 40
0.5167619266
 40
0.5933850411
 40
0.6726638606
 40
0.7538025743
 40
0.8359711857
 40
0.9183201655
 40
1.0
 40
1.0
 40
1.0
 40
1.0
 10
15.901722851
 20
11.9237370726
 30
0.0
 10
15.9023218207
 20
11.9237370665
 30
0.0
 10
15.9035315378
 20
11.9238236331
 30
0.0
 10
15.9053324357
 20
11.9242111199
 30
0.0
 10
15.9071197702
 20
11.9248542504
 30
0.0
 10
15.9088872199
 20
11.9257496026
 30
0.0
 10
15.9106297997
 20
11.9268932033
 30
0.0
 10
15.9123427374
 20
11.9282807728
 30
0.0
 10
15.9140214688
 20
11.9299076709
 30
0.0
 10
15.915661477
 20
11.9317687763
 30
0.0
 10
15.9172582226
 20
11.9338584471
 30
0.0
 10
15.9188071569
 20
11.9361704332
 30
0.0
 10
15.9203038121
 20
11.9386978119
 30
0.0
 10
15.9217437726
 20
11.9414330137
 30
0.0
 10
15.9231227839
 20
11.9443678495
 30
0.0
 10
15.9249107512
 20
11.9486217426
 30
0.0
 10
15.9269502555
 20
11.9543848936
 30
0.0
 10
15.9290472216
 20
11.9618032168
 30
0.0
 10
15.9308153807
 20
11.969770006
 30
0.0
 10
15.9322330437
 20
11.9781888979
 30
0.0
 10
15.9332827378
 20
11.9869582553
 30
0.0
 10
15.9339515456
 20
11.9959717533
 30
0.0
 10
15.934231181
 20
12.005120055
 30
0.0
 10
15.9341182311
 20
12.0142918777
 30
0.0
 10
15.9337795472
 20
12.0203942058
 30
0.0
 10
15.9335431148
 20
12.0234272471
 30
0.0
  0
SPLINE
  5
332
100
AcDbEntity
  8
0
100
AcDbSpline
 62
7
  6
CONTINUOUS
 70
0
 71
3
 72
16
 73
12
 74
0
 42
0.0000001
 43
0.0000001
 44
0.0000000001
 40
0.0
 40
0.0
 40
0.0
 40
0.0
 40
0.0400430055
 40
0.0810149834
 40
0.1688066634
 40
0.2688124616
 40
0.3839121986
 40
0.5151759577
 40
0.662411112
 40
0.8245807865
 40
1.0
 40
1.0
 40
1.0
 40
1.0
 10
15.1485769311
 20
13.2340192385
 30
0.0
 10
15.1485019713
 20
13.234019239
 30
0.0
 10
15.1483500158
 20
13.2340064007
 30
0.0
 10
15.1480425437
 20
13.2339283557
 30
0.0
 10
15.1476581384
 20
13.2337259319
 30
0.0
 10
15.1472322322
 20
13.2333458081
 30
0.0
 10
15.1468321969
 20
13.2328321252
 30
0.0
 10
15.1464625757
 20
13.2321927039
 30
0.0
 10
15.1461281616
 20
13.2314372092
 30
0.0
 10
15.1458342742
 20
13.2305775504
 30
0.0
 10
15.1456741552
 20
13.2299656164
 30
0.0
 10
15.1456009204
 20
13.2296455052
 30
0.0
  0
SPLINE
  5
333
100
AcDbEntity
  8
0
100
AcDbSpline
 62
7
  6
CONTINUOUS
 70
0
 71
3
 72
14
 73
10
 74
0
 42
0.0000001
 43
0.0000001
 44
0.0000000001
 40
0.0
 40
0.0
 40
0.0
 40
0.0
 40
0.2609109478
 40
0.3919717312
 40
0.5215987181
 40
0.6484574874
 40
0.7712644504
 40
0.8888104058
 40
1.0
 40
1.0
 40
1.0
 40
1.0
 10
15.1923895922
 20
13.3393692299
 30
0.0
 10
15.1925850737
 20
13.341659676
 30
0.0
 10
15.1927240942
 20
13.3451161674
 30
0.0
 10
15.1926151386
 20
13.3497113467
 30
0.0
 10
15.1923857652
 20
13.353119354
 30
0.0
 10
15.1920119387
 20
13.3564413093
 30
0.0
 10
15.1914982109
 20
13.3596369553
 30
0.0
 10
15.1908510152
 20
13.36266726
 30
0.0
 10
15.1903195177
 20
13.3646127074
 30
0.0
 10
15.1900304033
 20
13.3655487168
 30
0.0
  0
SPLINE
  5
334
100
AcDbEntity
  8
0
100
AcDbSpline
 62
7
  6
CONTINUOUS
 70
0
 71
3
 72
15
 73
11
 74
0
 42
0.0000001
 43
0.0000001
 44
0.0000000001
 40
0.0
 40
0.0
 40
0.0
 40
0.0
 40
0.1175418469
 40
0.242569814
 40
0.372545019
 40
0.5047216511
 40
0.6362787962
 40
0.7644183861
 40
0.8864648284
 40
1.0
 40
1.0
 40
1.0
 40
1.0
 10
15.1854163009
 20
13.3905451484
 30
0.0
 10
15.1853087877
 20
13.3901424438
 30
0.0
 10
15.1851231441
 20
13.3893014698
 30
0.0
 10
15.1849321978
 20
13.3879933228
 30
0.0
 10
15.1848232707
 20
13.3866237406
 30
0.0
 10
15.1847992162
 20
13.3852269599
 30
0.0
 10
15.1848606286
 20
13.3838378278
 30
0.0
 10
15.1850059514
 20
13.3824909736
 30
0.0
 10
15.1852313886
 20
13.3812200333
 30
0.0
 10
15.1854400783
 20
13.3804099166
 30
0.0
 10
15.1855588949
 20
13.3800252472
 30
0.0
  0
SPLINE
  5
335
100
AcDbEntity
  8
LAYER_CUT_FEAT
100
AcDbSpline
 62
7
  6
CONTINUOUS
 70
0
 71
3
 72
21
 73
17
 74
0
 42
0.0000001
 43
0.0000001
 44
0.0000000001
 40
0.0
 40
0.0
 40
0.0
 40
0.0
 40
0.1515939401
 40
0.3006654296
 40
0.3733438355
 40
0.4443073125
 40
0.5132216056
 40
0.5797722895
 40
0.6436688618
 40
0.7046495796
 40
0.762487073
 40
0.8169950642
 40
0.8680370804
 40
0.9155367917
 40
0.9594938713
 40
1.0
 40
1.0
 40
1.0
 40
1.0
 10
15.4577786501
 20
11.6225234633
 30
0.0
 10
15.4578200961
 20
11.626775627
 30
0.0
 10
15.4576517856
 20
11.6352136265
 30
0.0
 10
15.4568144436
 20
11.6456598237
 30
0.0
 10
15.4557658325
 20
11.6538047917
 30
0.0
 10
15.4548079208
 20
11.6596909639
 30
0.0
 10
15.4536777825
 20
11.6653714153
 30
0.0
 10
15.452382038
 20
11.6708129675
 30
0.0
 10
15.4509283334
 20
11.6759838387
 30
0.0
 10
15.4493252058
 20
11.6808539162
 30
0.0
 10
15.4475820319
 20
11.6853949256
 30
0.0
 10
15.4457089163
 20
11.6895806541
 30
0.0
 10
15.4437166247
 20
11.6933870232
 30
0.0
 10
15.4416161864
 20
11.6967925369
 30
0.0
 10
15.4394194767
 20
11.6997774178
 30
0.0
 10
15.4378351393
 20
11.7015460898
 30
0.0
 10
15.4370283661
 20
11.7023461866
 30
0.0
  0
SPLINE
  5
336
100
AcDbEntity
  8
LAYER_CUT_FEAT
100
AcDbSpline
 62
7
  6
CONTINUOUS
 70
0
 71
3
 72
23
 73
19
 74
0
 42
0.0000001
 43
0.0000001
 44
0.0000000001
 40
0.0
 40
0.0
 40
0.0
 40
0.0
 40
0.0763417191
 40
0.1510396172
 40
0.2240297971
 40
0.2952567024
 40
0.3646675624
 40
0.4322157355
 40
0.4978602697
 40
0.5615666535
 40
0.6233074166
 40
0.6830628216
 40
0.7408216657
 40
0.7965822007
 40
0.8503533018
 40
0.9021550475
 40
0.952021791
 40
1.0
 40
1.0
 40
1.0
 40
1.0
 10
15.2864395418
 20
11.9983637557
 30
0.0
 10
15.2887829441
 20
11.9901562746
 30
0.0
 10
15.2935776879
 20
11.9739627065
 30
0.0
 10
15.3011812289
 20
11.9500949068
 30
0.0
 10
15.3091105489
 20
11.9269367597
 30
0.0
 10
15.3173554793
 20
11.9045177657
 30
0.0
 10
15.32590568
 20
11.8828661008
 30
0.0
 10
15.3347503195
 20
11.8620091451
 30
0.0
 10
15.3438782482
 20
11.8419731902
 30
0.0
 10
15.353277963
 20
11.8227834889
 30
0.0
 10
15.3629376435
 20
11.8044642069
 30
0.0
 10
15.3728451742
 20
11.7870383973
 30
0.0
 10
15.3829881627
 20
11.77052798
 30
0.0
 10
15.3933539785
 20
11.7549536803
 30
0.0
 10
15.4039297177
 20
11.7403351328
 30
0.0
 10
15.4147024576
 20
11.7266904824
 30
0.0
 10
15.4256585231
 20
11.7140374745
 30
0.0
 10
15.4332195358
 20
11.7061234969
 30
0.0
 10
15.4370283661
 20
11.7023461866
 30
0.0
  0
SPLINE
  5
337
100
AcDbEntity
  8
0
100
AcDbSpline
 62
7
  6
CONTINUOUS
 70
0
 71
3
 72
15
 73
11
 74
0
 42
0.0000001
 43
0.0000001
 44
0.0000000001
 40
0.0
 40
0.0
 40
0.0
 40
0.0
 40
0.1268995675
 40
0.2559109795
 40
0.3857039222
 40
0.5149258142
 40
0.6422382048
 40
0.7663371714
 40
0.8859754231
 40
1.0
 40
1.0
 40
1.0
 40
1.0
 10
15.2160244541
 20
13.4202768636
 30
0.0
 10
15.2161528942
 20
13.421400285
 30
0.0
 10
15.2163590826
 20
13.4236721637
 30
0.0
 10
15.2165186439
 20
13.4271062993
 30
0.0
 10
15.2165301595
 20
13.4305648724
 30
0.0
 10
15.2163934564
 20
13.4340056063
 30
0.0
 10
15.2161102522
 20
13.4373865221
 30
0.0
 10
15.2156840345
 20
13.4406664274
 30
0.0
 10
15.2151201349
 20
13.443805272
 30
0.0
 10
15.2146441195
 20
13.4458335131
 30
0.0
 10
15.2143821633
 20
13.4468151798
 30
0.0
  0
SPLINE
  5
338
100
AcDbEntity
  8
0
100
AcDbSpline
 62
7
  6
CONTINUOUS
 70
0
 71
3
 72
15
 73
11
 74
0
 42
0.0000001
 43
0.0000001
 44
0.0000000001
 40
0.0
 40
0.0
 40
0.0
 40
0.0
 40
0.1135222053
 40
0.2355589583
 40
0.3636925526
 40
0.4952476419
 40
0.6274262472
 40
0.7574073952
 40
0.8824450636
 40
1.0
 40
1.0
 40
1.0
 40
1.0
 10
15.210458315
 20
13.4725772452
 30
0.0
 10
15.2103394623
 20
13.4721926377
 30
0.0
 10
15.2101306989
 20
13.4713826279
 30
0.0
 10
15.2099051513
 20
13.4701118185
 30
0.0
 10
15.2097597113
 20
13.4687650488
 30
0.0
 10
15.2096981778
 20
13.4673759525
 30
0.0
 10
15.2097221106
 20
13.4659791578
 30
0.0
 10
15.2098309185
 20
13.4646095124
 30
0.0
 10
15.210021751
 20
13.4633012544
 30
0.0
 10
15.2102073185
 20
13.4624601869
 30
0.0
 10
15.2103147943
 20
13.462057427
 30
0.0
  0
SPLINE
  5
339
100
AcDbEntity
  8
LAYER_CUT_FEAT
100
AcDbSpline
 62
7
  6
CONTINUOUS
 70
0
 71
3
 72
23
 73
19
 74
0
 42
0.0000001
 43
0.0000001
 44
0.0000000001
 40
0.0
 40
0.0
 40
0.0
 40
0.0
 40
0.0884164983
 40
0.1736045817
 40
0.2553683417
 40
0.333561904
 40
0.4080591753
 40
0.4787713755
 40
0.5456516498
 40
0.6087011411
 40
0.6679796104
 40
0.7236158357
 40
0.7758203271
 40
0.8248998361
 40
0.871270358
 40
0.9154644748
 40
0.9581281009
 40
1.0
 40
1.0
 40
1.0
 40
1.0
 10
15.2864395418
 20
11.9983637557
 30
0.0
 10
15.2860710158
 20
11.9996544734
 30
0.0
 10
15.285306995
 20
12.0021774925
 30
0.0
 10
15.284054899
 20
12.0058474707
 30
0.0
 10
15.282721334
 20
12.0093230521
 30
0.0
 10
15.2813109579
 20
12.0125922631
 30
0.0
 10
15.2798284894
 20
12.0156441078
 30
0.0
 10
15.2782789424
 20
12.0184682467
 30
0.0
 10
15.276667481
 20
12.0210551717
 30
0.0
 10
15.2749993606
 20
12.0233961847
 30
0.0
 10
15.2732799435
 20
12.0254834332
 30
0.0
 10
15.2715145923
 20
12.0273098612
 30
0.0
 10
15.2697086319
 20
12.0288691051
 30
0.0
 10
15.2678673768
 20
12.0301553857
 30
0.0
 10
15.2659963647
 20
12.031163377
 30
0.0
 10
15.2641013755
 20
12.0318880879
 30
0.0
 10
15.2621898458
 20
12.0323250635
 30
0.0
 10
15.2609044427
 20
12.032422744
 30
0.0
 10
15.2602687631
 20
12.0324227431
 30
0.0
  0
SPLINE
  5
33A
100
AcDbEntity
  8
LAYER_CUT_FEAT
100
AcDbSpline
 62
7
  6
CONTINUOUS
 70
0
 71
3
 72
22
 73
18
 74
0
 42
0.0000001
 43
0.0000001
 44
0.0000000001
 40
0.0
 40
0.0
 40
0.0
 40
0.0
 40
0.0422791559
 40
0.0853234007
 40
0.1298487592
 40
0.1764849262
 40
0.2257548959
 40
0.2780712716
 40
0.3337426686
 40
0.3929847448
 40
0.4559338835
 40
0.5226594602
 40
0.5931735955
 40
0.6674411987
 40
0.7453857417
 40
0.8268947057
 40
1.0
 40
1.0
 40
1.0
 40
1.0
 10
15.6714070899
 20
13.3322532301
 30
0.0
 10
15.6720286943
 20
13.332253224
 30
0.0
 10
15.6732850467
 20
13.3323465735
 30
0.0
 10
15.6751541585
 20
13.3327642093
 30
0.0
 10
15.6770079258
 20
13.3334570566
 30
0.0
 10
15.6788393388
 20
13.3344210982
 30
0.0
 10
15.6806429331
 20
13.3356517338
 30
0.0
 10
15.6824134796
 20
13.3371440492
 30
0.0
 10
15.684145946
 20
13.3388927402
 30
0.0
 10
15.6858353323
 20
13.3408919367
 30
0.0
 10
15.6874766084
 20
13.3431351468
 30
0.0
 10
15.6890647297
 20
13.3456151672
 30
0.0
 10
15.6905947495
 20
13.3483240257
 30
0.0
 10
15.6920617891
 20
13.3512529773
 30
0.0
 10
15.6934611787
 20
13.3543925901
 30
0.0
 10
15.6952668877
 20
13.3589374196
 30
0.0
 10
15.6964483688
 20
13.3624938641
 30
0.0
 10
15.6971754272
 20
13.3649328636
 30
0.0
  0
SPLINE
  5
33B
100
AcDbEntity
  8
0
100
AcDbSpline
 62
7
  6
CONTINUOUS
 70
0
 71
3
 72
55
 73
51
 74
0
 42
0.0000001
 43
0.0000001
 44
0.0000000001
 40
0.0
 40
0.0
 40
0.0
 40
0.0
 40
0.037302508
 40
0.0753634232
 40
0.1140613493
 40
0.1532708557
 40
0.1928635304
 40
0.2327087417
 40
0.2726744028
 40
0.31262774
 40
0.3524360485
 40
0.3919674551
 40
0.431091679
 40
0.4696808158
 40
0.5076101242
 40
0.5447588586
 40
0.5810111259
 40
0.6162567995
 40
0.6334701531
 40
0.6503937151
 40
0.6670158024
 40
0.6833253009
 40
0.6993117071
 40
0.7149651717
 40
0.7302765489
 40
0.7452374511
 40
0.7598403133
 40
0.7740784567
 40
0.7879461597
 40
0.8014387395
 40
0.8145526433
 40
0.8272855553
 40
0.8396365071
 40
0.8516060041
 40
0.8631961677
 40
0.8744108953
 40
0.8852560394
 40
0.8957395946
 40
0.9058719007
 40
0.9156658574
 40
0.9251371415
 40
0.9343044172
 40
0.9431895134
 40
0.9518175566
 40
0.9602170295
 40
0.9684197266
 40
0.9764605747
 40
0.9843772932
 40
0.9922098893
 40
1.0
 40
1.0
 40
1.0
 40
1.0
 10
15.1273160028
 20
13.1365872785
 30
0.0
 10
15.1221735637
 20
13.1079742166
 30
0.0
 10
15.1126198445
 20
13.0500131319
 30
0.0
 10
15.1005666729
 20
12.9619308471
 30
0.0
 10
15.0906786556
 20
12.8720837138
 30
0.0
 10
15.0829948249
 20
12.7808238523
 30
0.0
 10
15.0775453394
 20
12.6885078782
 30
0.0
 10
15.0743516692
 20
12.5954969027
 30
0.0
 10
15.0734263379
 20
12.5021546992
 30
0.0
 10
15.0747730116
 20
12.4088463791
 30
0.0
 10
15.0783863822
 20
12.3159369126
 30
0.0
 10
15.0842522332
 20
12.2237896894
 30
0.0
 10
15.0923475214
 20
12.1327650803
 30
0.0
 10
15.1026403845
 20
12.0432189801
 30
0.0
 10
15.1150903852
 20
11.9555014793
 30
0.0
 10
15.1296485804
 20
11.8699551494
 30
0.0
 10
15.1462577361
 20
11.7869147859
 30
0.0
 10
15.1618738784
 20
11.7195520224
 30
0.0
 10
15.1753679727
 20
11.667187755
 30
0.0
 10
15.1858788286
 20
11.6290489048
 30
0.0
 10
15.1968489621
 20
11.5917733146
 30
0.0
 10
15.2082677011
 20
11.5553973442
 30
0.0
 10
15.2201238437
 20
11.5199565784
 30
0.0
 10
15.2324057918
 20
11.4854856504
 30
0.0
 10
15.2451015312
 20
11.4520182466
 30
0.0
 10
15.2581986565
 20
11.4195870615
 30
0.0
 10
15.2716843692
 20
11.3882237598
 30
0.0
 10
15.2855455026
 20
11.3579589474
 30
0.0
 10
15.2997685409
 20
11.3288221469
 30
0.0
 10
15.3143396345
 20
11.3008417693
 30
0.0
 10
15.3292446216
 20
11.2740450855
 30
0.0
 10
15.3444690326
 20
11.2484581902
 30
0.0
 10
15.3599981227
 20
11.2241059856
 30
0.0
 10
15.3758168951
 20
11.2010121675
 30
0.0
 10
15.3919101226
 20
11.1791992094
 30
0.0
 10
15.4082623741
 20
11.1586883497
 30
0.0
 10
15.4248580221
 20
11.1394995704
 30
0.0
 10
15.441681279
 20
11.1216516104
 30
0.0
 10
15.4587162139
 20
11.1051619776
 30
0.0
 10
15.4759467626
 20
11.0900469653
 30
0.0
 10
15.4933567287
 20
11.0763216732
 30
0.0
 10
15.5109297536
 20
11.0640000138
 30
0.0
 10
15.5286492945
 20
11.053094755
 30
0.0
 10
15.5464985649
 20
11.0436175338
 30
0.0
 10
15.5644604395
 20
11.0355788433
 30
0.0
 10
15.5825174133
 20
11.0289879732
 30
0.0
 10
15.6006513228
 20
11.0238528807
 30
0.0
 10
15.6188440014
 20
11.0201800632
 30
0.0
 10
15.6370747761
 20
11.0179743606
 30
0.0
 10
15.6492558663
 20
11.0174835397
 30
0.0
 10
15.6553270449
 20
11.0174835361
 30
0.0
  0
SPLINE
  5
33C
100
AcDbEntity
  8
LAYER_CUT_FEAT
100
AcDbSpline
 62
7
  6
CONTINUOUS
 70
0
 71
3
 72
17
 73
13
 74
0
 42
0.0000001
 43
0.0000001
 44
0.0000000001
 40
0.0
 40
0.0
 40
0.0
 40
0.0
 40
0.1615774437
 40
0.3135908427
 40
0.4552404148
 40
0.5859440692
 40
0.7054121031
 40
0.7609636314
 40
0.8137773026
 40
0.8639423843
 40
0.911589779
 40
1.0
 40
1.0
 40
1.0
 40
1.0
 10
15.2540596194
 20
13.2288555366
 30
0.0
 10
15.2534934219
 20
13.2309658292
 30
0.0
 10
15.2522935475
 20
13.235035518
 30
0.0
 10
15.2502210284
 20
13.2408358837
 30
0.0
 10
15.2479450569
 20
13.2461088474
 30
0.0
 10
15.2454855845
 20
13.2508079075
 30
0.0
 10
15.2432484843
 20
13.2542933333
 30
0.0
 10
15.2413758541
 20
13.2567417169
 30
0.0
 10
15.2399736438
 20
13.2583650015
 30
0.0
 10
15.2385421244
 20
13.2598166984
 30
0.0
 10
15.2366471963
 20
13.2614766883
 30
0.0
 10
15.2351190812
 20
13.262524184
 30
0.0
 10
15.2340691508
 20
13.2630959609
 30
0.0
  0
SPLINE
  5
33D
100
AcDbEntity
  8
LAYER_CUT_FEAT
100
AcDbSpline
 62
7
  6
CONTINUOUS
 70
0
 71
3
 72
11
 73
7
 74
0
 42
0.0000001
 43
0.0000001
 44
0.0000000001
 40
0.0
 40
0.0
 40
0.0
 40
0.0
 40
0.2369454639
 40
0.4793600443
 40
0.7322961933
 40
1.0
 40
1.0
 40
1.0
 40
1.0
 10
15.463592029
 20
13.3456104693
 30
0.0
 10
15.4642964679
 20
13.3456104628
 30
0.0
 10
15.4657243224
 20
13.3457309281
 30
0.0
 10
15.4678430608
 20
13.346268818
 30
0.0
 10
15.4699381625
 20
13.3471592396
 30
0.0
 10
15.4712700583
 20
13.3479576988
 30
0.0
 10
15.4719274335
 20
13.3484063505
 30
0.0
  0
SPLINE
  5
33E
100
AcDbEntity
  8
0
100
AcDbSpline
 62
7
  6
CONTINUOUS
 70
0
 71
3
 72
15
 73
11
 74
0
 42
0.0000001
 43
0.0000001
 44
0.0000000001
 40
0.0
 40
0.0
 40
0.0
 40
0.0
 40
0.1044669847
 40
0.2113044259
 40
0.3226949499
 40
0.4404994787
 40
0.5661931266
 40
0.7008784073
 40
0.8453390055
 40
1.0
 40
1.0
 40
1.0
 40
1.0
 10
15.2046109539
 20
13.3987219595
 30
0.0
 10
15.2048733775
 20
13.3987219551
 30
0.0
 10
15.205405178
 20
13.3987664084
 30
0.0
 10
15.2061944341
 20
13.3989648748
 30
0.0
 10
15.2069751939
 20
13.3992935556
 30
0.0
 10
15.2077438663
 20
13.3997499432
 30
0.0
 10
15.2084977575
 20
13.4003313253
 30
0.0
 10
15.2092342804
 20
13.4010349628
 30
0.0
 10
15.2099507728
 20
13.4018577298
 30
0.0
 10
15.2103979945
 20
13.4024625557
 30
0.0
 10
15.2106183062
 20
13.4027825626
 30
0.0
  0
SPLINE
  5
33F
100
AcDbEntity
  8
LAYER_CUT_FEAT
100
AcDbSpline
 62
7
  6
CONTINUOUS
 70
0
 71
3
 72
23
 73
19
 74
0
 42
0.0000001
 43
0.0000001
 44
0.0000000001
 40
0.0
 40
0.0
 40
0.0
 40
0.0
 40
0.0387076068
 40
0.0807804558
 40
0.1264417
 40
0.1757925022
 40
0.2288345401
 40
0.2854912315
 40
0.3456222646
 40
0.4090353086
 40
0.4754948793
 40
0.5447294669
 40
0.6164374547
 40
0.6902919846
 40
0.7659458602
 40
0.8430342912
 40
0.9211818108
 40
1.0
 40
1.0
 40
1.0
 40
1.0
 10
15.1984679708
 20
12.4825881392
 30
0.0
 10
15.1992962591
 20
12.483220856
 30
0.0
 10
15.2009331481
 20
12.4846636895
 30
0.0
 10
15.2032178932
 20
12.4871956952
 30
0.0
 10
15.2054182374
 20
12.4901658111
 30
0.0
 10
15.2075221612
 20
12.4935566548
 30
0.0
 10
15.209518497
 20
12.4973492526
 30
0.0
 10
15.2113960026
 20
12.5015219583
 30
0.0
 10
15.2131439465
 20
12.506050851
 30
0.0
 10
15.2147521873
 20
12.5109097685
 30
0.0
 10
15.2162113234
 20
12.5160705137
 30
0.0
 10
15.2175127844
 20
12.5215030312
 30
0.0
 10
15.218648901
 20
12.5271756041
 30
0.0
 10
15.2196129739
 20
12.5330550646
 30
0.0
 10
15.2203992974
 20
12.5391069704
 30
0.0
 10
15.2210032419
 20
12.5452959044
 30
0.0
 10
15.2214212109
 20
12.551585472
 30
0.0
 10
15.2215738449
 20
12.5558101709
 30
0.0
 10
15.2216188326
 20
12.5579320754
 30
0.0
  0
SPLINE
  5
340
100
AcDbEntity
  8
02___PRT_ALL_AXES
100
AcDbSpline
 62
7
  6
CONTINUOUS
 70
0
 71
3
 72
39
 73
35
 74
0
 42
0.0000001
 43
0.0000001
 44
0.0000000001
 40
0.0
 40
0.0
 40
0.0
 40
0.0
 40
0.0475876271
 40
0.0939491137
 40
0.1390400049
 40
0.1828201446
 40
0.2252544611
 40
0.2663133188
 40
0.3059731706
 40
0.344217216
 40
0.3810361889
 40
0.41642926
 40
0.4504050781
 40
0.4829829632
 40
0.5141942575
 40
0.544083826
 40
0.5727116703
 40
0.6001545787
 40
0.6265076746
 40
0.6518856473
 40
0.6764233666
 40
0.7002755236
 40
0.7236149412
 40
0.7466293224
 40
0.7695164504
 40
0.7924782016
 40
0.815714042
 40
0.8394148298
 40
0.8637576569
 40
0.8889021771
 40
0.9149885239
 40
0.9421366346
 40
0.9704466468
 40
1.0
 40
1.0
 40
1.0
 40
1.0
 10
15.6018127064
 20
12.963970536
 30
0.0
 10
15.6041229645
 20
12.971446534
 30
0.0
 10
15.6088519076
 20
12.9861547217
 30
0.0
 10
15.6163751692
 20
13.0077461314
 30
0.0
 10
15.6242264497
 20
13.0285529334
 30
0.0
 10
15.6323933375
 20
13.0485422351
 30
0.0
 10
15.6408629821
 20
13.0676826264
 30
0.0
 10
15.6496220778
 20
13.0859440237
 30
0.0
 10
15.6586568962
 20
13.1032977627
 30
0.0
 10
15.6679533221
 20
13.1197166332
 30
0.0
 10
15.6774968884
 20
13.1351749199
 30
0.0
 10
15.6872728181
 20
13.1496484347
 30
0.0
 10
15.6972660674
 20
13.1631145392
 30
0.0
 10
15.7074613723
 20
13.1755521554
 30
0.0
 10
15.717843293
 20
13.1869417585
 30
0.0
 10
15.7283962521
 20
13.1972653502
 30
0.0
 10
15.7391045533
 20
13.2065064064
 30
0.0
 10
15.7499523674
 20
13.2146498054
 30
0.0
 10
15.7609236646
 20
13.2216817459
 30
0.0
 10
15.772002075
 20
13.2275896849
 30
0.0
 10
15.783170677
 20
13.2323623436
 30
0.0
 10
15.7944117449
 20
13.2359898418
 30
0.0
 10
15.805706538
 20
13.2384640005
 30
0.0
 10
15.817035251
 20
13.2397787951
 30
0.0
 10
15.8283772255
 20
13.2399308423
 30
0.0
 10
15.8397114242
 20
13.2389197415
 30
0.0
 10
15.8510170352
 20
13.2367481195
 30
0.0
 10
15.8622739985
 20
13.2334213544
 30
0.0
 10
15.8734632889
 20
13.2289471117
 30
0.0
 10
15.8845669384
 20
13.2233348565
 30
0.0
 10
15.8955678119
 20
13.2165955489
 30
0.0
 10
15.9064495286
 20
13.2087412973
 30
0.0
 10
15.917195549
 20
13.1997860021
 30
0.0
 10
15.9241060723
 20
13.1932360655
 30
0.0
 10
15.9275358345
 20
13.1897935385
 30
0.0
  0
SPLINE
  5
341
100
AcDbEntity
  8
02___PRT_ALL_AXES
100
AcDbSpline
 62
7
  6
CONTINUOUS
 70
0
 71
3
 72
9
 73
5
 74
0
 42
0.0000001
 43
0.0000001
 44
0.0000000001
 40
0.0
 40
0.0
 40
0.0
 40
0.0
 40
0.2435645397
 40
1.0
 40
1.0
 40
1.0
 40
1.0
 10
15.9275358345
 20
13.1897935385
 30
0.0
 10
15.9289564596
 20
13.1883676261
 30
0.0
 10
15.9347194142
 20
13.1824440439
 30
0.0
 10
15.9402075545
 20
13.176254824
 30
0.0
 10
15.9442132907
 20
13.1714557557
 30
0.0
  0
SPLINE
  5
342
100
AcDbEntity
  8
02___PRT_ALL_AXES
100
AcDbSpline
 62
7
  6
CONTINUOUS
 70
0
 71
3
 72
26
 73
22
 74
0
 42
0.0000001
 43
0.0000001
 44
0.0000000001
 40
0.0
 40
0.0
 40
0.0
 40
0.0
 40
0.0879741625
 40
0.1726756624
 40
0.2539495962
 40
0.3316661542
 40
0.4057252473
 40
0.4760611199
 40
0.542648002
 40
0.6055071736
 40
0.6647154685
 40
0.7204154454
 40
0.77282698
 40
0.8222593563
 40
0.8691219021
 40
0.8917577752
 40
0.9139530992
 40
0.9357878601
 40
0.9573472168
 40
0.9787205045
 40
1.0
 40
1.0
 40
1.0
 40
1.0
 10
15.5760645463
 20
12.9770243453
 30
0.0
 10
15.5794084561
 20
12.9878452414
 30
0.0
 10
15.5863117906
 20
13.008981647
 30
0.0
 10
15.5975441022
 20
13.03969237
 30
0.0
 10
15.6094297499
 20
13.0687355124
 30
0.0
 10
15.6219313719
 20
13.0960198123
 30
0.0
 10
15.6350100619
 20
13.1214602121
 30
0.0
 10
15.6486253834
 20
13.1449775545
 30
0.0
 10
15.6627357716
 20
13.1664989203
 30
0.0
 10
15.6772987941
 20
13.1859577053
 30
0.0
 10
15.6922716637
 20
13.2032936007
 30
0.0
 10
15.7076112642
 20
13.2184521884
 30
0.0
 10
15.7232754412
 20
13.2313846658
 30
0.0
 10
15.7392188797
 20
13.2420456632
 30
0.0
 10
15.7528616638
 20
13.2490841661
 30
0.0
 10
15.763824051
 20
13.2534821721
 30
0.0
 10
15.7719867081
 20
13.2561548129
 30
0.0
 10
15.7801769028
 20
13.2582362213
 30
0.0
 10
15.7883882646
 20
13.2597245006
 30
0.0
 10
15.7966132554
 20
13.2606180768
 30
0.0
 10
15.8021064248
 20
13.260816865
 30
0.0
 10
15.8048459463
 20
13.2608168649
 30
0.0
  0
SPLINE
  5
343
100
AcDbEntity
  8
0
100
AcDbSpline
 62
7
  6
CONTINUOUS
 70
0
 71
3
 72
15
 73
11
 74
0
 42
0.0000001
 43
0.0000001
 44
0.0000000001
 40
0.0
 40
0.0
 40
0.0
 40
0.0
 40
0.0858519507
 40
0.177422275
 40
0.2792236664
 40
0.3941407429
 40
0.5236384192
 40
0.6681032319
 40
0.8272152382
 40
1.0
 40
1.0
 40
1.0
 40
1.0
 10
15.1922232996
 20
13.4081732949
 30
0.0
 10
15.1920927936
 20
13.4081733016
 30
0.0
 10
15.1918217291
 20
13.408132727
 30
0.0
 10
15.1914310616
 20
13.4079561776
 30
0.0
 10
15.191055543
 20
13.407670551
 30
0.0
 10
15.1906979537
 20
13.4072815469
 30
0.0
 10
15.1903608181
 20
13.4067941706
 30
0.0
 10
15.1900473631
 20
13.4062140442
 30
0.0
 10
15.1897611832
 20
13.4055480195
 30
0.0
 10
15.1895971263
 20
13.4050704136
 30
0.0
 10
15.1895195781
 20
13.4048194675
 30
0.0
  0
SPLINE
  5
344
100
AcDbEntity
  8
LAYER_CUT_FEAT
100
AcDbSpline
 62
7
  6
CONTINUOUS
 70
0
 71
3
 72
15
 73
11
 74
0
 42
0.0000001
 43
0.0000001
 44
0.0000000001
 40
0.0
 40
0.0
 40
0.0
 40
0.0
 40
0.1140922539
 40
0.2322761012
 40
0.3540980686
 40
0.4790729672
 40
0.6066899473
 40
0.7364173278
 40
0.8677070392
 40
1.0
 40
1.0
 40
1.0
 40
1.0
 10
15.2847170538
 20
13.0171819246
 30
0.0
 10
15.2799460154
 20
13.0001640168
 30
0.0
 10
15.2709195794
 20
12.965322264
 30
0.0
 10
15.2590849144
 20
12.9117500984
 30
0.0
 10
15.248759606
 20
12.8561511606
 30
0.0
 10
15.2399964417
 20
12.7988070046
 30
0.0
 10
15.2328399115
 20
12.7400069429
 30
0.0
 10
15.2273264869
 20
12.6800480119
 30
0.0
 10
15.2234842197
 20
12.6192338029
 30
0.0
 10
15.2220532299
 20
12.5784209938
 30
0.0
 10
15.2216188326
 20
12.5579320754
 30
0.0
  0
SPLINE
  5
345
100
AcDbEntity
  8
LAYER_CUT_FEAT
100
AcDbSpline
 62
7
  6
CONTINUOUS
 70
0
 71
3
 72
19
 73
15
 74
0
 42
0.0000001
 43
0.0000001
 44
0.0000000001
 40
0.0
 40
0.0
 40
0.0
 40
0.0
 40
0.0567251917
 40
0.1156215519
 40
0.1764237726
 40
0.2388503575
 40
0.3673561502
 40
0.4986466019
 40
0.6301140679
 40
0.7591448015
 40
0.8219588734
 40
0.8832275209
 40
0.9426648122
 40
1.0
 40
1.0
 40
1.0
 40
1.0
 10
15.2847170538
 20
13.0171819246
 30
0.0
 10
15.2852119851
 20
13.0189473044
 30
0.0
 10
15.2861438753
 20
13.0225675665
 30
0.0
 10
15.2873512368
 20
13.0281418226
 30
0.0
 10
15.2883893441
 20
13.0339374144
 30
0.0
 10
15.289550527
 20
13.0419918762
 30
0.0
 10
15.2905307707
 20
13.0523679251
 30
0.0
 10
15.2909563455
 20
13.0650143184
 30
0.0
 10
15.2906317004
 20
13.0776806598
 30
0.0
 10
15.2897349345
 20
13.0880994932
 30
0.0
 10
15.2886394534
 20
13.0962080987
 30
0.0
 10
15.2876480944
 20
13.1020575731
 30
0.0
 10
15.2864857251
 20
13.1076947372
 30
0.0
 10
15.2855837742
 20
13.1113608541
 30
0.0
 10
15.2851035501
 20
13.1131507125
 30
0.0
  0
SPLINE
  5
346
100
AcDbEntity
  8
02___PRT_ALL_AXES
100
AcDbSpline
 62
7
  6
CONTINUOUS
 70
0
 71
3
 72
74
 73
70
 74
0
 42
0.0000001
 43
0.0000001
 44
0.0000000001
 40
0.0
 40
0.0
 40
0.0
 40
0.0
 40
0.0114380974
 40
0.0223679402
 40
0.0328118632
 40
0.0427990998
 40
0.0523664885
 40
0.0615590442
 40
0.0704302655
 40
0.0747656906
 40
0.0790446498
 40
0.0832760513
 40
0.0874691911
 40
0.091633689
 40
0.0957794146
 40
0.0999164051
 40
0.1040547765
 40
0.1082046323
 40
0.1123759726
 40
0.1165786066
 40
0.1208220728
 40
0.1251155674
 40
0.1294678831
 40
0.138379466
 40
0.1476201797
 40
0.1572423621
 40
0.1672898866
 40
0.1777985177
 40
0.1887965043
 40
0.2003052967
 40
0.2123402692
 40
0.2249114186
 40
0.2380239959
 40
0.2516790607
 40
0.265873975
 40
0.2806028149
 40
0.2958567374
 40
0.3116242886
 40
0.3278916693
 40
0.3446429736
 40
0.3618603849
 40
0.3795243627
 40
0.3976137985
 40
0.4161061613
 40
0.4349776314
 40
0.4542032169
 40
0.4737568713
 40
0.493611595
 40
0.5137395372
 40
0.5341120916
 40
0.5546999859
 40
0.5754733737
 40
0.5964019175
 40
0.638599747
 40
0.6810456323
 40
0.7234876989
 40
0.7656741111
 40
0.7865941311
 40
0.807357146
 40
0.8279328457
 40
0.8482914155
 40
0.8684036218
 40
0.8882409002
 40
0.9077754499
 40
0.9269803251
 40
0.945829541
 40
0.9642981747
 40
0.9823624544
 40
1.0
 40
1.0
 40
1.0
 40
1.0
 10
15.4383818799
 20
13.7049209004
 30
0.0
 10
15.4447231114
 20
13.7125180167
 30
0.0
 10
15.4575166546
 20
13.7270535641
 30
0.0
 10
15.4775022159
 20
13.7472379484
 30
0.0
 10
15.4978076628
 20
13.7652650544
 30
0.0
 10
15.5183991852
 20
13.7811014622
 30
0.0
 10
15.5392439864
 20
13.7947177937
 30
0.0
 10
15.5603062578
 20
13.8060865553
 30
0.0
 10
15.578149743
 20
13.8137263518
 30
0.0
 10
15.5924584413
 20
13.8186530269
 30
0.0
 10
15.6031377851
 20
13.8217471601
 30
0.0
 10
15.6138406974
 20
13.8242663902
 30
0.0
 10
15.6245625902
 20
13.8262095993
 30
0.0
 10
15.6352985444
 20
13.8275757643
 30
0.0
 10
15.6460436819
 20
13.8283641835
 30
0.0
 10
15.6567930773
 20
13.8285744531
 30
0.0
 10
15.6675418001
 20
13.8282064694
 30
0.0
 10
15.6782849209
 20
13.827260415
 30
0.0
 10
15.6890175205
 20
13.8257367794
 30
0.0
 10
15.6997347293
 20
13.823636342
 30
0.0
 10
15.7104316405
 20
13.8209601991
 30
0.0
 10
15.7211036732
 20
13.8177095452
 30
0.0
 10
15.7354039963
 20
13.8125720615
 30
0.0
 10
15.7532319513
 20
13.8046693361
 30
0.0
 10
15.7742664579
 20
13.7929926251
 30
0.0
 10
15.7950787497
 20
13.7790718615
 30
0.0
 10
15.8156332121
 20
13.7629348802
 30
0.0
 10
15.8358969403
 20
13.7446116263
 30
0.0
 10
15.8558368374
 20
13.7241351276
 30
0.0
 10
15.8754201893
 20
13.7015414476
 30
0.0
 10
15.8946144923
 20
13.676869962
 30
0.0
 10
15.9133875577
 20
13.650163427
 30
0.0
 10
15.9317075962
 20
13.6214680393
 30
0.0
 10
15.9495433624
 20
13.5908334468
 30
0.0
 10
15.966864219
 20
13.558312689
 30
0.0
 10
15.9836402881
 20
13.5239621539
 30
0.0
 10
15.9998425043
 20
13.4878414744
 30
0.0
 10
16.0154427151
 20
13.4500134365
 30
0.0
 10
16.0304137624
 20
13.4105438698
 30
0.0
 10
16.0447295183
 20
13.3695015208
 30
0.0
 10
16.0583649884
 20
13.3269579391
 30
0.0
 10
16.071296323
 20
13.2829873371
 30
0.0
 10
16.0835008965
 20
13.2376664616
 30
0.0
 10
16.0949573444
 20
13.1910744529
 30
0.0
 10
16.1056455908
 20
13.1432927
 30
0.0
 10
16.1155469182
 20
13.0944046995
 30
0.0
 10
16.1246439638
 20
13.0444959006
 30
0.0
 10
16.1329207866
 20
12.9936535562
 30
0.0
 10
16.1403628742
 20
12.9419665702
 30
0.0
 10
16.1469571773
 20
12.8895253205
 30
0.0
 10
16.1526921231
 20
12.8364215748
 30
0.0
 10
16.1575577133
 20
12.7827480439
 30
0.0
 10
16.1628887114
 20
12.710354199
 30
0.0
 10
16.1673138147
 20
12.619106023
 30
0.0
 10
16.1690472093
 20
12.5091506312
 30
0.0
 10
16.1672056554
 20
12.3992068732
 30
0.0
 10
16.1626906077
 20
12.3079836677
 30
0.0
 10
16.1572880074
 20
12.2356214262
 30
0.0
 10
16.1523695186
 20
12.1819797249
 30
0.0
 10
16.1465822416
 20
12.128913463
 30
0.0
 10
16.139936261
 20
12.0765152855
 30
0.0
 10
16.1324432492
 20
12.0248768839
 30
0.0
 10
16.1241163341
 20
11.9740885505
 30
0.0
 10
16.1149701254
 20
11.9242390954
 30
0.0
 10
16.105020643
 20
11.8754156591
 30
0.0
 10
16.0942853409
 20
11.8277036034
 30
0.0
 10
16.0827829996
 20
11.7811862219
 30
0.0
 10
16.0705338681
 20
11.7359450933
 30
0.0
 10
16.0617758318
 20
11.7063212493
 30
0.0
 10
16.0572705445
 20
11.6917421342
 30
0.0
  0
SPLINE
  5
347
100
AcDbEntity
  8
02___PRT_ALL_AXES
100
AcDbSpline
 62
7
  6
CONTINUOUS
 70
0
 71
3
 72
58
 73
54
 74
0
 42
0.0000001
 43
0.0000001
 44
0.0000000001
 40
0.0
 40
0.0
 40
0.0
 40
0.0
 40
0.0076944078
 40
0.015441297
 40
0.0232918434
 40
0.0312947392
 40
0.0394952412
 40
0.0479344979
 40
0.0566491586
 40
0.0656712332
 40
0.0750281487
 40
0.0847429436
 40
0.0948345476
 40
0.1053181044
 40
0.1162053055
 40
0.1275047173
 40
0.1392220884
 40
0.1513606305
 40
0.1639212708
 40
0.176902877
 40
0.1903024547
 40
0.2041153238
 40
0.2183352728
 40
0.2329546949
 40
0.2479647088
 40
0.2633552651
 40
0.2791152415
 40
0.2952325296
 40
0.3116941129
 40
0.3284861372
 40
0.3455939763
 40
0.3630022916
 40
0.3806950879
 40
0.3986557667
 40
0.4353105102
 40
0.4728247232
 40
0.5110486689
 40
0.5498272507
 40
0.589001279
 40
0.6284086915
 40
0.6678857486
 40
0.7072682127
 40
0.746392523
 40
0.7850969767
 40
0.8232229256
 40
0.8606160057
 40
0.89712741
 40
0.9150084465
 40
0.9326164941
 40
0.9499351302
 40
0.9669485657
 40
0.9836416313
 40
1.0
 40
1.0
 40
1.0
 40
1.0
 10
15.635984764
 20
13.8074835355
 30
0.0
 10
15.6418847396
 20
13.8074835334
 30
0.0
 10
15.653731762
 20
13.8069490009
 30
0.0
 10
15.6714520274
 20
13.8045478068
 30
0.0
 10
15.6891249268
 20
13.8005506674
 30
0.0
 10
15.7067251175
 20
13.7949645131
 30
0.0
 10
15.7242305766
 20
13.7877984941
 30
0.0
 10
15.7416194985
 20
13.7790636385
 30
0.0
 10
15.7588710064
 20
13.7687726117
 30
0.0
 10
15.775964738
 20
13.7569395804
 30
0.0
 10
15.7928807428
 20
13.7435801705
 30
0.0
 10
15.8095993388
 20
13.7287114892
 30
0.0
 10
15.8261010414
 20
13.7123521746
 30
0.0
 10
15.8423665284
 20
13.694522451
 30
0.0
 10
15.8583766412
 20
13.675244178
 30
0.0
 10
15.8741124037
 20
13.6545408799
 30
0.0
 10
15.8895550534
 20
13.6324377602
 30
0.0
 10
15.9046860792
 20
13.6089617031
 30
0.0
 10
15.9194872605
 20
13.5841412625
 30
0.0
 10
15.9339407049
 20
13.5580066422
 30
0.0
 10
15.9480288869
 20
13.5305896693
 30
0.0
 10
15.9617346797
 20
13.5019237583
 30
0.0
 10
15.9750413866
 20
13.4720438725
 30
0.0
 10
15.9879327696
 20
13.4409864811
 30
0.0
 10
16.0003930765
 20
13.408789515
 30
0.0
 10
16.012407065
 20
13.3754923194
 30
0.0
 10
16.0239600284
 20
13.3411356059
 30
0.0
 10
16.035037814
 20
13.3057613996
 30
0.0
 10
16.0456268442
 20
13.2694129849
 30
0.0
 10
16.0557141333
 20
13.2321348545
 30
0.0
 10
16.0652873119
 20
13.1939726421
 30
0.0
 10
16.0743346157
 20
13.1549731089
 30
0.0
 10
16.0828450114
 20
13.115183921
 30
0.0
 10
16.0935342464
 20
13.0607768514
 30
0.0
 10
16.1054535555
 20
12.9911326181
 30
0.0
 10
16.1173700661
 20
12.9057662317
 30
0.0
 10
16.1269362334
 20
12.8184663273
 30
0.0
 10
16.1341049283
 20
12.7296606759
 30
0.0
 10
16.1388408181
 20
12.6397836846
 30
0.0
 10
16.1411205648
 20
12.5492753426
 30
0.0
 10
16.1409329347
 20
12.4585787171
 30
0.0
 10
16.1382788469
 20
12.3681378354
 30
0.0
 10
16.1331713862
 20
12.2783954282
 30
0.0
 10
16.1256357265
 20
12.189790815
 30
0.0
 10
16.115708996
 20
12.1027573976
 30
0.0
 10
16.1034401079
 20
12.0177216274
 30
0.0
 10
16.0912314193
 20
11.9483952844
 30
0.0
 10
16.0803154419
 20
11.894273917
 30
0.0
 10
16.0716406792
 20
11.8547196334
 30
0.0
 10
16.0624323202
 20
11.8159696371
 30
0.0
 10
16.0527015784
 20
11.7780712536
 30
0.0
 10
16.0424604726
 20
11.7410710881
 30
0.0
 10
16.0352257881
 20
11.7167801622
 30
0.0
 10
16.0315223844
 20
11.7047959436
 30
0.0
  0
SPLINE
  5
348
100
AcDbEntity
  8
LAYER_CUT_FEAT
100
AcDbSpline
 62
7
  6
CONTINUOUS
 70
0
 71
3
 72
27
 73
23
 74
0
 42
0.0000001
 43
0.0000001
 44
0.0000000001
 40
0.0
 40
0.0
 40
0.0
 40
0.0
 40
0.0622554134
 40
0.1280956615
 40
0.1968270413
 40
0.2676892608
 40
0.3398778053
 40
0.4125611892
 40
0.4848979924
 40
0.5560537115
 40
0.6252178434
 40
0.6916213752
 40
0.7545561191
 40
0.8133960291
 40
0.8411189564
 40
0.8676350585
 40
0.8929024714
 40
0.9168912687
 40
0.9395851515
 40
0.9609839077
 40
0.9811089582
 40
1.0
 40
1.0
 40
1.0
 40
1.0
 10
15.7304346309
 20
13.4765046262
 30
0.0
 10
15.7312287946
 20
13.4791687384
 30
0.0
 10
15.732676688
 20
13.4847069998
 30
0.0
 10
15.7344038271
 20
13.4933289541
 30
0.0
 10
15.7357306025
 20
13.5024100261
 30
0.0
 10
15.7366385895
 20
13.5118268554
 30
0.0
 10
15.7371152629
 20
13.5214518807
 30
0.0
 10
15.7371540119
 20
13.5311543949
 30
0.0
 10
15.7367543244
 20
13.5408026387
 30
0.0
 10
15.7359216965
 20
13.5502656225
 30
0.0
 10
15.7346676783
 20
13.5594149589
 30
0.0
 10
15.7330095495
 20
13.5681269346
 30
0.0
 10
15.7309701617
 20
13.5762835699
 30
0.0
 10
15.7289377609
 20
13.5826486665
 30
0.0
 10
15.7271298587
 20
13.5873646074
 30
0.0
 10
15.7257243684
 20
13.5906260444
 30
0.0
 10
15.7242472365
 20
13.5936715043
 30
0.0
 10
15.7227033422
 20
13.5964907735
 30
0.0
 10
15.721097822
 20
13.5990743621
 30
0.0
 10
15.7194358378
 20
13.6014137796
 30
0.0
 10
15.7177228997
 20
13.6035009001
 30
0.0
 10
15.7165132715
 20
13.604758199
 30
0.0
 10
15.7159009592
 20
13.6053384342
 30
0.0
  0
SPLINE
  5
349
100
AcDbEntity
  8
LAYER_CUT_FEAT
100
AcDbSpline
 62
7
  6
CONTINUOUS
 70
0
 71
3
 72
19
 73
15
 74
0
 42
0.0000001
 43
0.0000001
 44
0.0000000001
 40
0.0
 40
0.0
 40
0.0
 40
0.0
 40
0.1428611049
 40
0.2791409638
 40
0.4094108669
 40
0.5343732742
 40
0.5951397969
 40
0.6549059435
 40
0.7137973897
 40
0.7719471618
 40
0.8294949722
 40
0.8865860731
 40
0.9433701771
 40
1.0
 40
1.0
 40
1.0
 40
1.0
 10
15.7159009592
 20
13.6053384342
 30
0.0
 10
15.7097718941
 20
13.6111464166
 30
0.0
 10
15.6974151774
 20
13.6221032469
 30
0.0
 10
15.6781435664
 20
13.6367771715
 30
0.0
 10
15.6586242587
 20
13.6492570378
 30
0.0
 10
15.6420255884
 20
13.6578848268
 30
0.0
 10
15.6286908707
 20
13.6636184022
 30
0.0
 10
15.6187463911
 20
13.6673158593
 30
0.0
 10
15.6087716014
 20
13.6704479516
 30
0.0
 10
15.5987712249
 20
13.6730129991
 30
0.0
 10
15.5887503848
 20
13.6750096071
 30
0.0
 10
15.5787140038
 20
13.6764365462
 30
0.0
 10
15.5686676445
 20
13.677293084
 30
0.0
 10
15.561962752
 20
13.6774835254
 30
0.0
 10
15.5586156405
 20
13.6774835279
 30
0.0
  0
SPLINE
  5
34A
100
AcDbEntity
  8
02___PRT_ALL_AXES
100
AcDbSpline
 62
7
  6
CONTINUOUS
 70
0
 71
3
 72
58
 73
54
 74
0
 42
0.0000001
 43
0.0000001
 44
0.0000000001
 40
0.0
 40
0.0
 40
0.0
 40
0.0
 40
0.0078426051
 40
0.015706355
 40
0.0236656514
 40
0.0317912645
 40
0.0401487089
 40
0.0487967234
 40
0.0577864645
 40
0.0671613033
 40
0.0769570274
 40
0.0872023184
 40
0.0979193699
 40
0.1091245541
 40
0.1208290682
 40
0.1330395318
 40
0.1457585191
 40
0.1589850217
 40
0.1727148607
 40
0.1869410385
 40
0.2016540395
 40
0.2168420897
 40
0.2324913775
 40
0.2485862509
 40
0.2651093957
 40
0.2820419895
 40
0.2993638389
 40
0.3170535036
 40
0.3534431764
 40
0.3910206142
 40
0.429580086
 40
0.4689052757
 40
0.5087718883
 40
0.5489501137
 40
0.5892070041
 40
0.6293088307
 40
0.6690234105
 40
0.7081224734
 40
0.7463840592
 40
0.7835950171
 40
0.8195536685
 40
0.837005188
 40
0.8540747293
 40
0.8707416541
 40
0.8869866522
 40
0.902791872
 40
0.9181410704
 40
0.9330197759
 40
0.9474154781
 40
0.9613178884
 40
0.9747189864
 40
0.9876138892
 40
1.0
 40
1.0
 40
1.0
 40
1.0
 10
15.8177121702
 20
13.0730709631
 30
0.0
 10
15.8207255706
 20
13.0732998385
 30
0.0
 10
15.8267897874
 20
13.0734388882
 30
0.0
 10
15.8358934267
 20
13.0726749147
 30
0.0
 10
15.8449744112
 20
13.0709407396
 30
0.0
 10
15.8540138947
 20
13.0682409775
 30
0.0
 10
15.8629956187
 20
13.0645825733
 30
0.0
 10
15.8719039008
 20
13.0599740313
 30
0.0
 10
15.880724
 20
13.0544251282
 30
0.0
 10
15.8894417013
 20
13.0479467583
 30
0.0
 10
15.8980431302
 20
13.0405509063
 30
0.0
 10
15.9065146005
 20
13.0322507269
 30
0.0
 10
15.9148425424
 20
13.0230606219
 30
0.0
 10
15.9230134795
 20
13.0129963085
 30
0.0
 10
15.9310140509
 20
13.0020748742
 30
0.0
 10
15.9388310467
 20
12.990314805
 30
0.0
 10
15.9464514517
 20
12.9777359963
 30
0.0
 10
15.9538625007
 20
12.9643597489
 30
0.0
 10
15.9610517097
 20
12.9502087381
 30
0.0
 10
15.9680069163
 20
12.9353069806
 30
0.0
 10
15.974716315
 20
12.9196797961
 30
0.0
 10
15.9811684856
 20
12.9033537667
 30
0.0
 10
15.9873524285
 20
12.8863566941
 30
0.0
 10
15.9932575882
 20
12.8687175518
 30
0.0
 10
15.9988738764
 20
12.850466422
 30
0.0
 10
16.0041916682
 20
12.831634469
 30
0.0
 10
16.0092019244
 20
12.8122537758
 30
0.0
 10
16.0155199564
 20
12.7854734098
 30
0.0
 10
16.0225656182
 20
12.75085382
 30
0.0
 10
16.0295941496
 20
12.7080565104
 30
0.0
 10
16.0352257445
 20
12.6639127681
 30
0.0
 10
16.0394216382
 20
12.618724163
 30
0.0
 10
16.0421529288
 20
12.5727988555
 30
0.0
 10
16.0434007709
 20
12.5264503711
 30
0.0
 10
16.0431565834
 20
12.4799951396
 30
0.0
 10
16.041422049
 20
12.4337503568
 30
0.0
 10
16.0382091033
 20
12.3880317266
 30
0.0
 10
16.03353991
 20
12.3431513304
 30
0.0
 10
16.0274466271
 20
12.2994151572
 30
0.0
 10
16.0199711944
 20
12.2571219426
 30
0.0
 10
16.0125607561
 20
12.2229864692
 30
0.0
 10
16.0059593858
 20
12.1966403657
 30
0.0
 10
16.0007468934
 20
12.1776149462
 30
0.0
 10
15.9952327665
 20
12.1591594139
 30
0.0
 10
15.989426372
 20
12.1413051995
 30
0.0
 10
15.9833376559
 20
12.1240827783
 30
0.0
 10
15.9769770124
 20
12.1075215076
 30
0.0
 10
15.9703552892
 20
12.0916496083
 30
0.0
 10
15.9634837598
 20
12.0764940702
 30
0.0
 10
15.9563741144
 20
12.0620807239
 30
0.0
 10
15.9490383374
 20
12.0484338455
 30
0.0
 10
15.9414890123
 20
12.0355770414
 30
0.0
 10
15.9362158073
 20
12.0273816243
 30
0.0
 10
15.9335431148
 20
12.0234272471
 30
0.0
  0
SPLINE
  5
34B
100
AcDbEntity
  8
0
100
AcDbSpline
 62
7
  6
CONTINUOUS
 70
0
 71
3
 72
15
 73
11
 74
0
 42
0.0000001
 43
0.0000001
 44
0.0000000001
 40
0.0
 40
0.0
 40
0.0
 40
0.0
 40
0.100662649
 40
0.2042541408
 40
0.313409047
 40
0.4302797125
 40
0.5564779188
 40
0.6931020586
 40
0.840847345
 40
1.0
 40
1.0
 40
1.0
 40
1.0
 10
15.1807382692
 20
13.3157460038
 30
0.0
 10
15.1810365162
 20
13.3157460055
 30
0.0
 10
15.1816431367
 20
13.3158037595
 30
0.0
 10
15.1825401797
 20
13.3160610042
 30
0.0
 10
15.1834242005
 20
13.3164857481
 30
0.0
 10
15.1842902945
 20
13.317073797
 30
0.0
 10
15.1851348587
 20
13.3178208689
 30
0.0
 10
15.1859543993
 20
13.3187225762
 30
0.0
 10
15.1867451731
 20
13.319774045
 30
0.0
 10
15.1872326812
 20
13.3205427451
 30
0.0
 10
15.1874718365
 20
13.3209491414
 30
0.0
  0
SPLINE
  5
34C
100
AcDbEntity
  8
LAYER_CUT_FEAT
100
AcDbSpline
 62
7
  6
CONTINUOUS
 70
0
 71
3
 72
28
 73
24
 74
0
 42
0.0000001
 43
0.0000001
 44
0.0000000001
 40
0.0
 40
0.0
 40
0.0
 40
0.0
 40
0.0168309048
 40
0.0338789687
 40
0.0513513153
 40
0.0694367032
 40
0.0883000693
 40
0.1080802961
 40
0.150784762
 40
0.1738937825
 40
0.1982309375
 40
0.2238248884
 40
0.2506890436
 40
0.3082072912
 40
0.3706814006
 40
0.4378523488
 40
0.5093537834
 40
0.5847343081
 40
0.6634745953
 40
0.7450012203
 40
0.8286992802
 40
0.9139205501
 40
1.0
 40
1.0
 40
1.0
 40
1.0
 10
15.4239681681
 20
11.4008106322
 30
0.0
 10
15.4244914966
 20
11.4008106325
 30
0.0
 10
15.4255460471
 20
11.4008764689
 30
0.0
 10
15.4271189931
 20
11.4011715624
 30
0.0
 10
15.4286832685
 20
11.401662002
 30
0.0
 10
15.4302345557
 20
11.4023458854
 30
0.0
 10
15.4317694516
 20
11.403220925
 30
0.0
 10
15.4338419719
 20
11.4046761774
 30
0.0
 10
15.4358122809
 20
11.4064840552
 30
0.0
 10
15.4376781843
 20
11.4085770921
 30
0.0
 10
15.4390822602
 20
11.410364078
 30
0.0
 10
15.4404506431
 20
11.4123222324
 30
0.0
 10
15.4422651573
 20
11.4152221055
 30
0.0
 10
15.4444113775
 20
11.4192594784
 30
0.0
 10
15.4467419305
 20
11.424596961
 30
0.0
 10
15.4488625021
 20
11.4304850812
 30
0.0
 10
15.4507535137
 20
11.4368697911
 30
0.0
 10
15.452397429
 20
11.4436926946
 30
0.0
 10
15.4537788648
 20
11.4508908572
 30
0.0
 10
15.4548848763
 20
11.4583977161
 30
0.0
 10
15.4557050514
 20
11.4661436918
 30
0.0
 10
15.4562317087
 20
11.4740568009
 30
0.0
 10
15.4563834495
 20
11.47938244
 30
0.0
 10
15.4564095361
 20
11.4820588079
 30
0.0
  0
SPLINE
  5
34D
100
AcDbEntity
  8
02___PRT_ALL_AXES
100
AcDbSpline
 62
7
  6
CONTINUOUS
 70
0
 71
3
 72
15
 73
11
 74
0
 42
0.0000001
 43
0.0000001
 44
0.0000000001
 40
0.0
 40
0.0
 40
0.0
 40
0.0
 40
0.1342980788
 40
0.264798479
 40
0.3920026755
 40
0.5164814423
 40
0.6388502129
 40
0.7597653147
 40
0.8799140961
 40
1.0
 40
1.0
 40
1.0
 40
1.0
 10
15.8741463461
 20
11.963141634
 30
0.0
 10
15.8718741166
 20
11.9617748421
 30
0.0
 10
15.8673065827
 20
11.9592214266
 30
0.0
 10
15.8603022161
 20
11.955913947
 30
0.0
 10
15.853256815
 20
11.9531918636
 30
0.0
 10
15.8461783716
 20
11.9510589276
 30
0.0
 10
15.8390745567
 20
11.9495179527
 30
0.0
 10
15.8319532578
 20
11.9485711992
 30
0.0
 10
15.8248233547
 20
11.9482200555
 30
0.0
 10
15.8200763807
 20
11.9483831862
 30
0.0
 10
15.8177121701
 20
11.9485627597
 30
0.0
  0
SPLINE
  5
34E
100
AcDbEntity
  8
LAYER_CUT_FEAT
100
AcDbSpline
 62
7
  6
CONTINUOUS
 70
0
 71
3
 72
14
 73
10
 74
0
 42
0.0000001
 43
0.0000001
 44
0.0000000001
 40
0.0
 40
0.0
 40
0.0
 40
0.0
 40
0.1181607036
 40
0.2370147197
 40
0.3572403859
 40
0.4794877634
 40
0.6043670115
 40
0.7324388639
 40
1.0
 40
1.0
 40
1.0
 40
1.0
 10
15.5586156405
 20
13.3774835352
 30
0.0
 10
15.5549601554
 20
13.3774835316
 30
0.0
 10
15.547624093
 20
13.3771768114
 30
0.0
 10
15.5366465802
 20
13.3757985961
 30
0.0
 10
15.5256938738
 20
13.373503856
 30
0.0
 10
15.5147796035
 20
13.3702960076
 30
0.0
 10
15.5039147927
 20
13.3661789694
 30
0.0
 10
15.4893020856
 20
13.3593886507
 30
0.0
 10
15.4787643271
 20
13.3530724588
 30
0.0
 10
15.4719274335
 20
13.3484063505
 30
0.0
  0
SPLINE
  5
34F
100
AcDbEntity
  8
LAYER_CUT_FEAT
100
AcDbSpline
 62
7
  6
CONTINUOUS
 70
0
 71
3
 72
22
 73
18
 74
0
 42
0.0000001
 43
0.0000001
 44
0.0000000001
 40
0.0
 40
0.0
 40
0.0
 40
0.0
 40
0.1720504207
 40
0.2530194079
 40
0.3304457838
 40
0.404243645
 40
0.4743607116
 40
0.5407830147
 40
0.603543312
 40
0.6627281
 40
0.7184871702
 40
0.7710453147
 40
0.8207124713
 40
0.8678930047
 40
0.9130905912
 40
0.9569023107
 40
1.0
 40
1.0
 40
1.0
 40
1.0
 10
15.9275016575
 20
13.1914503894
 30
0.0
 10
15.9267709988
 20
13.1937073417
 30
0.0
 10
15.9255922417
 20
13.1969950015
 30
0.0
 10
15.9238086581
 20
13.2011886958
 30
0.0
 10
15.9224342904
 20
13.2040813886
 30
0.0
 10
15.921000344
 20
13.2067767419
 30
0.0
 10
15.9195109639
 20
13.2092668487
 30
0.0
 10
15.9179704521
 20
13.2115443446
 30
0.0
 10
15.9163832203
 20
13.2136025429
 30
0.0
 10
15.9147537013
 20
13.2154353712
 30
0.0
 10
15.9130863091
 20
13.2170373239
 30
0.0
 10
15.9113855045
 20
13.2184034675
 30
0.0
 10
15.9096557475
 20
13.2195292934
 30
0.0
 10
15.90790169
 20
13.2204105952
 30
0.0
 10
15.906128251
 20
13.2210435683
 30
0.0
 10
15.9043416044
 20
13.2214249409
 30
0.0
 10
15.903141612
 20
13.2215100878
 30
0.0
 10
15.9025473697
 20
13.2215100938
 30
0.0
  0
SPLINE
  5
350
100
AcDbEntity
  8
0
100
AcDbSpline
 62
7
  6
CONTINUOUS
 70
0
 71
3
 72
15
 73
11
 74
0
 42
0.0000001
 43
0.0000001
 44
0.0000000001
 40
0.0
 40
0.0
 40
0.0
 40
0.0
 40
0.0935534179
 40
0.1912296536
 40
0.2965427136
 40
0.4120965335
 40
0.5395814107
 40
0.6799175179
 40
0.8334370622
 40
1.0
 40
1.0
 40
1.0
 40
1.0
 10
15.140034387
 20
13.1379956377
 30
0.0
 10
15.1404045503
 20
13.1379956368
 30
0.0
 10
15.1411638551
 20
13.1380859401
 30
0.0
 10
15.1422762361
 20
13.1384848288
 30
0.0
 10
15.1433620062
 20
13.1391385495
 30
0.0
 10
15.1444136274
 20
13.140037373
 30
0.0
 10
15.1454255791
 20
13.1411724529
 30
0.0
 10
15.1463916763
 20
13.1425345816
 30
0.0
 10
15.1473052275
 20
13.1441131182
 30
0.0
 10
15.1478530438
 20
13.1452563885
 30
0.0
 10
15.1481185904
 20
13.145859563
 30
0.0
  0
SPLINE
  5
351
100
AcDbEntity
  8
02___PRT_ALL_AXES
100
AcDbSpline
 62
7
  6
CONTINUOUS
 70
0
 71
3
 72
9
 73
5
 74
0
 42
0.0000001
 43
0.0000001
 44
0.0000000001
 40
0.0
 40
0.0
 40
0.0
 40
0.0
 40
0.4958695699
 40
1.0
 40
1.0
 40
1.0
 40
1.0
 10
15.622009004
 20
12.273041905
 30
0.0
 10
15.6226067832
 20
12.2730419028
 30
0.0
 10
15.6238137957
 20
12.2731280835
 30
0.0
 10
15.6249965444
 20
12.2733820537
 30
0.0
 10
15.6255811024
 20
12.2735482979
 30
0.0
  0
SPLINE
  5
352
100
AcDbEntity
  8
02___PRT_ALL_AXES
100
AcDbSpline
 62
7
  6
CONTINUOUS
 70
0
 71
3
 72
23
 73
19
 74
0
 42
0.0000001
 43
0.0000001
 44
0.0000000001
 40
0.0
 40
0.0
 40
0.0
 40
0.0
 40
0.08941617
 40
0.1762080153
 40
0.2600042001
 40
0.3404664629
 40
0.4172885311
 40
0.4902061741
 40
0.5590036076
 40
0.6235238363
 40
0.6836810609
 40
0.7394771139
 40
0.7910227563
 40
0.8385646431
 40
0.8825168451
 40
0.9234912683
 40
0.9623131592
 40
1.0
 40
1.0
 40
1.0
 40
1.0
 10
15.8120238615
 20
13.0724488509
 30
0.0
 10
15.8117288168
 20
13.0743418995
 30
0.0
 10
15.8110870451
 20
13.0780633781
 30
0.0
 10
15.8099510199
 20
13.0835185346
 30
0.0
 10
15.8086607734
 20
13.0887420699
 30
0.0
 10
15.8072234887
 20
13.0937052032
 30
0.0
 10
15.8056470773
 20
13.0983807906
 30
0.0
 10
15.8039402154
 20
13.1027432931
 30
0.0
 10
15.8021122064
 20
13.1067690084
 30
0.0
 10
15.8001728995
 20
13.1104361923
 30
0.0
 10
15.7981325335
 20
13.113725184
 30
0.0
 10
15.7960015411
 20
13.1166184656
 30
0.0
 10
15.7937903196
 20
13.1191006038
 30
0.0
 10
15.7915089476
 20
13.1211579659
 30
0.0
 10
15.7891673516
 20
13.1227781006
 30
0.0
 10
15.7867753959
 20
13.1239488872
 30
0.0
 10
15.7843466651
 20
13.1246582696
 30
0.0
 10
15.7827032727
 20
13.1248176168
 30
0.0
 10
15.781895764
 20
13.1248176197
 30
0.0
  0
SPLINE
  5
353
100
AcDbEntity
  8
02___PRT_ALL_AXES
100
AcDbSpline
 62
7
  6
CONTINUOUS
 70
0
 71
3
 72
60
 73
56
 74
0
 42
0.0000001
 43
0.0000001
 44
0.0000000001
 40
0.0
 40
0.0
 40
0.0
 40
0.0
 40
0.017514397
 40
0.0354430666
 40
0.0537648799
 40
0.0724573849
 40
0.0914970993
 40
0.1108595247
 40
0.1504485376
 40
0.1910138998
 40
0.2323331427
 40
0.2741761746
 40
0.3163077163
 40
0.3584896668
 40
0.4004834349
 40
0.4420522641
 40
0.4829635803
 40
0.5229913927
 40
0.5619187895
 40
0.5809060914
 40
0.5995424661
 40
0.6178045764
 40
0.6356701969
 40
0.6531183251
 40
0.6701293023
 40
0.6866849476
 40
0.7027687049
 40
0.7183658093
 40
0.7334634735
 40
0.748051102
 40
0.7621205364
 40
0.775666338
 40
0.7886861165
 40
0.80118091
 40
0.8131556246
 40
0.8246195368
 40
0.8355868614
 40
0.8460773746
 40
0.8561170709
 40
0.8657388093
 40
0.8749828734
 40
0.883897336
 40
0.8925380844
 40
0.9009683539
 40
0.9092576448
 40
0.9174799893
 40
0.9257116745
 40
0.9340286683
 40
0.9425040901
 40
0.9512060472
 40
0.9601960574
 40
0.9695281236
 40
0.9792484003
 40
0.9893953165
 40
1.0
 40
1.0
 40
1.0
 40
1.0
 10
15.6018127064
 20
12.963970536
 30
0.0
 10
15.5993803585
 20
12.9560994554
 30
0.0
 10
15.5946485673
 20
12.9401116725
 30
0.0
 10
15.5880188229
 20
12.9157044802
 30
0.0
 10
15.5817822527
 20
12.890622434
 30
0.0
 10
15.5759493388
 20
12.8649074703
 30
0.0
 10
15.5705297398
 20
12.8386022856
 30
0.0
 10
15.5638175759
 20
12.8025345647
 30
0.0
 10
15.5565451129
 20
12.7562813364
 30
0.0
 10
15.5496551814
 20
12.6995491556
 30
0.0
 10
15.5445853372
 20
12.6415612202
 30
0.0
 10
15.541369589
 20
12.5827036908
 30
0.0
 10
15.5400295319
 20
12.5233678826
 30
0.0
 10
15.5405741617
 20
12.4639485856
 30
0.0
 10
15.5429998211
 20
12.4048410835
 30
0.0
 10
15.5472902257
 20
12.3464386152
 30
0.0
 10
15.55341657
 20
12.2891293787
 30
0.0
 10
15.5613377576
 20
12.2332949505
 30
0.0
 10
15.5694560201
 20
12.1879341203
 30
0.0
 10
15.5768294987
 20
12.1526873981
 30
0.0
 10
15.582725898
 20
12.1270680104
 30
0.0
 10
15.5890242972
 20
12.1020882208
 30
0.0
 10
15.5957142561
 20
12.0777895213
 30
0.0
 10
15.602784597
 20
12.0542123648
 30
0.0
 10
15.6102235373
 20
12.0313959578
 30
0.0
 10
15.6180186836
 20
12.009378228
 30
0.0
 10
15.6261570633
 20
11.9881957501
 30
0.0
 10
15.6346251495
 20
11.9678836844
 30
0.0
 10
15.6434088913
 20
11.9484757158
 30
0.0
 10
15.6524937455
 20
11.9300039962
 30
0.0
 10
15.6618647136
 20
11.9124990905
 30
0.0
 10
15.6715063807
 20
11.8959899282
 30
0.0
 10
15.681402961
 20
11.8805037611
 30
0.0
 10
15.6915383466
 20
11.8660661307
 30
0.0
 10
15.70189616
 20
11.8527008483
 30
0.0
 10
15.7124598084
 20
11.8404299932
 30
0.0
 10
15.7232125335
 20
11.8292739326
 30
0.0
 10
15.7341374464
 20
11.8192513706
 30
0.0
 10
15.745217532
 20
11.8103794249
 30
0.0
 10
15.7564355988
 20
11.8026737248
 30
0.0
 10
15.76777415
 20
11.7961485037
 30
0.0
 10
15.7792151615
 20
11.7908166355
 30
0.0
 10
15.7907397869
 20
11.7866895428
 30
0.0
 10
15.8023280689
 20
11.7837769086
 30
0.0
 10
15.8139587961
 20
11.7820861839
 30
0.0
 10
15.8256096511
 20
11.7816219927
 30
0.0
 10
15.8372576983
 20
11.7823856491
 30
0.0
 10
15.8488800926
 20
11.7843750019
 30
0.0
 10
15.860454754
 20
11.7875846852
 30
0.0
 10
15.8719607745
 20
11.7920066478
 30
0.0
 10
15.883378497
 20
11.7976307514
 30
0.0
 10
15.8946892744
 20
11.8044451717
 30
0.0
 10
15.9058753551
 20
11.8124368184
 30
0.0
 10
15.9169188614
 20
11.8215906564
 30
0.0
 10
15.9240139008
 20
11.8283052092
 30
0.0
 10
15.9275345449
 20
11.8318389056
 30
0.0
  0
SPLINE
  5
354
100
AcDbEntity
  8
02___PRT_ALL_AXES
100
AcDbSpline
 62
7
  6
CONTINUOUS
 70
0
 71
3
 72
9
 73
5
 74
0
 42
0.0000001
 43
0.0000001
 44
0.0000000001
 40
0.0
 40
0.0
 40
0.0
 40
0.0
 40
0.2435640444
 40
1.0
 40
1.0
 40
1.0
 40
1.0
 10
15.9275345449
 20
11.8318389056
 30
0.0
 10
15.9289552821
 20
11.8332649099
 30
0.0
 10
15.934718698
 20
11.8391888926
 30
0.0
 10
15.9402072571
 20
11.8453785572
 30
0.0
 10
15.9442132907
 20
11.8501779824
 30
0.0
  0
SPLINE
  5
355
100
AcDbEntity
  8
02___PRT_ALL_AXES
100
AcDbSpline
 62
7
  6
CONTINUOUS
 70
0
 71
3
 72
52
 73
48
 74
0
 42
0.0000001
 43
0.0000001
 44
0.0000000001
 40
0.0
 40
0.0
 40
0.0
 40
0.0
 40
0.0330501689
 40
0.067381113
 40
0.1028692285
 40
0.1393809379
 40
0.1767743311
 40
0.2149005997
 40
0.2536053779
 40
0.2927300164
 40
0.3321128105
 40
0.3715901984
 40
0.4109979413
 40
0.4501722981
 40
0.488951205
 40
0.5271754706
 40
0.5646899978
 40
0.6013450491
 40
0.6369975768
 40
0.6715126465
 40
0.7047649959
 40
0.7208824187
 40
0.7366425266
 40
0.7520332115
 40
0.7670433515
 40
0.7816628968
 40
0.7958829656
 40
0.8096959508
 40
0.8230956409
 40
0.8360773558
 40
0.8486381015
 40
0.8607767452
 40
0.8724942141
 40
0.8837937199
 40
0.8946810117
 40
0.9051646563
 40
0.9152563454
 40
0.9249712222
 40
0.9343282166
 40
0.943350367
 40
0.9520651008
 40
0.9605044282
 40
0.9687049989
 40
0.9767079617
 40
0.9845585738
 40
0.9923055278
 40
1.0
 40
1.0
 40
1.0
 40
1.0
 10
15.5760645463
 20
12.9770243453
 30
0.0
 10
15.5717367778
 20
12.9630196814
 30
0.0
 10
15.5635026123
 20
12.9342828473
 30
0.0
 10
15.5525776091
 20
12.8899771136
 30
0.0
 10
15.5428830516
 20
12.8438162026
 30
0.0
 10
15.5344668951
 20
12.7960264039
 30
0.0
 10
15.5273704896
 20
12.746840928
 30
0.0
 10
15.5216288089
 20
12.696500335
 30
0.0
 10
15.5172701364
 20
12.6452508601
 30
0.0
 10
15.5143159509
 20
12.5933433034
 30
0.0
 10
15.512780811
 20
12.541031738
 30
0.0
 10
15.5126722829
 20
12.4885722511
 30
0.0
 10
15.5139909019
 20
12.4362216662
 30
0.0
 10
15.51673017
 20
12.3842362652
 30
0.0
 10
15.5208765874
 20
12.3328705096
 30
0.0
 10
15.5264097188
 20
12.2823757766
 30
0.0
 10
15.5333023029
 20
12.2329990795
 30
0.0
 10
15.5415203876
 20
12.1849819029
 30
0.0
 10
15.5510235271
 20
12.1385587074
 30
0.0
 10
15.5617649425
 20
12.0939567131
 30
0.0
 10
15.5718057629
 20
12.0581228815
 30
0.0
 10
15.5804386256
 20
12.0305554214
 30
0.0
 10
15.587120975
 20
12.0106832481
 30
0.0
 10
15.5940699292
 20
11.9914239553
 30
0.0
 10
15.6012770501
 20
11.9728010285
 30
0.0
 10
15.6087335042
 20
11.9548372414
 30
0.0
 10
15.6164301853
 20
11.93755453
 30
0.0
 10
15.6243577002
 20
11.9209739898
 30
0.0
 10
15.6325063917
 20
11.9051158434
 30
0.0
 10
15.6408663532
 20
11.8899994179
 30
0.0
 10
15.6494274478
 20
11.8756431221
 30
0.0
 10
15.6581793264
 20
11.8620644261
 30
0.0
 10
15.6671114505
 20
11.849279846
 30
0.0
 10
15.6762131129
 20
11.8373049318
 30
0.0
 10
15.6854734613
 20
11.8261542609
 30
0.0
 10
15.6948815194
 20
11.8158414391
 30
0.0
 10
15.7044262056
 20
11.8063791096
 30
0.0
 10
15.7140963442
 20
11.7977789711
 30
0.0
 10
15.7238806655
 20
11.7900518049
 30
0.0
 10
15.7337677853
 20
11.783207506
 30
0.0
 10
15.7437461641
 20
11.7772551128
 30
0.0
 10
15.7538040239
 20
11.7722028188
 30
0.0
 10
15.7639292893
 20
11.7680579492
 30
0.0
 10
15.7741093483
 20
11.7648268836
 30
0.0
 10
15.7843314624
 20
11.7625149144
 30
0.0
 10
15.7945809732
 20
11.7611260508
 30
0.0
 10
15.801433364
 20
11.7608168735
 30
0.0
 10
15.8048459463
 20
11.7608168733
 30
0.0
  0
SPLINE
  5
356
100
AcDbEntity
  8
0
100
AcDbSpline
 62
7
  6
CONTINUOUS
 70
0
 71
3
 72
37
 73
33
 74
0
 42
0.0000001
 43
0.0000001
 44
0.0000000001
 40
0.0
 40
0.0
 40
0.0
 40
0.0
 40
0.0215775889
 40
0.0432442821
 40
0.0650878342
 40
0.0871933794
 40
0.1096423039
 40
0.132511343
 40
0.1558718926
 40
0.1797895241
 40
0.2043237584
 40
0.2295280067
 40
0.255449617
 40
0.2821300806
 40
0.3096053187
 40
0.3379059622
 40
0.3670576874
 40
0.3970815963
 40
0.4279945319
 40
0.4598093778
 40
0.4925354108
 40
0.5261785765
 40
0.5607417082
 40
0.5962248112
 40
0.6326252875
 40
0.6699380854
 40
0.7081559138
 40
0.7472694144
 40
0.7872672644
 40
0.8281364108
 40
0.9124239395
 40
1.0
 40
1.0
 40
1.0
 40
1.0
 10
15.6553270449
 20
14.0041501999
 30
0.0
 10
15.6500480838
 20
14.0041502061
 30
0.0
 10
15.6394646589
 20
14.003779565
 30
0.0
 10
15.6236161015
 20
14.0021134684
 30
0.0
 10
15.607792047
 20
13.9993384082
 30
0.0
 10
15.5920059619
 20
13.995456992
 30
0.0
 10
15.5762697773
 20
13.9904728225
 30
0.0
 10
15.5605955387
 20
13.9843903352
 30
0.0
 10
15.5449949649
 20
13.9772147508
 30
0.0
 10
15.5294795526
 20
13.9689521033
 30
0.0
 10
15.5140606052
 20
13.9596091126
 30
0.0
 10
15.4987492889
 20
13.9491931608
 30
0.0
 10
15.4835566114
 20
13.9377123608
 30
0.0
 10
15.4684934707
 20
13.9251755065
 30
0.0
 10
15.4535706963
 20
13.9115920515
 30
0.0
 10
15.4387990159
 20
13.8969721734
 30
0.0
 10
15.4241890561
 20
13.8813267734
 30
0.0
 10
15.4097513827
 20
13.8646674374
 30
0.0
 10
15.3954964675
 20
13.8470064734
 30
0.0
 10
15.3814346489
 20
13.8283569349
 30
0.0
 10
15.3675761764
 20
13.8087325695
 30
0.0
 10
15.3539311907
 20
13.7881478301
 30
0.0
 10
15.3405096615
 20
13.7666179033
 30
0.0
 10
15.3273214305
 20
13.7441586619
 30
0.0
 10
15.3143762057
 20
13.720786655
 30
0.0
 10
15.301683501
 20
13.6965191306
 30
0.0
 10
15.2892526525
 20
13.6713739974
 30
0.0
 10
15.2770928657
 20
13.6453698257
 30
0.0
 10
15.2652130237
 20
13.6185257536
 30
0.0
 10
15.2495980954
 20
13.5812574215
 30
0.0
 10
15.2308734051
 20
13.5326840631
 30
0.0
 10
15.2171329947
 20
13.4929365349
 30
0.0
 10
15.210458315
 20
13.4725772452
 30
0.0
  0
SPLINE
  5
357
100
AcDbEntity
  8
0
100
AcDbSpline
 62
7
  6
CONTINUOUS
 70
0
 71
3
 72
15
 73
11
 74
0
 42
0.0000001
 43
0.0000001
 44
0.0000000001
 40
0.0
 40
0.0
 40
0.0
 40
0.0
 40
0.0831993384
 40
0.1727748359
 40
0.273585201
 40
0.3885353914
 40
0.5189149717
 40
0.6648370577
 40
0.8256375817
 40
1.0
 40
1.0
 40
1.0
 40
1.0
 10
15.1692159732
 20
13.3230532441
 30
0.0
 10
15.1690751597
 20
13.3230532329
 30
0.0
 10
15.1687810986
 20
13.3230055515
 30
0.0
 10
15.1683606617
 20
13.3227995408
 30
0.0
 10
15.1679593136
 20
13.3224682325
 30
0.0
 10
15.1675799343
 20
13.3220187475
 30
0.0
 10
15.1672256054
 20
13.3214574124
 30
0.0
 10
15.1669003937
 20
13.3207916397
 30
0.0
 10
15.1666086814
 20
13.320030552
 30
0.0
 10
15.1664452929
 20
13.3194867903
 30
0.0
 10
15.1663691724
 20
13.3192016711
 30
0.0
  0
SPLINE
  5
358
100
AcDbEntity
  8
02___PRT_ALL_AXES
100
AcDbSpline
 62
7
  6
CONTINUOUS
 70
0
 71
3
 72
46
 73
42
 74
0
 42
0.0000001
 43
0.0000001
 44
0.0000000001
 40
0.0
 40
0.0
 40
0.0
 40
0.0
 40
0.0316429684
 40
0.0618824955
 40
0.0907800758
 40
0.1184161794
 40
0.1448921858
 40
0.1703319487
 40
0.1948826649
 40
0.2068805243
 40
0.2187217956
 40
0.230430994
 40
0.2420337066
 40
0.2535564189
 40
0.2650263101
 40
0.2764710284
 40
0.2879184487
 40
0.299396421
 40
0.3109325221
 40
0.3225538136
 40
0.3342866207
 40
0.3461563366
 40
0.3581872536
 40
0.3828169678
 40
0.4083510059
 40
0.4349342902
 40
0.4626884531
 40
0.4917127671
 40
0.5220857792
 40
0.5538672576
 40
0.5871001817
 40
0.621812674
 40
0.6580197222
 40
0.6957247353
 40
0.7349208858
 40
0.7755922596
 40
0.8177148728
 40
0.8612575096
 40
0.9061824806
 40
0.9524461855
 40
1.0
 40
1.0
 40
1.0
 40
1.0
 10
15.4383818796
 20
11.316712836
 30
0.0
 10
15.4447113848
 20
11.3091297683
 30
0.0
 10
15.4574810846
 20
11.2946199076
 30
0.0
 10
15.4774278912
 20
11.2744678449
 30
0.0
 10
15.4976934695
 20
11.2564648092
 30
0.0
 10
15.5182441869
 20
11.2406440372
 30
0.0
 10
15.5390474215
 20
11.2270347424
 30
0.0
 10
15.5600675818
 20
11.2156642955
 30
0.0
 10
15.5778754833
 20
11.2080155829
 30
0.0
 10
15.5921560267
 20
11.2030771776
 30
0.0
 10
15.6028143552
 20
11.1999721203
 30
0.0
 10
15.6134963041
 20
11.1974397427
 30
0.0
 10
15.6241973154
 20
11.1954811759
 30
0.0
 10
15.6349124973
 20
11.1940974372
 30
0.0
 10
15.6456370015
 20
11.1932892265
 30
0.0
 10
15.6563659332
 20
11.1930569714
 30
0.0
 10
15.6670943896
 20
11.193400782
 30
0.0
 10
15.6778174708
 20
11.1943204795
 30
0.0
 10
15.6885302853
 20
11.1958155974
 30
0.0
 10
15.6992279889
 20
11.1978853796
 30
0.0
 10
15.7099057022
 20
11.2005287399
 30
0.0
 10
15.7205588717
 20
11.2037445016
 30
0.0
 10
15.7348335031
 20
11.2088320214
 30
0.0
 10
15.7526304539
 20
11.2166666972
 30
0.0
 10
15.773631008
 20
11.2282549922
 30
0.0
 10
15.7944112964
 20
11.2420796305
 30
0.0
 10
15.814935851
 20
11.2581130547
 30
0.0
 10
15.8351719441
 20
11.2763255675
 30
0.0
 10
15.8550866352
 20
11.2966844501
 30
0.0
 10
15.8746473826
 20
11.3191539575
 30
0.0
 10
15.8938218557
 20
11.3436950624
 30
0.0
 10
15.912578015
 20
11.3702653964
 30
0.0
 10
15.9308842438
 20
11.3988191588
 30
0.0
 10
15.9487094306
 20
11.4293071403
 30
0.0
 10
15.9660230859
 20
11.4616767514
 30
0.0
 10
15.9827954614
 20
11.4958720789
 30
0.0
 10
15.9989976056
 20
11.5318339941
 30
0.0
 10
16.0146014828
 20
11.5695002015
 30
0.0
 10
16.0295800349
 20
11.6088054685
 30
0.0
 10
16.0439071585
 20
11.6496813117
 30
0.0
 10
16.0528878375
 20
11.6775596893
 30
0.0
 10
16.0572705445
 20
11.6917421342
 30
0.0
  0
SPLINE
  5
359
100
AcDbEntity
  8
LAYER_CUT_FEAT
100
AcDbSpline
 62
7
  6
CONTINUOUS
 70
0
 71
3
 72
11
 73
7
 74
0
 42
0.0000001
 43
0.0000001
 44
0.0000000001
 40
0.0
 40
0.0
 40
0.0
 40
0.0
 40
0.2355824078
 40
0.4772371316
 40
0.7305109764
 40
1.0
 40
1.0
 40
1.0
 40
1.0
 10
15.6730930052
 20
11.3847982267
 30
0.0
 10
15.6738384569
 20
11.384798222
 30
0.0
 10
15.6753517786
 20
11.384933463
 30
0.0
 10
15.6775939813
 20
11.3855366829
 30
0.0
 10
15.6798076717
 20
11.3865340607
 30
0.0
 10
15.6812082366
 20
11.3874249152
 30
0.0
 10
15.6818989563
 20
11.3879249905
 30
0.0
  0
SPLINE
  5
35A
100
AcDbEntity
  8
02___PRT_ALL_AXES
100
AcDbSpline
 62
7
  6
CONTINUOUS
 70
0
 71
3
 72
37
 73
33
 74
0
 42
0.0000001
 43
0.0000001
 44
0.0000000001
 40
0.0
 40
0.0
 40
0.0
 40
0.0
 40
0.0212771216
 40
0.0426480253
 40
0.0642049756
 40
0.0860373
 40
0.1082301496
 40
0.130863498
 40
0.1540114047
 40
0.1777415421
 40
0.2021149631
 40
0.2271860695
 40
0.2530027401
 40
0.2796065736
 40
0.3070332081
 40
0.335312685
 40
0.3644698332
 40
0.394524654
 40
0.4254926948
 40
0.4573854041
 40
0.4902104624
 40
0.5239720875
 40
0.5586713133
 40
0.594306243
 40
0.6308722793
 40
0.668362331
 40
0.7067670012
 40
0.7460747551
 40
0.7862720767
 40
0.8273435963
 40
0.9120357929
 40
1.0
 40
1.0
 40
1.0
 40
1.0
 10
15.635984764
 20
11.2141502027
 30
0.0
 10
15.6407210923
 20
11.214150201
 30
0.0
 10
15.6502181711
 20
11.2144938885
 30
0.0
 10
15.6644382701
 20
11.2160387921
 30
0.0
 10
15.6786347849
 20
11.2186118417
 30
0.0
 10
15.6927947924
 20
11.2222104109
 30
0.0
 10
15.7069068504
 20
11.226830935
 30
0.0
 10
15.7209594361
 20
11.2324689886
 30
0.0
 10
15.7349413723
 20
11.2391193585
 30
0.0
 10
15.7488416831
 20
11.2467761004
 30
0.0
 10
15.7626495914
 20
11.2554325754
 30
0.0
 10
15.776354475
 20
11.265081469
 30
0.0
 10
15.7899458376
 20
11.2757147961
 30
0.0
 10
15.8034132863
 20
11.2873238975
 30
0.0
 10
15.8167465172
 20
11.2998994312
 30
0.0
 10
15.8299353091
 20
11.3134313634
 30
0.0
 10
15.8429695236
 20
11.3279089596
 30
0.0
 10
15.8558391095
 20
11.343320779
 30
0.0
 10
15.8685341106
 20
11.3596546714
 30
0.0
 10
15.8810446758
 20
11.3768977766
 30
0.0
 10
15.8933610691
 20
11.3950365277
 30
0.0
 10
15.9054736811
 20
11.414056656
 30
0.0
 10
15.9173730403
 20
11.4339431979
 30
0.0
 10
15.9290498237
 20
11.4546805043
 30
0.0
 10
15.9404948678
 20
11.476252251
 30
0.0
 10
15.9516991765
 20
11.4986414492
 30
0.0
 10
15.9626539386
 20
11.5218304634
 30
0.0
 10
15.9733505068
 20
11.5458010043
 30
0.0
 10
15.9837805225
 20
11.5705342239
 30
0.0
 10
15.9974603944
 20
11.6048535542
 30
0.0
 10
16.0138061031
 20
11.6495456799
 30
0.0
 10
16.0257411451
 20
11.6860878463
 30
0.0
 10
16.0315223844
 20
11.7047959436
 30
0.0
  0
SPLINE
  5
35B
100
AcDbEntity
  8
LAYER_CUT_FEAT
100
AcDbSpline
 62
7
  6
CONTINUOUS
 70
0
 71
3
 72
23
 73
19
 74
0
 42
0.0000001
 43
0.0000001
 44
0.0000000001
 40
0.0
 40
0.0
 40
0.0
 40
0.0
 40
0.0454275979
 40
0.0928990947
 40
0.1425384389
 40
0.1944403862
 40
0.2486735617
 40
0.3052833873
 40
0.3642947553
 40
0.4257144047
 40
0.4895329975
 40
0.5557269158
 40
0.624259812
 40
0.6950839455
 40
0.7681413384
 40
0.8433647814
 40
0.9206787135
 40
1.0
 40
1.0
 40
1.0
 40
1.0
 10
15.6818989563
 20
11.3879249905
 30
0.0
 10
15.6880135351
 20
11.3923518945
 30
0.0
 10
15.700176296
 20
11.401884306
 30
0.0
 10
15.717788393
 20
11.4177460617
 30
0.0
 10
15.7351269475
 20
11.435445718
 30
0.0
 10
15.7521630004
 20
11.4549521751
 30
0.0
 10
15.7688697197
 20
11.4762329859
 30
0.0
 10
15.785219982
 20
11.4992525286
 30
0.0
 10
15.8011871595
 20
11.5239724639
 30
0.0
 10
15.816745007
 20
11.550351592
 30
0.0
 10
15.8318678074
 20
11.5783459223
 30
0.0
 10
15.8465304369
 20
11.6079087132
 30
0.0
 10
15.8607084436
 20
11.6389905416
 30
0.0
 10
15.8743781151
 20
11.6715393875
 30
0.0
 10
15.8875165309
 20
11.7055006963
 30
0.0
 10
15.9001016458
 20
11.7408175738
 30
0.0
 10
15.9121122268
 20
11.7774304903
 30
0.0
 10
15.919629504
 20
11.8023529349
 30
0.0
 10
15.923293069
 20
11.8150146983
 30
0.0
  0
SPLINE
  5
35C
100
AcDbEntity
  8
LAYER_CUT_FEAT
100
AcDbSpline
 62
7
  6
CONTINUOUS
 70
0
 71
3
 72
9
 73
5
 74
0
 42
0.0000001
 43
0.0000001
 44
0.0000000001
 40
0.0
 40
0.0
 40
0.0
 40
0.0
 40
0.4880992461
 40
1.0
 40
1.0
 40
1.0
 40
1.0
 10
15.923293069
 20
11.8150146983
 30
0.0
 10
15.9239470129
 20
11.8172748148
 30
0.0
 10
15.9251567244
 20
11.8219435252
 30
0.0
 10
15.9261349595
 20
11.8266655773
 30
0.0
 10
15.926581812
 20
11.8290923333
 30
0.0
  0
SPLINE
  5
35D
100
AcDbEntity
  8
0
100
AcDbSpline
 62
7
  6
CONTINUOUS
 70
0
 71
3
 72
14
 73
10
 74
0
 42
0.0000001
 43
0.0000001
 44
0.0000000001
 40
0.0
 40
0.0
 40
0.0
 40
0.0
 40
0.2713058423
 40
0.4049227874
 40
0.5353200142
 40
0.6611868288
 40
0.7813000887
 40
0.894552732
 40
1.0
 40
1.0
 40
1.0
 40
1.0
 10
15.1519901814
 20
13.165857931
 30
0.0
 10
15.1520587155
 20
13.1681652876
 30
0.0
 10
15.1520132866
 20
13.1716159377
 30
0.0
 10
15.1516552962
 20
13.1761575812
 30
0.0
 10
15.1512444897
 20
13.1794506123
 30
0.0
 10
15.1506953617
 20
13.1826068588
 30
0.0
 10
15.1500146073
 20
13.1855881963
 30
0.0
 10
15.1492107243
 20
13.1883583246
 30
0.0
 10
15.1485749149
 20
13.1901091493
 30
0.0
 10
15.1482351138
 20
13.1909394971
 30
0.0
  0
SPLINE
  5
35E
100
AcDbEntity
  8
0
100
AcDbSpline
 62
7
  6
CONTINUOUS
 70
0
 71
3
 72
15
 73
11
 74
0
 42
0.0000001
 43
0.0000001
 44
0.0000000001
 40
0.0
 40
0.0
 40
0.0
 40
0.0
 40
0.1257293899
 40
0.2567808083
 40
0.3904094107
 40
0.5237575416
 40
0.6539857104
 40
0.7783714075
 40
0.8944171277
 40
1.0
 40
1.0
 40
1.0
 40
1.0
 10
15.142311195
 20
13.2140436444
 30
0.0
 10
15.1422274497
 20
13.2136110655
 30
0.0
 10
15.1420899043
 20
13.2127208764
 30
0.0
 10
15.1419708366
 20
13.2113570323
 30
0.0
 10
15.1419363782
 20
13.2099616931
 30
0.0
 10
15.1419874549
 20
13.208569764
 30
0.0
 10
15.1421227214
 20
13.2072159772
 30
0.0
 10
15.1423387285
 20
13.205933968
 30
0.0
 10
15.1426298552
 20
13.2047556367
 30
0.0
 10
15.1428824063
 20
13.2040195273
 30
0.0
 10
15.1430225437
 20
13.2036770834
 30
0.0
  0
SPLINE
  5
35F
100
AcDbEntity
  8
02___PRT_ALL_AXES
100
AcDbSpline
 62
7
  6
CONTINUOUS
 70
0
 71
3
 72
11
 73
7
 74
0
 42
0.0000001
 43
0.0000001
 44
0.0000000001
 40
0.0
 40
0.0
 40
0.0
 40
0.0
 40
0.2418069245
 40
0.489175573
 40
0.7419591686
 40
1.0
 40
1.0
 40
1.0
 40
1.0
 10
15.6588130988
 20
11.5825672565
 30
0.0
 10
15.662686292
 20
11.5922682115
 30
0.0
 10
15.6703048438
 20
11.6119805214
 30
0.0
 10
15.681233497
 20
11.6421131922
 30
0.0
 10
15.691784207
 20
11.6731218659
 30
0.0
 10
15.6984914695
 20
11.6941460076
 30
0.0
 10
15.7017825486
 20
11.7047959436
 30
0.0
  0
SPLINE
  5
360
100
AcDbEntity
  8
0
100
AcDbSpline
 62
7
  6
CONTINUOUS
 70
0
 71
3
 72
16
 73
12
 74
0
 42
0.0000001
 43
0.0000001
 44
0.0000000001
 40
0.0
 40
0.0
 40
0.0
 40
0.0
 40
0.0389044868
 40
0.0788280197
 40
0.1650818429
 40
0.2645111395
 40
0.3799251198
 40
0.5121364891
 40
0.6606162209
 40
0.8239306565
 40
1.0
 40
1.0
 40
1.0
 40
1.0
 10
15.1304067247
 20
13.1415050437
 30
0.0
 10
15.1303266946
 20
13.1415050441
 30
0.0
 10
15.1301641822
 20
13.1414903681
 30
0.0
 10
15.1298350113
 20
13.1414010275
 30
0.0
 10
15.1294246541
 20
13.1411690179
 30
0.0
 10
15.1289747482
 20
13.1407371325
 30
0.0
 10
15.1285555004
 20
13.1401556483
 30
0.0
 10
15.1281724985
 20
13.139434298
 30
0.0
 10
15.1278315767
 20
13.1385854619
 30
0.0
 10
15.1275389921
 20
13.1376244303
 30
0.0
 10
15.127384843
 20
13.1369428668
 30
0.0
 10
15.1273160028
 20
13.1365872785
 30
0.0
  0
ENDSEC
  0
SECTION
  2
OBJECTS
  0
DICTIONARY
  5
C
100
AcDbDictionary
280
0
281
1
  3
ACAD_GROUP
350
D
  3
ACAD_MLINESTYLE
350
17
  3
ACAD_LAYOUT
350
1A
  3
ACAD_PLOTSETTINGS
350
19
  3
ACAD_PLOTSTYLENAME
350
E
  0
DICTIONARY
  5
D
102
{ACAD_REACTORS
330
C
102
}
100
AcDbDictionary
280
0
281
1
  0
ACDBDICTIONARYWDFLT
  5
E
102
{ACAD_REACTORS
330
C
102
}
100
AcDbDictionary
281
1
  3
Normal
350
F
100
AcDbDictionaryWithDefault
340
F
  0
DICTIONARY
  5
17
102
{ACAD_REACTORS
330
C
102
}
100
AcDbDictionary
280
0
281
1
  3
Standard
350
18
  0
DICTIONARY
  5
19
102
{ACAD_REACTORS
330
C
102
}
100
AcDbDictionary
281
1
  0
DICTIONARY
  5
1A
102
{ACAD_REACTORS
330
C
102
}
100
AcDbDictionary
281
1
  3
Model
350
361
  3
Layout1
350
362
  0
ACDBPLACEHOLDER
  5
F
102
{ACAD_REACTORS
330
E
102
}
  0
MLINESTYLE
  5
18
102
{ACAD_REACTORS
330
17
102
}
100
AcDbMlineStyle
  2
STANDARD
 70
0
  3

 62
256
 51
90.0
 52
90.0
 71
2
 49
0.5
 62
256
  6
BYLAYER
 49
-0.5
 62
256
  6
BYLAYER
  0
LAYOUT
  5
361
102
{ACAD_REACTORS
330
1A
102
}
100
AcDbPlotSettings
  1

  2
none_device
  4
ANSI_C_(22.00_x_17.00_Inches)
  6

 40
0.0
 41
0.0
 42
0.0
 43
0.0
 44
558.8
 45
431.8
 46
0.0
 47
0.0
 48
0.0
 49
0.0
140
0.0
141
0.0
142
1.0
143
1.0
 70
1024
 72
0
 73
0
 74
0
  7

 75
0
147
1.0
148
0.0
149
0.0
100
AcDbLayout
  1
Model
 70
0
 71
0
 10
0.0
 20
0.0
 11
22.0
 21
17.0
 12
0.0
 22
0.0
 32
0.0
 14
0.0
 24
0.0
 34
0.0
 15
0.0
 25
0.0
 35
0.0
146
0.0
 13
0.0
 23
0.0
 33
0.0
 16
1.0
 26
0.0
 36
0.0
 17
0.0
 27
1.0
 37
0.0
 76
0
330
222
345
0
346
0
  0
LAYOUT
  5
362
102
{ACAD_REACTORS
330
1A
102
}
100
AcDbPlotSettings
  1

  2
none_device
  4
ANSI_C_(22.00_x_17.00_Inches)
  6

 40
0.0
 41
0.0
 42
0.0
 43
0.0
 44
558.8
 45
431.8
 46
0.0
 47
0.0
 48
0.0
 49
0.0
140
0.0
141
0.0
142
1.0
143
1.0
 70
0
 72
0
 73
0
 74
0
  7

 75
0
147
1.0
148
0.0
149
0.0
100
AcDbLayout
  1
Layout1
 70
0
 71
1
 10
0.0
 20
0.0
 11
22.0
 21
17.0
 12
0.0
 22
0.0
 32
0.0
 14
0.0
 24
0.0
 34
0.0
 15
0.0
 25
0.0
 35
0.0
146
0.0
 13
0.0
 23
0.0
 33
0.0
 16
1.0
 26
0.0
 36
0.0
 17
0.0
 27
1.0
 37
0.0
 76
0
330
223
345
0
346
0
  0
ENDSEC
  0
EOF