999
DXF file: _cgs_temp_output.dxf
999
Pro/ENGINEER 2015110 by Parametric Technology Corporation
  0
SECTION
  2
HEADER
  9
$ACADVER
  1
AC1021
  9
$DWGCODEPAGE
  3
ANSI_1252
  9
$EXTMAX
 10
22.0
 20
17.0
 30
0.0
  9
$EXTMIN
 10
0.0
 20
0.0
 30
0.0
  9
$LIMMIN
 10
0.0
 20
0.0
  9
$LIMMAX
 10
22.0
 20
17.0
  9
$VIEWCTR
 10
11.0
 20
8.5
  9
$VIEWSIZE
 40
17.0
  9
$CLAYER
  8
0
  9
$LTSCALE
 40
1.21
  9
$CELTYPE
  6
BYLAYER
  9
$DIMSCALE
 40
1.0
  9
$DIMASZ
 40
0.1875
  9
$DIMEXO
 40
0.0625
  9
$DIMDLI
 40
0.836
  9
$DIMEXE
 40
0.125
  9
$DIMCEN
 40
0.198
  9
$DIMLFAC
 40
1.0
  9
$DIMBLK
  1
_CLOSED
  9
$DIMALT
 70
0
  9
$DIMALTF
 40
25.4
  9
$DIMTXT
 40
0.15625
  9
$DIMTOL
 70
0
  9
$DIMLIM
 70
0
  9
$DIMTFAC
 40
1.0
  9
$DIMGAP
 40
0.09
  9
$DIMDSEP
 70
46
  9
$AUNITS
 70
0
  9
$PDMODE
 70
3
  9
$PDSIZE
 40
0.3125
  9
$HANDSEED
  5
2E8
  9
$TILEMODE
 70
1
  9
$MEASUREMENT
 70
0
  9
$INSUNITS
 70
1
  0
ENDSEC
  0
SECTION
  2
CLASSES
  0
CLASS
  1
ACDBDICTIONARYWDFLT
  2
AcDbDictionaryWithDefault
  3
AutoCAD 2000
 90
0
 91
1
280
0
281
0
  0
CLASS
  1
ACDBPLACEHOLDER
  2
AcDbPlaceHolder
  3
AutoCAD 2000
 90
0
 91
1
280
0
281
0
  0
CLASS
  1
LAYOUT
  2
AcDbLayout
  3
AutoCAD 2000
 90
0
 91
0
280
0
281
0
  0
ENDSEC
  0
SECTION
  2
TABLES
  0
TABLE
  2
VPORT
  5
8
100
AcDbSymbolTable
 70
2
  0
VPORT
  5
1F4
100
AcDbSymbolTableRecord
100
AcDbViewportTableRecord
  2
*ACTIVE
 70
0
 10
0.0
 20
0.0
 11
1.0
 21
1.0
 12
11.0
 22
8.5
 13
0.0
 23
0.0
 14
1.0
 24
1.0
 15
0.0
 25
0.0
 16
0.0
 26
0.0
 36
1.0
 17
0.0
 27
0.0
 37
0.0
 40
17.0
 41
1.2941176471
 42
50.0
 43
0.0
 44
0.0
 50
0.0
 51
0.0
 71
0
 72
100
 73
1
 74
1
 75
0
 76
0
 77
0
 78
0
  0
ENDTAB
  0
TABLE
  2
LTYPE
  5
5
100
AcDbSymbolTable
 70
6
  0
LTYPE
  5
14
100
AcDbSymbolTableRecord
100
AcDbLinetypeTableRecord
  2
BYBLOCK
 70
0
  3

 72
65
 73
0
 40
0.0
  0
LTYPE
  5
15
100
AcDbSymbolTableRecord
100
AcDbLinetypeTableRecord
  2
BYLAYER
 70
0
  3

 72
65
 73
0
 40
0.0
  0
LTYPE
  5
16
100
AcDbSymbolTableRecord
100
AcDbLinetypeTableRecord
  2
CONTINUOUS
 70
64
  3
Solid line
 72
65
 73
0
 40
0.0
  0
LTYPE
  5
1F5
100
AcDbSymbolTableRecord
100
AcDbLinetypeTableRecord
  2
CENTER
 70
64
  3
____ _ ____ _ ____ _ ____ _ ____ _ ____ _ ____
 72
65
 73
4
 40
0.6
 49
0.375
 74
0
 49
-0.075
 74
0
 49
0.075
 74
0
 49
-0.075
 74
0
  0
LTYPE
  5
1F6
100
AcDbSymbolTableRecord
100
AcDbLinetypeTableRecord
  2
HIDDEN
 70
64
  3
- - - - - - - - - - - - - - - - - - - -
 72
65
 73
2
 40
0.2
 49
0.1
 74
0
 49
-0.1
 74
0
  0
LTYPE
  5
1F7
100
AcDbSymbolTableRecord
100
AcDbLinetypeTableRecord
  2
PHANTOM
 70
64
  3
_____ _ _ _____ _ _ _____ _ _ _____
 72
65
 73
6
 40
0.8
 49
0.45
 74
0
 49
-0.05
 74
0
 49
0.1
 74
0
 49
-0.05
 74
0
 49
0.1
 74
0
 49
-0.05
 74
0
  0
LTYPE
  5
1F8
100
AcDbSymbolTableRecord
100
AcDbLinetypeTableRecord
  2
DOT
 70
64
  3
. . . . . . . . . . . . . . . . . . . .
 72
65
 73
2
 40
0.2
 49
0.1
 74
0
 49
-0.1
 74
0
  0
LTYPE
  5
1F9
100
AcDbSymbolTableRecord
100
AcDbLinetypeTableRecord
  2
DASHED
 70
64
  3
- - - - - - - - - - - - - - - - - - - -
 72
65
 73
2
 40
0.2
 49
0.1
 74
0
 49
-0.1
 74
0
  0
ENDTAB
  0
TABLE
  2
LAYER
  5
2
100
AcDbSymbolTable
 70
36
  0
LAYER
  5
10
100
AcDbSymbolTableRecord
100
AcDbLayerTableRecord
  2
0
 70
0
 62
7
  6
CONTINUOUS
370
-3
390
F
  0
LAYER
  5
1FA
100
AcDbSymbolTableRecord
100
AcDbLayerTableRecord
  2
DEFAULT_1
 70
0
 62
7
  6
CENTER
370
-3
390
F
  0
LAYER
  5
1FB
100
AcDbSymbolTableRecord
100
AcDbLayerTableRecord
  2
DEFAULT_2
 70
0
 62
8
  6
HIDDEN
370
-3
390
F
  0
LAYER
  5
1FC
100
AcDbSymbolTableRecord
100
AcDbLayerTableRecord
  2
DEFAULT_3
 70
0
 62
7
  6
PHANTOM
370
-3
390
F
  0
LAYER
  5
1FD
100
AcDbSymbolTableRecord
100
AcDbLayerTableRecord
  2
01_ALL_DTM_PLN
 70
0
 62
7
  6
CONTINUOUS
370
-3
390
F
  0
LAYER
  5
1FE
100
AcDbSymbolTableRecord
100
AcDbLayerTableRecord
  2
01__ASM_ALL_DTM_PLN
 70
0
 62
7
  6
CONTINUOUS
370
-3
390
F
  0
LAYER
  5
1FF
100
AcDbSymbolTableRecord
100
AcDbLayerTableRecord
  2
01__ASM_DEF_DTM_PLN
 70
0
 62
7
  6
CONTINUOUS
370
-3
390
F
  0
LAYER
  5
200
100
AcDbSymbolTableRecord
100
AcDbLayerTableRecord
  2
01___PRT_ALL_DTM_PLN
 70
0
 62
7
  6
CONTINUOUS
370
-3
390
F
  0
LAYER
  5
201
100
AcDbSymbolTableRecord
100
AcDbLayerTableRecord
  2
01___PRT_DEF_DTM_PLN
 70
0
 62
7
  6
CONTINUOUS
370
-3
390
F
  0
LAYER
  5
202
100
AcDbSymbolTableRecord
100
AcDbLayerTableRecord
  2
02_ALL_AXES
 70
0
 62
7
  6
CONTINUOUS
370
-3
390
F
  0
LAYER
  5
203
100
AcDbSymbolTableRecord
100
AcDbLayerTableRecord
  2
02__ASM_ALL_AXES
 70
0
 62
7
  6
CONTINUOUS
370
-3
390
F
  0
LAYER
  5
204
100
AcDbSymbolTableRecord
100
AcDbLayerTableRecord
  2
02___PRT_ALL_AXES
 70
0
 62
7
  6
CONTINUOUS
370
-3
390
F
  0
LAYER
  5
205
100
AcDbSymbolTableRecord
100
AcDbLayerTableRecord
  2
03_ALL_CURVES
 70
0
 62
7
  6
CONTINUOUS
370
-3
390
F
  0
LAYER
  5
206
100
AcDbSymbolTableRecord
100
AcDbLayerTableRecord
  2
03__ASM_ALL_CURVES
 70
0
 62
7
  6
CONTINUOUS
370
-3
390
F
  0
LAYER
  5
207
100
AcDbSymbolTableRecord
100
AcDbLayerTableRecord
  2
03___PRT_ALL_CURVES
 70
0
 62
7
  6
CONTINUOUS
370
-3
390
F
  0
LAYER
  5
208
100
AcDbSymbolTableRecord
100
AcDbLayerTableRecord
  2
04_ALL_DTM_PNT
 70
0
 62
7
  6
CONTINUOUS
370
-3
390
F
  0
LAYER
  5
209
100
AcDbSymbolTableRecord
100
AcDbLayerTableRecord
  2
04__ASM_ALL_DTM_PNT
 70
0
 62
7
  6
CONTINUOUS
370
-3
390
F
  0
LAYER
  5
20A
100
AcDbSymbolTableRecord
100
AcDbLayerTableRecord
  2
04___PRT_ALL_DTM_PNT
 70
0
 62
7
  6
CONTINUOUS
370
-3
390
F
  0
LAYER
  5
20B
100
AcDbSymbolTableRecord
100
AcDbLayerTableRecord
  2
05_ALL_DTM_CSYS
 70
0
 62
7
  6
CONTINUOUS
370
-3
390
F
  0
LAYER
  5
20C
100
AcDbSymbolTableRecord
100
AcDbLayerTableRecord
  2
05__ASM_ALL_DTM_CSYS
 70
0
 62
7
  6
CONTINUOUS
370
-3
390
F
  0
LAYER
  5
20D
100
AcDbSymbolTableRecord
100
AcDbLayerTableRecord
  2
05__ASM_DEF_DTM_CSYS
 70
0
 62
7
  6
CONTINUOUS
370
-3
390
F
  0
LAYER
  5
20E
100
AcDbSymbolTableRecord
100
AcDbLayerTableRecord
  2
05___PRT_ALL_DTM_CSYS
 70
0
 62
7
  6
CONTINUOUS
370
-3
390
F
  0
LAYER
  5
20F
100
AcDbSymbolTableRecord
100
AcDbLayerTableRecord
  2
05___PRT_DEF_DTM_CSYS
 70
0
 62
7
  6
CONTINUOUS
370
-3
390
F
  0
LAYER
  5
210
100
AcDbSymbolTableRecord
100
AcDbLayerTableRecord
  2
06_ALL_SURFS
 70
0
 62
7
  6
CONTINUOUS
370
-3
390
F
  0
LAYER
  5
211
100
AcDbSymbolTableRecord
100
AcDbLayerTableRecord
  2
06__ASM_ALL_SURFS
 70
0
 62
7
  6
CONTINUOUS
370
-3
390
F
  0
LAYER
  5
212
100
AcDbSymbolTableRecord
100
AcDbLayerTableRecord
  2
06___PRT_ALL_SURFS
 70
0
 62
7
  6
CONTINUOUS
370
-3
390
F
  0
LAYER
  5
213
100
AcDbSymbolTableRecord
100
AcDbLayerTableRecord
  2
07__ASM_ALL_SKELETONS
 70
0
 62
7
  6
CONTINUOUS
370
-3
390
F
  0
LAYER
  5
214
100
AcDbSymbolTableRecord
100
AcDbLayerTableRecord
  2
LAYER_DIM
 70
0
 62
7
  6
CONTINUOUS
370
-3
390
F
  0
LAYER
  5
215
100
AcDbSymbolTableRecord
100
AcDbLayerTableRecord
  2
LAYER_FEATURE
 70
0
 62
7
  6
CONTINUOUS
370
-3
390
F
  0
LAYER
  5
216
100
AcDbSymbolTableRecord
100
AcDbLayerTableRecord
  2
LAYER_GEOM_FEAT
 70
0
 62
7
  6
CONTINUOUS
370
-3
390
F
  0
LAYER
  5
217
100
AcDbSymbolTableRecord
100
AcDbLayerTableRecord
  2
LAYER_PARAMETER_DIM
 70
0
 62
7
  6
CONTINUOUS
370
-3
390
F
  0
LAYER
  5
218
100
AcDbSymbolTableRecord
100
AcDbLayerTableRecord
  2
LAYER_PROTRUSION_FEAT
 70
0
 62
7
  6
CONTINUOUS
370
-3
390
F
  0
LAYER
  5
219
100
AcDbSymbolTableRecord
100
AcDbLayerTableRecord
  2
LAYER_ROUND_FEAT
 70
0
 62
7
  6
CONTINUOUS
370
-3
390
F
  0
ENDTAB
  0
TABLE
  2
STYLE
  5
3
100
AcDbSymbolTable
 70
1
  0
STYLE
  5
11
100
AcDbSymbolTableRecord
100
AcDbTextStyleTableRecord
  2
STANDARD
 70
0
 40
0.0
 41
0.8
 50
0.0
 71
0
 42
0.2
  3
txt
  4

  0
STYLE
  5
21A
100
AcDbSymbolTableRecord
100
AcDbTextStyleTableRecord
  2
TEXTSTYLE_1
 70
0
 40
0.0
 41
0.8
 50
0.0
 71
0
 42
0.2
  3
gdt
  4

  0
ENDTAB
  0
TABLE
  2
VIEW
  5
6
100
AcDbSymbolTable
 70
0
  0
ENDTAB
  0
TABLE
  2
UCS
  5
7
100
AcDbSymbolTable
 70
0
  0
ENDTAB
  0
TABLE
  2
APPID
  5
9
100
AcDbSymbolTable
 70
1
  0
APPID
  5
21B
100
AcDbSymbolTableRecord
100
AcDbRegAppTableRecord
  2
ACAD
 70
0
  0
ENDTAB
  0
TABLE
  2
BLOCK_RECORD
  5
1
100
AcDbSymbolTable
 70
0
  0
BLOCK_RECORD
  5
21C
100
AcDbSymbolTableRecord
100
AcDbBlockTableRecord
  2
*Model_Space
  0
BLOCK_RECORD
  5
21D
100
AcDbSymbolTableRecord
100
AcDbBlockTableRecord
  2
*Paper_Space
  0
ENDTAB
  0
TABLE
  2
DIMSTYLE
  5
A
100
AcDbSymbolTable
 70
1
100
AcDbDimStyleTable
 71
0
  0
DIMSTYLE
105
21E
100
AcDbSymbolTableRecord
100
AcDbDimStyleTableRecord
  2
STANDARD
 70
0
  3

  4

 40
1.0
 41
0.1875
 42
0.0625
 43
0.38
 44
0.125
 45
0.0
 46
0.0
 47
0.0001
 48
0.0001
140
0.15625
141
0.09
142
0.0
143
25.4
144
1.0
145
0.0
146
1.0
147
0.09
 71
0.0
 72
0.0
 73
1
 74
1
 75
0
 76
0
 77
0
 78
4
170
0
171
2
172
0
173
0
174
0
175
0
176
0
177
0
178
0
270
2
271
4
272
4
273
2
274
2
275
0
280
0
281
0
282
0
283
1
284
4
285
0
286
0
287
3
288
0
340
11
278
46
  0
ENDTAB
  0
ENDSEC
  0
SECTION
  2
BLOCKS
  0
BLOCK
  5
20
100
AcDbEntity
  8
0
100
AcDbBlockBegin
  2
*Model_Space
 70
0
 10
0.0
 20
0.0
 30
0.0
  3
*Model_Space
  1

  0
ENDBLK
  5
21
100
AcDbEntity
  8
0
100
AcDbBlockEnd
  0
BLOCK
  5
1C
100
AcDbEntity
  8
0
100
AcDbBlockBegin
  2
*Paper_Space
 70
0
 10
0.0
 20
0.0
 30
0.0
  3
*Paper_Space
  1

  0
ENDBLK
  5
1D
100
AcDbEntity
  8
0
100
AcDbBlockEnd
  0
ENDSEC
  0
SECTION
  2
ENTITIES
  0
MTEXT
  5
21F
100
AcDbEntity
  8
0
100
AcDbMText
 62
7
  6
CONTINUOUS
  7
STANDARD
 71
1
 72
1
 10
15.9560215477
 20
0.9479130325
 30
0.0
 11
1.0
 21
0.0
 31
0.0
 44
0.9
  1
SCALE: 1:1.000
 40
0.3
 41
3.36
  0
LINE
  5
220
100
AcDbEntity
  8
0
100
AcDbLine
 62
7
  6
CONTINUOUS
 10
0.0
 20
0.0
 11
0.0
 21
17.0
  0
LINE
  5
221
100
AcDbEntity
  8
0
100
AcDbLine
 62
7
  6
CONTINUOUS
 10
0.0
 20
0.0
 11
22.0
 21
0.0
  0
LINE
  5
222
100
AcDbEntity
  8
0
100
AcDbLine
 62
7
  6
CONTINUOUS
 10
0.0
 20
17.0
 11
22.0
 21
17.0
  0
LINE
  5
223
100
AcDbEntity
  8
0
100
AcDbLine
 62
7
  6
CONTINUOUS
 10
22.0
 20
0.0
 11
22.0
 21
17.0
  0
LINE
  5
224
100
AcDbEntity
  8
0
100
AcDbLine
 62
7
  6
CONTINUOUS
 10
3.0683672762
 20
5.8151198968
 11
3.0683672762
 21
5.7401198968
  0
LINE
  5
225
100
AcDbEntity
  8
0
100
AcDbLine
 62
7
  6
CONTINUOUS
 10
3.0683672762
 20
5.7401198968
 11
3.1801649817
 21
5.2304185295
  0
LINE
  5
226
100
AcDbEntity
  8
0
100
AcDbLine
 62
7
  6
CONTINUOUS
 10
3.6883672762
 20
5.7401198968
 11
3.6883672762
 21
5.7851198968
  0
LINE
  5
227
100
AcDbEntity
  8
LAYER_FEATURE
100
AcDbLine
 62
7
  6
CONTINUOUS
 10
3.7563672762
 20
5.7851198968
 11
3.7563672762
 21
5.7401198968
  0
LINE
  5
228
100
AcDbEntity
  8
0
100
AcDbLine
 62
7
  6
CONTINUOUS
 10
3.5765695706
 20
5.2304185295
 11
3.6883672762
 21
5.7401198968
  0
LINE
  5
229
100
AcDbEntity
  8
LAYER_FEATURE
100
AcDbLine
 62
7
  6
CONTINUOUS
 10
3.7563672762
 20
5.7401198968
 11
3.8681649817
 21
5.2304185295
  0
LINE
  5
22A
100
AcDbEntity
  8
LAYER_FEATURE
100
AcDbLine
 62
7
  6
CONTINUOUS
 10
4.3763672762
 20
5.7401198968
 11
4.3763672762
 21
5.7851198968
  0
LINE
  5
22B
100
AcDbEntity
  8
LAYER_FEATURE
100
AcDbLine
 62
7
  6
CONTINUOUS
 10
4.4443672762
 20
5.7851198968
 11
4.4443672762
 21
5.7401198968
  0
LINE
  5
22C
100
AcDbEntity
  8
LAYER_FEATURE
100
AcDbLine
 62
7
  6
CONTINUOUS
 10
4.2645695706
 20
5.2304185295
 11
4.3763672762
 21
5.7401198968
  0
LINE
  5
22D
100
AcDbEntity
  8
LAYER_FEATURE
100
AcDbLine
 62
7
  6
CONTINUOUS
 10
4.4443672762
 20
5.7401198968
 11
4.5561649817
 21
5.2304185295
  0
LINE
  5
22E
100
AcDbEntity
  8
LAYER_FEATURE
100
AcDbLine
 62
7
  6
CONTINUOUS
 10
5.0643672762
 20
5.7401198968
 11
5.0643672762
 21
5.7851198968
  0
LINE
  5
22F
100
AcDbEntity
  8
LAYER_FEATURE
100
AcDbLine
 62
7
  6
CONTINUOUS
 10
4.9525695706
 20
5.2304185295
 11
5.0643672762
 21
5.7401198968
  0
LINE
  5
230
100
AcDbEntity
  8
LAYER_FEATURE
100
AcDbLine
 62
7
  6
CONTINUOUS
 10
5.1323672762
 20
5.7851198968
 11
5.1323672762
 21
5.7401198968
  0
LINE
  5
231
100
AcDbEntity
  8
LAYER_FEATURE
100
AcDbLine
 62
7
  6
CONTINUOUS
 10
5.1323672762
 20
5.7401198968
 11
5.2441649817
 21
5.2304185295
  0
LINE
  5
232
100
AcDbEntity
  8
LAYER_FEATURE
100
AcDbLine
 62
7
  6
CONTINUOUS
 10
5.6405695706
 20
5.2304185295
 11
5.7523672762
 21
5.7401198968
  0
LINE
  5
233
100
AcDbEntity
  8
LAYER_FEATURE
100
AcDbLine
 62
7
  6
CONTINUOUS
 10
5.7523672762
 20
5.7401198968
 11
5.7523672762
 21
5.7851198968
  0
LINE
  5
234
100
AcDbEntity
  8
LAYER_FEATURE
100
AcDbLine
 62
7
  6
CONTINUOUS
 10
5.8203672762
 20
5.7851198968
 11
5.8203672762
 21
5.7401198968
  0
LINE
  5
235
100
AcDbEntity
  8
0
100
AcDbLine
 62
7
  6
CONTINUOUS
 10
3.2053984555
 20
5.2101198968
 11
3.5513360968
 21
5.2101198968
  0
LINE
  5
236
100
AcDbEntity
  8
LAYER_FEATURE
100
AcDbLine
 62
7
  6
CONTINUOUS
 10
3.8933984555
 20
5.2101198968
 11
4.2393360968
 21
5.2101198968
  0
LINE
  5
237
100
AcDbEntity
  8
LAYER_FEATURE
100
AcDbLine
 62
7
  6
CONTINUOUS
 10
4.5813984555
 20
5.2101198968
 11
4.9273360968
 21
5.2101198968
  0
LINE
  5
238
100
AcDbEntity
  8
LAYER_FEATURE
100
AcDbLine
 62
7
  6
CONTINUOUS
 10
5.2693984555
 20
5.2101198968
 11
5.6153360968
 21
5.2101198968
  0
LINE
  5
239
100
AcDbEntity
  8
LAYER_FEATURE
100
AcDbLine
 62
7
  6
CONTINUOUS
 10
5.9573984555
 20
5.2101198968
 11
6.3033360968
 21
5.2101198968
  0
LINE
  5
23A
100
AcDbEntity
  8
LAYER_FEATURE
100
AcDbLine
 62
7
  6
CONTINUOUS
 10
6.6453984555
 20
5.2101198968
 11
6.9913360968
 21
5.2101198968
  0
LINE
  5
23B
100
AcDbEntity
  8
LAYER_FEATURE
100
AcDbLine
 62
7
  6
CONTINUOUS
 10
7.3333984555
 20
5.2101198968
 11
7.6793360968
 21
5.2101198968
  0
LINE
  5
23C
100
AcDbEntity
  8
LAYER_FEATURE
100
AcDbLine
 62
7
  6
CONTINUOUS
 10
8.0213984555
 20
5.2101198968
 11
8.3673360968
 21
5.2101198968
  0
LINE
  5
23D
100
AcDbEntity
  8
LAYER_FEATURE
100
AcDbLine
 62
7
  6
CONTINUOUS
 10
8.7093984555
 20
5.2101198968
 11
9.0553360968
 21
5.2101198968
  0
LINE
  5
23E
100
AcDbEntity
  8
LAYER_FEATURE
100
AcDbLine
 62
7
  6
CONTINUOUS
 10
5.8203672762
 20
5.7401198968
 11
5.9321649817
 21
5.2304185295
  0
LINE
  5
23F
100
AcDbEntity
  8
LAYER_FEATURE
100
AcDbLine
 62
7
  6
CONTINUOUS
 10
6.4403672762
 20
5.7401198968
 11
6.4403672762
 21
5.7851198968
  0
LINE
  5
240
100
AcDbEntity
  8
LAYER_FEATURE
100
AcDbLine
 62
7
  6
CONTINUOUS
 10
6.5083672762
 20
5.7851198968
 11
6.5083672762
 21
5.7401198968
  0
LINE
  5
241
100
AcDbEntity
  8
LAYER_FEATURE
100
AcDbLine
 62
7
  6
CONTINUOUS
 10
6.3285695706
 20
5.2304185295
 11
6.4403672762
 21
5.7401198968
  0
LINE
  5
242
100
AcDbEntity
  8
LAYER_FEATURE
100
AcDbLine
 62
7
  6
CONTINUOUS
 10
3.6883672762
 20
5.7851198968
 11
3.7563672762
 21
5.7851198968
  0
LINE
  5
243
100
AcDbEntity
  8
LAYER_FEATURE
100
AcDbLine
 62
7
  6
CONTINUOUS
 10
4.3763672762
 20
5.7851198968
 11
4.4443672762
 21
5.7851198968
  0
LINE
  5
244
100
AcDbEntity
  8
LAYER_FEATURE
100
AcDbLine
 62
7
  6
CONTINUOUS
 10
5.0643672762
 20
5.7851198968
 11
5.1323672762
 21
5.7851198968
  0
LINE
  5
245
100
AcDbEntity
  8
LAYER_FEATURE
100
AcDbLine
 62
7
  6
CONTINUOUS
 10
5.7523672762
 20
5.7851198968
 11
5.8203672762
 21
5.7851198968
  0
LINE
  5
246
100
AcDbEntity
  8
LAYER_FEATURE
100
AcDbLine
 62
7
  6
CONTINUOUS
 10
6.4403672762
 20
5.7851198968
 11
6.5083672762
 21
5.7851198968
  0
LINE
  5
247
100
AcDbEntity
  8
LAYER_FEATURE
100
AcDbLine
 62
7
  6
CONTINUOUS
 10
7.1283672762
 20
5.7851198968
 11
7.1963672762
 21
5.7851198968
  0
LINE
  5
248
100
AcDbEntity
  8
LAYER_FEATURE
100
AcDbLine
 62
7
  6
CONTINUOUS
 10
7.8163672762
 20
5.7851198968
 11
7.8843672762
 21
5.7851198968
  0
LINE
  5
249
100
AcDbEntity
  8
LAYER_FEATURE
100
AcDbLine
 62
7
  6
CONTINUOUS
 10
8.5043672762
 20
5.7851198968
 11
8.5723672762
 21
5.7851198968
  0
LINE
  5
24A
100
AcDbEntity
  8
0
100
AcDbLine
 62
7
  6
CONTINUOUS
 10
9.1773672762
 20
5.8301198968
 11
3.0833672762
 21
5.8301198968
  0
LINE
  5
24B
100
AcDbEntity
  8
LAYER_FEATURE
100
AcDbLine
 62
7
  6
CONTINUOUS
 10
6.5083672762
 20
5.7401198968
 11
6.6201649817
 21
5.2304185295
  0
LINE
  5
24C
100
AcDbEntity
  8
LAYER_FEATURE
100
AcDbLine
 62
7
  6
CONTINUOUS
 10
7.1283672762
 20
5.7401198968
 11
7.1283672762
 21
5.7851198968
  0
LINE
  5
24D
100
AcDbEntity
  8
LAYER_FEATURE
100
AcDbLine
 62
7
  6
CONTINUOUS
 10
7.0165695706
 20
5.2304185295
 11
7.1283672762
 21
5.7401198968
  0
LINE
  5
24E
100
AcDbEntity
  8
LAYER_FEATURE
100
AcDbLine
 62
7
  6
CONTINUOUS
 10
7.1963672762
 20
5.7851198968
 11
7.1963672762
 21
5.7401198968
  0
LINE
  5
24F
100
AcDbEntity
  8
LAYER_FEATURE
100
AcDbLine
 62
7
  6
CONTINUOUS
 10
7.1963672762
 20
5.7401198968
 11
7.3081649817
 21
5.2304185295
  0
LINE
  5
250
100
AcDbEntity
  8
LAYER_FEATURE
100
AcDbLine
 62
7
  6
CONTINUOUS
 10
7.7045695706
 20
5.2304185295
 11
7.8163672762
 21
5.7401198968
  0
LINE
  5
251
100
AcDbEntity
  8
LAYER_FEATURE
100
AcDbLine
 62
7
  6
CONTINUOUS
 10
7.8163672762
 20
5.7401198968
 11
7.8163672762
 21
5.7851198968
  0
LINE
  5
252
100
AcDbEntity
  8
LAYER_FEATURE
100
AcDbLine
 62
7
  6
CONTINUOUS
 10
7.8843672762
 20
5.7851198968
 11
7.8843672762
 21
5.7401198968
  0
LINE
  5
253
100
AcDbEntity
  8
LAYER_FEATURE
100
AcDbLine
 62
7
  6
CONTINUOUS
 10
7.8843672762
 20
5.7401198968
 11
7.9961649817
 21
5.2304185295
  0
LINE
  5
254
100
AcDbEntity
  8
LAYER_FEATURE
100
AcDbLine
 62
7
  6
CONTINUOUS
 10
8.3925695706
 20
5.2304185295
 11
8.5043672762
 21
5.7401198968
  0
LINE
  5
255
100
AcDbEntity
  8
LAYER_FEATURE
100
AcDbLine
 62
7
  6
CONTINUOUS
 10
8.5043672762
 20
5.7401198968
 11
8.5043672762
 21
5.7851198968
  0
LINE
  5
256
100
AcDbEntity
  8
LAYER_FEATURE
100
AcDbLine
 62
7
  6
CONTINUOUS
 10
8.5723672762
 20
5.7851198968
 11
8.5723672762
 21
5.7401198968
  0
LINE
  5
257
100
AcDbEntity
  8
LAYER_FEATURE
100
AcDbLine
 62
7
  6
CONTINUOUS
 10
8.5723672762
 20
5.7401198968
 11
8.6841649817
 21
5.2304185295
  0
LINE
  5
258
100
AcDbEntity
  8
0
100
AcDbLine
 62
7
  6
CONTINUOUS
 10
9.1923672762
 20
5.7401198968
 11
9.1923672762
 21
5.8151198968
  0
LINE
  5
259
100
AcDbEntity
  8
LAYER_FEATURE
100
AcDbLine
 62
7
  6
CONTINUOUS
 10
9.0805695706
 20
5.2304185295
 11
9.1923672762
 21
5.7401198968
  0
LINE
  5
25A
100
AcDbEntity
  8
0
100
AcDbLine
 62
7
  6
CONTINUOUS
 10
3.0088720839
 20
14.6000477814
 11
3.0088720839
 21
10.6000477814
  0
LINE
  5
25B
100
AcDbEntity
  8
0
100
AcDbLine
 62
7
  6
CONTINUOUS
 10
9.1328720839
 20
10.6000477814
 11
3.0088720839
 21
10.6000477814
  0
LINE
  5
25C
100
AcDbEntity
  8
0
100
AcDbLine
 62
7
  6
CONTINUOUS
 10
3.0088720839
 20
14.6000477814
 11
9.1328720839
 21
14.6000477814
  0
LINE
  5
25D
100
AcDbEntity
  8
0
100
AcDbLine
 62
7
  6
CONTINUOUS
 10
9.1328720839
 20
10.6000477814
 11
9.1328720839
 21
14.6000477814
  0
LINE
  5
25E
100
AcDbEntity
  8
LAYER_FEATURE
100
AcDbLine
 62
7
  6
CONTINUOUS
 10
13.5603552569
 20
5.1506247044
 11
13.5603552569
 21
5.6806247044
  0
LINE
  5
25F
100
AcDbEntity
  8
0
100
AcDbLine
 62
7
  6
CONTINUOUS
 10
13.5603552569
 20
5.6806247044
 11
13.5603552569
 21
5.7706247044
  0
LINE
  5
260
100
AcDbEntity
  8
LAYER_FEATURE
100
AcDbLine
 62
7
  6
CONTINUOUS
 10
13.5603552569
 20
5.1506247044
 11
17.5603552569
 21
5.1506247044
  0
LINE
  5
261
100
AcDbEntity
  8
LAYER_FEATURE
100
AcDbLine
 62
7
  6
CONTINUOUS
 10
17.5603552569
 20
5.6806247044
 11
13.5603552569
 21
5.6806247044
  0
LINE
  5
262
100
AcDbEntity
  8
0
100
AcDbLine
 62
7
  6
CONTINUOUS
 10
13.5603552569
 20
5.7706247044
 11
17.5603552569
 21
5.7706247044
  0
LINE
  5
263
100
AcDbEntity
  8
0
100
AcDbLine
 62
7
  6
CONTINUOUS
 10
17.5603552569
 20
5.7706247044
 11
17.5603552569
 21
5.6806247044
  0
LINE
  5
264
100
AcDbEntity
  8
LAYER_FEATURE
100
AcDbLine
 62
7
  6
CONTINUOUS
 10
17.5603552569
 20
5.1506247044
 11
17.5603552569
 21
5.6806247044
  0
LINE
  5
265
100
AcDbEntity
  8
0
100
AcDbLine
 62
7
  6
CONTINUOUS
 10
12.129348515
 20
11.1275261143
 11
12.152226655
 21
11.0809053667
  0
LINE
  5
266
100
AcDbEntity
  8
0
100
AcDbLine
 62
7
  6
CONTINUOUS
 10
12.152226655
 20
11.0809053667
 11
12.4106794173
 21
10.7640699159
  0
LINE
  5
267
100
AcDbEntity
  8
0
100
AcDbLine
 62
7
  6
CONTINUOUS
 10
12.7232844713
 20
11.0809053667
 11
12.7095575873
 21
11.1088778152
  0
LINE
  5
268
100
AcDbEntity
  8
LAYER_FEATURE
100
AcDbLine
 62
7
  6
CONTINUOUS
 10
12.7721897348
 20
11.1088778152
 11
12.7859166188
 21
11.0809053667
  0
LINE
  5
269
100
AcDbEntity
  8
0
100
AcDbLine
 62
7
  6
CONTINUOUS
 10
13.0970984108
 20
14.2652624634
 11
12.1288331172
 21
11.1319548249
  0
LINE
  5
26A
100
AcDbEntity
  8
LAYER_FEATURE
100
AcDbLine
 62
7
  6
CONTINUOUS
 10
12.7859166188
 20
11.0809053667
 11
13.0443693812
 21
10.7640699159
  0
LINE
  5
26B
100
AcDbEntity
  8
0
100
AcDbLine
 62
7
  6
CONTINUOUS
 10
12.7757922219
 20
10.7640699159
 11
12.7232844713
 21
11.0809053667
  0
LINE
  5
26C
100
AcDbEntity
  8
0
100
AcDbLine
 62
7
  6
CONTINUOUS
 10
12.775544293
 20
10.7598830401
 11
12.7757922219
 21
10.7640699159
  0
LINE
  5
26D
100
AcDbEntity
  8
LAYER_FEATURE
100
AcDbLine
 62
7
  6
CONTINUOUS
 10
13.4196065827
 20
11.0809053667
 11
13.678059345
 21
10.7640699159
  0
LINE
  5
26E
100
AcDbEntity
  8
LAYER_FEATURE
100
AcDbLine
 62
7
  6
CONTINUOUS
 10
13.3569744351
 20
11.0809053667
 11
13.3432475511
 21
11.1088778152
  0
LINE
  5
26F
100
AcDbEntity
  8
LAYER_FEATURE
100
AcDbLine
 62
7
  6
CONTINUOUS
 10
13.4058796987
 20
11.1088778152
 11
13.4196065827
 21
11.0809053667
  0
LINE
  5
270
100
AcDbEntity
  8
LAYER_FEATURE
100
AcDbLine
 62
7
  6
CONTINUOUS
 10
13.4094821858
 20
10.7640699159
 11
13.3569744351
 21
11.0809053667
  0
LINE
  5
271
100
AcDbEntity
  8
0
100
AcDbLine
 62
7
  6
CONTINUOUS
 10
12.7319286116
 20
11.1088778152
 11
12.7232844713
 21
11.0809053667
  0
LINE
  5
272
100
AcDbEntity
  8
0
100
AcDbLine
 62
7
  6
CONTINUOUS
 10
12.7767467124
 20
10.7637749561
 11
12.8503414048
 21
11.0019274679
  0
LINE
  5
273
100
AcDbEntity
  8
LAYER_FEATURE
100
AcDbLine
 62
7
  6
CONTINUOUS
 10
14.0532965466
 20
11.0809053667
 11
14.3117493089
 21
10.7640699159
  0
LINE
  5
274
100
AcDbEntity
  8
LAYER_FEATURE
100
AcDbLine
 62
7
  6
CONTINUOUS
 10
13.4092342569
 20
10.7598830401
 11
13.4094821858
 21
10.7640699159
  0
LINE
  5
275
100
AcDbEntity
  8
0
100
AcDbLine
 62
7
  6
CONTINUOUS
 10
12.4401129186
 20
10.7514520835
 11
12.7587425863
 21
10.7514520835
  0
LINE
  5
276
100
AcDbEntity
  8
LAYER_FEATURE
100
AcDbLine
 62
7
  6
CONTINUOUS
 10
13.0738028824
 20
10.7514520835
 11
13.3924325502
 21
10.7514520835
  0
LINE
  5
277
100
AcDbEntity
  8
LAYER_FEATURE
100
AcDbLine
 62
7
  6
CONTINUOUS
 10
13.7074928463
 20
10.7514520835
 11
14.026122514
 21
10.7514520835
  0
LINE
  5
278
100
AcDbEntity
  8
LAYER_FEATURE
100
AcDbLine
 62
7
  6
CONTINUOUS
 10
14.3411828102
 20
10.7514520835
 11
14.6598124779
 21
10.7514520835
  0
LINE
  5
279
100
AcDbEntity
  8
LAYER_FEATURE
100
AcDbLine
 62
7
  6
CONTINUOUS
 10
14.9748727741
 20
10.7514520835
 11
15.2935024418
 21
10.7514520835
  0
LINE
  5
27A
100
AcDbEntity
  8
LAYER_FEATURE
100
AcDbLine
 62
7
  6
CONTINUOUS
 10
15.6085627379
 20
10.7514520835
 11
15.9271924057
 21
10.7514520835
  0
LINE
  5
27B
100
AcDbEntity
  8
LAYER_FEATURE
100
AcDbLine
 62
7
  6
CONTINUOUS
 10
16.2422527018
 20
10.7514520835
 11
16.5608823695
 21
10.7514520835
  0
LINE
  5
27C
100
AcDbEntity
  8
LAYER_FEATURE
100
AcDbLine
 62
7
  6
CONTINUOUS
 10
16.8759426657
 20
10.7514520835
 11
17.1945723334
 21
10.7514520835
  0
LINE
  5
27D
100
AcDbEntity
  8
LAYER_FEATURE
100
AcDbLine
 62
7
  6
CONTINUOUS
 10
17.5096326296
 20
10.7514520835
 11
17.8282622973
 21
10.7514520835
  0
LINE
  5
27E
100
AcDbEntity
  8
LAYER_FEATURE
100
AcDbLine
 62
7
  6
CONTINUOUS
 10
13.990664399
 20
11.0809053667
 11
13.976937515
 21
11.1088778152
  0
LINE
  5
27F
100
AcDbEntity
  8
LAYER_FEATURE
100
AcDbLine
 62
7
  6
CONTINUOUS
 10
14.0395696626
 20
11.1088778152
 11
14.0532965466
 21
11.0809053667
  0
LINE
  5
280
100
AcDbEntity
  8
LAYER_FEATURE
100
AcDbLine
 62
7
  6
CONTINUOUS
 10
13.3656185755
 20
11.1088778152
 11
13.3569744351
 21
11.0809053667
  0
LINE
  5
281
100
AcDbEntity
  8
LAYER_FEATURE
100
AcDbLine
 62
7
  6
CONTINUOUS
 10
14.6869865105
 20
11.0809053667
 11
14.9454392728
 21
10.7640699159
  0
LINE
  5
282
100
AcDbEntity
  8
LAYER_FEATURE
100
AcDbLine
 62
7
  6
CONTINUOUS
 10
14.0431721497
 20
10.7640699159
 11
13.990664399
 21
11.0809053667
  0
LINE
  5
283
100
AcDbEntity
  8
LAYER_FEATURE
100
AcDbLine
 62
7
  6
CONTINUOUS
 10
14.0429242208
 20
10.7598830401
 11
14.0431721497
 21
10.7640699159
  0
LINE
  5
284
100
AcDbEntity
  8
LAYER_FEATURE
100
AcDbLine
 62
7
  6
CONTINUOUS
 10
13.4104366763
 20
10.7637749561
 11
13.4840313686
 21
11.0019274679
  0
LINE
  5
285
100
AcDbEntity
  8
LAYER_FEATURE
100
AcDbLine
 62
7
  6
CONTINUOUS
 10
12.7095575873
 20
11.1088778152
 11
12.7721897348
 21
11.1088778152
  0
LINE
  5
286
100
AcDbEntity
  8
LAYER_FEATURE
100
AcDbLine
 62
7
  6
CONTINUOUS
 10
13.3432475511
 20
11.1088778152
 11
13.4058796987
 21
11.1088778152
  0
LINE
  5
287
100
AcDbEntity
  8
LAYER_FEATURE
100
AcDbLine
 62
7
  6
CONTINUOUS
 10
13.976937515
 20
11.1088778152
 11
14.0395696626
 21
11.1088778152
  0
LINE
  5
288
100
AcDbEntity
  8
LAYER_FEATURE
100
AcDbLine
 62
7
  6
CONTINUOUS
 10
14.6106274789
 20
11.1088778152
 11
14.6732596265
 21
11.1088778152
  0
LINE
  5
289
100
AcDbEntity
  8
LAYER_FEATURE
100
AcDbLine
 62
7
  6
CONTINUOUS
 10
15.2443174427
 20
11.1088778152
 11
15.3069495903
 21
11.1088778152
  0
LINE
  5
28A
100
AcDbEntity
  8
LAYER_FEATURE
100
AcDbLine
 62
7
  6
CONTINUOUS
 10
15.8780074066
 20
11.1088778152
 11
15.9406395542
 21
11.1088778152
  0
LINE
  5
28B
100
AcDbEntity
  8
LAYER_FEATURE
100
AcDbLine
 62
7
  6
CONTINUOUS
 10
16.5116973705
 20
11.1088778152
 11
16.5743295181
 21
11.1088778152
  0
LINE
  5
28C
100
AcDbEntity
  8
LAYER_FEATURE
100
AcDbLine
 62
7
  6
CONTINUOUS
 10
17.1453873344
 20
11.1088778152
 11
17.208019482
 21
11.1088778152
  0
LINE
  5
28D
100
AcDbEntity
  8
0
100
AcDbLine
 62
7
  6
CONTINUOUS
 10
17.7515344993
 20
11.1368502638
 11
12.1385888019
 21
11.1368502638
  0
LINE
  5
28E
100
AcDbEntity
  8
LAYER_FEATURE
100
AcDbLine
 62
7
  6
CONTINUOUS
 10
14.6243543629
 20
11.0809053667
 11
14.6106274789
 21
11.1088778152
  0
LINE
  5
28F
100
AcDbEntity
  8
LAYER_FEATURE
100
AcDbLine
 62
7
  6
CONTINUOUS
 10
14.6732596265
 20
11.1088778152
 11
14.6869865105
 21
11.0809053667
  0
LINE
  5
290
100
AcDbEntity
  8
LAYER_FEATURE
100
AcDbLine
 62
7
  6
CONTINUOUS
 10
13.9993085394
 20
11.1088778152
 11
13.990664399
 21
11.0809053667
  0
LINE
  5
291
100
AcDbEntity
  8
LAYER_FEATURE
100
AcDbLine
 62
7
  6
CONTINUOUS
 10
15.3206764743
 20
11.0809053667
 11
15.5791292367
 21
10.7640699159
  0
LINE
  5
292
100
AcDbEntity
  8
LAYER_FEATURE
100
AcDbLine
 62
7
  6
CONTINUOUS
 10
14.6768621136
 20
10.7640699159
 11
14.6243543629
 21
11.0809053667
  0
LINE
  5
293
100
AcDbEntity
  8
LAYER_FEATURE
100
AcDbLine
 62
7
  6
CONTINUOUS
 10
14.0441266401
 20
10.7637749561
 11
14.1177213325
 21
11.0019274679
  0
LINE
  5
294
100
AcDbEntity
  8
LAYER_FEATURE
100
AcDbLine
 62
7
  6
CONTINUOUS
 10
15.2580443267
 20
11.0809053667
 11
15.2443174427
 21
11.1088778152
  0
LINE
  5
295
100
AcDbEntity
  8
LAYER_FEATURE
100
AcDbLine
 62
7
  6
CONTINUOUS
 10
15.3069495903
 20
11.1088778152
 11
15.3206764743
 21
11.0809053667
  0
LINE
  5
296
100
AcDbEntity
  8
LAYER_FEATURE
100
AcDbLine
 62
7
  6
CONTINUOUS
 10
14.6766141846
 20
10.7598830401
 11
14.6768621136
 21
10.7640699159
  0
LINE
  5
297
100
AcDbEntity
  8
LAYER_FEATURE
100
AcDbLine
 62
7
  6
CONTINUOUS
 10
15.9543664382
 20
11.0809053667
 11
16.2128192005
 21
10.7640699159
  0
LINE
  5
298
100
AcDbEntity
  8
LAYER_FEATURE
100
AcDbLine
 62
7
  6
CONTINUOUS
 10
14.6329985033
 20
11.1088778152
 11
14.6243543629
 21
11.0809053667
  0
LINE
  5
299
100
AcDbEntity
  8
LAYER_FEATURE
100
AcDbLine
 62
7
  6
CONTINUOUS
 10
14.677816604
 20
10.7637749561
 11
14.7514112964
 21
11.0019274679
  0
LINE
  5
29A
100
AcDbEntity
  8
LAYER_FEATURE
100
AcDbLine
 62
7
  6
CONTINUOUS
 10
15.8917342906
 20
11.0809053667
 11
15.8780074066
 21
11.1088778152
  0
LINE
  5
29B
100
AcDbEntity
  8
LAYER_FEATURE
100
AcDbLine
 62
7
  6
CONTINUOUS
 10
15.3105520774
 20
10.7640699159
 11
15.2580443267
 21
11.0809053667
  0
LINE
  5
29C
100
AcDbEntity
  8
LAYER_FEATURE
100
AcDbLine
 62
7
  6
CONTINUOUS
 10
15.3103042783
 20
10.7598830001
 11
15.3105520774
 21
10.7640699159
  0
LINE
  5
29D
100
AcDbEntity
  8
LAYER_FEATURE
100
AcDbLine
 62
7
  6
CONTINUOUS
 10
16.5880564021
 20
11.0809053667
 11
16.8465091644
 21
10.7640699159
  0
LINE
  5
29E
100
AcDbEntity
  8
LAYER_FEATURE
100
AcDbLine
 62
7
  6
CONTINUOUS
 10
15.9406395542
 20
11.1088778152
 11
15.9543664382
 21
11.0809053667
  0
LINE
  5
29F
100
AcDbEntity
  8
LAYER_FEATURE
100
AcDbLine
 62
7
  6
CONTINUOUS
 10
15.2666884671
 20
11.1088778152
 11
15.2580443267
 21
11.0809053667
  0
LINE
  5
2A0
100
AcDbEntity
  8
LAYER_FEATURE
100
AcDbLine
 62
7
  6
CONTINUOUS
 10
15.9442420413
 20
10.7640699159
 11
15.8917342906
 21
11.0809053667
  0
LINE
  5
2A1
100
AcDbEntity
  8
LAYER_FEATURE
100
AcDbLine
 62
7
  6
CONTINUOUS
 10
15.3115065679
 20
10.7637749561
 11
15.3851012603
 21
11.0019274679
  0
LINE
  5
2A2
100
AcDbEntity
  8
LAYER_FEATURE
100
AcDbLine
 62
7
  6
CONTINUOUS
 10
17.221746366
 20
11.0809053667
 11
17.4801991283
 21
10.7640699159
  0
LINE
  5
2A3
100
AcDbEntity
  8
LAYER_FEATURE
100
AcDbLine
 62
7
  6
CONTINUOUS
 10
16.5254242545
 20
11.0809053667
 11
16.5116973705
 21
11.1088778152
  0
LINE
  5
2A4
100
AcDbEntity
  8
LAYER_FEATURE
100
AcDbLine
 62
7
  6
CONTINUOUS
 10
16.5743295181
 20
11.1088778152
 11
16.5880564021
 21
11.0809053667
  0
LINE
  5
2A5
100
AcDbEntity
  8
LAYER_FEATURE
100
AcDbLine
 62
7
  6
CONTINUOUS
 10
15.9439941124
 20
10.7598830401
 11
15.9442420413
 21
10.7640699159
  0
LINE
  5
2A6
100
AcDbEntity
  8
LAYER_FEATURE
100
AcDbLine
 62
7
  6
CONTINUOUS
 10
15.900378431
 20
11.1088778152
 11
15.8917342906
 21
11.0809053667
  0
LINE
  5
2A7
100
AcDbEntity
  8
LAYER_FEATURE
100
AcDbLine
 62
7
  6
CONTINUOUS
 10
15.9451965317
 20
10.7637749561
 11
16.0187912241
 21
11.0019274679
  0
LINE
  5
2A8
100
AcDbEntity
  8
LAYER_FEATURE
100
AcDbLine
 62
7
  6
CONTINUOUS
 10
17.1591142184
 20
11.0809053667
 11
17.1453873344
 21
11.1088778152
  0
LINE
  5
2A9
100
AcDbEntity
  8
LAYER_FEATURE
100
AcDbLine
 62
7
  6
CONTINUOUS
 10
17.208019482
 20
11.1088778152
 11
17.221746366
 21
11.0809053667
  0
LINE
  5
2AA
100
AcDbEntity
  8
LAYER_FEATURE
100
AcDbLine
 62
7
  6
CONTINUOUS
 10
16.5779320052
 20
10.7640699159
 11
16.5254242545
 21
11.0809053667
  0
LINE
  5
2AB
100
AcDbEntity
  8
LAYER_FEATURE
100
AcDbLine
 62
7
  6
CONTINUOUS
 10
16.5776840763
 20
10.7598830401
 11
16.5779320052
 21
10.7640699159
  0
LINE
  5
2AC
100
AcDbEntity
  8
LAYER_FEATURE
100
AcDbLine
 62
7
  6
CONTINUOUS
 10
16.5340683949
 20
11.1088778152
 11
16.5254242545
 21
11.0809053667
  0
LINE
  5
2AD
100
AcDbEntity
  8
0
100
AcDbLine
 62
7
  6
CONTINUOUS
 10
17.7928041822
 20
11.0809053667
 11
17.7699260422
 21
11.1275261143
  0
LINE
  5
2AE
100
AcDbEntity
  8
LAYER_FEATURE
100
AcDbLine
 62
7
  6
CONTINUOUS
 10
17.2116219691
 20
10.7640699159
 11
17.1591142184
 21
11.0809053667
  0
LINE
  5
2AF
100
AcDbEntity
  8
LAYER_FEATURE
100
AcDbLine
 62
7
  6
CONTINUOUS
 10
16.5788864956
 20
10.7637749561
 11
16.652481188
 21
11.0019274679
  0
LINE
  5
2B0
100
AcDbEntity
  8
0
100
AcDbLine
 62
7
  6
CONTINUOUS
 10
13.1068540955
 20
14.2701579023
 11
18.719799793
 21
14.2701579023
  0
LINE
  5
2B1
100
AcDbEntity
  8
LAYER_FEATURE
100
AcDbLine
 62
7
  6
CONTINUOUS
 10
17.2113740401
 20
10.7598830401
 11
17.2116219691
 21
10.7640699159
  0
LINE
  5
2B2
100
AcDbEntity
  8
LAYER_FEATURE
100
AcDbLine
 62
7
  6
CONTINUOUS
 10
17.1677583588
 20
11.1088778152
 11
17.1591142184
 21
11.0809053667
  0
LINE
  5
2B3
100
AcDbEntity
  8
LAYER_FEATURE
100
AcDbLine
 62
7
  6
CONTINUOUS
 10
17.2125764595
 20
10.7637749561
 11
17.2861711519
 21
11.0019274679
  0
LINE
  5
2B4
100
AcDbEntity
  8
LAYER_FEATURE
100
AcDbLine
 62
7
  6
CONTINUOUS
 10
17.8453119329
 20
10.7640699159
 11
17.7928041822
 21
11.0809053667
  0
LINE
  5
2B5
100
AcDbEntity
  8
LAYER_FEATURE
100
AcDbLine
 62
7
  6
CONTINUOUS
 10
17.845064004
 20
10.7598830401
 11
17.8453119329
 21
10.7640699159
  0
LINE
  5
2B6
100
AcDbEntity
  8
LAYER_FEATURE
100
AcDbLine
 62
7
  6
CONTINUOUS
 10
18.7610694759
 20
14.2142130052
 11
17.7928041822
 21
11.0809053667
  0
LINE
  5
2B7
100
AcDbEntity
  8
LAYER_FEATURE
100
AcDbLine
 62
7
  6
CONTINUOUS
 10
17.8462664234
 20
10.7637749561
 11
18.8133290478
 21
13.8931907557
  0
LINE
  5
2B8
100
AcDbEntity
  8
LAYER_FEATURE
100
AcDbLine
 62
7
  6
CONTINUOUS
 10
18.8135772266
 20
13.8973775544
 11
18.8133292976
 21
13.8931906787
  0
LINE
  5
2B9
100
AcDbEntity
  8
0
100
AcDbLine
 62
7
  6
CONTINUOUS
 10
18.7381913359
 20
14.2608337528
 11
18.7610694759
 21
14.2142130052
  0
LINE
  5
2BA
100
AcDbEntity
  8
LAYER_FEATURE
100
AcDbLine
 62
7
  6
CONTINUOUS
 10
18.8135772266
 20
13.8973775544
 11
18.7610694759
 21
14.2142130052
  0
ARC
  5
2BB
100
AcDbEntity
  8
0
100
AcDbCircle
 62
7
  6
CONTINUOUS
 10
3.2053984555
 20
5.2359532301
 40
0.0258333333
100
AcDbArc
 50
192.3713234544
 51
270.0
  0
ARC
  5
2BC
100
AcDbEntity
  8
0
100
AcDbCircle
 62
7
  6
CONTINUOUS
 10
3.5513360968
 20
5.2359532301
 40
0.0258333333
100
AcDbArc
 50
270.0
 51
347.6286765456
  0
ARC
  5
2BD
100
AcDbEntity
  8
LAYER_FEATURE
100
AcDbCircle
 62
7
  6
CONTINUOUS
 10
3.8933984555
 20
5.2359532301
 40
0.0258333333
100
AcDbArc
 50
192.3713234544
 51
270.0
  0
ARC
  5
2BE
100
AcDbEntity
  8
LAYER_FEATURE
100
AcDbCircle
 62
7
  6
CONTINUOUS
 10
4.2393360968
 20
5.2359532301
 40
0.0258333333
100
AcDbArc
 50
270.0
 51
347.6286765456
  0
ARC
  5
2BF
100
AcDbEntity
  8
LAYER_FEATURE
100
AcDbCircle
 62
7
  6
CONTINUOUS
 10
4.5813984555
 20
5.2359532301
 40
0.0258333333
100
AcDbArc
 50
192.3713234544
 51
270.0
  0
ARC
  5
2C0
100
AcDbEntity
  8
LAYER_FEATURE
100
AcDbCircle
 62
7
  6
CONTINUOUS
 10
4.9273360968
 20
5.2359532301
 40
0.0258333333
100
AcDbArc
 50
270.0
 51
347.6286765456
  0
ARC
  5
2C1
100
AcDbEntity
  8
LAYER_FEATURE
100
AcDbCircle
 62
7
  6
CONTINUOUS
 10
5.2693984555
 20
5.2359532301
 40
0.0258333333
100
AcDbArc
 50
192.3713234544
 51
270.0
  0
ARC
  5
2C2
100
AcDbEntity
  8
LAYER_FEATURE
100
AcDbCircle
 62
7
  6
CONTINUOUS
 10
5.6153360968
 20
5.2359532301
 40
0.0258333333
100
AcDbArc
 50
270.0
 51
347.6286765456
  0
ARC
  5
2C3
100
AcDbEntity
  8
LAYER_FEATURE
100
AcDbCircle
 62
7
  6
CONTINUOUS
 10
5.9573984555
 20
5.2359532301
 40
0.0258333333
100
AcDbArc
 50
192.3713234544
 51
270.0
  0
ARC
  5
2C4
100
AcDbEntity
  8
LAYER_FEATURE
100
AcDbCircle
 62
7
  6
CONTINUOUS
 10
6.3033360968
 20
5.2359532301
 40
0.0258333333
100
AcDbArc
 50
270.0
 51
347.6286765456
  0
ARC
  5
2C5
100
AcDbEntity
  8
LAYER_FEATURE
100
AcDbCircle
 62
7
  6
CONTINUOUS
 10
6.6453984555
 20
5.2359532301
 40
0.0258333333
100
AcDbArc
 50
192.3713234544
 51
270.0
  0
ARC
  5
2C6
100
AcDbEntity
  8
LAYER_FEATURE
100
AcDbCircle
 62
7
  6
CONTINUOUS
 10
6.9913360968
 20
5.2359532301
 40
0.0258333333
100
AcDbArc
 50
270.0
 51
347.6286765456
  0
ARC
  5
2C7
100
AcDbEntity
  8
LAYER_FEATURE
100
AcDbCircle
 62
7
  6
CONTINUOUS
 10
7.3333984555
 20
5.2359532301
 40
0.0258333333
100
AcDbArc
 50
192.3713234544
 51
270.0
  0
ARC
  5
2C8
100
AcDbEntity
  8
LAYER_FEATURE
100
AcDbCircle
 62
7
  6
CONTINUOUS
 10
7.6793360968
 20
5.2359532301
 40
0.0258333333
100
AcDbArc
 50
270.0
 51
347.6286765456
  0
ARC
  5
2C9
100
AcDbEntity
  8
LAYER_FEATURE
100
AcDbCircle
 62
7
  6
CONTINUOUS
 10
8.0213984555
 20
5.2359532301
 40
0.0258333333
100
AcDbArc
 50
192.3713234544
 51
270.0
  0
ARC
  5
2CA
100
AcDbEntity
  8
LAYER_FEATURE
100
AcDbCircle
 62
7
  6
CONTINUOUS
 10
9.0553360968
 20
5.2359532301
 40
0.0258333333
100
AcDbArc
 50
270.0
 51
347.6286765456
  0
ARC
  5
2CB
100
AcDbEntity
  8
LAYER_FEATURE
100
AcDbCircle
 62
7
  6
CONTINUOUS
 10
8.7093984555
 20
5.2359532301
 40
0.0258333333
100
AcDbArc
 50
192.3713234544
 51
270.0
  0
ARC
  5
2CC
100
AcDbEntity
  8
LAYER_FEATURE
100
AcDbCircle
 62
7
  6
CONTINUOUS
 10
8.3673360968
 20
5.2359532301
 40
0.0258333333
100
AcDbArc
 50
270.0
 51
347.6286765456
  0
ARC
  5
2CD
100
AcDbEntity
  8
0
100
AcDbCircle
 62
7
  6
CONTINUOUS
 10
3.0833672762
 20
5.8151198968
 40
0.015
100
AcDbArc
 50
90.0
 51
180.0
  0
ARC
  5
2CE
100
AcDbEntity
  8
0
100
AcDbCircle
 62
7
  6
CONTINUOUS
 10
9.1773672762
 20
5.8151198968
 40
0.015
100
AcDbArc
 50
0.0
 51
90.0
  0
SPLINE
  5
2CF
100
AcDbEntity
  8
0
100
AcDbSpline
 62
7
  6
CONTINUOUS
 70
0
 71
3
 72
15
 73
11
 74
0
 42
0.0000001
 43
0.0000001
 44
0.0000000001
 40
0.0
 40
0.0
 40
0.0
 40
0.0
 40
0.1294165569
 40
0.2645180781
 40
0.4012970774
 40
0.5362628266
 40
0.6661560434
 40
0.78813941
 40
0.8999194788
 40
1.0
 40
1.0
 40
1.0
 40
1.0
 10
18.719799793
 20
14.2701579023
 30
0.0
 10
18.7207276464
 20
14.2701579023
 30
0.0
 10
18.7226254507
 20
14.2700276941
 30
0.0
 10
18.7254595137
 20
14.2694992607
 30
0.0
 10
18.7282538661
 20
14.2686412841
 30
0.0
 10
18.7309017091
 20
14.2674938037
 30
0.0
 10
18.7333044562
 20
14.2660949803
 30
0.0
 10
18.7353773475
 20
14.2644988961
 30
0.0
 10
18.7370353673
 20
14.2627593611
 30
0.0
 10
18.737875234
 20
14.2614779008
 30
0.0
 10
18.7381913359
 20
14.2608337528
 30
0.0
  0
SPLINE
  5
2D0
100
AcDbEntity
  8
0
100
AcDbSpline
 62
7
  6
CONTINUOUS
 70
0
 71
3
 72
10
 73
6
 74
0
 42
0.0000001
 43
0.0000001
 44
0.0000000001
 40
0.0
 40
0.0
 40
0.0
 40
0.0
 40
0.2343758129
 40
0.4761728829
 40
1.0
 40
1.0
 40
1.0
 40
1.0
 10
12.1288332035
 20
11.1319547729
 30
0.0
 10
12.1287279754
 20
11.1316150078
 30
0.0
 10
12.1285900243
 20
11.1308985286
 30
0.0
 10
12.1286269012
 20
11.1293728267
 30
0.0
 10
12.1289983028
 20
11.1282397718
 30
0.0
 10
12.129348515
 20
11.1275261143
 30
0.0
  0
SPLINE
  5
2D1
100
AcDbEntity
  8
0
100
AcDbSpline
 62
7
  6
CONTINUOUS
 70
0
 71
3
 72
13
 73
9
 74
0
 42
0.0000001
 43
0.0000001
 44
0.0000000001
 40
0.0
 40
0.0
 40
0.0
 40
0.0
 40
0.0997942201
 40
0.2030647278
 40
0.3128498857
 40
0.4312452013
 40
0.6971835619
 40
1.0
 40
1.0
 40
1.0
 40
1.0
 10
13.0970984971
 20
14.2652624114
 30
0.0
 10
13.0972128603
 20
14.2656316719
 30
0.0
 10
13.0975366648
 20
14.2663577805
 30
0.0
 10
13.0982733574
 20
14.2673315627
 30
0.0
 10
13.0992483518
 20
14.2681793271
 30
0.0
 10
13.1008990391
 20
14.2691645587
 30
0.0
 10
13.1034717434
 20
14.2699704464
 30
0.0
 10
13.1056811005
 20
14.2701579023
 30
0.0
 10
13.1068540955
 20
14.2701579023
 30
0.0
  0
SPLINE
  5
2D2
100
AcDbEntity
  8
LAYER_FEATURE
100
AcDbSpline
 62
7
  6
CONTINUOUS
 70
0
 71
3
 72
13
 73
9
 74
0
 42
0.0000001
 43
0.0000001
 44
0.0000000001
 40
0.0
 40
0.0
 40
0.0
 40
0.0
 40
0.3029808075
 40
0.5686892596
 40
0.687051216
 40
0.7968218511
 40
0.900142208
 40
1.0
 40
1.0
 40
1.0
 40
1.0
 10
17.8282622973
 20
10.7514520835
 30
0.0
 10
17.8302835928
 20
10.7514520835
 30
0.0
 10
17.8340888231
 20
10.7517726356
 30
0.0
 10
17.838517524
 20
10.7531638189
 30
0.0
 10
17.8413602715
 20
10.7548575475
 30
0.0
 10
17.8430380145
 20
10.7563191232
 30
0.0
 10
17.8443098022
 20
10.757994648
 30
0.0
 10
17.8448669914
 20
10.7592466501
 30
0.0
 10
17.8450629581
 20
10.7598833629
 30
0.0
  0
SPLINE
  5
2D3
100
AcDbEntity
  8
LAYER_FEATURE
100
AcDbSpline
 62
7
  6
CONTINUOUS
 70
0
 71
3
 72
15
 73
11
 74
0
 42
0.0000001
 43
0.0000001
 44
0.0000000001
 40
0.0
 40
0.0
 40
0.0
 40
0.0
 40
0.1084933017
 40
0.2259418188
 40
0.3504325015
 40
0.4798938293
 40
0.6120727503
 40
0.7445551401
 40
0.8748181159
 40
1.0
 40
1.0
 40
1.0
 40
1.0
 10
17.4801991283
 20
10.7640699159
 30
0.0
 10
17.4809521527
 20
10.7631467885
 30
0.0
 10
17.4826804688
 20
10.7613525711
 30
0.0
 10
17.4856937165
 20
10.758945531
 30
0.0
 10
17.4891611639
 20
10.7567828747
 30
0.0
 10
17.4929782134
 20
10.7549208945
 30
0.0
 10
17.4970421812
 20
10.7534138784
 30
0.0
 10
17.5012402409
 20
10.7522997287
 30
0.0
 10
17.505451538
 20
10.7516173694
 30
0.0
 10
17.5082580752
 20
10.7514520835
 30
0.0
 10
17.5096326296
 20
10.7514520835
 30
0.0
  0
SPLINE
  5
2D4
100
AcDbEntity
  8
LAYER_FEATURE
100
AcDbSpline
 62
7
  6
CONTINUOUS
 70
0
 71
3
 72
13
 73
9
 74
0
 42
0.0000001
 43
0.0000001
 44
0.0000000001
 40
0.0
 40
0.0
 40
0.0
 40
0.0
 40
0.3029808075
 40
0.5686892596
 40
0.687051216
 40
0.7968218511
 40
0.900142208
 40
1.0
 40
1.0
 40
1.0
 40
1.0
 10
17.1945723334
 20
10.7514520835
 30
0.0
 10
17.1965936289
 20
10.7514520835
 30
0.0
 10
17.2003988592
 20
10.7517726356
 30
0.0
 10
17.2048275601
 20
10.7531638189
 30
0.0
 10
17.2076703076
 20
10.7548575475
 30
0.0
 10
17.2093480506
 20
10.7563191232
 30
0.0
 10
17.2106198383
 20
10.757994648
 30
0.0
 10
17.2111770276
 20
10.7592466501
 30
0.0
 10
17.2113729943
 20
10.7598833629
 30
0.0
  0
SPLINE
  5
2D5
100
AcDbEntity
  8
LAYER_FEATURE
100
AcDbSpline
 62
7
  6
CONTINUOUS
 70
0
 71
3
 72
15
 73
11
 74
0
 42
0.0000001
 43
0.0000001
 44
0.0000000001
 40
0.0
 40
0.0
 40
0.0
 40
0.0
 40
0.1084933017
 40
0.2259418188
 40
0.3504325015
 40
0.4798938293
 40
0.6120727503
 40
0.7445551401
 40
0.8748181159
 40
1.0
 40
1.0
 40
1.0
 40
1.0
 10
16.8465091644
 20
10.7640699159
 30
0.0
 10
16.8472621889
 20
10.7631467885
 30
0.0
 10
16.848990505
 20
10.7613525711
 30
0.0
 10
16.8520037526
 20
10.758945531
 30
0.0
 10
16.8554712
 20
10.7567828747
 30
0.0
 10
16.8592882495
 20
10.7549208945
 30
0.0
 10
16.8633522173
 20
10.7534138784
 30
0.0
 10
16.867550277
 20
10.7522997287
 30
0.0
 10
16.8717615741
 20
10.7516173694
 30
0.0
 10
16.8745681114
 20
10.7514520835
 30
0.0
 10
16.8759426657
 20
10.7514520835
 30
0.0
  0
SPLINE
  5
2D6
100
AcDbEntity
  8
LAYER_FEATURE
100
AcDbSpline
 62
7
  6
CONTINUOUS
 70
0
 71
3
 72
13
 73
9
 74
0
 42
0.0000001
 43
0.0000001
 44
0.0000000001
 40
0.0
 40
0.0
 40
0.0
 40
0.0
 40
0.3029808075
 40
0.5686892596
 40
0.687051216
 40
0.7968218511
 40
0.900142208
 40
1.0
 40
1.0
 40
1.0
 40
1.0
 10
16.5608823695
 20
10.7514520835
 30
0.0
 10
16.5629036651
 20
10.7514520835
 30
0.0
 10
16.5667088954
 20
10.7517726356
 30
0.0
 10
16.5711375962
 20
10.7531638189
 30
0.0
 10
16.5739803437
 20
10.7548575475
 30
0.0
 10
16.5756580867
 20
10.7563191232
 30
0.0
 10
16.5769298744
 20
10.757994648
 30
0.0
 10
16.5774870637
 20
10.7592466501
 30
0.0
 10
16.5776830304
 20
10.7598833629
 30
0.0
  0
SPLINE
  5
2D7
100
AcDbEntity
  8
LAYER_FEATURE
100
AcDbSpline
 62
7
  6
CONTINUOUS
 70
0
 71
3
 72
15
 73
11
 74
0
 42
0.0000001
 43
0.0000001
 44
0.0000000001
 40
0.0
 40
0.0
 40
0.0
 40
0.0
 40
0.1084933017
 40
0.2259418188
 40
0.3504325015
 40
0.4798938293
 40
0.6120727503
 40
0.7445551401
 40
0.8748181159
 40
1.0
 40
1.0
 40
1.0
 40
1.0
 10
16.2128192005
 20
10.7640699159
 30
0.0
 10
16.213572225
 20
10.7631467885
 30
0.0
 10
16.2153005411
 20
10.7613525711
 30
0.0
 10
16.2183137887
 20
10.758945531
 30
0.0
 10
16.2217812361
 20
10.7567828747
 30
0.0
 10
16.2255982856
 20
10.7549208945
 30
0.0
 10
16.2296622534
 20
10.7534138784
 30
0.0
 10
16.2338603131
 20
10.7522997287
 30
0.0
 10
16.2380716103
 20
10.7516173694
 30
0.0
 10
16.2408781475
 20
10.7514520835
 30
0.0
 10
16.2422527018
 20
10.7514520835
 30
0.0
  0
SPLINE
  5
2D8
100
AcDbEntity
  8
LAYER_FEATURE
100
AcDbSpline
 62
7
  6
CONTINUOUS
 70
0
 71
3
 72
13
 73
9
 74
0
 42
0.0000001
 43
0.0000001
 44
0.0000000001
 40
0.0
 40
0.0
 40
0.0
 40
0.0
 40
0.3029808075
 40
0.5686892596
 40
0.687051216
 40
0.7968218511
 40
0.900142208
 40
1.0
 40
1.0
 40
1.0
 40
1.0
 10
15.9271924057
 20
10.7514520835
 30
0.0
 10
15.9292137012
 20
10.7514520835
 30
0.0
 10
15.9330189315
 20
10.7517726356
 30
0.0
 10
15.9374476324
 20
10.7531638189
 30
0.0
 10
15.9402903798
 20
10.7548575475
 30
0.0
 10
15.9419681228
 20
10.7563191232
 30
0.0
 10
15.9432399106
 20
10.757994648
 30
0.0
 10
15.9437970998
 20
10.7592466501
 30
0.0
 10
15.9439930665
 20
10.7598833629
 30
0.0
  0
SPLINE
  5
2D9
100
AcDbEntity
  8
LAYER_FEATURE
100
AcDbSpline
 62
7
  6
CONTINUOUS
 70
0
 71
3
 72
15
 73
11
 74
0
 42
0.0000001
 43
0.0000001
 44
0.0000000001
 40
0.0
 40
0.0
 40
0.0
 40
0.0
 40
0.1084933017
 40
0.2259418188
 40
0.3504325015
 40
0.4798938293
 40
0.6120727503
 40
0.7445551401
 40
0.8748181159
 40
1.0
 40
1.0
 40
1.0
 40
1.0
 10
15.5791292367
 20
10.7640699159
 30
0.0
 10
15.5798822611
 20
10.7631467885
 30
0.0
 10
15.5816105772
 20
10.7613525711
 30
0.0
 10
15.5846238249
 20
10.758945531
 30
0.0
 10
15.5880912722
 20
10.7567828747
 30
0.0
 10
15.5919083218
 20
10.7549208945
 30
0.0
 10
15.5959722895
 20
10.7534138784
 30
0.0
 10
15.6001703493
 20
10.7522997287
 30
0.0
 10
15.6043816464
 20
10.7516173694
 30
0.0
 10
15.6071881836
 20
10.7514520835
 30
0.0
 10
15.6085627379
 20
10.7514520835
 30
0.0
  0
SPLINE
  5
2DA
100
AcDbEntity
  8
LAYER_FEATURE
100
AcDbSpline
 62
7
  6
CONTINUOUS
 70
0
 71
3
 72
13
 73
9
 74
0
 42
0.0000001
 43
0.0000001
 44
0.0000000001
 40
0.0
 40
0.0
 40
0.0
 40
0.0
 40
0.3029809113
 40
0.5686893412
 40
0.6870511804
 40
0.7968219104
 40
0.9001424066
 40
1.0
 40
1.0
 40
1.0
 40
1.0
 10
15.2935024418
 20
10.7514520835
 30
0.0
 10
15.2955237379
 20
10.7514520835
 30
0.0
 10
15.2993289676
 20
10.7517726401
 30
0.0
 10
15.3037576707
 20
10.7531638156
 30
0.0
 10
15.3066004164
 20
10.754857547
 30
0.0
 10
15.308278157
 20
10.7563191268
 30
0.0
 10
15.3095499427
 20
10.7579946522
 30
0.0
 10
15.3101071388
 20
10.7592466506
 30
0.0
 10
15.3103031065
 20
10.7598833617
 30
0.0
  0
SPLINE
  5
2DB
100
AcDbEntity
  8
LAYER_FEATURE
100
AcDbSpline
 62
7
  6
CONTINUOUS
 70
0
 71
3
 72
15
 73
11
 74
0
 42
0.0000001
 43
0.0000001
 44
0.0000000001
 40
0.0
 40
0.0
 40
0.0
 40
0.0
 40
0.1084933017
 40
0.2259418188
 40
0.3504325015
 40
0.4798938293
 40
0.6120727503
 40
0.7445551401
 40
0.8748181159
 40
1.0
 40
1.0
 40
1.0
 40
1.0
 10
14.9454392728
 20
10.7640699159
 30
0.0
 10
14.9461922972
 20
10.7631467885
 30
0.0
 10
14.9479206134
 20
10.7613525711
 30
0.0
 10
14.950933861
 20
10.758945531
 30
0.0
 10
14.9544013084
 20
10.7567828747
 30
0.0
 10
14.9582183579
 20
10.7549208945
 30
0.0
 10
14.9622823257
 20
10.7534138784
 30
0.0
 10
14.9664803854
 20
10.7522997287
 30
0.0
 10
14.9706916825
 20
10.7516173694
 30
0.0
 10
14.9734982197
 20
10.7514520835
 30
0.0
 10
14.9748727741
 20
10.7514520835
 30
0.0
  0
SPLINE
  5
2DC
100
AcDbEntity
  8
LAYER_FEATURE
100
AcDbSpline
 62
7
  6
CONTINUOUS
 70
0
 71
3
 72
13
 73
9
 74
0
 42
0.0000001
 43
0.0000001
 44
0.0000000001
 40
0.0
 40
0.0
 40
0.0
 40
0.0
 40
0.3029808075
 40
0.5686892596
 40
0.687051216
 40
0.7968218511
 40
0.900142208
 40
1.0
 40
1.0
 40
1.0
 40
1.0
 10
14.6598124779
 20
10.7514520835
 30
0.0
 10
14.6618337734
 20
10.7514520835
 30
0.0
 10
14.6656390038
 20
10.7517726356
 30
0.0
 10
14.6700677046
 20
10.7531638189
 30
0.0
 10
14.6729104521
 20
10.7548575475
 30
0.0
 10
14.6745881951
 20
10.7563191232
 30
0.0
 10
14.6758599828
 20
10.757994648
 30
0.0
 10
14.6764171721
 20
10.7592466501
 30
0.0
 10
14.6766131388
 20
10.7598833629
 30
0.0
  0
SPLINE
  5
2DD
100
AcDbEntity
  8
LAYER_FEATURE
100
AcDbSpline
 62
7
  6
CONTINUOUS
 70
0
 71
3
 72
15
 73
11
 74
0
 42
0.0000001
 43
0.0000001
 44
0.0000000001
 40
0.0
 40
0.0
 40
0.0
 40
0.0
 40
0.1084933017
 40
0.2259418188
 40
0.3504325015
 40
0.4798938293
 40
0.6120727503
 40
0.7445551401
 40
0.8748181159
 40
1.0
 40
1.0
 40
1.0
 40
1.0
 10
14.3117493089
 20
10.7640699159
 30
0.0
 10
14.3125023334
 20
10.7631467885
 30
0.0
 10
14.3142306495
 20
10.7613525711
 30
0.0
 10
14.3172438971
 20
10.758945531
 30
0.0
 10
14.3207113445
 20
10.7567828747
 30
0.0
 10
14.324528394
 20
10.7549208945
 30
0.0
 10
14.3285923618
 20
10.7534138784
 30
0.0
 10
14.3327904215
 20
10.7522997287
 30
0.0
 10
14.3370017186
 20
10.7516173694
 30
0.0
 10
14.3398082559
 20
10.7514520835
 30
0.0
 10
14.3411828102
 20
10.7514520835
 30
0.0
  0
SPLINE
  5
2DE
100
AcDbEntity
  8
LAYER_FEATURE
100
AcDbSpline
 62
7
  6
CONTINUOUS
 70
0
 71
3
 72
13
 73
9
 74
0
 42
0.0000001
 43
0.0000001
 44
0.0000000001
 40
0.0
 40
0.0
 40
0.0
 40
0.0
 40
0.3029808075
 40
0.5686892596
 40
0.687051216
 40
0.7968218511
 40
0.900142208
 40
1.0
 40
1.0
 40
1.0
 40
1.0
 10
14.026122514
 20
10.7514520835
 30
0.0
 10
14.0281438096
 20
10.7514520835
 30
0.0
 10
14.0319490399
 20
10.7517726356
 30
0.0
 10
14.0363777407
 20
10.7531638189
 30
0.0
 10
14.0392204882
 20
10.7548575475
 30
0.0
 10
14.0408982312
 20
10.7563191232
 30
0.0
 10
14.0421700189
 20
10.757994648
 30
0.0
 10
14.0427272082
 20
10.7592466501
 30
0.0
 10
14.0429231749
 20
10.7598833629
 30
0.0
  0
SPLINE
  5
2DF
100
AcDbEntity
  8
LAYER_FEATURE
100
AcDbSpline
 62
7
  6
CONTINUOUS
 70
0
 71
3
 72
15
 73
11
 74
0
 42
0.0000001
 43
0.0000001
 44
0.0000000001
 40
0.0
 40
0.0
 40
0.0
 40
0.0
 40
0.1084933017
 40
0.2259418188
 40
0.3504325015
 40
0.4798938293
 40
0.6120727503
 40
0.7445551401
 40
0.8748181159
 40
1.0
 40
1.0
 40
1.0
 40
1.0
 10
13.678059345
 20
10.7640699159
 30
0.0
 10
13.6788123695
 20
10.7631467885
 30
0.0
 10
13.6805406856
 20
10.7613525711
 30
0.0
 10
13.6835539332
 20
10.758945531
 30
0.0
 10
13.6870213806
 20
10.7567828747
 30
0.0
 10
13.6908384301
 20
10.7549208945
 30
0.0
 10
13.6949023979
 20
10.7534138784
 30
0.0
 10
13.6991004576
 20
10.7522997287
 30
0.0
 10
13.7033117548
 20
10.7516173694
 30
0.0
 10
13.706118292
 20
10.7514520835
 30
0.0
 10
13.7074928463
 20
10.7514520835
 30
0.0
  0
SPLINE
  5
2E0
100
AcDbEntity
  8
LAYER_FEATURE
100
AcDbSpline
 62
7
  6
CONTINUOUS
 70
0
 71
3
 72
13
 73
9
 74
0
 42
0.0000001
 43
0.0000001
 44
0.0000000001
 40
0.0
 40
0.0
 40
0.0
 40
0.0
 40
0.3029808075
 40
0.5686892596
 40
0.687051216
 40
0.7968218511
 40
0.900142208
 40
1.0
 40
1.0
 40
1.0
 40
1.0
 10
13.3924325502
 20
10.7514520835
 30
0.0
 10
13.3944538457
 20
10.7514520835
 30
0.0
 10
13.398259076
 20
10.7517726356
 30
0.0
 10
13.4026877769
 20
10.7531638189
 30
0.0
 10
13.4055305243
 20
10.7548575475
 30
0.0
 10
13.4072082674
 20
10.7563191232
 30
0.0
 10
13.4084800551
 20
10.757994648
 30
0.0
 10
13.4090372443
 20
10.7592466501
 30
0.0
 10
13.409233211
 20
10.7598833629
 30
0.0
  0
SPLINE
  5
2E1
100
AcDbEntity
  8
LAYER_FEATURE
100
AcDbSpline
 62
7
  6
CONTINUOUS
 70
0
 71
3
 72
15
 73
11
 74
0
 42
0.0000001
 43
0.0000001
 44
0.0000000001
 40
0.0
 40
0.0
 40
0.0
 40
0.0
 40
0.1084933017
 40
0.2259418188
 40
0.3504325015
 40
0.4798938293
 40
0.6120727503
 40
0.7445551401
 40
0.8748181159
 40
1.0
 40
1.0
 40
1.0
 40
1.0
 10
13.0443693812
 20
10.7640699159
 30
0.0
 10
13.0451224056
 20
10.7631467885
 30
0.0
 10
13.0468507217
 20
10.7613525711
 30
0.0
 10
13.0498639694
 20
10.758945531
 30
0.0
 10
13.0533314167
 20
10.7567828747
 30
0.0
 10
13.0571484663
 20
10.7549208945
 30
0.0
 10
13.061212434
 20
10.7534138784
 30
0.0
 10
13.0654104938
 20
10.7522997287
 30
0.0
 10
13.0696217909
 20
10.7516173694
 30
0.0
 10
13.0724283281
 20
10.7514520835
 30
0.0
 10
13.0738028824
 20
10.7514520835
 30
0.0
  0
SPLINE
  5
2E2
100
AcDbEntity
  8
0
100
AcDbSpline
 62
7
  6
CONTINUOUS
 70
0
 71
3
 72
13
 73
9
 74
0
 42
0.0000001
 43
0.0000001
 44
0.0000000001
 40
0.0
 40
0.0
 40
0.0
 40
0.0
 40
0.3029808075
 40
0.5686892596
 40
0.687051216
 40
0.7968218511
 40
0.900142208
 40
1.0
 40
1.0
 40
1.0
 40
1.0
 10
12.7587425863
 20
10.7514520835
 30
0.0
 10
12.7607638818
 20
10.7514520835
 30
0.0
 10
12.7645691121
 20
10.7517726356
 30
0.0
 10
12.768997813
 20
10.7531638189
 30
0.0
 10
12.7718405605
 20
10.7548575475
 30
0.0
 10
12.7735183035
 20
10.7563191232
 30
0.0
 10
12.7747900912
 20
10.757994648
 30
0.0
 10
12.7753472805
 20
10.7592466501
 30
0.0
 10
12.7755432471
 20
10.7598833629
 30
0.0
  0
SPLINE
  5
2E3
100
AcDbEntity
  8
0
100
AcDbSpline
 62
7
  6
CONTINUOUS
 70
0
 71
3
 72
15
 73
11
 74
0
 42
0.0000001
 43
0.0000001
 44
0.0000000001
 40
0.0
 40
0.0
 40
0.0
 40
0.0
 40
0.1084933017
 40
0.2259418188
 40
0.3504325015
 40
0.4798938293
 40
0.6120727503
 40
0.7445551401
 40
0.8748181159
 40
1.0
 40
1.0
 40
1.0
 40
1.0
 10
12.4106794173
 20
10.7640699159
 30
0.0
 10
12.4114324417
 20
10.7631467885
 30
0.0
 10
12.4131607579
 20
10.7613525711
 30
0.0
 10
12.4161740055
 20
10.758945531
 30
0.0
 10
12.4196414529
 20
10.7567828747
 30
0.0
 10
12.4234585024
 20
10.7549208945
 30
0.0
 10
12.4275224702
 20
10.7534138784
 30
0.0
 10
12.4317205299
 20
10.7522997287
 30
0.0
 10
12.435931827
 20
10.7516173694
 30
0.0
 10
12.4387383642
 20
10.7514520835
 30
0.0
 10
12.4401129186
 20
10.7514520835
 30
0.0
  0
SPLINE
  5
2E4
100
AcDbEntity
  8
0
100
AcDbSpline
 62
7
  6
CONTINUOUS
 70
0
 71
3
 72
13
 73
9
 74
0
 42
0.0000001
 43
0.0000001
 44
0.0000000001
 40
0.0
 40
0.0
 40
0.0
 40
0.0
 40
0.3028164381
 40
0.5687547987
 40
0.6871501143
 40
0.7969352722
 40
0.9002057799
 40
1.0
 40
1.0
 40
1.0
 40
1.0
 10
12.1385888019
 20
11.1368502638
 30
0.0
 10
12.1374158069
 20
11.1368502638
 30
0.0
 10
12.1352064497
 20
11.1366628079
 30
0.0
 10
12.1326337455
 20
11.1358569202
 30
0.0
 10
12.1309830582
 20
11.1348716886
 30
0.0
 10
12.1300080638
 20
11.1340239242
 30
0.0
 10
12.1292713712
 20
11.133050142
 30
0.0
 10
12.1289475666
 20
11.1323240334
 30
0.0
 10
12.1288332035
 20
11.1319547729
 30
0.0
  0
SPLINE
  5
2E5
100
AcDbEntity
  8
0
100
AcDbSpline
 62
7
  6
CONTINUOUS
 70
0
 71
3
 72
15
 73
11
 74
0
 42
0.0000001
 43
0.0000001
 44
0.0000000001
 40
0.0
 40
0.0
 40
0.0
 40
0.0
 40
0.1000805212
 40
0.21186059
 40
0.3338439566
 40
0.4637371734
 40
0.5987029226
 40
0.7354819219
 40
0.8705834431
 40
1.0
 40
1.0
 40
1.0
 40
1.0
 10
17.7699260422
 20
11.1275261143
 30
0.0
 10
17.7696099403
 20
11.1281702622
 30
0.0
 10
17.7687700737
 20
11.1294517226
 30
0.0
 10
17.7671120538
 20
11.1311912576
 30
0.0
 10
17.7650391626
 20
11.1327873418
 30
0.0
 10
17.7626364155
 20
11.1341861652
 30
0.0
 10
17.7599885725
 20
11.1353336456
 30
0.0
 10
17.7571942201
 20
11.1361916222
 30
0.0
 10
17.7543601571
 20
11.1367200556
 30
0.0
 10
17.7524623528
 20
11.1368502638
 30
0.0
 10
17.7515344993
 20
11.1368502638
 30
0.0
  0
ENDSEC
  0
SECTION
  2
OBJECTS
  0
DICTIONARY
  5
C
100
AcDbDictionary
280
0
281
1
  3
ACAD_GROUP
350
D
  3
ACAD_MLINESTYLE
350
17
  3
ACAD_LAYOUT
350
1A
  3
ACAD_PLOTSETTINGS
350
19
  3
ACAD_PLOTSTYLENAME
350
E
  0
DICTIONARY
  5
D
102
{ACAD_REACTORS
330
C
102
}
100
AcDbDictionary
280
0
281
1
  0
ACDBDICTIONARYWDFLT
  5
E
102
{ACAD_REACTORS
330
C
102
}
100
AcDbDictionary
281
1
  3
Normal
350
F
100
AcDbDictionaryWithDefault
340
F
  0
DICTIONARY
  5
17
102
{ACAD_REACTORS
330
C
102
}
100
AcDbDictionary
280
0
281
1
  3
Standard
350
18
  0
DICTIONARY
  5
19
102
{ACAD_REACTORS
330
C
102
}
100
AcDbDictionary
281
1
  0
DICTIONARY
  5
1A
102
{ACAD_REACTORS
330
C
102
}
100
AcDbDictionary
281
1
  3
Model
350
2E6
  3
Layout1
350
2E7
  0
ACDBPLACEHOLDER
  5
F
102
{ACAD_REACTORS
330
E
102
}
  0
MLINESTYLE
  5
18
102
{ACAD_REACTORS
330
17
102
}
100
AcDbMlineStyle
  2
STANDARD
 70
0
  3

 62
256
 51
90.0
 52
90.0
 71
2
 49
0.5
 62
256
  6
BYLAYER
 49
-0.5
 62
256
  6
BYLAYER
  0
LAYOUT
  5
2E6
102
{ACAD_REACTORS
330
1A
102
}
100
AcDbPlotSettings
  1

  2
none_device
  4
ANSI_C_(22.00_x_17.00_Inches)
  6

 40
0.0
 41
0.0
 42
0.0
 43
0.0
 44
558.8
 45
431.8
 46
0.0
 47
0.0
 48
0.0
 49
0.0
140
0.0
141
0.0
142
1.0
143
1.0
 70
1024
 72
0
 73
0
 74
0
  7

 75
0
147
1.0
148
0.0
149
0.0
100
AcDbLayout
  1
Model
 70
0
 71
0
 10
0.0
 20
0.0
 11
22.0
 21
17.0
 12
0.0
 22
0.0
 32
0.0
 14
0.0
 24
0.0
 34
0.0
 15
0.0
 25
0.0
 35
0.0
146
0.0
 13
0.0
 23
0.0
 33
0.0
 16
1.0
 26
0.0
 36
0.0
 17
0.0
 27
1.0
 37
0.0
 76
0
330
21C
345
0
346
0
  0
LAYOUT
  5
2E7
102
{ACAD_REACTORS
330
1A
102
}
100
AcDbPlotSettings
  1

  2
none_device
  4
ANSI_C_(22.00_x_17.00_Inches)
  6

 40
0.0
 41
0.0
 42
0.0
 43
0.0
 44
558.8
 45
431.8
 46
0.0
 47
0.0
 48
0.0
 49
0.0
140
0.0
141
0.0
142
1.0
143
1.0
 70
0
 72
0
 73
0
 74
0
  7

 75
0
147
1.0
148
0.0
149
0.0
100
AcDbLayout
  1
Layout1
 70
0
 71
1
 10
0.0
 20
0.0
 11
22.0
 21
17.0
 12
0.0
 22
0.0
 32
0.0
 14
0.0
 24
0.0
 34
0.0
 15
0.0
 25
0.0
 35
0.0
146
0.0
 13
0.0
 23
0.0
 33
0.0
 16
1.0
 26
0.0
 36
0.0
 17
0.0
 27
1.0
 37
0.0
 76
0
330
21D
345
0
346
0
  0
ENDSEC
  0
EOF