999
DXF file: _cgs_temp_output.dxf
999
Pro/ENGINEER 2015110 by Parametric Technology Corporation
  0
SECTION
  2
HEADER
  9
$ACADVER
  1
AC1021
  9
$DWGCODEPAGE
  3
ANSI_1252
  9
$EXTMAX
 10
22.0
 20
17.0
 30
0.0
  9
$EXTMIN
 10
0.0
 20
0.0
 30
0.0
  9
$LIMMIN
 10
0.0
 20
0.0
  9
$LIMMAX
 10
22.0
 20
17.0
  9
$VIEWCTR
 10
11.0
 20
8.5
  9
$VIEWSIZE
 40
17.0
  9
$CLAYER
  8
0
  9
$LTSCALE
 40
1.21
  9
$CELTYPE
  6
BYLAYER
  9
$DIMSCALE
 40
1.0
  9
$DIMASZ
 40
0.1875
  9
$DIMEXO
 40
0.0625
  9
$DIMDLI
 40
0.836
  9
$DIMEXE
 40
0.125
  9
$DIMCEN
 40
0.198
  9
$DIMLFAC
 40
1.0
  9
$DIMBLK
  1
_CLOSED
  9
$DIMALT
 70
0
  9
$DIMALTF
 40
25.4
  9
$DIMTXT
 40
0.15625
  9
$DIMTOL
 70
0
  9
$DIMLIM
 70
0
  9
$DIMTFAC
 40
1.0
  9
$DIMGAP
 40
0.09
  9
$DIMDSEP
 70
46
  9
$AUNITS
 70
0
  9
$PDMODE
 70
3
  9
$PDSIZE
 40
0.3125
  9
$HANDSEED
  5
2E8
  9
$TILEMODE
 70
1
  9
$MEASUREMENT
 70
0
  9
$INSUNITS
 70
1
  0
ENDSEC
  0
SECTION
  2
CLASSES
  0
CLASS
  1
ACDBDICTIONARYWDFLT
  2
AcDbDictionaryWithDefault
  3
AutoCAD 2000
 90
0
 91
1
280
0
281
0
  0
CLASS
  1
ACDBPLACEHOLDER
  2
AcDbPlaceHolder
  3
AutoCAD 2000
 90
0
 91
1
280
0
281
0
  0
CLASS
  1
LAYOUT
  2
AcDbLayout
  3
AutoCAD 2000
 90
0
 91
0
280
0
281
0
  0
ENDSEC
  0
SECTION
  2
TABLES
  0
TABLE
  2
VPORT
  5
8
100
AcDbSymbolTable
 70
2
  0
VPORT
  5
1F4
100
AcDbSymbolTableRecord
100
AcDbViewportTableRecord
  2
*ACTIVE
 70
0
 10
0.0
 20
0.0
 11
1.0
 21
1.0
 12
11.0
 22
8.5
 13
0.0
 23
0.0
 14
1.0
 24
1.0
 15
0.0
 25
0.0
 16
0.0
 26
0.0
 36
1.0
 17
0.0
 27
0.0
 37
0.0
 40
17.0
 41
1.2941176471
 42
50.0
 43
0.0
 44
0.0
 50
0.0
 51
0.0
 71
0
 72
100
 73
1
 74
1
 75
0
 76
0
 77
0
 78
0
  0
ENDTAB
  0
TABLE
  2
LTYPE
  5
5
100
AcDbSymbolTable
 70
6
  0
LTYPE
  5
14
100
AcDbSymbolTableRecord
100
AcDbLinetypeTableRecord
  2
BYBLOCK
 70
0
  3

 72
65
 73
0
 40
0.0
  0
LTYPE
  5
15
100
AcDbSymbolTableRecord
100
AcDbLinetypeTableRecord
  2
BYLAYER
 70
0
  3

 72
65
 73
0
 40
0.0
  0
LTYPE
  5
16
100
AcDbSymbolTableRecord
100
AcDbLinetypeTableRecord
  2
CONTINUOUS
 70
64
  3
Solid line
 72
65
 73
0
 40
0.0
  0
LTYPE
  5
1F5
100
AcDbSymbolTableRecord
100
AcDbLinetypeTableRecord
  2
CENTER
 70
64
  3
____ _ ____ _ ____ _ ____ _ ____ _ ____ _ ____
 72
65
 73
4
 40
0.6
 49
0.375
 74
0
 49
-0.075
 74
0
 49
0.075
 74
0
 49
-0.075
 74
0
  0
LTYPE
  5
1F6
100
AcDbSymbolTableRecord
100
AcDbLinetypeTableRecord
  2
HIDDEN
 70
64
  3
- - - - - - - - - - - - - - - - - - - -
 72
65
 73
2
 40
0.2
 49
0.1
 74
0
 49
-0.1
 74
0
  0
LTYPE
  5
1F7
100
AcDbSymbolTableRecord
100
AcDbLinetypeTableRecord
  2
PHANTOM
 70
64
  3
_____ _ _ _____ _ _ _____ _ _ _____
 72
65
 73
6
 40
0.8
 49
0.45
 74
0
 49
-0.05
 74
0
 49
0.1
 74
0
 49
-0.05
 74
0
 49
0.1
 74
0
 49
-0.05
 74
0
  0
LTYPE
  5
1F8
100
AcDbSymbolTableRecord
100
AcDbLinetypeTableRecord
  2
DOT
 70
64
  3
. . . . . . . . . . . . . . . . . . . .
 72
65
 73
2
 40
0.2
 49
0.1
 74
0
 49
-0.1
 74
0
  0
LTYPE
  5
1F9
100
AcDbSymbolTableRecord
100
AcDbLinetypeTableRecord
  2
DASHED
 70
64
  3
- - - - - - - - - - - - - - - - - - - -
 72
65
 73
2
 40
0.2
 49
0.1
 74
0
 49
-0.1
 74
0
  0
ENDTAB
  0
TABLE
  2
LAYER
  5
2
100
AcDbSymbolTable
 70
36
  0
LAYER
  5
10
100
AcDbSymbolTableRecord
100
AcDbLayerTableRecord
  2
0
 70
0
 62
7
  6
CONTINUOUS
370
-3
390
F
  0
LAYER
  5
1FA
100
AcDbSymbolTableRecord
100
AcDbLayerTableRecord
  2
DEFAULT_1
 70
0
 62
7
  6
CENTER
370
-3
390
F
  0
LAYER
  5
1FB
100
AcDbSymbolTableRecord
100
AcDbLayerTableRecord
  2
DEFAULT_2
 70
0
 62
8
  6
HIDDEN
370
-3
390
F
  0
LAYER
  5
1FC
100
AcDbSymbolTableRecord
100
AcDbLayerTableRecord
  2
DEFAULT_3
 70
0
 62
7
  6
PHANTOM
370
-3
390
F
  0
LAYER
  5
1FD
100
AcDbSymbolTableRecord
100
AcDbLayerTableRecord
  2
01_ALL_DTM_PLN
 70
0
 62
7
  6
CONTINUOUS
370
-3
390
F
  0
LAYER
  5
1FE
100
AcDbSymbolTableRecord
100
AcDbLayerTableRecord
  2
01__ASM_ALL_DTM_PLN
 70
0
 62
7
  6
CONTINUOUS
370
-3
390
F
  0
LAYER
  5
1FF
100
AcDbSymbolTableRecord
100
AcDbLayerTableRecord
  2
01__ASM_DEF_DTM_PLN
 70
0
 62
7
  6
CONTINUOUS
370
-3
390
F
  0
LAYER
  5
200
100
AcDbSymbolTableRecord
100
AcDbLayerTableRecord
  2
01___PRT_ALL_DTM_PLN
 70
0
 62
7
  6
CONTINUOUS
370
-3
390
F
  0
LAYER
  5
201
100
AcDbSymbolTableRecord
100
AcDbLayerTableRecord
  2
01___PRT_DEF_DTM_PLN
 70
0
 62
7
  6
CONTINUOUS
370
-3
390
F
  0
LAYER
  5
202
100
AcDbSymbolTableRecord
100
AcDbLayerTableRecord
  2
02_ALL_AXES
 70
0
 62
7
  6
CONTINUOUS
370
-3
390
F
  0
LAYER
  5
203
100
AcDbSymbolTableRecord
100
AcDbLayerTableRecord
  2
02__ASM_ALL_AXES
 70
0
 62
7
  6
CONTINUOUS
370
-3
390
F
  0
LAYER
  5
204
100
AcDbSymbolTableRecord
100
AcDbLayerTableRecord
  2
02___PRT_ALL_AXES
 70
0
 62
7
  6
CONTINUOUS
370
-3
390
F
  0
LAYER
  5
205
100
AcDbSymbolTableRecord
100
AcDbLayerTableRecord
  2
03_ALL_CURVES
 70
0
 62
7
  6
CONTINUOUS
370
-3
390
F
  0
LAYER
  5
206
100
AcDbSymbolTableRecord
100
AcDbLayerTableRecord
  2
03__ASM_ALL_CURVES
 70
0
 62
7
  6
CONTINUOUS
370
-3
390
F
  0
LAYER
  5
207
100
AcDbSymbolTableRecord
100
AcDbLayerTableRecord
  2
03___PRT_ALL_CURVES
 70
0
 62
7
  6
CONTINUOUS
370
-3
390
F
  0
LAYER
  5
208
100
AcDbSymbolTableRecord
100
AcDbLayerTableRecord
  2
04_ALL_DTM_PNT
 70
0
 62
7
  6
CONTINUOUS
370
-3
390
F
  0
LAYER
  5
209
100
AcDbSymbolTableRecord
100
AcDbLayerTableRecord
  2
04__ASM_ALL_DTM_PNT
 70
0
 62
7
  6
CONTINUOUS
370
-3
390
F
  0
LAYER
  5
20A
100
AcDbSymbolTableRecord
100
AcDbLayerTableRecord
  2
04___PRT_ALL_DTM_PNT
 70
0
 62
7
  6
CONTINUOUS
370
-3
390
F
  0
LAYER
  5
20B
100
AcDbSymbolTableRecord
100
AcDbLayerTableRecord
  2
05_ALL_DTM_CSYS
 70
0
 62
7
  6
CONTINUOUS
370
-3
390
F
  0
LAYER
  5
20C
100
AcDbSymbolTableRecord
100
AcDbLayerTableRecord
  2
05__ASM_ALL_DTM_CSYS
 70
0
 62
7
  6
CONTINUOUS
370
-3
390
F
  0
LAYER
  5
20D
100
AcDbSymbolTableRecord
100
AcDbLayerTableRecord
  2
05__ASM_DEF_DTM_CSYS
 70
0
 62
7
  6
CONTINUOUS
370
-3
390
F
  0
LAYER
  5
20E
100
AcDbSymbolTableRecord
100
AcDbLayerTableRecord
  2
05___PRT_ALL_DTM_CSYS
 70
0
 62
7
  6
CONTINUOUS
370
-3
390
F
  0
LAYER
  5
20F
100
AcDbSymbolTableRecord
100
AcDbLayerTableRecord
  2
05___PRT_DEF_DTM_CSYS
 70
0
 62
7
  6
CONTINUOUS
370
-3
390
F
  0
LAYER
  5
210
100
AcDbSymbolTableRecord
100
AcDbLayerTableRecord
  2
06_ALL_SURFS
 70
0
 62
7
  6
CONTINUOUS
370
-3
390
F
  0
LAYER
  5
211
100
AcDbSymbolTableRecord
100
AcDbLayerTableRecord
  2
06__ASM_ALL_SURFS
 70
0
 62
7
  6
CONTINUOUS
370
-3
390
F
  0
LAYER
  5
212
100
AcDbSymbolTableRecord
100
AcDbLayerTableRecord
  2
06___PRT_ALL_SURFS
 70
0
 62
7
  6
CONTINUOUS
370
-3
390
F
  0
LAYER
  5
213
100
AcDbSymbolTableRecord
100
AcDbLayerTableRecord
  2
07__ASM_ALL_SKELETONS
 70
0
 62
7
  6
CONTINUOUS
370
-3
390
F
  0
LAYER
  5
214
100
AcDbSymbolTableRecord
100
AcDbLayerTableRecord
  2
LAYER_DIM
 70
0
 62
7
  6
CONTINUOUS
370
-3
390
F
  0
LAYER
  5
215
100
AcDbSymbolTableRecord
100
AcDbLayerTableRecord
  2
LAYER_FEATURE
 70
0
 62
7
  6
CONTINUOUS
370
-3
390
F
  0
LAYER
  5
216
100
AcDbSymbolTableRecord
100
AcDbLayerTableRecord
  2
LAYER_GEOM_FEAT
 70
0
 62
7
  6
CONTINUOUS
370
-3
390
F
  0
LAYER
  5
217
100
AcDbSymbolTableRecord
100
AcDbLayerTableRecord
  2
LAYER_PARAMETER_DIM
 70
0
 62
7
  6
CONTINUOUS
370
-3
390
F
  0
LAYER
  5
218
100
AcDbSymbolTableRecord
100
AcDbLayerTableRecord
  2
LAYER_PROTRUSION_FEAT
 70
0
 62
7
  6
CONTINUOUS
370
-3
390
F
  0
LAYER
  5
219
100
AcDbSymbolTableRecord
100
AcDbLayerTableRecord
  2
LAYER_ROUND_FEAT
 70
0
 62
7
  6
CONTINUOUS
370
-3
390
F
  0
ENDTAB
  0
TABLE
  2
STYLE
  5
3
100
AcDbSymbolTable
 70
1
  0
STYLE
  5
11
100
AcDbSymbolTableRecord
100
AcDbTextStyleTableRecord
  2
STANDARD
 70
0
 40
0.0
 41
0.8
 50
0.0
 71
0
 42
0.2
  3
txt
  4

  0
STYLE
  5
21A
100
AcDbSymbolTableRecord
100
AcDbTextStyleTableRecord
  2
TEXTSTYLE_1
 70
0
 40
0.0
 41
0.8
 50
0.0
 71
0
 42
0.2
  3
gdt
  4

  0
ENDTAB
  0
TABLE
  2
VIEW
  5
6
100
AcDbSymbolTable
 70
0
  0
ENDTAB
  0
TABLE
  2
UCS
  5
7
100
AcDbSymbolTable
 70
0
  0
ENDTAB
  0
TABLE
  2
APPID
  5
9
100
AcDbSymbolTable
 70
1
  0
APPID
  5
21B
100
AcDbSymbolTableRecord
100
AcDbRegAppTableRecord
  2
ACAD
 70
0
  0
ENDTAB
  0
TABLE
  2
BLOCK_RECORD
  5
1
100
AcDbSymbolTable
 70
0
  0
BLOCK_RECORD
  5
21C
100
AcDbSymbolTableRecord
100
AcDbBlockTableRecord
  2
*Model_Space
  0
BLOCK_RECORD
  5
21D
100
AcDbSymbolTableRecord
100
AcDbBlockTableRecord
  2
*Paper_Space
  0
ENDTAB
  0
TABLE
  2
DIMSTYLE
  5
A
100
AcDbSymbolTable
 70
1
100
AcDbDimStyleTable
 71
0
  0
DIMSTYLE
105
21E
100
AcDbSymbolTableRecord
100
AcDbDimStyleTableRecord
  2
STANDARD
 70
0
  3

  4

 40
1.0
 41
0.1875
 42
0.0625
 43
0.38
 44
0.125
 45
0.0
 46
0.0
 47
0.0001
 48
0.0001
140
0.15625
141
0.09
142
0.0
143
25.4
144
1.0
145
0.0
146
1.0
147
0.09
 71
0.0
 72
0.0
 73
1
 74
1
 75
0
 76
0
 77
0
 78
4
170
0
171
2
172
0
173
0
174
0
175
0
176
0
177
0
178
0
270
2
271
4
272
4
273
2
274
2
275
0
280
0
281
0
282
0
283
1
284
4
285
0
286
0
287
3
288
0
340
11
278
46
  0
ENDTAB
  0
ENDSEC
  0
SECTION
  2
BLOCKS
  0
BLOCK
  5
20
100
AcDbEntity
  8
0
100
AcDbBlockBegin
  2
*Model_Space
 70
0
 10
0.0
 20
0.0
 30
0.0
  3
*Model_Space
  1

  0
ENDBLK
  5
21
100
AcDbEntity
  8
0
100
AcDbBlockEnd
  0
BLOCK
  5
1C
100
AcDbEntity
  8
0
100
AcDbBlockBegin
  2
*Paper_Space
 70
0
 10
0.0
 20
0.0
 30
0.0
  3
*Paper_Space
  1

  0
ENDBLK
  5
1D
100
AcDbEntity
  8
0
100
AcDbBlockEnd
  0
ENDSEC
  0
SECTION
  2
ENTITIES
  0
MTEXT
  5
21F
100
AcDbEntity
  8
0
100
AcDbMText
 62
7
  6
CONTINUOUS
  7
STANDARD
 71
1
 72
1
 10
15.9560215477
 20
0.9479130325
 30
0.0
 11
1.0
 21
0.0
 31
0.0
 44
0.9
  1
SCALE: 1:0.500
 40
0.3
 41
3.36
  0
LINE
  5
220
100
AcDbEntity
  8
0
100
AcDbLine
 62
7
  6
CONTINUOUS
 10
0.0
 20
0.0
 11
0.0
 21
17.0
  0
LINE
  5
221
100
AcDbEntity
  8
0
100
AcDbLine
 62
7
  6
CONTINUOUS
 10
0.0
 20
0.0
 11
22.0
 21
0.0
  0
LINE
  5
222
100
AcDbEntity
  8
0
100
AcDbLine
 62
7
  6
CONTINUOUS
 10
0.0
 20
17.0
 11
22.0
 21
17.0
  0
LINE
  5
223
100
AcDbEntity
  8
0
100
AcDbLine
 62
7
  6
CONTINUOUS
 10
22.0
 20
0.0
 11
22.0
 21
17.0
  0
LINE
  5
224
100
AcDbEntity
  8
0
100
AcDbLine
 62
7
  6
CONTINUOUS
 10
3.6303672762
 20
5.7626198968
 11
3.6303672762
 21
5.7251198968
  0
LINE
  5
225
100
AcDbEntity
  8
0
100
AcDbLine
 62
7
  6
CONTINUOUS
 10
3.6303672762
 20
5.7251198968
 11
3.7206909573
 21
5.2867489642
  0
LINE
  5
226
100
AcDbEntity
  8
0
100
AcDbLine
 62
7
  6
CONTINUOUS
 10
4.1303672762
 20
5.7251198968
 11
4.1303672762
 21
5.7476198968
  0
LINE
  5
227
100
AcDbEntity
  8
0
100
AcDbLine
 62
7
  6
CONTINUOUS
 10
4.040043595
 20
5.2867489642
 11
4.1303672762
 21
5.7251198968
  0
LINE
  5
228
100
AcDbEntity
  8
LAYER_FEATURE
100
AcDbLine
 62
7
  6
CONTINUOUS
 10
4.1928672762
 20
5.7476198968
 11
4.1928672762
 21
5.7251198968
  0
LINE
  5
229
100
AcDbEntity
  8
LAYER_FEATURE
100
AcDbLine
 62
7
  6
CONTINUOUS
 10
4.1928672762
 20
5.7251198968
 11
4.2831909573
 21
5.2867489642
  0
LINE
  5
22A
100
AcDbEntity
  8
LAYER_FEATURE
100
AcDbLine
 62
7
  6
CONTINUOUS
 10
4.6928672762
 20
5.7251198968
 11
4.6928672762
 21
5.7476198968
  0
LINE
  5
22B
100
AcDbEntity
  8
LAYER_FEATURE
100
AcDbLine
 62
7
  6
CONTINUOUS
 10
4.7553672762
 20
5.7476198968
 11
4.7553672762
 21
5.7251198968
  0
LINE
  5
22C
100
AcDbEntity
  8
LAYER_FEATURE
100
AcDbLine
 62
7
  6
CONTINUOUS
 10
4.602543595
 20
5.2867489642
 11
4.6928672762
 21
5.7251198968
  0
LINE
  5
22D
100
AcDbEntity
  8
LAYER_FEATURE
100
AcDbLine
 62
7
  6
CONTINUOUS
 10
4.7553672762
 20
5.7251198968
 11
4.8456909573
 21
5.2867489642
  0
LINE
  5
22E
100
AcDbEntity
  8
LAYER_FEATURE
100
AcDbLine
 62
7
  6
CONTINUOUS
 10
5.2553672762
 20
5.7251198968
 11
5.2553672762
 21
5.7476198968
  0
LINE
  5
22F
100
AcDbEntity
  8
LAYER_FEATURE
100
AcDbLine
 62
7
  6
CONTINUOUS
 10
5.165043595
 20
5.2867489642
 11
5.2553672762
 21
5.7251198968
  0
LINE
  5
230
100
AcDbEntity
  8
LAYER_FEATURE
100
AcDbLine
 62
7
  6
CONTINUOUS
 10
5.3178672762
 20
5.7476198968
 11
5.3178672762
 21
5.7251198968
  0
LINE
  5
231
100
AcDbEntity
  8
LAYER_FEATURE
100
AcDbLine
 62
7
  6
CONTINUOUS
 10
5.3178672762
 20
5.7251198968
 11
5.4081909573
 21
5.2867489642
  0
LINE
  5
232
100
AcDbEntity
  8
LAYER_FEATURE
100
AcDbLine
 62
7
  6
CONTINUOUS
 10
5.727543595
 20
5.2867489642
 11
5.8178672762
 21
5.7251198968
  0
LINE
  5
233
100
AcDbEntity
  8
LAYER_FEATURE
100
AcDbLine
 62
7
  6
CONTINUOUS
 10
5.8178672762
 20
5.7251198968
 11
5.8178672762
 21
5.7476198968
  0
LINE
  5
234
100
AcDbEntity
  8
LAYER_FEATURE
100
AcDbLine
 62
7
  6
CONTINUOUS
 10
5.8803672762
 20
5.7476198968
 11
5.8803672762
 21
5.7251198968
  0
LINE
  5
235
100
AcDbEntity
  8
0
100
AcDbLine
 62
7
  6
CONTINUOUS
 10
3.7410956609
 20
5.2701198968
 11
4.0196388915
 21
5.2701198968
  0
LINE
  5
236
100
AcDbEntity
  8
LAYER_FEATURE
100
AcDbLine
 62
7
  6
CONTINUOUS
 10
4.3035956609
 20
5.2701198968
 11
4.5821388915
 21
5.2701198968
  0
LINE
  5
237
100
AcDbEntity
  8
LAYER_FEATURE
100
AcDbLine
 62
7
  6
CONTINUOUS
 10
4.8660956609
 20
5.2701198968
 11
5.1446388915
 21
5.2701198968
  0
LINE
  5
238
100
AcDbEntity
  8
LAYER_FEATURE
100
AcDbLine
 62
7
  6
CONTINUOUS
 10
5.4285956609
 20
5.2701198968
 11
5.7071388915
 21
5.2701198968
  0
LINE
  5
239
100
AcDbEntity
  8
LAYER_FEATURE
100
AcDbLine
 62
7
  6
CONTINUOUS
 10
5.9910956609
 20
5.2701198968
 11
6.2696388915
 21
5.2701198968
  0
LINE
  5
23A
100
AcDbEntity
  8
LAYER_FEATURE
100
AcDbLine
 62
7
  6
CONTINUOUS
 10
6.5535956609
 20
5.2701198968
 11
6.8321388915
 21
5.2701198968
  0
LINE
  5
23B
100
AcDbEntity
  8
LAYER_FEATURE
100
AcDbLine
 62
7
  6
CONTINUOUS
 10
7.1160956609
 20
5.2701198968
 11
7.3946388915
 21
5.2701198968
  0
LINE
  5
23C
100
AcDbEntity
  8
LAYER_FEATURE
100
AcDbLine
 62
7
  6
CONTINUOUS
 10
7.6785956609
 20
5.2701198968
 11
7.9571388915
 21
5.2701198968
  0
LINE
  5
23D
100
AcDbEntity
  8
LAYER_FEATURE
100
AcDbLine
 62
7
  6
CONTINUOUS
 10
8.2410956609
 20
5.2701198968
 11
8.5196388915
 21
5.2701198968
  0
LINE
  5
23E
100
AcDbEntity
  8
LAYER_FEATURE
100
AcDbLine
 62
7
  6
CONTINUOUS
 10
5.8803672762
 20
5.7251198968
 11
5.9706909573
 21
5.2867489642
  0
LINE
  5
23F
100
AcDbEntity
  8
LAYER_FEATURE
100
AcDbLine
 62
7
  6
CONTINUOUS
 10
6.3803672762
 20
5.7251198968
 11
6.3803672762
 21
5.7476198968
  0
LINE
  5
240
100
AcDbEntity
  8
LAYER_FEATURE
100
AcDbLine
 62
7
  6
CONTINUOUS
 10
6.4428672762
 20
5.7476198968
 11
6.4428672762
 21
5.7251198968
  0
LINE
  5
241
100
AcDbEntity
  8
LAYER_FEATURE
100
AcDbLine
 62
7
  6
CONTINUOUS
 10
6.290043595
 20
5.2867489642
 11
6.3803672762
 21
5.7251198968
  0
LINE
  5
242
100
AcDbEntity
  8
LAYER_FEATURE
100
AcDbLine
 62
7
  6
CONTINUOUS
 10
4.1303672762
 20
5.7476198968
 11
4.1928672762
 21
5.7476198968
  0
LINE
  5
243
100
AcDbEntity
  8
LAYER_FEATURE
100
AcDbLine
 62
7
  6
CONTINUOUS
 10
4.6928672762
 20
5.7476198968
 11
4.7553672762
 21
5.7476198968
  0
LINE
  5
244
100
AcDbEntity
  8
LAYER_FEATURE
100
AcDbLine
 62
7
  6
CONTINUOUS
 10
5.2553672762
 20
5.7476198968
 11
5.3178672762
 21
5.7476198968
  0
LINE
  5
245
100
AcDbEntity
  8
LAYER_FEATURE
100
AcDbLine
 62
7
  6
CONTINUOUS
 10
5.8178672762
 20
5.7476198968
 11
5.8803672762
 21
5.7476198968
  0
LINE
  5
246
100
AcDbEntity
  8
LAYER_FEATURE
100
AcDbLine
 62
7
  6
CONTINUOUS
 10
6.3803672762
 20
5.7476198968
 11
6.4428672762
 21
5.7476198968
  0
LINE
  5
247
100
AcDbEntity
  8
LAYER_FEATURE
100
AcDbLine
 62
7
  6
CONTINUOUS
 10
6.9428672762
 20
5.7476198968
 11
7.0053672762
 21
5.7476198968
  0
LINE
  5
248
100
AcDbEntity
  8
LAYER_FEATURE
100
AcDbLine
 62
7
  6
CONTINUOUS
 10
7.5053672762
 20
5.7476198968
 11
7.5678672762
 21
5.7476198968
  0
LINE
  5
249
100
AcDbEntity
  8
LAYER_FEATURE
100
AcDbLine
 62
7
  6
CONTINUOUS
 10
8.0678672762
 20
5.7476198968
 11
8.1303672762
 21
5.7476198968
  0
LINE
  5
24A
100
AcDbEntity
  8
0
100
AcDbLine
 62
7
  6
CONTINUOUS
 10
8.6228672762
 20
5.7701198968
 11
3.6378672762
 21
5.7701198968
  0
LINE
  5
24B
100
AcDbEntity
  8
LAYER_FEATURE
100
AcDbLine
 62
7
  6
CONTINUOUS
 10
6.4428672762
 20
5.7251198968
 11
6.5331909573
 21
5.2867489642
  0
LINE
  5
24C
100
AcDbEntity
  8
LAYER_FEATURE
100
AcDbLine
 62
7
  6
CONTINUOUS
 10
6.9428672762
 20
5.7251198968
 11
6.9428672762
 21
5.7476198968
  0
LINE
  5
24D
100
AcDbEntity
  8
LAYER_FEATURE
100
AcDbLine
 62
7
  6
CONTINUOUS
 10
6.852543595
 20
5.2867489642
 11
6.9428672762
 21
5.7251198968
  0
LINE
  5
24E
100
AcDbEntity
  8
LAYER_FEATURE
100
AcDbLine
 62
7
  6
CONTINUOUS
 10
7.0053672762
 20
5.7476198968
 11
7.0053672762
 21
5.7251198968
  0
LINE
  5
24F
100
AcDbEntity
  8
LAYER_FEATURE
100
AcDbLine
 62
7
  6
CONTINUOUS
 10
7.0053672762
 20
5.7251198968
 11
7.0956909573
 21
5.2867489642
  0
LINE
  5
250
100
AcDbEntity
  8
LAYER_FEATURE
100
AcDbLine
 62
7
  6
CONTINUOUS
 10
7.415043595
 20
5.2867489642
 11
7.5053672762
 21
5.7251198968
  0
LINE
  5
251
100
AcDbEntity
  8
LAYER_FEATURE
100
AcDbLine
 62
7
  6
CONTINUOUS
 10
7.5053672762
 20
5.7251198968
 11
7.5053672762
 21
5.7476198968
  0
LINE
  5
252
100
AcDbEntity
  8
LAYER_FEATURE
100
AcDbLine
 62
7
  6
CONTINUOUS
 10
7.5678672762
 20
5.7476198968
 11
7.5678672762
 21
5.7251198968
  0
LINE
  5
253
100
AcDbEntity
  8
LAYER_FEATURE
100
AcDbLine
 62
7
  6
CONTINUOUS
 10
7.5678672762
 20
5.7251198968
 11
7.6581909573
 21
5.2867489642
  0
LINE
  5
254
100
AcDbEntity
  8
LAYER_FEATURE
100
AcDbLine
 62
7
  6
CONTINUOUS
 10
7.977543595
 20
5.2867489642
 11
8.0678672762
 21
5.7251198968
  0
LINE
  5
255
100
AcDbEntity
  8
LAYER_FEATURE
100
AcDbLine
 62
7
  6
CONTINUOUS
 10
8.0678672762
 20
5.7251198968
 11
8.0678672762
 21
5.7476198968
  0
LINE
  5
256
100
AcDbEntity
  8
LAYER_FEATURE
100
AcDbLine
 62
7
  6
CONTINUOUS
 10
8.1303672762
 20
5.7476198968
 11
8.1303672762
 21
5.7251198968
  0
LINE
  5
257
100
AcDbEntity
  8
LAYER_FEATURE
100
AcDbLine
 62
7
  6
CONTINUOUS
 10
8.1303672762
 20
5.7251198968
 11
8.2206909573
 21
5.2867489642
  0
LINE
  5
258
100
AcDbEntity
  8
0
100
AcDbLine
 62
7
  6
CONTINUOUS
 10
8.6303672762
 20
5.7251198968
 11
8.6303672762
 21
5.7626198968
  0
LINE
  5
259
100
AcDbEntity
  8
LAYER_FEATURE
100
AcDbLine
 62
7
  6
CONTINUOUS
 10
8.540043595
 20
5.2867489642
 11
8.6303672762
 21
5.7251198968
  0
LINE
  5
25A
100
AcDbEntity
  8
0
100
AcDbLine
 62
7
  6
CONTINUOUS
 10
3.5708720839
 20
13.6000477814
 11
3.5708720839
 21
11.6000477814
  0
LINE
  5
25B
100
AcDbEntity
  8
0
100
AcDbLine
 62
7
  6
CONTINUOUS
 10
8.5708720839
 20
11.6000477814
 11
3.5708720839
 21
11.6000477814
  0
LINE
  5
25C
100
AcDbEntity
  8
0
100
AcDbLine
 62
7
  6
CONTINUOUS
 10
3.5708720839
 20
13.6000477814
 11
8.5708720839
 21
13.6000477814
  0
LINE
  5
25D
100
AcDbEntity
  8
0
100
AcDbLine
 62
7
  6
CONTINUOUS
 10
8.5708720839
 20
11.6000477814
 11
8.5708720839
 21
13.6000477814
  0
LINE
  5
25E
100
AcDbEntity
  8
LAYER_FEATURE
100
AcDbLine
 62
7
  6
CONTINUOUS
 10
14.5603552569
 20
5.2106247044
 11
14.5603552569
 21
5.6656247044
  0
LINE
  5
25F
100
AcDbEntity
  8
0
100
AcDbLine
 62
7
  6
CONTINUOUS
 10
14.5603552569
 20
5.6656247044
 11
14.5603552569
 21
5.7106247044
  0
LINE
  5
260
100
AcDbEntity
  8
LAYER_FEATURE
100
AcDbLine
 62
7
  6
CONTINUOUS
 10
14.5603552569
 20
5.2106247044
 11
16.5603552569
 21
5.2106247044
  0
LINE
  5
261
100
AcDbEntity
  8
LAYER_FEATURE
100
AcDbLine
 62
7
  6
CONTINUOUS
 10
16.5603552569
 20
5.6656247044
 11
14.5603552569
 21
5.6656247044
  0
LINE
  5
262
100
AcDbEntity
  8
0
100
AcDbLine
 62
7
  6
CONTINUOUS
 10
14.5603552569
 20
5.7106247044
 11
16.5603552569
 21
5.7106247044
  0
LINE
  5
263
100
AcDbEntity
  8
0
100
AcDbLine
 62
7
  6
CONTINUOUS
 10
16.5603552569
 20
5.7106247044
 11
16.5603552569
 21
5.6656247044
  0
LINE
  5
264
100
AcDbEntity
  8
LAYER_FEATURE
100
AcDbLine
 62
7
  6
CONTINUOUS
 10
16.5603552569
 20
5.2106247044
 11
16.5603552569
 21
5.6656247044
  0
LINE
  5
265
100
AcDbEntity
  8
0
100
AcDbLine
 62
7
  6
CONTINUOUS
 10
12.8955172092
 20
11.8782185006
 11
12.9069562792
 21
11.8549081268
  0
LINE
  5
266
100
AcDbEntity
  8
0
100
AcDbLine
 62
7
  6
CONTINUOUS
 10
12.8952603188
 20
11.8804326084
 11
12.8955172092
 21
11.8782185006
  0
LINE
  5
267
100
AcDbEntity
  8
0
100
AcDbLine
 62
7
  6
CONTINUOUS
 10
12.9069562792
 20
11.8549081268
 11
13.1238713863
 21
11.5824123853
  0
LINE
  5
268
100
AcDbEntity
  8
0
100
AcDbLine
 62
7
  6
CONTINUOUS
 10
13.3793921571
 20
13.4470866751
 11
12.8952595103
 21
11.8804328559
  0
LINE
  5
269
100
AcDbEntity
  8
0
100
AcDbLine
 62
7
  6
CONTINUOUS
 10
13.3674867762
 20
11.8549081268
 11
13.3606233342
 21
11.8688943511
  0
LINE
  5
26A
100
AcDbEntity
  8
0
100
AcDbLine
 62
7
  6
CONTINUOUS
 10
13.4180146442
 20
11.5824123853
 11
13.3674867762
 21
11.8549081268
  0
LINE
  5
26B
100
AcDbEntity
  8
0
100
AcDbLine
 62
7
  6
CONTINUOUS
 10
13.4178428047
 20
11.5788748079
 11
13.4180146442
 21
11.5824123853
  0
LINE
  5
26C
100
AcDbEntity
  8
LAYER_FEATURE
100
AcDbLine
 62
7
  6
CONTINUOUS
 10
13.4250530883
 20
11.8549081268
 11
13.6419681954
 21
11.5824123853
  0
LINE
  5
26D
100
AcDbEntity
  8
LAYER_FEATURE
100
AcDbLine
 62
7
  6
CONTINUOUS
 10
13.4181896463
 20
11.8688943511
 11
13.4250530883
 21
11.8549081268
  0
LINE
  5
26E
100
AcDbEntity
  8
0
100
AcDbLine
 62
7
  6
CONTINUOUS
 10
13.3718088464
 20
11.8688943511
 11
13.3674867762
 21
11.8549081268
  0
LINE
  5
26F
100
AcDbEntity
  8
0
100
AcDbLine
 62
7
  6
CONTINUOUS
 10
13.4188556702
 20
11.5821524886
 11
13.4813059061
 21
11.784241526
  0
LINE
  5
270
100
AcDbEntity
  8
LAYER_FEATURE
100
AcDbLine
 62
7
  6
CONTINUOUS
 10
13.8855835853
 20
11.8549081268
 11
13.8787201433
 21
11.8688943511
  0
LINE
  5
271
100
AcDbEntity
  8
LAYER_FEATURE
100
AcDbLine
 62
7
  6
CONTINUOUS
 10
13.9362864555
 20
11.8688943511
 11
13.9431498975
 21
11.8549081268
  0
LINE
  5
272
100
AcDbEntity
  8
LAYER_FEATURE
100
AcDbLine
 62
7
  6
CONTINUOUS
 10
13.9361114533
 20
11.5824123853
 11
13.8855835853
 21
11.8549081268
  0
LINE
  5
273
100
AcDbEntity
  8
LAYER_FEATURE
100
AcDbLine
 62
7
  6
CONTINUOUS
 10
13.9359396138
 20
11.5788748079
 11
13.9361114533
 21
11.5824123853
  0
LINE
  5
274
100
AcDbEntity
  8
LAYER_FEATURE
100
AcDbLine
 62
7
  6
CONTINUOUS
 10
13.9431498975
 20
11.8549081268
 11
14.1600650045
 21
11.5824123853
  0
LINE
  5
275
100
AcDbEntity
  8
LAYER_FEATURE
100
AcDbLine
 62
7
  6
CONTINUOUS
 10
13.8899056555
 20
11.8688943511
 11
13.8855835853
 21
11.8549081268
  0
LINE
  5
276
100
AcDbEntity
  8
LAYER_FEATURE
100
AcDbLine
 62
7
  6
CONTINUOUS
 10
13.9369524793
 20
11.5821524886
 11
13.9994027152
 21
11.784241526
  0
LINE
  5
277
100
AcDbEntity
  8
LAYER_FEATURE
100
AcDbLine
 62
7
  6
CONTINUOUS
 10
14.4612467066
 20
11.8549081268
 11
14.6781618136
 21
11.5824123853
  0
LINE
  5
278
100
AcDbEntity
  8
LAYER_FEATURE
100
AcDbLine
 62
7
  6
CONTINUOUS
 10
14.4036803945
 20
11.8549081268
 11
14.3968169525
 21
11.8688943511
  0
LINE
  5
279
100
AcDbEntity
  8
LAYER_FEATURE
100
AcDbLine
 62
7
  6
CONTINUOUS
 10
14.4543832646
 20
11.8688943511
 11
14.4612467066
 21
11.8549081268
  0
LINE
  5
27A
100
AcDbEntity
  8
LAYER_FEATURE
100
AcDbLine
 62
7
  6
CONTINUOUS
 10
14.4542082624
 20
11.5824123853
 11
14.4036803945
 21
11.8549081268
  0
LINE
  5
27B
100
AcDbEntity
  8
LAYER_FEATURE
100
AcDbLine
 62
7
  6
CONTINUOUS
 10
14.4540364229
 20
11.5788748079
 11
14.4542082624
 21
11.5824123853
  0
LINE
  5
27C
100
AcDbEntity
  8
0
100
AcDbLine
 62
7
  6
CONTINUOUS
 10
13.1477379246
 20
11.5720755912
 11
13.4042932295
 21
11.5720755912
  0
LINE
  5
27D
100
AcDbEntity
  8
LAYER_FEATURE
100
AcDbLine
 62
7
  6
CONTINUOUS
 10
13.6658347337
 20
11.5720755912
 11
13.9223900386
 21
11.5720755912
  0
LINE
  5
27E
100
AcDbEntity
  8
LAYER_FEATURE
100
AcDbLine
 62
7
  6
CONTINUOUS
 10
14.1839315428
 20
11.5720755912
 11
14.4404868477
 21
11.5720755912
  0
LINE
  5
27F
100
AcDbEntity
  8
LAYER_FEATURE
100
AcDbLine
 62
7
  6
CONTINUOUS
 10
14.702028352
 20
11.5720755912
 11
14.9585836568
 21
11.5720755912
  0
LINE
  5
280
100
AcDbEntity
  8
LAYER_FEATURE
100
AcDbLine
 62
7
  6
CONTINUOUS
 10
15.2201251611
 20
11.5720755912
 11
15.476680466
 21
11.5720755912
  0
LINE
  5
281
100
AcDbEntity
  8
LAYER_FEATURE
100
AcDbLine
 62
7
  6
CONTINUOUS
 10
15.7382219702
 20
11.5720755912
 11
15.9947772751
 21
11.5720755912
  0
LINE
  5
282
100
AcDbEntity
  8
LAYER_FEATURE
100
AcDbLine
 62
7
  6
CONTINUOUS
 10
16.2563187793
 20
11.5720755912
 11
16.5128740842
 21
11.5720755912
  0
LINE
  5
283
100
AcDbEntity
  8
LAYER_FEATURE
100
AcDbLine
 62
7
  6
CONTINUOUS
 10
16.7744155885
 20
11.5720755912
 11
17.0309708933
 21
11.5720755912
  0
LINE
  5
284
100
AcDbEntity
  8
LAYER_FEATURE
100
AcDbLine
 62
7
  6
CONTINUOUS
 10
17.2925123976
 20
11.5720755912
 11
17.5490677025
 21
11.5720755912
  0
LINE
  5
285
100
AcDbEntity
  8
LAYER_FEATURE
100
AcDbLine
 62
7
  6
CONTINUOUS
 10
14.4080024647
 20
11.8688943511
 11
14.4036803945
 21
11.8549081268
  0
LINE
  5
286
100
AcDbEntity
  8
LAYER_FEATURE
100
AcDbLine
 62
7
  6
CONTINUOUS
 10
14.9793435157
 20
11.8549081268
 11
15.1962586228
 21
11.5824123853
  0
LINE
  5
287
100
AcDbEntity
  8
LAYER_FEATURE
100
AcDbLine
 62
7
  6
CONTINUOUS
 10
14.9217772036
 20
11.8549081268
 11
14.9149137616
 21
11.8688943511
  0
LINE
  5
288
100
AcDbEntity
  8
LAYER_FEATURE
100
AcDbLine
 62
7
  6
CONTINUOUS
 10
14.9724800737
 20
11.8688943511
 11
14.9793435157
 21
11.8549081268
  0
LINE
  5
289
100
AcDbEntity
  8
LAYER_FEATURE
100
AcDbLine
 62
7
  6
CONTINUOUS
 10
14.4550492884
 20
11.5821524886
 11
14.5174995243
 21
11.784241526
  0
LINE
  5
28A
100
AcDbEntity
  8
LAYER_FEATURE
100
AcDbLine
 62
7
  6
CONTINUOUS
 10
13.3606233342
 20
11.8688943511
 11
13.4181896463
 21
11.8688943511
  0
LINE
  5
28B
100
AcDbEntity
  8
LAYER_FEATURE
100
AcDbLine
 62
7
  6
CONTINUOUS
 10
13.8787201433
 20
11.8688943511
 11
13.9362864555
 21
11.8688943511
  0
LINE
  5
28C
100
AcDbEntity
  8
LAYER_FEATURE
100
AcDbLine
 62
7
  6
CONTINUOUS
 10
14.3968169525
 20
11.8688943511
 11
14.4543832646
 21
11.8688943511
  0
LINE
  5
28D
100
AcDbEntity
  8
LAYER_FEATURE
100
AcDbLine
 62
7
  6
CONTINUOUS
 10
14.9149137616
 20
11.8688943511
 11
14.9724800737
 21
11.8688943511
  0
LINE
  5
28E
100
AcDbEntity
  8
LAYER_FEATURE
100
AcDbLine
 62
7
  6
CONTINUOUS
 10
15.4330105707
 20
11.8688943511
 11
15.4905768828
 21
11.8688943511
  0
LINE
  5
28F
100
AcDbEntity
  8
LAYER_FEATURE
100
AcDbLine
 62
7
  6
CONTINUOUS
 10
15.9511073798
 20
11.8688943511
 11
16.008673692
 21
11.8688943511
  0
LINE
  5
290
100
AcDbEntity
  8
LAYER_FEATURE
100
AcDbLine
 62
7
  6
CONTINUOUS
 10
16.469204189
 20
11.8688943511
 11
16.5267705011
 21
11.8688943511
  0
LINE
  5
291
100
AcDbEntity
  8
LAYER_FEATURE
100
AcDbLine
 62
7
  6
CONTINUOUS
 10
16.9873009981
 20
11.8688943511
 11
17.0448673102
 21
11.8688943511
  0
LINE
  5
292
100
AcDbEntity
  8
0
100
AcDbLine
 62
7
  6
CONTINUOUS
 10
17.4916264078
 20
11.8828805753
 11
12.9001373527
 21
11.8828805753
  0
LINE
  5
293
100
AcDbEntity
  8
LAYER_FEATURE
100
AcDbLine
 62
7
  6
CONTINUOUS
 10
14.9723050716
 20
11.5824123853
 11
14.9217772036
 21
11.8549081268
  0
LINE
  5
294
100
AcDbEntity
  8
LAYER_FEATURE
100
AcDbLine
 62
7
  6
CONTINUOUS
 10
14.972133232
 20
11.5788748079
 11
14.9723050716
 21
11.5824123853
  0
LINE
  5
295
100
AcDbEntity
  8
LAYER_FEATURE
100
AcDbLine
 62
7
  6
CONTINUOUS
 10
15.4974403248
 20
11.8549081268
 11
15.7143554319
 21
11.5824123853
  0
LINE
  5
296
100
AcDbEntity
  8
LAYER_FEATURE
100
AcDbLine
 62
7
  6
CONTINUOUS
 10
14.9260992738
 20
11.8688943511
 11
14.9217772036
 21
11.8549081268
  0
LINE
  5
297
100
AcDbEntity
  8
LAYER_FEATURE
100
AcDbLine
 62
7
  6
CONTINUOUS
 10
14.9731460976
 20
11.5821524886
 11
15.0355963334
 21
11.784241526
  0
LINE
  5
298
100
AcDbEntity
  8
LAYER_FEATURE
100
AcDbLine
 62
7
  6
CONTINUOUS
 10
15.4398740127
 20
11.8549081268
 11
15.4330105707
 21
11.8688943511
  0
LINE
  5
299
100
AcDbEntity
  8
LAYER_FEATURE
100
AcDbLine
 62
7
  6
CONTINUOUS
 10
15.4905768828
 20
11.8688943511
 11
15.4974403248
 21
11.8549081268
  0
LINE
  5
29A
100
AcDbEntity
  8
LAYER_FEATURE
100
AcDbLine
 62
7
  6
CONTINUOUS
 10
16.015537134
 20
11.8549081268
 11
16.232452241
 21
11.5824123853
  0
LINE
  5
29B
100
AcDbEntity
  8
LAYER_FEATURE
100
AcDbLine
 62
7
  6
CONTINUOUS
 10
15.4904018807
 20
11.5824123853
 11
15.4398740127
 21
11.8549081268
  0
LINE
  5
29C
100
AcDbEntity
  8
LAYER_FEATURE
100
AcDbLine
 62
7
  6
CONTINUOUS
 10
15.4902300847
 20
11.5788747945
 11
15.4904018807
 21
11.5824123853
  0
LINE
  5
29D
100
AcDbEntity
  8
LAYER_FEATURE
100
AcDbLine
 62
7
  6
CONTINUOUS
 10
15.4441960829
 20
11.8688943511
 11
15.4398740127
 21
11.8549081268
  0
LINE
  5
29E
100
AcDbEntity
  8
LAYER_FEATURE
100
AcDbLine
 62
7
  6
CONTINUOUS
 10
15.9579708218
 20
11.8549081268
 11
15.9511073798
 21
11.8688943511
  0
LINE
  5
29F
100
AcDbEntity
  8
LAYER_FEATURE
100
AcDbLine
 62
7
  6
CONTINUOUS
 10
16.008673692
 20
11.8688943511
 11
16.015537134
 21
11.8549081268
  0
LINE
  5
2A0
100
AcDbEntity
  8
LAYER_FEATURE
100
AcDbLine
 62
7
  6
CONTINUOUS
 10
15.4912429067
 20
11.5821524886
 11
15.5536931426
 21
11.784241526
  0
LINE
  5
2A1
100
AcDbEntity
  8
LAYER_FEATURE
100
AcDbLine
 62
7
  6
CONTINUOUS
 10
16.0084986898
 20
11.5824123853
 11
15.9579708218
 21
11.8549081268
  0
LINE
  5
2A2
100
AcDbEntity
  8
LAYER_FEATURE
100
AcDbLine
 62
7
  6
CONTINUOUS
 10
16.5336339431
 20
11.8549081268
 11
16.7505490502
 21
11.5824123853
  0
LINE
  5
2A3
100
AcDbEntity
  8
LAYER_FEATURE
100
AcDbLine
 62
7
  6
CONTINUOUS
 10
16.0083268503
 20
11.5788748079
 11
16.0084986898
 21
11.5824123853
  0
LINE
  5
2A4
100
AcDbEntity
  8
LAYER_FEATURE
100
AcDbLine
 62
7
  6
CONTINUOUS
 10
15.962292892
 20
11.8688943511
 11
15.9579708218
 21
11.8549081268
  0
LINE
  5
2A5
100
AcDbEntity
  8
LAYER_FEATURE
100
AcDbLine
 62
7
  6
CONTINUOUS
 10
16.476067631
 20
11.8549081268
 11
16.469204189
 21
11.8688943511
  0
LINE
  5
2A6
100
AcDbEntity
  8
LAYER_FEATURE
100
AcDbLine
 62
7
  6
CONTINUOUS
 10
16.5267705011
 20
11.8688943511
 11
16.5336339431
 21
11.8549081268
  0
LINE
  5
2A7
100
AcDbEntity
  8
LAYER_FEATURE
100
AcDbLine
 62
7
  6
CONTINUOUS
 10
16.0093397158
 20
11.5821524886
 11
16.0717899517
 21
11.784241526
  0
LINE
  5
2A8
100
AcDbEntity
  8
LAYER_FEATURE
100
AcDbLine
 62
7
  6
CONTINUOUS
 10
17.0517307522
 20
11.8549081268
 11
17.2686458593
 21
11.5824123853
  0
LINE
  5
2A9
100
AcDbEntity
  8
LAYER_FEATURE
100
AcDbLine
 62
7
  6
CONTINUOUS
 10
16.5265954989
 20
11.5824123853
 11
16.476067631
 21
11.8549081268
  0
LINE
  5
2AA
100
AcDbEntity
  8
LAYER_FEATURE
100
AcDbLine
 62
7
  6
CONTINUOUS
 10
16.5264236594
 20
11.5788748079
 11
16.5265954989
 21
11.5824123853
  0
LINE
  5
2AB
100
AcDbEntity
  8
0
100
AcDbLine
 62
7
  6
CONTINUOUS
 10
13.3842699995
 20
13.4495343946
 11
17.9757590546
 21
13.4495343946
  0
LINE
  5
2AC
100
AcDbEntity
  8
LAYER_FEATURE
100
AcDbLine
 62
7
  6
CONTINUOUS
 10
16.9941644401
 20
11.8549081268
 11
16.9873009981
 21
11.8688943511
  0
LINE
  5
2AD
100
AcDbEntity
  8
LAYER_FEATURE
100
AcDbLine
 62
7
  6
CONTINUOUS
 10
16.4803897012
 20
11.8688943511
 11
16.476067631
 21
11.8549081268
  0
LINE
  5
2AE
100
AcDbEntity
  8
LAYER_FEATURE
100
AcDbLine
 62
7
  6
CONTINUOUS
 10
16.5274365249
 20
11.5821524886
 11
16.5898867608
 21
11.784241526
  0
LINE
  5
2AF
100
AcDbEntity
  8
LAYER_FEATURE
100
AcDbLine
 62
7
  6
CONTINUOUS
 10
17.0448673102
 20
11.8688943511
 11
17.0517307522
 21
11.8549081268
  0
LINE
  5
2B0
100
AcDbEntity
  8
LAYER_FEATURE
100
AcDbLine
 62
7
  6
CONTINUOUS
 10
17.0446923081
 20
11.5824123853
 11
16.9941644401
 21
11.8549081268
  0
LINE
  5
2B1
100
AcDbEntity
  8
LAYER_FEATURE
100
AcDbLine
 62
7
  6
CONTINUOUS
 10
17.0445204686
 20
11.5788748079
 11
17.0446923081
 21
11.5824123853
  0
LINE
  5
2B2
100
AcDbEntity
  8
LAYER_FEATURE
100
AcDbLine
 62
7
  6
CONTINUOUS
 10
16.9984865103
 20
11.8688943511
 11
16.9941644401
 21
11.8549081268
  0
LINE
  5
2B3
100
AcDbEntity
  8
0
100
AcDbLine
 62
7
  6
CONTINUOUS
 10
17.5122612492
 20
11.8549081268
 11
17.5008221792
 21
11.8782185006
  0
LINE
  5
2B4
100
AcDbEntity
  8
LAYER_FEATURE
100
AcDbLine
 62
7
  6
CONTINUOUS
 10
17.0455333341
 20
11.5821524886
 11
17.1079835699
 21
11.784241526
  0
LINE
  5
2B5
100
AcDbEntity
  8
LAYER_FEATURE
100
AcDbLine
 62
7
  6
CONTINUOUS
 10
17.5627891172
 20
11.5824123853
 11
17.5122612492
 21
11.8549081268
  0
LINE
  5
2B6
100
AcDbEntity
  8
LAYER_FEATURE
100
AcDbLine
 62
7
  6
CONTINUOUS
 10
17.5626172777
 20
11.5788748079
 11
17.5627891172
 21
11.5824123853
  0
LINE
  5
2B7
100
AcDbEntity
  8
LAYER_FEATURE
100
AcDbLine
 62
7
  6
CONTINUOUS
 10
17.996393896
 20
13.421561946
 11
17.5122612492
 21
11.8549081268
  0
LINE
  5
2B8
100
AcDbEntity
  8
LAYER_FEATURE
100
AcDbLine
 62
7
  6
CONTINUOUS
 10
17.5636301432
 20
11.5821524886
 11
18.0467499113
 21
13.1455286312
  0
LINE
  5
2B9
100
AcDbEntity
  8
LAYER_FEATURE
100
AcDbLine
 62
7
  6
CONTINUOUS
 10
18.046921764
 20
13.1490662046
 11
18.0467499245
 21
13.1455286272
  0
LINE
  5
2BA
100
AcDbEntity
  8
0
100
AcDbLine
 62
7
  6
CONTINUOUS
 10
17.984954826
 20
13.4448723198
 11
17.996393896
 21
13.421561946
  0
LINE
  5
2BB
100
AcDbEntity
  8
LAYER_FEATURE
100
AcDbLine
 62
7
  6
CONTINUOUS
 10
18.046921764
 20
13.1490662046
 11
17.996393896
 21
13.421561946
  0
ARC
  5
2BC
100
AcDbEntity
  8
0
100
AcDbCircle
 62
7
  6
CONTINUOUS
 10
3.7410956609
 20
5.2909532301
 40
0.0208333333
100
AcDbArc
 50
191.6425163769
 51
270.0
  0
ARC
  5
2BD
100
AcDbEntity
  8
0
100
AcDbCircle
 62
7
  6
CONTINUOUS
 10
4.0196388915
 20
5.2909532301
 40
0.0208333333
100
AcDbArc
 50
270.0
 51
348.3574836231
  0
ARC
  5
2BE
100
AcDbEntity
  8
LAYER_FEATURE
100
AcDbCircle
 62
7
  6
CONTINUOUS
 10
4.3035956609
 20
5.2909532301
 40
0.0208333333
100
AcDbArc
 50
191.6425163769
 51
270.0
  0
ARC
  5
2BF
100
AcDbEntity
  8
LAYER_FEATURE
100
AcDbCircle
 62
7
  6
CONTINUOUS
 10
4.5821388915
 20
5.2909532301
 40
0.0208333333
100
AcDbArc
 50
270.0
 51
348.3574836231
  0
ARC
  5
2C0
100
AcDbEntity
  8
LAYER_FEATURE
100
AcDbCircle
 62
7
  6
CONTINUOUS
 10
4.8660956609
 20
5.2909532301
 40
0.0208333333
100
AcDbArc
 50
191.6425163769
 51
270.0
  0
ARC
  5
2C1
100
AcDbEntity
  8
LAYER_FEATURE
100
AcDbCircle
 62
7
  6
CONTINUOUS
 10
5.1446388915
 20
5.2909532301
 40
0.0208333333
100
AcDbArc
 50
270.0
 51
348.3574836231
  0
ARC
  5
2C2
100
AcDbEntity
  8
LAYER_FEATURE
100
AcDbCircle
 62
7
  6
CONTINUOUS
 10
5.4285956609
 20
5.2909532301
 40
0.0208333333
100
AcDbArc
 50
191.6425163769
 51
270.0
  0
ARC
  5
2C3
100
AcDbEntity
  8
LAYER_FEATURE
100
AcDbCircle
 62
7
  6
CONTINUOUS
 10
5.7071388915
 20
5.2909532301
 40
0.0208333333
100
AcDbArc
 50
270.0
 51
348.3574836231
  0
ARC
  5
2C4
100
AcDbEntity
  8
LAYER_FEATURE
100
AcDbCircle
 62
7
  6
CONTINUOUS
 10
5.9910956609
 20
5.2909532301
 40
0.0208333333
100
AcDbArc
 50
191.6425163769
 51
270.0
  0
ARC
  5
2C5
100
AcDbEntity
  8
LAYER_FEATURE
100
AcDbCircle
 62
7
  6
CONTINUOUS
 10
6.2696388915
 20
5.2909532301
 40
0.0208333333
100
AcDbArc
 50
270.0
 51
348.3574836231
  0
ARC
  5
2C6
100
AcDbEntity
  8
LAYER_FEATURE
100
AcDbCircle
 62
7
  6
CONTINUOUS
 10
6.5535956609
 20
5.2909532301
 40
0.0208333333
100
AcDbArc
 50
191.6425163769
 51
270.0
  0
ARC
  5
2C7
100
AcDbEntity
  8
LAYER_FEATURE
100
AcDbCircle
 62
7
  6
CONTINUOUS
 10
6.8321388915
 20
5.2909532301
 40
0.0208333333
100
AcDbArc
 50
270.0
 51
348.3574836231
  0
ARC
  5
2C8
100
AcDbEntity
  8
LAYER_FEATURE
100
AcDbCircle
 62
7
  6
CONTINUOUS
 10
7.1160956609
 20
5.2909532301
 40
0.0208333333
100
AcDbArc
 50
191.6425163769
 51
270.0
  0
ARC
  5
2C9
100
AcDbEntity
  8
LAYER_FEATURE
100
AcDbCircle
 62
7
  6
CONTINUOUS
 10
7.3946388915
 20
5.2909532301
 40
0.0208333333
100
AcDbArc
 50
270.0
 51
348.3574836231
  0
ARC
  5
2CA
100
AcDbEntity
  8
LAYER_FEATURE
100
AcDbCircle
 62
7
  6
CONTINUOUS
 10
7.6785956609
 20
5.2909532301
 40
0.0208333333
100
AcDbArc
 50
191.6425163769
 51
270.0
  0
ARC
  5
2CB
100
AcDbEntity
  8
LAYER_FEATURE
100
AcDbCircle
 62
7
  6
CONTINUOUS
 10
8.5196388915
 20
5.2909532301
 40
0.0208333333
100
AcDbArc
 50
270.0
 51
348.3574836231
  0
ARC
  5
2CC
100
AcDbEntity
  8
LAYER_FEATURE
100
AcDbCircle
 62
7
  6
CONTINUOUS
 10
8.2410956609
 20
5.2909532301
 40
0.0208333333
100
AcDbArc
 50
191.6425163769
 51
270.0
  0
ARC
  5
2CD
100
AcDbEntity
  8
LAYER_FEATURE
100
AcDbCircle
 62
7
  6
CONTINUOUS
 10
7.9571388915
 20
5.2909532301
 40
0.0208333333
100
AcDbArc
 50
270.0
 51
348.3574836231
  0
ARC
  5
2CE
100
AcDbEntity
  8
0
100
AcDbCircle
 62
7
  6
CONTINUOUS
 10
3.6378672762
 20
5.7626198968
 40
0.0075
100
AcDbArc
 50
90.0
 51
180.0
  0
ARC
  5
2CF
100
AcDbEntity
  8
0
100
AcDbCircle
 62
7
  6
CONTINUOUS
 10
8.6228672762
 20
5.7626198968
 40
0.0075
100
AcDbArc
 50
0.0
 51
90.0
  0
SPLINE
  5
2D0
100
AcDbEntity
  8
0
100
AcDbSpline
 62
7
  6
CONTINUOUS
 70
0
 71
3
 72
11
 73
7
 74
0
 42
0.0000001
 43
0.0000001
 44
0.0000000001
 40
0.0
 40
0.0
 40
0.0
 40
0.0
 40
0.2644444522
 40
0.5366447956
 40
0.7886683147
 40
1.0
 40
1.0
 40
1.0
 40
1.0
 10
17.9757590546
 20
13.4495343946
 30
0.0
 10
17.9767047134
 20
13.4495343946
 30
0.0
 10
17.9786268525
 20
13.4492720126
 30
0.0
 10
17.9812978041
 20
13.4482988531
 30
0.0
 10
17.9835170653
 20
13.4468478401
 30
0.0
 10
17.9846218962
 20
13.4455507594
 30
0.0
 10
17.984954826
 20
13.4448723198
 30
0.0
  0
SPLINE
  5
2D1
100
AcDbEntity
  8
0
100
AcDbSpline
 62
7
  6
CONTINUOUS
 70
0
 71
3
 72
11
 73
7
 74
0
 42
0.0000001
 43
0.0000001
 44
0.0000000001
 40
0.0
 40
0.0
 40
0.0
 40
0.0
 40
0.2022595964
 40
0.4301234434
 40
0.6973865799
 40
1.0
 40
1.0
 40
1.0
 40
1.0
 10
13.3793927226
 20
13.4470865023
 30
0.0
 10
13.3795063308
 20
13.4474605011
 30
0.0
 10
13.3799579974
 20
13.4481993923
 30
0.0
 10
13.3810927803
 20
13.4489762185
 30
0.0
 10
13.3825803489
 20
13.4494370077
 30
0.0
 10
13.3836851892
 20
13.4495343946
 30
0.0
 10
13.3842699995
 20
13.4495343946
 30
0.0
  0
SPLINE
  5
2D2
100
AcDbEntity
  8
LAYER_FEATURE
100
AcDbSpline
 62
7
  6
CONTINUOUS
 70
0
 71
3
 72
12
 73
8
 74
0
 42
0.0000001
 43
0.0000001
 44
0.0000000001
 40
0.0
 40
0.0
 40
0.0
 40
0.0
 40
0.3032536732
 40
0.5692171305
 40
0.7966446522
 40
0.9000550778
 40
1.0
 40
1.0
 40
1.0
 40
1.0
 10
17.5490677025
 20
11.5720755912
 30
0.0
 10
17.5506977628
 20
11.5720755912
 30
0.0
 10
17.553769621
 20
11.5723369129
 30
0.0
 10
17.5578952271
 20
11.5736260578
 30
0.0
 10
17.5605993601
 20
11.5754932799
 30
0.0
 10
17.5620090715
 20
11.5773520184
 30
0.0
 10
17.5624587097
 20
11.578361515
 30
0.0
 10
17.5626167248
 20
11.5788749785
 30
0.0
  0
SPLINE
  5
2D3
100
AcDbEntity
  8
LAYER_FEATURE
100
AcDbSpline
 62
7
  6
CONTINUOUS
 70
0
 71
3
 72
12
 73
8
 74
0
 42
0.0000001
 43
0.0000001
 44
0.0000000001
 40
0.0
 40
0.0
 40
0.0
 40
0.0
 40
0.108123963
 40
0.2253902859
 40
0.4791499021
 40
0.7441583648
 40
1.0
 40
1.0
 40
1.0
 40
1.0
 10
17.2686458593
 20
11.5824123853
 30
0.0
 10
17.26924618
 20
11.5816582431
 30
0.0
 10
17.2706316624
 20
11.5801907569
 30
0.0
 10
17.2739570746
 20
11.5774953523
 30
0.0
 10
17.2789689546
 20
11.5747394369
 30
0.0
 10
17.2855792607
 20
11.5726237851
 30
0.0
 10
17.2902316137
 20
11.5720755912
 30
0.0
 10
17.2925123976
 20
11.5720755912
 30
0.0
  0
SPLINE
  5
2D4
100
AcDbEntity
  8
LAYER_FEATURE
100
AcDbSpline
 62
7
  6
CONTINUOUS
 70
0
 71
3
 72
12
 73
8
 74
0
 42
0.0000001
 43
0.0000001
 44
0.0000000001
 40
0.0
 40
0.0
 40
0.0
 40
0.0
 40
0.3032536732
 40
0.5692171305
 40
0.7966446522
 40
0.9000550778
 40
1.0
 40
1.0
 40
1.0
 40
1.0
 10
17.0309708933
 20
11.5720755912
 30
0.0
 10
17.0326009537
 20
11.5720755912
 30
0.0
 10
17.0356728119
 20
11.5723369129
 30
0.0
 10
17.039798418
 20
11.5736260578
 30
0.0
 10
17.0425025509
 20
11.5754932799
 30
0.0
 10
17.0439122624
 20
11.5773520184
 30
0.0
 10
17.0443619005
 20
11.578361515
 30
0.0
 10
17.0445199156
 20
11.5788749785
 30
0.0
  0
SPLINE
  5
2D5
100
AcDbEntity
  8
LAYER_FEATURE
100
AcDbSpline
 62
7
  6
CONTINUOUS
 70
0
 71
3
 72
12
 73
8
 74
0
 42
0.0000001
 43
0.0000001
 44
0.0000000001
 40
0.0
 40
0.0
 40
0.0
 40
0.0
 40
0.108123963
 40
0.2253902859
 40
0.4791499021
 40
0.7441583648
 40
1.0
 40
1.0
 40
1.0
 40
1.0
 10
16.7505490502
 20
11.5824123853
 30
0.0
 10
16.7511493709
 20
11.5816582431
 30
0.0
 10
16.7525348533
 20
11.5801907569
 30
0.0
 10
16.7558602655
 20
11.5774953523
 30
0.0
 10
16.7608721455
 20
11.5747394369
 30
0.0
 10
16.7674824515
 20
11.5726237851
 30
0.0
 10
16.7721348046
 20
11.5720755912
 30
0.0
 10
16.7744155885
 20
11.5720755912
 30
0.0
  0
SPLINE
  5
2D6
100
AcDbEntity
  8
LAYER_FEATURE
100
AcDbSpline
 62
7
  6
CONTINUOUS
 70
0
 71
3
 72
12
 73
8
 74
0
 42
0.0000001
 43
0.0000001
 44
0.0000000001
 40
0.0
 40
0.0
 40
0.0
 40
0.0
 40
0.3032536732
 40
0.5692171305
 40
0.7966446522
 40
0.9000550778
 40
1.0
 40
1.0
 40
1.0
 40
1.0
 10
16.5128740842
 20
11.5720755912
 30
0.0
 10
16.5145041446
 20
11.5720755912
 30
0.0
 10
16.5175760028
 20
11.5723369129
 30
0.0
 10
16.5217016089
 20
11.5736260578
 30
0.0
 10
16.5244057418
 20
11.5754932799
 30
0.0
 10
16.5258154533
 20
11.5773520184
 30
0.0
 10
16.5262650914
 20
11.578361515
 30
0.0
 10
16.5264231065
 20
11.5788749785
 30
0.0
  0
SPLINE
  5
2D7
100
AcDbEntity
  8
LAYER_FEATURE
100
AcDbSpline
 62
7
  6
CONTINUOUS
 70
0
 71
3
 72
12
 73
8
 74
0
 42
0.0000001
 43
0.0000001
 44
0.0000000001
 40
0.0
 40
0.0
 40
0.0
 40
0.0
 40
0.108123963
 40
0.2253902859
 40
0.4791499021
 40
0.7441583648
 40
1.0
 40
1.0
 40
1.0
 40
1.0
 10
16.232452241
 20
11.5824123853
 30
0.0
 10
16.2330525618
 20
11.5816582431
 30
0.0
 10
16.2344380441
 20
11.5801907569
 30
0.0
 10
16.2377634564
 20
11.5774953523
 30
0.0
 10
16.2427753364
 20
11.5747394369
 30
0.0
 10
16.2493856424
 20
11.5726237851
 30
0.0
 10
16.2540379955
 20
11.5720755912
 30
0.0
 10
16.2563187793
 20
11.5720755912
 30
0.0
  0
SPLINE
  5
2D8
100
AcDbEntity
  8
LAYER_FEATURE
100
AcDbSpline
 62
7
  6
CONTINUOUS
 70
0
 71
3
 72
12
 73
8
 74
0
 42
0.0000001
 43
0.0000001
 44
0.0000000001
 40
0.0
 40
0.0
 40
0.0
 40
0.0
 40
0.3032536732
 40
0.5692171305
 40
0.7966446522
 40
0.9000550778
 40
1.0
 40
1.0
 40
1.0
 40
1.0
 10
15.9947772751
 20
11.5720755912
 30
0.0
 10
15.9964073355
 20
11.5720755912
 30
0.0
 10
15.9994791936
 20
11.5723369129
 30
0.0
 10
16.0036047998
 20
11.5736260578
 30
0.0
 10
16.0063089327
 20
11.5754932799
 30
0.0
 10
16.0077186441
 20
11.5773520184
 30
0.0
 10
16.0081682823
 20
11.578361515
 30
0.0
 10
16.0083262974
 20
11.5788749785
 30
0.0
  0
SPLINE
  5
2D9
100
AcDbEntity
  8
LAYER_FEATURE
100
AcDbSpline
 62
7
  6
CONTINUOUS
 70
0
 71
3
 72
12
 73
8
 74
0
 42
0.0000001
 43
0.0000001
 44
0.0000000001
 40
0.0
 40
0.0
 40
0.0
 40
0.0
 40
0.108123963
 40
0.2253902859
 40
0.4791499021
 40
0.7441583648
 40
1.0
 40
1.0
 40
1.0
 40
1.0
 10
15.7143554319
 20
11.5824123853
 30
0.0
 10
15.7149557527
 20
11.5816582431
 30
0.0
 10
15.716341235
 20
11.5801907569
 30
0.0
 10
15.7196666473
 20
11.5774953523
 30
0.0
 10
15.7246785272
 20
11.5747394369
 30
0.0
 10
15.7312888333
 20
11.5726237851
 30
0.0
 10
15.7359411864
 20
11.5720755912
 30
0.0
 10
15.7382219702
 20
11.5720755912
 30
0.0
  0
SPLINE
  5
2DA
100
AcDbEntity
  8
LAYER_FEATURE
100
AcDbSpline
 62
7
  6
CONTINUOUS
 70
0
 71
3
 72
12
 73
8
 74
0
 42
0.0000001
 43
0.0000001
 44
0.0000000001
 40
0.0
 40
0.0
 40
0.0
 40
0.0
 40
0.3032537504
 40
0.5692171365
 40
0.7966445892
 40
0.900055125
 40
1.0
 40
1.0
 40
1.0
 40
1.0
 10
15.476680466
 20
11.5720755912
 30
0.0
 10
15.4783105267
 20
11.5720755912
 30
0.0
 10
15.4813823842
 20
11.5723369153
 30
0.0
 10
15.4855079918
 20
11.573626055
 30
0.0
 10
15.4882121223
 20
11.575493281
 30
0.0
 10
15.4896218328
 20
11.5773520195
 30
0.0
 10
15.4900714739
 20
11.5783615151
 30
0.0
 10
15.4902294896
 20
11.5788749781
 30
0.0
  0
SPLINE
  5
2DB
100
AcDbEntity
  8
LAYER_FEATURE
100
AcDbSpline
 62
7
  6
CONTINUOUS
 70
0
 71
3
 72
12
 73
8
 74
0
 42
0.0000001
 43
0.0000001
 44
0.0000000001
 40
0.0
 40
0.0
 40
0.0
 40
0.0
 40
0.108123963
 40
0.2253902859
 40
0.4791499021
 40
0.7441583648
 40
1.0
 40
1.0
 40
1.0
 40
1.0
 10
15.1962586228
 20
11.5824123853
 30
0.0
 10
15.1968589435
 20
11.5816582431
 30
0.0
 10
15.1982444259
 20
11.5801907569
 30
0.0
 10
15.2015698381
 20
11.5774953523
 30
0.0
 10
15.2065817181
 20
11.5747394369
 30
0.0
 10
15.2131920242
 20
11.5726237851
 30
0.0
 10
15.2178443772
 20
11.5720755912
 30
0.0
 10
15.2201251611
 20
11.5720755912
 30
0.0
  0
SPLINE
  5
2DC
100
AcDbEntity
  8
LAYER_FEATURE
100
AcDbSpline
 62
7
  6
CONTINUOUS
 70
0
 71
3
 72
12
 73
8
 74
0
 42
0.0000001
 43
0.0000001
 44
0.0000000001
 40
0.0
 40
0.0
 40
0.0
 40
0.0
 40
0.3032536732
 40
0.5692171305
 40
0.7966446522
 40
0.9000550778
 40
1.0
 40
1.0
 40
1.0
 40
1.0
 10
14.9585836568
 20
11.5720755912
 30
0.0
 10
14.9602137172
 20
11.5720755912
 30
0.0
 10
14.9632855754
 20
11.5723369129
 30
0.0
 10
14.9674111815
 20
11.5736260578
 30
0.0
 10
14.9701153144
 20
11.5754932799
 30
0.0
 10
14.9715250259
 20
11.5773520184
 30
0.0
 10
14.971974664
 20
11.578361515
 30
0.0
 10
14.9721326791
 20
11.5788749785
 30
0.0
  0
SPLINE
  5
2DD
100
AcDbEntity
  8
LAYER_FEATURE
100
AcDbSpline
 62
7
  6
CONTINUOUS
 70
0
 71
3
 72
12
 73
8
 74
0
 42
0.0000001
 43
0.0000001
 44
0.0000000001
 40
0.0
 40
0.0
 40
0.0
 40
0.0
 40
0.108123963
 40
0.2253902859
 40
0.4791499021
 40
0.7441583648
 40
1.0
 40
1.0
 40
1.0
 40
1.0
 10
14.6781618136
 20
11.5824123853
 30
0.0
 10
14.6787621344
 20
11.5816582431
 30
0.0
 10
14.6801476168
 20
11.5801907569
 30
0.0
 10
14.683473029
 20
11.5774953523
 30
0.0
 10
14.688484909
 20
11.5747394369
 30
0.0
 10
14.695095215
 20
11.5726237851
 30
0.0
 10
14.6997475681
 20
11.5720755912
 30
0.0
 10
14.702028352
 20
11.5720755912
 30
0.0
  0
SPLINE
  5
2DE
100
AcDbEntity
  8
LAYER_FEATURE
100
AcDbSpline
 62
7
  6
CONTINUOUS
 70
0
 71
3
 72
12
 73
8
 74
0
 42
0.0000001
 43
0.0000001
 44
0.0000000001
 40
0.0
 40
0.0
 40
0.0
 40
0.0
 40
0.3032536732
 40
0.5692171305
 40
0.7966446522
 40
0.9000550778
 40
1.0
 40
1.0
 40
1.0
 40
1.0
 10
14.4404868477
 20
11.5720755912
 30
0.0
 10
14.4421169081
 20
11.5720755912
 30
0.0
 10
14.4451887662
 20
11.5723369129
 30
0.0
 10
14.4493143724
 20
11.5736260578
 30
0.0
 10
14.4520185053
 20
11.5754932799
 30
0.0
 10
14.4534282168
 20
11.5773520184
 30
0.0
 10
14.4538778549
 20
11.578361515
 30
0.0
 10
14.45403587
 20
11.5788749785
 30
0.0
  0
SPLINE
  5
2DF
100
AcDbEntity
  8
LAYER_FEATURE
100
AcDbSpline
 62
7
  6
CONTINUOUS
 70
0
 71
3
 72
12
 73
8
 74
0
 42
0.0000001
 43
0.0000001
 44
0.0000000001
 40
0.0
 40
0.0
 40
0.0
 40
0.0
 40
0.108123963
 40
0.2253902859
 40
0.4791499021
 40
0.7441583648
 40
1.0
 40
1.0
 40
1.0
 40
1.0
 10
14.1600650045
 20
11.5824123853
 30
0.0
 10
14.1606653253
 20
11.5816582431
 30
0.0
 10
14.1620508076
 20
11.5801907569
 30
0.0
 10
14.1653762199
 20
11.5774953523
 30
0.0
 10
14.1703880999
 20
11.5747394369
 30
0.0
 10
14.1769984059
 20
11.5726237851
 30
0.0
 10
14.181650759
 20
11.5720755912
 30
0.0
 10
14.1839315428
 20
11.5720755912
 30
0.0
  0
SPLINE
  5
2E0
100
AcDbEntity
  8
LAYER_FEATURE
100
AcDbSpline
 62
7
  6
CONTINUOUS
 70
0
 71
3
 72
12
 73
8
 74
0
 42
0.0000001
 43
0.0000001
 44
0.0000000001
 40
0.0
 40
0.0
 40
0.0
 40
0.0
 40
0.3032536732
 40
0.5692171305
 40
0.7966446522
 40
0.9000550778
 40
1.0
 40
1.0
 40
1.0
 40
1.0
 10
13.9223900386
 20
11.5720755912
 30
0.0
 10
13.9240200989
 20
11.5720755912
 30
0.0
 10
13.9270919571
 20
11.5723369129
 30
0.0
 10
13.9312175632
 20
11.5736260578
 30
0.0
 10
13.9339216962
 20
11.5754932799
 30
0.0
 10
13.9353314076
 20
11.5773520184
 30
0.0
 10
13.9357810458
 20
11.578361515
 30
0.0
 10
13.9359390609
 20
11.5788749785
 30
0.0
  0
SPLINE
  5
2E1
100
AcDbEntity
  8
LAYER_FEATURE
100
AcDbSpline
 62
7
  6
CONTINUOUS
 70
0
 71
3
 72
12
 73
8
 74
0
 42
0.0000001
 43
0.0000001
 44
0.0000000001
 40
0.0
 40
0.0
 40
0.0
 40
0.0
 40
0.108123963
 40
0.2253902859
 40
0.4791499021
 40
0.7441583648
 40
1.0
 40
1.0
 40
1.0
 40
1.0
 10
13.6419681954
 20
11.5824123853
 30
0.0
 10
13.6425685161
 20
11.5816582431
 30
0.0
 10
13.6439539985
 20
11.5801907569
 30
0.0
 10
13.6472794108
 20
11.5774953523
 30
0.0
 10
13.6522912907
 20
11.5747394369
 30
0.0
 10
13.6589015968
 20
11.5726237851
 30
0.0
 10
13.6635539498
 20
11.5720755912
 30
0.0
 10
13.6658347337
 20
11.5720755912
 30
0.0
  0
SPLINE
  5
2E2
100
AcDbEntity
  8
0
100
AcDbSpline
 62
7
  6
CONTINUOUS
 70
0
 71
3
 72
12
 73
8
 74
0
 42
0.0000001
 43
0.0000001
 44
0.0000000001
 40
0.0
 40
0.0
 40
0.0
 40
0.0
 40
0.3032536732
 40
0.5692171305
 40
0.7966446522
 40
0.9000550778
 40
1.0
 40
1.0
 40
1.0
 40
1.0
 10
13.4042932295
 20
11.5720755912
 30
0.0
 10
13.4059232898
 20
11.5720755912
 30
0.0
 10
13.408995148
 20
11.5723369129
 30
0.0
 10
13.4131207541
 20
11.5736260578
 30
0.0
 10
13.415824887
 20
11.5754932799
 30
0.0
 10
13.4172345985
 20
11.5773520184
 30
0.0
 10
13.4176842366
 20
11.578361515
 30
0.0
 10
13.4178422517
 20
11.5788749785
 30
0.0
  0
SPLINE
  5
2E3
100
AcDbEntity
  8
0
100
AcDbSpline
 62
7
  6
CONTINUOUS
 70
0
 71
3
 72
12
 73
8
 74
0
 42
0.0000001
 43
0.0000001
 44
0.0000000001
 40
0.0
 40
0.0
 40
0.0
 40
0.0
 40
0.108123963
 40
0.2253902859
 40
0.4791499021
 40
0.7441583648
 40
1.0
 40
1.0
 40
1.0
 40
1.0
 10
13.1238713863
 20
11.5824123853
 30
0.0
 10
13.124471707
 20
11.5816582431
 30
0.0
 10
13.1258571894
 20
11.5801907569
 30
0.0
 10
13.1291826016
 20
11.5774953523
 30
0.0
 10
13.1341944816
 20
11.5747394369
 30
0.0
 10
13.1408047877
 20
11.5726237851
 30
0.0
 10
13.1454571407
 20
11.5720755912
 30
0.0
 10
13.1477379246
 20
11.5720755912
 30
0.0
  0
SPLINE
  5
2E4
100
AcDbEntity
  8
0
100
AcDbSpline
 62
7
  6
CONTINUOUS
 70
0
 71
3
 72
11
 73
7
 74
0
 42
0.0000001
 43
0.0000001
 44
0.0000000001
 40
0.0
 40
0.0
 40
0.0
 40
0.0
 40
0.3026134201
 40
0.5698765566
 40
0.7977404036
 40
1.0
 40
1.0
 40
1.0
 40
1.0
 10
12.9001373527
 20
11.8828805753
 30
0.0
 10
12.8995525424
 20
11.8828805753
 30
0.0
 10
12.8984477021
 20
11.8827831885
 30
0.0
 10
12.8969601334
 20
11.8823223993
 30
0.0
 10
12.8958253506
 20
11.881545573
 30
0.0
 10
12.895373684
 20
11.8808066818
 30
0.0
 10
12.8952600758
 20
11.8804326831
 30
0.0
  0
SPLINE
  5
2E5
100
AcDbEntity
  8
0
100
AcDbSpline
 62
7
  6
CONTINUOUS
 70
0
 71
3
 72
11
 73
7
 74
0
 42
0.0000001
 43
0.0000001
 44
0.0000000001
 40
0.0
 40
0.0
 40
0.0
 40
0.0
 40
0.2113316853
 40
0.4633552044
 40
0.7355555478
 40
1.0
 40
1.0
 40
1.0
 40
1.0
 10
17.5008221792
 20
11.8782185006
 30
0.0
 10
17.5004892494
 20
11.8788969401
 30
0.0
 10
17.4993844185
 20
11.8801940209
 30
0.0
 10
17.4971651573
 20
11.8816450338
 30
0.0
 10
17.4944942057
 20
11.8826181933
 30
0.0
 10
17.4925720666
 20
11.8828805753
 30
0.0
 10
17.4916264078
 20
11.8828805753
 30
0.0
  0
ENDSEC
  0
SECTION
  2
OBJECTS
  0
DICTIONARY
  5
C
100
AcDbDictionary
280
0
281
1
  3
ACAD_GROUP
350
D
  3
ACAD_MLINESTYLE
350
17
  3
ACAD_LAYOUT
350
1A
  3
ACAD_PLOTSETTINGS
350
19
  3
ACAD_PLOTSTYLENAME
350
E
  0
DICTIONARY
  5
D
102
{ACAD_REACTORS
330
C
102
}
100
AcDbDictionary
280
0
281
1
  0
ACDBDICTIONARYWDFLT
  5
E
102
{ACAD_REACTORS
330
C
102
}
100
AcDbDictionary
281
1
  3
Normal
350
F
100
AcDbDictionaryWithDefault
340
F
  0
DICTIONARY
  5
17
102
{ACAD_REACTORS
330
C
102
}
100
AcDbDictionary
280
0
281
1
  3
Standard
350
18
  0
DICTIONARY
  5
19
102
{ACAD_REACTORS
330
C
102
}
100
AcDbDictionary
281
1
  0
DICTIONARY
  5
1A
102
{ACAD_REACTORS
330
C
102
}
100
AcDbDictionary
281
1
  3
Model
350
2E6
  3
Layout1
350
2E7
  0
ACDBPLACEHOLDER
  5
F
102
{ACAD_REACTORS
330
E
102
}
  0
MLINESTYLE
  5
18
102
{ACAD_REACTORS
330
17
102
}
100
AcDbMlineStyle
  2
STANDARD
 70
0
  3

 62
256
 51
90.0
 52
90.0
 71
2
 49
0.5
 62
256
  6
BYLAYER
 49
-0.5
 62
256
  6
BYLAYER
  0
LAYOUT
  5
2E6
102
{ACAD_REACTORS
330
1A
102
}
100
AcDbPlotSettings
  1

  2
none_device
  4
ANSI_C_(22.00_x_17.00_Inches)
  6

 40
0.0
 41
0.0
 42
0.0
 43
0.0
 44
558.8
 45
431.8
 46
0.0
 47
0.0
 48
0.0
 49
0.0
140
0.0
141
0.0
142
1.0
143
1.0
 70
1024
 72
0
 73
0
 74
0
  7

 75
0
147
1.0
148
0.0
149
0.0
100
AcDbLayout
  1
Model
 70
0
 71
0
 10
0.0
 20
0.0
 11
22.0
 21
17.0
 12
0.0
 22
0.0
 32
0.0
 14
0.0
 24
0.0
 34
0.0
 15
0.0
 25
0.0
 35
0.0
146
0.0
 13
0.0
 23
0.0
 33
0.0
 16
1.0
 26
0.0
 36
0.0
 17
0.0
 27
1.0
 37
0.0
 76
0
330
21C
345
0
346
0
  0
LAYOUT
  5
2E7
102
{ACAD_REACTORS
330
1A
102
}
100
AcDbPlotSettings
  1

  2
none_device
  4
ANSI_C_(22.00_x_17.00_Inches)
  6

 40
0.0
 41
0.0
 42
0.0
 43
0.0
 44
558.8
 45
431.8
 46
0.0
 47
0.0
 48
0.0
 49
0.0
140
0.0
141
0.0
142
1.0
143
1.0
 70
0
 72
0
 73
0
 74
0
  7

 75
0
147
1.0
148
0.0
149
0.0
100
AcDbLayout
  1
Layout1
 70
0
 71
1
 10
0.0
 20
0.0
 11
22.0
 21
17.0
 12
0.0
 22
0.0
 32
0.0
 14
0.0
 24
0.0
 34
0.0
 15
0.0
 25
0.0
 35
0.0
146
0.0
 13
0.0
 23
0.0
 33
0.0
 16
1.0
 26
0.0
 36
0.0
 17
0.0
 27
1.0
 37
0.0
 76
0
330
21D
345
0
346
0
  0
ENDSEC
  0
EOF