999
DXF file: _cgs_temp_output.dxf
999
Pro/ENGINEER 2016360 by Parametric Technology Corporation
  0
SECTION
  2
HEADER
  9
$ACADVER
  1
AC1021
  9
$DWGCODEPAGE
  3
ANSI_1252
  9
$EXTMAX
 10
22.0
 20
17.0
 30
0.0
  9
$EXTMIN
 10
0.0
 20
0.0
 30
0.0
  9
$LIMMIN
 10
0.0
 20
0.0
  9
$LIMMAX
 10
22.0
 20
17.0
  9
$VIEWCTR
 10
11.0
 20
8.5
  9
$VIEWSIZE
 40
17.0
  9
$CLAYER
  8
0
  9
$LTSCALE
 40
1.21
  9
$CELTYPE
  6
BYLAYER
  9
$DIMSCALE
 40
1.0
  9
$DIMASZ
 40
0.1875
  9
$DIMEXO
 40
0.0625
  9
$DIMDLI
 40
0.836
  9
$DIMEXE
 40
0.125
  9
$DIMCEN
 40
0.198
  9
$DIMLFAC
 40
1.0
  9
$DIMBLK
  1
_CLOSED
  9
$DIMALT
 70
0
  9
$DIMALTF
 40
25.4
  9
$DIMTXT
 40
0.15625
  9
$DIMTOL
 70
0
  9
$DIMLIM
 70
0
  9
$DIMTFAC
 40
1.0
  9
$DIMGAP
 40
0.09
  9
$DIMDSEP
 70
46
  9
$AUNITS
 70
0
  9
$PDMODE
 70
3
  9
$PDSIZE
 40
0.3125
  9
$HANDSEED
  5
2D1
  9
$TILEMODE
 70
1
  9
$MEASUREMENT
 70
0
  9
$INSUNITS
 70
1
  0
ENDSEC
  0
SECTION
  2
CLASSES
  0
CLASS
  1
ACDBDICTIONARYWDFLT
  2
AcDbDictionaryWithDefault
  3
AutoCAD 2000
 90
0
 91
1
280
0
281
0
  0
CLASS
  1
ACDBPLACEHOLDER
  2
AcDbPlaceHolder
  3
AutoCAD 2000
 90
0
 91
1
280
0
281
0
  0
CLASS
  1
LAYOUT
  2
AcDbLayout
  3
AutoCAD 2000
 90
0
 91
0
280
0
281
0
  0
ENDSEC
  0
SECTION
  2
TABLES
  0
TABLE
  2
VPORT
  5
8
100
AcDbSymbolTable
 70
2
  0
VPORT
  5
1F4
100
AcDbSymbolTableRecord
100
AcDbViewportTableRecord
  2
*ACTIVE
 70
0
 10
0.0
 20
0.0
 11
1.0
 21
1.0
 12
11.0
 22
8.5
 13
0.0
 23
0.0
 14
1.0
 24
1.0
 15
0.0
 25
0.0
 16
0.0
 26
0.0
 36
1.0
 17
0.0
 27
0.0
 37
0.0
 40
17.0
 41
1.2941176471
 42
50.0
 43
0.0
 44
0.0
 50
0.0
 51
0.0
 71
0
 72
100
 73
1
 74
1
 75
0
 76
0
 77
0
 78
0
  0
ENDTAB
  0
TABLE
  2
LTYPE
  5
5
100
AcDbSymbolTable
 70
6
  0
LTYPE
  5
14
100
AcDbSymbolTableRecord
100
AcDbLinetypeTableRecord
  2
BYBLOCK
 70
0
  3

 72
65
 73
0
 40
0.0
  0
LTYPE
  5
15
100
AcDbSymbolTableRecord
100
AcDbLinetypeTableRecord
  2
BYLAYER
 70
0
  3

 72
65
 73
0
 40
0.0
  0
LTYPE
  5
16
100
AcDbSymbolTableRecord
100
AcDbLinetypeTableRecord
  2
CONTINUOUS
 70
64
  3
Solid line
 72
65
 73
0
 40
0.0
  0
LTYPE
  5
1F5
100
AcDbSymbolTableRecord
100
AcDbLinetypeTableRecord
  2
CENTER
 70
64
  3
____ _ ____ _ ____ _ ____ _ ____ _ ____ _ ____
 72
65
 73
4
 40
0.6
 49
0.375
 74
0
 49
-0.075
 74
0
 49
0.075
 74
0
 49
-0.075
 74
0
  0
LTYPE
  5
1F6
100
AcDbSymbolTableRecord
100
AcDbLinetypeTableRecord
  2
HIDDEN
 70
64
  3
- - - - - - - - - - - - - - - - - - - -
 72
65
 73
2
 40
0.2
 49
0.1
 74
0
 49
-0.1
 74
0
  0
LTYPE
  5
1F7
100
AcDbSymbolTableRecord
100
AcDbLinetypeTableRecord
  2
PHANTOM
 70
64
  3
_____ _ _ _____ _ _ _____ _ _ _____
 72
65
 73
6
 40
0.8
 49
0.45
 74
0
 49
-0.05
 74
0
 49
0.1
 74
0
 49
-0.05
 74
0
 49
0.1
 74
0
 49
-0.05
 74
0
  0
LTYPE
  5
1F8
100
AcDbSymbolTableRecord
100
AcDbLinetypeTableRecord
  2
DOT
 70
64
  3
. . . . . . . . . . . . . . . . . . . .
 72
65
 73
2
 40
0.2
 49
0.1
 74
0
 49
-0.1
 74
0
  0
LTYPE
  5
1F9
100
AcDbSymbolTableRecord
100
AcDbLinetypeTableRecord
  2
DASHED
 70
64
  3
- - - - - - - - - - - - - - - - - - - -
 72
65
 73
2
 40
0.2
 49
0.1
 74
0
 49
-0.1
 74
0
  0
ENDTAB
  0
TABLE
  2
LAYER
  5
2
100
AcDbSymbolTable
 70
36
  0
LAYER
  5
10
100
AcDbSymbolTableRecord
100
AcDbLayerTableRecord
  2
0
 70
0
 62
7
  6
CONTINUOUS
370
-3
390
F
  0
LAYER
  5
1FA
100
AcDbSymbolTableRecord
100
AcDbLayerTableRecord
  2
DEFAULT_1
 70
0
 62
7
  6
CENTER
370
-3
390
F
  0
LAYER
  5
1FB
100
AcDbSymbolTableRecord
100
AcDbLayerTableRecord
  2
DEFAULT_2
 70
0
 62
8
  6
HIDDEN
370
-3
390
F
  0
LAYER
  5
1FC
100
AcDbSymbolTableRecord
100
AcDbLayerTableRecord
  2
DEFAULT_3
 70
0
 62
7
  6
PHANTOM
370
-3
390
F
  0
LAYER
  5
1FD
100
AcDbSymbolTableRecord
100
AcDbLayerTableRecord
  2
01_ALL_DTM_PLN
 70
0
 62
7
  6
CONTINUOUS
370
-3
390
F
  0
LAYER
  5
1FE
100
AcDbSymbolTableRecord
100
AcDbLayerTableRecord
  2
01__ASM_ALL_DTM_PLN
 70
0
 62
7
  6
CONTINUOUS
370
-3
390
F
  0
LAYER
  5
1FF
100
AcDbSymbolTableRecord
100
AcDbLayerTableRecord
  2
01__ASM_DEF_DTM_PLN
 70
0
 62
7
  6
CONTINUOUS
370
-3
390
F
  0
LAYER
  5
200
100
AcDbSymbolTableRecord
100
AcDbLayerTableRecord
  2
01___PRT_ALL_DTM_PLN
 70
0
 62
7
  6
CONTINUOUS
370
-3
390
F
  0
LAYER
  5
201
100
AcDbSymbolTableRecord
100
AcDbLayerTableRecord
  2
01___PRT_DEF_DTM_PLN
 70
0
 62
7
  6
CONTINUOUS
370
-3
390
F
  0
LAYER
  5
202
100
AcDbSymbolTableRecord
100
AcDbLayerTableRecord
  2
02_ALL_AXES
 70
0
 62
7
  6
CONTINUOUS
370
-3
390
F
  0
LAYER
  5
203
100
AcDbSymbolTableRecord
100
AcDbLayerTableRecord
  2
02__ASM_ALL_AXES
 70
0
 62
7
  6
CONTINUOUS
370
-3
390
F
  0
LAYER
  5
204
100
AcDbSymbolTableRecord
100
AcDbLayerTableRecord
  2
02___PRT_ALL_AXES
 70
0
 62
7
  6
CONTINUOUS
370
-3
390
F
  0
LAYER
  5
205
100
AcDbSymbolTableRecord
100
AcDbLayerTableRecord
  2
03_ALL_CURVES
 70
0
 62
7
  6
CONTINUOUS
370
-3
390
F
  0
LAYER
  5
206
100
AcDbSymbolTableRecord
100
AcDbLayerTableRecord
  2
03__ASM_ALL_CURVES
 70
0
 62
7
  6
CONTINUOUS
370
-3
390
F
  0
LAYER
  5
207
100
AcDbSymbolTableRecord
100
AcDbLayerTableRecord
  2
03___PRT_ALL_CURVES
 70
0
 62
7
  6
CONTINUOUS
370
-3
390
F
  0
LAYER
  5
208
100
AcDbSymbolTableRecord
100
AcDbLayerTableRecord
  2
04_ALL_DTM_PNT
 70
0
 62
7
  6
CONTINUOUS
370
-3
390
F
  0
LAYER
  5
209
100
AcDbSymbolTableRecord
100
AcDbLayerTableRecord
  2
04__ASM_ALL_DTM_PNT
 70
0
 62
7
  6
CONTINUOUS
370
-3
390
F
  0
LAYER
  5
20A
100
AcDbSymbolTableRecord
100
AcDbLayerTableRecord
  2
04___PRT_ALL_DTM_PNT
 70
0
 62
7
  6
CONTINUOUS
370
-3
390
F
  0
LAYER
  5
20B
100
AcDbSymbolTableRecord
100
AcDbLayerTableRecord
  2
05_ALL_DTM_CSYS
 70
0
 62
7
  6
CONTINUOUS
370
-3
390
F
  0
LAYER
  5
20C
100
AcDbSymbolTableRecord
100
AcDbLayerTableRecord
  2
05__ASM_ALL_DTM_CSYS
 70
0
 62
7
  6
CONTINUOUS
370
-3
390
F
  0
LAYER
  5
20D
100
AcDbSymbolTableRecord
100
AcDbLayerTableRecord
  2
05__ASM_DEF_DTM_CSYS
 70
0
 62
7
  6
CONTINUOUS
370
-3
390
F
  0
LAYER
  5
20E
100
AcDbSymbolTableRecord
100
AcDbLayerTableRecord
  2
05___PRT_ALL_DTM_CSYS
 70
0
 62
7
  6
CONTINUOUS
370
-3
390
F
  0
LAYER
  5
20F
100
AcDbSymbolTableRecord
100
AcDbLayerTableRecord
  2
05___PRT_DEF_DTM_CSYS
 70
0
 62
7
  6
CONTINUOUS
370
-3
390
F
  0
LAYER
  5
210
100
AcDbSymbolTableRecord
100
AcDbLayerTableRecord
  2
06_ALL_SURFS
 70
0
 62
7
  6
CONTINUOUS
370
-3
390
F
  0
LAYER
  5
211
100
AcDbSymbolTableRecord
100
AcDbLayerTableRecord
  2
06__ASM_ALL_SURFS
 70
0
 62
7
  6
CONTINUOUS
370
-3
390
F
  0
LAYER
  5
212
100
AcDbSymbolTableRecord
100
AcDbLayerTableRecord
  2
06___PRT_ALL_SURFS
 70
0
 62
7
  6
CONTINUOUS
370
-3
390
F
  0
LAYER
  5
213
100
AcDbSymbolTableRecord
100
AcDbLayerTableRecord
  2
07__ASM_ALL_SKELETONS
 70
0
 62
7
  6
CONTINUOUS
370
-3
390
F
  0
ENDTAB
  0
TABLE
  2
STYLE
  5
3
100
AcDbSymbolTable
 70
1
  0
STYLE
  5
11
100
AcDbSymbolTableRecord
100
AcDbTextStyleTableRecord
  2
STANDARD
 70
0
 40
0.0
 41
0.8
 50
0.0
 71
0
 42
0.2
  3
txt
  4

  0
STYLE
  5
214
100
AcDbSymbolTableRecord
100
AcDbTextStyleTableRecord
  2
TEXTSTYLE_1
 70
0
 40
0.0
 41
0.8
 50
0.0
 71
0
 42
0.2
  3
gdt
  4

  0
ENDTAB
  0
TABLE
  2
VIEW
  5
6
100
AcDbSymbolTable
 70
0
  0
ENDTAB
  0
TABLE
  2
UCS
  5
7
100
AcDbSymbolTable
 70
0
  0
ENDTAB
  0
TABLE
  2
APPID
  5
9
100
AcDbSymbolTable
 70
1
  0
APPID
  5
215
100
AcDbSymbolTableRecord
100
AcDbRegAppTableRecord
  2
ACAD
 70
0
  0
ENDTAB
  0
TABLE
  2
BLOCK_RECORD
  5
1
100
AcDbSymbolTable
 70
0
  0
BLOCK_RECORD
  5
216
100
AcDbSymbolTableRecord
100
AcDbBlockTableRecord
  2
*Model_Space
  0
BLOCK_RECORD
  5
217
100
AcDbSymbolTableRecord
100
AcDbBlockTableRecord
  2
*Paper_Space
  0
ENDTAB
  0
TABLE
  2
DIMSTYLE
  5
A
100
AcDbSymbolTable
 70
1
100
AcDbDimStyleTable
 71
0
  0
DIMSTYLE
105
218
100
AcDbSymbolTableRecord
100
AcDbDimStyleTableRecord
  2
STANDARD
 70
0
  3

  4

 40
1.0
 41
0.1875
 42
0.0625
 43
0.38
 44
0.125
 45
0.0
 46
0.0
 47
0.0001
 48
0.0001
140
0.15625
141
0.09
142
0.0
143
25.4
144
1.0
145
0.0
146
1.0
147
0.09
 71
0.0
 72
0.0
 73
1
 74
1
 75
0
 76
0
 77
0
 78
4
 79
1
170
0
171
3
172
0
173
0
174
0
175
0
176
0
177
0
178
0
270
2
179
4
271
4
272
4
273
2
274
2
275
0
280
0
281
0
282
0
283
1
284
4
285
0
286
0
287
3
288
0
340
11
278
46
  0
ENDTAB
  0
ENDSEC
  0
SECTION
  2
BLOCKS
  0
BLOCK
  5
20
100
AcDbEntity
  8
0
100
AcDbBlockBegin
  2
*Model_Space
 70
0
 10
0.0
 20
0.0
 30
0.0
  3
*Model_Space
  1

  0
ENDBLK
  5
21
100
AcDbEntity
  8
0
100
AcDbBlockEnd
  0
BLOCK
  5
1C
100
AcDbEntity
  8
0
100
AcDbBlockBegin
  2
*Paper_Space
 70
0
 10
0.0
 20
0.0
 30
0.0
  3
*Paper_Space
  1

  0
ENDBLK
  5
1D
100
AcDbEntity
  8
0
100
AcDbBlockEnd
  0
ENDSEC
  0
SECTION
  2
ENTITIES
  0
MTEXT
  5
219
100
AcDbEntity
  8
0
100
AcDbMText
 62
7
  6
CONTINUOUS
  7
STANDARD
 71
1
 72
1
 10
15.9560215477
 20
0.9479130325
 30
0.0
 11
1.0
 21
0.0
 31
0.0
 44
0.9
  1
SCALE: 1:1.000
 40
0.3
 41
3.36
  0
LINE
  5
21A
100
AcDbEntity
  8
0
100
AcDbLine
 62
7
  6
CONTINUOUS
 10
0.0
 20
0.0
 11
0.0
 21
17.0
  0
LINE
  5
21B
100
AcDbEntity
  8
0
100
AcDbLine
 62
7
  6
CONTINUOUS
 10
0.0
 20
0.0
 11
22.0
 21
0.0
  0
LINE
  5
21C
100
AcDbEntity
  8
0
100
AcDbLine
 62
7
  6
CONTINUOUS
 10
0.0
 20
17.0
 11
22.0
 21
17.0
  0
LINE
  5
21D
100
AcDbEntity
  8
0
100
AcDbLine
 62
7
  6
CONTINUOUS
 10
22.0
 20
0.0
 11
22.0
 21
17.0
  0
LINE
  5
21E
100
AcDbEntity
  8
0
100
AcDbLine
 62
7
  6
CONTINUOUS
 10
4.949264914
 20
5.6087025739
 11
4.949264914
 21
5.5457104479
  0
LINE
  5
21F
100
AcDbEntity
  8
0
100
AcDbLine
 62
7
  6
CONTINUOUS
 10
5.0174775398
 20
5.4976596669
 11
5.043010992
 21
5.4429030018
  0
LINE
  5
220
100
AcDbEntity
  8
0
100
AcDbLine
 62
7
  6
CONTINUOUS
 10
4.949264914
 20
5.5457104479
 11
4.9650129455
 21
5.5299624164
  0
LINE
  5
221
100
AcDbEntity
  8
0
100
AcDbLine
 62
7
  6
CONTINUOUS
 10
5.2492196233
 20
5.4429030018
 11
5.2747530756
 21
5.4976596669
  0
LINE
  5
222
100
AcDbEntity
  8
0
100
AcDbLine
 62
7
  6
CONTINUOUS
 10
5.4111783272
 20
5.4976596669
 11
5.4367117794
 21
5.4429030018
  0
LINE
  5
223
100
AcDbEntity
  8
0
100
AcDbLine
 62
7
  6
CONTINUOUS
 10
5.3272176699
 20
5.5299624164
 11
5.3429657014
 21
5.5457104479
  0
LINE
  5
224
100
AcDbEntity
  8
0
100
AcDbLine
 62
7
  6
CONTINUOUS
 10
5.3429657014
 20
5.5457104479
 11
5.3587137329
 21
5.5299624164
  0
LINE
  5
225
100
AcDbEntity
  8
0
100
AcDbLine
 62
7
  6
CONTINUOUS
 10
5.6429204107
 20
5.4429030018
 11
5.668453863
 21
5.4976596669
  0
LINE
  5
226
100
AcDbEntity
  8
0
100
AcDbLine
 62
7
  6
CONTINUOUS
 10
5.7209184573
 20
5.5299624164
 11
5.7366664888
 21
5.5457104479
  0
LINE
  5
227
100
AcDbEntity
  8
0
100
AcDbLine
 62
7
  6
CONTINUOUS
 10
5.7366664888
 20
5.5457104479
 11
5.7524145203
 21
5.5299624164
  0
LINE
  5
228
100
AcDbEntity
  8
0
100
AcDbLine
 62
7
  6
CONTINUOUS
 10
5.8048791146
 20
5.4976596669
 11
5.8304125668
 21
5.4429030018
  0
LINE
  5
229
100
AcDbEntity
  8
0
100
AcDbLine
 62
7
  6
CONTINUOUS
 10
5.0608516965
 20
5.4315372196
 11
5.2313789189
 21
5.4315372196
  0
LINE
  5
22A
100
AcDbEntity
  8
0
100
AcDbLine
 62
7
  6
CONTINUOUS
 10
5.4545524839
 20
5.4315372196
 11
5.6250797063
 21
5.4315372196
  0
LINE
  5
22B
100
AcDbEntity
  8
0
100
AcDbLine
 62
7
  6
CONTINUOUS
 10
5.8482532713
 20
5.4315372196
 11
6.0187804937
 21
5.4315372196
  0
LINE
  5
22C
100
AcDbEntity
  8
0
100
AcDbLine
 62
7
  6
CONTINUOUS
 10
6.2419540587
 20
5.4315372196
 11
6.4124812811
 21
5.4315372196
  0
LINE
  5
22D
100
AcDbEntity
  8
0
100
AcDbLine
 62
7
  6
CONTINUOUS
 10
6.6356548461
 20
5.4315372196
 11
6.8061820685
 21
5.4315372196
  0
LINE
  5
22E
100
AcDbEntity
  8
0
100
AcDbLine
 62
7
  6
CONTINUOUS
 10
7.0293556335
 20
5.4315372196
 11
7.1998828559
 21
5.4315372196
  0
LINE
  5
22F
100
AcDbEntity
  8
0
100
AcDbLine
 62
7
  6
CONTINUOUS
 10
6.0366211981
 20
5.4429030018
 11
6.0621546504
 21
5.4976596669
  0
LINE
  5
230
100
AcDbEntity
  8
0
100
AcDbLine
 62
7
  6
CONTINUOUS
 10
6.1146192447
 20
5.5299624164
 11
6.1303672762
 21
5.5457104479
  0
LINE
  5
231
100
AcDbEntity
  8
0
100
AcDbLine
 62
7
  6
CONTINUOUS
 10
4.9650129455
 20
5.5299624164
 11
4.9667723797
 21
5.5299624164
  0
LINE
  5
232
100
AcDbEntity
  8
0
100
AcDbLine
 62
7
  6
CONTINUOUS
 10
5.3254582356
 20
5.5299624164
 11
5.3272176699
 21
5.5299624164
  0
LINE
  5
233
100
AcDbEntity
  8
0
100
AcDbLine
 62
7
  6
CONTINUOUS
 10
5.3587137329
 20
5.5299624164
 11
5.3604731671
 21
5.5299624164
  0
LINE
  5
234
100
AcDbEntity
  8
0
100
AcDbLine
 62
7
  6
CONTINUOUS
 10
5.719159023
 20
5.5299624164
 11
5.7209184573
 21
5.5299624164
  0
LINE
  5
235
100
AcDbEntity
  8
0
100
AcDbLine
 62
7
  6
CONTINUOUS
 10
5.7524145203
 20
5.5299624164
 11
5.7541739545
 21
5.5299624164
  0
LINE
  5
236
100
AcDbEntity
  8
0
100
AcDbLine
 62
7
  6
CONTINUOUS
 10
6.1128598104
 20
5.5299624164
 11
6.1146192447
 21
5.5299624164
  0
LINE
  5
237
100
AcDbEntity
  8
0
100
AcDbLine
 62
7
  6
CONTINUOUS
 10
6.1461153077
 20
5.5299624164
 11
6.1478747419
 21
5.5299624164
  0
LINE
  5
238
100
AcDbEntity
  8
0
100
AcDbLine
 62
7
  6
CONTINUOUS
 10
6.5065605978
 20
5.5299624164
 11
6.5083200321
 21
5.5299624164
  0
LINE
  5
239
100
AcDbEntity
  8
0
100
AcDbLine
 62
7
  6
CONTINUOUS
 10
6.5398160951
 20
5.5299624164
 11
6.5415755293
 21
5.5299624164
  0
LINE
  5
23A
100
AcDbEntity
  8
0
100
AcDbLine
 62
7
  6
CONTINUOUS
 10
6.9002613852
 20
5.5299624164
 11
6.9020208195
 21
5.5299624164
  0
LINE
  5
23B
100
AcDbEntity
  8
0
100
AcDbLine
 62
7
  6
CONTINUOUS
 10
6.9335168825
 20
5.5299624164
 11
6.9352763167
 21
5.5299624164
  0
LINE
  5
23C
100
AcDbEntity
  8
0
100
AcDbLine
 62
7
  6
CONTINUOUS
 10
7.2939621726
 20
5.5299624164
 11
7.2957216069
 21
5.5299624164
  0
LINE
  5
23D
100
AcDbEntity
  8
0
100
AcDbLine
 62
7
  6
CONTINUOUS
 10
7.3114696384
 20
5.6087025739
 11
4.949264914
 21
5.6087025739
  0
LINE
  5
23E
100
AcDbEntity
  8
0
100
AcDbLine
 62
7
  6
CONTINUOUS
 10
6.1303672762
 20
5.5457104479
 11
6.1461153077
 21
5.5299624164
  0
LINE
  5
23F
100
AcDbEntity
  8
0
100
AcDbLine
 62
7
  6
CONTINUOUS
 10
6.198579902
 20
5.4976596669
 11
6.2241133542
 21
5.4429030018
  0
LINE
  5
240
100
AcDbEntity
  8
0
100
AcDbLine
 62
7
  6
CONTINUOUS
 10
6.4303219855
 20
5.4429030018
 11
6.4558554378
 21
5.4976596669
  0
LINE
  5
241
100
AcDbEntity
  8
0
100
AcDbLine
 62
7
  6
CONTINUOUS
 10
6.5083200321
 20
5.5299624164
 11
6.5240680636
 21
5.5457104479
  0
LINE
  5
242
100
AcDbEntity
  8
0
100
AcDbLine
 62
7
  6
CONTINUOUS
 10
6.5240680636
 20
5.5457104479
 11
6.5398160951
 21
5.5299624164
  0
LINE
  5
243
100
AcDbEntity
  8
0
100
AcDbLine
 62
7
  6
CONTINUOUS
 10
6.5922806894
 20
5.4976596669
 11
6.6178141416
 21
5.4429030018
  0
LINE
  5
244
100
AcDbEntity
  8
0
100
AcDbLine
 62
7
  6
CONTINUOUS
 10
6.9020208195
 20
5.5299624164
 11
6.917768851
 21
5.5457104479
  0
LINE
  5
245
100
AcDbEntity
  8
0
100
AcDbLine
 62
7
  6
CONTINUOUS
 10
6.917768851
 20
5.5457104479
 11
6.9335168825
 21
5.5299624164
  0
LINE
  5
246
100
AcDbEntity
  8
0
100
AcDbLine
 62
7
  6
CONTINUOUS
 10
6.8240227729
 20
5.4429030018
 11
6.8495562252
 21
5.4976596669
  0
LINE
  5
247
100
AcDbEntity
  8
0
100
AcDbLine
 62
7
  6
CONTINUOUS
 10
6.9859814768
 20
5.4976596669
 11
7.011514929
 21
5.4429030018
  0
LINE
  5
248
100
AcDbEntity
  8
0
100
AcDbLine
 62
7
  6
CONTINUOUS
 10
7.2957216069
 20
5.5299624164
 11
7.3114696384
 21
5.5457104479
  0
LINE
  5
249
100
AcDbEntity
  8
0
100
AcDbLine
 62
7
  6
CONTINUOUS
 10
7.2177235603
 20
5.4429030018
 11
7.2432570126
 21
5.4976596669
  0
LINE
  5
24A
100
AcDbEntity
  8
0
100
AcDbLine
 62
7
  6
CONTINUOUS
 10
7.3114696384
 20
5.5457104479
 11
7.3114696384
 21
5.6087025739
  0
LINE
  5
24B
100
AcDbEntity
  8
0
100
AcDbLine
 62
7
  6
CONTINUOUS
 10
7.2519744461
 20
9.6472918759
 11
4.8897697217
 21
9.6472918759
  0
LINE
  5
24C
100
AcDbEntity
  8
0
100
AcDbLine
 62
7
  6
CONTINUOUS
 10
4.8897697217
 20
15.5528036869
 11
4.8897697217
 21
9.6472918759
  0
LINE
  5
24D
100
AcDbEntity
  8
0
100
AcDbLine
 62
7
  6
CONTINUOUS
 10
7.2519744461
 20
15.5528036869
 11
7.2519744461
 21
9.6472918759
  0
LINE
  5
24E
100
AcDbEntity
  8
0
100
AcDbLine
 62
7
  6
CONTINUOUS
 10
4.8897697217
 20
15.5528036869
 11
7.2519744461
 21
15.5528036869
  0
LINE
  5
24F
100
AcDbEntity
  8
0
100
AcDbLine
 62
7
  6
CONTINUOUS
 10
12.6075993514
 20
5.3720420273
 11
12.6075993514
 21
5.5492073816
  0
LINE
  5
250
100
AcDbEntity
  8
0
100
AcDbLine
 62
7
  6
CONTINUOUS
 10
12.6075993514
 20
5.3720420273
 11
18.5131111624
 21
5.3720420273
  0
LINE
  5
251
100
AcDbEntity
  8
0
100
AcDbLine
 62
7
  6
CONTINUOUS
 10
18.5131111624
 20
5.4704672241
 11
12.6075993514
 21
5.4704672241
  0
LINE
  5
252
100
AcDbEntity
  8
0
100
AcDbLine
 62
7
  6
CONTINUOUS
 10
18.5131111624
 20
5.4862152556
 11
12.6075993514
 21
5.4862152556
  0
LINE
  5
253
100
AcDbEntity
  8
0
100
AcDbLine
 62
7
  6
CONTINUOUS
 10
18.5131111624
 20
5.5492073816
 11
12.6075993514
 21
5.5492073816
  0
LINE
  5
254
100
AcDbEntity
  8
0
100
AcDbLine
 62
7
  6
CONTINUOUS
 10
18.5131111624
 20
5.3720420273
 11
18.5131111624
 21
5.5492073816
  0
LINE
  5
255
100
AcDbEntity
  8
0
100
AcDbLine
 62
7
  6
CONTINUOUS
 10
13.6780900046
 20
10.2137391763
 11
13.6973987111
 21
10.2039500429
  0
LINE
  5
256
100
AcDbEntity
  8
0
100
AcDbLine
 62
7
  6
CONTINUOUS
 10
13.7555754935
 20
10.1838703318
 11
13.7957964357
 21
10.149833043
  0
LINE
  5
257
100
AcDbEntity
  8
0
100
AcDbLine
 62
7
  6
CONTINUOUS
 10
14.0407124432
 20
10.2137391763
 11
14.0600211497
 21
10.2039500429
  0
LINE
  5
258
100
AcDbEntity
  8
0
100
AcDbLine
 62
7
  6
CONTINUOUS
 10
14.1181979321
 20
10.1838703318
 11
14.1584188743
 21
10.149833043
  0
LINE
  5
259
100
AcDbEntity
  8
0
100
AcDbLine
 62
7
  6
CONTINUOUS
 10
13.6588747689
 20
10.2528957097
 11
13.6780900046
 21
10.2137391763
  0
LINE
  5
25A
100
AcDbEntity
  8
0
100
AcDbLine
 62
7
  6
CONTINUOUS
 10
13.8156958521
 20
10.1427679594
 11
13.9727618251
 21
10.1427679594
  0
LINE
  5
25B
100
AcDbEntity
  8
0
100
AcDbLine
 62
7
  6
CONTINUOUS
 10
14.1783182907
 20
10.1427679594
 11
14.3353842636
 21
10.1427679594
  0
LINE
  5
25C
100
AcDbEntity
  8
0
100
AcDbLine
 62
7
  6
CONTINUOUS
 10
14.5409407293
 20
10.1427679594
 11
14.6980067022
 21
10.1427679594
  0
LINE
  5
25D
100
AcDbEntity
  8
0
100
AcDbLine
 62
7
  6
CONTINUOUS
 10
14.9035631679
 20
10.1427679594
 11
15.0606291408
 21
10.1427679594
  0
LINE
  5
25E
100
AcDbEntity
  8
0
100
AcDbLine
 62
7
  6
CONTINUOUS
 10
15.2661856065
 20
10.1427679594
 11
15.4232515794
 21
10.1427679594
  0
LINE
  5
25F
100
AcDbEntity
  8
0
100
AcDbLine
 62
7
  6
CONTINUOUS
 10
15.628808045
 20
10.1427679594
 11
15.785874018
 21
10.1427679594
  0
LINE
  5
260
100
AcDbEntity
  8
0
100
AcDbLine
 62
7
  6
CONTINUOUS
 10
14.4033348818
 20
10.2137391763
 11
14.4226435882
 21
10.2039500429
  0
LINE
  5
261
100
AcDbEntity
  8
0
100
AcDbLine
 62
7
  6
CONTINUOUS
 10
14.7659573204
 20
10.2137391763
 11
14.7852660268
 21
10.2039500429
  0
LINE
  5
262
100
AcDbEntity
  8
0
100
AcDbLine
 62
7
  6
CONTINUOUS
 10
14.4808203706
 20
10.1838703318
 11
14.5210413129
 21
10.149833043
  0
LINE
  5
263
100
AcDbEntity
  8
0
100
AcDbLine
 62
7
  6
CONTINUOUS
 10
13.6973987111
 20
10.2039500429
 11
13.6990192573
 21
10.2039500429
  0
LINE
  5
264
100
AcDbEntity
  8
0
100
AcDbLine
 62
7
  6
CONTINUOUS
 10
14.0293908083
 20
10.2039500429
 11
14.0310113546
 21
10.2039500429
  0
LINE
  5
265
100
AcDbEntity
  8
0
100
AcDbLine
 62
7
  6
CONTINUOUS
 10
14.0600211497
 20
10.2039500429
 11
14.0616416959
 21
10.2039500429
  0
LINE
  5
266
100
AcDbEntity
  8
0
100
AcDbLine
 62
7
  6
CONTINUOUS
 10
14.3920132469
 20
10.2039500429
 11
14.3936337932
 21
10.2039500429
  0
LINE
  5
267
100
AcDbEntity
  8
0
100
AcDbLine
 62
7
  6
CONTINUOUS
 10
14.4226435882
 20
10.2039500429
 11
14.4242641345
 21
10.2039500429
  0
LINE
  5
268
100
AcDbEntity
  8
0
100
AcDbLine
 62
7
  6
CONTINUOUS
 10
14.7546356855
 20
10.2039500429
 11
14.7562562317
 21
10.2039500429
  0
LINE
  5
269
100
AcDbEntity
  8
0
100
AcDbLine
 62
7
  6
CONTINUOUS
 10
14.7852660268
 20
10.2039500429
 11
14.7868865731
 21
10.2039500429
  0
LINE
  5
26A
100
AcDbEntity
  8
0
100
AcDbLine
 62
7
  6
CONTINUOUS
 10
15.1172581241
 20
10.2039500429
 11
15.1188786703
 21
10.2039500429
  0
LINE
  5
26B
100
AcDbEntity
  8
0
100
AcDbLine
 62
7
  6
CONTINUOUS
 10
15.1478884654
 20
10.2039500429
 11
15.1495090116
 21
10.2039500429
  0
LINE
  5
26C
100
AcDbEntity
  8
0
100
AcDbLine
 62
7
  6
CONTINUOUS
 10
15.4798805627
 20
10.2039500429
 11
15.4815011089
 21
10.2039500429
  0
LINE
  5
26D
100
AcDbEntity
  8
0
100
AcDbLine
 62
7
  6
CONTINUOUS
 10
15.510510904
 20
10.2039500429
 11
15.5121314502
 21
10.2039500429
  0
LINE
  5
26E
100
AcDbEntity
  8
0
100
AcDbLine
 62
7
  6
CONTINUOUS
 10
15.8425030012
 20
10.2039500429
 11
15.8441235475
 21
10.2039500429
  0
LINE
  5
26F
100
AcDbEntity
  8
0
100
AcDbLine
 62
7
  6
CONTINUOUS
 10
15.8346094004
 20
10.2528957097
 11
13.6588747689
 21
10.2528957097
  0
LINE
  5
270
100
AcDbEntity
  8
0
100
AcDbLine
 62
7
  6
CONTINUOUS
 10
15.1285797589
 20
10.2137391763
 11
15.1478884654
 21
10.2039500429
  0
LINE
  5
271
100
AcDbEntity
  8
0
100
AcDbLine
 62
7
  6
CONTINUOUS
 10
14.8434428092
 20
10.1838703318
 11
14.8836637514
 21
10.149833043
  0
LINE
  5
272
100
AcDbEntity
  8
0
100
AcDbLine
 62
7
  6
CONTINUOUS
 10
15.4912021975
 20
10.2137391763
 11
15.510510904
 21
10.2039500429
  0
LINE
  5
273
100
AcDbEntity
  8
0
100
AcDbLine
 62
7
  6
CONTINUOUS
 10
15.2060652478
 20
10.1838703318
 11
15.24628619
 21
10.149833043
  0
LINE
  5
274
100
AcDbEntity
  8
0
100
AcDbLine
 62
7
  6
CONTINUOUS
 10
15.5686876864
 20
10.1838703318
 11
15.6089086286
 21
10.149833043
  0
LINE
  5
275
100
AcDbEntity
  8
0
100
AcDbLine
 62
7
  6
CONTINUOUS
 10
13.9857271626
 20
10.149833043
 11
13.9925419542
 21
10.1838703318
  0
LINE
  5
276
100
AcDbEntity
  8
0
100
AcDbLine
 62
7
  6
CONTINUOUS
 10
15.0884003008
 20
14.8788420264
 11
13.6588747689
 21
10.2528957097
  0
LINE
  5
277
100
AcDbEntity
  8
0
100
AcDbLine
 62
7
  6
CONTINUOUS
 10
13.9925419542
 20
10.1838703318
 11
13.9930104636
 21
10.1856890768
  0
LINE
  5
278
100
AcDbEntity
  8
0
100
AcDbLine
 62
7
  6
CONTINUOUS
 10
13.9855552794
 20
10.1491953162
 11
13.9857271626
 21
10.149833043
  0
LINE
  5
279
100
AcDbEntity
  8
0
100
AcDbLine
 62
7
  6
CONTINUOUS
 10
14.3483496012
 20
10.149833043
 11
14.3551643928
 21
10.1838703318
  0
LINE
  5
27A
100
AcDbEntity
  8
0
100
AcDbLine
 62
7
  6
CONTINUOUS
 10
13.9855645608
 20
10.14919242
 11
13.999610464
 21
10.1946449792
  0
LINE
  5
27B
100
AcDbEntity
  8
0
100
AcDbLine
 62
7
  6
CONTINUOUS
 10
15.8538246361
 20
10.2137391763
 11
15.8346094004
 21
10.2528957097
  0
LINE
  5
27C
100
AcDbEntity
  8
0
100
AcDbLine
 62
7
  6
CONTINUOUS
 10
14.3551643928
 20
10.1838703318
 11
14.3556332028
 21
10.1856889836
  0
LINE
  5
27D
100
AcDbEntity
  8
0
100
AcDbLine
 62
7
  6
CONTINUOUS
 10
14.3481782033
 20
10.1491951629
 11
14.3483496012
 21
10.149833043
  0
LINE
  5
27E
100
AcDbEntity
  8
0
100
AcDbLine
 62
7
  6
CONTINUOUS
 10
14.3481869994
 20
10.14919242
 11
14.3622330596
 21
10.1946454874
  0
LINE
  5
27F
100
AcDbEntity
  8
0
100
AcDbLine
 62
7
  6
CONTINUOUS
 10
14.7109720398
 20
10.149833043
 11
14.7177868314
 21
10.1838703318
  0
LINE
  5
280
100
AcDbEntity
  8
0
100
AcDbLine
 62
7
  6
CONTINUOUS
 10
14.7177868314
 20
10.1838703318
 11
14.7182556414
 21
10.1856889836
  0
LINE
  5
281
100
AcDbEntity
  8
0
100
AcDbLine
 62
7
  6
CONTINUOUS
 10
14.7108006419
 20
10.1491951629
 11
14.7109720398
 21
10.149833043
  0
LINE
  5
282
100
AcDbEntity
  8
0
100
AcDbLine
 62
7
  6
CONTINUOUS
 10
14.710809438
 20
10.14919242
 11
14.7248554982
 21
10.1946454874
  0
LINE
  5
283
100
AcDbEntity
  8
0
100
AcDbLine
 62
7
  6
CONTINUOUS
 10
15.0735944784
 20
10.149833043
 11
15.08040927
 21
10.1838703318
  0
LINE
  5
284
100
AcDbEntity
  8
0
100
AcDbLine
 62
7
  6
CONTINUOUS
 10
15.08040927
 20
10.1838703318
 11
15.08087808
 21
10.1856889836
  0
LINE
  5
285
100
AcDbEntity
  8
0
100
AcDbLine
 62
7
  6
CONTINUOUS
 10
15.0734230804
 20
10.1491951629
 11
15.0735944784
 21
10.149833043
  0
LINE
  5
286
100
AcDbEntity
  8
0
100
AcDbLine
 62
7
  6
CONTINUOUS
 10
15.0734318766
 20
10.14919242
 11
15.0874779368
 21
10.1946454874
  0
LINE
  5
287
100
AcDbEntity
  8
0
100
AcDbLine
 62
7
  6
CONTINUOUS
 10
15.436216917
 20
10.149833043
 11
15.4430317086
 21
10.1838703318
  0
LINE
  5
288
100
AcDbEntity
  8
0
100
AcDbLine
 62
7
  6
CONTINUOUS
 10
15.4430317086
 20
10.1838703318
 11
15.4435005186
 21
10.1856889836
  0
LINE
  5
289
100
AcDbEntity
  8
0
100
AcDbLine
 62
7
  6
CONTINUOUS
 10
15.436045519
 20
10.1491951629
 11
15.436216917
 21
10.149833043
  0
LINE
  5
28A
100
AcDbEntity
  8
0
100
AcDbLine
 62
7
  6
CONTINUOUS
 10
14.0310113546
 20
10.2039500429
 11
14.0407124432
 21
10.2137391763
  0
LINE
  5
28B
100
AcDbEntity
  8
0
100
AcDbLine
 62
7
  6
CONTINUOUS
 10
15.7988393555
 20
10.149833043
 11
15.8056541471
 21
10.1838703318
  0
LINE
  5
28C
100
AcDbEntity
  8
0
100
AcDbLine
 62
7
  6
CONTINUOUS
 10
15.4360543152
 20
10.14919242
 11
15.4501003754
 21
10.1946454874
  0
LINE
  5
28D
100
AcDbEntity
  8
0
100
AcDbLine
 62
7
  6
CONTINUOUS
 10
15.8056541471
 20
10.1838703318
 11
15.8061229572
 21
10.1856889836
  0
LINE
  5
28E
100
AcDbEntity
  8
0
100
AcDbLine
 62
7
  6
CONTINUOUS
 10
15.7986679576
 20
10.1491951629
 11
15.7988393555
 21
10.149833043
  0
LINE
  5
28F
100
AcDbEntity
  8
0
100
AcDbLine
 62
7
  6
CONTINUOUS
 10
15.7986767538
 20
10.14919242
 11
15.8127228139
 21
10.1946454874
  0
LINE
  5
290
100
AcDbEntity
  8
0
100
AcDbLine
 62
7
  6
CONTINUOUS
 10
17.2641349323
 20
14.8788420264
 11
15.8346094004
 21
10.2528957097
  0
LINE
  5
291
100
AcDbEntity
  8
0
100
AcDbLine
 62
7
  6
CONTINUOUS
 10
14.3936337932
 20
10.2039500429
 11
14.4033348818
 21
10.2137391763
  0
LINE
  5
292
100
AcDbEntity
  8
0
100
AcDbLine
 62
7
  6
CONTINUOUS
 10
17.283350168
 20
14.839685493
 11
15.8538246361
 21
10.2137391763
  0
LINE
  5
293
100
AcDbEntity
  8
0
100
AcDbLine
 62
7
  6
CONTINUOUS
 10
14.7562562317
 20
10.2039500429
 11
14.7659573204
 21
10.2137391763
  0
LINE
  5
294
100
AcDbEntity
  8
0
100
AcDbLine
 62
7
  6
CONTINUOUS
 10
15.1188786703
 20
10.2039500429
 11
15.1285797589
 21
10.2137391763
  0
LINE
  5
295
100
AcDbEntity
  8
0
100
AcDbLine
 62
7
  6
CONTINUOUS
 10
15.4815011089
 20
10.2039500429
 11
15.4912021975
 21
10.2137391763
  0
LINE
  5
296
100
AcDbEntity
  8
0
100
AcDbLine
 62
7
  6
CONTINUOUS
 10
15.8441235475
 20
10.2039500429
 11
15.8538246361
 21
10.2137391763
  0
LINE
  5
297
100
AcDbEntity
  8
0
100
AcDbLine
 62
7
  6
CONTINUOUS
 10
15.0884003008
 20
14.8788420264
 11
17.2641349323
 21
14.8788420264
  0
LINE
  5
298
100
AcDbEntity
  8
0
100
AcDbLine
 62
7
  6
CONTINUOUS
 10
17.283350168
 20
14.839685493
 11
17.2641349323
 21
14.8788420264
  0
ARC
  5
299
100
AcDbEntity
  8
0
100
AcDbCircle
 62
7
  6
CONTINUOUS
 10
7.2939621726
 20
5.4740154624
 40
0.055946954
100
AcDbArc
 50
90.0
 51
155.0
  0
ARC
  5
29A
100
AcDbEntity
  8
0
100
AcDbCircle
 62
7
  6
CONTINUOUS
 10
6.9352763167
 20
5.4740154624
 40
0.055946954
100
AcDbArc
 50
25.0
 51
90.0
  0
ARC
  5
29B
100
AcDbEntity
  8
0
100
AcDbCircle
 62
7
  6
CONTINUOUS
 10
6.9002613852
 20
5.4740154624
 40
0.055946954
100
AcDbArc
 50
90.0
 51
155.0
  0
ARC
  5
29C
100
AcDbEntity
  8
0
100
AcDbCircle
 62
7
  6
CONTINUOUS
 10
6.5415755293
 20
5.4740154624
 40
0.055946954
100
AcDbArc
 50
25.0
 51
90.0
  0
ARC
  5
29D
100
AcDbEntity
  8
0
100
AcDbCircle
 62
7
  6
CONTINUOUS
 10
6.5065605978
 20
5.4740154624
 40
0.055946954
100
AcDbArc
 50
90.0
 51
155.0
  0
ARC
  5
29E
100
AcDbEntity
  8
0
100
AcDbCircle
 62
7
  6
CONTINUOUS
 10
6.1478747419
 20
5.4740154624
 40
0.055946954
100
AcDbArc
 50
25.0
 51
90.0
  0
ARC
  5
29F
100
AcDbEntity
  8
0
100
AcDbCircle
 62
7
  6
CONTINUOUS
 10
6.1128598104
 20
5.4740154624
 40
0.055946954
100
AcDbArc
 50
90.0
 51
155.0
  0
ARC
  5
2A0
100
AcDbEntity
  8
0
100
AcDbCircle
 62
7
  6
CONTINUOUS
 10
5.7541739545
 20
5.4740154624
 40
0.055946954
100
AcDbArc
 50
25.0
 51
90.0
  0
ARC
  5
2A1
100
AcDbEntity
  8
0
100
AcDbCircle
 62
7
  6
CONTINUOUS
 10
5.719159023
 20
5.4740154624
 40
0.055946954
100
AcDbArc
 50
90.0
 51
155.0
  0
ARC
  5
2A2
100
AcDbEntity
  8
0
100
AcDbCircle
 62
7
  6
CONTINUOUS
 10
5.3604731671
 20
5.4740154624
 40
0.055946954
100
AcDbArc
 50
25.0
 51
90.0
  0
ARC
  5
2A3
100
AcDbEntity
  8
0
100
AcDbCircle
 62
7
  6
CONTINUOUS
 10
4.9667723797
 20
5.4740154624
 40
0.055946954
100
AcDbArc
 50
25.0
 51
90.0
  0
ARC
  5
2A4
100
AcDbEntity
  8
0
100
AcDbCircle
 62
7
  6
CONTINUOUS
 10
5.3254582356
 20
5.4740154624
 40
0.055946954
100
AcDbArc
 50
90.0
 51
155.0
  0
ARC
  5
2A5
100
AcDbEntity
  8
0
100
AcDbCircle
 62
7
  6
CONTINUOUS
 10
5.0608516965
 20
5.451222259
 40
0.0196850394
100
AcDbArc
 50
205.0
 51
270.0
  0
ARC
  5
2A6
100
AcDbEntity
  8
0
100
AcDbCircle
 62
7
  6
CONTINUOUS
 10
5.2313789189
 20
5.451222259
 40
0.0196850394
100
AcDbArc
 50
270.0
 51
335.0
  0
ARC
  5
2A7
100
AcDbEntity
  8
0
100
AcDbCircle
 62
7
  6
CONTINUOUS
 10
5.4545524839
 20
5.451222259
 40
0.0196850394
100
AcDbArc
 50
205.0
 51
270.0
  0
ARC
  5
2A8
100
AcDbEntity
  8
0
100
AcDbCircle
 62
7
  6
CONTINUOUS
 10
5.6250797063
 20
5.451222259
 40
0.0196850394
100
AcDbArc
 50
270.0
 51
335.0
  0
ARC
  5
2A9
100
AcDbEntity
  8
0
100
AcDbCircle
 62
7
  6
CONTINUOUS
 10
5.8482532713
 20
5.451222259
 40
0.0196850394
100
AcDbArc
 50
205.0
 51
270.0
  0
ARC
  5
2AA
100
AcDbEntity
  8
0
100
AcDbCircle
 62
7
  6
CONTINUOUS
 10
6.0187804937
 20
5.451222259
 40
0.0196850394
100
AcDbArc
 50
270.0
 51
335.0
  0
ARC
  5
2AB
100
AcDbEntity
  8
0
100
AcDbCircle
 62
7
  6
CONTINUOUS
 10
6.2419540587
 20
5.451222259
 40
0.0196850394
100
AcDbArc
 50
205.0
 51
270.0
  0
ARC
  5
2AC
100
AcDbEntity
  8
0
100
AcDbCircle
 62
7
  6
CONTINUOUS
 10
6.4124812811
 20
5.451222259
 40
0.0196850394
100
AcDbArc
 50
270.0
 51
335.0
  0
ARC
  5
2AD
100
AcDbEntity
  8
0
100
AcDbCircle
 62
7
  6
CONTINUOUS
 10
6.6356548461
 20
5.451222259
 40
0.0196850394
100
AcDbArc
 50
205.0
 51
270.0
  0
ARC
  5
2AE
100
AcDbEntity
  8
0
100
AcDbCircle
 62
7
  6
CONTINUOUS
 10
7.1998828559
 20
5.451222259
 40
0.0196850394
100
AcDbArc
 50
270.0
 51
335.0
  0
ARC
  5
2AF
100
AcDbEntity
  8
0
100
AcDbCircle
 62
7
  6
CONTINUOUS
 10
7.0293556335
 20
5.451222259
 40
0.0196850394
100
AcDbArc
 50
205.0
 51
270.0
  0
ARC
  5
2B0
100
AcDbEntity
  8
0
100
AcDbCircle
 62
7
  6
CONTINUOUS
 10
6.8061820685
 20
5.451222259
 40
0.0196850394
100
AcDbArc
 50
270.0
 51
335.0
  0
SPLINE
  5
2B1
100
AcDbEntity
  8
0
100
AcDbSpline
 62
7
  6
CONTINUOUS
 70
0
 71
3
 72
9
 73
5
 74
0
 42
0.0000001
 43
0.0000001
 44
0.0000000001
 40
0.0
 40
0.0
 40
0.0
 40
0.0
 40
0.4729556365
 40
1.0
 40
1.0
 40
1.0
 40
1.0
 10
15.8061170476
 20
10.1856908111
 30
0.0
 10
15.8069318243
 20
10.1883213841
 30
0.0
 10
15.8099940662
 20
10.1935199623
 30
0.0
 10
15.8147972908
 20
10.1970376627
 30
0.0
 10
15.8174921734
 20
10.1985057159
 30
0.0
  0
SPLINE
  5
2B2
100
AcDbEntity
  8
0
100
AcDbSpline
 62
7
  6
CONTINUOUS
 70
0
 71
3
 72
9
 73
5
 74
0
 42
0.0000001
 43
0.0000001
 44
0.0000000001
 40
0.0
 40
0.0
 40
0.0
 40
0.0
 40
0.2238868065
 40
1.0
 40
1.0
 40
1.0
 40
1.0
 10
15.8174921734
 20
10.1985057159
 30
0.0
 10
15.8191797818
 20
10.1994250505
 30
0.0
 10
15.8270762156
 20
10.2028741
 30
0.0
 10
15.835841105
 20
10.2039500429
 30
0.0
 10
15.8425030012
 20
10.2039500429
 30
0.0
  0
SPLINE
  5
2B3
100
AcDbEntity
  8
0
100
AcDbSpline
 62
7
  6
CONTINUOUS
 70
0
 71
3
 72
9
 73
5
 74
0
 42
0.0000001
 43
0.0000001
 44
0.0000000001
 40
0.0
 40
0.0
 40
0.0
 40
0.0
 40
0.4729556365
 40
1.0
 40
1.0
 40
1.0
 40
1.0
 10
15.4434946091
 20
10.1856908111
 30
0.0
 10
15.4443093857
 20
10.1883213841
 30
0.0
 10
15.4473716277
 20
10.1935199623
 30
0.0
 10
15.4521748522
 20
10.1970376627
 30
0.0
 10
15.4548697348
 20
10.1985057159
 30
0.0
  0
SPLINE
  5
2B4
100
AcDbEntity
  8
0
100
AcDbSpline
 62
7
  6
CONTINUOUS
 70
0
 71
3
 72
9
 73
5
 74
0
 42
0.0000001
 43
0.0000001
 44
0.0000000001
 40
0.0
 40
0.0
 40
0.0
 40
0.0
 40
0.2238868065
 40
1.0
 40
1.0
 40
1.0
 40
1.0
 10
15.4548697348
 20
10.1985057159
 30
0.0
 10
15.4565573432
 20
10.1994250505
 30
0.0
 10
15.464453777
 20
10.2028741
 30
0.0
 10
15.4732186665
 20
10.2039500429
 30
0.0
 10
15.4798805627
 20
10.2039500429
 30
0.0
  0
SPLINE
  5
2B5
100
AcDbEntity
  8
0
100
AcDbSpline
 62
7
  6
CONTINUOUS
 70
0
 71
3
 72
9
 73
5
 74
0
 42
0.0000001
 43
0.0000001
 44
0.0000000001
 40
0.0
 40
0.0
 40
0.0
 40
0.0
 40
0.4729556365
 40
1.0
 40
1.0
 40
1.0
 40
1.0
 10
15.0808721705
 20
10.1856908111
 30
0.0
 10
15.0816869471
 20
10.1883213841
 30
0.0
 10
15.0847491891
 20
10.1935199623
 30
0.0
 10
15.0895524136
 20
10.1970376627
 30
0.0
 10
15.0922472963
 20
10.1985057159
 30
0.0
  0
SPLINE
  5
2B6
100
AcDbEntity
  8
0
100
AcDbSpline
 62
7
  6
CONTINUOUS
 70
0
 71
3
 72
9
 73
5
 74
0
 42
0.0000001
 43
0.0000001
 44
0.0000000001
 40
0.0
 40
0.0
 40
0.0
 40
0.0
 40
0.2238868065
 40
1.0
 40
1.0
 40
1.0
 40
1.0
 10
15.0922472963
 20
10.1985057159
 30
0.0
 10
15.0939349046
 20
10.1994250505
 30
0.0
 10
15.1018313384
 20
10.2028741
 30
0.0
 10
15.1105962279
 20
10.2039500429
 30
0.0
 10
15.1172581241
 20
10.2039500429
 30
0.0
  0
SPLINE
  5
2B7
100
AcDbEntity
  8
0
100
AcDbSpline
 62
7
  6
CONTINUOUS
 70
0
 71
3
 72
9
 73
5
 74
0
 42
0.0000001
 43
0.0000001
 44
0.0000000001
 40
0.0
 40
0.0
 40
0.0
 40
0.0
 40
0.4729556365
 40
1.0
 40
1.0
 40
1.0
 40
1.0
 10
14.7182497319
 20
10.1856908111
 30
0.0
 10
14.7190645085
 20
10.1883213841
 30
0.0
 10
14.7221267505
 20
10.1935199623
 30
0.0
 10
14.7269299751
 20
10.1970376627
 30
0.0
 10
14.7296248577
 20
10.1985057159
 30
0.0
  0
SPLINE
  5
2B8
100
AcDbEntity
  8
0
100
AcDbSpline
 62
7
  6
CONTINUOUS
 70
0
 71
3
 72
9
 73
5
 74
0
 42
0.0000001
 43
0.0000001
 44
0.0000000001
 40
0.0
 40
0.0
 40
0.0
 40
0.0
 40
0.2238868065
 40
1.0
 40
1.0
 40
1.0
 40
1.0
 10
14.7296248577
 20
10.1985057159
 30
0.0
 10
14.731312466
 20
10.1994250505
 30
0.0
 10
14.7392088998
 20
10.2028741
 30
0.0
 10
14.7479737893
 20
10.2039500429
 30
0.0
 10
14.7546356855
 20
10.2039500429
 30
0.0
  0
SPLINE
  5
2B9
100
AcDbEntity
  8
0
100
AcDbSpline
 62
7
  6
CONTINUOUS
 70
0
 71
3
 72
9
 73
5
 74
0
 42
0.0000001
 43
0.0000001
 44
0.0000000001
 40
0.0
 40
0.0
 40
0.0
 40
0.0
 40
0.4729556365
 40
1.0
 40
1.0
 40
1.0
 40
1.0
 10
14.3556272933
 20
10.1856908111
 30
0.0
 10
14.3564420699
 20
10.1883213841
 30
0.0
 10
14.3595043119
 20
10.1935199623
 30
0.0
 10
14.3643075365
 20
10.1970376627
 30
0.0
 10
14.3670024191
 20
10.1985057159
 30
0.0
  0
SPLINE
  5
2BA
100
AcDbEntity
  8
0
100
AcDbSpline
 62
7
  6
CONTINUOUS
 70
0
 71
3
 72
9
 73
5
 74
0
 42
0.0000001
 43
0.0000001
 44
0.0000000001
 40
0.0
 40
0.0
 40
0.0
 40
0.0
 40
0.2238868065
 40
1.0
 40
1.0
 40
1.0
 40
1.0
 10
14.3670024191
 20
10.1985057159
 30
0.0
 10
14.3686900274
 20
10.1994250505
 30
0.0
 10
14.3765864612
 20
10.2028741
 30
0.0
 10
14.3853513507
 20
10.2039500429
 30
0.0
 10
14.3920132469
 20
10.2039500429
 30
0.0
  0
SPLINE
  5
2BB
100
AcDbEntity
  8
0
100
AcDbSpline
 62
7
  6
CONTINUOUS
 70
0
 71
3
 72
9
 73
5
 74
0
 42
0.0000001
 43
0.0000001
 44
0.0000000001
 40
0.0
 40
0.0
 40
0.0
 40
0.0
 40
0.472954588
 40
1.0
 40
1.0
 40
1.0
 40
1.0
 10
13.993004854
 20
10.1856908116
 30
0.0
 10
13.9938196325
 20
10.1883213972
 30
0.0
 10
13.9968819073
 20
10.1935200061
 30
0.0
 10
14.0016851744
 20
10.197037718
 30
0.0
 10
14.0043800864
 20
10.1985057736
 30
0.0
  0
SPLINE
  5
2BC
100
AcDbEntity
  8
0
100
AcDbSpline
 62
7
  6
CONTINUOUS
 70
0
 71
3
 72
9
 73
5
 74
0
 42
0.0000001
 43
0.0000001
 44
0.0000000001
 40
0.0
 40
0.0
 40
0.0
 40
0.0
 40
0.2238877468
 40
1.0
 40
1.0
 40
1.0
 40
1.0
 10
14.0043800864
 20
10.1985057736
 30
0.0
 10
14.0060676976
 20
10.1994251012
 30
0.0
 10
14.0139641078
 20
10.2028741037
 30
0.0
 10
14.022728951
 20
10.2039500429
 30
0.0
 10
14.0293908083
 20
10.2039500429
 30
0.0
  0
SPLINE
  5
2BD
100
AcDbEntity
  8
0
100
AcDbSpline
 62
7
  6
CONTINUOUS
 70
0
 71
3
 72
9
 73
5
 74
0
 42
0.0000001
 43
0.0000001
 44
0.0000000001
 40
0.0
 40
0.0
 40
0.0
 40
0.0
 40
0.5068904094
 40
1.0
 40
1.0
 40
1.0
 40
1.0
 10
15.5121314502
 20
10.2039500429
 30
0.0
 10
15.5224130358
 20
10.2039500429
 30
0.0
 10
15.5427179583
 20
10.2000546786
 30
0.0
 10
15.5610526424
 20
10.1903315479
 30
0.0
 10
15.5686876864
 20
10.1838703318
 30
0.0
  0
SPLINE
  5
2BE
100
AcDbEntity
  8
0
100
AcDbSpline
 62
7
  6
CONTINUOUS
 70
0
 71
3
 72
9
 73
5
 74
0
 42
0.0000001
 43
0.0000001
 44
0.0000000001
 40
0.0
 40
0.0
 40
0.0
 40
0.0
 40
0.5068904094
 40
1.0
 40
1.0
 40
1.0
 40
1.0
 10
15.1495090116
 20
10.2039500429
 30
0.0
 10
15.1597905972
 20
10.2039500429
 30
0.0
 10
15.1800955197
 20
10.2000546786
 30
0.0
 10
15.1984302038
 20
10.1903315479
 30
0.0
 10
15.2060652478
 20
10.1838703318
 30
0.0
  0
SPLINE
  5
2BF
100
AcDbEntity
  8
0
100
AcDbSpline
 62
7
  6
CONTINUOUS
 70
0
 71
3
 72
9
 73
5
 74
0
 42
0.0000001
 43
0.0000001
 44
0.0000000001
 40
0.0
 40
0.0
 40
0.0
 40
0.0
 40
0.5068904094
 40
1.0
 40
1.0
 40
1.0
 40
1.0
 10
14.7868865731
 20
10.2039500429
 30
0.0
 10
14.7971681586
 20
10.2039500429
 30
0.0
 10
14.8174730811
 20
10.2000546786
 30
0.0
 10
14.8358077652
 20
10.1903315479
 30
0.0
 10
14.8434428092
 20
10.1838703318
 30
0.0
  0
SPLINE
  5
2C0
100
AcDbEntity
  8
0
100
AcDbSpline
 62
7
  6
CONTINUOUS
 70
0
 71
3
 72
9
 73
5
 74
0
 42
0.0000001
 43
0.0000001
 44
0.0000000001
 40
0.0
 40
0.0
 40
0.0
 40
0.0
 40
0.5068904094
 40
1.0
 40
1.0
 40
1.0
 40
1.0
 10
14.4242641345
 20
10.2039500429
 30
0.0
 10
14.43454572
 20
10.2039500429
 30
0.0
 10
14.4548506426
 20
10.2000546786
 30
0.0
 10
14.4731853266
 20
10.1903315479
 30
0.0
 10
14.4808203706
 20
10.1838703318
 30
0.0
  0
SPLINE
  5
2C1
100
AcDbEntity
  8
0
100
AcDbSpline
 62
7
  6
CONTINUOUS
 70
0
 71
3
 72
9
 73
5
 74
0
 42
0.0000001
 43
0.0000001
 44
0.0000000001
 40
0.0
 40
0.0
 40
0.0
 40
0.0
 40
0.5068904094
 40
1.0
 40
1.0
 40
1.0
 40
1.0
 10
14.0616416959
 20
10.2039500429
 30
0.0
 10
14.0719232815
 20
10.2039500429
 30
0.0
 10
14.092228204
 20
10.2000546786
 30
0.0
 10
14.110562888
 20
10.1903315479
 30
0.0
 10
14.1181979321
 20
10.1838703318
 30
0.0
  0
SPLINE
  5
2C2
100
AcDbEntity
  8
0
100
AcDbSpline
 62
7
  6
CONTINUOUS
 70
0
 71
3
 72
11
 73
7
 74
0
 42
0.0000001
 43
0.0000001
 44
0.0000000001
 40
0.0
 40
0.0
 40
0.0
 40
0.0
 40
0.3034859142
 40
0.5698706186
 40
0.7976754598
 40
1.0
 40
1.0
 40
1.0
 40
1.0
 10
15.785874018
 20
10.1427679594
 30
0.0
 10
15.7874133844
 20
10.1427679594
 30
0.0
 10
15.7903146177
 20
10.1430152906
 30
0.0
 10
15.7942155164
 20
10.1442352627
 30
0.0
 10
15.7971891096
 20
10.1462742495
 30
0.0
 10
15.7983715558
 20
10.1482126235
 30
0.0
 10
15.7986761441
 20
10.1491926283
 30
0.0
  0
SPLINE
  5
2C3
100
AcDbEntity
  8
0
100
AcDbSpline
 62
7
  6
CONTINUOUS
 70
0
 71
3
 72
9
 73
5
 74
0
 42
0.0000001
 43
0.0000001
 44
0.0000000001
 40
0.0
 40
0.0
 40
0.0
 40
0.0
 40
0.4931203604
 40
1.0
 40
1.0
 40
1.0
 40
1.0
 10
15.6089086286
 20
10.149833043
 30
0.0
 10
15.6115951122
 20
10.1475595851
 30
0.0
 10
15.6180458731
 20
10.1441376003
 30
0.0
 10
15.6251904994
 20
10.1427679594
 30
0.0
 10
15.628808045
 20
10.1427679594
 30
0.0
  0
SPLINE
  5
2C4
100
AcDbEntity
  8
0
100
AcDbSpline
 62
7
  6
CONTINUOUS
 70
0
 71
3
 72
11
 73
7
 74
0
 42
0.0000001
 43
0.0000001
 44
0.0000000001
 40
0.0
 40
0.0
 40
0.0
 40
0.0
 40
0.3034859142
 40
0.5698706186
 40
0.7976754598
 40
1.0
 40
1.0
 40
1.0
 40
1.0
 10
15.4232515794
 20
10.1427679594
 30
0.0
 10
15.4247909458
 20
10.1427679594
 30
0.0
 10
15.4276921791
 20
10.1430152906
 30
0.0
 10
15.4315930778
 20
10.1442352627
 30
0.0
 10
15.4345666711
 20
10.1462742495
 30
0.0
 10
15.4357491172
 20
10.1482126235
 30
0.0
 10
15.4360537055
 20
10.1491926283
 30
0.0
  0
SPLINE
  5
2C5
100
AcDbEntity
  8
0
100
AcDbSpline
 62
7
  6
CONTINUOUS
 70
0
 71
3
 72
9
 73
5
 74
0
 42
0.0000001
 43
0.0000001
 44
0.0000000001
 40
0.0
 40
0.0
 40
0.0
 40
0.0
 40
0.4931203604
 40
1.0
 40
1.0
 40
1.0
 40
1.0
 10
15.24628619
 20
10.149833043
 30
0.0
 10
15.2489726736
 20
10.1475595851
 30
0.0
 10
15.2554234346
 20
10.1441376003
 30
0.0
 10
15.2625680608
 20
10.1427679594
 30
0.0
 10
15.2661856065
 20
10.1427679594
 30
0.0
  0
SPLINE
  5
2C6
100
AcDbEntity
  8
0
100
AcDbSpline
 62
7
  6
CONTINUOUS
 70
0
 71
3
 72
11
 73
7
 74
0
 42
0.0000001
 43
0.0000001
 44
0.0000000001
 40
0.0
 40
0.0
 40
0.0
 40
0.0
 40
0.3034859142
 40
0.5698706186
 40
0.7976754598
 40
1.0
 40
1.0
 40
1.0
 40
1.0
 10
15.0606291408
 20
10.1427679594
 30
0.0
 10
15.0621685072
 20
10.1427679594
 30
0.0
 10
15.0650697405
 20
10.1430152906
 30
0.0
 10
15.0689706392
 20
10.1442352627
 30
0.0
 10
15.0719442325
 20
10.1462742495
 30
0.0
 10
15.0731266787
 20
10.1482126235
 30
0.0
 10
15.0734312669
 20
10.1491926283
 30
0.0
  0
SPLINE
  5
2C7
100
AcDbEntity
  8
0
100
AcDbSpline
 62
7
  6
CONTINUOUS
 70
0
 71
3
 72
9
 73
5
 74
0
 42
0.0000001
 43
0.0000001
 44
0.0000000001
 40
0.0
 40
0.0
 40
0.0
 40
0.0
 40
0.4931203604
 40
1.0
 40
1.0
 40
1.0
 40
1.0
 10
14.8836637514
 20
10.149833043
 30
0.0
 10
14.886350235
 20
10.1475595851
 30
0.0
 10
14.892800996
 20
10.1441376003
 30
0.0
 10
14.8999456222
 20
10.1427679594
 30
0.0
 10
14.9035631679
 20
10.1427679594
 30
0.0
  0
SPLINE
  5
2C8
100
AcDbEntity
  8
0
100
AcDbSpline
 62
7
  6
CONTINUOUS
 70
0
 71
3
 72
11
 73
7
 74
0
 42
0.0000001
 43
0.0000001
 44
0.0000000001
 40
0.0
 40
0.0
 40
0.0
 40
0.0
 40
0.3034859142
 40
0.5698706186
 40
0.7976754598
 40
1.0
 40
1.0
 40
1.0
 40
1.0
 10
14.6980067022
 20
10.1427679594
 30
0.0
 10
14.6995460686
 20
10.1427679594
 30
0.0
 10
14.7024473019
 20
10.1430152906
 30
0.0
 10
14.7063482006
 20
10.1442352627
 30
0.0
 10
14.7093217939
 20
10.1462742495
 30
0.0
 10
14.7105042401
 20
10.1482126235
 30
0.0
 10
14.7108088284
 20
10.1491926283
 30
0.0
  0
SPLINE
  5
2C9
100
AcDbEntity
  8
0
100
AcDbSpline
 62
7
  6
CONTINUOUS
 70
0
 71
3
 72
9
 73
5
 74
0
 42
0.0000001
 43
0.0000001
 44
0.0000000001
 40
0.0
 40
0.0
 40
0.0
 40
0.0
 40
0.4931203604
 40
1.0
 40
1.0
 40
1.0
 40
1.0
 10
14.5210413129
 20
10.149833043
 30
0.0
 10
14.5237277964
 20
10.1475595851
 30
0.0
 10
14.5301785574
 20
10.1441376003
 30
0.0
 10
14.5373231836
 20
10.1427679594
 30
0.0
 10
14.5409407293
 20
10.1427679594
 30
0.0
  0
SPLINE
  5
2CA
100
AcDbEntity
  8
0
100
AcDbSpline
 62
7
  6
CONTINUOUS
 70
0
 71
3
 72
11
 73
7
 74
0
 42
0.0000001
 43
0.0000001
 44
0.0000000001
 40
0.0
 40
0.0
 40
0.0
 40
0.0
 40
0.3034859142
 40
0.5698706186
 40
0.7976754598
 40
1.0
 40
1.0
 40
1.0
 40
1.0
 10
14.3353842636
 20
10.1427679594
 30
0.0
 10
14.33692363
 20
10.1427679594
 30
0.0
 10
14.3398248634
 20
10.1430152906
 30
0.0
 10
14.343725762
 20
10.1442352627
 30
0.0
 10
14.3466993553
 20
10.1462742495
 30
0.0
 10
14.3478818015
 20
10.1482126235
 30
0.0
 10
14.3481863898
 20
10.1491926283
 30
0.0
  0
SPLINE
  5
2CB
100
AcDbEntity
  8
0
100
AcDbSpline
 62
7
  6
CONTINUOUS
 70
0
 71
3
 72
9
 73
5
 74
0
 42
0.0000001
 43
0.0000001
 44
0.0000000001
 40
0.0
 40
0.0
 40
0.0
 40
0.0
 40
0.4931203604
 40
1.0
 40
1.0
 40
1.0
 40
1.0
 10
14.1584188743
 20
10.149833043
 30
0.0
 10
14.1611053578
 20
10.1475595851
 30
0.0
 10
14.1675561188
 20
10.1441376003
 30
0.0
 10
14.174700745
 20
10.1427679594
 30
0.0
 10
14.1783182907
 20
10.1427679594
 30
0.0
  0
SPLINE
  5
2CC
100
AcDbEntity
  8
0
100
AcDbSpline
 62
7
  6
CONTINUOUS
 70
0
 71
3
 72
11
 73
7
 74
0
 42
0.0000001
 43
0.0000001
 44
0.0000000001
 40
0.0
 40
0.0
 40
0.0
 40
0.0
 40
0.3034868284
 40
0.5698705805
 40
0.7976735315
 40
1.0
 40
1.0
 40
1.0
 40
1.0
 10
13.9727618251
 20
10.1427679594
 30
0.0
 10
13.9743011961
 20
10.1427679594
 30
0.0
 10
13.9772024238
 20
10.1430153109
 30
0.0
 10
13.9811033305
 20
10.1442352385
 30
0.0
 10
13.9840768952
 20
10.1462742571
 30
0.0
 10
13.9852593534
 20
10.1482126192
 30
0.0
 10
13.98556395
 20
10.1491926317
 30
0.0
  0
SPLINE
  5
2CD
100
AcDbEntity
  8
0
100
AcDbSpline
 62
7
  6
CONTINUOUS
 70
0
 71
3
 72
9
 73
5
 74
0
 42
0.0000001
 43
0.0000001
 44
0.0000000001
 40
0.0
 40
0.0
 40
0.0
 40
0.0
 40
0.493119319
 40
1.0
 40
1.0
 40
1.0
 40
1.0
 10
13.7957964357
 20
10.149833043
 30
0.0
 10
13.7984829139
 20
10.1475595896
 30
0.0
 10
13.8049336668
 20
10.1441375871
 30
0.0
 10
13.8120782985
 20
10.1427679594
 30
0.0
 10
13.8156958521
 20
10.1427679594
 30
0.0
  0
SPLINE
  5
2CE
100
AcDbEntity
  8
0
100
AcDbSpline
 62
7
  6
CONTINUOUS
 70
0
 71
3
 72
9
 73
5
 74
0
 42
0.0000001
 43
0.0000001
 44
0.0000000001
 40
0.0
 40
0.0
 40
0.0
 40
0.0
 40
0.5068904294
 40
1.0
 40
1.0
 40
1.0
 40
1.0
 10
13.6990192573
 20
10.2039500429
 30
0.0
 10
13.7093008433
 20
10.2039500429
 30
0.0
 10
13.7296057658
 20
10.2000546785
 30
0.0
 10
13.7479404498
 20
10.1903315476
 30
0.0
 10
13.7555754935
 20
10.1838703318
 30
0.0
  0
ENDSEC
  0
SECTION
  2
OBJECTS
  0
DICTIONARY
  5
C
100
AcDbDictionary
280
0
281
1
  3
ACAD_GROUP
350
D
  3
ACAD_MLINESTYLE
350
17
  3
ACAD_LAYOUT
350
1A
  3
ACAD_PLOTSETTINGS
350
19
  3
ACAD_PLOTSTYLENAME
350
E
  0
DICTIONARY
  5
D
102
{ACAD_REACTORS
330
C
102
}
100
AcDbDictionary
280
0
281
1
  0
ACDBDICTIONARYWDFLT
  5
E
102
{ACAD_REACTORS
330
C
102
}
100
AcDbDictionary
281
1
  3
Normal
350
F
100
AcDbDictionaryWithDefault
340
F
  0
DICTIONARY
  5
17
102
{ACAD_REACTORS
330
C
102
}
100
AcDbDictionary
280
0
281
1
  3
Standard
350
18
  0
DICTIONARY
  5
19
102
{ACAD_REACTORS
330
C
102
}
100
AcDbDictionary
281
1
  0
DICTIONARY
  5
1A
102
{ACAD_REACTORS
330
C
102
}
100
AcDbDictionary
281
1
  3
Model
350
2CF
  3
Layout1
350
2D0
  0
ACDBPLACEHOLDER
  5
F
102
{ACAD_REACTORS
330
E
102
}
  0
MLINESTYLE
  5
18
102
{ACAD_REACTORS
330
17
102
}
100
AcDbMlineStyle
  2
STANDARD
 70
0
  3

 62
256
 51
90.0
 52
90.0
 71
2
 49
0.5
 62
256
  6
BYLAYER
 49
-0.5
 62
256
  6
BYLAYER
  0
LAYOUT
  5
2CF
102
{ACAD_REACTORS
330
1A
102
}
100
AcDbPlotSettings
  1

  2
none_device
  4
ANSI_C_(22.00_x_17.00_Inches)
  6

 40
0.0
 41
0.0
 42
0.0
 43
0.0
 44
558.8
 45
431.8
 46
0.0
 47
0.0
 48
0.0
 49
0.0
140
0.0
141
0.0
142
1.0
143
1.0
 70
1024
 72
0
 73
0
 74
0
  7

 75
0
147
1.0
148
0.0
149
0.0
100
AcDbLayout
  1
Model
 70
0
 71
0
 10
0.0
 20
0.0
 11
22.0
 21
17.0
 12
0.0
 22
0.0
 32
0.0
 14
0.0
 24
0.0
 34
0.0
 15
0.0
 25
0.0
 35
0.0
146
0.0
 13
0.0
 23
0.0
 33
0.0
 16
1.0
 26
0.0
 36
0.0
 17
0.0
 27
1.0
 37
0.0
 76
0
330
216
345
0
346
0
  0
LAYOUT
  5
2D0
102
{ACAD_REACTORS
330
1A
102
}
100
AcDbPlotSettings
  1

  2
none_device
  4
ANSI_C_(22.00_x_17.00_Inches)
  6

 40
0.0
 41
0.0
 42
0.0
 43
0.0
 44
558.8
 45
431.8
 46
0.0
 47
0.0
 48
0.0
 49
0.0
140
0.0
141
0.0
142
1.0
143
1.0
 70
0
 72
0
 73
0
 74
0
  7

 75
0
147
1.0
148
0.0
149
0.0
100
AcDbLayout
  1
Layout1
 70
0
 71
1
 10
0.0
 20
0.0
 11
22.0
 21
17.0
 12
0.0
 22
0.0
 32
0.0
 14
0.0
 24
0.0
 34
0.0
 15
0.0
 25
0.0
 35
0.0
146
0.0
 13
0.0
 23
0.0
 33
0.0
 16
1.0
 26
0.0
 36
0.0
 17
0.0
 27
1.0
 37
0.0
 76
0
330
217
345
0
346
0
  0
ENDSEC
  0
EOF