999
DXF file: _cgs_temp_output.dxf
999
Pro/ENGINEER 2016360 by Parametric Technology Corporation
  0
SECTION
  2
HEADER
  9
$ACADVER
  1
AC1021
  9
$DWGCODEPAGE
  3
ANSI_1252
  9
$EXTMAX
 10
22.0
 20
17.0
 30
0.0
  9
$EXTMIN
 10
0.0
 20
0.0
 30
0.0
  9
$LIMMIN
 10
0.0
 20
0.0
  9
$LIMMAX
 10
22.0
 20
17.0
  9
$VIEWCTR
 10
11.0
 20
8.5
  9
$VIEWSIZE
 40
17.0
  9
$CLAYER
  8
0
  9
$LTSCALE
 40
1.21
  9
$CELTYPE
  6
BYLAYER
  9
$DIMSCALE
 40
1.0
  9
$DIMASZ
 40
0.1875
  9
$DIMEXO
 40
0.0625
  9
$DIMDLI
 40
0.836
  9
$DIMEXE
 40
0.125
  9
$DIMCEN
 40
0.198
  9
$DIMLFAC
 40
1.0
  9
$DIMBLK
  1
_CLOSED
  9
$DIMALT
 70
0
  9
$DIMALTF
 40
25.4
  9
$DIMTXT
 40
0.15625
  9
$DIMTOL
 70
0
  9
$DIMLIM
 70
0
  9
$DIMTFAC
 40
1.0
  9
$DIMGAP
 40
0.09
  9
$DIMDSEP
 70
46
  9
$AUNITS
 70
0
  9
$PDMODE
 70
3
  9
$PDSIZE
 40
0.3125
  9
$HANDSEED
  5
2D1
  9
$TILEMODE
 70
1
  9
$MEASUREMENT
 70
0
  9
$INSUNITS
 70
1
  0
ENDSEC
  0
SECTION
  2
CLASSES
  0
CLASS
  1
ACDBDICTIONARYWDFLT
  2
AcDbDictionaryWithDefault
  3
AutoCAD 2000
 90
0
 91
1
280
0
281
0
  0
CLASS
  1
ACDBPLACEHOLDER
  2
AcDbPlaceHolder
  3
AutoCAD 2000
 90
0
 91
1
280
0
281
0
  0
CLASS
  1
LAYOUT
  2
AcDbLayout
  3
AutoCAD 2000
 90
0
 91
0
280
0
281
0
  0
ENDSEC
  0
SECTION
  2
TABLES
  0
TABLE
  2
VPORT
  5
8
100
AcDbSymbolTable
 70
2
  0
VPORT
  5
1F4
100
AcDbSymbolTableRecord
100
AcDbViewportTableRecord
  2
*ACTIVE
 70
0
 10
0.0
 20
0.0
 11
1.0
 21
1.0
 12
11.0
 22
8.5
 13
0.0
 23
0.0
 14
1.0
 24
1.0
 15
0.0
 25
0.0
 16
0.0
 26
0.0
 36
1.0
 17
0.0
 27
0.0
 37
0.0
 40
17.0
 41
1.2941176471
 42
50.0
 43
0.0
 44
0.0
 50
0.0
 51
0.0
 71
0
 72
100
 73
1
 74
1
 75
0
 76
0
 77
0
 78
0
  0
ENDTAB
  0
TABLE
  2
LTYPE
  5
5
100
AcDbSymbolTable
 70
6
  0
LTYPE
  5
14
100
AcDbSymbolTableRecord
100
AcDbLinetypeTableRecord
  2
BYBLOCK
 70
0
  3

 72
65
 73
0
 40
0.0
  0
LTYPE
  5
15
100
AcDbSymbolTableRecord
100
AcDbLinetypeTableRecord
  2
BYLAYER
 70
0
  3

 72
65
 73
0
 40
0.0
  0
LTYPE
  5
16
100
AcDbSymbolTableRecord
100
AcDbLinetypeTableRecord
  2
CONTINUOUS
 70
64
  3
Solid line
 72
65
 73
0
 40
0.0
  0
LTYPE
  5
1F5
100
AcDbSymbolTableRecord
100
AcDbLinetypeTableRecord
  2
CENTER
 70
64
  3
____ _ ____ _ ____ _ ____ _ ____ _ ____ _ ____
 72
65
 73
4
 40
0.6
 49
0.375
 74
0
 49
-0.075
 74
0
 49
0.075
 74
0
 49
-0.075
 74
0
  0
LTYPE
  5
1F6
100
AcDbSymbolTableRecord
100
AcDbLinetypeTableRecord
  2
HIDDEN
 70
64
  3
- - - - - - - - - - - - - - - - - - - -
 72
65
 73
2
 40
0.2
 49
0.1
 74
0
 49
-0.1
 74
0
  0
LTYPE
  5
1F7
100
AcDbSymbolTableRecord
100
AcDbLinetypeTableRecord
  2
PHANTOM
 70
64
  3
_____ _ _ _____ _ _ _____ _ _ _____
 72
65
 73
6
 40
0.8
 49
0.45
 74
0
 49
-0.05
 74
0
 49
0.1
 74
0
 49
-0.05
 74
0
 49
0.1
 74
0
 49
-0.05
 74
0
  0
LTYPE
  5
1F8
100
AcDbSymbolTableRecord
100
AcDbLinetypeTableRecord
  2
DOT
 70
64
  3
. . . . . . . . . . . . . . . . . . . .
 72
65
 73
2
 40
0.2
 49
0.1
 74
0
 49
-0.1
 74
0
  0
LTYPE
  5
1F9
100
AcDbSymbolTableRecord
100
AcDbLinetypeTableRecord
  2
DASHED
 70
64
  3
- - - - - - - - - - - - - - - - - - - -
 72
65
 73
2
 40
0.2
 49
0.1
 74
0
 49
-0.1
 74
0
  0
ENDTAB
  0
TABLE
  2
LAYER
  5
2
100
AcDbSymbolTable
 70
36
  0
LAYER
  5
10
100
AcDbSymbolTableRecord
100
AcDbLayerTableRecord
  2
0
 70
0
 62
7
  6
CONTINUOUS
370
-3
390
F
  0
LAYER
  5
1FA
100
AcDbSymbolTableRecord
100
AcDbLayerTableRecord
  2
DEFAULT_1
 70
0
 62
7
  6
CENTER
370
-3
390
F
  0
LAYER
  5
1FB
100
AcDbSymbolTableRecord
100
AcDbLayerTableRecord
  2
DEFAULT_2
 70
0
 62
8
  6
HIDDEN
370
-3
390
F
  0
LAYER
  5
1FC
100
AcDbSymbolTableRecord
100
AcDbLayerTableRecord
  2
DEFAULT_3
 70
0
 62
7
  6
PHANTOM
370
-3
390
F
  0
LAYER
  5
1FD
100
AcDbSymbolTableRecord
100
AcDbLayerTableRecord
  2
01_ALL_DTM_PLN
 70
0
 62
7
  6
CONTINUOUS
370
-3
390
F
  0
LAYER
  5
1FE
100
AcDbSymbolTableRecord
100
AcDbLayerTableRecord
  2
01__ASM_ALL_DTM_PLN
 70
0
 62
7
  6
CONTINUOUS
370
-3
390
F
  0
LAYER
  5
1FF
100
AcDbSymbolTableRecord
100
AcDbLayerTableRecord
  2
01__ASM_DEF_DTM_PLN
 70
0
 62
7
  6
CONTINUOUS
370
-3
390
F
  0
LAYER
  5
200
100
AcDbSymbolTableRecord
100
AcDbLayerTableRecord
  2
01___PRT_ALL_DTM_PLN
 70
0
 62
7
  6
CONTINUOUS
370
-3
390
F
  0
LAYER
  5
201
100
AcDbSymbolTableRecord
100
AcDbLayerTableRecord
  2
01___PRT_DEF_DTM_PLN
 70
0
 62
7
  6
CONTINUOUS
370
-3
390
F
  0
LAYER
  5
202
100
AcDbSymbolTableRecord
100
AcDbLayerTableRecord
  2
02_ALL_AXES
 70
0
 62
7
  6
CONTINUOUS
370
-3
390
F
  0
LAYER
  5
203
100
AcDbSymbolTableRecord
100
AcDbLayerTableRecord
  2
02__ASM_ALL_AXES
 70
0
 62
7
  6
CONTINUOUS
370
-3
390
F
  0
LAYER
  5
204
100
AcDbSymbolTableRecord
100
AcDbLayerTableRecord
  2
02___PRT_ALL_AXES
 70
0
 62
7
  6
CONTINUOUS
370
-3
390
F
  0
LAYER
  5
205
100
AcDbSymbolTableRecord
100
AcDbLayerTableRecord
  2
03_ALL_CURVES
 70
0
 62
7
  6
CONTINUOUS
370
-3
390
F
  0
LAYER
  5
206
100
AcDbSymbolTableRecord
100
AcDbLayerTableRecord
  2
03__ASM_ALL_CURVES
 70
0
 62
7
  6
CONTINUOUS
370
-3
390
F
  0
LAYER
  5
207
100
AcDbSymbolTableRecord
100
AcDbLayerTableRecord
  2
03___PRT_ALL_CURVES
 70
0
 62
7
  6
CONTINUOUS
370
-3
390
F
  0
LAYER
  5
208
100
AcDbSymbolTableRecord
100
AcDbLayerTableRecord
  2
04_ALL_DTM_PNT
 70
0
 62
7
  6
CONTINUOUS
370
-3
390
F
  0
LAYER
  5
209
100
AcDbSymbolTableRecord
100
AcDbLayerTableRecord
  2
04__ASM_ALL_DTM_PNT
 70
0
 62
7
  6
CONTINUOUS
370
-3
390
F
  0
LAYER
  5
20A
100
AcDbSymbolTableRecord
100
AcDbLayerTableRecord
  2
04___PRT_ALL_DTM_PNT
 70
0
 62
7
  6
CONTINUOUS
370
-3
390
F
  0
LAYER
  5
20B
100
AcDbSymbolTableRecord
100
AcDbLayerTableRecord
  2
05_ALL_DTM_CSYS
 70
0
 62
7
  6
CONTINUOUS
370
-3
390
F
  0
LAYER
  5
20C
100
AcDbSymbolTableRecord
100
AcDbLayerTableRecord
  2
05__ASM_ALL_DTM_CSYS
 70
0
 62
7
  6
CONTINUOUS
370
-3
390
F
  0
LAYER
  5
20D
100
AcDbSymbolTableRecord
100
AcDbLayerTableRecord
  2
05__ASM_DEF_DTM_CSYS
 70
0
 62
7
  6
CONTINUOUS
370
-3
390
F
  0
LAYER
  5
20E
100
AcDbSymbolTableRecord
100
AcDbLayerTableRecord
  2
05___PRT_ALL_DTM_CSYS
 70
0
 62
7
  6
CONTINUOUS
370
-3
390
F
  0
LAYER
  5
20F
100
AcDbSymbolTableRecord
100
AcDbLayerTableRecord
  2
05___PRT_DEF_DTM_CSYS
 70
0
 62
7
  6
CONTINUOUS
370
-3
390
F
  0
LAYER
  5
210
100
AcDbSymbolTableRecord
100
AcDbLayerTableRecord
  2
06_ALL_SURFS
 70
0
 62
7
  6
CONTINUOUS
370
-3
390
F
  0
LAYER
  5
211
100
AcDbSymbolTableRecord
100
AcDbLayerTableRecord
  2
06__ASM_ALL_SURFS
 70
0
 62
7
  6
CONTINUOUS
370
-3
390
F
  0
LAYER
  5
212
100
AcDbSymbolTableRecord
100
AcDbLayerTableRecord
  2
06___PRT_ALL_SURFS
 70
0
 62
7
  6
CONTINUOUS
370
-3
390
F
  0
LAYER
  5
213
100
AcDbSymbolTableRecord
100
AcDbLayerTableRecord
  2
07__ASM_ALL_SKELETONS
 70
0
 62
7
  6
CONTINUOUS
370
-3
390
F
  0
ENDTAB
  0
TABLE
  2
STYLE
  5
3
100
AcDbSymbolTable
 70
1
  0
STYLE
  5
11
100
AcDbSymbolTableRecord
100
AcDbTextStyleTableRecord
  2
STANDARD
 70
0
 40
0.0
 41
0.8
 50
0.0
 71
0
 42
0.2
  3
txt
  4

  0
STYLE
  5
214
100
AcDbSymbolTableRecord
100
AcDbTextStyleTableRecord
  2
TEXTSTYLE_1
 70
0
 40
0.0
 41
0.8
 50
0.0
 71
0
 42
0.2
  3
gdt
  4

  0
ENDTAB
  0
TABLE
  2
VIEW
  5
6
100
AcDbSymbolTable
 70
0
  0
ENDTAB
  0
TABLE
  2
UCS
  5
7
100
AcDbSymbolTable
 70
0
  0
ENDTAB
  0
TABLE
  2
APPID
  5
9
100
AcDbSymbolTable
 70
1
  0
APPID
  5
215
100
AcDbSymbolTableRecord
100
AcDbRegAppTableRecord
  2
ACAD
 70
0
  0
ENDTAB
  0
TABLE
  2
BLOCK_RECORD
  5
1
100
AcDbSymbolTable
 70
0
  0
BLOCK_RECORD
  5
216
100
AcDbSymbolTableRecord
100
AcDbBlockTableRecord
  2
*Model_Space
  0
BLOCK_RECORD
  5
217
100
AcDbSymbolTableRecord
100
AcDbBlockTableRecord
  2
*Paper_Space
  0
ENDTAB
  0
TABLE
  2
DIMSTYLE
  5
A
100
AcDbSymbolTable
 70
1
100
AcDbDimStyleTable
 71
0
  0
DIMSTYLE
105
218
100
AcDbSymbolTableRecord
100
AcDbDimStyleTableRecord
  2
STANDARD
 70
0
  3

  4

 40
1.0
 41
0.1875
 42
0.0625
 43
0.38
 44
0.125
 45
0.0
 46
0.0
 47
0.0001
 48
0.0001
140
0.15625
141
0.09
142
0.0
143
25.4
144
1.0
145
0.0
146
1.0
147
0.09
 71
0.0
 72
0.0
 73
1
 74
1
 75
0
 76
0
 77
0
 78
4
 79
1
170
0
171
3
172
0
173
0
174
0
175
0
176
0
177
0
178
0
270
2
179
4
271
4
272
4
273
2
274
2
275
0
280
0
281
0
282
0
283
1
284
4
285
0
286
0
287
3
288
0
340
11
278
46
  0
ENDTAB
  0
ENDSEC
  0
SECTION
  2
BLOCKS
  0
BLOCK
  5
20
100
AcDbEntity
  8
0
100
AcDbBlockBegin
  2
*Model_Space
 70
0
 10
0.0
 20
0.0
 30
0.0
  3
*Model_Space
  1

  0
ENDBLK
  5
21
100
AcDbEntity
  8
0
100
AcDbBlockEnd
  0
BLOCK
  5
1C
100
AcDbEntity
  8
0
100
AcDbBlockBegin
  2
*Paper_Space
 70
0
 10
0.0
 20
0.0
 30
0.0
  3
*Paper_Space
  1

  0
ENDBLK
  5
1D
100
AcDbEntity
  8
0
100
AcDbBlockEnd
  0
ENDSEC
  0
SECTION
  2
ENTITIES
  0
MTEXT
  5
219
100
AcDbEntity
  8
0
100
AcDbMText
 62
7
  6
CONTINUOUS
  7
STANDARD
 71
1
 72
1
 10
15.9560215477
 20
0.9479130325
 30
0.0
 11
1.0
 21
0.0
 31
0.0
 44
0.9
  1
SCALE: 1:1.000
 40
0.3
 41
3.36
  0
LINE
  5
21A
100
AcDbEntity
  8
0
100
AcDbLine
 62
7
  6
CONTINUOUS
 10
0.0
 20
0.0
 11
0.0
 21
17.0
  0
LINE
  5
21B
100
AcDbEntity
  8
0
100
AcDbLine
 62
7
  6
CONTINUOUS
 10
0.0
 20
0.0
 11
22.0
 21
0.0
  0
LINE
  5
21C
100
AcDbEntity
  8
0
100
AcDbLine
 62
7
  6
CONTINUOUS
 10
0.0
 20
17.0
 11
22.0
 21
17.0
  0
LINE
  5
21D
100
AcDbEntity
  8
0
100
AcDbLine
 62
7
  6
CONTINUOUS
 10
22.0
 20
0.0
 11
22.0
 21
17.0
  0
LINE
  5
21E
100
AcDbEntity
  8
0
100
AcDbLine
 62
7
  6
CONTINUOUS
 10
4.949264914
 20
5.6087025739
 11
4.949264914
 21
5.5457104479
  0
LINE
  5
21F
100
AcDbEntity
  8
0
100
AcDbLine
 62
7
  6
CONTINUOUS
 10
5.0174775398
 20
5.4976596669
 11
5.043010992
 21
5.4429030018
  0
LINE
  5
220
100
AcDbEntity
  8
0
100
AcDbLine
 62
7
  6
CONTINUOUS
 10
4.949264914
 20
5.5457104479
 11
4.9650129455
 21
5.5299624164
  0
LINE
  5
221
100
AcDbEntity
  8
0
100
AcDbLine
 62
7
  6
CONTINUOUS
 10
5.2492196233
 20
5.4429030018
 11
5.2747530756
 21
5.4976596669
  0
LINE
  5
222
100
AcDbEntity
  8
0
100
AcDbLine
 62
7
  6
CONTINUOUS
 10
5.4111783272
 20
5.4976596669
 11
5.4367117794
 21
5.4429030018
  0
LINE
  5
223
100
AcDbEntity
  8
0
100
AcDbLine
 62
7
  6
CONTINUOUS
 10
5.3272176699
 20
5.5299624164
 11
5.3429657014
 21
5.5457104479
  0
LINE
  5
224
100
AcDbEntity
  8
0
100
AcDbLine
 62
7
  6
CONTINUOUS
 10
5.3429657014
 20
5.5457104479
 11
5.3587137329
 21
5.5299624164
  0
LINE
  5
225
100
AcDbEntity
  8
0
100
AcDbLine
 62
7
  6
CONTINUOUS
 10
5.6429204107
 20
5.4429030018
 11
5.668453863
 21
5.4976596669
  0
LINE
  5
226
100
AcDbEntity
  8
0
100
AcDbLine
 62
7
  6
CONTINUOUS
 10
5.7209184573
 20
5.5299624164
 11
5.7366664888
 21
5.5457104479
  0
LINE
  5
227
100
AcDbEntity
  8
0
100
AcDbLine
 62
7
  6
CONTINUOUS
 10
5.7366664888
 20
5.5457104479
 11
5.7524145203
 21
5.5299624164
  0
LINE
  5
228
100
AcDbEntity
  8
0
100
AcDbLine
 62
7
  6
CONTINUOUS
 10
5.8048791146
 20
5.4976596669
 11
5.8304125668
 21
5.4429030018
  0
LINE
  5
229
100
AcDbEntity
  8
0
100
AcDbLine
 62
7
  6
CONTINUOUS
 10
5.0608516965
 20
5.4315372196
 11
5.2313789189
 21
5.4315372196
  0
LINE
  5
22A
100
AcDbEntity
  8
0
100
AcDbLine
 62
7
  6
CONTINUOUS
 10
5.4545524839
 20
5.4315372196
 11
5.6250797063
 21
5.4315372196
  0
LINE
  5
22B
100
AcDbEntity
  8
0
100
AcDbLine
 62
7
  6
CONTINUOUS
 10
5.8482532713
 20
5.4315372196
 11
6.0187804937
 21
5.4315372196
  0
LINE
  5
22C
100
AcDbEntity
  8
0
100
AcDbLine
 62
7
  6
CONTINUOUS
 10
6.2419540587
 20
5.4315372196
 11
6.4124812811
 21
5.4315372196
  0
LINE
  5
22D
100
AcDbEntity
  8
0
100
AcDbLine
 62
7
  6
CONTINUOUS
 10
6.6356548461
 20
5.4315372196
 11
6.8061820685
 21
5.4315372196
  0
LINE
  5
22E
100
AcDbEntity
  8
0
100
AcDbLine
 62
7
  6
CONTINUOUS
 10
7.0293556335
 20
5.4315372196
 11
7.1998828559
 21
5.4315372196
  0
LINE
  5
22F
100
AcDbEntity
  8
0
100
AcDbLine
 62
7
  6
CONTINUOUS
 10
6.0366211981
 20
5.4429030018
 11
6.0621546504
 21
5.4976596669
  0
LINE
  5
230
100
AcDbEntity
  8
0
100
AcDbLine
 62
7
  6
CONTINUOUS
 10
6.1146192447
 20
5.5299624164
 11
6.1303672762
 21
5.5457104479
  0
LINE
  5
231
100
AcDbEntity
  8
0
100
AcDbLine
 62
7
  6
CONTINUOUS
 10
4.9650129455
 20
5.5299624164
 11
4.9667723797
 21
5.5299624164
  0
LINE
  5
232
100
AcDbEntity
  8
0
100
AcDbLine
 62
7
  6
CONTINUOUS
 10
5.3254582356
 20
5.5299624164
 11
5.3272176699
 21
5.5299624164
  0
LINE
  5
233
100
AcDbEntity
  8
0
100
AcDbLine
 62
7
  6
CONTINUOUS
 10
5.3587137329
 20
5.5299624164
 11
5.3604731671
 21
5.5299624164
  0
LINE
  5
234
100
AcDbEntity
  8
0
100
AcDbLine
 62
7
  6
CONTINUOUS
 10
5.719159023
 20
5.5299624164
 11
5.7209184573
 21
5.5299624164
  0
LINE
  5
235
100
AcDbEntity
  8
0
100
AcDbLine
 62
7
  6
CONTINUOUS
 10
5.7524145203
 20
5.5299624164
 11
5.7541739545
 21
5.5299624164
  0
LINE
  5
236
100
AcDbEntity
  8
0
100
AcDbLine
 62
7
  6
CONTINUOUS
 10
6.1128598104
 20
5.5299624164
 11
6.1146192447
 21
5.5299624164
  0
LINE
  5
237
100
AcDbEntity
  8
0
100
AcDbLine
 62
7
  6
CONTINUOUS
 10
6.1461153077
 20
5.5299624164
 11
6.1478747419
 21
5.5299624164
  0
LINE
  5
238
100
AcDbEntity
  8
0
100
AcDbLine
 62
7
  6
CONTINUOUS
 10
6.5065605978
 20
5.5299624164
 11
6.5083200321
 21
5.5299624164
  0
LINE
  5
239
100
AcDbEntity
  8
0
100
AcDbLine
 62
7
  6
CONTINUOUS
 10
6.5398160951
 20
5.5299624164
 11
6.5415755293
 21
5.5299624164
  0
LINE
  5
23A
100
AcDbEntity
  8
0
100
AcDbLine
 62
7
  6
CONTINUOUS
 10
6.9002613852
 20
5.5299624164
 11
6.9020208195
 21
5.5299624164
  0
LINE
  5
23B
100
AcDbEntity
  8
0
100
AcDbLine
 62
7
  6
CONTINUOUS
 10
6.9335168825
 20
5.5299624164
 11
6.9352763167
 21
5.5299624164
  0
LINE
  5
23C
100
AcDbEntity
  8
0
100
AcDbLine
 62
7
  6
CONTINUOUS
 10
7.2939621726
 20
5.5299624164
 11
7.2957216069
 21
5.5299624164
  0
LINE
  5
23D
100
AcDbEntity
  8
0
100
AcDbLine
 62
7
  6
CONTINUOUS
 10
7.3114696384
 20
5.6087025739
 11
4.949264914
 21
5.6087025739
  0
LINE
  5
23E
100
AcDbEntity
  8
0
100
AcDbLine
 62
7
  6
CONTINUOUS
 10
6.1303672762
 20
5.5457104479
 11
6.1461153077
 21
5.5299624164
  0
LINE
  5
23F
100
AcDbEntity
  8
0
100
AcDbLine
 62
7
  6
CONTINUOUS
 10
6.198579902
 20
5.4976596669
 11
6.2241133542
 21
5.4429030018
  0
LINE
  5
240
100
AcDbEntity
  8
0
100
AcDbLine
 62
7
  6
CONTINUOUS
 10
6.4303219855
 20
5.4429030018
 11
6.4558554378
 21
5.4976596669
  0
LINE
  5
241
100
AcDbEntity
  8
0
100
AcDbLine
 62
7
  6
CONTINUOUS
 10
6.5083200321
 20
5.5299624164
 11
6.5240680636
 21
5.5457104479
  0
LINE
  5
242
100
AcDbEntity
  8
0
100
AcDbLine
 62
7
  6
CONTINUOUS
 10
6.5240680636
 20
5.5457104479
 11
6.5398160951
 21
5.5299624164
  0
LINE
  5
243
100
AcDbEntity
  8
0
100
AcDbLine
 62
7
  6
CONTINUOUS
 10
6.5922806894
 20
5.4976596669
 11
6.6178141416
 21
5.4429030018
  0
LINE
  5
244
100
AcDbEntity
  8
0
100
AcDbLine
 62
7
  6
CONTINUOUS
 10
6.9020208195
 20
5.5299624164
 11
6.917768851
 21
5.5457104479
  0
LINE
  5
245
100
AcDbEntity
  8
0
100
AcDbLine
 62
7
  6
CONTINUOUS
 10
6.917768851
 20
5.5457104479
 11
6.9335168825
 21
5.5299624164
  0
LINE
  5
246
100
AcDbEntity
  8
0
100
AcDbLine
 62
7
  6
CONTINUOUS
 10
6.8240227729
 20
5.4429030018
 11
6.8495562252
 21
5.4976596669
  0
LINE
  5
247
100
AcDbEntity
  8
0
100
AcDbLine
 62
7
  6
CONTINUOUS
 10
6.9859814768
 20
5.4976596669
 11
7.011514929
 21
5.4429030018
  0
LINE
  5
248
100
AcDbEntity
  8
0
100
AcDbLine
 62
7
  6
CONTINUOUS
 10
7.2957216069
 20
5.5299624164
 11
7.3114696384
 21
5.5457104479
  0
LINE
  5
249
100
AcDbEntity
  8
0
100
AcDbLine
 62
7
  6
CONTINUOUS
 10
7.2177235603
 20
5.4429030018
 11
7.2432570126
 21
5.4976596669
  0
LINE
  5
24A
100
AcDbEntity
  8
0
100
AcDbLine
 62
7
  6
CONTINUOUS
 10
7.3114696384
 20
5.5457104479
 11
7.3114696384
 21
5.6087025739
  0
LINE
  5
24B
100
AcDbEntity
  8
0
100
AcDbLine
 62
7
  6
CONTINUOUS
 10
4.8897697217
 20
13.3874493562
 11
4.8897697217
 21
11.8126462066
  0
LINE
  5
24C
100
AcDbEntity
  8
0
100
AcDbLine
 62
7
  6
CONTINUOUS
 10
7.2519744461
 20
11.8126462066
 11
4.8897697217
 21
11.8126462066
  0
LINE
  5
24D
100
AcDbEntity
  8
0
100
AcDbLine
 62
7
  6
CONTINUOUS
 10
4.8897697217
 20
13.3874493562
 11
7.2519744461
 21
13.3874493562
  0
LINE
  5
24E
100
AcDbEntity
  8
0
100
AcDbLine
 62
7
  6
CONTINUOUS
 10
7.2519744461
 20
13.3874493562
 11
7.2519744461
 21
11.8126462066
  0
LINE
  5
24F
100
AcDbEntity
  8
0
100
AcDbLine
 62
7
  6
CONTINUOUS
 10
14.7729536821
 20
5.3720420273
 11
14.7729536821
 21
5.5492073816
  0
LINE
  5
250
100
AcDbEntity
  8
0
100
AcDbLine
 62
7
  6
CONTINUOUS
 10
14.7729536821
 20
5.3720420273
 11
16.3477568317
 21
5.3720420273
  0
LINE
  5
251
100
AcDbEntity
  8
0
100
AcDbLine
 62
7
  6
CONTINUOUS
 10
16.3477568317
 20
5.4704672241
 11
14.7729536821
 21
5.4704672241
  0
LINE
  5
252
100
AcDbEntity
  8
0
100
AcDbLine
 62
7
  6
CONTINUOUS
 10
16.3477568317
 20
5.4862152556
 11
14.7729536821
 21
5.4862152556
  0
LINE
  5
253
100
AcDbEntity
  8
0
100
AcDbLine
 62
7
  6
CONTINUOUS
 10
16.3477568317
 20
5.5492073816
 11
14.7729536821
 21
5.5492073816
  0
LINE
  5
254
100
AcDbEntity
  8
0
100
AcDbLine
 62
7
  6
CONTINUOUS
 10
16.3477568317
 20
5.3720420273
 11
16.3477568317
 21
5.5492073816
  0
LINE
  5
255
100
AcDbEntity
  8
0
100
AcDbLine
 62
7
  6
CONTINUOUS
 10
14.1830341306
 20
11.9490760258
 11
14.2022493663
 21
11.9099194924
  0
LINE
  5
256
100
AcDbEntity
  8
0
100
AcDbLine
 62
7
  6
CONTINUOUS
 10
14.2797348552
 20
11.8800506479
 11
14.3199557974
 21
11.8460133591
  0
LINE
  5
257
100
AcDbEntity
  8
0
100
AcDbLine
 62
7
  6
CONTINUOUS
 10
14.5642409391
 20
13.1826617103
 11
14.1830341306
 21
11.9490760258
  0
LINE
  5
258
100
AcDbEntity
  8
0
100
AcDbLine
 62
7
  6
CONTINUOUS
 10
14.2022493663
 20
11.9099194924
 11
14.2215580728
 21
11.900130359
  0
LINE
  5
259
100
AcDbEntity
  8
0
100
AcDbLine
 62
7
  6
CONTINUOUS
 10
14.6423572938
 20
11.8800506479
 11
14.682578236
 21
11.8460133591
  0
LINE
  5
25A
100
AcDbEntity
  8
0
100
AcDbLine
 62
7
  6
CONTINUOUS
 10
14.5648718049
 20
11.9099194924
 11
14.5841805114
 21
11.900130359
  0
LINE
  5
25B
100
AcDbEntity
  8
0
100
AcDbLine
 62
7
  6
CONTINUOUS
 10
14.5098865243
 20
11.8460133591
 11
14.5167013159
 21
11.8800506479
  0
LINE
  5
25C
100
AcDbEntity
  8
0
100
AcDbLine
 62
7
  6
CONTINUOUS
 10
14.5097247625
 20
11.845372477
 11
14.5098865243
 21
11.8460133591
  0
LINE
  5
25D
100
AcDbEntity
  8
0
100
AcDbLine
 62
7
  6
CONTINUOUS
 10
14.5167013159
 20
11.8800506479
 11
14.5171620659
 21
11.8818717921
  0
LINE
  5
25E
100
AcDbEntity
  8
0
100
AcDbLine
 62
7
  6
CONTINUOUS
 10
14.9274942435
 20
11.9099194924
 11
14.9468029499
 21
11.900130359
  0
LINE
  5
25F
100
AcDbEntity
  8
0
100
AcDbLine
 62
7
  6
CONTINUOUS
 10
15.0049797323
 20
11.8800506479
 11
15.0452006746
 21
11.8460133591
  0
LINE
  5
260
100
AcDbEntity
  8
0
100
AcDbLine
 62
7
  6
CONTINUOUS
 10
14.5097239226
 20
11.8453727361
 11
14.523930402
 21
11.8913449206
  0
LINE
  5
261
100
AcDbEntity
  8
0
100
AcDbLine
 62
7
  6
CONTINUOUS
 10
14.3398552138
 20
11.8389482755
 11
14.4969211868
 21
11.8389482755
  0
LINE
  5
262
100
AcDbEntity
  8
0
100
AcDbLine
 62
7
  6
CONTINUOUS
 10
14.7024776524
 20
11.8389482755
 11
14.8595436254
 21
11.8389482755
  0
LINE
  5
263
100
AcDbEntity
  8
0
100
AcDbLine
 62
7
  6
CONTINUOUS
 10
15.065100091
 20
11.8389482755
 11
15.2221660639
 21
11.8389482755
  0
LINE
  5
264
100
AcDbEntity
  8
0
100
AcDbLine
 62
7
  6
CONTINUOUS
 10
15.4277225296
 20
11.8389482755
 11
15.5847885025
 21
11.8389482755
  0
LINE
  5
265
100
AcDbEntity
  8
0
100
AcDbLine
 62
7
  6
CONTINUOUS
 10
15.7903449682
 20
11.8389482755
 11
15.9474109411
 21
11.8389482755
  0
LINE
  5
266
100
AcDbEntity
  8
0
100
AcDbLine
 62
7
  6
CONTINUOUS
 10
16.1529674067
 20
11.8389482755
 11
16.3100333797
 21
11.8389482755
  0
LINE
  5
267
100
AcDbEntity
  8
0
100
AcDbLine
 62
7
  6
CONTINUOUS
 10
14.2215580728
 20
11.900130359
 11
14.223178619
 21
11.900130359
  0
LINE
  5
268
100
AcDbEntity
  8
0
100
AcDbLine
 62
7
  6
CONTINUOUS
 10
14.55355017
 20
11.900130359
 11
14.5551707163
 21
11.900130359
  0
LINE
  5
269
100
AcDbEntity
  8
0
100
AcDbLine
 62
7
  6
CONTINUOUS
 10
14.5841805114
 20
11.900130359
 11
14.5858010576
 21
11.900130359
  0
LINE
  5
26A
100
AcDbEntity
  8
0
100
AcDbLine
 62
7
  6
CONTINUOUS
 10
14.9161726086
 20
11.900130359
 11
14.9177931549
 21
11.900130359
  0
LINE
  5
26B
100
AcDbEntity
  8
0
100
AcDbLine
 62
7
  6
CONTINUOUS
 10
14.9468029499
 20
11.900130359
 11
14.9484234962
 21
11.900130359
  0
LINE
  5
26C
100
AcDbEntity
  8
0
100
AcDbLine
 62
7
  6
CONTINUOUS
 10
15.2787950472
 20
11.900130359
 11
15.2804155934
 21
11.900130359
  0
LINE
  5
26D
100
AcDbEntity
  8
0
100
AcDbLine
 62
7
  6
CONTINUOUS
 10
15.3094253885
 20
11.900130359
 11
15.3110459348
 21
11.900130359
  0
LINE
  5
26E
100
AcDbEntity
  8
0
100
AcDbLine
 62
7
  6
CONTINUOUS
 10
15.6414174858
 20
11.900130359
 11
15.643038032
 21
11.900130359
  0
LINE
  5
26F
100
AcDbEntity
  8
0
100
AcDbLine
 62
7
  6
CONTINUOUS
 10
15.6720478271
 20
11.900130359
 11
15.6736683734
 21
11.900130359
  0
LINE
  5
270
100
AcDbEntity
  8
0
100
AcDbLine
 62
7
  6
CONTINUOUS
 10
16.0040399244
 20
11.900130359
 11
16.0056604706
 21
11.900130359
  0
LINE
  5
271
100
AcDbEntity
  8
0
100
AcDbLine
 62
7
  6
CONTINUOUS
 10
16.0346702657
 20
11.900130359
 11
16.0362908119
 21
11.900130359
  0
LINE
  5
272
100
AcDbEntity
  8
0
100
AcDbLine
 62
7
  6
CONTINUOUS
 10
16.366662363
 20
11.900130359
 11
16.3682829092
 21
11.900130359
  0
LINE
  5
273
100
AcDbEntity
  8
0
100
AcDbLine
 62
7
  6
CONTINUOUS
 10
15.2901166821
 20
11.9099194924
 11
15.3094253885
 21
11.900130359
  0
LINE
  5
274
100
AcDbEntity
  8
0
100
AcDbLine
 62
7
  6
CONTINUOUS
 10
16.3587687621
 20
11.9490760258
 11
14.1830341306
 21
11.9490760258
  0
LINE
  5
275
100
AcDbEntity
  8
0
100
AcDbLine
 62
7
  6
CONTINUOUS
 10
15.3676021709
 20
11.8800506479
 11
15.4078231132
 21
11.8460133591
  0
LINE
  5
276
100
AcDbEntity
  8
0
100
AcDbLine
 62
7
  6
CONTINUOUS
 10
14.8725089629
 20
11.8460133591
 11
14.8793237545
 21
11.8800506479
  0
LINE
  5
277
100
AcDbEntity
  8
0
100
AcDbLine
 62
7
  6
CONTINUOUS
 10
14.8793237545
 20
11.8800506479
 11
14.8797832967
 21
11.8818721645
  0
LINE
  5
278
100
AcDbEntity
  8
0
100
AcDbLine
 62
7
  6
CONTINUOUS
 10
14.8723428924
 20
11.8453738106
 11
14.8725089629
 21
11.8460133591
  0
LINE
  5
279
100
AcDbEntity
  8
0
100
AcDbLine
 62
7
  6
CONTINUOUS
 10
14.8723463611
 20
11.8453727361
 11
14.8865529384
 21
11.891345237
  0
LINE
  5
27A
100
AcDbEntity
  8
0
100
AcDbLine
 62
7
  6
CONTINUOUS
 10
15.6527391206
 20
11.9099194924
 11
15.6720478271
 21
11.900130359
  0
LINE
  5
27B
100
AcDbEntity
  8
0
100
AcDbLine
 62
7
  6
CONTINUOUS
 10
16.0153615592
 20
11.9099194924
 11
16.0346702657
 21
11.900130359
  0
LINE
  5
27C
100
AcDbEntity
  8
0
100
AcDbLine
 62
7
  6
CONTINUOUS
 10
15.7302246095
 20
11.8800506479
 11
15.7704455517
 21
11.8460133591
  0
LINE
  5
27D
100
AcDbEntity
  8
0
100
AcDbLine
 62
7
  6
CONTINUOUS
 10
14.5551707163
 20
11.900130359
 11
14.5648718049
 21
11.9099194924
  0
LINE
  5
27E
100
AcDbEntity
  8
0
100
AcDbLine
 62
7
  6
CONTINUOUS
 10
15.2351314015
 20
11.8460133591
 11
15.2419461931
 21
11.8800506479
  0
LINE
  5
27F
100
AcDbEntity
  8
0
100
AcDbLine
 62
7
  6
CONTINUOUS
 10
15.2419461931
 20
11.8800506479
 11
15.2424057353
 21
11.8818721645
  0
LINE
  5
280
100
AcDbEntity
  8
0
100
AcDbLine
 62
7
  6
CONTINUOUS
 10
15.234965331
 20
11.8453738106
 11
15.2351314015
 21
11.8460133591
  0
LINE
  5
281
100
AcDbEntity
  8
0
100
AcDbLine
 62
7
  6
CONTINUOUS
 10
15.2349687997
 20
11.8453727361
 11
15.249175377
 21
11.891345237
  0
LINE
  5
282
100
AcDbEntity
  8
0
100
AcDbLine
 62
7
  6
CONTINUOUS
 10
16.0928470481
 20
11.8800506479
 11
16.1330679903
 21
11.8460133591
  0
LINE
  5
283
100
AcDbEntity
  8
0
100
AcDbLine
 62
7
  6
CONTINUOUS
 10
14.9177931549
 20
11.900130359
 11
14.9274942435
 21
11.9099194924
  0
LINE
  5
284
100
AcDbEntity
  8
0
100
AcDbLine
 62
7
  6
CONTINUOUS
 10
15.5977538401
 20
11.8460133591
 11
15.6045686317
 21
11.8800506479
  0
LINE
  5
285
100
AcDbEntity
  8
0
100
AcDbLine
 62
7
  6
CONTINUOUS
 10
15.6045686317
 20
11.8800506479
 11
15.6050281739
 21
11.8818721645
  0
LINE
  5
286
100
AcDbEntity
  8
0
100
AcDbLine
 62
7
  6
CONTINUOUS
 10
15.5975877696
 20
11.8453738106
 11
15.5977538401
 21
11.8460133591
  0
LINE
  5
287
100
AcDbEntity
  8
0
100
AcDbLine
 62
7
  6
CONTINUOUS
 10
15.2804155934
 20
11.900130359
 11
15.2901166821
 21
11.9099194924
  0
LINE
  5
288
100
AcDbEntity
  8
0
100
AcDbLine
 62
7
  6
CONTINUOUS
 10
15.5975912383
 20
11.8453727361
 11
15.6117978156
 21
11.891345237
  0
LINE
  5
289
100
AcDbEntity
  8
0
100
AcDbLine
 62
7
  6
CONTINUOUS
 10
15.643038032
 20
11.900130359
 11
15.6527391206
 21
11.9099194924
  0
LINE
  5
28A
100
AcDbEntity
  8
0
100
AcDbLine
 62
7
  6
CONTINUOUS
 10
16.3779839978
 20
11.9099194924
 11
16.3587687621
 21
11.9490760258
  0
LINE
  5
28B
100
AcDbEntity
  8
0
100
AcDbLine
 62
7
  6
CONTINUOUS
 10
15.9603762787
 20
11.8460133591
 11
15.9671910703
 21
11.8800506479
  0
LINE
  5
28C
100
AcDbEntity
  8
0
100
AcDbLine
 62
7
  6
CONTINUOUS
 10
15.9671910703
 20
11.8800506479
 11
15.9676506125
 21
11.8818721645
  0
LINE
  5
28D
100
AcDbEntity
  8
0
100
AcDbLine
 62
7
  6
CONTINUOUS
 10
15.9602102081
 20
11.8453738106
 11
15.9603762787
 21
11.8460133591
  0
LINE
  5
28E
100
AcDbEntity
  8
0
100
AcDbLine
 62
7
  6
CONTINUOUS
 10
15.9602136769
 20
11.8453727361
 11
15.9744202542
 21
11.891345237
  0
LINE
  5
28F
100
AcDbEntity
  8
0
100
AcDbLine
 62
7
  6
CONTINUOUS
 10
14.5642409391
 20
13.1826617103
 11
16.7399755706
 21
13.1826617103
  0
LINE
  5
290
100
AcDbEntity
  8
0
100
AcDbLine
 62
7
  6
CONTINUOUS
 10
16.0056604706
 20
11.900130359
 11
16.0153615592
 21
11.9099194924
  0
LINE
  5
291
100
AcDbEntity
  8
0
100
AcDbLine
 62
7
  6
CONTINUOUS
 10
16.3229987173
 20
11.8460133591
 11
16.3298135088
 21
11.8800506479
  0
LINE
  5
292
100
AcDbEntity
  8
0
100
AcDbLine
 62
7
  6
CONTINUOUS
 10
16.3298135088
 20
11.8800506479
 11
16.3302730511
 21
11.8818721645
  0
LINE
  5
293
100
AcDbEntity
  8
0
100
AcDbLine
 62
7
  6
CONTINUOUS
 10
16.3228326467
 20
11.8453738106
 11
16.3229987173
 21
11.8460133591
  0
LINE
  5
294
100
AcDbEntity
  8
0
100
AcDbLine
 62
7
  6
CONTINUOUS
 10
16.3228361155
 20
11.8453727361
 11
16.3370426927
 21
11.891345237
  0
LINE
  5
295
100
AcDbEntity
  8
0
100
AcDbLine
 62
7
  6
CONTINUOUS
 10
16.7399755706
 20
13.1826617103
 11
16.3587687621
 21
11.9490760258
  0
LINE
  5
296
100
AcDbEntity
  8
0
100
AcDbLine
 62
7
  6
CONTINUOUS
 10
16.7591908063
 20
13.1435051768
 11
16.3779839978
 21
11.9099194924
  0
LINE
  5
297
100
AcDbEntity
  8
0
100
AcDbLine
 62
7
  6
CONTINUOUS
 10
16.3682829092
 20
11.900130359
 11
16.3779839978
 21
11.9099194924
  0
LINE
  5
298
100
AcDbEntity
  8
0
100
AcDbLine
 62
7
  6
CONTINUOUS
 10
16.7591908063
 20
13.1435051768
 11
16.7399755706
 21
13.1826617103
  0
ARC
  5
299
100
AcDbEntity
  8
0
100
AcDbCircle
 62
7
  6
CONTINUOUS
 10
7.2939621726
 20
5.4740154624
 40
0.055946954
100
AcDbArc
 50
90.0
 51
155.0
  0
ARC
  5
29A
100
AcDbEntity
  8
0
100
AcDbCircle
 62
7
  6
CONTINUOUS
 10
6.9352763167
 20
5.4740154624
 40
0.055946954
100
AcDbArc
 50
25.0
 51
90.0
  0
ARC
  5
29B
100
AcDbEntity
  8
0
100
AcDbCircle
 62
7
  6
CONTINUOUS
 10
6.9002613852
 20
5.4740154624
 40
0.055946954
100
AcDbArc
 50
90.0
 51
155.0
  0
ARC
  5
29C
100
AcDbEntity
  8
0
100
AcDbCircle
 62
7
  6
CONTINUOUS
 10
6.5415755293
 20
5.4740154624
 40
0.055946954
100
AcDbArc
 50
25.0
 51
90.0
  0
ARC
  5
29D
100
AcDbEntity
  8
0
100
AcDbCircle
 62
7
  6
CONTINUOUS
 10
6.5065605978
 20
5.4740154624
 40
0.055946954
100
AcDbArc
 50
90.0
 51
155.0
  0
ARC
  5
29E
100
AcDbEntity
  8
0
100
AcDbCircle
 62
7
  6
CONTINUOUS
 10
6.1478747419
 20
5.4740154624
 40
0.055946954
100
AcDbArc
 50
25.0
 51
90.0
  0
ARC
  5
29F
100
AcDbEntity
  8
0
100
AcDbCircle
 62
7
  6
CONTINUOUS
 10
6.1128598104
 20
5.4740154624
 40
0.055946954
100
AcDbArc
 50
90.0
 51
155.0
  0
ARC
  5
2A0
100
AcDbEntity
  8
0
100
AcDbCircle
 62
7
  6
CONTINUOUS
 10
5.7541739545
 20
5.4740154624
 40
0.055946954
100
AcDbArc
 50
25.0
 51
90.0
  0
ARC
  5
2A1
100
AcDbEntity
  8
0
100
AcDbCircle
 62
7
  6
CONTINUOUS
 10
5.719159023
 20
5.4740154624
 40
0.055946954
100
AcDbArc
 50
90.0
 51
155.0
  0
ARC
  5
2A2
100
AcDbEntity
  8
0
100
AcDbCircle
 62
7
  6
CONTINUOUS
 10
5.3604731671
 20
5.4740154624
 40
0.055946954
100
AcDbArc
 50
25.0
 51
90.0
  0
ARC
  5
2A3
100
AcDbEntity
  8
0
100
AcDbCircle
 62
7
  6
CONTINUOUS
 10
4.9667723797
 20
5.4740154624
 40
0.055946954
100
AcDbArc
 50
25.0
 51
90.0
  0
ARC
  5
2A4
100
AcDbEntity
  8
0
100
AcDbCircle
 62
7
  6
CONTINUOUS
 10
5.3254582356
 20
5.4740154624
 40
0.055946954
100
AcDbArc
 50
90.0
 51
155.0
  0
ARC
  5
2A5
100
AcDbEntity
  8
0
100
AcDbCircle
 62
7
  6
CONTINUOUS
 10
5.0608516965
 20
5.451222259
 40
0.0196850394
100
AcDbArc
 50
205.0
 51
270.0
  0
ARC
  5
2A6
100
AcDbEntity
  8
0
100
AcDbCircle
 62
7
  6
CONTINUOUS
 10
5.2313789189
 20
5.451222259
 40
0.0196850394
100
AcDbArc
 50
270.0
 51
335.0
  0
ARC
  5
2A7
100
AcDbEntity
  8
0
100
AcDbCircle
 62
7
  6
CONTINUOUS
 10
5.4545524839
 20
5.451222259
 40
0.0196850394
100
AcDbArc
 50
205.0
 51
270.0
  0
ARC
  5
2A8
100
AcDbEntity
  8
0
100
AcDbCircle
 62
7
  6
CONTINUOUS
 10
5.6250797063
 20
5.451222259
 40
0.0196850394
100
AcDbArc
 50
270.0
 51
335.0
  0
ARC
  5
2A9
100
AcDbEntity
  8
0
100
AcDbCircle
 62
7
  6
CONTINUOUS
 10
5.8482532713
 20
5.451222259
 40
0.0196850394
100
AcDbArc
 50
205.0
 51
270.0
  0
ARC
  5
2AA
100
AcDbEntity
  8
0
100
AcDbCircle
 62
7
  6
CONTINUOUS
 10
6.0187804937
 20
5.451222259
 40
0.0196850394
100
AcDbArc
 50
270.0
 51
335.0
  0
ARC
  5
2AB
100
AcDbEntity
  8
0
100
AcDbCircle
 62
7
  6
CONTINUOUS
 10
6.2419540587
 20
5.451222259
 40
0.0196850394
100
AcDbArc
 50
205.0
 51
270.0
  0
ARC
  5
2AC
100
AcDbEntity
  8
0
100
AcDbCircle
 62
7
  6
CONTINUOUS
 10
6.4124812811
 20
5.451222259
 40
0.0196850394
100
AcDbArc
 50
270.0
 51
335.0
  0
ARC
  5
2AD
100
AcDbEntity
  8
0
100
AcDbCircle
 62
7
  6
CONTINUOUS
 10
6.6356548461
 20
5.451222259
 40
0.0196850394
100
AcDbArc
 50
205.0
 51
270.0
  0
ARC
  5
2AE
100
AcDbEntity
  8
0
100
AcDbCircle
 62
7
  6
CONTINUOUS
 10
7.1998828559
 20
5.451222259
 40
0.0196850394
100
AcDbArc
 50
270.0
 51
335.0
  0
ARC
  5
2AF
100
AcDbEntity
  8
0
100
AcDbCircle
 62
7
  6
CONTINUOUS
 10
7.0293556335
 20
5.451222259
 40
0.0196850394
100
AcDbArc
 50
205.0
 51
270.0
  0
ARC
  5
2B0
100
AcDbEntity
  8
0
100
AcDbCircle
 62
7
  6
CONTINUOUS
 10
6.8061820685
 20
5.451222259
 40
0.0196850394
100
AcDbArc
 50
270.0
 51
335.0
  0
SPLINE
  5
2B1
100
AcDbEntity
  8
0
100
AcDbSpline
 62
7
  6
CONTINUOUS
 70
0
 71
3
 72
9
 73
5
 74
0
 42
0.0000001
 43
0.0000001
 44
0.0000000001
 40
0.0
 40
0.0
 40
0.0
 40
0.0
 40
0.7465922387
 40
1.0
 40
1.0
 40
1.0
 40
1.0
 10
16.3302760808
 20
11.8818712279
 30
0.0
 10
16.3306721291
 20
11.8831513284
 30
0.0
 10
16.3313958113
 20
11.8848145138
 30
0.0
 10
16.3323361076
 20
11.8863437857
 30
0.0
 10
16.3325874408
 20
11.8867228428
 30
0.0
  0
SPLINE
  5
2B2
100
AcDbEntity
  8
0
100
AcDbSpline
 62
7
  6
CONTINUOUS
 70
0
 71
3
 72
10
 73
6
 74
0
 42
0.0000001
 43
0.0000001
 44
0.0000000001
 40
0.0
 40
0.0
 40
0.0
 40
0.0
 40
0.2063261294
 40
0.5677661799
 40
1.0
 40
1.0
 40
1.0
 40
1.0
 10
16.3325874408
 20
11.8867228428
 30
0.0
 10
16.3340268378
 20
11.8888937195
 30
0.0
 10
16.3392101814
 20
11.8940827794
 30
0.0
 10
16.3511326833
 20
11.8990931948
 30
0.0
 10
16.3612057185
 20
11.900130359
 30
0.0
 10
16.366662363
 20
11.900130359
 30
0.0
  0
SPLINE
  5
2B3
100
AcDbEntity
  8
0
100
AcDbSpline
 62
7
  6
CONTINUOUS
 70
0
 71
3
 72
9
 73
5
 74
0
 42
0.0000001
 43
0.0000001
 44
0.0000000001
 40
0.0
 40
0.0
 40
0.0
 40
0.0
 40
0.7465922387
 40
1.0
 40
1.0
 40
1.0
 40
1.0
 10
15.9676536422
 20
11.8818712279
 30
0.0
 10
15.9680496905
 20
11.8831513284
 30
0.0
 10
15.9687733727
 20
11.8848145138
 30
0.0
 10
15.969713669
 20
11.8863437857
 30
0.0
 10
15.9699650023
 20
11.8867228428
 30
0.0
  0
SPLINE
  5
2B4
100
AcDbEntity
  8
0
100
AcDbSpline
 62
7
  6
CONTINUOUS
 70
0
 71
3
 72
10
 73
6
 74
0
 42
0.0000001
 43
0.0000001
 44
0.0000000001
 40
0.0
 40
0.0
 40
0.0
 40
0.0
 40
0.2063261294
 40
0.5677661799
 40
1.0
 40
1.0
 40
1.0
 40
1.0
 10
15.9699650023
 20
11.8867228428
 30
0.0
 10
15.9714043992
 20
11.8888937195
 30
0.0
 10
15.9765877428
 20
11.8940827794
 30
0.0
 10
15.9885102448
 20
11.8990931948
 30
0.0
 10
15.9985832799
 20
11.900130359
 30
0.0
 10
16.0040399244
 20
11.900130359
 30
0.0
  0
SPLINE
  5
2B5
100
AcDbEntity
  8
0
100
AcDbSpline
 62
7
  6
CONTINUOUS
 70
0
 71
3
 72
9
 73
5
 74
0
 42
0.0000001
 43
0.0000001
 44
0.0000000001
 40
0.0
 40
0.0
 40
0.0
 40
0.0
 40
0.7465922387
 40
1.0
 40
1.0
 40
1.0
 40
1.0
 10
15.6050312036
 20
11.8818712279
 30
0.0
 10
15.6054272519
 20
11.8831513284
 30
0.0
 10
15.6061509341
 20
11.8848145138
 30
0.0
 10
15.6070912304
 20
11.8863437857
 30
0.0
 10
15.6073425637
 20
11.8867228428
 30
0.0
  0
SPLINE
  5
2B6
100
AcDbEntity
  8
0
100
AcDbSpline
 62
7
  6
CONTINUOUS
 70
0
 71
3
 72
10
 73
6
 74
0
 42
0.0000001
 43
0.0000001
 44
0.0000000001
 40
0.0
 40
0.0
 40
0.0
 40
0.0
 40
0.2063261294
 40
0.5677661799
 40
1.0
 40
1.0
 40
1.0
 40
1.0
 10
15.6073425637
 20
11.8867228428
 30
0.0
 10
15.6087819606
 20
11.8888937195
 30
0.0
 10
15.6139653042
 20
11.8940827794
 30
0.0
 10
15.6258878062
 20
11.8990931948
 30
0.0
 10
15.6359608413
 20
11.900130359
 30
0.0
 10
15.6414174858
 20
11.900130359
 30
0.0
  0
SPLINE
  5
2B7
100
AcDbEntity
  8
0
100
AcDbSpline
 62
7
  6
CONTINUOUS
 70
0
 71
3
 72
9
 73
5
 74
0
 42
0.0000001
 43
0.0000001
 44
0.0000000001
 40
0.0
 40
0.0
 40
0.0
 40
0.0
 40
0.7465922387
 40
1.0
 40
1.0
 40
1.0
 40
1.0
 10
15.2424087651
 20
11.8818712279
 30
0.0
 10
15.2428048133
 20
11.8831513284
 30
0.0
 10
15.2435284955
 20
11.8848145138
 30
0.0
 10
15.2444687918
 20
11.8863437857
 30
0.0
 10
15.2447201251
 20
11.8867228428
 30
0.0
  0
SPLINE
  5
2B8
100
AcDbEntity
  8
0
100
AcDbSpline
 62
7
  6
CONTINUOUS
 70
0
 71
3
 72
10
 73
6
 74
0
 42
0.0000001
 43
0.0000001
 44
0.0000000001
 40
0.0
 40
0.0
 40
0.0
 40
0.0
 40
0.2063261294
 40
0.5677661799
 40
1.0
 40
1.0
 40
1.0
 40
1.0
 10
15.2447201251
 20
11.8867228428
 30
0.0
 10
15.246159522
 20
11.8888937195
 30
0.0
 10
15.2513428656
 20
11.8940827794
 30
0.0
 10
15.2632653676
 20
11.8990931948
 30
0.0
 10
15.2733384027
 20
11.900130359
 30
0.0
 10
15.2787950472
 20
11.900130359
 30
0.0
  0
SPLINE
  5
2B9
100
AcDbEntity
  8
0
100
AcDbSpline
 62
7
  6
CONTINUOUS
 70
0
 71
3
 72
9
 73
5
 74
0
 42
0.0000001
 43
0.0000001
 44
0.0000000001
 40
0.0
 40
0.0
 40
0.0
 40
0.0
 40
0.7465922387
 40
1.0
 40
1.0
 40
1.0
 40
1.0
 10
14.8797863265
 20
11.8818712279
 30
0.0
 10
14.8801823747
 20
11.8831513284
 30
0.0
 10
14.8809060569
 20
11.8848145138
 30
0.0
 10
14.8818463532
 20
11.8863437857
 30
0.0
 10
14.8820976865
 20
11.8867228428
 30
0.0
  0
SPLINE
  5
2BA
100
AcDbEntity
  8
0
100
AcDbSpline
 62
7
  6
CONTINUOUS
 70
0
 71
3
 72
10
 73
6
 74
0
 42
0.0000001
 43
0.0000001
 44
0.0000000001
 40
0.0
 40
0.0
 40
0.0
 40
0.0
 40
0.2063261294
 40
0.5677661799
 40
1.0
 40
1.0
 40
1.0
 40
1.0
 10
14.8820976865
 20
11.8867228428
 30
0.0
 10
14.8835370835
 20
11.8888937195
 30
0.0
 10
14.8887204271
 20
11.8940827794
 30
0.0
 10
14.900642929
 20
11.8990931948
 30
0.0
 10
14.9107159641
 20
11.900130359
 30
0.0
 10
14.9161726086
 20
11.900130359
 30
0.0
  0
SPLINE
  5
2BB
100
AcDbEntity
  8
0
100
AcDbSpline
 62
7
  6
CONTINUOUS
 70
0
 71
3
 72
9
 73
5
 74
0
 42
0.0000001
 43
0.0000001
 44
0.0000000001
 40
0.0
 40
0.0
 40
0.0
 40
0.0
 40
0.7465789746
 40
1.0
 40
1.0
 40
1.0
 40
1.0
 10
14.5171638913
 20
11.8818712278
 30
0.0
 10
14.5175607936
 20
11.8831540755
 30
0.0
 10
14.5182864796
 20
11.884820757
 30
0.0
 10
14.519229611
 20
11.8863528489
 30
0.0
 10
14.5194817237
 20
11.886732599
 30
0.0
  0
SPLINE
  5
2BC
100
AcDbEntity
  8
0
100
AcDbSpline
 62
7
  6
CONTINUOUS
 70
0
 71
3
 72
10
 73
6
 74
0
 42
0.0000001
 43
0.0000001
 44
0.0000000001
 40
0.0
 40
0.0
 40
0.0
 40
0.0
 40
0.2063378328
 40
0.5677878499
 40
1.0
 40
1.0
 40
1.0
 40
1.0
 10
14.5194817237
 20
11.886732599
 30
0.0
 10
14.5209220359
 20
11.8889020996
 30
0.0
 10
14.5261062457
 20
11.8940872264
 30
0.0
 10
14.5380256427
 20
11.8990938502
 30
0.0
 10
14.5480954507
 20
11.900130359
 30
0.0
 10
14.55355017
 20
11.900130359
 30
0.0
  0
SPLINE
  5
2BD
100
AcDbEntity
  8
0
100
AcDbSpline
 62
7
  6
CONTINUOUS
 70
0
 71
3
 72
10
 73
6
 74
0
 42
0.0000001
 43
0.0000001
 44
0.0000000001
 40
0.0
 40
0.0
 40
0.0
 40
0.0
 40
0.505902135
 40
0.7613052189
 40
1.0
 40
1.0
 40
1.0
 40
1.0
 10
16.0362908119
 20
11.900130359
 30
0.0
 10
16.046572363
 20
11.900130359
 30
0.0
 10
16.062153565
 20
11.8971370371
 30
0.0
 10
16.0807470723
 20
11.8888369812
 30
0.0
 10
16.089144019
 20
11.8831843654
 30
0.0
 10
16.0928470481
 20
11.8800506479
 30
0.0
  0
SPLINE
  5
2BE
100
AcDbEntity
  8
0
100
AcDbSpline
 62
7
  6
CONTINUOUS
 70
0
 71
3
 72
10
 73
6
 74
0
 42
0.0000001
 43
0.0000001
 44
0.0000000001
 40
0.0
 40
0.0
 40
0.0
 40
0.0
 40
0.505902135
 40
0.7613052189
 40
1.0
 40
1.0
 40
1.0
 40
1.0
 10
15.6736683734
 20
11.900130359
 30
0.0
 10
15.6839499244
 20
11.900130359
 30
0.0
 10
15.6995311264
 20
11.8971370371
 30
0.0
 10
15.7181246337
 20
11.8888369812
 30
0.0
 10
15.7265215804
 20
11.8831843654
 30
0.0
 10
15.7302246095
 20
11.8800506479
 30
0.0
  0
SPLINE
  5
2BF
100
AcDbEntity
  8
0
100
AcDbSpline
 62
7
  6
CONTINUOUS
 70
0
 71
3
 72
10
 73
6
 74
0
 42
0.0000001
 43
0.0000001
 44
0.0000000001
 40
0.0
 40
0.0
 40
0.0
 40
0.0
 40
0.505902135
 40
0.7613052189
 40
1.0
 40
1.0
 40
1.0
 40
1.0
 10
15.3110459348
 20
11.900130359
 30
0.0
 10
15.3213274859
 20
11.900130359
 30
0.0
 10
15.3369086878
 20
11.8971370371
 30
0.0
 10
15.3555021951
 20
11.8888369812
 30
0.0
 10
15.3638991418
 20
11.8831843654
 30
0.0
 10
15.3676021709
 20
11.8800506479
 30
0.0
  0
SPLINE
  5
2C0
100
AcDbEntity
  8
0
100
AcDbSpline
 62
7
  6
CONTINUOUS
 70
0
 71
3
 72
10
 73
6
 74
0
 42
0.0000001
 43
0.0000001
 44
0.0000000001
 40
0.0
 40
0.0
 40
0.0
 40
0.0
 40
0.505902135
 40
0.7613052189
 40
1.0
 40
1.0
 40
1.0
 40
1.0
 10
14.9484234962
 20
11.900130359
 30
0.0
 10
14.9587050473
 20
11.900130359
 30
0.0
 10
14.9742862492
 20
11.8971370371
 30
0.0
 10
14.9928797565
 20
11.8888369812
 30
0.0
 10
15.0012767032
 20
11.8831843654
 30
0.0
 10
15.0049797323
 20
11.8800506479
 30
0.0
  0
SPLINE
  5
2C1
100
AcDbEntity
  8
0
100
AcDbSpline
 62
7
  6
CONTINUOUS
 70
0
 71
3
 72
10
 73
6
 74
0
 42
0.0000001
 43
0.0000001
 44
0.0000000001
 40
0.0
 40
0.0
 40
0.0
 40
0.0
 40
0.505902135
 40
0.7613052189
 40
1.0
 40
1.0
 40
1.0
 40
1.0
 10
14.5858010576
 20
11.900130359
 30
0.0
 10
14.5960826087
 20
11.900130359
 30
0.0
 10
14.6116638106
 20
11.8971370371
 30
0.0
 10
14.630257318
 20
11.8888369812
 30
0.0
 10
14.6386542646
 20
11.8831843654
 30
0.0
 10
14.6423572938
 20
11.8800506479
 30
0.0
  0
SPLINE
  5
2C2
100
AcDbEntity
  8
0
100
AcDbSpline
 62
7
  6
CONTINUOUS
 70
0
 71
3
 72
11
 73
7
 74
0
 42
0.0000001
 43
0.0000001
 44
0.0000000001
 40
0.0
 40
0.0
 40
0.0
 40
0.0
 40
0.3037526608
 40
0.569885049
 40
0.7976741636
 40
1.0
 40
1.0
 40
1.0
 40
1.0
 10
16.3100333797
 20
11.8389482755
 30
0.0
 10
16.3115741591
 20
11.8389482755
 30
0.0
 10
16.314476283
 20
11.8391925719
 30
0.0
 10
16.3183752458
 20
11.8404184378
 30
0.0
 10
16.3213495146
 20
11.8424534158
 30
0.0
 10
16.3225321869
 20
11.8443924793
 30
0.0
 10
16.3228358418
 20
11.8453728225
 30
0.0
  0
SPLINE
  5
2C3
100
AcDbEntity
  8
0
100
AcDbSpline
 62
7
  6
CONTINUOUS
 70
0
 71
3
 72
9
 73
5
 74
0
 42
0.0000001
 43
0.0000001
 44
0.0000000001
 40
0.0
 40
0.0
 40
0.0
 40
0.0
 40
0.4931109517
 40
1.0
 40
1.0
 40
1.0
 40
1.0
 10
16.1330679903
 20
11.8460133591
 30
0.0
 10
16.1357544021
 20
11.843739962
 30
0.0
 10
16.1422054974
 20
11.8403188632
 30
0.0
 10
16.1493498215
 20
11.8389482755
 30
0.0
 10
16.1529674067
 20
11.8389482755
 30
0.0
  0
SPLINE
  5
2C4
100
AcDbEntity
  8
0
100
AcDbSpline
 62
7
  6
CONTINUOUS
 70
0
 71
3
 72
11
 73
7
 74
0
 42
0.0000001
 43
0.0000001
 44
0.0000000001
 40
0.0
 40
0.0
 40
0.0
 40
0.0
 40
0.3037526608
 40
0.569885049
 40
0.7976741636
 40
1.0
 40
1.0
 40
1.0
 40
1.0
 10
15.9474109411
 20
11.8389482755
 30
0.0
 10
15.9489517206
 20
11.8389482755
 30
0.0
 10
15.9518538444
 20
11.8391925719
 30
0.0
 10
15.9557528072
 20
11.8404184378
 30
0.0
 10
15.9587270761
 20
11.8424534158
 30
0.0
 10
15.9599097483
 20
11.8443924793
 30
0.0
 10
15.9602134032
 20
11.8453728225
 30
0.0
  0
SPLINE
  5
2C5
100
AcDbEntity
  8
0
100
AcDbSpline
 62
7
  6
CONTINUOUS
 70
0
 71
3
 72
9
 73
5
 74
0
 42
0.0000001
 43
0.0000001
 44
0.0000000001
 40
0.0
 40
0.0
 40
0.0
 40
0.0
 40
0.4931109517
 40
1.0
 40
1.0
 40
1.0
 40
1.0
 10
15.7704455517
 20
11.8460133591
 30
0.0
 10
15.7731319635
 20
11.843739962
 30
0.0
 10
15.7795830588
 20
11.8403188632
 30
0.0
 10
15.786727383
 20
11.8389482755
 30
0.0
 10
15.7903449682
 20
11.8389482755
 30
0.0
  0
SPLINE
  5
2C6
100
AcDbEntity
  8
0
100
AcDbSpline
 62
7
  6
CONTINUOUS
 70
0
 71
3
 72
11
 73
7
 74
0
 42
0.0000001
 43
0.0000001
 44
0.0000000001
 40
0.0
 40
0.0
 40
0.0
 40
0.0
 40
0.3037526608
 40
0.569885049
 40
0.7976741636
 40
1.0
 40
1.0
 40
1.0
 40
1.0
 10
15.5847885025
 20
11.8389482755
 30
0.0
 10
15.586329282
 20
11.8389482755
 30
0.0
 10
15.5892314058
 20
11.8391925719
 30
0.0
 10
15.5931303686
 20
11.8404184378
 30
0.0
 10
15.5961046375
 20
11.8424534158
 30
0.0
 10
15.5972873097
 20
11.8443924793
 30
0.0
 10
15.5975909646
 20
11.8453728225
 30
0.0
  0
SPLINE
  5
2C7
100
AcDbEntity
  8
0
100
AcDbSpline
 62
7
  6
CONTINUOUS
 70
0
 71
3
 72
9
 73
5
 74
0
 42
0.0000001
 43
0.0000001
 44
0.0000000001
 40
0.0
 40
0.0
 40
0.0
 40
0.0
 40
0.4931109517
 40
1.0
 40
1.0
 40
1.0
 40
1.0
 10
15.4078231132
 20
11.8460133591
 30
0.0
 10
15.4105095249
 20
11.843739962
 30
0.0
 10
15.4169606202
 20
11.8403188632
 30
0.0
 10
15.4241049444
 20
11.8389482755
 30
0.0
 10
15.4277225296
 20
11.8389482755
 30
0.0
  0
SPLINE
  5
2C8
100
AcDbEntity
  8
0
100
AcDbSpline
 62
7
  6
CONTINUOUS
 70
0
 71
3
 72
11
 73
7
 74
0
 42
0.0000001
 43
0.0000001
 44
0.0000000001
 40
0.0
 40
0.0
 40
0.0
 40
0.0
 40
0.3037526608
 40
0.569885049
 40
0.7976741636
 40
1.0
 40
1.0
 40
1.0
 40
1.0
 10
15.2221660639
 20
11.8389482755
 30
0.0
 10
15.2237068434
 20
11.8389482755
 30
0.0
 10
15.2266089672
 20
11.8391925719
 30
0.0
 10
15.23050793
 20
11.8404184378
 30
0.0
 10
15.2334821989
 20
11.8424534158
 30
0.0
 10
15.2346648711
 20
11.8443924793
 30
0.0
 10
15.234968526
 20
11.8453728225
 30
0.0
  0
SPLINE
  5
2C9
100
AcDbEntity
  8
0
100
AcDbSpline
 62
7
  6
CONTINUOUS
 70
0
 71
3
 72
9
 73
5
 74
0
 42
0.0000001
 43
0.0000001
 44
0.0000000001
 40
0.0
 40
0.0
 40
0.0
 40
0.0
 40
0.4931109517
 40
1.0
 40
1.0
 40
1.0
 40
1.0
 10
15.0452006746
 20
11.8460133591
 30
0.0
 10
15.0478870864
 20
11.843739962
 30
0.0
 10
15.0543381817
 20
11.8403188632
 30
0.0
 10
15.0614825058
 20
11.8389482755
 30
0.0
 10
15.065100091
 20
11.8389482755
 30
0.0
  0
SPLINE
  5
2CA
100
AcDbEntity
  8
0
100
AcDbSpline
 62
7
  6
CONTINUOUS
 70
0
 71
3
 72
11
 73
7
 74
0
 42
0.0000001
 43
0.0000001
 44
0.0000000001
 40
0.0
 40
0.0
 40
0.0
 40
0.0
 40
0.3037526608
 40
0.569885049
 40
0.7976741636
 40
1.0
 40
1.0
 40
1.0
 40
1.0
 10
14.8595436254
 20
11.8389482755
 30
0.0
 10
14.8610844048
 20
11.8389482755
 30
0.0
 10
14.8639865286
 20
11.8391925719
 30
0.0
 10
14.8678854915
 20
11.8404184378
 30
0.0
 10
14.8708597603
 20
11.8424534158
 30
0.0
 10
14.8720424325
 20
11.8443924793
 30
0.0
 10
14.8723460875
 20
11.8453728225
 30
0.0
  0
SPLINE
  5
2CB
100
AcDbEntity
  8
0
100
AcDbSpline
 62
7
  6
CONTINUOUS
 70
0
 71
3
 72
9
 73
5
 74
0
 42
0.0000001
 43
0.0000001
 44
0.0000000001
 40
0.0
 40
0.0
 40
0.0
 40
0.0
 40
0.4931109517
 40
1.0
 40
1.0
 40
1.0
 40
1.0
 10
14.682578236
 20
11.8460133591
 30
0.0
 10
14.6852646478
 20
11.843739962
 30
0.0
 10
14.6917157431
 20
11.8403188632
 30
0.0
 10
14.6988600672
 20
11.8389482755
 30
0.0
 10
14.7024776524
 20
11.8389482755
 30
0.0
  0
SPLINE
  5
2CC
100
AcDbEntity
  8
0
100
AcDbSpline
 62
7
  6
CONTINUOUS
 70
0
 71
3
 72
11
 73
7
 74
0
 42
0.0000001
 43
0.0000001
 44
0.0000000001
 40
0.0
 40
0.0
 40
0.0
 40
0.0
 40
0.3037972984
 40
0.5698938194
 40
0.797714757
 40
1.0
 40
1.0
 40
1.0
 40
1.0
 10
14.4969211868
 20
11.8389482755
 30
0.0
 10
14.4984621914
 20
11.8389482755
 30
0.0
 10
14.5013643892
 20
11.8391924148
 30
0.0
 10
14.5052634472
 20
11.8404188376
 30
0.0
 10
14.5082372926
 20
11.8424537167
 30
0.0
 10
14.5094204916
 20
11.8443925405
 30
0.0
 10
14.5097237676
 20
11.8453727846
 30
0.0
  0
SPLINE
  5
2CD
100
AcDbEntity
  8
0
100
AcDbSpline
 62
7
  6
CONTINUOUS
 70
0
 71
3
 72
9
 73
5
 74
0
 42
0.0000001
 43
0.0000001
 44
0.0000000001
 40
0.0
 40
0.0
 40
0.0
 40
0.0
 40
0.4931115694
 40
1.0
 40
1.0
 40
1.0
 40
1.0
 10
14.3199557974
 20
11.8460133591
 30
0.0
 10
14.322642207
 20
11.8437399638
 30
0.0
 10
14.3290933989
 20
11.8403191108
 30
0.0
 10
14.3362376405
 20
11.8389482755
 30
0.0
 10
14.3398552138
 20
11.8389482755
 30
0.0
  0
SPLINE
  5
2CE
100
AcDbEntity
  8
0
100
AcDbSpline
 62
7
  6
CONTINUOUS
 70
0
 71
3
 72
10
 73
6
 74
0
 42
0.0000001
 43
0.0000001
 44
0.0000000001
 40
0.0
 40
0.0
 40
0.0
 40
0.0
 40
0.5059019436
 40
0.7613039818
 40
1.0
 40
1.0
 40
1.0
 40
1.0
 10
14.223178619
 20
11.900130359
 30
0.0
 10
14.2334601663
 20
11.900130359
 30
0.0
 10
14.249041342
 20
11.8971370403
 30
0.0
 10
14.2676348556
 20
11.8888369995
 30
0.0
 10
14.2760318068
 20
11.8831843817
 30
0.0
 10
14.2797348552
 20
11.8800506479
 30
0.0
  0
ENDSEC
  0
SECTION
  2
OBJECTS
  0
DICTIONARY
  5
C
100
AcDbDictionary
280
0
281
1
  3
ACAD_GROUP
350
D
  3
ACAD_MLINESTYLE
350
17
  3
ACAD_LAYOUT
350
1A
  3
ACAD_PLOTSETTINGS
350
19
  3
ACAD_PLOTSTYLENAME
350
E
  0
DICTIONARY
  5
D
102
{ACAD_REACTORS
330
C
102
}
100
AcDbDictionary
280
0
281
1
  0
ACDBDICTIONARYWDFLT
  5
E
102
{ACAD_REACTORS
330
C
102
}
100
AcDbDictionary
281
1
  3
Normal
350
F
100
AcDbDictionaryWithDefault
340
F
  0
DICTIONARY
  5
17
102
{ACAD_REACTORS
330
C
102
}
100
AcDbDictionary
280
0
281
1
  3
Standard
350
18
  0
DICTIONARY
  5
19
102
{ACAD_REACTORS
330
C
102
}
100
AcDbDictionary
281
1
  0
DICTIONARY
  5
1A
102
{ACAD_REACTORS
330
C
102
}
100
AcDbDictionary
281
1
  3
Model
350
2CF
  3
Layout1
350
2D0
  0
ACDBPLACEHOLDER
  5
F
102
{ACAD_REACTORS
330
E
102
}
  0
MLINESTYLE
  5
18
102
{ACAD_REACTORS
330
17
102
}
100
AcDbMlineStyle
  2
STANDARD
 70
0
  3

 62
256
 51
90.0
 52
90.0
 71
2
 49
0.5
 62
256
  6
BYLAYER
 49
-0.5
 62
256
  6
BYLAYER
  0
LAYOUT
  5
2CF
102
{ACAD_REACTORS
330
1A
102
}
100
AcDbPlotSettings
  1

  2
none_device
  4
ANSI_C_(22.00_x_17.00_Inches)
  6

 40
0.0
 41
0.0
 42
0.0
 43
0.0
 44
558.8
 45
431.8
 46
0.0
 47
0.0
 48
0.0
 49
0.0
140
0.0
141
0.0
142
1.0
143
1.0
 70
1024
 72
0
 73
0
 74
0
  7

 75
0
147
1.0
148
0.0
149
0.0
100
AcDbLayout
  1
Model
 70
0
 71
0
 10
0.0
 20
0.0
 11
22.0
 21
17.0
 12
0.0
 22
0.0
 32
0.0
 14
0.0
 24
0.0
 34
0.0
 15
0.0
 25
0.0
 35
0.0
146
0.0
 13
0.0
 23
0.0
 33
0.0
 16
1.0
 26
0.0
 36
0.0
 17
0.0
 27
1.0
 37
0.0
 76
0
330
216
345
0
346
0
  0
LAYOUT
  5
2D0
102
{ACAD_REACTORS
330
1A
102
}
100
AcDbPlotSettings
  1

  2
none_device
  4
ANSI_C_(22.00_x_17.00_Inches)
  6

 40
0.0
 41
0.0
 42
0.0
 43
0.0
 44
558.8
 45
431.8
 46
0.0
 47
0.0
 48
0.0
 49
0.0
140
0.0
141
0.0
142
1.0
143
1.0
 70
0
 72
0
 73
0
 74
0
  7

 75
0
147
1.0
148
0.0
149
0.0
100
AcDbLayout
  1
Layout1
 70
0
 71
1
 10
0.0
 20
0.0
 11
22.0
 21
17.0
 12
0.0
 22
0.0
 32
0.0
 14
0.0
 24
0.0
 34
0.0
 15
0.0
 25
0.0
 35
0.0
146
0.0
 13
0.0
 23
0.0
 33
0.0
 16
1.0
 26
0.0
 36
0.0
 17
0.0
 27
1.0
 37
0.0
 76
0
330
217
345
0
346
0
  0
ENDSEC
  0
EOF