999
DXF file: _cgs_temp_output.dxf
999
Pro/ENGINEER 2016360 by Parametric Technology Corporation
  0
SECTION
  2
HEADER
  9
$ACADVER
  1
AC1021
  9
$DWGCODEPAGE
  3
ANSI_1252
  9
$EXTMAX
 10
22.0
 20
17.0
 30
0.0
  9
$EXTMIN
 10
0.0
 20
0.0
 30
0.0
  9
$LIMMIN
 10
0.0
 20
0.0
  9
$LIMMAX
 10
22.0
 20
17.0
  9
$VIEWCTR
 10
11.0
 20
8.5
  9
$VIEWSIZE
 40
17.0
  9
$CLAYER
  8
0
  9
$LTSCALE
 40
1.21
  9
$CELTYPE
  6
BYLAYER
  9
$DIMSCALE
 40
1.0
  9
$DIMASZ
 40
0.1875
  9
$DIMEXO
 40
0.0625
  9
$DIMDLI
 40
0.836
  9
$DIMEXE
 40
0.125
  9
$DIMCEN
 40
0.198
  9
$DIMLFAC
 40
1.0
  9
$DIMBLK
  1
_CLOSED
  9
$DIMALT
 70
0
  9
$DIMALTF
 40
25.4
  9
$DIMTXT
 40
0.15625
  9
$DIMTOL
 70
0
  9
$DIMLIM
 70
0
  9
$DIMTFAC
 40
1.0
  9
$DIMGAP
 40
0.09
  9
$DIMDSEP
 70
46
  9
$AUNITS
 70
0
  9
$PDMODE
 70
3
  9
$PDSIZE
 40
0.3125
  9
$HANDSEED
  5
2CC
  9
$TILEMODE
 70
1
  9
$MEASUREMENT
 70
0
  9
$INSUNITS
 70
1
  0
ENDSEC
  0
SECTION
  2
CLASSES
  0
CLASS
  1
ACDBDICTIONARYWDFLT
  2
AcDbDictionaryWithDefault
  3
AutoCAD 2000
 90
0
 91
1
280
0
281
0
  0
CLASS
  1
ACDBPLACEHOLDER
  2
AcDbPlaceHolder
  3
AutoCAD 2000
 90
0
 91
1
280
0
281
0
  0
CLASS
  1
LAYOUT
  2
AcDbLayout
  3
AutoCAD 2000
 90
0
 91
0
280
0
281
0
  0
ENDSEC
  0
SECTION
  2
TABLES
  0
TABLE
  2
VPORT
  5
8
100
AcDbSymbolTable
 70
2
  0
VPORT
  5
1F4
100
AcDbSymbolTableRecord
100
AcDbViewportTableRecord
  2
*ACTIVE
 70
0
 10
0.0
 20
0.0
 11
1.0
 21
1.0
 12
11.0
 22
8.5
 13
0.0
 23
0.0
 14
1.0
 24
1.0
 15
0.0
 25
0.0
 16
0.0
 26
0.0
 36
1.0
 17
0.0
 27
0.0
 37
0.0
 40
17.0
 41
1.2941176471
 42
50.0
 43
0.0
 44
0.0
 50
0.0
 51
0.0
 71
0
 72
100
 73
1
 74
1
 75
0
 76
0
 77
0
 78
0
  0
ENDTAB
  0
TABLE
  2
LTYPE
  5
5
100
AcDbSymbolTable
 70
6
  0
LTYPE
  5
14
100
AcDbSymbolTableRecord
100
AcDbLinetypeTableRecord
  2
BYBLOCK
 70
0
  3

 72
65
 73
0
 40
0.0
  0
LTYPE
  5
15
100
AcDbSymbolTableRecord
100
AcDbLinetypeTableRecord
  2
BYLAYER
 70
0
  3

 72
65
 73
0
 40
0.0
  0
LTYPE
  5
16
100
AcDbSymbolTableRecord
100
AcDbLinetypeTableRecord
  2
CONTINUOUS
 70
64
  3
Solid line
 72
65
 73
0
 40
0.0
  0
LTYPE
  5
1F5
100
AcDbSymbolTableRecord
100
AcDbLinetypeTableRecord
  2
CENTER
 70
64
  3
____ _ ____ _ ____ _ ____ _ ____ _ ____ _ ____
 72
65
 73
4
 40
0.6
 49
0.375
 74
0
 49
-0.075
 74
0
 49
0.075
 74
0
 49
-0.075
 74
0
  0
LTYPE
  5
1F6
100
AcDbSymbolTableRecord
100
AcDbLinetypeTableRecord
  2
HIDDEN
 70
64
  3
- - - - - - - - - - - - - - - - - - - -
 72
65
 73
2
 40
0.2
 49
0.1
 74
0
 49
-0.1
 74
0
  0
LTYPE
  5
1F7
100
AcDbSymbolTableRecord
100
AcDbLinetypeTableRecord
  2
PHANTOM
 70
64
  3
_____ _ _ _____ _ _ _____ _ _ _____
 72
65
 73
6
 40
0.8
 49
0.45
 74
0
 49
-0.05
 74
0
 49
0.1
 74
0
 49
-0.05
 74
0
 49
0.1
 74
0
 49
-0.05
 74
0
  0
LTYPE
  5
1F8
100
AcDbSymbolTableRecord
100
AcDbLinetypeTableRecord
  2
DOT
 70
64
  3
. . . . . . . . . . . . . . . . . . . .
 72
65
 73
2
 40
0.2
 49
0.1
 74
0
 49
-0.1
 74
0
  0
LTYPE
  5
1F9
100
AcDbSymbolTableRecord
100
AcDbLinetypeTableRecord
  2
DASHED
 70
64
  3
- - - - - - - - - - - - - - - - - - - -
 72
65
 73
2
 40
0.2
 49
0.1
 74
0
 49
-0.1
 74
0
  0
ENDTAB
  0
TABLE
  2
LAYER
  5
2
100
AcDbSymbolTable
 70
36
  0
LAYER
  5
10
100
AcDbSymbolTableRecord
100
AcDbLayerTableRecord
  2
0
 70
0
 62
7
  6
CONTINUOUS
370
-3
390
F
  0
LAYER
  5
1FA
100
AcDbSymbolTableRecord
100
AcDbLayerTableRecord
  2
DEFAULT_1
 70
0
 62
7
  6
CENTER
370
-3
390
F
  0
LAYER
  5
1FB
100
AcDbSymbolTableRecord
100
AcDbLayerTableRecord
  2
DEFAULT_2
 70
0
 62
8
  6
HIDDEN
370
-3
390
F
  0
LAYER
  5
1FC
100
AcDbSymbolTableRecord
100
AcDbLayerTableRecord
  2
DEFAULT_3
 70
0
 62
7
  6
PHANTOM
370
-3
390
F
  0
LAYER
  5
1FD
100
AcDbSymbolTableRecord
100
AcDbLayerTableRecord
  2
01_ALL_DTM_PLN
 70
0
 62
7
  6
CONTINUOUS
370
-3
390
F
  0
LAYER
  5
1FE
100
AcDbSymbolTableRecord
100
AcDbLayerTableRecord
  2
01__ASM_ALL_DTM_PLN
 70
0
 62
7
  6
CONTINUOUS
370
-3
390
F
  0
LAYER
  5
1FF
100
AcDbSymbolTableRecord
100
AcDbLayerTableRecord
  2
01__ASM_DEF_DTM_PLN
 70
0
 62
7
  6
CONTINUOUS
370
-3
390
F
  0
LAYER
  5
200
100
AcDbSymbolTableRecord
100
AcDbLayerTableRecord
  2
01___PRT_ALL_DTM_PLN
 70
0
 62
7
  6
CONTINUOUS
370
-3
390
F
  0
LAYER
  5
201
100
AcDbSymbolTableRecord
100
AcDbLayerTableRecord
  2
01___PRT_DEF_DTM_PLN
 70
0
 62
7
  6
CONTINUOUS
370
-3
390
F
  0
LAYER
  5
202
100
AcDbSymbolTableRecord
100
AcDbLayerTableRecord
  2
02_ALL_AXES
 70
0
 62
7
  6
CONTINUOUS
370
-3
390
F
  0
LAYER
  5
203
100
AcDbSymbolTableRecord
100
AcDbLayerTableRecord
  2
02__ASM_ALL_AXES
 70
0
 62
7
  6
CONTINUOUS
370
-3
390
F
  0
LAYER
  5
204
100
AcDbSymbolTableRecord
100
AcDbLayerTableRecord
  2
02___PRT_ALL_AXES
 70
0
 62
7
  6
CONTINUOUS
370
-3
390
F
  0
LAYER
  5
205
100
AcDbSymbolTableRecord
100
AcDbLayerTableRecord
  2
03_ALL_CURVES
 70
0
 62
7
  6
CONTINUOUS
370
-3
390
F
  0
LAYER
  5
206
100
AcDbSymbolTableRecord
100
AcDbLayerTableRecord
  2
03__ASM_ALL_CURVES
 70
0
 62
7
  6
CONTINUOUS
370
-3
390
F
  0
LAYER
  5
207
100
AcDbSymbolTableRecord
100
AcDbLayerTableRecord
  2
03___PRT_ALL_CURVES
 70
0
 62
7
  6
CONTINUOUS
370
-3
390
F
  0
LAYER
  5
208
100
AcDbSymbolTableRecord
100
AcDbLayerTableRecord
  2
04_ALL_DTM_PNT
 70
0
 62
7
  6
CONTINUOUS
370
-3
390
F
  0
LAYER
  5
209
100
AcDbSymbolTableRecord
100
AcDbLayerTableRecord
  2
04__ASM_ALL_DTM_PNT
 70
0
 62
7
  6
CONTINUOUS
370
-3
390
F
  0
LAYER
  5
20A
100
AcDbSymbolTableRecord
100
AcDbLayerTableRecord
  2
04___PRT_ALL_DTM_PNT
 70
0
 62
7
  6
CONTINUOUS
370
-3
390
F
  0
LAYER
  5
20B
100
AcDbSymbolTableRecord
100
AcDbLayerTableRecord
  2
05_ALL_DTM_CSYS
 70
0
 62
7
  6
CONTINUOUS
370
-3
390
F
  0
LAYER
  5
20C
100
AcDbSymbolTableRecord
100
AcDbLayerTableRecord
  2
05__ASM_ALL_DTM_CSYS
 70
0
 62
7
  6
CONTINUOUS
370
-3
390
F
  0
LAYER
  5
20D
100
AcDbSymbolTableRecord
100
AcDbLayerTableRecord
  2
05__ASM_DEF_DTM_CSYS
 70
0
 62
7
  6
CONTINUOUS
370
-3
390
F
  0
LAYER
  5
20E
100
AcDbSymbolTableRecord
100
AcDbLayerTableRecord
  2
05___PRT_ALL_DTM_CSYS
 70
0
 62
7
  6
CONTINUOUS
370
-3
390
F
  0
LAYER
  5
20F
100
AcDbSymbolTableRecord
100
AcDbLayerTableRecord
  2
05___PRT_DEF_DTM_CSYS
 70
0
 62
7
  6
CONTINUOUS
370
-3
390
F
  0
LAYER
  5
210
100
AcDbSymbolTableRecord
100
AcDbLayerTableRecord
  2
06_ALL_SURFS
 70
0
 62
7
  6
CONTINUOUS
370
-3
390
F
  0
LAYER
  5
211
100
AcDbSymbolTableRecord
100
AcDbLayerTableRecord
  2
06__ASM_ALL_SURFS
 70
0
 62
7
  6
CONTINUOUS
370
-3
390
F
  0
LAYER
  5
212
100
AcDbSymbolTableRecord
100
AcDbLayerTableRecord
  2
06___PRT_ALL_SURFS
 70
0
 62
7
  6
CONTINUOUS
370
-3
390
F
  0
LAYER
  5
213
100
AcDbSymbolTableRecord
100
AcDbLayerTableRecord
  2
07__ASM_ALL_SKELETONS
 70
0
 62
7
  6
CONTINUOUS
370
-3
390
F
  0
ENDTAB
  0
TABLE
  2
STYLE
  5
3
100
AcDbSymbolTable
 70
1
  0
STYLE
  5
11
100
AcDbSymbolTableRecord
100
AcDbTextStyleTableRecord
  2
STANDARD
 70
0
 40
0.0
 41
0.8
 50
0.0
 71
0
 42
0.2
  3
txt
  4

  0
STYLE
  5
214
100
AcDbSymbolTableRecord
100
AcDbTextStyleTableRecord
  2
TEXTSTYLE_1
 70
0
 40
0.0
 41
0.8
 50
0.0
 71
0
 42
0.2
  3
gdt
  4

  0
ENDTAB
  0
TABLE
  2
VIEW
  5
6
100
AcDbSymbolTable
 70
0
  0
ENDTAB
  0
TABLE
  2
UCS
  5
7
100
AcDbSymbolTable
 70
0
  0
ENDTAB
  0
TABLE
  2
APPID
  5
9
100
AcDbSymbolTable
 70
1
  0
APPID
  5
215
100
AcDbSymbolTableRecord
100
AcDbRegAppTableRecord
  2
ACAD
 70
0
  0
ENDTAB
  0
TABLE
  2
BLOCK_RECORD
  5
1
100
AcDbSymbolTable
 70
0
  0
BLOCK_RECORD
  5
216
100
AcDbSymbolTableRecord
100
AcDbBlockTableRecord
  2
*Model_Space
  0
BLOCK_RECORD
  5
217
100
AcDbSymbolTableRecord
100
AcDbBlockTableRecord
  2
*Paper_Space
  0
ENDTAB
  0
TABLE
  2
DIMSTYLE
  5
A
100
AcDbSymbolTable
 70
1
100
AcDbDimStyleTable
 71
0
  0
DIMSTYLE
105
218
100
AcDbSymbolTableRecord
100
AcDbDimStyleTableRecord
  2
STANDARD
 70
0
  3

  4

 40
1.0
 41
0.1875
 42
0.0625
 43
0.38
 44
0.125
 45
0.0
 46
0.0
 47
0.0001
 48
0.0001
140
0.15625
141
0.09
142
0.0
143
25.4
144
1.0
145
0.0
146
1.0
147
0.09
 71
0.0
 72
0.0
 73
1
 74
1
 75
0
 76
0
 77
0
 78
4
 79
1
170
0
171
3
172
0
173
0
174
0
175
0
176
0
177
0
178
0
270
2
179
4
271
4
272
4
273
2
274
2
275
0
280
0
281
0
282
0
283
1
284
4
285
0
286
0
287
3
288
0
340
11
278
46
  0
ENDTAB
  0
ENDSEC
  0
SECTION
  2
BLOCKS
  0
BLOCK
  5
20
100
AcDbEntity
  8
0
100
AcDbBlockBegin
  2
*Model_Space
 70
0
 10
0.0
 20
0.0
 30
0.0
  3
*Model_Space
  1

  0
ENDBLK
  5
21
100
AcDbEntity
  8
0
100
AcDbBlockEnd
  0
BLOCK
  5
1C
100
AcDbEntity
  8
0
100
AcDbBlockBegin
  2
*Paper_Space
 70
0
 10
0.0
 20
0.0
 30
0.0
  3
*Paper_Space
  1

  0
ENDBLK
  5
1D
100
AcDbEntity
  8
0
100
AcDbBlockEnd
  0
ENDSEC
  0
SECTION
  2
ENTITIES
  0
MTEXT
  5
219
100
AcDbEntity
  8
0
100
AcDbMText
 62
7
  6
CONTINUOUS
  7
STANDARD
 71
1
 72
1
 10
15.9560215477
 20
0.9479130325
 30
0.0
 11
1.0
 21
0.0
 31
0.0
 44
0.9
  1
SCALE: 1:3.000
 40
0.3
 41
3.36
  0
LINE
  5
21A
100
AcDbEntity
  8
0
100
AcDbLine
 62
7
  6
CONTINUOUS
 10
0.0
 20
0.0
 11
0.0
 21
17.0
  0
LINE
  5
21B
100
AcDbEntity
  8
0
100
AcDbLine
 62
7
  6
CONTINUOUS
 10
0.0
 20
0.0
 11
22.0
 21
0.0
  0
LINE
  5
21C
100
AcDbEntity
  8
0
100
AcDbLine
 62
7
  6
CONTINUOUS
 10
0.0
 20
17.0
 11
22.0
 21
17.0
  0
LINE
  5
21D
100
AcDbEntity
  8
0
100
AcDbLine
 62
7
  6
CONTINUOUS
 10
22.0
 20
0.0
 11
22.0
 21
17.0
  0
LINE
  5
21E
100
AcDbEntity
  8
0
100
AcDbLine
 62
7
  6
CONTINUOUS
 10
4.3587137329
 20
5.6795687157
 11
4.3587137329
 21
5.5260254086
  0
LINE
  5
21F
100
AcDbEntity
  8
0
100
AcDbLine
 62
7
  6
CONTINUOUS
 10
4.4648222619
 20
5.4521546398
 11
4.495556857
 21
5.3862440879
  0
LINE
  5
220
100
AcDbEntity
  8
0
100
AcDbLine
 62
7
  6
CONTINUOUS
 10
4.3587137329
 20
5.5260254086
 11
4.3823357801
 21
5.5024033613
  0
LINE
  5
221
100
AcDbEntity
  8
0
100
AcDbLine
 62
7
  6
CONTINUOUS
 10
4.8124217899
 20
5.3862440879
 11
4.8431563849
 21
5.4521546398
  0
LINE
  5
222
100
AcDbEntity
  8
0
100
AcDbLine
 62
7
  6
CONTINUOUS
 10
5.055373443
 20
5.4521546398
 11
5.0861080381
 21
5.3862440879
  0
LINE
  5
223
100
AcDbEntity
  8
0
100
AcDbLine
 62
7
  6
CONTINUOUS
 10
4.9256428667
 20
5.5024033613
 11
4.949264914
 21
5.5260254086
  0
LINE
  5
224
100
AcDbEntity
  8
0
100
AcDbLine
 62
7
  6
CONTINUOUS
 10
4.949264914
 20
5.5260254086
 11
4.9728869612
 21
5.5024033613
  0
LINE
  5
225
100
AcDbEntity
  8
0
100
AcDbLine
 62
7
  6
CONTINUOUS
 10
5.402972971
 20
5.3862440879
 11
5.4337075661
 21
5.4521546398
  0
LINE
  5
226
100
AcDbEntity
  8
0
100
AcDbLine
 62
7
  6
CONTINUOUS
 10
5.6459246241
 20
5.4521546398
 11
5.6766592192
 21
5.3862440879
  0
LINE
  5
227
100
AcDbEntity
  8
0
100
AcDbLine
 62
7
  6
CONTINUOUS
 10
5.5161940478
 20
5.5024033613
 11
5.5398160951
 21
5.5260254086
  0
LINE
  5
228
100
AcDbEntity
  8
0
100
AcDbLine
 62
7
  6
CONTINUOUS
 10
5.5398160951
 20
5.5260254086
 11
5.5634381423
 21
5.5024033613
  0
LINE
  5
229
100
AcDbEntity
  8
0
100
AcDbLine
 62
7
  6
CONTINUOUS
 10
4.535698442
 20
5.3606710779
 11
4.7722802048
 21
5.3606710779
  0
LINE
  5
22A
100
AcDbEntity
  8
0
100
AcDbLine
 62
7
  6
CONTINUOUS
 10
5.1262496231
 20
5.3606710779
 11
5.3628313859
 21
5.3606710779
  0
LINE
  5
22B
100
AcDbEntity
  8
0
100
AcDbLine
 62
7
  6
CONTINUOUS
 10
5.7168008042
 20
5.3606710779
 11
5.953382567
 21
5.3606710779
  0
LINE
  5
22C
100
AcDbEntity
  8
0
100
AcDbLine
 62
7
  6
CONTINUOUS
 10
6.3073519853
 20
5.3606710779
 11
6.5439337481
 21
5.3606710779
  0
LINE
  5
22D
100
AcDbEntity
  8
0
100
AcDbLine
 62
7
  6
CONTINUOUS
 10
6.8979031664
 20
5.3606710779
 11
7.1344849292
 21
5.3606710779
  0
LINE
  5
22E
100
AcDbEntity
  8
0
100
AcDbLine
 62
7
  6
CONTINUOUS
 10
7.4884543475
 20
5.3606710779
 11
7.7250361103
 21
5.3606710779
  0
LINE
  5
22F
100
AcDbEntity
  8
0
100
AcDbLine
 62
7
  6
CONTINUOUS
 10
5.9935241521
 20
5.3862440879
 11
6.0242587472
 21
5.4521546398
  0
LINE
  5
230
100
AcDbEntity
  8
0
100
AcDbLine
 62
7
  6
CONTINUOUS
 10
6.1067452289
 20
5.5024033613
 11
6.1303672762
 21
5.5260254086
  0
LINE
  5
231
100
AcDbEntity
  8
0
100
AcDbLine
 62
7
  6
CONTINUOUS
 10
4.3823357801
 20
5.5024033613
 11
4.3859475684
 21
5.5024033613
  0
LINE
  5
232
100
AcDbEntity
  8
0
100
AcDbLine
 62
7
  6
CONTINUOUS
 10
4.9220310784
 20
5.5024033613
 11
4.9256428667
 21
5.5024033613
  0
LINE
  5
233
100
AcDbEntity
  8
0
100
AcDbLine
 62
7
  6
CONTINUOUS
 10
4.9728869612
 20
5.5024033613
 11
4.9764987495
 21
5.5024033613
  0
LINE
  5
234
100
AcDbEntity
  8
0
100
AcDbLine
 62
7
  6
CONTINUOUS
 10
5.5125822595
 20
5.5024033613
 11
5.5161940478
 21
5.5024033613
  0
LINE
  5
235
100
AcDbEntity
  8
0
100
AcDbLine
 62
7
  6
CONTINUOUS
 10
5.5634381423
 20
5.5024033613
 11
5.5670499306
 21
5.5024033613
  0
LINE
  5
236
100
AcDbEntity
  8
0
100
AcDbLine
 62
7
  6
CONTINUOUS
 10
6.1031334406
 20
5.5024033613
 11
6.1067452289
 21
5.5024033613
  0
LINE
  5
237
100
AcDbEntity
  8
0
100
AcDbLine
 62
7
  6
CONTINUOUS
 10
6.1539893234
 20
5.5024033613
 11
6.1576011117
 21
5.5024033613
  0
LINE
  5
238
100
AcDbEntity
  8
0
100
AcDbLine
 62
7
  6
CONTINUOUS
 10
6.6936846217
 20
5.5024033613
 11
6.69729641
 21
5.5024033613
  0
LINE
  5
239
100
AcDbEntity
  8
0
100
AcDbLine
 62
7
  6
CONTINUOUS
 10
6.7445405045
 20
5.5024033613
 11
6.7481522928
 21
5.5024033613
  0
LINE
  5
23A
100
AcDbEntity
  8
0
100
AcDbLine
 62
7
  6
CONTINUOUS
 10
7.2842358028
 20
5.5024033613
 11
7.2878475911
 21
5.5024033613
  0
LINE
  5
23B
100
AcDbEntity
  8
0
100
AcDbLine
 62
7
  6
CONTINUOUS
 10
7.3350916856
 20
5.5024033613
 11
7.3387034739
 21
5.5024033613
  0
LINE
  5
23C
100
AcDbEntity
  8
0
100
AcDbLine
 62
7
  6
CONTINUOUS
 10
7.8747869839
 20
5.5024033613
 11
7.8783987722
 21
5.5024033613
  0
LINE
  5
23D
100
AcDbEntity
  8
0
100
AcDbLine
 62
7
  6
CONTINUOUS
 10
6.1303672762
 20
5.5260254086
 11
6.1539893234
 21
5.5024033613
  0
LINE
  5
23E
100
AcDbEntity
  8
0
100
AcDbLine
 62
7
  6
CONTINUOUS
 10
6.2364758052
 20
5.4521546398
 11
6.2672104003
 21
5.3862440879
  0
LINE
  5
23F
100
AcDbEntity
  8
0
100
AcDbLine
 62
7
  6
CONTINUOUS
 10
7.9020208195
 20
5.6795687157
 11
4.3587137329
 21
5.6795687157
  0
LINE
  5
240
100
AcDbEntity
  8
0
100
AcDbLine
 62
7
  6
CONTINUOUS
 10
6.5840753332
 20
5.3862440879
 11
6.6148099283
 21
5.4521546398
  0
LINE
  5
241
100
AcDbEntity
  8
0
100
AcDbLine
 62
7
  6
CONTINUOUS
 10
6.69729641
 20
5.5024033613
 11
6.7209184573
 21
5.5260254086
  0
LINE
  5
242
100
AcDbEntity
  8
0
100
AcDbLine
 62
7
  6
CONTINUOUS
 10
6.7209184573
 20
5.5260254086
 11
6.7445405045
 21
5.5024033613
  0
LINE
  5
243
100
AcDbEntity
  8
0
100
AcDbLine
 62
7
  6
CONTINUOUS
 10
6.8270269863
 20
5.4521546398
 11
6.8577615814
 21
5.3862440879
  0
LINE
  5
244
100
AcDbEntity
  8
0
100
AcDbLine
 62
7
  6
CONTINUOUS
 10
7.2878475911
 20
5.5024033613
 11
7.3114696384
 21
5.5260254086
  0
LINE
  5
245
100
AcDbEntity
  8
0
100
AcDbLine
 62
7
  6
CONTINUOUS
 10
7.3114696384
 20
5.5260254086
 11
7.3350916856
 21
5.5024033613
  0
LINE
  5
246
100
AcDbEntity
  8
0
100
AcDbLine
 62
7
  6
CONTINUOUS
 10
7.1746265143
 20
5.3862440879
 11
7.2053611094
 21
5.4521546398
  0
LINE
  5
247
100
AcDbEntity
  8
0
100
AcDbLine
 62
7
  6
CONTINUOUS
 10
7.4175781674
 20
5.4521546398
 11
7.4483127625
 21
5.3862440879
  0
LINE
  5
248
100
AcDbEntity
  8
0
100
AcDbLine
 62
7
  6
CONTINUOUS
 10
7.8783987722
 20
5.5024033613
 11
7.9020208195
 21
5.5260254086
  0
LINE
  5
249
100
AcDbEntity
  8
0
100
AcDbLine
 62
7
  6
CONTINUOUS
 10
7.7651776954
 20
5.3862440879
 11
7.7959122905
 21
5.4521546398
  0
LINE
  5
24A
100
AcDbEntity
  8
0
100
AcDbLine
 62
7
  6
CONTINUOUS
 10
7.9020208195
 20
5.5260254086
 11
7.9020208195
 21
5.6795687157
  0
LINE
  5
24B
100
AcDbEntity
  8
0
100
AcDbLine
 62
7
  6
CONTINUOUS
 10
4.2992185406
 20
13.485874553
 11
4.2992185406
 21
11.7142210097
  0
LINE
  5
24C
100
AcDbEntity
  8
0
100
AcDbLine
 62
7
  6
CONTINUOUS
 10
7.8425256272
 20
11.7142210097
 11
4.2992185406
 21
11.7142210097
  0
LINE
  5
24D
100
AcDbEntity
  8
0
100
AcDbLine
 62
7
  6
CONTINUOUS
 10
4.2992185406
 20
13.485874553
 11
7.8425256272
 21
13.485874553
  0
LINE
  5
24E
100
AcDbEntity
  8
0
100
AcDbLine
 62
7
  6
CONTINUOUS
 10
7.8425256272
 20
13.485874553
 11
7.8425256272
 21
11.7142210097
  0
LINE
  5
24F
100
AcDbEntity
  8
0
100
AcDbLine
 62
7
  6
CONTINUOUS
 10
14.6745284853
 20
5.3011758855
 11
14.6745284853
 21
5.6200735233
  0
LINE
  5
250
100
AcDbEntity
  8
0
100
AcDbLine
 62
7
  6
CONTINUOUS
 10
14.6745284853
 20
5.3011758855
 11
16.4461820286
 21
5.3011758855
  0
LINE
  5
251
100
AcDbEntity
  8
0
100
AcDbLine
 62
7
  6
CONTINUOUS
 10
16.4461820286
 20
5.442908169
 11
14.6745284853
 21
5.442908169
  0
LINE
  5
252
100
AcDbEntity
  8
0
100
AcDbLine
 62
7
  6
CONTINUOUS
 10
16.4461820286
 20
5.4665302163
 11
14.6745284853
 21
5.4665302163
  0
LINE
  5
253
100
AcDbEntity
  8
0
100
AcDbLine
 62
7
  6
CONTINUOUS
 10
16.4461820286
 20
5.6200735233
 11
14.6745284853
 21
5.6200735233
  0
LINE
  5
254
100
AcDbEntity
  8
0
100
AcDbLine
 62
7
  6
CONTINUOUS
 10
16.4461820286
 20
5.3011758855
 11
16.4461820286
 21
5.6200735233
  0
LINE
  5
255
100
AcDbEntity
  8
0
100
AcDbLine
 62
7
  6
CONTINUOUS
 10
13.6014640966
 20
11.9160280207
 11
13.6483012336
 21
11.8205839704
  0
LINE
  5
256
100
AcDbEntity
  8
0
100
AcDbLine
 62
7
  6
CONTINUOUS
 10
14.0303217561
 20
13.3038119157
 11
13.6014640966
 21
11.9160280207
  0
LINE
  5
257
100
AcDbEntity
  8
0
100
AcDbLine
 62
7
  6
CONTINUOUS
 10
13.768567338
 20
11.7746651642
 11
13.8169812524
 21
11.7336945081
  0
LINE
  5
258
100
AcDbEntity
  8
0
100
AcDbLine
 62
7
  6
CONTINUOUS
 10
13.6483012336
 20
11.8205839704
 11
13.6772642933
 21
11.8059002704
  0
LINE
  5
259
100
AcDbEntity
  8
0
100
AcDbLine
 62
7
  6
CONTINUOUS
 10
14.3125009958
 20
11.7746651642
 11
14.3609149103
 21
11.7336945081
  0
LINE
  5
25A
100
AcDbEntity
  8
0
100
AcDbLine
 62
7
  6
CONTINUOUS
 10
14.1088331825
 20
11.7336945081
 11
14.1170361414
 21
11.7746651642
  0
LINE
  5
25B
100
AcDbEntity
  8
0
100
AcDbLine
 62
7
  6
CONTINUOUS
 10
14.1170361414
 20
11.7746651642
 11
14.1177515749
 21
11.7774984531
  0
LINE
  5
25C
100
AcDbEntity
  8
0
100
AcDbLine
 62
7
  6
CONTINUOUS
 10
14.1084689984
 20
11.7322525913
 11
14.1088331825
 21
11.7336945081
  0
LINE
  5
25D
100
AcDbEntity
  8
0
100
AcDbLine
 62
7
  6
CONTINUOUS
 10
14.1089058189
 20
11.7336720618
 11
14.1266927897
 21
11.7912307206
  0
LINE
  5
25E
100
AcDbEntity
  8
0
100
AcDbLine
 62
7
  6
CONTINUOUS
 10
14.1922348914
 20
11.8205839704
 11
14.2211979511
 21
11.8059002704
  0
LINE
  5
25F
100
AcDbEntity
  8
0
100
AcDbLine
 62
7
  6
CONTINUOUS
 10
14.7361685493
 20
11.8205839704
 11
14.765131609
 21
11.8059002704
  0
LINE
  5
260
100
AcDbEntity
  8
0
100
AcDbLine
 62
7
  6
CONTINUOUS
 10
14.8564346537
 20
11.7746651642
 11
14.9048485682
 21
11.7336945081
  0
LINE
  5
261
100
AcDbEntity
  8
0
100
AcDbLine
 62
7
  6
CONTINUOUS
 10
13.8617549394
 20
11.7177980701
 11
14.079661173
 21
11.7177980701
  0
LINE
  5
262
100
AcDbEntity
  8
0
100
AcDbLine
 62
7
  6
CONTINUOUS
 10
14.4056885973
 20
11.7177980701
 11
14.6235948309
 21
11.7177980701
  0
LINE
  5
263
100
AcDbEntity
  8
0
100
AcDbLine
 62
7
  6
CONTINUOUS
 10
14.9496222552
 20
11.7177980701
 11
15.1675284887
 21
11.7177980701
  0
LINE
  5
264
100
AcDbEntity
  8
0
100
AcDbLine
 62
7
  6
CONTINUOUS
 10
15.493555913
 20
11.7177980701
 11
15.7114621466
 21
11.7177980701
  0
LINE
  5
265
100
AcDbEntity
  8
0
100
AcDbLine
 62
7
  6
CONTINUOUS
 10
16.0374895709
 20
11.7177980701
 11
16.2553958045
 21
11.7177980701
  0
LINE
  5
266
100
AcDbEntity
  8
0
100
AcDbLine
 62
7
  6
CONTINUOUS
 10
16.5814232288
 20
11.7177980701
 11
16.7993294624
 21
11.7177980701
  0
LINE
  5
267
100
AcDbEntity
  8
0
100
AcDbLine
 62
7
  6
CONTINUOUS
 10
13.6772642933
 20
11.8059002704
 11
13.6805909706
 21
11.8059002704
  0
LINE
  5
268
100
AcDbEntity
  8
0
100
AcDbLine
 62
7
  6
CONTINUOUS
 10
14.1743565812
 20
11.8059002704
 11
14.1776832585
 21
11.8059002704
  0
LINE
  5
269
100
AcDbEntity
  8
0
100
AcDbLine
 62
7
  6
CONTINUOUS
 10
14.2211979511
 20
11.8059002704
 11
14.2245246285
 21
11.8059002704
  0
LINE
  5
26A
100
AcDbEntity
  8
0
100
AcDbLine
 62
7
  6
CONTINUOUS
 10
14.718290239
 20
11.8059002704
 11
14.7216169164
 21
11.8059002704
  0
LINE
  5
26B
100
AcDbEntity
  8
0
100
AcDbLine
 62
7
  6
CONTINUOUS
 10
14.765131609
 20
11.8059002704
 11
14.7684582864
 21
11.8059002704
  0
LINE
  5
26C
100
AcDbEntity
  8
0
100
AcDbLine
 62
7
  6
CONTINUOUS
 10
15.2622238969
 20
11.8059002704
 11
15.2655505743
 21
11.8059002704
  0
LINE
  5
26D
100
AcDbEntity
  8
0
100
AcDbLine
 62
7
  6
CONTINUOUS
 10
15.3090652669
 20
11.8059002704
 11
15.3123919442
 21
11.8059002704
  0
LINE
  5
26E
100
AcDbEntity
  8
0
100
AcDbLine
 62
7
  6
CONTINUOUS
 10
15.8061575548
 20
11.8059002704
 11
15.8094842321
 21
11.8059002704
  0
LINE
  5
26F
100
AcDbEntity
  8
0
100
AcDbLine
 62
7
  6
CONTINUOUS
 10
15.8529989248
 20
11.8059002704
 11
15.8563256021
 21
11.8059002704
  0
LINE
  5
270
100
AcDbEntity
  8
0
100
AcDbLine
 62
7
  6
CONTINUOUS
 10
16.3500912127
 20
11.8059002704
 11
16.35341789
 21
11.8059002704
  0
LINE
  5
271
100
AcDbEntity
  8
0
100
AcDbLine
 62
7
  6
CONTINUOUS
 10
16.3969325826
 20
11.8059002704
 11
16.40025926
 21
11.8059002704
  0
LINE
  5
272
100
AcDbEntity
  8
0
100
AcDbLine
 62
7
  6
CONTINUOUS
 10
16.8940248705
 20
11.8059002704
 11
16.8973515479
 21
11.8059002704
  0
LINE
  5
273
100
AcDbEntity
  8
0
100
AcDbLine
 62
7
  6
CONTINUOUS
 10
15.2801022072
 20
11.8205839704
 11
15.3090652669
 21
11.8059002704
  0
LINE
  5
274
100
AcDbEntity
  8
0
100
AcDbLine
 62
7
  6
CONTINUOUS
 10
14.6527668404
 20
11.7336945081
 11
14.6609697993
 21
11.7746651642
  0
LINE
  5
275
100
AcDbEntity
  8
0
100
AcDbLine
 62
7
  6
CONTINUOUS
 10
14.6609697993
 20
11.7746651642
 11
14.6616849968
 21
11.7774985253
  0
LINE
  5
276
100
AcDbEntity
  8
0
100
AcDbLine
 62
7
  6
CONTINUOUS
 10
14.6524027337
 20
11.7322525674
 11
14.6527668404
 21
11.7336945081
  0
LINE
  5
277
100
AcDbEntity
  8
0
100
AcDbLine
 62
7
  6
CONTINUOUS
 10
14.6528394767
 20
11.7336720618
 11
14.6703333482
 21
11.7902822507
  0
LINE
  5
278
100
AcDbEntity
  8
0
100
AcDbLine
 62
7
  6
CONTINUOUS
 10
16.8650660438
 20
11.9160280207
 11
13.6014640966
 21
11.9160280207
  0
LINE
  5
279
100
AcDbEntity
  8
0
100
AcDbLine
 62
7
  6
CONTINUOUS
 10
15.4003683116
 20
11.7746651642
 11
15.4487822261
 21
11.7336945081
  0
LINE
  5
27A
100
AcDbEntity
  8
0
100
AcDbLine
 62
7
  6
CONTINUOUS
 10
14.1776832585
 20
11.8059002704
 11
14.1922348914
 21
11.8205839704
  0
LINE
  5
27B
100
AcDbEntity
  8
0
100
AcDbLine
 62
7
  6
CONTINUOUS
 10
15.8240358651
 20
11.8205839704
 11
15.8529989248
 21
11.8059002704
  0
LINE
  5
27C
100
AcDbEntity
  8
0
100
AcDbLine
 62
7
  6
CONTINUOUS
 10
15.9443019695
 20
11.7746651642
 11
15.9927158839
 21
11.7336945081
  0
LINE
  5
27D
100
AcDbEntity
  8
0
100
AcDbLine
 62
7
  6
CONTINUOUS
 10
16.3679695229
 20
11.8205839704
 11
16.3969325826
 21
11.8059002704
  0
LINE
  5
27E
100
AcDbEntity
  8
0
100
AcDbLine
 62
7
  6
CONTINUOUS
 10
15.1967004982
 20
11.7336945081
 11
15.2049034572
 21
11.7746651642
  0
LINE
  5
27F
100
AcDbEntity
  8
0
100
AcDbLine
 62
7
  6
CONTINUOUS
 10
15.2049034572
 20
11.7746651642
 11
15.2056186547
 21
11.7774985253
  0
LINE
  5
280
100
AcDbEntity
  8
0
100
AcDbLine
 62
7
  6
CONTINUOUS
 10
15.1963363916
 20
11.7322525674
 11
15.1967004982
 21
11.7336945081
  0
LINE
  5
281
100
AcDbEntity
  8
0
100
AcDbLine
 62
7
  6
CONTINUOUS
 10
15.1967731346
 20
11.7336720618
 11
15.2142670061
 21
11.7902822507
  0
LINE
  5
282
100
AcDbEntity
  8
0
100
AcDbLine
 62
7
  6
CONTINUOUS
 10
14.7216169164
 20
11.8059002704
 11
14.7361685493
 21
11.8205839704
  0
LINE
  5
283
100
AcDbEntity
  8
0
100
AcDbLine
 62
7
  6
CONTINUOUS
 10
16.4882356273
 20
11.7746651642
 11
16.5366495418
 21
11.7336945081
  0
LINE
  5
284
100
AcDbEntity
  8
0
100
AcDbLine
 62
7
  6
CONTINUOUS
 10
15.7406341561
 20
11.7336945081
 11
15.7488371151
 21
11.7746651642
  0
LINE
  5
285
100
AcDbEntity
  8
0
100
AcDbLine
 62
7
  6
CONTINUOUS
 10
15.2655505743
 20
11.8059002704
 11
15.2801022072
 21
11.8205839704
  0
LINE
  5
286
100
AcDbEntity
  8
0
100
AcDbLine
 62
7
  6
CONTINUOUS
 10
15.7488371151
 20
11.7746651642
 11
15.7495523126
 21
11.7774985253
  0
LINE
  5
287
100
AcDbEntity
  8
0
100
AcDbLine
 62
7
  6
CONTINUOUS
 10
15.7402700494
 20
11.7322525674
 11
15.7406341561
 21
11.7336945081
  0
LINE
  5
288
100
AcDbEntity
  8
0
100
AcDbLine
 62
7
  6
CONTINUOUS
 10
15.7407067925
 20
11.7336720618
 11
15.758200664
 21
11.7902822507
  0
LINE
  5
289
100
AcDbEntity
  8
0
100
AcDbLine
 62
7
  6
CONTINUOUS
 10
15.8094842321
 20
11.8059002704
 11
15.8240358651
 21
11.8205839704
  0
LINE
  5
28A
100
AcDbEntity
  8
0
100
AcDbLine
 62
7
  6
CONTINUOUS
 10
14.0303217561
 20
13.3038119157
 11
17.2939237034
 21
13.3038119157
  0
LINE
  5
28B
100
AcDbEntity
  8
0
100
AcDbLine
 62
7
  6
CONTINUOUS
 10
16.284567814
 20
11.7336945081
 11
16.2927707729
 21
11.7746651642
  0
LINE
  5
28C
100
AcDbEntity
  8
0
100
AcDbLine
 62
7
  6
CONTINUOUS
 10
16.2927707729
 20
11.7746651642
 11
16.2934859704
 21
11.7774985253
  0
LINE
  5
28D
100
AcDbEntity
  8
0
100
AcDbLine
 62
7
  6
CONTINUOUS
 10
16.2842037073
 20
11.7322525674
 11
16.284567814
 21
11.7336945081
  0
LINE
  5
28E
100
AcDbEntity
  8
0
100
AcDbLine
 62
7
  6
CONTINUOUS
 10
16.2846404504
 20
11.7336720618
 11
16.3021343219
 21
11.7902822507
  0
LINE
  5
28F
100
AcDbEntity
  8
0
100
AcDbLine
 62
7
  6
CONTINUOUS
 10
16.9119031808
 20
11.8205839704
 11
16.8650660438
 21
11.9160280207
  0
LINE
  5
290
100
AcDbEntity
  8
0
100
AcDbLine
 62
7
  6
CONTINUOUS
 10
16.35341789
 20
11.8059002704
 11
16.3679695229
 21
11.8205839704
  0
LINE
  5
291
100
AcDbEntity
  8
0
100
AcDbLine
 62
7
  6
CONTINUOUS
 10
16.8285014719
 20
11.7336945081
 11
16.8367044308
 21
11.7746651642
  0
LINE
  5
292
100
AcDbEntity
  8
0
100
AcDbLine
 62
7
  6
CONTINUOUS
 10
16.8367044308
 20
11.7746651642
 11
16.8374196283
 21
11.7774985253
  0
LINE
  5
293
100
AcDbEntity
  8
0
100
AcDbLine
 62
7
  6
CONTINUOUS
 10
16.8281373652
 20
11.7322525674
 11
16.8285014719
 21
11.7336945081
  0
LINE
  5
294
100
AcDbEntity
  8
0
100
AcDbLine
 62
7
  6
CONTINUOUS
 10
17.2939237034
 20
13.3038119157
 11
16.8650660438
 21
11.9160280207
  0
LINE
  5
295
100
AcDbEntity
  8
0
100
AcDbLine
 62
7
  6
CONTINUOUS
 10
16.8285741082
 20
11.7336720618
 11
16.8460679797
 21
11.7902822507
  0
LINE
  5
296
100
AcDbEntity
  8
0
100
AcDbLine
 62
7
  6
CONTINUOUS
 10
17.3407608404
 20
13.2083678654
 11
16.9119031808
 21
11.8205839704
  0
LINE
  5
297
100
AcDbEntity
  8
0
100
AcDbLine
 62
7
  6
CONTINUOUS
 10
16.8973515479
 20
11.8059002704
 11
16.9119031808
 21
11.8205839704
  0
LINE
  5
298
100
AcDbEntity
  8
0
100
AcDbLine
 62
7
  6
CONTINUOUS
 10
17.3407608404
 20
13.2083678654
 11
17.2939237034
 21
13.3038119157
  0
ARC
  5
299
100
AcDbEntity
  8
0
100
AcDbCircle
 62
7
  6
CONTINUOUS
 10
7.8747869839
 20
5.4153747662
 40
0.0870285951
100
AcDbArc
 50
90.0
 51
155.0
  0
ARC
  5
29A
100
AcDbEntity
  8
0
100
AcDbCircle
 62
7
  6
CONTINUOUS
 10
7.3387034739
 20
5.4153747662
 40
0.0870285951
100
AcDbArc
 50
25.0
 51
90.0
  0
ARC
  5
29B
100
AcDbEntity
  8
0
100
AcDbCircle
 62
7
  6
CONTINUOUS
 10
7.2842358028
 20
5.4153747662
 40
0.0870285951
100
AcDbArc
 50
90.0
 51
155.0
  0
ARC
  5
29C
100
AcDbEntity
  8
0
100
AcDbCircle
 62
7
  6
CONTINUOUS
 10
6.7481522928
 20
5.4153747662
 40
0.0870285951
100
AcDbArc
 50
25.0
 51
90.0
  0
ARC
  5
29D
100
AcDbEntity
  8
0
100
AcDbCircle
 62
7
  6
CONTINUOUS
 10
6.6936846217
 20
5.4153747662
 40
0.0870285951
100
AcDbArc
 50
90.0
 51
155.0
  0
ARC
  5
29E
100
AcDbEntity
  8
0
100
AcDbCircle
 62
7
  6
CONTINUOUS
 10
6.1576011117
 20
5.4153747662
 40
0.0870285951
100
AcDbArc
 50
25.0
 51
90.0
  0
ARC
  5
29F
100
AcDbEntity
  8
0
100
AcDbCircle
 62
7
  6
CONTINUOUS
 10
6.1031334406
 20
5.4153747662
 40
0.0870285951
100
AcDbArc
 50
90.0
 51
155.0
  0
ARC
  5
2A0
100
AcDbEntity
  8
0
100
AcDbCircle
 62
7
  6
CONTINUOUS
 10
5.5670499306
 20
5.4153747662
 40
0.0870285951
100
AcDbArc
 50
25.0
 51
90.0
  0
ARC
  5
2A1
100
AcDbEntity
  8
0
100
AcDbCircle
 62
7
  6
CONTINUOUS
 10
5.5125822595
 20
5.4153747662
 40
0.0870285951
100
AcDbArc
 50
90.0
 51
155.0
  0
ARC
  5
2A2
100
AcDbEntity
  8
0
100
AcDbCircle
 62
7
  6
CONTINUOUS
 10
4.9764987495
 20
5.4153747662
 40
0.0870285951
100
AcDbArc
 50
25.0
 51
90.0
  0
ARC
  5
2A3
100
AcDbEntity
  8
0
100
AcDbCircle
 62
7
  6
CONTINUOUS
 10
4.3859475684
 20
5.4153747662
 40
0.0870285951
100
AcDbArc
 50
25.0
 51
90.0
  0
ARC
  5
2A4
100
AcDbEntity
  8
0
100
AcDbCircle
 62
7
  6
CONTINUOUS
 10
4.9220310784
 20
5.4153747662
 40
0.0870285951
100
AcDbArc
 50
90.0
 51
155.0
  0
ARC
  5
2A5
100
AcDbEntity
  8
0
100
AcDbCircle
 62
7
  6
CONTINUOUS
 10
4.535698442
 20
5.4049624164
 40
0.0442913386
100
AcDbArc
 50
205.0
 51
270.0
  0
ARC
  5
2A6
100
AcDbEntity
  8
0
100
AcDbCircle
 62
7
  6
CONTINUOUS
 10
4.7722802048
 20
5.4049624164
 40
0.0442913386
100
AcDbArc
 50
270.0
 51
335.0
  0
ARC
  5
2A7
100
AcDbEntity
  8
0
100
AcDbCircle
 62
7
  6
CONTINUOUS
 10
5.1262496231
 20
5.4049624164
 40
0.0442913386
100
AcDbArc
 50
205.0
 51
270.0
  0
ARC
  5
2A8
100
AcDbEntity
  8
0
100
AcDbCircle
 62
7
  6
CONTINUOUS
 10
5.3628313859
 20
5.4049624164
 40
0.0442913386
100
AcDbArc
 50
270.0
 51
335.0
  0
ARC
  5
2A9
100
AcDbEntity
  8
0
100
AcDbCircle
 62
7
  6
CONTINUOUS
 10
5.7168008042
 20
5.4049624164
 40
0.0442913386
100
AcDbArc
 50
205.0
 51
270.0
  0
ARC
  5
2AA
100
AcDbEntity
  8
0
100
AcDbCircle
 62
7
  6
CONTINUOUS
 10
5.953382567
 20
5.4049624164
 40
0.0442913386
100
AcDbArc
 50
270.0
 51
335.0
  0
ARC
  5
2AB
100
AcDbEntity
  8
0
100
AcDbCircle
 62
7
  6
CONTINUOUS
 10
6.3073519853
 20
5.4049624164
 40
0.0442913386
100
AcDbArc
 50
205.0
 51
270.0
  0
ARC
  5
2AC
100
AcDbEntity
  8
0
100
AcDbCircle
 62
7
  6
CONTINUOUS
 10
6.5439337481
 20
5.4049624164
 40
0.0442913386
100
AcDbArc
 50
270.0
 51
335.0
  0
ARC
  5
2AD
100
AcDbEntity
  8
0
100
AcDbCircle
 62
7
  6
CONTINUOUS
 10
6.8979031664
 20
5.4049624164
 40
0.0442913386
100
AcDbArc
 50
205.0
 51
270.0
  0
ARC
  5
2AE
100
AcDbEntity
  8
0
100
AcDbCircle
 62
7
  6
CONTINUOUS
 10
7.7250361103
 20
5.4049624164
 40
0.0442913386
100
AcDbArc
 50
270.0
 51
335.0
  0
ARC
  5
2AF
100
AcDbEntity
  8
0
100
AcDbCircle
 62
7
  6
CONTINUOUS
 10
7.4884543475
 20
5.4049624164
 40
0.0442913386
100
AcDbArc
 50
205.0
 51
270.0
  0
ARC
  5
2B0
100
AcDbEntity
  8
0
100
AcDbCircle
 62
7
  6
CONTINUOUS
 10
7.1344849292
 20
5.4049624164
 40
0.0442913386
100
AcDbArc
 50
270.0
 51
335.0
  0
ARC
  5
2B1
100
AcDbEntity
  8
0
100
AcDbCircle
 62
7
  6
CONTINUOUS
 10
14.1453737537
 20
11.7689481674
 40
0.0289112267
100
AcDbArc
 50
149.9429261876
 51
162.8003884092
  0
SPLINE
  5
2B2
100
AcDbEntity
  8
0
100
AcDbSpline
 62
7
  6
CONTINUOUS
 70
0
 71
3
 72
13
 73
9
 74
0
 42
0.0000001
 43
0.0000001
 44
0.0000000001
 40
0.0
 40
0.0
 40
0.0
 40
0.0
 40
0.0997951873
 40
0.2031361234
 40
0.3129520256
 40
0.431362633
 40
0.6968710854
 40
1.0
 40
1.0
 40
1.0
 40
1.0
 10
16.8374239882
 20
11.7774971774
 30
0.0
 10
16.8380869185
 20
11.7796398857
 30
0.0
 10
16.8399628069
 20
11.7838563278
 30
0.0
 10
16.8442441299
 20
11.7895041409
 30
0.0
 10
16.8499004732
 20
11.7944274155
 30
0.0
 10
16.8594742785
 20
11.8001333104
 30
0.0
 10
16.8743931355
 20
11.8048241119
 30
0.0
 10
16.8872119879
 20
11.8059002704
 30
0.0
 10
16.8940248705
 20
11.8059002704
 30
0.0
  0
SPLINE
  5
2B3
100
AcDbEntity
  8
0
100
AcDbSpline
 62
7
  6
CONTINUOUS
 70
0
 71
3
 72
13
 73
9
 74
0
 42
0.0000001
 43
0.0000001
 44
0.0000000001
 40
0.0
 40
0.0
 40
0.0
 40
0.0
 40
0.0997951873
 40
0.2031361234
 40
0.3129520256
 40
0.431362633
 40
0.6968710854
 40
1.0
 40
1.0
 40
1.0
 40
1.0
 10
16.2934903303
 20
11.7774971774
 30
0.0
 10
16.2941532607
 20
11.7796398857
 30
0.0
 10
16.296029149
 20
11.7838563278
 30
0.0
 10
16.300310472
 20
11.7895041409
 30
0.0
 10
16.3059668154
 20
11.7944274155
 30
0.0
 10
16.3155406206
 20
11.8001333104
 30
0.0
 10
16.3304594776
 20
11.8048241119
 30
0.0
 10
16.34327833
 20
11.8059002704
 30
0.0
 10
16.3500912127
 20
11.8059002704
 30
0.0
  0
SPLINE
  5
2B4
100
AcDbEntity
  8
0
100
AcDbSpline
 62
7
  6
CONTINUOUS
 70
0
 71
3
 72
13
 73
9
 74
0
 42
0.0000001
 43
0.0000001
 44
0.0000000001
 40
0.0
 40
0.0
 40
0.0
 40
0.0
 40
0.0997951873
 40
0.2031361234
 40
0.3129520256
 40
0.431362633
 40
0.6968710854
 40
1.0
 40
1.0
 40
1.0
 40
1.0
 10
15.7495566725
 20
11.7774971774
 30
0.0
 10
15.7502196028
 20
11.7796398857
 30
0.0
 10
15.7520954911
 20
11.7838563278
 30
0.0
 10
15.7563768142
 20
11.7895041409
 30
0.0
 10
15.7620331575
 20
11.7944274155
 30
0.0
 10
15.7716069628
 20
11.8001333104
 30
0.0
 10
15.7865258198
 20
11.8048241119
 30
0.0
 10
15.7993446722
 20
11.8059002704
 30
0.0
 10
15.8061575548
 20
11.8059002704
 30
0.0
  0
SPLINE
  5
2B5
100
AcDbEntity
  8
0
100
AcDbSpline
 62
7
  6
CONTINUOUS
 70
0
 71
3
 72
13
 73
9
 74
0
 42
0.0000001
 43
0.0000001
 44
0.0000000001
 40
0.0
 40
0.0
 40
0.0
 40
0.0
 40
0.0997951873
 40
0.2031361234
 40
0.3129520256
 40
0.431362633
 40
0.6968710854
 40
1.0
 40
1.0
 40
1.0
 40
1.0
 10
15.2056230146
 20
11.7774971774
 30
0.0
 10
15.2062859449
 20
11.7796398857
 30
0.0
 10
15.2081618332
 20
11.7838563278
 30
0.0
 10
15.2124431563
 20
11.7895041409
 30
0.0
 10
15.2180994996
 20
11.7944274155
 30
0.0
 10
15.2276733049
 20
11.8001333104
 30
0.0
 10
15.2425921619
 20
11.8048241119
 30
0.0
 10
15.2554110143
 20
11.8059002704
 30
0.0
 10
15.2622238969
 20
11.8059002704
 30
0.0
  0
SPLINE
  5
2B6
100
AcDbEntity
  8
0
100
AcDbSpline
 62
7
  6
CONTINUOUS
 70
0
 71
3
 72
13
 73
9
 74
0
 42
0.0000001
 43
0.0000001
 44
0.0000000001
 40
0.0
 40
0.0
 40
0.0
 40
0.0
 40
0.0997951873
 40
0.2031361234
 40
0.3129520256
 40
0.431362633
 40
0.6968710854
 40
1.0
 40
1.0
 40
1.0
 40
1.0
 10
14.6616893567
 20
11.7774971774
 30
0.0
 10
14.662352287
 20
11.7796398857
 30
0.0
 10
14.6642281754
 20
11.7838563278
 30
0.0
 10
14.6685094984
 20
11.7895041409
 30
0.0
 10
14.6741658417
 20
11.7944274155
 30
0.0
 10
14.683739647
 20
11.8001333104
 30
0.0
 10
14.698658504
 20
11.8048241119
 30
0.0
 10
14.7114773564
 20
11.8059002704
 30
0.0
 10
14.718290239
 20
11.8059002704
 30
0.0
  0
SPLINE
  5
2B7
100
AcDbEntity
  8
0
100
AcDbSpline
 62
7
  6
CONTINUOUS
 70
0
 71
3
 72
11
 73
7
 74
0
 42
0.0000001
 43
0.0000001
 44
0.0000000001
 40
0.0
 40
0.0
 40
0.0
 40
0.0
 40
0.2046970514
 40
0.4368322694
 40
0.7025777348
 40
1.0
 40
1.0
 40
1.0
 40
1.0
 10
14.1203503089
 20
11.7834287145
 30
0.0
 10
14.1224265321
 20
11.7870281279
 30
0.0
 10
14.128530514
 20
11.7937882242
 30
0.0
 10
14.1411555742
 20
11.8007910774
 30
0.0
 10
14.1568544333
 20
11.8050412131
 30
0.0
 10
14.1683189888
 20
11.8059002704
 30
0.0
 10
14.1743565812
 20
11.8059002704
 30
0.0
  0
SPLINE
  5
2B8
100
AcDbEntity
  8
0
100
AcDbSpline
 62
7
  6
CONTINUOUS
 70
0
 71
3
 72
11
 73
7
 74
0
 42
0.0000001
 43
0.0000001
 44
0.0000000001
 40
0.0
 40
0.0
 40
0.0
 40
0.0
 40
0.2483025819
 40
0.5067863344
 40
0.7617321638
 40
1.0
 40
1.0
 40
1.0
 40
1.0
 10
16.40025926
 20
11.8059002704
 30
0.0
 10
16.4081231386
 20
11.8059002704
 30
0.0
 10
16.4241954659
 20
11.8043286966
 30
0.0
 10
16.4475962245
 20
11.7980760684
 30
0.0
 10
16.4694231334
 20
11.788327368
 30
0.0
 10
16.4824753544
 20
11.7795398405
 30
0.0
 10
16.4882356273
 20
11.7746651642
 30
0.0
  0
SPLINE
  5
2B9
100
AcDbEntity
  8
0
100
AcDbSpline
 62
7
  6
CONTINUOUS
 70
0
 71
3
 72
11
 73
7
 74
0
 42
0.0000001
 43
0.0000001
 44
0.0000000001
 40
0.0
 40
0.0
 40
0.0
 40
0.0
 40
0.2483025819
 40
0.5067863344
 40
0.7617321638
 40
1.0
 40
1.0
 40
1.0
 40
1.0
 10
15.8563256021
 20
11.8059002704
 30
0.0
 10
15.8641894807
 20
11.8059002704
 30
0.0
 10
15.8802618081
 20
11.8043286966
 30
0.0
 10
15.9036625666
 20
11.7980760684
 30
0.0
 10
15.9254894755
 20
11.788327368
 30
0.0
 10
15.9385416965
 20
11.7795398405
 30
0.0
 10
15.9443019695
 20
11.7746651642
 30
0.0
  0
SPLINE
  5
2BA
100
AcDbEntity
  8
0
100
AcDbSpline
 62
7
  6
CONTINUOUS
 70
0
 71
3
 72
11
 73
7
 74
0
 42
0.0000001
 43
0.0000001
 44
0.0000000001
 40
0.0
 40
0.0
 40
0.0
 40
0.0
 40
0.2483025819
 40
0.5067863344
 40
0.7617321638
 40
1.0
 40
1.0
 40
1.0
 40
1.0
 10
15.3123919442
 20
11.8059002704
 30
0.0
 10
15.3202558228
 20
11.8059002704
 30
0.0
 10
15.3363281502
 20
11.8043286966
 30
0.0
 10
15.3597289088
 20
11.7980760684
 30
0.0
 10
15.3815558176
 20
11.788327368
 30
0.0
 10
15.3946080386
 20
11.7795398405
 30
0.0
 10
15.4003683116
 20
11.7746651642
 30
0.0
  0
SPLINE
  5
2BB
100
AcDbEntity
  8
0
100
AcDbSpline
 62
7
  6
CONTINUOUS
 70
0
 71
3
 72
11
 73
7
 74
0
 42
0.0000001
 43
0.0000001
 44
0.0000000001
 40
0.0
 40
0.0
 40
0.0
 40
0.0
 40
0.2483025819
 40
0.5067863344
 40
0.7617321638
 40
1.0
 40
1.0
 40
1.0
 40
1.0
 10
14.7684582864
 20
11.8059002704
 30
0.0
 10
14.776322165
 20
11.8059002704
 30
0.0
 10
14.7923944923
 20
11.8043286966
 30
0.0
 10
14.8157952509
 20
11.7980760684
 30
0.0
 10
14.8376221597
 20
11.788327368
 30
0.0
 10
14.8506743808
 20
11.7795398405
 30
0.0
 10
14.8564346537
 20
11.7746651642
 30
0.0
  0
SPLINE
  5
2BC
100
AcDbEntity
  8
0
100
AcDbSpline
 62
7
  6
CONTINUOUS
 70
0
 71
3
 72
11
 73
7
 74
0
 42
0.0000001
 43
0.0000001
 44
0.0000000001
 40
0.0
 40
0.0
 40
0.0
 40
0.0
 40
0.2483025819
 40
0.5067863344
 40
0.7617321638
 40
1.0
 40
1.0
 40
1.0
 40
1.0
 10
14.2245246285
 20
11.8059002704
 30
0.0
 10
14.2323885071
 20
11.8059002704
 30
0.0
 10
14.2484608344
 20
11.8043286966
 30
0.0
 10
14.271861593
 20
11.7980760684
 30
0.0
 10
14.2936885019
 20
11.788327368
 30
0.0
 10
14.3067407229
 20
11.7795398405
 30
0.0
 10
14.3125009958
 20
11.7746651642
 30
0.0
  0
SPLINE
  5
2BD
100
AcDbEntity
  8
0
100
AcDbSpline
 62
7
  6
CONTINUOUS
 70
0
 71
3
 72
12
 73
8
 74
0
 42
0.0000001
 43
0.0000001
 44
0.0000000001
 40
0.0
 40
0.0
 40
0.0
 40
0.0
 40
0.3034034195
 40
0.5691550084
 40
0.7966806597
 40
0.9001145052
 40
1.0
 40
1.0
 40
1.0
 40
1.0
 10
16.7993294624
 20
11.7177980701
 30
0.0
 10
16.8027967221
 20
11.7177980701
 30
0.0
 10
16.8093274049
 20
11.7183512764
 30
0.0
 10
16.8180974436
 20
11.7210957303
 30
0.0
 10
16.8238470417
 20
11.7250630601
 30
0.0
 10
16.8268430542
 20
11.72901693
 30
0.0
 10
16.8277978861
 20
11.7311627341
 30
0.0
 10
16.8281352687
 20
11.7322532155
 30
0.0
  0
SPLINE
  5
2BE
100
AcDbEntity
  8
0
100
AcDbSpline
 62
7
  6
CONTINUOUS
 70
0
 71
3
 72
11
 73
7
 74
0
 42
0.0000001
 43
0.0000001
 44
0.0000000001
 40
0.0
 40
0.0
 40
0.0
 40
0.0
 40
0.2382671003
 40
0.4932149838
 40
0.7516986267
 40
1.0
 40
1.0
 40
1.0
 40
1.0
 10
16.5366495418
 20
11.7336945081
 30
0.0
 10
16.5395811002
 20
11.7312136538
 30
0.0
 10
16.5462237645
 20
11.7267414158
 30
0.0
 10
16.5573321245
 20
11.721780025
 30
0.0
 10
16.5692414498
 20
11.7185978786
 30
0.0
 10
16.5774210958
 20
11.7177980701
 30
0.0
 10
16.5814232288
 20
11.7177980701
 30
0.0
  0
SPLINE
  5
2BF
100
AcDbEntity
  8
0
100
AcDbSpline
 62
7
  6
CONTINUOUS
 70
0
 71
3
 72
12
 73
8
 74
0
 42
0.0000001
 43
0.0000001
 44
0.0000000001
 40
0.0
 40
0.0
 40
0.0
 40
0.0
 40
0.3034034195
 40
0.5691550084
 40
0.7966806597
 40
0.9001145052
 40
1.0
 40
1.0
 40
1.0
 40
1.0
 10
16.2553958045
 20
11.7177980701
 30
0.0
 10
16.2588630643
 20
11.7177980701
 30
0.0
 10
16.265393747
 20
11.7183512764
 30
0.0
 10
16.2741637857
 20
11.7210957303
 30
0.0
 10
16.2799133839
 20
11.7250630601
 30
0.0
 10
16.2829093964
 20
11.72901693
 30
0.0
 10
16.2838642282
 20
11.7311627341
 30
0.0
 10
16.2842016108
 20
11.7322532155
 30
0.0
  0
SPLINE
  5
2C0
100
AcDbEntity
  8
0
100
AcDbSpline
 62
7
  6
CONTINUOUS
 70
0
 71
3
 72
11
 73
7
 74
0
 42
0.0000001
 43
0.0000001
 44
0.0000000001
 40
0.0
 40
0.0
 40
0.0
 40
0.0
 40
0.2382671003
 40
0.4932149838
 40
0.7516986267
 40
1.0
 40
1.0
 40
1.0
 40
1.0
 10
15.9927158839
 20
11.7336945081
 30
0.0
 10
15.9956474423
 20
11.7312136538
 30
0.0
 10
16.0022901067
 20
11.7267414158
 30
0.0
 10
16.0133984666
 20
11.721780025
 30
0.0
 10
16.0253077919
 20
11.7185978786
 30
0.0
 10
16.0334874379
 20
11.7177980701
 30
0.0
 10
16.0374895709
 20
11.7177980701
 30
0.0
  0
SPLINE
  5
2C1
100
AcDbEntity
  8
0
100
AcDbSpline
 62
7
  6
CONTINUOUS
 70
0
 71
3
 72
12
 73
8
 74
0
 42
0.0000001
 43
0.0000001
 44
0.0000000001
 40
0.0
 40
0.0
 40
0.0
 40
0.0
 40
0.3034034195
 40
0.5691550084
 40
0.7966806597
 40
0.9001145052
 40
1.0
 40
1.0
 40
1.0
 40
1.0
 10
15.7114621466
 20
11.7177980701
 30
0.0
 10
15.7149294064
 20
11.7177980701
 30
0.0
 10
15.7214600891
 20
11.7183512764
 30
0.0
 10
15.7302301278
 20
11.7210957303
 30
0.0
 10
15.735979726
 20
11.7250630601
 30
0.0
 10
15.7389757385
 20
11.72901693
 30
0.0
 10
15.7399305703
 20
11.7311627341
 30
0.0
 10
15.740267953
 20
11.7322532155
 30
0.0
  0
SPLINE
  5
2C2
100
AcDbEntity
  8
0
100
AcDbSpline
 62
7
  6
CONTINUOUS
 70
0
 71
3
 72
11
 73
7
 74
0
 42
0.0000001
 43
0.0000001
 44
0.0000000001
 40
0.0
 40
0.0
 40
0.0
 40
0.0
 40
0.2382671003
 40
0.4932149838
 40
0.7516986267
 40
1.0
 40
1.0
 40
1.0
 40
1.0
 10
15.4487822261
 20
11.7336945081
 30
0.0
 10
15.4517137845
 20
11.7312136538
 30
0.0
 10
15.4583564488
 20
11.7267414158
 30
0.0
 10
15.4694648088
 20
11.721780025
 30
0.0
 10
15.481374134
 20
11.7185978786
 30
0.0
 10
15.4895537801
 20
11.7177980701
 30
0.0
 10
15.493555913
 20
11.7177980701
 30
0.0
  0
SPLINE
  5
2C3
100
AcDbEntity
  8
0
100
AcDbSpline
 62
7
  6
CONTINUOUS
 70
0
 71
3
 72
12
 73
8
 74
0
 42
0.0000001
 43
0.0000001
 44
0.0000000001
 40
0.0
 40
0.0
 40
0.0
 40
0.0
 40
0.3034034195
 40
0.5691550084
 40
0.7966806597
 40
0.9001145052
 40
1.0
 40
1.0
 40
1.0
 40
1.0
 10
15.1675284887
 20
11.7177980701
 30
0.0
 10
15.1709957485
 20
11.7177980701
 30
0.0
 10
15.1775264312
 20
11.7183512764
 30
0.0
 10
15.18629647
 20
11.7210957303
 30
0.0
 10
15.1920460681
 20
11.7250630601
 30
0.0
 10
15.1950420806
 20
11.72901693
 30
0.0
 10
15.1959969125
 20
11.7311627341
 30
0.0
 10
15.1963342951
 20
11.7322532155
 30
0.0
  0
SPLINE
  5
2C4
100
AcDbEntity
  8
0
100
AcDbSpline
 62
7
  6
CONTINUOUS
 70
0
 71
3
 72
11
 73
7
 74
0
 42
0.0000001
 43
0.0000001
 44
0.0000000001
 40
0.0
 40
0.0
 40
0.0
 40
0.0
 40
0.2382671003
 40
0.4932149838
 40
0.7516986267
 40
1.0
 40
1.0
 40
1.0
 40
1.0
 10
14.9048485682
 20
11.7336945081
 30
0.0
 10
14.9077801266
 20
11.7312136538
 30
0.0
 10
14.9144227909
 20
11.7267414158
 30
0.0
 10
14.9255311509
 20
11.721780025
 30
0.0
 10
14.9374404762
 20
11.7185978786
 30
0.0
 10
14.9456201222
 20
11.7177980701
 30
0.0
 10
14.9496222552
 20
11.7177980701
 30
0.0
  0
SPLINE
  5
2C5
100
AcDbEntity
  8
0
100
AcDbSpline
 62
7
  6
CONTINUOUS
 70
0
 71
3
 72
12
 73
8
 74
0
 42
0.0000001
 43
0.0000001
 44
0.0000000001
 40
0.0
 40
0.0
 40
0.0
 40
0.0
 40
0.3034034195
 40
0.5691550084
 40
0.7966806597
 40
0.9001145052
 40
1.0
 40
1.0
 40
1.0
 40
1.0
 10
14.6235948309
 20
11.7177980701
 30
0.0
 10
14.6270620906
 20
11.7177980701
 30
0.0
 10
14.6335927734
 20
11.7183512764
 30
0.0
 10
14.6423628121
 20
11.7210957303
 30
0.0
 10
14.6481124102
 20
11.7250630601
 30
0.0
 10
14.6511084227
 20
11.72901693
 30
0.0
 10
14.6520632546
 20
11.7311627341
 30
0.0
 10
14.6524006372
 20
11.7322532155
 30
0.0
  0
SPLINE
  5
2C6
100
AcDbEntity
  8
0
100
AcDbSpline
 62
7
  6
CONTINUOUS
 70
0
 71
3
 72
11
 73
7
 74
0
 42
0.0000001
 43
0.0000001
 44
0.0000000001
 40
0.0
 40
0.0
 40
0.0
 40
0.0
 40
0.2382671003
 40
0.4932149838
 40
0.7516986267
 40
1.0
 40
1.0
 40
1.0
 40
1.0
 10
14.3609149103
 20
11.7336945081
 30
0.0
 10
14.3638464687
 20
11.7312136538
 30
0.0
 10
14.370489133
 20
11.7267414158
 30
0.0
 10
14.381597493
 20
11.721780025
 30
0.0
 10
14.3935068183
 20
11.7185978786
 30
0.0
 10
14.4016864643
 20
11.7177980701
 30
0.0
 10
14.4056885973
 20
11.7177980701
 30
0.0
  0
SPLINE
  5
2C7
100
AcDbEntity
  8
0
100
AcDbSpline
 62
7
  6
CONTINUOUS
 70
0
 71
3
 72
12
 73
8
 74
0
 42
0.0000001
 43
0.0000001
 44
0.0000000001
 40
0.0
 40
0.0
 40
0.0
 40
0.0
 40
0.3034050278
 40
0.5691551064
 40
0.7966797137
 40
0.9001141965
 40
1.0
 40
1.0
 40
1.0
 40
1.0
 10
14.079661173
 20
11.7177980701
 30
0.0
 10
14.0831284513
 20
11.7177980701
 30
0.0
 10
14.0896591345
 20
11.718351281
 30
0.0
 10
14.0984291656
 20
11.721095729
 30
0.0
 10
14.1041787363
 20
11.7250630549
 30
0.0
 10
14.1071747576
 20
11.7290169168
 30
0.0
 10
14.1081295949
 20
11.7311627308
 30
0.0
 10
14.108466979
 20
11.7322532155
 30
0.0
  0
SPLINE
  5
2C8
100
AcDbEntity
  8
0
100
AcDbSpline
 62
7
  6
CONTINUOUS
 70
0
 71
3
 72
11
 73
7
 74
0
 42
0.0000001
 43
0.0000001
 44
0.0000000001
 40
0.0
 40
0.0
 40
0.0
 40
0.0
 40
0.2382684384
 40
0.4932146722
 40
0.7516977329
 40
1.0
 40
1.0
 40
1.0
 40
1.0
 10
13.8169812524
 20
11.7336945081
 30
0.0
 10
13.8199128273
 20
11.7312136398
 30
0.0
 10
13.8265554905
 20
11.7267414084
 30
0.0
 10
13.8376638355
 20
11.7217800202
 30
0.0
 10
13.8495731415
 20
11.7185978855
 30
0.0
 10
13.857752792
 20
11.7177980701
 30
0.0
 10
13.8617549394
 20
11.7177980701
 30
0.0
  0
SPLINE
  5
2C9
100
AcDbEntity
  8
0
100
AcDbSpline
 62
7
  6
CONTINUOUS
 70
0
 71
3
 72
11
 73
7
 74
0
 42
0.0000001
 43
0.0000001
 44
0.0000000001
 40
0.0
 40
0.0
 40
0.0
 40
0.0
 40
0.2482997896
 40
0.5067865061
 40
0.7617344707
 40
1.0
 40
1.0
 40
1.0
 40
1.0
 10
13.6805909706
 20
11.8059002704
 30
0.0
 10
13.6884547658
 20
11.8059002704
 30
0.0
 10
13.704526997
 20
11.8043282482
 30
0.0
 10
13.7279283079
 20
11.7980771433
 30
0.0
 10
13.7497546957
 20
11.7883269163
 30
0.0
 10
13.7628071171
 20
11.7795397964
 30
0.0
 10
13.768567338
 20
11.7746651642
 30
0.0
  0
ENDSEC
  0
SECTION
  2
OBJECTS
  0
DICTIONARY
  5
C
100
AcDbDictionary
280
0
281
1
  3
ACAD_GROUP
350
D
  3
ACAD_MLINESTYLE
350
17
  3
ACAD_LAYOUT
350
1A
  3
ACAD_PLOTSETTINGS
350
19
  3
ACAD_PLOTSTYLENAME
350
E
  0
DICTIONARY
  5
D
102
{ACAD_REACTORS
330
C
102
}
100
AcDbDictionary
280
0
281
1
  0
ACDBDICTIONARYWDFLT
  5
E
102
{ACAD_REACTORS
330
C
102
}
100
AcDbDictionary
281
1
  3
Normal
350
F
100
AcDbDictionaryWithDefault
340
F
  0
DICTIONARY
  5
17
102
{ACAD_REACTORS
330
C
102
}
100
AcDbDictionary
280
0
281
1
  3
Standard
350
18
  0
DICTIONARY
  5
19
102
{ACAD_REACTORS
330
C
102
}
100
AcDbDictionary
281
1
  0
DICTIONARY
  5
1A
102
{ACAD_REACTORS
330
C
102
}
100
AcDbDictionary
281
1
  3
Model
350
2CA
  3
Layout1
350
2CB
  0
ACDBPLACEHOLDER
  5
F
102
{ACAD_REACTORS
330
E
102
}
  0
MLINESTYLE
  5
18
102
{ACAD_REACTORS
330
17
102
}
100
AcDbMlineStyle
  2
STANDARD
 70
0
  3

 62
256
 51
90.0
 52
90.0
 71
2
 49
0.5
 62
256
  6
BYLAYER
 49
-0.5
 62
256
  6
BYLAYER
  0
LAYOUT
  5
2CA
102
{ACAD_REACTORS
330
1A
102
}
100
AcDbPlotSettings
  1

  2
none_device
  4
ANSI_C_(22.00_x_17.00_Inches)
  6

 40
0.0
 41
0.0
 42
0.0
 43
0.0
 44
558.8
 45
431.8
 46
0.0
 47
0.0
 48
0.0
 49
0.0
140
0.0
141
0.0
142
1.0
143
1.0
 70
1024
 72
0
 73
0
 74
0
  7

 75
0
147
1.0
148
0.0
149
0.0
100
AcDbLayout
  1
Model
 70
0
 71
0
 10
0.0
 20
0.0
 11
22.0
 21
17.0
 12
0.0
 22
0.0
 32
0.0
 14
0.0
 24
0.0
 34
0.0
 15
0.0
 25
0.0
 35
0.0
146
0.0
 13
0.0
 23
0.0
 33
0.0
 16
1.0
 26
0.0
 36
0.0
 17
0.0
 27
1.0
 37
0.0
 76
0
330
216
345
0
346
0
  0
LAYOUT
  5
2CB
102
{ACAD_REACTORS
330
1A
102
}
100
AcDbPlotSettings
  1

  2
none_device
  4
ANSI_C_(22.00_x_17.00_Inches)
  6

 40
0.0
 41
0.0
 42
0.0
 43
0.0
 44
558.8
 45
431.8
 46
0.0
 47
0.0
 48
0.0
 49
0.0
140
0.0
141
0.0
142
1.0
143
1.0
 70
0
 72
0
 73
0
 74
0
  7

 75
0
147
1.0
148
0.0
149
0.0
100
AcDbLayout
  1
Layout1
 70
0
 71
1
 10
0.0
 20
0.0
 11
22.0
 21
17.0
 12
0.0
 22
0.0
 32
0.0
 14
0.0
 24
0.0
 34
0.0
 15
0.0
 25
0.0
 35
0.0
146
0.0
 13
0.0
 23
0.0
 33
0.0
 16
1.0
 26
0.0
 36
0.0
 17
0.0
 27
1.0
 37
0.0
 76
0
330
217
345
0
346
0
  0
ENDSEC
  0
EOF