999
DXF file: _cgs_temp_output.dxf
999
Pro/ENGINEER 2016360 by Parametric Technology Corporation
  0
SECTION
  2
HEADER
  9
$ACADVER
  1
AC1021
  9
$DWGCODEPAGE
  3
ANSI_1252
  9
$EXTMAX
 10
22.0
 20
17.0
 30
0.0
  9
$EXTMIN
 10
0.0
 20
0.0
 30
0.0
  9
$LIMMIN
 10
0.0
 20
0.0
  9
$LIMMAX
 10
22.0
 20
17.0
  9
$VIEWCTR
 10
11.0
 20
8.5
  9
$VIEWSIZE
 40
17.0
  9
$CLAYER
  8
0
  9
$LTSCALE
 40
1.21
  9
$CELTYPE
  6
BYLAYER
  9
$DIMSCALE
 40
1.0
  9
$DIMASZ
 40
0.1875
  9
$DIMEXO
 40
0.0625
  9
$DIMDLI
 40
0.836
  9
$DIMEXE
 40
0.125
  9
$DIMCEN
 40
0.198
  9
$DIMLFAC
 40
1.0
  9
$DIMBLK
  1
_CLOSED
  9
$DIMALT
 70
0
  9
$DIMALTF
 40
25.4
  9
$DIMTXT
 40
0.15625
  9
$DIMTOL
 70
0
  9
$DIMLIM
 70
0
  9
$DIMTFAC
 40
1.0
  9
$DIMGAP
 40
0.09
  9
$DIMDSEP
 70
46
  9
$AUNITS
 70
0
  9
$PDMODE
 70
3
  9
$PDSIZE
 40
0.3125
  9
$HANDSEED
  5
2CB
  9
$TILEMODE
 70
1
  9
$MEASUREMENT
 70
0
  9
$INSUNITS
 70
1
  0
ENDSEC
  0
SECTION
  2
CLASSES
  0
CLASS
  1
ACDBDICTIONARYWDFLT
  2
AcDbDictionaryWithDefault
  3
AutoCAD 2000
 90
0
 91
1
280
0
281
0
  0
CLASS
  1
ACDBPLACEHOLDER
  2
AcDbPlaceHolder
  3
AutoCAD 2000
 90
0
 91
1
280
0
281
0
  0
CLASS
  1
LAYOUT
  2
AcDbLayout
  3
AutoCAD 2000
 90
0
 91
0
280
0
281
0
  0
ENDSEC
  0
SECTION
  2
TABLES
  0
TABLE
  2
VPORT
  5
8
100
AcDbSymbolTable
 70
2
  0
VPORT
  5
1F4
100
AcDbSymbolTableRecord
100
AcDbViewportTableRecord
  2
*ACTIVE
 70
0
 10
0.0
 20
0.0
 11
1.0
 21
1.0
 12
11.0
 22
8.5
 13
0.0
 23
0.0
 14
1.0
 24
1.0
 15
0.0
 25
0.0
 16
0.0
 26
0.0
 36
1.0
 17
0.0
 27
0.0
 37
0.0
 40
17.0
 41
1.2941176471
 42
50.0
 43
0.0
 44
0.0
 50
0.0
 51
0.0
 71
0
 72
100
 73
1
 74
1
 75
0
 76
0
 77
0
 78
0
  0
ENDTAB
  0
TABLE
  2
LTYPE
  5
5
100
AcDbSymbolTable
 70
6
  0
LTYPE
  5
14
100
AcDbSymbolTableRecord
100
AcDbLinetypeTableRecord
  2
BYBLOCK
 70
0
  3

 72
65
 73
0
 40
0.0
  0
LTYPE
  5
15
100
AcDbSymbolTableRecord
100
AcDbLinetypeTableRecord
  2
BYLAYER
 70
0
  3

 72
65
 73
0
 40
0.0
  0
LTYPE
  5
16
100
AcDbSymbolTableRecord
100
AcDbLinetypeTableRecord
  2
CONTINUOUS
 70
64
  3
Solid line
 72
65
 73
0
 40
0.0
  0
LTYPE
  5
1F5
100
AcDbSymbolTableRecord
100
AcDbLinetypeTableRecord
  2
CENTER
 70
64
  3
____ _ ____ _ ____ _ ____ _ ____ _ ____ _ ____
 72
65
 73
4
 40
0.6
 49
0.375
 74
0
 49
-0.075
 74
0
 49
0.075
 74
0
 49
-0.075
 74
0
  0
LTYPE
  5
1F6
100
AcDbSymbolTableRecord
100
AcDbLinetypeTableRecord
  2
HIDDEN
 70
64
  3
- - - - - - - - - - - - - - - - - - - -
 72
65
 73
2
 40
0.2
 49
0.1
 74
0
 49
-0.1
 74
0
  0
LTYPE
  5
1F7
100
AcDbSymbolTableRecord
100
AcDbLinetypeTableRecord
  2
PHANTOM
 70
64
  3
_____ _ _ _____ _ _ _____ _ _ _____
 72
65
 73
6
 40
0.8
 49
0.45
 74
0
 49
-0.05
 74
0
 49
0.1
 74
0
 49
-0.05
 74
0
 49
0.1
 74
0
 49
-0.05
 74
0
  0
LTYPE
  5
1F8
100
AcDbSymbolTableRecord
100
AcDbLinetypeTableRecord
  2
DOT
 70
64
  3
. . . . . . . . . . . . . . . . . . . .
 72
65
 73
2
 40
0.2
 49
0.1
 74
0
 49
-0.1
 74
0
  0
LTYPE
  5
1F9
100
AcDbSymbolTableRecord
100
AcDbLinetypeTableRecord
  2
DASHED
 70
64
  3
- - - - - - - - - - - - - - - - - - - -
 72
65
 73
2
 40
0.2
 49
0.1
 74
0
 49
-0.1
 74
0
  0
ENDTAB
  0
TABLE
  2
LAYER
  5
2
100
AcDbSymbolTable
 70
36
  0
LAYER
  5
10
100
AcDbSymbolTableRecord
100
AcDbLayerTableRecord
  2
0
 70
0
 62
7
  6
CONTINUOUS
370
-3
390
F
  0
LAYER
  5
1FA
100
AcDbSymbolTableRecord
100
AcDbLayerTableRecord
  2
DEFAULT_1
 70
0
 62
7
  6
CENTER
370
-3
390
F
  0
LAYER
  5
1FB
100
AcDbSymbolTableRecord
100
AcDbLayerTableRecord
  2
DEFAULT_2
 70
0
 62
8
  6
HIDDEN
370
-3
390
F
  0
LAYER
  5
1FC
100
AcDbSymbolTableRecord
100
AcDbLayerTableRecord
  2
DEFAULT_3
 70
0
 62
7
  6
PHANTOM
370
-3
390
F
  0
LAYER
  5
1FD
100
AcDbSymbolTableRecord
100
AcDbLayerTableRecord
  2
01_ALL_DTM_PLN
 70
0
 62
7
  6
CONTINUOUS
370
-3
390
F
  0
LAYER
  5
1FE
100
AcDbSymbolTableRecord
100
AcDbLayerTableRecord
  2
01__ASM_ALL_DTM_PLN
 70
0
 62
7
  6
CONTINUOUS
370
-3
390
F
  0
LAYER
  5
1FF
100
AcDbSymbolTableRecord
100
AcDbLayerTableRecord
  2
01__ASM_DEF_DTM_PLN
 70
0
 62
7
  6
CONTINUOUS
370
-3
390
F
  0
LAYER
  5
200
100
AcDbSymbolTableRecord
100
AcDbLayerTableRecord
  2
01___PRT_ALL_DTM_PLN
 70
0
 62
7
  6
CONTINUOUS
370
-3
390
F
  0
LAYER
  5
201
100
AcDbSymbolTableRecord
100
AcDbLayerTableRecord
  2
01___PRT_DEF_DTM_PLN
 70
0
 62
7
  6
CONTINUOUS
370
-3
390
F
  0
LAYER
  5
202
100
AcDbSymbolTableRecord
100
AcDbLayerTableRecord
  2
02_ALL_AXES
 70
0
 62
7
  6
CONTINUOUS
370
-3
390
F
  0
LAYER
  5
203
100
AcDbSymbolTableRecord
100
AcDbLayerTableRecord
  2
02__ASM_ALL_AXES
 70
0
 62
7
  6
CONTINUOUS
370
-3
390
F
  0
LAYER
  5
204
100
AcDbSymbolTableRecord
100
AcDbLayerTableRecord
  2
02___PRT_ALL_AXES
 70
0
 62
7
  6
CONTINUOUS
370
-3
390
F
  0
LAYER
  5
205
100
AcDbSymbolTableRecord
100
AcDbLayerTableRecord
  2
03_ALL_CURVES
 70
0
 62
7
  6
CONTINUOUS
370
-3
390
F
  0
LAYER
  5
206
100
AcDbSymbolTableRecord
100
AcDbLayerTableRecord
  2
03__ASM_ALL_CURVES
 70
0
 62
7
  6
CONTINUOUS
370
-3
390
F
  0
LAYER
  5
207
100
AcDbSymbolTableRecord
100
AcDbLayerTableRecord
  2
03___PRT_ALL_CURVES
 70
0
 62
7
  6
CONTINUOUS
370
-3
390
F
  0
LAYER
  5
208
100
AcDbSymbolTableRecord
100
AcDbLayerTableRecord
  2
04_ALL_DTM_PNT
 70
0
 62
7
  6
CONTINUOUS
370
-3
390
F
  0
LAYER
  5
209
100
AcDbSymbolTableRecord
100
AcDbLayerTableRecord
  2
04__ASM_ALL_DTM_PNT
 70
0
 62
7
  6
CONTINUOUS
370
-3
390
F
  0
LAYER
  5
20A
100
AcDbSymbolTableRecord
100
AcDbLayerTableRecord
  2
04___PRT_ALL_DTM_PNT
 70
0
 62
7
  6
CONTINUOUS
370
-3
390
F
  0
LAYER
  5
20B
100
AcDbSymbolTableRecord
100
AcDbLayerTableRecord
  2
05_ALL_DTM_CSYS
 70
0
 62
7
  6
CONTINUOUS
370
-3
390
F
  0
LAYER
  5
20C
100
AcDbSymbolTableRecord
100
AcDbLayerTableRecord
  2
05__ASM_ALL_DTM_CSYS
 70
0
 62
7
  6
CONTINUOUS
370
-3
390
F
  0
LAYER
  5
20D
100
AcDbSymbolTableRecord
100
AcDbLayerTableRecord
  2
05__ASM_DEF_DTM_CSYS
 70
0
 62
7
  6
CONTINUOUS
370
-3
390
F
  0
LAYER
  5
20E
100
AcDbSymbolTableRecord
100
AcDbLayerTableRecord
  2
05___PRT_ALL_DTM_CSYS
 70
0
 62
7
  6
CONTINUOUS
370
-3
390
F
  0
LAYER
  5
20F
100
AcDbSymbolTableRecord
100
AcDbLayerTableRecord
  2
05___PRT_DEF_DTM_CSYS
 70
0
 62
7
  6
CONTINUOUS
370
-3
390
F
  0
LAYER
  5
210
100
AcDbSymbolTableRecord
100
AcDbLayerTableRecord
  2
06_ALL_SURFS
 70
0
 62
7
  6
CONTINUOUS
370
-3
390
F
  0
LAYER
  5
211
100
AcDbSymbolTableRecord
100
AcDbLayerTableRecord
  2
06__ASM_ALL_SURFS
 70
0
 62
7
  6
CONTINUOUS
370
-3
390
F
  0
LAYER
  5
212
100
AcDbSymbolTableRecord
100
AcDbLayerTableRecord
  2
06___PRT_ALL_SURFS
 70
0
 62
7
  6
CONTINUOUS
370
-3
390
F
  0
LAYER
  5
213
100
AcDbSymbolTableRecord
100
AcDbLayerTableRecord
  2
07__ASM_ALL_SKELETONS
 70
0
 62
7
  6
CONTINUOUS
370
-3
390
F
  0
ENDTAB
  0
TABLE
  2
STYLE
  5
3
100
AcDbSymbolTable
 70
1
  0
STYLE
  5
11
100
AcDbSymbolTableRecord
100
AcDbTextStyleTableRecord
  2
STANDARD
 70
0
 40
0.0
 41
0.8
 50
0.0
 71
0
 42
0.2
  3
txt
  4

  0
STYLE
  5
214
100
AcDbSymbolTableRecord
100
AcDbTextStyleTableRecord
  2
TEXTSTYLE_1
 70
0
 40
0.0
 41
0.8
 50
0.0
 71
0
 42
0.2
  3
gdt
  4

  0
ENDTAB
  0
TABLE
  2
VIEW
  5
6
100
AcDbSymbolTable
 70
0
  0
ENDTAB
  0
TABLE
  2
UCS
  5
7
100
AcDbSymbolTable
 70
0
  0
ENDTAB
  0
TABLE
  2
APPID
  5
9
100
AcDbSymbolTable
 70
1
  0
APPID
  5
215
100
AcDbSymbolTableRecord
100
AcDbRegAppTableRecord
  2
ACAD
 70
0
  0
ENDTAB
  0
TABLE
  2
BLOCK_RECORD
  5
1
100
AcDbSymbolTable
 70
0
  0
BLOCK_RECORD
  5
216
100
AcDbSymbolTableRecord
100
AcDbBlockTableRecord
  2
*Model_Space
  0
BLOCK_RECORD
  5
217
100
AcDbSymbolTableRecord
100
AcDbBlockTableRecord
  2
*Paper_Space
  0
ENDTAB
  0
TABLE
  2
DIMSTYLE
  5
A
100
AcDbSymbolTable
 70
1
100
AcDbDimStyleTable
 71
0
  0
DIMSTYLE
105
218
100
AcDbSymbolTableRecord
100
AcDbDimStyleTableRecord
  2
STANDARD
 70
0
  3

  4

 40
1.0
 41
0.1875
 42
0.0625
 43
0.38
 44
0.125
 45
0.0
 46
0.0
 47
0.0001
 48
0.0001
140
0.15625
141
0.09
142
0.0
143
25.4
144
1.0
145
0.0
146
1.0
147
0.09
 71
0.0
 72
0.0
 73
1
 74
1
 75
0
 76
0
 77
0
 78
4
 79
1
170
0
171
3
172
0
173
0
174
0
175
0
176
0
177
0
178
0
270
2
179
4
271
4
272
4
273
2
274
2
275
0
280
0
281
0
282
0
283
1
284
4
285
0
286
0
287
3
288
0
340
11
278
46
  0
ENDTAB
  0
ENDSEC
  0
SECTION
  2
BLOCKS
  0
BLOCK
  5
20
100
AcDbEntity
  8
0
100
AcDbBlockBegin
  2
*Model_Space
 70
0
 10
0.0
 20
0.0
 30
0.0
  3
*Model_Space
  1

  0
ENDBLK
  5
21
100
AcDbEntity
  8
0
100
AcDbBlockEnd
  0
BLOCK
  5
1C
100
AcDbEntity
  8
0
100
AcDbBlockBegin
  2
*Paper_Space
 70
0
 10
0.0
 20
0.0
 30
0.0
  3
*Paper_Space
  1

  0
ENDBLK
  5
1D
100
AcDbEntity
  8
0
100
AcDbBlockEnd
  0
ENDSEC
  0
SECTION
  2
ENTITIES
  0
MTEXT
  5
219
100
AcDbEntity
  8
0
100
AcDbMText
 62
7
  6
CONTINUOUS
  7
STANDARD
 71
1
 72
1
 10
15.9560215477
 20
0.9479130325
 30
0.0
 11
1.0
 21
0.0
 31
0.0
 44
0.9
  1
SCALE: 1:3.000
 40
0.3
 41
3.36
  0
LINE
  5
21A
100
AcDbEntity
  8
0
100
AcDbLine
 62
7
  6
CONTINUOUS
 10
0.0
 20
0.0
 11
0.0
 21
17.0
  0
LINE
  5
21B
100
AcDbEntity
  8
0
100
AcDbLine
 62
7
  6
CONTINUOUS
 10
0.0
 20
0.0
 11
22.0
 21
0.0
  0
LINE
  5
21C
100
AcDbEntity
  8
0
100
AcDbLine
 62
7
  6
CONTINUOUS
 10
0.0
 20
17.0
 11
22.0
 21
17.0
  0
LINE
  5
21D
100
AcDbEntity
  8
0
100
AcDbLine
 62
7
  6
CONTINUOUS
 10
22.0
 20
0.0
 11
22.0
 21
17.0
  0
LINE
  5
21E
100
AcDbEntity
  8
0
100
AcDbLine
 62
7
  6
CONTINUOUS
 10
4.3587137329
 20
5.6795687157
 11
4.3587137329
 21
5.5260254086
  0
LINE
  5
21F
100
AcDbEntity
  8
0
100
AcDbLine
 62
7
  6
CONTINUOUS
 10
4.4648222619
 20
5.4521546398
 11
4.495556857
 21
5.3862440879
  0
LINE
  5
220
100
AcDbEntity
  8
0
100
AcDbLine
 62
7
  6
CONTINUOUS
 10
4.3587137329
 20
5.5260254086
 11
4.3823357801
 21
5.5024033613
  0
LINE
  5
221
100
AcDbEntity
  8
0
100
AcDbLine
 62
7
  6
CONTINUOUS
 10
4.8124217899
 20
5.3862440879
 11
4.8431563849
 21
5.4521546398
  0
LINE
  5
222
100
AcDbEntity
  8
0
100
AcDbLine
 62
7
  6
CONTINUOUS
 10
5.055373443
 20
5.4521546398
 11
5.0861080381
 21
5.3862440879
  0
LINE
  5
223
100
AcDbEntity
  8
0
100
AcDbLine
 62
7
  6
CONTINUOUS
 10
4.9256428667
 20
5.5024033613
 11
4.949264914
 21
5.5260254086
  0
LINE
  5
224
100
AcDbEntity
  8
0
100
AcDbLine
 62
7
  6
CONTINUOUS
 10
4.949264914
 20
5.5260254086
 11
4.9728869612
 21
5.5024033613
  0
LINE
  5
225
100
AcDbEntity
  8
0
100
AcDbLine
 62
7
  6
CONTINUOUS
 10
5.402972971
 20
5.3862440879
 11
5.4337075661
 21
5.4521546398
  0
LINE
  5
226
100
AcDbEntity
  8
0
100
AcDbLine
 62
7
  6
CONTINUOUS
 10
5.6459246241
 20
5.4521546398
 11
5.6766592192
 21
5.3862440879
  0
LINE
  5
227
100
AcDbEntity
  8
0
100
AcDbLine
 62
7
  6
CONTINUOUS
 10
5.5161940478
 20
5.5024033613
 11
5.5398160951
 21
5.5260254086
  0
LINE
  5
228
100
AcDbEntity
  8
0
100
AcDbLine
 62
7
  6
CONTINUOUS
 10
5.5398160951
 20
5.5260254086
 11
5.5634381423
 21
5.5024033613
  0
LINE
  5
229
100
AcDbEntity
  8
0
100
AcDbLine
 62
7
  6
CONTINUOUS
 10
4.535698442
 20
5.3606710779
 11
4.7722802048
 21
5.3606710779
  0
LINE
  5
22A
100
AcDbEntity
  8
0
100
AcDbLine
 62
7
  6
CONTINUOUS
 10
5.1262496231
 20
5.3606710779
 11
5.3628313859
 21
5.3606710779
  0
LINE
  5
22B
100
AcDbEntity
  8
0
100
AcDbLine
 62
7
  6
CONTINUOUS
 10
5.7168008042
 20
5.3606710779
 11
5.953382567
 21
5.3606710779
  0
LINE
  5
22C
100
AcDbEntity
  8
0
100
AcDbLine
 62
7
  6
CONTINUOUS
 10
6.3073519853
 20
5.3606710779
 11
6.5439337481
 21
5.3606710779
  0
LINE
  5
22D
100
AcDbEntity
  8
0
100
AcDbLine
 62
7
  6
CONTINUOUS
 10
6.8979031664
 20
5.3606710779
 11
7.1344849292
 21
5.3606710779
  0
LINE
  5
22E
100
AcDbEntity
  8
0
100
AcDbLine
 62
7
  6
CONTINUOUS
 10
7.4884543475
 20
5.3606710779
 11
7.7250361103
 21
5.3606710779
  0
LINE
  5
22F
100
AcDbEntity
  8
0
100
AcDbLine
 62
7
  6
CONTINUOUS
 10
5.9935241521
 20
5.3862440879
 11
6.0242587472
 21
5.4521546398
  0
LINE
  5
230
100
AcDbEntity
  8
0
100
AcDbLine
 62
7
  6
CONTINUOUS
 10
6.1067452289
 20
5.5024033613
 11
6.1303672762
 21
5.5260254086
  0
LINE
  5
231
100
AcDbEntity
  8
0
100
AcDbLine
 62
7
  6
CONTINUOUS
 10
4.3823357801
 20
5.5024033613
 11
4.3859475684
 21
5.5024033613
  0
LINE
  5
232
100
AcDbEntity
  8
0
100
AcDbLine
 62
7
  6
CONTINUOUS
 10
4.9220310784
 20
5.5024033613
 11
4.9256428667
 21
5.5024033613
  0
LINE
  5
233
100
AcDbEntity
  8
0
100
AcDbLine
 62
7
  6
CONTINUOUS
 10
4.9728869612
 20
5.5024033613
 11
4.9764987495
 21
5.5024033613
  0
LINE
  5
234
100
AcDbEntity
  8
0
100
AcDbLine
 62
7
  6
CONTINUOUS
 10
5.5125822595
 20
5.5024033613
 11
5.5161940478
 21
5.5024033613
  0
LINE
  5
235
100
AcDbEntity
  8
0
100
AcDbLine
 62
7
  6
CONTINUOUS
 10
5.5634381423
 20
5.5024033613
 11
5.5670499306
 21
5.5024033613
  0
LINE
  5
236
100
AcDbEntity
  8
0
100
AcDbLine
 62
7
  6
CONTINUOUS
 10
6.1031334406
 20
5.5024033613
 11
6.1067452289
 21
5.5024033613
  0
LINE
  5
237
100
AcDbEntity
  8
0
100
AcDbLine
 62
7
  6
CONTINUOUS
 10
6.1539893234
 20
5.5024033613
 11
6.1576011117
 21
5.5024033613
  0
LINE
  5
238
100
AcDbEntity
  8
0
100
AcDbLine
 62
7
  6
CONTINUOUS
 10
6.6936846217
 20
5.5024033613
 11
6.69729641
 21
5.5024033613
  0
LINE
  5
239
100
AcDbEntity
  8
0
100
AcDbLine
 62
7
  6
CONTINUOUS
 10
6.7445405045
 20
5.5024033613
 11
6.7481522928
 21
5.5024033613
  0
LINE
  5
23A
100
AcDbEntity
  8
0
100
AcDbLine
 62
7
  6
CONTINUOUS
 10
7.2842358028
 20
5.5024033613
 11
7.2878475911
 21
5.5024033613
  0
LINE
  5
23B
100
AcDbEntity
  8
0
100
AcDbLine
 62
7
  6
CONTINUOUS
 10
7.3350916856
 20
5.5024033613
 11
7.3387034739
 21
5.5024033613
  0
LINE
  5
23C
100
AcDbEntity
  8
0
100
AcDbLine
 62
7
  6
CONTINUOUS
 10
7.8747869839
 20
5.5024033613
 11
7.8783987722
 21
5.5024033613
  0
LINE
  5
23D
100
AcDbEntity
  8
0
100
AcDbLine
 62
7
  6
CONTINUOUS
 10
6.1303672762
 20
5.5260254086
 11
6.1539893234
 21
5.5024033613
  0
LINE
  5
23E
100
AcDbEntity
  8
0
100
AcDbLine
 62
7
  6
CONTINUOUS
 10
6.2364758052
 20
5.4521546398
 11
6.2672104003
 21
5.3862440879
  0
LINE
  5
23F
100
AcDbEntity
  8
0
100
AcDbLine
 62
7
  6
CONTINUOUS
 10
7.9020208195
 20
5.6795687157
 11
4.3587137329
 21
5.6795687157
  0
LINE
  5
240
100
AcDbEntity
  8
0
100
AcDbLine
 62
7
  6
CONTINUOUS
 10
6.5840753332
 20
5.3862440879
 11
6.6148099283
 21
5.4521546398
  0
LINE
  5
241
100
AcDbEntity
  8
0
100
AcDbLine
 62
7
  6
CONTINUOUS
 10
6.69729641
 20
5.5024033613
 11
6.7209184573
 21
5.5260254086
  0
LINE
  5
242
100
AcDbEntity
  8
0
100
AcDbLine
 62
7
  6
CONTINUOUS
 10
6.7209184573
 20
5.5260254086
 11
6.7445405045
 21
5.5024033613
  0
LINE
  5
243
100
AcDbEntity
  8
0
100
AcDbLine
 62
7
  6
CONTINUOUS
 10
6.8270269863
 20
5.4521546398
 11
6.8577615814
 21
5.3862440879
  0
LINE
  5
244
100
AcDbEntity
  8
0
100
AcDbLine
 62
7
  6
CONTINUOUS
 10
7.2878475911
 20
5.5024033613
 11
7.3114696384
 21
5.5260254086
  0
LINE
  5
245
100
AcDbEntity
  8
0
100
AcDbLine
 62
7
  6
CONTINUOUS
 10
7.3114696384
 20
5.5260254086
 11
7.3350916856
 21
5.5024033613
  0
LINE
  5
246
100
AcDbEntity
  8
0
100
AcDbLine
 62
7
  6
CONTINUOUS
 10
7.1746265143
 20
5.3862440879
 11
7.2053611094
 21
5.4521546398
  0
LINE
  5
247
100
AcDbEntity
  8
0
100
AcDbLine
 62
7
  6
CONTINUOUS
 10
7.4175781674
 20
5.4521546398
 11
7.4483127625
 21
5.3862440879
  0
LINE
  5
248
100
AcDbEntity
  8
0
100
AcDbLine
 62
7
  6
CONTINUOUS
 10
7.8783987722
 20
5.5024033613
 11
7.9020208195
 21
5.5260254086
  0
LINE
  5
249
100
AcDbEntity
  8
0
100
AcDbLine
 62
7
  6
CONTINUOUS
 10
7.7651776954
 20
5.3862440879
 11
7.7959122905
 21
5.4521546398
  0
LINE
  5
24A
100
AcDbEntity
  8
0
100
AcDbLine
 62
7
  6
CONTINUOUS
 10
7.9020208195
 20
5.5260254086
 11
7.9020208195
 21
5.6795687157
  0
LINE
  5
24B
100
AcDbEntity
  8
0
100
AcDbLine
 62
7
  6
CONTINUOUS
 10
4.2992185406
 20
13.7811501436
 11
4.2992185406
 21
11.4189454192
  0
LINE
  5
24C
100
AcDbEntity
  8
0
100
AcDbLine
 62
7
  6
CONTINUOUS
 10
7.8425256272
 20
11.4189454192
 11
4.2992185406
 21
11.4189454192
  0
LINE
  5
24D
100
AcDbEntity
  8
0
100
AcDbLine
 62
7
  6
CONTINUOUS
 10
4.2992185406
 20
13.7811501436
 11
7.8425256272
 21
13.7811501436
  0
LINE
  5
24E
100
AcDbEntity
  8
0
100
AcDbLine
 62
7
  6
CONTINUOUS
 10
7.8425256272
 20
13.7811501436
 11
7.8425256272
 21
11.4189454192
  0
LINE
  5
24F
100
AcDbEntity
  8
0
100
AcDbLine
 62
7
  6
CONTINUOUS
 10
14.3792528947
 20
5.3011758855
 11
14.3792528947
 21
5.6200735233
  0
LINE
  5
250
100
AcDbEntity
  8
0
100
AcDbLine
 62
7
  6
CONTINUOUS
 10
14.3792528947
 20
5.3011758855
 11
16.7414576191
 21
5.3011758855
  0
LINE
  5
251
100
AcDbEntity
  8
0
100
AcDbLine
 62
7
  6
CONTINUOUS
 10
16.7414576191
 20
5.442908169
 11
14.3792528947
 21
5.442908169
  0
LINE
  5
252
100
AcDbEntity
  8
0
100
AcDbLine
 62
7
  6
CONTINUOUS
 10
16.7414576191
 20
5.4665302163
 11
14.3792528947
 21
5.4665302163
  0
LINE
  5
253
100
AcDbEntity
  8
0
100
AcDbLine
 62
7
  6
CONTINUOUS
 10
16.7414576191
 20
5.6200735233
 11
14.3792528947
 21
5.6200735233
  0
LINE
  5
254
100
AcDbEntity
  8
0
100
AcDbLine
 62
7
  6
CONTINUOUS
 10
16.7414576191
 20
5.3011758855
 11
16.7414576191
 21
5.6200735233
  0
LINE
  5
255
100
AcDbEntity
  8
0
100
AcDbLine
 62
7
  6
CONTINUOUS
 10
13.52998782
 20
11.6847307048
 11
13.576824957
 21
11.5892866546
  0
LINE
  5
256
100
AcDbEntity
  8
0
100
AcDbLine
 62
7
  6
CONTINUOUS
 10
13.6970910614
 20
11.5433678483
 11
13.7455049758
 21
11.5023971923
  0
LINE
  5
257
100
AcDbEntity
  8
0
100
AcDbLine
 62
7
  6
CONTINUOUS
 10
14.1017980327
 20
13.5351092315
 11
13.52998782
 21
11.6847307048
  0
LINE
  5
258
100
AcDbEntity
  8
0
100
AcDbLine
 62
7
  6
CONTINUOUS
 10
13.576824957
 20
11.5892866546
 11
13.6057880167
 21
11.5746029545
  0
LINE
  5
259
100
AcDbEntity
  8
0
100
AcDbLine
 62
7
  6
CONTINUOUS
 10
14.2410247192
 20
11.5433678483
 11
14.2894386337
 21
11.5023971923
  0
LINE
  5
25A
100
AcDbEntity
  8
0
100
AcDbLine
 62
7
  6
CONTINUOUS
 10
14.1207586148
 20
11.5892866546
 11
14.1497216745
 21
11.5746029545
  0
LINE
  5
25B
100
AcDbEntity
  8
0
100
AcDbLine
 62
7
  6
CONTINUOUS
 10
14.0373569059
 20
11.5023971923
 11
14.0455598648
 21
11.5433678483
  0
LINE
  5
25C
100
AcDbEntity
  8
0
100
AcDbLine
 62
7
  6
CONTINUOUS
 10
14.6646922727
 20
11.5892866546
 11
14.6936553324
 21
11.5746029545
  0
LINE
  5
25D
100
AcDbEntity
  8
0
100
AcDbLine
 62
7
  6
CONTINUOUS
 10
14.7849583771
 20
11.5433678483
 11
14.8333722916
 21
11.5023971923
  0
LINE
  5
25E
100
AcDbEntity
  8
0
100
AcDbLine
 62
7
  6
CONTINUOUS
 10
14.0369930085
 20
11.500955187
 11
14.0373569059
 21
11.5023971923
  0
LINE
  5
25F
100
AcDbEntity
  8
0
100
AcDbLine
 62
7
  6
CONTINUOUS
 10
14.0455598648
 20
11.5433678483
 11
14.0462766962
 21
11.5462007057
  0
LINE
  5
260
100
AcDbEntity
  8
0
100
AcDbLine
 62
7
  6
CONTINUOUS
 10
14.0369910519
 20
11.5009557906
 11
14.0549238389
 21
11.5589863107
  0
LINE
  5
261
100
AcDbEntity
  8
0
100
AcDbLine
 62
7
  6
CONTINUOUS
 10
13.7902786628
 20
11.4865007543
 11
14.0081848964
 21
11.4865007543
  0
LINE
  5
262
100
AcDbEntity
  8
0
100
AcDbLine
 62
7
  6
CONTINUOUS
 10
14.3342123207
 20
11.4865007543
 11
14.5521185543
 21
11.4865007543
  0
LINE
  5
263
100
AcDbEntity
  8
0
100
AcDbLine
 62
7
  6
CONTINUOUS
 10
14.8781459786
 20
11.4865007543
 11
15.0960522121
 21
11.4865007543
  0
LINE
  5
264
100
AcDbEntity
  8
0
100
AcDbLine
 62
7
  6
CONTINUOUS
 10
15.4220796364
 20
11.4865007543
 11
15.63998587
 21
11.4865007543
  0
LINE
  5
265
100
AcDbEntity
  8
0
100
AcDbLine
 62
7
  6
CONTINUOUS
 10
15.9660132943
 20
11.4865007543
 11
16.1839195279
 21
11.4865007543
  0
LINE
  5
266
100
AcDbEntity
  8
0
100
AcDbLine
 62
7
  6
CONTINUOUS
 10
16.5099469522
 20
11.4865007543
 11
16.7278531858
 21
11.4865007543
  0
LINE
  5
267
100
AcDbEntity
  8
0
100
AcDbLine
 62
7
  6
CONTINUOUS
 10
13.6057880167
 20
11.5746029545
 11
13.609114694
 21
11.5746029545
  0
LINE
  5
268
100
AcDbEntity
  8
0
100
AcDbLine
 62
7
  6
CONTINUOUS
 10
14.1028803046
 20
11.5746029545
 11
14.1062069819
 21
11.5746029545
  0
LINE
  5
269
100
AcDbEntity
  8
0
100
AcDbLine
 62
7
  6
CONTINUOUS
 10
14.1497216745
 20
11.5746029545
 11
14.1530483519
 21
11.5746029545
  0
LINE
  5
26A
100
AcDbEntity
  8
0
100
AcDbLine
 62
7
  6
CONTINUOUS
 10
14.6468139624
 20
11.5746029545
 11
14.6501406398
 21
11.5746029545
  0
LINE
  5
26B
100
AcDbEntity
  8
0
100
AcDbLine
 62
7
  6
CONTINUOUS
 10
14.6936553324
 20
11.5746029545
 11
14.6969820098
 21
11.5746029545
  0
LINE
  5
26C
100
AcDbEntity
  8
0
100
AcDbLine
 62
7
  6
CONTINUOUS
 10
15.1907476203
 20
11.5746029545
 11
15.1940742977
 21
11.5746029545
  0
LINE
  5
26D
100
AcDbEntity
  8
0
100
AcDbLine
 62
7
  6
CONTINUOUS
 10
15.2375889903
 20
11.5746029545
 11
15.2409156676
 21
11.5746029545
  0
LINE
  5
26E
100
AcDbEntity
  8
0
100
AcDbLine
 62
7
  6
CONTINUOUS
 10
15.7346812782
 20
11.5746029545
 11
15.7380079555
 21
11.5746029545
  0
LINE
  5
26F
100
AcDbEntity
  8
0
100
AcDbLine
 62
7
  6
CONTINUOUS
 10
15.7815226482
 20
11.5746029545
 11
15.7848493255
 21
11.5746029545
  0
LINE
  5
270
100
AcDbEntity
  8
0
100
AcDbLine
 62
7
  6
CONTINUOUS
 10
16.2786149361
 20
11.5746029545
 11
16.2819416134
 21
11.5746029545
  0
LINE
  5
271
100
AcDbEntity
  8
0
100
AcDbLine
 62
7
  6
CONTINUOUS
 10
16.325456306
 20
11.5746029545
 11
16.3287829834
 21
11.5746029545
  0
LINE
  5
272
100
AcDbEntity
  8
0
100
AcDbLine
 62
7
  6
CONTINUOUS
 10
16.8225485939
 20
11.5746029545
 11
16.8258752713
 21
11.5746029545
  0
LINE
  5
273
100
AcDbEntity
  8
0
100
AcDbLine
 62
7
  6
CONTINUOUS
 10
15.2086259306
 20
11.5892866546
 11
15.2375889903
 21
11.5746029545
  0
LINE
  5
274
100
AcDbEntity
  8
0
100
AcDbLine
 62
7
  6
CONTINUOUS
 10
16.7935897672
 20
11.6847307048
 11
13.52998782
 21
11.6847307048
  0
LINE
  5
275
100
AcDbEntity
  8
0
100
AcDbLine
 62
7
  6
CONTINUOUS
 10
15.328892035
 20
11.5433678483
 11
15.3773059495
 21
11.5023971923
  0
LINE
  5
276
100
AcDbEntity
  8
0
100
AcDbLine
 62
7
  6
CONTINUOUS
 10
14.5812905638
 20
11.5023971923
 11
14.5894935227
 21
11.5433678483
  0
LINE
  5
277
100
AcDbEntity
  8
0
100
AcDbLine
 62
7
  6
CONTINUOUS
 10
14.5894935227
 20
11.5433678483
 11
14.590208481
 21
11.5462012832
  0
LINE
  5
278
100
AcDbEntity
  8
0
100
AcDbLine
 62
7
  6
CONTINUOUS
 10
14.5809190794
 20
11.5009575327
 11
14.5812905638
 21
11.5023971923
  0
LINE
  5
279
100
AcDbEntity
  8
0
100
AcDbLine
 62
7
  6
CONTINUOUS
 10
15.7525595885
 20
11.5892866546
 11
15.7815226482
 21
11.5746029545
  0
LINE
  5
27A
100
AcDbEntity
  8
0
100
AcDbLine
 62
7
  6
CONTINUOUS
 10
14.5809247098
 20
11.5009557906
 11
14.5988570176
 21
11.5589847598
  0
LINE
  5
27B
100
AcDbEntity
  8
0
100
AcDbLine
 62
7
  6
CONTINUOUS
 10
16.2964932463
 20
11.5892866546
 11
16.325456306
 21
11.5746029545
  0
LINE
  5
27C
100
AcDbEntity
  8
0
100
AcDbLine
 62
7
  6
CONTINUOUS
 10
15.8728256929
 20
11.5433678483
 11
15.9212396074
 21
11.5023971923
  0
LINE
  5
27D
100
AcDbEntity
  8
0
100
AcDbLine
 62
7
  6
CONTINUOUS
 10
14.1062069819
 20
11.5746029545
 11
14.1207586148
 21
11.5892866546
  0
LINE
  5
27E
100
AcDbEntity
  8
0
100
AcDbLine
 62
7
  6
CONTINUOUS
 10
15.1252242216
 20
11.5023971923
 11
15.1334271806
 21
11.5433678483
  0
LINE
  5
27F
100
AcDbEntity
  8
0
100
AcDbLine
 62
7
  6
CONTINUOUS
 10
16.4167593507
 20
11.5433678483
 11
16.4651732652
 21
11.5023971923
  0
LINE
  5
280
100
AcDbEntity
  8
0
100
AcDbLine
 62
7
  6
CONTINUOUS
 10
15.1334271806
 20
11.5433678483
 11
15.1341421389
 21
11.5462012832
  0
LINE
  5
281
100
AcDbEntity
  8
0
100
AcDbLine
 62
7
  6
CONTINUOUS
 10
15.1248527373
 20
11.5009575327
 11
15.1252242216
 21
11.5023971923
  0
LINE
  5
282
100
AcDbEntity
  8
0
100
AcDbLine
 62
7
  6
CONTINUOUS
 10
15.1248583676
 20
11.5009557906
 11
15.1427906754
 21
11.5589847598
  0
LINE
  5
283
100
AcDbEntity
  8
0
100
AcDbLine
 62
7
  6
CONTINUOUS
 10
14.6501406398
 20
11.5746029545
 11
14.6646922727
 21
11.5892866546
  0
LINE
  5
284
100
AcDbEntity
  8
0
100
AcDbLine
 62
7
  6
CONTINUOUS
 10
15.6691578795
 20
11.5023971923
 11
15.6773608385
 21
11.5433678483
  0
LINE
  5
285
100
AcDbEntity
  8
0
100
AcDbLine
 62
7
  6
CONTINUOUS
 10
15.6773608385
 20
11.5433678483
 11
15.6780757968
 21
11.5462012832
  0
LINE
  5
286
100
AcDbEntity
  8
0
100
AcDbLine
 62
7
  6
CONTINUOUS
 10
15.6687863951
 20
11.5009575327
 11
15.6691578795
 21
11.5023971923
  0
LINE
  5
287
100
AcDbEntity
  8
0
100
AcDbLine
 62
7
  6
CONTINUOUS
 10
15.6687920255
 20
11.5009557906
 11
15.6867243333
 21
11.5589847598
  0
LINE
  5
288
100
AcDbEntity
  8
0
100
AcDbLine
 62
7
  6
CONTINUOUS
 10
15.1940742977
 20
11.5746029545
 11
15.2086259306
 21
11.5892866546
  0
LINE
  5
289
100
AcDbEntity
  8
0
100
AcDbLine
 62
7
  6
CONTINUOUS
 10
15.7380079555
 20
11.5746029545
 11
15.7525595885
 21
11.5892866546
  0
LINE
  5
28A
100
AcDbEntity
  8
0
100
AcDbLine
 62
7
  6
CONTINUOUS
 10
16.8404269042
 20
11.5892866546
 11
16.7935897672
 21
11.6847307048
  0
LINE
  5
28B
100
AcDbEntity
  8
0
100
AcDbLine
 62
7
  6
CONTINUOUS
 10
16.2130915374
 20
11.5023971923
 11
16.2212944963
 21
11.5433678483
  0
LINE
  5
28C
100
AcDbEntity
  8
0
100
AcDbLine
 62
7
  6
CONTINUOUS
 10
16.2212944963
 20
11.5433678483
 11
16.2220094546
 21
11.5462012832
  0
LINE
  5
28D
100
AcDbEntity
  8
0
100
AcDbLine
 62
7
  6
CONTINUOUS
 10
16.212720053
 20
11.5009575327
 11
16.2130915374
 21
11.5023971923
  0
LINE
  5
28E
100
AcDbEntity
  8
0
100
AcDbLine
 62
7
  6
CONTINUOUS
 10
16.2127256834
 20
11.5009557906
 11
16.2306579912
 21
11.5589847598
  0
LINE
  5
28F
100
AcDbEntity
  8
0
100
AcDbLine
 62
7
  6
CONTINUOUS
 10
14.1017980327
 20
13.5351092315
 11
17.36539998
 21
13.5351092315
  0
LINE
  5
290
100
AcDbEntity
  8
0
100
AcDbLine
 62
7
  6
CONTINUOUS
 10
16.2819416134
 20
11.5746029545
 11
16.2964932463
 21
11.5892866546
  0
LINE
  5
291
100
AcDbEntity
  8
0
100
AcDbLine
 62
7
  6
CONTINUOUS
 10
16.7570251953
 20
11.5023971923
 11
16.7652281542
 21
11.5433678483
  0
LINE
  5
292
100
AcDbEntity
  8
0
100
AcDbLine
 62
7
  6
CONTINUOUS
 10
16.7652281542
 20
11.5433678483
 11
16.7659431125
 21
11.5462012832
  0
LINE
  5
293
100
AcDbEntity
  8
0
100
AcDbLine
 62
7
  6
CONTINUOUS
 10
16.7566537109
 20
11.5009575327
 11
16.7570251953
 21
11.5023971923
  0
LINE
  5
294
100
AcDbEntity
  8
0
100
AcDbLine
 62
7
  6
CONTINUOUS
 10
17.36539998
 20
13.5351092315
 11
16.7935897672
 21
11.6847307048
  0
LINE
  5
295
100
AcDbEntity
  8
0
100
AcDbLine
 62
7
  6
CONTINUOUS
 10
16.7566593413
 20
11.5009557906
 11
16.7745916491
 21
11.5589847598
  0
LINE
  5
296
100
AcDbEntity
  8
0
100
AcDbLine
 62
7
  6
CONTINUOUS
 10
17.412237117
 20
13.4396651813
 11
16.8404269042
 21
11.5892866546
  0
LINE
  5
297
100
AcDbEntity
  8
0
100
AcDbLine
 62
7
  6
CONTINUOUS
 10
16.8258752713
 20
11.5746029545
 11
16.8404269042
 21
11.5892866546
  0
LINE
  5
298
100
AcDbEntity
  8
0
100
AcDbLine
 62
7
  6
CONTINUOUS
 10
17.412237117
 20
13.4396651813
 11
17.36539998
 21
13.5351092315
  0
ARC
  5
299
100
AcDbEntity
  8
0
100
AcDbCircle
 62
7
  6
CONTINUOUS
 10
7.8747869839
 20
5.4153747662
 40
0.0870285951
100
AcDbArc
 50
90.0
 51
155.0
  0
ARC
  5
29A
100
AcDbEntity
  8
0
100
AcDbCircle
 62
7
  6
CONTINUOUS
 10
7.3387034739
 20
5.4153747662
 40
0.0870285951
100
AcDbArc
 50
25.0
 51
90.0
  0
ARC
  5
29B
100
AcDbEntity
  8
0
100
AcDbCircle
 62
7
  6
CONTINUOUS
 10
7.2842358028
 20
5.4153747662
 40
0.0870285951
100
AcDbArc
 50
90.0
 51
155.0
  0
ARC
  5
29C
100
AcDbEntity
  8
0
100
AcDbCircle
 62
7
  6
CONTINUOUS
 10
6.7481522928
 20
5.4153747662
 40
0.0870285951
100
AcDbArc
 50
25.0
 51
90.0
  0
ARC
  5
29D
100
AcDbEntity
  8
0
100
AcDbCircle
 62
7
  6
CONTINUOUS
 10
6.6936846217
 20
5.4153747662
 40
0.0870285951
100
AcDbArc
 50
90.0
 51
155.0
  0
ARC
  5
29E
100
AcDbEntity
  8
0
100
AcDbCircle
 62
7
  6
CONTINUOUS
 10
6.1576011117
 20
5.4153747662
 40
0.0870285951
100
AcDbArc
 50
25.0
 51
90.0
  0
ARC
  5
29F
100
AcDbEntity
  8
0
100
AcDbCircle
 62
7
  6
CONTINUOUS
 10
6.1031334406
 20
5.4153747662
 40
0.0870285951
100
AcDbArc
 50
90.0
 51
155.0
  0
ARC
  5
2A0
100
AcDbEntity
  8
0
100
AcDbCircle
 62
7
  6
CONTINUOUS
 10
5.5670499306
 20
5.4153747662
 40
0.0870285951
100
AcDbArc
 50
25.0
 51
90.0
  0
ARC
  5
2A1
100
AcDbEntity
  8
0
100
AcDbCircle
 62
7
  6
CONTINUOUS
 10
5.5125822595
 20
5.4153747662
 40
0.0870285951
100
AcDbArc
 50
90.0
 51
155.0
  0
ARC
  5
2A2
100
AcDbEntity
  8
0
100
AcDbCircle
 62
7
  6
CONTINUOUS
 10
4.9764987495
 20
5.4153747662
 40
0.0870285951
100
AcDbArc
 50
25.0
 51
90.0
  0
ARC
  5
2A3
100
AcDbEntity
  8
0
100
AcDbCircle
 62
7
  6
CONTINUOUS
 10
4.3859475684
 20
5.4153747662
 40
0.0870285951
100
AcDbArc
 50
25.0
 51
90.0
  0
ARC
  5
2A4
100
AcDbEntity
  8
0
100
AcDbCircle
 62
7
  6
CONTINUOUS
 10
4.9220310784
 20
5.4153747662
 40
0.0870285951
100
AcDbArc
 50
90.0
 51
155.0
  0
ARC
  5
2A5
100
AcDbEntity
  8
0
100
AcDbCircle
 62
7
  6
CONTINUOUS
 10
4.535698442
 20
5.4049624164
 40
0.0442913386
100
AcDbArc
 50
205.0
 51
270.0
  0
ARC
  5
2A6
100
AcDbEntity
  8
0
100
AcDbCircle
 62
7
  6
CONTINUOUS
 10
4.7722802048
 20
5.4049624164
 40
0.0442913386
100
AcDbArc
 50
270.0
 51
335.0
  0
ARC
  5
2A7
100
AcDbEntity
  8
0
100
AcDbCircle
 62
7
  6
CONTINUOUS
 10
5.1262496231
 20
5.4049624164
 40
0.0442913386
100
AcDbArc
 50
205.0
 51
270.0
  0
ARC
  5
2A8
100
AcDbEntity
  8
0
100
AcDbCircle
 62
7
  6
CONTINUOUS
 10
5.3628313859
 20
5.4049624164
 40
0.0442913386
100
AcDbArc
 50
270.0
 51
335.0
  0
ARC
  5
2A9
100
AcDbEntity
  8
0
100
AcDbCircle
 62
7
  6
CONTINUOUS
 10
5.7168008042
 20
5.4049624164
 40
0.0442913386
100
AcDbArc
 50
205.0
 51
270.0
  0
ARC
  5
2AA
100
AcDbEntity
  8
0
100
AcDbCircle
 62
7
  6
CONTINUOUS
 10
5.953382567
 20
5.4049624164
 40
0.0442913386
100
AcDbArc
 50
270.0
 51
335.0
  0
ARC
  5
2AB
100
AcDbEntity
  8
0
100
AcDbCircle
 62
7
  6
CONTINUOUS
 10
6.3073519853
 20
5.4049624164
 40
0.0442913386
100
AcDbArc
 50
205.0
 51
270.0
  0
ARC
  5
2AC
100
AcDbEntity
  8
0
100
AcDbCircle
 62
7
  6
CONTINUOUS
 10
6.5439337481
 20
5.4049624164
 40
0.0442913386
100
AcDbArc
 50
270.0
 51
335.0
  0
ARC
  5
2AD
100
AcDbEntity
  8
0
100
AcDbCircle
 62
7
  6
CONTINUOUS
 10
6.8979031664
 20
5.4049624164
 40
0.0442913386
100
AcDbArc
 50
205.0
 51
270.0
  0
ARC
  5
2AE
100
AcDbEntity
  8
0
100
AcDbCircle
 62
7
  6
CONTINUOUS
 10
7.7250361103
 20
5.4049624164
 40
0.0442913386
100
AcDbArc
 50
270.0
 51
335.0
  0
ARC
  5
2AF
100
AcDbEntity
  8
0
100
AcDbCircle
 62
7
  6
CONTINUOUS
 10
7.4884543475
 20
5.4049624164
 40
0.0442913386
100
AcDbArc
 50
205.0
 51
270.0
  0
ARC
  5
2B0
100
AcDbEntity
  8
0
100
AcDbCircle
 62
7
  6
CONTINUOUS
 10
7.1344849292
 20
5.4049624164
 40
0.0442913386
100
AcDbArc
 50
270.0
 51
335.0
  0
SPLINE
  5
2B1
100
AcDbEntity
  8
0
100
AcDbSpline
 62
7
  6
CONTINUOUS
 70
0
 71
3
 72
13
 73
9
 74
0
 42
0.0000001
 43
0.0000001
 44
0.0000000001
 40
0.0
 40
0.0
 40
0.0
 40
0.0
 40
0.0997950922
 40
0.2031360052
 40
0.3129519856
 40
0.4313626944
 40
0.6968712762
 40
1.0
 40
1.0
 40
1.0
 40
1.0
 10
16.7659477109
 20
11.5461998616
 30
0.0
 10
16.7666106398
 20
11.548342568
 30
0.0
 10
16.7684865258
 20
11.5525590086
 30
0.0
 10
16.7727678508
 20
11.558206819
 30
0.0
 10
16.7784241939
 20
11.5631300989
 30
0.0
 10
16.7879980064
 20
11.5688359962
 30
0.0
 10
16.8029168645
 20
11.5735267965
 30
0.0
 10
16.8157357156
 20
11.5746029545
 30
0.0
 10
16.8225485939
 20
11.5746029545
 30
0.0
  0
SPLINE
  5
2B2
100
AcDbEntity
  8
0
100
AcDbSpline
 62
7
  6
CONTINUOUS
 70
0
 71
3
 72
13
 73
9
 74
0
 42
0.0000001
 43
0.0000001
 44
0.0000000001
 40
0.0
 40
0.0
 40
0.0
 40
0.0
 40
0.0997950922
 40
0.2031360052
 40
0.3129519856
 40
0.4313626944
 40
0.6968712762
 40
1.0
 40
1.0
 40
1.0
 40
1.0
 10
16.2220140531
 20
11.5461998616
 30
0.0
 10
16.222676982
 20
11.548342568
 30
0.0
 10
16.2245528679
 20
11.5525590086
 30
0.0
 10
16.2288341929
 20
11.558206819
 30
0.0
 10
16.234490536
 20
11.5631300989
 30
0.0
 10
16.2440643486
 20
11.5688359962
 30
0.0
 10
16.2589832067
 20
11.5735267965
 30
0.0
 10
16.2718020577
 20
11.5746029545
 30
0.0
 10
16.2786149361
 20
11.5746029545
 30
0.0
  0
SPLINE
  5
2B3
100
AcDbEntity
  8
0
100
AcDbSpline
 62
7
  6
CONTINUOUS
 70
0
 71
3
 72
13
 73
9
 74
0
 42
0.0000001
 43
0.0000001
 44
0.0000000001
 40
0.0
 40
0.0
 40
0.0
 40
0.0
 40
0.0997950922
 40
0.2031360052
 40
0.3129519856
 40
0.4313626944
 40
0.6968712762
 40
1.0
 40
1.0
 40
1.0
 40
1.0
 10
15.6780803952
 20
11.5461998616
 30
0.0
 10
15.6787433241
 20
11.548342568
 30
0.0
 10
15.68061921
 20
11.5525590086
 30
0.0
 10
15.684900535
 20
11.558206819
 30
0.0
 10
15.6905568782
 20
11.5631300989
 30
0.0
 10
15.7001306907
 20
11.5688359962
 30
0.0
 10
15.7150495488
 20
11.5735267965
 30
0.0
 10
15.7278683998
 20
11.5746029545
 30
0.0
 10
15.7346812782
 20
11.5746029545
 30
0.0
  0
SPLINE
  5
2B4
100
AcDbEntity
  8
0
100
AcDbSpline
 62
7
  6
CONTINUOUS
 70
0
 71
3
 72
13
 73
9
 74
0
 42
0.0000001
 43
0.0000001
 44
0.0000000001
 40
0.0
 40
0.0
 40
0.0
 40
0.0
 40
0.0997950922
 40
0.2031360052
 40
0.3129519856
 40
0.4313626944
 40
0.6968712762
 40
1.0
 40
1.0
 40
1.0
 40
1.0
 10
15.1341467373
 20
11.5461998616
 30
0.0
 10
15.1348096662
 20
11.548342568
 30
0.0
 10
15.1366855521
 20
11.5525590086
 30
0.0
 10
15.1409668771
 20
11.558206819
 30
0.0
 10
15.1466232203
 20
11.5631300989
 30
0.0
 10
15.1561970328
 20
11.5688359962
 30
0.0
 10
15.1711158909
 20
11.5735267965
 30
0.0
 10
15.183934742
 20
11.5746029545
 30
0.0
 10
15.1907476203
 20
11.5746029545
 30
0.0
  0
SPLINE
  5
2B5
100
AcDbEntity
  8
0
100
AcDbSpline
 62
7
  6
CONTINUOUS
 70
0
 71
3
 72
13
 73
9
 74
0
 42
0.0000001
 43
0.0000001
 44
0.0000000001
 40
0.0
 40
0.0
 40
0.0
 40
0.0
 40
0.0997950922
 40
0.2031360052
 40
0.3129519856
 40
0.4313626944
 40
0.6968712762
 40
1.0
 40
1.0
 40
1.0
 40
1.0
 10
14.5902130794
 20
11.5461998616
 30
0.0
 10
14.5908760083
 20
11.548342568
 30
0.0
 10
14.5927518943
 20
11.5525590086
 30
0.0
 10
14.5970332193
 20
11.558206819
 30
0.0
 10
14.6026895624
 20
11.5631300989
 30
0.0
 10
14.6122633749
 20
11.5688359962
 30
0.0
 10
14.627182233
 20
11.5735267965
 30
0.0
 10
14.6400010841
 20
11.5746029545
 30
0.0
 10
14.6468139624
 20
11.5746029545
 30
0.0
  0
SPLINE
  5
2B6
100
AcDbEntity
  8
0
100
AcDbSpline
 62
7
  6
CONTINUOUS
 70
0
 71
3
 72
13
 73
9
 74
0
 42
0.0000001
 43
0.0000001
 44
0.0000000001
 40
0.0
 40
0.0
 40
0.0
 40
0.0
 40
0.0997958186
 40
0.2031368535
 40
0.3129522278
 40
0.4313622872
 40
0.6968697002
 40
1.0
 40
1.0
 40
1.0
 40
1.0
 10
14.0462794269
 20
11.5461998615
 30
0.0
 10
14.0469423667
 20
11.5483425816
 30
0.0
 10
14.048818271
 20
11.5525590323
 30
0.0
 10
14.0530995772
 20
11.5582068648
 30
0.0
 10
14.0587559244
 20
11.5631301033
 30
0.0
 10
14.0683296817
 20
11.5688359792
 30
0.0
 10
14.0832485299
 20
11.5735267962
 30
0.0
 10
14.096067391
 20
11.5746029545
 30
0.0
 10
14.1028803046
 20
11.5746029545
 30
0.0
  0
SPLINE
  5
2B7
100
AcDbEntity
  8
0
100
AcDbSpline
 62
7
  6
CONTINUOUS
 70
0
 71
3
 72
11
 73
7
 74
0
 42
0.0000001
 43
0.0000001
 44
0.0000000001
 40
0.0
 40
0.0
 40
0.0
 40
0.0
 40
0.2483024116
 40
0.506786361
 40
0.7617323159
 40
1.0
 40
1.0
 40
1.0
 40
1.0
 10
16.3287829834
 20
11.5746029545
 30
0.0
 10
16.3366468566
 20
11.5746029545
 30
0.0
 10
16.3527191846
 20
11.5730313807
 30
0.0
 10
16.3761199485
 20
11.5667787534
 30
0.0
 10
16.3979468615
 20
11.5570300488
 30
0.0
 10
16.4109990815
 20
11.5482425215
 30
0.0
 10
16.4167593507
 20
11.5433678483
 30
0.0
  0
SPLINE
  5
2B8
100
AcDbEntity
  8
0
100
AcDbSpline
 62
7
  6
CONTINUOUS
 70
0
 71
3
 72
11
 73
7
 74
0
 42
0.0000001
 43
0.0000001
 44
0.0000000001
 40
0.0
 40
0.0
 40
0.0
 40
0.0
 40
0.2483024116
 40
0.506786361
 40
0.7617323159
 40
1.0
 40
1.0
 40
1.0
 40
1.0
 10
15.7848493255
 20
11.5746029545
 30
0.0
 10
15.7927131987
 20
11.5746029545
 30
0.0
 10
15.8087855267
 20
11.5730313807
 30
0.0
 10
15.8321862907
 20
11.5667787534
 30
0.0
 10
15.8540132036
 20
11.5570300488
 30
0.0
 10
15.8670654236
 20
11.5482425215
 30
0.0
 10
15.8728256929
 20
11.5433678483
 30
0.0
  0
SPLINE
  5
2B9
100
AcDbEntity
  8
0
100
AcDbSpline
 62
7
  6
CONTINUOUS
 70
0
 71
3
 72
11
 73
7
 74
0
 42
0.0000001
 43
0.0000001
 44
0.0000000001
 40
0.0
 40
0.0
 40
0.0
 40
0.0
 40
0.2483024116
 40
0.506786361
 40
0.7617323159
 40
1.0
 40
1.0
 40
1.0
 40
1.0
 10
15.2409156676
 20
11.5746029545
 30
0.0
 10
15.2487795408
 20
11.5746029545
 30
0.0
 10
15.2648518688
 20
11.5730313807
 30
0.0
 10
15.2882526328
 20
11.5667787534
 30
0.0
 10
15.3100795458
 20
11.5570300488
 30
0.0
 10
15.3231317657
 20
11.5482425215
 30
0.0
 10
15.328892035
 20
11.5433678483
 30
0.0
  0
SPLINE
  5
2BA
100
AcDbEntity
  8
0
100
AcDbSpline
 62
7
  6
CONTINUOUS
 70
0
 71
3
 72
11
 73
7
 74
0
 42
0.0000001
 43
0.0000001
 44
0.0000000001
 40
0.0
 40
0.0
 40
0.0
 40
0.0
 40
0.2483024116
 40
0.506786361
 40
0.7617323159
 40
1.0
 40
1.0
 40
1.0
 40
1.0
 10
14.6969820098
 20
11.5746029545
 30
0.0
 10
14.7048458829
 20
11.5746029545
 30
0.0
 10
14.7209182109
 20
11.5730313807
 30
0.0
 10
14.7443189749
 20
11.5667787534
 30
0.0
 10
14.7661458879
 20
11.5570300488
 30
0.0
 10
14.7791981079
 20
11.5482425215
 30
0.0
 10
14.7849583771
 20
11.5433678483
 30
0.0
  0
SPLINE
  5
2BB
100
AcDbEntity
  8
0
100
AcDbSpline
 62
7
  6
CONTINUOUS
 70
0
 71
3
 72
11
 73
7
 74
0
 42
0.0000001
 43
0.0000001
 44
0.0000000001
 40
0.0
 40
0.0
 40
0.0
 40
0.0
 40
0.2483024116
 40
0.506786361
 40
0.7617323159
 40
1.0
 40
1.0
 40
1.0
 40
1.0
 10
14.1530483519
 20
11.5746029545
 30
0.0
 10
14.1609122251
 20
11.5746029545
 30
0.0
 10
14.1769845531
 20
11.5730313807
 30
0.0
 10
14.200385317
 20
11.5667787534
 30
0.0
 10
14.22221223
 20
11.5570300488
 30
0.0
 10
14.23526445
 20
11.5482425215
 30
0.0
 10
14.2410247192
 20
11.5433678483
 30
0.0
  0
SPLINE
  5
2BC
100
AcDbEntity
  8
0
100
AcDbSpline
 62
7
  6
CONTINUOUS
 70
0
 71
3
 72
12
 73
8
 74
0
 42
0.0000001
 43
0.0000001
 44
0.0000000001
 40
0.0
 40
0.0
 40
0.0
 40
0.0
 40
0.3033577877
 40
0.5691489877
 40
0.7966473933
 40
0.9001331907
 40
1.0
 40
1.0
 40
1.0
 40
1.0
 10
16.7278531858
 20
11.4865007543
 30
0.0
 10
16.731319907
 20
11.4865007543
 30
0.0
 10
16.7378504822
 20
11.4870542342
 30
0.0
 10
16.7466200903
 20
11.489797687
 30
0.0
 10
16.7523713559
 20
11.4937647301
 30
0.0
 10
16.755365282
 20
11.497720192
 30
0.0
 10
16.7563210683
 20
11.4998658149
 30
0.0
 10
16.756658731
 20
11.5009559802
 30
0.0
  0
SPLINE
  5
2BD
100
AcDbEntity
  8
0
100
AcDbSpline
 62
7
  6
CONTINUOUS
 70
0
 71
3
 72
11
 73
7
 74
0
 42
0.0000001
 43
0.0000001
 44
0.0000000001
 40
0.0
 40
0.0
 40
0.0
 40
0.0
 40
0.2382522783
 40
0.4932144411
 40
0.7517133349
 40
1.0
 40
1.0
 40
1.0
 40
1.0
 10
16.4651732652
 20
11.5023971923
 30
0.0
 10
16.4681046436
 20
11.4999164903
 30
0.0
 10
16.4747473563
 20
11.4954443974
 30
0.0
 10
16.4858556368
 20
11.4904821489
 30
0.0
 10
16.4977654457
 20
11.4873007231
 30
0.0
 10
16.5059450531
 20
11.4865007543
 30
0.0
 10
16.5099469522
 20
11.4865007543
 30
0.0
  0
SPLINE
  5
2BE
100
AcDbEntity
  8
0
100
AcDbSpline
 62
7
  6
CONTINUOUS
 70
0
 71
3
 72
12
 73
8
 74
0
 42
0.0000001
 43
0.0000001
 44
0.0000000001
 40
0.0
 40
0.0
 40
0.0
 40
0.0
 40
0.3033577877
 40
0.5691489877
 40
0.7966473933
 40
0.9001331907
 40
1.0
 40
1.0
 40
1.0
 40
1.0
 10
16.1839195279
 20
11.4865007543
 30
0.0
 10
16.1873862492
 20
11.4865007543
 30
0.0
 10
16.1939168243
 20
11.4870542342
 30
0.0
 10
16.2026864325
 20
11.489797687
 30
0.0
 10
16.2084376981
 20
11.4937647301
 30
0.0
 10
16.2114316241
 20
11.497720192
 30
0.0
 10
16.2123874104
 20
11.4998658149
 30
0.0
 10
16.2127250731
 20
11.5009559802
 30
0.0
  0
SPLINE
  5
2BF
100
AcDbEntity
  8
0
100
AcDbSpline
 62
7
  6
CONTINUOUS
 70
0
 71
3
 72
11
 73
7
 74
0
 42
0.0000001
 43
0.0000001
 44
0.0000000001
 40
0.0
 40
0.0
 40
0.0
 40
0.0
 40
0.2382522783
 40
0.4932144411
 40
0.7517133349
 40
1.0
 40
1.0
 40
1.0
 40
1.0
 10
15.9212396074
 20
11.5023971923
 30
0.0
 10
15.9241709857
 20
11.4999164903
 30
0.0
 10
15.9308136985
 20
11.4954443974
 30
0.0
 10
15.941921979
 20
11.4904821489
 30
0.0
 10
15.9538317878
 20
11.4873007231
 30
0.0
 10
15.9620113952
 20
11.4865007543
 30
0.0
 10
15.9660132943
 20
11.4865007543
 30
0.0
  0
SPLINE
  5
2C0
100
AcDbEntity
  8
0
100
AcDbSpline
 62
7
  6
CONTINUOUS
 70
0
 71
3
 72
12
 73
8
 74
0
 42
0.0000001
 43
0.0000001
 44
0.0000000001
 40
0.0
 40
0.0
 40
0.0
 40
0.0
 40
0.3033577877
 40
0.5691489877
 40
0.7966473933
 40
0.9001331907
 40
1.0
 40
1.0
 40
1.0
 40
1.0
 10
15.63998587
 20
11.4865007543
 30
0.0
 10
15.6434525913
 20
11.4865007543
 30
0.0
 10
15.6499831664
 20
11.4870542342
 30
0.0
 10
15.6587527746
 20
11.489797687
 30
0.0
 10
15.6645040402
 20
11.4937647301
 30
0.0
 10
15.6674979662
 20
11.497720192
 30
0.0
 10
15.6684537525
 20
11.4998658149
 30
0.0
 10
15.6687914153
 20
11.5009559802
 30
0.0
  0
SPLINE
  5
2C1
100
AcDbEntity
  8
0
100
AcDbSpline
 62
7
  6
CONTINUOUS
 70
0
 71
3
 72
11
 73
7
 74
0
 42
0.0000001
 43
0.0000001
 44
0.0000000001
 40
0.0
 40
0.0
 40
0.0
 40
0.0
 40
0.2382522783
 40
0.4932144411
 40
0.7517133349
 40
1.0
 40
1.0
 40
1.0
 40
1.0
 10
15.3773059495
 20
11.5023971923
 30
0.0
 10
15.3802373279
 20
11.4999164903
 30
0.0
 10
15.3868800406
 20
11.4954443974
 30
0.0
 10
15.3979883211
 20
11.4904821489
 30
0.0
 10
15.40989813
 20
11.4873007231
 30
0.0
 10
15.4180777373
 20
11.4865007543
 30
0.0
 10
15.4220796364
 20
11.4865007543
 30
0.0
  0
SPLINE
  5
2C2
100
AcDbEntity
  8
0
100
AcDbSpline
 62
7
  6
CONTINUOUS
 70
0
 71
3
 72
12
 73
8
 74
0
 42
0.0000001
 43
0.0000001
 44
0.0000000001
 40
0.0
 40
0.0
 40
0.0
 40
0.0
 40
0.3033577877
 40
0.5691489877
 40
0.7966473933
 40
0.9001331907
 40
1.0
 40
1.0
 40
1.0
 40
1.0
 10
15.0960522121
 20
11.4865007543
 30
0.0
 10
15.0995189334
 20
11.4865007543
 30
0.0
 10
15.1060495086
 20
11.4870542342
 30
0.0
 10
15.1148191167
 20
11.489797687
 30
0.0
 10
15.1205703823
 20
11.4937647301
 30
0.0
 10
15.1235643083
 20
11.497720192
 30
0.0
 10
15.1245200946
 20
11.4998658149
 30
0.0
 10
15.1248577574
 20
11.5009559802
 30
0.0
  0
SPLINE
  5
2C3
100
AcDbEntity
  8
0
100
AcDbSpline
 62
7
  6
CONTINUOUS
 70
0
 71
3
 72
11
 73
7
 74
0
 42
0.0000001
 43
0.0000001
 44
0.0000000001
 40
0.0
 40
0.0
 40
0.0
 40
0.0
 40
0.2382522783
 40
0.4932144411
 40
0.7517133349
 40
1.0
 40
1.0
 40
1.0
 40
1.0
 10
14.8333722916
 20
11.5023971923
 30
0.0
 10
14.83630367
 20
11.4999164903
 30
0.0
 10
14.8429463827
 20
11.4954443974
 30
0.0
 10
14.8540546632
 20
11.4904821489
 30
0.0
 10
14.8659644721
 20
11.4873007231
 30
0.0
 10
14.8741440794
 20
11.4865007543
 30
0.0
 10
14.8781459786
 20
11.4865007543
 30
0.0
  0
SPLINE
  5
2C4
100
AcDbEntity
  8
0
100
AcDbSpline
 62
7
  6
CONTINUOUS
 70
0
 71
3
 72
12
 73
8
 74
0
 42
0.0000001
 43
0.0000001
 44
0.0000000001
 40
0.0
 40
0.0
 40
0.0
 40
0.0
 40
0.3033577877
 40
0.5691489877
 40
0.7966473933
 40
0.9001331907
 40
1.0
 40
1.0
 40
1.0
 40
1.0
 10
14.5521185543
 20
11.4865007543
 30
0.0
 10
14.5555852755
 20
11.4865007543
 30
0.0
 10
14.5621158507
 20
11.4870542342
 30
0.0
 10
14.5708854588
 20
11.489797687
 30
0.0
 10
14.5766367244
 20
11.4937647301
 30
0.0
 10
14.5796306505
 20
11.497720192
 30
0.0
 10
14.5805864368
 20
11.4998658149
 30
0.0
 10
14.5809240995
 20
11.5009559802
 30
0.0
  0
SPLINE
  5
2C5
100
AcDbEntity
  8
0
100
AcDbSpline
 62
7
  6
CONTINUOUS
 70
0
 71
3
 72
11
 73
7
 74
0
 42
0.0000001
 43
0.0000001
 44
0.0000000001
 40
0.0
 40
0.0
 40
0.0
 40
0.0
 40
0.2382522783
 40
0.4932144411
 40
0.7517133349
 40
1.0
 40
1.0
 40
1.0
 40
1.0
 10
14.2894386337
 20
11.5023971923
 30
0.0
 10
14.2923700121
 20
11.4999164903
 30
0.0
 10
14.2990127248
 20
11.4954443974
 30
0.0
 10
14.3101210053
 20
11.4904821489
 30
0.0
 10
14.3220308142
 20
11.4873007231
 30
0.0
 10
14.3302104216
 20
11.4865007543
 30
0.0
 10
14.3342123207
 20
11.4865007543
 30
0.0
  0
SPLINE
  5
2C6
100
AcDbEntity
  8
0
100
AcDbSpline
 62
7
  6
CONTINUOUS
 70
0
 71
3
 72
12
 73
8
 74
0
 42
0.0000001
 43
0.0000001
 44
0.0000000001
 40
0.0
 40
0.0
 40
0.0
 40
0.0
 40
0.303404278
 40
0.5691550879
 40
0.7966801487
 40
0.9001144717
 40
1.0
 40
1.0
 40
1.0
 40
1.0
 10
14.0081848964
 20
11.4865007543
 30
0.0
 10
14.0116521661
 20
11.4865007543
 30
0.0
 10
14.0181828482
 20
11.4870539657
 30
0.0
 10
14.0269528874
 20
11.4897984089
 30
0.0
 10
14.032702464
 20
11.493765747
 30
0.0
 10
14.0356984876
 20
11.4977196072
 30
0.0
 10
14.0366533212
 20
11.4998654177
 30
0.0
 10
14.0369907033
 20
11.5009558997
 30
0.0
  0
SPLINE
  5
2C7
100
AcDbEntity
  8
0
100
AcDbSpline
 62
7
  6
CONTINUOUS
 70
0
 71
3
 72
11
 73
7
 74
0
 42
0.0000001
 43
0.0000001
 44
0.0000000001
 40
0.0
 40
0.0
 40
0.0
 40
0.0
 40
0.23826785
 40
0.4932147702
 40
0.7516982829
 40
1.0
 40
1.0
 40
1.0
 40
1.0
 10
13.7455049758
 20
11.5023971923
 30
0.0
 10
13.7484365435
 20
11.4999163301
 30
0.0
 10
13.7550792075
 20
11.4954440979
 30
0.0
 10
13.7661875593
 20
11.4904827025
 30
0.0
 10
13.7780968756
 20
11.4873005688
 30
0.0
 10
13.7862765243
 20
11.4865007543
 30
0.0
 10
13.7902786628
 20
11.4865007543
 30
0.0
  0
SPLINE
  5
2C8
100
AcDbEntity
  8
0
100
AcDbSpline
 62
7
  6
CONTINUOUS
 70
0
 71
3
 72
11
 73
7
 74
0
 42
0.0000001
 43
0.0000001
 44
0.0000000001
 40
0.0
 40
0.0
 40
0.0
 40
0.0
 40
0.2483036799
 40
0.5067861766
 40
0.7617310803
 40
1.0
 40
1.0
 40
1.0
 40
1.0
 10
13.609114694
 20
11.5746029545
 30
0.0
 10
13.6169786075
 20
11.5746029545
 30
0.0
 10
13.6330509317
 20
11.5730313831
 30
0.0
 10
13.6564516507
 20
11.5667787444
 30
0.0
 10
13.6782785356
 20
11.5570300783
 30
0.0
 10
13.6913307622
 20
11.5482425469
 30
0.0
 10
13.6970910614
 20
11.5433678483
 30
0.0
  0
ENDSEC
  0
SECTION
  2
OBJECTS
  0
DICTIONARY
  5
C
100
AcDbDictionary
280
0
281
1
  3
ACAD_GROUP
350
D
  3
ACAD_MLINESTYLE
350
17
  3
ACAD_LAYOUT
350
1A
  3
ACAD_PLOTSETTINGS
350
19
  3
ACAD_PLOTSTYLENAME
350
E
  0
DICTIONARY
  5
D
102
{ACAD_REACTORS
330
C
102
}
100
AcDbDictionary
280
0
281
1
  0
ACDBDICTIONARYWDFLT
  5
E
102
{ACAD_REACTORS
330
C
102
}
100
AcDbDictionary
281
1
  3
Normal
350
F
100
AcDbDictionaryWithDefault
340
F
  0
DICTIONARY
  5
17
102
{ACAD_REACTORS
330
C
102
}
100
AcDbDictionary
280
0
281
1
  3
Standard
350
18
  0
DICTIONARY
  5
19
102
{ACAD_REACTORS
330
C
102
}
100
AcDbDictionary
281
1
  0
DICTIONARY
  5
1A
102
{ACAD_REACTORS
330
C
102
}
100
AcDbDictionary
281
1
  3
Model
350
2C9
  3
Layout1
350
2CA
  0
ACDBPLACEHOLDER
  5
F
102
{ACAD_REACTORS
330
E
102
}
  0
MLINESTYLE
  5
18
102
{ACAD_REACTORS
330
17
102
}
100
AcDbMlineStyle
  2
STANDARD
 70
0
  3

 62
256
 51
90.0
 52
90.0
 71
2
 49
0.5
 62
256
  6
BYLAYER
 49
-0.5
 62
256
  6
BYLAYER
  0
LAYOUT
  5
2C9
102
{ACAD_REACTORS
330
1A
102
}
100
AcDbPlotSettings
  1

  2
none_device
  4
ANSI_C_(22.00_x_17.00_Inches)
  6

 40
0.0
 41
0.0
 42
0.0
 43
0.0
 44
558.8
 45
431.8
 46
0.0
 47
0.0
 48
0.0
 49
0.0
140
0.0
141
0.0
142
1.0
143
1.0
 70
1024
 72
0
 73
0
 74
0
  7

 75
0
147
1.0
148
0.0
149
0.0
100
AcDbLayout
  1
Model
 70
0
 71
0
 10
0.0
 20
0.0
 11
22.0
 21
17.0
 12
0.0
 22
0.0
 32
0.0
 14
0.0
 24
0.0
 34
0.0
 15
0.0
 25
0.0
 35
0.0
146
0.0
 13
0.0
 23
0.0
 33
0.0
 16
1.0
 26
0.0
 36
0.0
 17
0.0
 27
1.0
 37
0.0
 76
0
330
216
345
0
346
0
  0
LAYOUT
  5
2CA
102
{ACAD_REACTORS
330
1A
102
}
100
AcDbPlotSettings
  1

  2
none_device
  4
ANSI_C_(22.00_x_17.00_Inches)
  6

 40
0.0
 41
0.0
 42
0.0
 43
0.0
 44
558.8
 45
431.8
 46
0.0
 47
0.0
 48
0.0
 49
0.0
140
0.0
141
0.0
142
1.0
143
1.0
 70
0
 72
0
 73
0
 74
0
  7

 75
0
147
1.0
148
0.0
149
0.0
100
AcDbLayout
  1
Layout1
 70
0
 71
1
 10
0.0
 20
0.0
 11
22.0
 21
17.0
 12
0.0
 22
0.0
 32
0.0
 14
0.0
 24
0.0
 34
0.0
 15
0.0
 25
0.0
 35
0.0
146
0.0
 13
0.0
 23
0.0
 33
0.0
 16
1.0
 26
0.0
 36
0.0
 17
0.0
 27
1.0
 37
0.0
 76
0
330
217
345
0
346
0
  0
ENDSEC
  0
EOF