999
DXF file: _cgs_temp_output.dxf
999
Pro/ENGINEER 2016360 by Parametric Technology Corporation
  0
SECTION
  2
HEADER
  9
$ACADVER
  1
AC1021
  9
$DWGCODEPAGE
  3
ANSI_1252
  9
$EXTMAX
 10
22.0
 20
17.0
 30
0.0
  9
$EXTMIN
 10
0.0
 20
0.0
 30
0.0
  9
$LIMMIN
 10
0.0
 20
0.0
  9
$LIMMAX
 10
22.0
 20
17.0
  9
$VIEWCTR
 10
11.0
 20
8.5
  9
$VIEWSIZE
 40
17.0
  9
$CLAYER
  8
0
  9
$LTSCALE
 40
1.21
  9
$CELTYPE
  6
BYLAYER
  9
$DIMSCALE
 40
1.0
  9
$DIMASZ
 40
0.1875
  9
$DIMEXO
 40
0.0625
  9
$DIMDLI
 40
0.836
  9
$DIMEXE
 40
0.125
  9
$DIMCEN
 40
0.198
  9
$DIMLFAC
 40
1.0
  9
$DIMBLK
  1
_CLOSED
  9
$DIMALT
 70
0
  9
$DIMALTF
 40
25.4
  9
$DIMTXT
 40
0.15625
  9
$DIMTOL
 70
0
  9
$DIMLIM
 70
0
  9
$DIMTFAC
 40
1.0
  9
$DIMGAP
 40
0.09
  9
$DIMDSEP
 70
46
  9
$AUNITS
 70
0
  9
$PDMODE
 70
3
  9
$PDSIZE
 40
0.3125
  9
$HANDSEED
  5
41A
  9
$TILEMODE
 70
1
  9
$MEASUREMENT
 70
0
  9
$INSUNITS
 70
1
  0
ENDSEC
  0
SECTION
  2
CLASSES
  0
CLASS
  1
ACDBDICTIONARYWDFLT
  2
AcDbDictionaryWithDefault
  3
AutoCAD 2000
 90
0
 91
1
280
0
281
0
  0
CLASS
  1
ACDBPLACEHOLDER
  2
AcDbPlaceHolder
  3
AutoCAD 2000
 90
0
 91
1
280
0
281
0
  0
CLASS
  1
LAYOUT
  2
AcDbLayout
  3
AutoCAD 2000
 90
0
 91
0
280
0
281
0
  0
ENDSEC
  0
SECTION
  2
TABLES
  0
TABLE
  2
VPORT
  5
8
100
AcDbSymbolTable
 70
2
  0
VPORT
  5
1F4
100
AcDbSymbolTableRecord
100
AcDbViewportTableRecord
  2
*ACTIVE
 70
0
 10
0.0
 20
0.0
 11
1.0
 21
1.0
 12
11.0
 22
8.5
 13
0.0
 23
0.0
 14
1.0
 24
1.0
 15
0.0
 25
0.0
 16
0.0
 26
0.0
 36
1.0
 17
0.0
 27
0.0
 37
0.0
 40
17.0
 41
1.2941176471
 42
50.0
 43
0.0
 44
0.0
 50
0.0
 51
0.0
 71
0
 72
100
 73
1
 74
1
 75
0
 76
0
 77
0
 78
0
  0
ENDTAB
  0
TABLE
  2
LTYPE
  5
5
100
AcDbSymbolTable
 70
6
  0
LTYPE
  5
14
100
AcDbSymbolTableRecord
100
AcDbLinetypeTableRecord
  2
BYBLOCK
 70
0
  3

 72
65
 73
0
 40
0.0
  0
LTYPE
  5
15
100
AcDbSymbolTableRecord
100
AcDbLinetypeTableRecord
  2
BYLAYER
 70
0
  3

 72
65
 73
0
 40
0.0
  0
LTYPE
  5
16
100
AcDbSymbolTableRecord
100
AcDbLinetypeTableRecord
  2
CONTINUOUS
 70
64
  3
Solid line
 72
65
 73
0
 40
0.0
  0
LTYPE
  5
1F5
100
AcDbSymbolTableRecord
100
AcDbLinetypeTableRecord
  2
CENTER
 70
64
  3
____ _ ____ _ ____ _ ____ _ ____ _ ____ _ ____
 72
65
 73
4
 40
0.6
 49
0.375
 74
0
 49
-0.075
 74
0
 49
0.075
 74
0
 49
-0.075
 74
0
  0
LTYPE
  5
1F6
100
AcDbSymbolTableRecord
100
AcDbLinetypeTableRecord
  2
HIDDEN
 70
64
  3
- - - - - - - - - - - - - - - - - - - -
 72
65
 73
2
 40
0.2
 49
0.1
 74
0
 49
-0.1
 74
0
  0
LTYPE
  5
1F7
100
AcDbSymbolTableRecord
100
AcDbLinetypeTableRecord
  2
PHANTOM
 70
64
  3
_____ _ _ _____ _ _ _____ _ _ _____
 72
65
 73
6
 40
0.8
 49
0.45
 74
0
 49
-0.05
 74
0
 49
0.1
 74
0
 49
-0.05
 74
0
 49
0.1
 74
0
 49
-0.05
 74
0
  0
LTYPE
  5
1F8
100
AcDbSymbolTableRecord
100
AcDbLinetypeTableRecord
  2
DOT
 70
64
  3
. . . . . . . . . . . . . . . . . . . .
 72
65
 73
2
 40
0.2
 49
0.1
 74
0
 49
-0.1
 74
0
  0
LTYPE
  5
1F9
100
AcDbSymbolTableRecord
100
AcDbLinetypeTableRecord
  2
DASHED
 70
64
  3
- - - - - - - - - - - - - - - - - - - -
 72
65
 73
2
 40
0.2
 49
0.1
 74
0
 49
-0.1
 74
0
  0
ENDTAB
  0
TABLE
  2
LAYER
  5
2
100
AcDbSymbolTable
 70
36
  0
LAYER
  5
10
100
AcDbSymbolTableRecord
100
AcDbLayerTableRecord
  2
0
 70
0
 62
7
  6
CONTINUOUS
370
-3
390
F
  0
LAYER
  5
1FA
100
AcDbSymbolTableRecord
100
AcDbLayerTableRecord
  2
DEFAULT_1
 70
0
 62
7
  6
CENTER
370
-3
390
F
  0
LAYER
  5
1FB
100
AcDbSymbolTableRecord
100
AcDbLayerTableRecord
  2
DEFAULT_2
 70
0
 62
8
  6
HIDDEN
370
-3
390
F
  0
LAYER
  5
1FC
100
AcDbSymbolTableRecord
100
AcDbLayerTableRecord
  2
DEFAULT_3
 70
0
 62
7
  6
PHANTOM
370
-3
390
F
  0
LAYER
  5
1FD
100
AcDbSymbolTableRecord
100
AcDbLayerTableRecord
  2
01_ALL_DTM_PLN
 70
0
 62
7
  6
CONTINUOUS
370
-3
390
F
  0
LAYER
  5
1FE
100
AcDbSymbolTableRecord
100
AcDbLayerTableRecord
  2
01__ASM_ALL_DTM_PLN
 70
0
 62
7
  6
CONTINUOUS
370
-3
390
F
  0
LAYER
  5
1FF
100
AcDbSymbolTableRecord
100
AcDbLayerTableRecord
  2
01__ASM_DEF_DTM_PLN
 70
0
 62
7
  6
CONTINUOUS
370
-3
390
F
  0
LAYER
  5
200
100
AcDbSymbolTableRecord
100
AcDbLayerTableRecord
  2
01___PRT_ALL_DTM_PLN
 70
0
 62
7
  6
CONTINUOUS
370
-3
390
F
  0
LAYER
  5
201
100
AcDbSymbolTableRecord
100
AcDbLayerTableRecord
  2
01___PRT_DEF_DTM_PLN
 70
0
 62
7
  6
CONTINUOUS
370
-3
390
F
  0
LAYER
  5
202
100
AcDbSymbolTableRecord
100
AcDbLayerTableRecord
  2
02_ALL_AXES
 70
0
 62
7
  6
CONTINUOUS
370
-3
390
F
  0
LAYER
  5
203
100
AcDbSymbolTableRecord
100
AcDbLayerTableRecord
  2
02__ASM_ALL_AXES
 70
0
 62
7
  6
CONTINUOUS
370
-3
390
F
  0
LAYER
  5
204
100
AcDbSymbolTableRecord
100
AcDbLayerTableRecord
  2
02___PRT_ALL_AXES
 70
0
 62
7
  6
CONTINUOUS
370
-3
390
F
  0
LAYER
  5
205
100
AcDbSymbolTableRecord
100
AcDbLayerTableRecord
  2
03_ALL_CURVES
 70
0
 62
7
  6
CONTINUOUS
370
-3
390
F
  0
LAYER
  5
206
100
AcDbSymbolTableRecord
100
AcDbLayerTableRecord
  2
03__ASM_ALL_CURVES
 70
0
 62
7
  6
CONTINUOUS
370
-3
390
F
  0
LAYER
  5
207
100
AcDbSymbolTableRecord
100
AcDbLayerTableRecord
  2
03___PRT_ALL_CURVES
 70
0
 62
7
  6
CONTINUOUS
370
-3
390
F
  0
LAYER
  5
208
100
AcDbSymbolTableRecord
100
AcDbLayerTableRecord
  2
04_ALL_DTM_PNT
 70
0
 62
7
  6
CONTINUOUS
370
-3
390
F
  0
LAYER
  5
209
100
AcDbSymbolTableRecord
100
AcDbLayerTableRecord
  2
04__ASM_ALL_DTM_PNT
 70
0
 62
7
  6
CONTINUOUS
370
-3
390
F
  0
LAYER
  5
20A
100
AcDbSymbolTableRecord
100
AcDbLayerTableRecord
  2
04___PRT_ALL_DTM_PNT
 70
0
 62
7
  6
CONTINUOUS
370
-3
390
F
  0
LAYER
  5
20B
100
AcDbSymbolTableRecord
100
AcDbLayerTableRecord
  2
05_ALL_DTM_CSYS
 70
0
 62
7
  6
CONTINUOUS
370
-3
390
F
  0
LAYER
  5
20C
100
AcDbSymbolTableRecord
100
AcDbLayerTableRecord
  2
05__ASM_ALL_DTM_CSYS
 70
0
 62
7
  6
CONTINUOUS
370
-3
390
F
  0
LAYER
  5
20D
100
AcDbSymbolTableRecord
100
AcDbLayerTableRecord
  2
05__ASM_DEF_DTM_CSYS
 70
0
 62
7
  6
CONTINUOUS
370
-3
390
F
  0
LAYER
  5
20E
100
AcDbSymbolTableRecord
100
AcDbLayerTableRecord
  2
05___PRT_ALL_DTM_CSYS
 70
0
 62
7
  6
CONTINUOUS
370
-3
390
F
  0
LAYER
  5
20F
100
AcDbSymbolTableRecord
100
AcDbLayerTableRecord
  2
05___PRT_DEF_DTM_CSYS
 70
0
 62
7
  6
CONTINUOUS
370
-3
390
F
  0
LAYER
  5
210
100
AcDbSymbolTableRecord
100
AcDbLayerTableRecord
  2
06_ALL_SURFS
 70
0
 62
7
  6
CONTINUOUS
370
-3
390
F
  0
LAYER
  5
211
100
AcDbSymbolTableRecord
100
AcDbLayerTableRecord
  2
06__ASM_ALL_SURFS
 70
0
 62
7
  6
CONTINUOUS
370
-3
390
F
  0
LAYER
  5
212
100
AcDbSymbolTableRecord
100
AcDbLayerTableRecord
  2
06___PRT_ALL_SURFS
 70
0
 62
7
  6
CONTINUOUS
370
-3
390
F
  0
LAYER
  5
213
100
AcDbSymbolTableRecord
100
AcDbLayerTableRecord
  2
07__ASM_ALL_SKELETONS
 70
0
 62
7
  6
CONTINUOUS
370
-3
390
F
  0
LAYER
  5
214
100
AcDbSymbolTableRecord
100
AcDbLayerTableRecord
  2
ASSEMBLY_1
 70
0
 62
7
  6
CONTINUOUS
370
-3
390
F
  0
LAYER
  5
215
100
AcDbSymbolTableRecord
100
AcDbLayerTableRecord
  2
REXNORD-NORMAL_DUTY_ZEP_200-103
 70
0
 62
7
  6
CONTINUOUS
370
-3
390
F
  0
LAYER
  5
216
100
AcDbSymbolTableRecord
100
AcDbLayerTableRecord
  2
REXNORD-NORMAL_DUTY_ZEP_200-115
 70
0
 62
7
  6
CONTINUOUS
370
-3
390
F
  0
LAYER
  5
217
100
AcDbSymbolTableRecord
100
AcDbLayerTableRecord
  2
REXNORD-NORMAL_DUTY_ZEP_2000--7
 70
0
 62
7
  6
CONTINUOUS
370
-3
390
F
  0
LAYER
  5
218
100
AcDbSymbolTableRecord
100
AcDbLayerTableRecord
  2
REXNORD-NORMAL_DUTY_ZEP_2000-13
 70
0
 62
7
  6
CONTINUOUS
370
-3
390
F
  0
LAYER
  5
219
100
AcDbSymbolTableRecord
100
AcDbLayerTableRecord
  2
REXNORD-NORMAL_DUTY_ZEP_2000-25
 70
0
 62
7
  6
CONTINUOUS
370
-3
390
F
  0
LAYER
  5
21A
100
AcDbSymbolTableRecord
100
AcDbLayerTableRecord
  2
REXNORD-NORMAL_DUTY_ZEP_2000-37
 70
0
 62
7
  6
CONTINUOUS
370
-3
390
F
  0
LAYER
  5
21B
100
AcDbSymbolTableRecord
100
AcDbLayerTableRecord
  2
REXNORD-NORMAL_DUTY_ZEP_2000-49
 70
0
 62
7
  6
CONTINUOUS
370
-3
390
F
  0
LAYER
  5
21C
100
AcDbSymbolTableRecord
100
AcDbLayerTableRecord
  2
REXNORD-NORMAL_DUTY_ZEP_2000-59
 70
0
 62
7
  6
CONTINUOUS
370
-3
390
F
  0
LAYER
  5
21D
100
AcDbSymbolTableRecord
100
AcDbLayerTableRecord
  2
REXNORD-NORMAL_DUTY_ZEP_2000-71
 70
0
 62
7
  6
CONTINUOUS
370
-3
390
F
  0
LAYER
  5
21E
100
AcDbSymbolTableRecord
100
AcDbLayerTableRecord
  2
REXNORD-NORMAL_DUTY_ZEP_2000-81
 70
0
 62
7
  6
CONTINUOUS
370
-3
390
F
  0
LAYER
  5
21F
100
AcDbSymbolTableRecord
100
AcDbLayerTableRecord
  2
REXNORD-NORMAL_DUTY_ZEP_2000-91
 70
0
 62
7
  6
CONTINUOUS
370
-3
390
F
  0
LAYER
  5
220
100
AcDbSymbolTableRecord
100
AcDbLayerTableRecord
  2
SHELL
 70
0
 62
7
  6
CONTINUOUS
370
-3
390
F
  0
LAYER
  5
221
100
AcDbSymbolTableRecord
100
AcDbLayerTableRecord
  2
SHELL_1
 70
0
 62
7
  6
CONTINUOUS
370
-3
390
F
  0
LAYER
  5
222
100
AcDbSymbolTableRecord
100
AcDbLayerTableRecord
  2
SHELL_10
 70
0
 62
7
  6
CONTINUOUS
370
-3
390
F
  0
LAYER
  5
223
100
AcDbSymbolTableRecord
100
AcDbLayerTableRecord
  2
SHELL_2
 70
0
 62
7
  6
CONTINUOUS
370
-3
390
F
  0
LAYER
  5
224
100
AcDbSymbolTableRecord
100
AcDbLayerTableRecord
  2
SHELL_3
 70
0
 62
7
  6
CONTINUOUS
370
-3
390
F
  0
LAYER
  5
225
100
AcDbSymbolTableRecord
100
AcDbLayerTableRecord
  2
SHELL_4
 70
0
 62
7
  6
CONTINUOUS
370
-3
390
F
  0
LAYER
  5
226
100
AcDbSymbolTableRecord
100
AcDbLayerTableRecord
  2
SHELL_5
 70
0
 62
7
  6
CONTINUOUS
370
-3
390
F
  0
LAYER
  5
227
100
AcDbSymbolTableRecord
100
AcDbLayerTableRecord
  2
SHELL_6
 70
0
 62
7
  6
CONTINUOUS
370
-3
390
F
  0
LAYER
  5
228
100
AcDbSymbolTableRecord
100
AcDbLayerTableRecord
  2
SHELL_7
 70
0
 62
7
  6
CONTINUOUS
370
-3
390
F
  0
LAYER
  5
229
100
AcDbSymbolTableRecord
100
AcDbLayerTableRecord
  2
SHELL_8
 70
0
 62
7
  6
CONTINUOUS
370
-3
390
F
  0
LAYER
  5
22A
100
AcDbSymbolTableRecord
100
AcDbLayerTableRecord
  2
SHELL_9
 70
0
 62
7
  6
CONTINUOUS
370
-3
390
F
  0
LAYER
  5
22B
100
AcDbSymbolTableRecord
100
AcDbLayerTableRecord
  2
___SHELL
 70
0
 62
7
  6
CONTINUOUS
370
-3
390
F
  0
ENDTAB
  0
TABLE
  2
STYLE
  5
3
100
AcDbSymbolTable
 70
1
  0
STYLE
  5
11
100
AcDbSymbolTableRecord
100
AcDbTextStyleTableRecord
  2
STANDARD
 70
0
 40
0.0
 41
0.8
 50
0.0
 71
0
 42
0.2
  3
txt
  4

  0
STYLE
  5
22C
100
AcDbSymbolTableRecord
100
AcDbTextStyleTableRecord
  2
TEXTSTYLE_1
 70
0
 40
0.0
 41
0.8
 50
0.0
 71
0
 42
0.2
  3
gdt
  4

  0
ENDTAB
  0
TABLE
  2
VIEW
  5
6
100
AcDbSymbolTable
 70
0
  0
ENDTAB
  0
TABLE
  2
UCS
  5
7
100
AcDbSymbolTable
 70
0
  0
ENDTAB
  0
TABLE
  2
APPID
  5
9
100
AcDbSymbolTable
 70
1
  0
APPID
  5
22D
100
AcDbSymbolTableRecord
100
AcDbRegAppTableRecord
  2
ACAD
 70
0
  0
ENDTAB
  0
TABLE
  2
BLOCK_RECORD
  5
1
100
AcDbSymbolTable
 70
0
  0
BLOCK_RECORD
  5
22E
100
AcDbSymbolTableRecord
100
AcDbBlockTableRecord
  2
*Model_Space
  0
BLOCK_RECORD
  5
22F
100
AcDbSymbolTableRecord
100
AcDbBlockTableRecord
  2
*Paper_Space
  0
ENDTAB
  0
TABLE
  2
DIMSTYLE
  5
A
100
AcDbSymbolTable
 70
1
100
AcDbDimStyleTable
 71
0
  0
DIMSTYLE
105
230
100
AcDbSymbolTableRecord
100
AcDbDimStyleTableRecord
  2
STANDARD
 70
0
  3

  4

 40
1.0
 41
0.1875
 42
0.0625
 43
0.38
 44
0.125
 45
0.0
 46
0.0
 47
0.0001
 48
0.0001
140
0.15625
141
0.09
142
0.0
143
25.4
144
1.0
145
0.0
146
1.0
147
0.09
 71
0.0
 72
0.0
 73
1
 74
1
 75
0
 76
0
 77
0
 78
4
 79
1
170
0
171
3
172
0
173
0
174
0
175
0
176
0
177
0
178
0
270
2
179
4
271
4
272
4
273
2
274
2
275
0
280
0
281
0
282
0
283
1
284
4
285
0
286
0
287
3
288
0
340
11
278
46
  0
ENDTAB
  0
ENDSEC
  0
SECTION
  2
BLOCKS
  0
BLOCK
  5
20
100
AcDbEntity
  8
0
100
AcDbBlockBegin
  2
*Model_Space
 70
0
 10
0.0
 20
0.0
 30
0.0
  3
*Model_Space
  1

  0
ENDBLK
  5
21
100
AcDbEntity
  8
0
100
AcDbBlockEnd
  0
BLOCK
  5
1C
100
AcDbEntity
  8
0
100
AcDbBlockBegin
  2
*Paper_Space
 70
0
 10
0.0
 20
0.0
 30
0.0
  3
*Paper_Space
  1

  0
ENDBLK
  5
1D
100
AcDbEntity
  8
0
100
AcDbBlockEnd
  0
ENDSEC
  0
SECTION
  2
ENTITIES
  0
MTEXT
  5
231
100
AcDbEntity
  8
0
100
AcDbMText
 62
7
  6
CONTINUOUS
  7
STANDARD
 71
1
 72
1
 10
15.9560215477
 20
0.9479130325
 30
0.0
 11
1.0
 21
0.0
 31
0.0
 44
0.9
  1
SCALE: 1:1.000
 40
0.3
 41
3.36
  0
LINE
  5
232
100
AcDbEntity
  8
0
100
AcDbLine
 62
7
  6
CONTINUOUS
 10
0.0
 20
0.0
 11
0.0
 21
17.0
  0
LINE
  5
233
100
AcDbEntity
  8
0
100
AcDbLine
 62
7
  6
CONTINUOUS
 10
0.0
 20
0.0
 11
22.0
 21
0.0
  0
LINE
  5
234
100
AcDbEntity
  8
0
100
AcDbLine
 62
7
  6
CONTINUOUS
 10
0.0
 20
17.0
 11
22.0
 21
17.0
  0
LINE
  5
235
100
AcDbEntity
  8
0
100
AcDbLine
 62
7
  6
CONTINUOUS
 10
22.0
 20
0.0
 11
22.0
 21
17.0
  0
LINE
  5
236
100
AcDbEntity
  8
0
100
AcDbLine
 62
7
  6
CONTINUOUS
 10
2.9428672762
 20
4.1807800685
 11
2.9428672762
 21
4.9807800685
  0
LINE
  5
237
100
AcDbEntity
  8
0
100
AcDbLine
 62
7
  6
CONTINUOUS
 10
3.7054961456
 20
4.9807800685
 11
4.6148228195
 21
6.5557800685
  0
LINE
  5
238
100
AcDbEntity
  8
0
100
AcDbLine
 62
7
  6
CONTINUOUS
 10
2.9428672762
 20
4.1807800685
 11
9.3178672762
 21
4.1807800685
  0
LINE
  5
239
100
AcDbEntity
  8
0
100
AcDbLine
 62
7
  6
CONTINUOUS
 10
4.8932628362
 20
4.8935078128
 11
4.830017283
 21
5.0030523243
  0
LINE
  5
23A
100
AcDbEntity
  8
0
100
AcDbLine
 62
7
  6
CONTINUOUS
 10
5.1193672762
 20
5.8270105257
 11
5.1193672762
 21
5.5345496114
  0
LINE
  5
23B
100
AcDbEntity
  8
0
100
AcDbLine
 62
7
  6
CONTINUOUS
 10
5.1293672762
 20
5.5245300685
 11
5.1293672762
 21
5.8370300685
  0
LINE
  5
23C
100
AcDbEntity
  8
0
100
AcDbLine
 62
7
  6
CONTINUOUS
 10
5.0467085884
 20
5.1417319738
 11
5.1217085884
 21
5.0118281632
  0
LINE
  5
23D
100
AcDbEntity
  8
0
100
AcDbLine
 62
7
  6
CONTINUOUS
 10
5.1286664192
 20
5.1832768468
 11
5.1986664192
 21
5.0620332903
  0
LINE
  5
23E
100
AcDbEntity
  8
0
100
AcDbLine
 62
7
  6
CONTINUOUS
 10
5.9841172762
 20
6.6917800685
 11
5.9741172762
 21
6.6817800685
  0
LINE
  5
23F
100
AcDbEntity
  8
0
100
AcDbLine
 62
7
  6
CONTINUOUS
 10
5.1193672762
 20
5.8270300685
 11
5.1293672762
 21
5.8370300685
  0
LINE
  5
240
100
AcDbEntity
  8
0
100
AcDbLine
 62
7
  6
CONTINUOUS
 10
5.1193672762
 20
5.5345300685
 11
5.1293672762
 21
5.5245300685
  0
LINE
  5
241
100
AcDbEntity
  8
0
100
AcDbLine
 62
7
  6
CONTINUOUS
 10
7.213124644
 20
7.0728964349
 11
7.2573188178
 21
7.1170906087
  0
LINE
  5
242
100
AcDbEntity
  8
0
100
AcDbLine
 62
7
  6
CONTINUOUS
 10
7.226382787
 20
7.0596382918
 11
7.2182750052
 21
7.0515305101
  0
LINE
  5
243
100
AcDbEntity
  8
0
100
AcDbLine
 62
7
  6
CONTINUOUS
 10
7.1692887035
 20
6.3758644287
 11
7.0064912457
 21
6.2818732726
  0
LINE
  5
244
100
AcDbEntity
  8
0
100
AcDbLine
 62
7
  6
CONTINUOUS
 10
5.1717433066
 20
5.2225810561
 11
5.0089458488
 21
5.1285899
  0
LINE
  5
245
100
AcDbEntity
  8
0
100
AcDbLine
 62
7
  6
CONTINUOUS
 10
9.2428672762
 20
5.0557800685
 11
8.5119371365
 21
5.0557800685
  0
LINE
  5
246
100
AcDbEntity
  8
0
100
AcDbLine
 62
7
  6
CONTINUOUS
 10
3.0178672762
 20
5.0557800685
 11
3.7487974157
 21
5.0557800685
  0
LINE
  5
247
100
AcDbEntity
  8
0
100
AcDbLine
 62
7
  6
CONTINUOUS
 10
5.9741172762
 20
6.6684976079
 11
5.9741172762
 21
6.6817800685
  0
LINE
  5
248
100
AcDbEntity
  8
0
100
AcDbLine
 62
7
  6
CONTINUOUS
 10
6.0478672762
 20
4.4335055398
 11
6.0478672762
 21
4.621487852
  0
LINE
  5
249
100
AcDbEntity
  8
0
100
AcDbLine
 62
7
  6
CONTINUOUS
 10
6.0478672762
 20
6.7400722851
 11
6.0478672762
 21
6.9280545973
  0
LINE
  5
24A
100
AcDbEntity
  8
0
100
AcDbLine
 62
7
  6
CONTINUOUS
 10
6.6825574447
 20
6.8022014959
 11
6.5885662886
 21
6.6394040381
  0
LINE
  5
24B
100
AcDbEntity
  8
0
100
AcDbLine
 62
7
  6
CONTINUOUS
 10
5.5292740721
 20
4.804656099
 11
5.435282916
 21
4.6418586412
  0
LINE
  5
24C
100
AcDbEntity
  8
0
100
AcDbLine
 62
7
  6
CONTINUOUS
 10
5.5781771076
 20
4.5593586412
 11
5.6721682637
 21
4.722156099
  0
LINE
  5
24D
100
AcDbEntity
  8
0
100
AcDbLine
 62
7
  6
CONTINUOUS
 10
6.7314604802
 20
6.5569040381
 11
6.8254516363
 21
6.7197014959
  0
LINE
  5
24E
100
AcDbEntity
  8
0
100
AcDbLine
 62
7
  6
CONTINUOUS
 10
7.3678041432
 20
6.9182169356
 11
7.4119983171
 21
6.9624111094
  0
LINE
  5
24F
100
AcDbEntity
  8
0
100
AcDbLine
 62
7
  6
CONTINUOUS
 10
4.9754393497
 20
5.1005846597
 11
5.1219838377
 21
5.1851921593
  0
LINE
  5
250
100
AcDbEntity
  8
0
100
AcDbLine
 62
7
  6
CONTINUOUS
 10
4.9858170998
 20
5.0315207215
 11
4.8833475921
 21
4.9723599237
  0
LINE
  5
251
100
AcDbEntity
  8
0
100
AcDbLine
 62
7
  6
CONTINUOUS
 10
4.8933475921
 20
4.9550394156
 11
4.9958170998
 21
5.0142002134
  0
LINE
  5
252
100
AcDbEntity
  8
0
100
AcDbLine
 62
7
  6
CONTINUOUS
 10
5.0504393497
 20
4.9706808491
 11
5.1969838377
 21
5.0552883487
  0
LINE
  5
253
100
AcDbEntity
  8
0
100
AcDbLine
 62
7
  6
CONTINUOUS
 10
5.0914458488
 20
4.9856957084
 11
5.2542433066
 21
5.0796868645
  0
LINE
  5
254
100
AcDbEntity
  8
0
100
AcDbLine
 62
7
  6
CONTINUOUS
 10
7.0889912457
 20
6.138979081
 11
7.2517887035
 21
6.2329702371
  0
LINE
  5
255
100
AcDbEntity
  8
03__ASM_ALL_CURVES
100
AcDbLine
 62
4
  6
CONTINUOUS
 10
2.9428672762
 20
5.4557800685
 11
3.9797375234
 21
5.4557800685
  0
LINE
  5
256
100
AcDbEntity
  8
03__ASM_ALL_CURVES
100
AcDbLine
 62
4
  6
CONTINUOUS
 10
5.6158789782
 20
5.4557800685
 11
6.6449524255
 21
5.4557800685
  0
LINE
  5
257
100
AcDbEntity
  8
03__ASM_ALL_CURVES
100
AcDbLine
 62
4
  6
CONTINUOUS
 10
8.2809970289
 20
5.4557800685
 11
9.3178672762
 21
5.4557800685
  0
LINE
  5
258
100
AcDbEntity
  8
0
100
AcDbLine
 62
7
  6
CONTINUOUS
 10
5.1426497367
 20
5.5245300685
 11
5.1293672762
 21
5.5245300685
  0
LINE
  5
259
100
AcDbEntity
  8
0
100
AcDbLine
 62
7
  6
CONTINUOUS
 10
5.435282916
 20
6.7197014959
 11
5.5292740721
 21
6.5569040381
  0
LINE
  5
25A
100
AcDbEntity
  8
0
100
AcDbLine
 62
7
  6
CONTINUOUS
 10
6.5885662886
 20
4.722156099
 11
6.6825574447
 21
4.5593586412
  0
LINE
  5
25B
100
AcDbEntity
  8
0
100
AcDbLine
 62
7
  6
CONTINUOUS
 10
6.2128672762
 20
4.4335055398
 11
6.2128672762
 21
4.621487852
  0
LINE
  5
25C
100
AcDbEntity
  8
0
100
AcDbLine
 62
7
  6
CONTINUOUS
 10
6.2128672762
 20
6.7400722851
 11
6.2128672762
 21
6.9280545973
  0
LINE
  5
25D
100
AcDbEntity
  8
0
100
AcDbLine
 62
7
  6
CONTINUOUS
 10
6.2866172762
 20
6.6684976079
 11
6.2866172762
 21
6.6817800685
  0
LINE
  5
25E
100
AcDbEntity
  8
0
100
AcDbLine
 62
7
  6
CONTINUOUS
 10
7.5092254995
 20
6.7767955794
 11
7.5011177177
 21
6.7686877976
  0
LINE
  5
25F
100
AcDbEntity
  8
0
100
AcDbLine
 62
7
  6
CONTINUOUS
 10
7.5666778163
 20
6.8077316102
 11
7.5224836425
 21
6.7635374364
  0
LINE
  5
260
100
AcDbEntity
  8
0
100
AcDbLine
 62
7
  6
CONTINUOUS
 10
7.3776418049
 20
5.5982800685
 11
7.1896594927
 21
5.5982800685
  0
LINE
  5
261
100
AcDbEntity
  8
0
100
AcDbLine
 62
7
  6
CONTINUOUS
 10
4.8830927474
 20
5.5982800685
 11
5.0710750596
 21
5.5982800685
  0
LINE
  5
262
100
AcDbEntity
  8
0
100
AcDbLine
 62
7
  6
CONTINUOUS
 10
5.0710750596
 20
5.7632800685
 11
4.8830927474
 21
5.7632800685
  0
LINE
  5
263
100
AcDbEntity
  8
0
100
AcDbLine
 62
7
  6
CONTINUOUS
 10
7.1896594927
 20
5.7632800685
 11
7.3776418049
 21
5.7632800685
  0
LINE
  5
264
100
AcDbEntity
  8
0
100
AcDbLine
 62
7
  6
CONTINUOUS
 10
5.0089458488
 20
6.2329702371
 11
5.1717433066
 21
6.138979081
  0
LINE
  5
265
100
AcDbEntity
  8
0
100
AcDbLine
 62
7
  6
CONTINUOUS
 10
7.0064912457
 20
5.0796868645
 11
7.1692887035
 21
4.9856957084
  0
LINE
  5
266
100
AcDbEntity
  8
0
100
AcDbLine
 62
7
  6
CONTINUOUS
 10
7.2517887035
 20
5.1285899
 11
7.0889912457
 21
5.2225810561
  0
LINE
  5
267
100
AcDbEntity
  8
0
100
AcDbLine
 62
7
  6
CONTINUOUS
 10
5.2542433066
 20
6.2818732726
 11
5.0914458488
 21
6.3758644287
  0
LINE
  5
268
100
AcDbEntity
  8
03__ASM_ALL_CURVES
100
AcDbLine
 62
4
  6
CONTINUOUS
 10
4.7161537138
 20
7.0949936309
 11
4.8955351105
 21
6.9156122342
  0
LINE
  5
269
100
AcDbEntity
  8
03__ASM_ALL_CURVES
100
AcDbLine
 62
4
  6
CONTINUOUS
 10
5.7327057758
 20
6.0784415689
 11
6.5280287765
 21
5.2831185682
  0
LINE
  5
26A
100
AcDbEntity
  8
03__ASM_ALL_CURVES
100
AcDbLine
 62
4
  6
CONTINUOUS
 10
7.6303672762
 20
4.1807800685
 11
8.2516876197
 21
3.559459725
  0
LINE
  5
26B
100
AcDbEntity
  8
0
100
AcDbLine
 62
7
  6
CONTINUOUS
 10
6.8254516363
 20
4.6418586412
 11
6.7314604802
 21
4.804656099
  0
LINE
  5
26C
100
AcDbEntity
  8
0
100
AcDbLine
 62
7
  6
CONTINUOUS
 10
5.6721682637
 20
6.6394040381
 11
5.5781771076
 21
6.8022014959
  0
LINE
  5
26D
100
AcDbEntity
  8
0
100
AcDbLine
 62
7
  6
CONTINUOUS
 10
5.1426497368
 20
5.8370300685
 11
5.1293672762
 21
5.8370300685
  0
LINE
  5
26E
100
AcDbEntity
  8
0
100
AcDbLine
 62
7
  6
CONTINUOUS
 10
6.2766172762
 20
6.6917800685
 11
6.2866172762
 21
6.6817800685
  0
LINE
  5
26F
100
AcDbEntity
  8
0
100
AcDbLine
 62
7
  6
CONTINUOUS
 10
5.9741172762
 20
6.6817800685
 11
6.2866172762
 21
6.6817800685
  0
LINE
  5
270
100
AcDbEntity
  8
0
100
AcDbLine
 62
7
  6
CONTINUOUS
 10
6.2765977333
 20
6.6917800685
 11
5.984136819
 21
6.6917800685
  0
LINE
  5
271
100
AcDbEntity
  8
0
100
AcDbLine
 62
7
  6
CONTINUOUS
 10
7.5224836425
 20
6.7635374364
 11
7.213124644
 21
7.0728964349
  0
LINE
  5
272
100
AcDbEntity
  8
0
100
AcDbLine
 62
7
  6
CONTINUOUS
 10
7.5666778163
 20
6.8077316102
 11
7.2573188178
 21
7.1170906087
  0
LINE
  5
273
100
AcDbEntity
  8
0
100
AcDbLine
 62
7
  6
CONTINUOUS
 10
7.6459117328
 20
6.5557800685
 11
8.5552384068
 21
4.9807800685
  0
LINE
  5
274
100
AcDbEntity
  8
0
100
AcDbLine
 62
7
  6
CONTINUOUS
 10
7.5925902939
 20
6.9833445653
 11
7.4329317729
 21
7.1430030862
  0
LINE
  5
275
100
AcDbEntity
  8
0
100
AcDbLine
 62
7
  6
CONTINUOUS
 10
7.6572759818
 20
7.136978096
 11
7.5865653037
 21
7.2076887742
  0
LINE
  5
276
100
AcDbEntity
  8
03__ASM_ALL_CURVES
100
AcDbLine
 62
8
  6
HIDDEN
 10
7.3276161449
 20
7.4807800685
 11
8.3276161449
 21
6.4807800685
  0
LINE
  5
277
100
AcDbEntity
  8
0
100
AcDbLine
 62
7
  6
CONTINUOUS
 10
9.3178672762
 20
4.1807800685
 11
9.3178672762
 21
4.9807800685
  0
LINE
  5
278
100
AcDbEntity
  8
0
100
AcDbLine
 62
7
  6
CONTINUOUS
 10
2.8833720839
 20
11.8937977814
 11
2.8833720839
 21
13.8687977814
  0
LINE
  5
279
100
AcDbEntity
  8
0
100
AcDbLine
 62
7
  6
CONTINUOUS
 10
3.6893022235
 20
11.8937977814
 11
3.6893022235
 21
12.3700832449
  0
LINE
  5
27A
100
AcDbEntity
  8
0
100
AcDbLine
 62
7
  6
CONTINUOUS
 10
3.6893022234
 20
13.3925123234
 11
3.6893022234
 21
13.8687977814
  0
LINE
  5
27B
100
AcDbEntity
  8
0
100
AcDbLine
 62
7
  6
CONTINUOUS
 10
5.0698720839
 20
11.3812977814
 11
5.0598720839
 21
11.3912977814
  0
LINE
  5
27C
100
AcDbEntity
  8
0
100
AcDbLine
 62
7
  6
CONTINUOUS
 10
4.7550871537
 20
11.8187977814
 11
4.7550871537
 21
11.7937977814
  0
LINE
  5
27D
100
AcDbEntity
  8
0
100
AcDbLine
 62
7
  6
CONTINUOUS
 10
4.7705220907
 20
11.7187977814
 11
4.7705220907
 21
11.7937977814
  0
LINE
  5
27E
100
AcDbEntity
  8
0
100
AcDbLine
 62
7
  6
CONTINUOUS
 10
5.0708720839
 20
11.2562977814
 11
7.0708720839
 21
11.2562977814
  0
LINE
  5
27F
100
AcDbEntity
  8
0
100
AcDbLine
 62
7
  6
CONTINUOUS
 10
5.0708720839
 20
11.3812977814
 11
5.0698720839
 21
11.3812977814
  0
LINE
  5
280
100
AcDbEntity
  8
0
100
AcDbLine
 62
7
  6
CONTINUOUS
 10
5.0708720839
 20
11.6937977814
 11
5.0716860796
 21
11.6885005343
  0
LINE
  5
281
100
AcDbEntity
  8
0
100
AcDbLine
 62
7
  6
CONTINUOUS
 10
5.0050871537
 20
11.7993279412
 11
5.0050871537
 21
11.8187977814
  0
LINE
  5
282
100
AcDbEntity
  8
0
100
AcDbLine
 62
7
  6
CONTINUOUS
 10
5.0598720839
 20
11.6837977814
 11
5.0598720839
 21
11.3912977814
  0
LINE
  5
283
100
AcDbEntity
  8
0
100
AcDbLine
 62
7
  6
CONTINUOUS
 10
5.0698720839
 20
11.3812977814
 11
5.0698720839
 21
11.6937977814
  0
LINE
  5
284
100
AcDbEntity
  8
0
100
AcDbLine
 62
7
  6
CONTINUOUS
 10
5.0708720839
 20
11.8187977814
 11
5.0708720839
 21
11.6937977814
  0
LINE
  5
285
100
AcDbEntity
  8
0
100
AcDbLine
 62
7
  6
CONTINUOUS
 10
5.0708720839
 20
11.3812977814
 11
5.0708720839
 21
11.2562977814
  0
LINE
  5
286
100
AcDbEntity
  8
0
100
AcDbLine
 62
7
  6
CONTINUOUS
 10
5.0698720839
 20
11.6937977814
 11
5.0708720839
 21
11.6937977814
  0
LINE
  5
287
100
AcDbEntity
  8
0
100
AcDbLine
 62
7
  6
CONTINUOUS
 10
5.9927470839
 20
11.4924422916
 11
6.0708720839
 21
11.4473368018
  0
LINE
  5
288
100
AcDbEntity
  8
0
100
AcDbLine
 62
7
  6
CONTINUOUS
 10
5.0716862464
 20
11.3865961325
 11
5.0708720839
 21
11.3812977814
  0
LINE
  5
289
100
AcDbEntity
  8
0
100
AcDbLine
 62
7
  6
CONTINUOUS
 10
4.7705220907
 20
11.7187977814
 11
5.0622133961
 21
11.7187977814
  0
LINE
  5
28A
100
AcDbEntity
  8
0
100
AcDbLine
 62
7
  6
CONTINUOUS
 10
5.0691712269
 20
11.7433821198
 11
5.0708720839
 21
11.7433821198
  0
LINE
  5
28B
100
AcDbEntity
  8
0
100
AcDbLine
 62
7
  6
CONTINUOUS
 10
5.0708720839
 20
11.7760375643
 11
5.0640935046
 21
11.7760375643
  0
LINE
  5
28C
100
AcDbEntity
  8
0
100
AcDbLine
 62
7
  6
CONTINUOUS
 10
5.0708720839
 20
11.7937977814
 11
5.0506440527
 21
11.7937977814
  0
LINE
  5
28D
100
AcDbEntity
  8
0
100
AcDbLine
 62
7
  6
CONTINUOUS
 10
4.7550871537
 20
11.7937977814
 11
4.9872133961
 21
11.7937977814
  0
LINE
  5
28E
100
AcDbEntity
  8
0
100
AcDbLine
 62
7
  6
CONTINUOUS
 10
5.0708720839
 20
11.8133580724
 11
5.0529332506
 21
11.8133580724
  0
LINE
  5
28F
100
AcDbEntity
  8
0
100
AcDbLine
 62
7
  6
CONTINUOUS
 10
2.9583720839
 20
11.8187977814
 11
9.1833720839
 21
11.8187977814
  0
LINE
  5
290
100
AcDbEntity
  8
0
100
AcDbLine
 62
7
  6
CONTINUOUS
 10
6.1489970839
 20
11.5826532711
 11
6.0708720839
 21
11.6277587609
  0
LINE
  5
291
100
AcDbEntity
  8
0
100
AcDbLine
 62
7
  6
CONTINUOUS
 10
5.9927470839
 20
11.4924422916
 11
5.9927470839
 21
11.5826532711
  0
LINE
  5
292
100
AcDbEntity
  8
0
100
AcDbLine
 62
7
  6
CONTINUOUS
 10
5.0598720839
 20
11.6837977814
 11
5.0698720839
 21
11.6937977814
  0
LINE
  5
293
100
AcDbEntity
  8
0
100
AcDbLine
 62
7
  6
CONTINUOUS
 10
7.3083089509
 20
12.6287072168
 11
7.3525031248
 21
12.6287072168
  0
LINE
  5
294
100
AcDbEntity
  8
0
100
AcDbLine
 62
7
  6
CONTINUOUS
 10
6.1489970839
 20
11.5826532711
 11
6.1489970839
 21
11.4924422916
  0
LINE
  5
295
100
AcDbEntity
  8
0
100
AcDbLine
 62
7
  6
CONTINUOUS
 10
3.5708720839
 20
12.6312977814
 11
3.8521220839
 21
12.6312977814
  0
LINE
  5
296
100
AcDbEntity
  8
0
100
AcDbLine
 62
7
  6
CONTINUOUS
 10
8.2896220839
 20
12.6312977814
 11
8.5708720839
 21
12.6312977814
  0
LINE
  5
297
100
AcDbEntity
  8
0
100
AcDbLine
 62
7
  6
CONTINUOUS
 10
7.1536294517
 20
12.7550024991
 11
7.1978236255
 21
12.7550024991
  0
LINE
  5
298
100
AcDbEntity
  8
0
100
AcDbLine
 62
7
  6
CONTINUOUS
 10
7.1536294517
 20
13.0075930636
 11
7.3083089509
 21
13.1338883459
  0
LINE
  5
299
100
AcDbEntity
  8
0
100
AcDbLine
 62
7
  6
CONTINUOUS
 10
7.1978236255
 20
13.0075930636
 11
7.3525031248
 21
13.1338883459
  0
LINE
  5
29A
100
AcDbEntity
  8
0
100
AcDbLine
 62
7
  6
CONTINUOUS
 10
4.9872133961
 20
11.7937977814
 11
5.046250669
 21
11.8120639772
  0
LINE
  5
29B
100
AcDbEntity
  8
03__ASM_ALL_CURVES
100
AcDbLine
 62
4
  6
CONTINUOUS
 10
2.8833720839
 20
12.8812977814
 11
4.3271220839
 21
12.8812977814
  0
LINE
  5
29C
100
AcDbEntity
  8
03__ASM_ALL_CURVES
100
AcDbLine
 62
8
  6
HIDDEN
 10
7.2681209526
 20
12.8812977814
 11
7.8146220839
 21
12.8812977814
  0
LINE
  5
29D
100
AcDbEntity
  8
03__ASM_ALL_CURVES
100
AcDbLine
 62
4
  6
CONTINUOUS
 10
7.8146220839
 20
12.8812977814
 11
9.2583720839
 21
12.8812977814
  0
LINE
  5
29E
100
AcDbEntity
  8
0
100
AcDbLine
 62
7
  6
CONTINUOUS
 10
7.1978236255
 20
13.0075930636
 11
7.1536294517
 21
13.0075930636
  0
LINE
  5
29F
100
AcDbEntity
  8
0
100
AcDbLine
 62
7
  6
CONTINUOUS
 10
4.9872133961
 20
11.7187977814
 11
5.0624886454
 21
11.7420880245
  0
LINE
  5
2A0
100
AcDbEntity
  8
0
100
AcDbLine
 62
7
  6
CONTINUOUS
 10
5.0622133961
 20
11.7187977814
 11
5.0708720839
 21
11.7214767887
  0
LINE
  5
2A1
100
AcDbEntity
  8
0
100
AcDbLine
 62
7
  6
CONTINUOUS
 10
8.5708720839
 20
13.1312977814
 11
8.2896220839
 21
13.1312977814
  0
LINE
  5
2A2
100
AcDbEntity
  8
0
100
AcDbLine
 62
7
  6
CONTINUOUS
 10
3.8521220839
 20
13.1312977814
 11
3.5708720839
 21
13.1312977814
  0
LINE
  5
2A3
100
AcDbEntity
  8
0
100
AcDbLine
 62
7
  6
CONTINUOUS
 10
7.3083089509
 20
13.1338883459
 11
7.3525031248
 21
13.1338883459
  0
LINE
  5
2A4
100
AcDbEntity
  8
0
100
AcDbLine
 62
7
  6
CONTINUOUS
 10
7.3525031248
 20
12.6287072168
 11
7.4910277449
 21
12.7418120955
  0
LINE
  5
2A5
100
AcDbEntity
  8
0
100
AcDbLine
 62
7
  6
CONTINUOUS
 10
6.0708720839
 20
11.6277587609
 11
5.9927470839
 21
11.5826532711
  0
LINE
  5
2A6
100
AcDbEntity
  8
0
100
AcDbLine
 62
7
  6
CONTINUOUS
 10
7.3083089509
 20
12.6287072168
 11
7.1536294517
 21
12.7550024991
  0
LINE
  5
2A7
100
AcDbEntity
  8
0
100
AcDbLine
 62
7
  6
CONTINUOUS
 10
7.3525031248
 20
12.6287072168
 11
7.1978236255
 21
12.7550024991
  0
LINE
  5
2A8
100
AcDbEntity
  8
0
100
AcDbLine
 62
7
  6
CONTINUOUS
 10
7.0708720839
 20
11.2562977814
 11
7.0708720839
 21
11.8187977814
  0
LINE
  5
2A9
100
AcDbEntity
  8
0
100
AcDbLine
 62
7
  6
CONTINUOUS
 10
7.1536294517
 20
12.7550024991
 11
7.1536294517
 21
13.0075930636
  0
LINE
  5
2AA
100
AcDbEntity
  8
0
100
AcDbLine
 62
7
  6
CONTINUOUS
 10
7.1978236255
 20
12.7550024991
 11
7.1978236255
 21
13.0075930636
  0
LINE
  5
2AB
100
AcDbEntity
  8
0
100
AcDbLine
 62
7
  6
CONTINUOUS
 10
6.0708720839
 20
11.4473368018
 11
6.1489970839
 21
11.4924422916
  0
LINE
  5
2AC
100
AcDbEntity
  8
0
100
AcDbLine
 62
7
  6
CONTINUOUS
 10
2.9583720839
 20
13.9437977814
 11
9.1833720839
 21
13.9437977814
  0
LINE
  5
2AD
100
AcDbEntity
  8
0
100
AcDbLine
 62
7
  6
CONTINUOUS
 10
7.4922279299
 20
13.0198035202
 11
7.3525031248
 21
13.1338883459
  0
LINE
  5
2AE
100
AcDbEntity
  8
0
100
AcDbLine
 62
7
  6
CONTINUOUS
 10
8.4524419443
 20
13.8687977814
 11
8.4524419442
 21
13.3925123178
  0
LINE
  5
2AF
100
AcDbEntity
  8
0
100
AcDbLine
 62
7
  6
CONTINUOUS
 10
8.4524419443
 20
12.3700832393
 11
8.4524419443
 21
11.8937977814
  0
LINE
  5
2B0
100
AcDbEntity
  8
0
100
AcDbLine
 62
7
  6
CONTINUOUS
 10
9.2583720839
 20
13.8687977814
 11
9.2583720839
 21
11.8937977814
  0
LINE
  5
2B1
100
AcDbEntity
  8
0
100
AcDbLine
 62
7
  6
CONTINUOUS
 10
14.3416052569
 20
6.6222848762
 11
14.3516052569
 21
6.6322848762
  0
LINE
  5
2B2
100
AcDbEntity
  8
0
100
AcDbLine
 62
7
  6
CONTINUOUS
 10
14.2166052569
 20
6.6212834911
 11
14.2166052569
 21
4.6212862614
  0
LINE
  5
2B3
100
AcDbEntity
  8
0
100
AcDbLine
 62
7
  6
CONTINUOUS
 10
14.7791052569
 20
4.1212848762
 11
16.9041052569
 21
4.1212848762
  0
LINE
  5
2B4
100
AcDbEntity
  8
0
100
AcDbLine
 62
7
  6
CONTINUOUS
 10
14.3416052569
 20
6.6212848762
 11
14.3416052569
 21
6.6222848762
  0
LINE
  5
2B5
100
AcDbEntity
  8
0
100
AcDbLine
 62
7
  6
CONTINUOUS
 10
14.6541052569
 20
6.6222848762
 11
14.6541052569
 21
6.6212848762
  0
LINE
  5
2B6
100
AcDbEntity
  8
0
100
AcDbLine
 62
7
  6
CONTINUOUS
 10
14.7791052569
 20
4.1212848762
 11
14.7791052569
 21
7.3712836701
  0
LINE
  5
2B7
100
AcDbEntity
  8
0
100
AcDbLine
 62
7
  6
CONTINUOUS
 10
15.5890146924
 20
6.9029159171
 11
15.7030995181
 21
7.0426407223
  0
LINE
  5
2B8
100
AcDbEntity
  8
0
100
AcDbLine
 62
7
  6
CONTINUOUS
 10
14.7791052569
 20
4.6212848762
 11
14.2166052569
 21
4.6212848762
  0
LINE
  5
2B9
100
AcDbEntity
  8
0
100
AcDbLine
 62
7
  6
CONTINUOUS
 10
15.9679005392
 20
6.7482364179
 11
16.0941958215
 21
6.9029159171
  0
LINE
  5
2BA
100
AcDbEntity
  8
0
100
AcDbLine
 62
7
  6
CONTINUOUS
 10
15.9679005392
 20
6.7040422441
 11
16.0941958215
 21
6.8587217433
  0
LINE
  5
2BB
100
AcDbEntity
  8
0
100
AcDbLine
 62
7
  6
CONTINUOUS
 10
14.8541052569
 20
4.9962848762
 11
16.8291052569
 21
4.9962848762
  0
LWPOLYLINE
  5
2BC
100
AcDbEntity
  8
0
100
AcDbPolyline
 62
7
  6
CONTINUOUS
 90
3
 70
0
 10
15.3775883262
 20
4.9962848762
 10
15.3697986762
 20
5.0797643552
 10
15.3666053247
 20
5.1783588475
  0
LINE
  5
2BD
100
AcDbEntity
  8
0
100
AcDbLine
 62
7
  6
CONTINUOUS
 10
15.3666052569
 20
5.1783464485
 11
15.3666052579
 21
5.1784033519
  0
LINE
  5
2BE
100
AcDbEntity
  8
0
100
AcDbLine
 62
7
  6
CONTINUOUS
 10
15.5890146924
 20
6.8587217433
 11
15.5890146924
 21
6.9029159171
  0
LINE
  5
2BF
100
AcDbEntity
  8
0
100
AcDbLine
 62
7
  6
CONTINUOUS
 10
15.7153099747
 20
6.7482364179
 11
15.7153099747
 21
6.7040422441
  0
LINE
  5
2C0
100
AcDbEntity
  8
03__ASM_ALL_CURVES
100
AcDbLine
 62
8
  6
HIDDEN
 10
15.8416052569
 20
7.4212848762
 11
15.8416052569
 21
6.4212848762
  0
LINE
  5
2C1
100
AcDbEntity
  8
03__ASM_ALL_CURVES
100
AcDbLine
 62
4
  6
CONTINUOUS
 10
15.8416052569
 20
4.1212848762
 11
15.8416052569
 21
3.4999645327
  0
LINE
  5
2C2
100
AcDbEntity
  8
0
100
AcDbLine
 62
7
  6
CONTINUOUS
 10
14.6441052569
 20
6.6322848762
 11
14.6541052569
 21
6.6222848762
  0
LINE
  5
2C3
100
AcDbEntity
  8
0
100
AcDbLine
 62
7
  6
CONTINUOUS
 10
15.9679005392
 20
6.7040422441
 11
15.9679005392
 21
6.7482364179
  0
LINE
  5
2C4
100
AcDbEntity
  8
0
100
AcDbLine
 62
7
  6
CONTINUOUS
 10
16.0941958215
 20
6.8587217433
 11
16.0941958215
 21
6.9029159171
  0
LINE
  5
2C5
100
AcDbEntity
  8
0
100
AcDbLine
 62
7
  6
CONTINUOUS
 10
16.316605256
 20
5.1783196426
 11
16.3166052569
 21
5.1782622128
  0
LWPOLYLINE
  5
2C6
100
AcDbEntity
  8
0
100
AcDbPolyline
 62
7
  6
CONTINUOUS
 90
3
 70
0
 10
16.3166052642
 20
5.1783573003
 10
16.3133450135
 20
5.0787444103
 10
16.3056221809
 20
4.9962848762
  0
LINE
  5
2C7
100
AcDbEntity
  8
0
100
AcDbLine
 62
7
  6
CONTINUOUS
 10
14.3416052569
 20
6.6212848762
 11
14.3468514249
 21
6.6204785986
  0
LINE
  5
2C8
100
AcDbEntity
  8
0
100
AcDbLine
 62
7
  6
CONTINUOUS
 10
15.7153099747
 20
6.7040422441
 11
15.5890146924
 21
6.8587217433
  0
LINE
  5
2C9
100
AcDbEntity
  8
0
100
AcDbLine
 62
7
  6
CONTINUOUS
 10
15.5890146924
 20
6.9029159171
 11
15.7153099747
 21
6.7482364179
  0
LINE
  5
2CA
100
AcDbEntity
  8
0
100
AcDbLine
 62
7
  6
CONTINUOUS
 10
14.6488567648
 20
6.6204782473
 11
14.6541052569
 21
6.6212848762
  0
LINE
  5
2CB
100
AcDbEntity
  8
0
100
AcDbLine
 62
7
  6
CONTINUOUS
 10
14.7791052569
 20
6.6212848762
 11
14.6541052569
 21
6.6212848762
  0
LINE
  5
2CC
100
AcDbEntity
  8
0
100
AcDbLine
 62
7
  6
CONTINUOUS
 10
14.3416052569
 20
6.6212848762
 11
14.2166052569
 21
6.6212848762
  0
LINE
  5
2CD
100
AcDbEntity
  8
0
100
AcDbLine
 62
7
  6
CONTINUOUS
 10
14.3416052569
 20
6.6222848762
 11
14.6541052569
 21
6.6222848762
  0
LINE
  5
2CE
100
AcDbEntity
  8
0
100
AcDbLine
 62
7
  6
CONTINUOUS
 10
14.6441052569
 20
6.6322848762
 11
14.3516052569
 21
6.6322848762
  0
LINE
  5
2CF
100
AcDbEntity
  8
0
100
AcDbLine
 62
7
  6
CONTINUOUS
 10
15.7153099747
 20
6.7040422441
 11
15.9679005392
 21
6.7040422441
  0
LINE
  5
2D0
100
AcDbEntity
  8
0
100
AcDbLine
 62
7
  6
CONTINUOUS
 10
15.7153099747
 20
6.7482364179
 11
15.9679005392
 21
6.7482364179
  0
LINE
  5
2D1
100
AcDbEntity
  8
0
100
AcDbLine
 62
7
  6
CONTINUOUS
 10
16.9041052569
 20
4.1212848762
 11
16.9041052569
 21
7.3712836701
  0
LINE
  5
2D2
100
AcDbEntity
  8
0
100
AcDbLine
 62
7
  6
CONTINUOUS
 10
15.9810909428
 20
7.0414405372
 11
16.0941958215
 21
6.9029159171
  0
LINE
  5
2D3
100
AcDbEntity
  8
0
100
AcDbLine
 62
7
  6
CONTINUOUS
 10
14.7791052569
 20
7.3712848762
 11
16.9041052569
 21
7.3712848762
  0
LINE
  5
2D4
100
AcDbEntity
  8
0
100
AcDbLine
 62
7
  6
CONTINUOUS
 10
12.1777707579
 20
11.256308786
 11
12.4218042512
 21
10.7590208113
  0
LINE
  5
2D5
100
AcDbEntity
  8
0
100
AcDbLine
 62
7
  6
CONTINUOUS
 10
12.1734440686
 20
11.311493042
 11
12.6515250573
 21
12.8585636885
  0
LWPOLYLINE
  5
2D6
100
AcDbEntity
  8
0
100
AcDbPolyline
 62
7
  6
CONTINUOUS
 90
8
 70
0
 10
13.4212810767
 20
12.9227363495
 10
13.4212182236
 20
12.9223650201
 10
13.4208093597
 20
12.9201638506
 10
13.4200153783
 20
12.9164448399
 10
13.4187996497
 20
12.911258648
 10
13.4171269285
 20
12.9045822727
 10
13.4149605868
 20
12.8963553048
 10
13.412263372
 20
12.8864998046
  0
LWPOLYLINE
  5
2D7
100
AcDbEntity
  8
0
100
AcDbPolyline
 62
7
  6
CONTINUOUS
 90
4
 70
0
 10
13.412263372
 20
12.8864998046
 10
13.4089994168
 20
12.8749349744
 10
13.4051347483
 20
12.8615821831
 10
13.4006397896
 20
12.8463734547
  0
LINE
  5
2D8
100
AcDbEntity
  8
0
100
AcDbLine
 62
7
  6
CONTINUOUS
 10
13.4006397896
 20
12.8463734547
 11
13.389665637
 21
12.8101886253
  0
LINE
  5
2D9
100
AcDbEntity
  8
0
100
AcDbLine
 62
7
  6
CONTINUOUS
 10
13.0416924487
 20
11.9765786248
 11
13.0222533977
 21
11.9136738326
  0
LINE
  5
2DA
100
AcDbEntity
  8
0
100
AcDbLine
 62
7
  6
CONTINUOUS
 10
12.8954537328
 20
11.3359702367
 11
13.0107464039
 21
11.709057457
  0
LINE
  5
2DB
100
AcDbEntity
  8
0
100
AcDbLine
 62
7
  6
CONTINUOUS
 10
13.2582420519
 20
12.5099536674
 11
13.3735347216
 21
12.8830408832
  0
LINE
  5
2DC
100
AcDbEntity
  8
0
100
AcDbLine
 62
7
  6
CONTINUOUS
 10
13.389665637
 20
12.8101886253
 11
13.3761500845
 21
12.7667844195
  0
LINE
  5
2DD
100
AcDbEntity
  8
0
100
AcDbLine
 62
7
  6
CONTINUOUS
 10
13.3761500845
 20
12.7667844195
 11
13.3606362689
 21
12.7179580518
  0
LINE
  5
2DE
100
AcDbEntity
  8
0
100
AcDbLine
 62
7
  6
CONTINUOUS
 10
13.3606362689
 20
12.7179580518
 11
13.3345577377
 21
12.6374478833
  0
LINE
  5
2DF
100
AcDbEntity
  8
0
100
AcDbLine
 62
7
  6
CONTINUOUS
 10
13.3345577377
 20
12.6374478833
 11
13.3068015562
 21
12.5532510406
  0
LINE
  5
2E0
100
AcDbEntity
  8
0
100
AcDbLine
 62
7
  6
CONTINUOUS
 10
13.3068015562
 20
12.5532510406
 11
13.2691189317
 21
12.4407205433
  0
LINE
  5
2E1
100
AcDbEntity
  8
0
100
AcDbLine
 62
7
  6
CONTINUOUS
 10
13.2691189317
 20
12.4407205433
 11
13.2311218401
 21
12.3288910707
  0
LINE
  5
2E2
100
AcDbEntity
  8
0
100
AcDbLine
 62
7
  6
CONTINUOUS
 10
13.0107464037
 20
11.709057457
 11
13.0114185956
 21
11.7110092111
  0
LINE
  5
2E3
100
AcDbEntity
  8
0
100
AcDbLine
 62
7
  6
CONTINUOUS
 10
13.2311218401
 20
12.3288910707
 11
13.1928099468
 21
12.2175697404
  0
LINE
  5
2E4
100
AcDbEntity
  8
0
100
AcDbLine
 62
7
  6
CONTINUOUS
 10
13.1928099468
 20
12.2175697404
 11
13.1535872509
 21
12.1050038239
  0
LINE
  5
2E5
100
AcDbEntity
  8
0
100
AcDbLine
 62
7
  6
CONTINUOUS
 10
13.1535872509
 20
12.1050038239
 11
13.1131671696
 21
11.9905142438
  0
LINE
  5
2E6
100
AcDbEntity
  8
0
100
AcDbLine
 62
7
  6
CONTINUOUS
 10
13.1131671696
 20
11.9905142438
 11
13.0729103292
 21
11.8781877552
  0
LINE
  5
2E7
100
AcDbEntity
  8
0
100
AcDbLine
 62
7
  6
CONTINUOUS
 10
13.7317891151
 20
13.8742053539
 11
13.3806954033
 21
12.9116485014
  0
LINE
  5
2E8
100
AcDbEntity
  8
0
100
AcDbLine
 62
7
  6
CONTINUOUS
 10
12.8602937876
 20
11.2305999709
 11
13.2173981779
 21
12.2096356709
  0
LINE
  5
2E9
100
AcDbEntity
  8
0
100
AcDbLine
 62
7
  6
CONTINUOUS
 10
13.0729103292
 20
11.8781877552
 11
13.043765177
 21
11.7981493759
  0
LINE
  5
2EA
100
AcDbEntity
  8
0
100
AcDbLine
 62
7
  6
CONTINUOUS
 10
13.043765177
 20
11.7981493759
 11
13.0162918849
 21
11.724003043
  0
LINE
  5
2EB
100
AcDbEntity
  8
0
100
AcDbLine
 62
7
  6
CONTINUOUS
 10
13.0162918849
 20
11.724003043
 11
13.0114150028
 21
11.7110093892
  0
LINE
  5
2EC
100
AcDbEntity
  8
0
100
AcDbLine
 62
7
  6
CONTINUOUS
 10
12.470979151
 20
10.7333119963
 11
14.426316223
 21
10.7333119963
  0
LINE
  5
2ED
100
AcDbEntity
  8
0
100
AcDbLine
 62
7
  6
CONTINUOUS
 10
15.544412244
 20
10.7333119963
 11
18.2045838386
 21
10.7333119963
  0
LINE
  5
2EE
100
AcDbEntity
  8
0
100
AcDbLine
 62
7
  6
CONTINUOUS
 10
13.6859445283
 20
12.0347855794
 11
13.6788800405
 21
12.0089738618
  0
LINE
  5
2EF
100
AcDbEntity
  8
0
100
AcDbLine
 62
7
  6
CONTINUOUS
 10
13.7638307213
 20
11.6379439336
 11
13.7565687316
 21
11.6144441263
  0
LINE
  5
2F0
100
AcDbEntity
  8
0
100
AcDbLine
 62
7
  6
CONTINUOUS
 10
13.9247978506
 20
11.9609743202
 11
13.7886355437
 21
11.5203529335
  0
LINE
  5
2F1
100
AcDbEntity
  8
0
100
AcDbLine
 62
7
  6
CONTINUOUS
 10
14.0593206997
 20
12.2103343416
 11
14.0665826894
 21
12.2338341489
  0
LINE
  5
2F2
100
AcDbEntity
  8
0
100
AcDbLine
 62
7
  6
CONTINUOUS
 10
13.6788800405
 20
12.0089738618
 11
13.8574976665
 21
11.9505480223
  0
LINE
  5
2F3
100
AcDbEntity
  8
0
100
AcDbLine
 62
7
  6
CONTINUOUS
 10
15.8705409021
 20
11.2920814212
 11
16.0491585281
 21
11.2336555816
  0
LINE
  5
2F4
100
AcDbEntity
  8
0
100
AcDbLine
 62
7
  6
CONTINUOUS
 10
16.0564205178
 20
11.2571553889
 11
15.8805603204
 21
11.3146792734
  0
LINE
  5
2F5
100
AcDbEntity
  8
0
100
AcDbLine
 62
7
  6
CONTINUOUS
 10
13.8634648153
 20
11.9744713722
 11
13.6861420302
 21
12.0324736691
  0
LINE
  5
2F6
100
AcDbEntity
  8
0
100
AcDbLine
 62
7
  6
CONTINUOUS
 10
13.9230890717
 20
12.3115308642
 11
14.0593206997
 21
12.2103343416
  0
LINE
  5
2F7
100
AcDbEntity
  8
0
100
AcDbLine
 62
7
  6
CONTINUOUS
 10
15.7150908001
 20
10.9803837147
 11
15.7309000059
 21
10.9686402108
  0
LINE
  5
2F8
100
AcDbEntity
  8
0
100
AcDbLine
 62
7
  6
CONTINUOUS
 10
15.7381619956
 20
10.9921400181
 11
15.7223527898
 21
11.003883522
  0
LINE
  5
2F9
100
AcDbEntity
  8
0
100
AcDbLine
 62
7
  6
CONTINUOUS
 10
14.0665826894
 20
12.2338341489
 11
13.9458073097
 21
12.3235493539
  0
LINE
  5
2FA
100
AcDbEntity
  8
0
100
AcDbLine
 62
7
  6
CONTINUOUS
 10
14.4579529375
 20
12.0781157788
 11
14.4427008441
 21
12.1091962772
  0
LINE
  5
2FB
100
AcDbEntity
  8
0
100
AcDbLine
 62
7
  6
CONTINUOUS
 10
14.5408293477
 20
12.1134481227
 11
14.5255772544
 21
12.1445286211
  0
LINE
  5
2FC
100
AcDbEntity
  8
0
100
AcDbLine
 62
7
  6
CONTINUOUS
 10
14.4811026878
 20
12.3241935498
 11
14.4883646775
 21
12.3476933571
  0
LINE
  5
2FD
100
AcDbEntity
  8
0
100
AcDbLine
 62
7
  6
CONTINUOUS
 10
14.420863804
 20
12.0385315894
 11
14.4427008441
 21
12.1091962772
  0
LINE
  5
2FE
100
AcDbEntity
  8
0
100
AcDbLine
 62
7
  6
CONTINUOUS
 10
14.4419488709
 20
12.0263266004
 11
14.4579529375
 21
12.0781157788
  0
LINE
  5
2FF
100
AcDbEntity
  8
0
100
AcDbLine
 62
7
  6
CONTINUOUS
 10
16.0542005661
 20
11.6144441263
 11
15.8810573907
 21
11.6144441263
  0
LINE
  5
300
100
AcDbEntity
  8
0
100
AcDbLine
 62
7
  6
CONTINUOUS
 10
13.7565687316
 20
11.6144441263
 11
13.8177119214
 21
11.6144441263
  0
LINE
  5
301
100
AcDbEntity
  8
0
100
AcDbLine
 62
7
  6
CONTINUOUS
 10
13.7638307213
 20
11.6379439336
 11
13.8249739111
 21
11.6379439336
  0
LINE
  5
302
100
AcDbEntity
  8
0
100
AcDbLine
 62
7
  6
CONTINUOUS
 10
15.8883193804
 20
11.6379439336
 11
16.0442027448
 21
11.6379439336
  0
LINE
  5
303
100
AcDbEntity
  8
0
100
AcDbLine
 62
7
  6
CONTINUOUS
 10
13.8494071029
 20
11.7170097711
 11
13.7062368236
 21
11.7170097711
  0
LINE
  5
304
100
AcDbEntity
  8
0
100
AcDbLine
 62
7
  6
CONTINUOUS
 10
15.8307254827
 20
11.7170097711
 11
16.0038686581
 21
11.7170097711
  0
LINE
  5
305
100
AcDbEntity
  8
0
100
AcDbLine
 62
7
  6
CONTINUOUS
 10
16.0815573492
 20
11.3224800355
 11
15.9029397232
 21
11.3809058751
  0
LINE
  5
306
100
AcDbEntity
  8
0
100
AcDbLine
 62
7
  6
CONTINUOUS
 10
13.8898964876
 20
12.0393724762
 11
13.7112788616
 21
12.0977983158
  0
LINE
  5
307
100
AcDbEntity
  8
0
100
AcDbLine
 62
7
  6
CONTINUOUS
 10
14.420863804
 20
12.0385315894
 11
14.4819031741
 21
12.0031992454
  0
LINE
  5
308
100
AcDbEntity
  8
0
100
AcDbLine
 62
7
  6
CONTINUOUS
 10
14.5408293477
 20
12.1134481227
 11
14.5807836509
 21
12.0903207677
  0
LINE
  5
309
100
AcDbEntity
  8
0
100
AcDbLine
 62
7
  6
CONTINUOUS
 10
14.5866166245
 20
12.1091962772
 11
14.5255772544
 21
12.1445286211
  0
LINE
  5
30A
100
AcDbEntity
  8
0
100
AcDbLine
 62
7
  6
CONTINUOUS
 10
15.837348318
 20
11.0199230332
 11
15.7478530838
 21
11.0864025037
  0
LINE
  5
30B
100
AcDbEntity
  8
0
100
AcDbLine
 62
7
  6
CONTINUOUS
 10
14.1657690119
 20
12.261617164
 11
14.0295373838
 21
12.3628136866
  0
LINE
  5
30C
100
AcDbEntity
  8
0
100
AcDbLine
 62
7
  6
CONTINUOUS
 10
14.4811026878
 20
12.3241935498
 11
14.4237602124
 21
12.4410452289
  0
LINE
  5
30D
100
AcDbEntity
  8
0
100
AcDbLine
 62
7
  6
CONTINUOUS
 10
14.4883646775
 20
12.3476933571
 11
14.4423485802
 21
12.4414643043
  0
LINE
  5
30E
100
AcDbEntity
  8
0
100
AcDbLine
 62
7
  6
CONTINUOUS
 10
14.6330777518
 20
12.3241935498
 11
14.5757352764
 21
12.4410452289
  0
LINE
  5
30F
100
AcDbEntity
  8
0
100
AcDbLine
 62
7
  6
CONTINUOUS
 10
14.5866166245
 20
12.1091962772
 11
14.5647795843
 21
12.0385315894
  0
LINE
  5
310
100
AcDbEntity
  8
0
100
AcDbLine
 62
7
  6
CONTINUOUS
 10
15.767842257
 20
13.4897672326
 11
15.7406178006
 21
13.4622956936
  0
LINE
  5
311
100
AcDbEntity
  8
0
100
AcDbLine
 62
7
  6
CONTINUOUS
 10
12.9648962643
 20
11.9136738326
 11
13.0856966084
 21
11.9136738326
  0
LINE
  5
312
100
AcDbEntity
  8
0
100
AcDbLine
 62
7
  6
CONTINUOUS
 10
17.3111528297
 20
11.9136738326
 11
17.5702012343
 21
11.9136738326
  0
LINE
  5
313
100
AcDbEntity
  8
0
100
AcDbLine
 62
7
  6
CONTINUOUS
 10
17.8182778458
 20
12.0333829263
 11
17.5656418081
 21
12.0333829263
  0
LINE
  5
314
100
AcDbEntity
  8
0
100
AcDbLine
 62
7
  6
CONTINUOUS
 10
15.0467390349
 20
12.3628136866
 11
15.0098274876
 21
12.261617164
  0
LINE
  5
315
100
AcDbEntity
  8
0
100
AcDbLine
 62
7
  6
CONTINUOUS
 10
15.6794741314
 20
13.2644347073
 11
15.7066985877
 21
13.2919062463
  0
LINE
  5
316
100
AcDbEntity
  8
03__ASM_ALL_CURVES
100
AcDbLine
 62
8
  6
HIDDEN
 10
15.285850007
 20
11.1559778857
 11
15.2856053591
 21
11.157234344
  0
LINE
  5
317
100
AcDbEntity
  8
0
100
AcDbLine
 62
7
  6
CONTINUOUS
 10
15.1666077078
 20
12.2103343416
 11
15.1738696975
 21
12.2338341489
  0
LINE
  5
318
100
AcDbEntity
  8
0
100
AcDbLine
 62
7
  6
CONTINUOUS
 10
15.6794741314
 20
13.2644347073
 11
15.7406178006
 21
13.4622956936
  0
LINE
  5
319
100
AcDbEntity
  8
0
100
AcDbLine
 62
7
  6
CONTINUOUS
 10
15.7066985877
 20
13.2919062463
 11
15.767842257
 21
13.4897672326
  0
LINE
  5
31A
100
AcDbEntity
  8
0
100
AcDbLine
 62
7
  6
CONTINUOUS
 10
15.1738696975
 20
12.2338341489
 11
15.2023634371
 21
12.3119524501
  0
LINE
  5
31B
100
AcDbEntity
  8
0
100
AcDbLine
 62
7
  6
CONTINUOUS
 10
15.1666077078
 20
12.2103343416
 11
15.2035192551
 21
12.3115308642
  0
LINE
  5
31C
100
AcDbEntity
  8
0
100
AcDbLine
 62
7
  6
CONTINUOUS
 10
15.8385552732
 20
13.0693538955
 11
15.8657797296
 21
13.0968254345
  0
LINE
  5
31D
100
AcDbEntity
  8
0
100
AcDbLine
 62
7
  6
CONTINUOUS
 10
16.0860045408
 20
13.0996056091
 11
16.0587800844
 21
13.0721340701
  0
LINE
  5
31E
100
AcDbEntity
  8
0
100
AcDbLine
 62
7
  6
CONTINUOUS
 10
14.5255772544
 20
12.1445286211
 11
14.4427008441
 21
12.1091962772
  0
LINE
  5
31F
100
AcDbEntity
  8
0
100
AcDbLine
 62
7
  6
CONTINUOUS
 10
14.4579529375
 20
12.0781157788
 11
14.5408293477
 21
12.1134481227
  0
LINE
  5
320
100
AcDbEntity
  8
0
100
AcDbLine
 62
7
  6
CONTINUOUS
 10
17.691234396
 20
12.3053372874
 11
17.4321859914
 21
12.3053372874
  0
LINE
  5
321
100
AcDbEntity
  8
0
100
AcDbLine
 62
7
  6
CONTINUOUS
 10
13.2230532866
 20
12.3053372874
 11
13.085929426
 21
12.3053372874
  0
LINE
  5
322
100
AcDbEntity
  8
03__ASM_ALL_CURVES
100
AcDbLine
 62
4
  6
CONTINUOUS
 10
12.2701666651
 20
12.3581495473
 11
13.241111216
 21
12.3581495473
  0
LINE
  5
323
100
AcDbEntity
  8
03__ASM_ALL_CURVES
100
AcDbLine
 62
4
  6
CONTINUOUS
 10
16.7314063193
 20
12.3581495473
 11
18.1419305018
 21
12.3581495473
  0
LINE
  5
324
100
AcDbEntity
  8
0
100
AcDbLine
 62
7
  6
CONTINUOUS
 10
14.4819031741
 20
12.0031992454
 11
14.5647795843
 21
12.0385315894
  0
LINE
  5
325
100
AcDbEntity
  8
0
100
AcDbLine
 62
7
  6
CONTINUOUS
 10
16.0092159452
 20
12.2096356709
 11
17.3272022154
 21
11.2305999709
  0
LINE
  5
326
100
AcDbEntity
  8
0
100
AcDbLine
 62
7
  6
CONTINUOUS
 10
15.6233999591
 20
11.9505480223
 11
15.6306619488
 21
11.9740478296
  0
LINE
  5
327
100
AcDbEntity
  8
0
100
AcDbLine
 62
7
  6
CONTINUOUS
 10
16.0860045408
 20
13.0996056091
 11
16.14714821
 21
13.2974665954
  0
LINE
  5
328
100
AcDbEntity
  8
0
100
AcDbLine
 62
7
  6
CONTINUOUS
 10
15.6250988667
 20
12.0977983158
 11
15.5038237161
 21
12.0393724762
  0
LINE
  5
329
100
AcDbEntity
  8
0
100
AcDbLine
 62
7
  6
CONTINUOUS
 10
12.7231816206
 20
12.9114201356
 11
13.3813214899
 21
12.9114201356
  0
LINE
  5
32A
100
AcDbEntity
  8
0
100
AcDbLine
 62
7
  6
CONTINUOUS
 10
17.798646439
 20
12.9114201356
 11
18.4567863083
 21
12.9114201356
  0
LWPOLYLINE
  5
32B
100
AcDbEntity
  8
0
100
AcDbPolyline
 62
7
  6
CONTINUOUS
 90
11
 70
0
 10
17.3859380844
 20
11.7396189805
 10
17.2871635023
 20
11.8028701098
 10
17.1768244609
 20
11.8835744547
 10
17.0765922197
 20
11.9666650834
 10
16.9871817668
 20
12.0496719271
 10
16.908222841
 20
12.1312987475
 10
16.8375353024
 20
12.2127267187
 10
16.7735121538
 20
12.295638911
 10
16.7161684806
 20
12.3807717564
 10
16.6668810635
 20
12.4677413873
 10
16.6603788464
 20
12.4807477639
  0
LINE
  5
32C
100
AcDbEntity
  8
0
100
AcDbLine
 62
7
  6
CONTINUOUS
 10
15.9029397232
 20
11.3809058751
 11
15.8953516657
 21
11.3520271344
  0
LINE
  5
32D
100
AcDbEntity
  8
0
100
AcDbLine
 62
7
  6
CONTINUOUS
 10
15.8810573907
 20
11.6144441263
 11
15.8883193804
 21
11.6379439336
  0
LINE
  5
32E
100
AcDbEntity
  8
0
100
AcDbLine
 62
7
  6
CONTINUOUS
 10
15.8356395391
 20
11.3704795772
 11
15.6994772322
 21
10.9298581906
  0
LINE
  5
32F
100
AcDbEntity
  8
0
100
AcDbLine
 62
7
  6
CONTINUOUS
 10
15.7381619956
 20
10.9921400181
 11
15.7309000059
 21
10.9686402108
  0
LINE
  5
330
100
AcDbEntity
  8
0
100
AcDbLine
 62
7
  6
CONTINUOUS
 10
15.6306619488
 20
11.9740478296
 11
15.728822367
 21
12.0213378541
  0
LINE
  5
331
100
AcDbEntity
  8
0
100
AcDbLine
 62
7
  6
CONTINUOUS
 10
15.6233999591
 20
11.9505480223
 11
15.7446751097
 21
12.0089738618
  0
LINE
  5
332
100
AcDbEntity
  8
0
100
AcDbLine
 62
7
  6
CONTINUOUS
 10
16.0587800844
 20
13.0721340701
 11
15.8385552732
 21
13.0693538955
  0
LINE
  5
333
100
AcDbEntity
  8
0
100
AcDbLine
 62
7
  6
CONTINUOUS
 10
15.8657797296
 20
13.0968254345
 11
16.0860045408
 21
13.0996056091
  0
LINE
  5
334
100
AcDbEntity
  8
0
100
AcDbLine
 62
7
  6
CONTINUOUS
 10
15.8385552732
 20
13.0693538955
 11
15.6794741314
 21
13.2644347073
  0
LINE
  5
335
100
AcDbEntity
  8
0
100
AcDbLine
 62
7
  6
CONTINUOUS
 10
15.8657797296
 20
13.0968254345
 11
15.7066985877
 21
13.2919062463
  0
LINE
  5
336
100
AcDbEntity
  8
0
100
AcDbLine
 62
7
  6
CONTINUOUS
 10
16.0744931827
 20
11.2966682187
 11
16.0815573492
 21
11.3224800355
  0
LINE
  5
337
100
AcDbEntity
  8
0
100
AcDbLine
 62
7
  6
CONTINUOUS
 10
16.0564205178
 20
11.2571553889
 11
16.0491585281
 21
11.2336555816
  0
LINE
  5
338
100
AcDbEntity
  8
0
100
AcDbLine
 62
7
  6
CONTINUOUS
 10
15.767842257
 20
13.4897672326
 11
15.9264227569
 21
13.4917691936
  0
LINE
  5
339
100
AcDbEntity
  8
0
100
AcDbLine
 62
7
  6
CONTINUOUS
 10
16.14714821
 20
13.2974665954
 11
16.1346973176
 21
13.3127350941
  0
LINE
  5
33A
100
AcDbEntity
  8
03__ASM_ALL_CURVES
100
AcDbLine
 62
8
  6
HIDDEN
 10
15.6910780367
 20
13.6169097331
 11
16.9171808973
 21
12.9952997648
  0
LINE
  5
33B
100
AcDbEntity
  8
0
100
AcDbLine
 62
7
  6
CONTINUOUS
 10
16.6603453799
 20
12.4808159806
 11
16.6603332664
 21
12.4808406644
  0
LINE
  5
33C
100
AcDbEntity
  8
0
100
AcDbLine
 62
7
  6
CONTINUOUS
 10
17.8197166144
 20
12.9114201356
 11
16.5236068825
 21
13.8742053539
  0
LINE
  5
33D
100
AcDbEntity
  8
0
100
AcDbLine
 62
7
  6
CONTINUOUS
 10
17.7606769274
 20
12.8830408833
 11
17.6453842563
 21
12.5099536631
  0
LINE
  5
33E
100
AcDbEntity
  8
0
100
AcDbLine
 62
7
  6
CONTINUOUS
 10
17.3978886084
 20
11.7090574526
 11
17.2825959387
 21
11.3359702367
  0
LINE
  5
33F
100
AcDbEntity
  8
0
100
AcDbLine
 62
7
  6
CONTINUOUS
 10
18.5241161823
 20
12.8694608388
 11
18.7681496756
 21
12.3721728642
  0
LINE
  5
340
100
AcDbEntity
  8
0
100
AcDbLine
 62
7
  6
CONTINUOUS
 10
18.7698993762
 20
12.339132161
 11
18.2918183874
 21
10.7920615145
  0
ARC
  5
341
100
AcDbEntity
  8
0
100
AcDbCircle
 62
7
  6
CONTINUOUS
 10
4.939582346
 20
4.9932800685
 40
0.125
100
AcDbArc
 50
66.8698976459
 51
353.1301023541
  0
ARC
  5
342
100
AcDbEntity
  8
0
100
AcDbCircle
 62
7
  6
CONTINUOUS
 10
4.939582346
 20
4.9932800685
 40
0.11
100
AcDbArc
 50
75.0994720393
 51
174.9031987725
  0
ARC
  5
343
100
AcDbEntity
  8
0
100
AcDbCircle
 62
7
  6
CONTINUOUS
 10
4.939582346
 20
4.9932800685
 40
0.11
100
AcDbArc
 50
245.0968012276
 51
344.9005279607
  0
CIRCLE
  5
344
100
AcDbEntity
  8
0
100
AcDbCircle
 62
7
  6
CONTINUOUS
 10
5.7744910892
 20
4.3526320574
 40
0.0790111574
  0
ARC
  5
345
100
AcDbEntity
  8
0
100
AcDbCircle
 62
7
  6
CONTINUOUS
 10
3.0178672762
 20
4.9807800685
 40
0.075
100
AcDbArc
 50
90.0
 51
180.0
  0
ARC
  5
346
100
AcDbEntity
  8
0
100
AcDbCircle
 62
7
  6
CONTINUOUS
 10
4.939582346
 20
4.9932800685
 40
0.06
100
AcDbArc
 50
20.4059317731
 51
39.594068227
  0
ARC
  5
347
100
AcDbEntity
  8
0
100
AcDbCircle
 62
7
  6
CONTINUOUS
 10
4.939582346
 20
4.9932800685
 40
0.06
100
AcDbArc
 50
200.405931773
 51
219.5940682267
  0
ARC
  5
348
100
AcDbEntity
  8
0
100
AcDbCircle
 62
7
  6
CONTINUOUS
 10
4.939582346
 20
4.9932800685
 40
0.0521175303
100
AcDbArc
 50
18.9378299487
 51
41.0621700514
  0
ARC
  5
349
100
AcDbEntity
  8
0
100
AcDbCircle
 62
7
  6
CONTINUOUS
 10
4.939582346
 20
4.9932800685
 40
0.0521175303
100
AcDbArc
 50
198.9378299486
 51
221.0621700511
  0
CIRCLE
  5
34A
100
AcDbEntity
  8
0
100
AcDbCircle
 62
7
  6
CONTINUOUS
 10
5.7744910892
 20
4.3526320574
 40
0.0395055787
  0
ARC
  5
34B
100
AcDbEntity
  8
0
100
AcDbCircle
 62
7
  6
CONTINUOUS
 10
4.9704393497
 20
5.1092449137
 40
0.01
100
AcDbArc
 50
255.0994720399
 51
300.0
  0
ARC
  5
34C
100
AcDbEntity
  8
0
100
AcDbCircle
 62
7
  6
CONTINUOUS
 10
5.0554393497
 20
4.9620205951
 40
0.01
100
AcDbArc
 50
120.0000000001
 51
164.9005279607
  0
ARC
  5
34D
100
AcDbEntity
  8
0
100
AcDbCircle
 62
7
  6
CONTINUOUS
 10
5.1942185897
 20
5.0594606456
 40
0.0051382573
100
AcDbArc
 50
1.7602122793
 51
30.0452827414
  0
ARC
  5
34E
100
AcDbEntity
  8
0
100
AcDbCircle
 62
7
  6
CONTINUOUS
 10
6.1303672762
 20
5.6807800685
 40
1.75
100
AcDbArc
 50
30.0
 51
150.0
  0
ARC
  5
34F
100
AcDbEntity
  8
0
100
AcDbCircle
 62
7
  6
CONTINUOUS
 10
6.1303672762
 20
5.6807800685
 40
1.25
100
AcDbArc
 50
146.2157277721
 51
153.7842722279
  0
ARC
  5
350
100
AcDbEntity
  8
0
100
AcDbCircle
 62
7
  6
CONTINUOUS
 10
6.1303672762
 20
5.6807800685
 40
1.25
100
AcDbArc
 50
206.2157277721
 51
206.5596331711
  0
ARC
  5
351
100
AcDbEntity
  8
0
100
AcDbCircle
 62
7
  6
CONTINUOUS
 10
6.1303672762
 20
5.6807800685
 40
1.25
100
AcDbArc
 50
213.4402900202
 51
213.7842722279
  0
ARC
  5
352
100
AcDbEntity
  8
0
100
AcDbCircle
 62
7
  6
CONTINUOUS
 10
6.1303672762
 20
5.6807800685
 40
1.25
100
AcDbArc
 50
236.2157277721
 51
243.7842722279
  0
ARC
  5
353
100
AcDbEntity
  8
0
100
AcDbCircle
 62
7
  6
CONTINUOUS
 10
6.1303672762
 20
5.6807800685
 40
1.25
100
AcDbArc
 50
266.2157277721
 51
273.7842722279
  0
ARC
  5
354
100
AcDbEntity
  8
0
100
AcDbCircle
 62
7
  6
CONTINUOUS
 10
6.1303672762
 20
5.6807800685
 40
1.25
100
AcDbArc
 50
296.2157277721
 51
303.7842722279
  0
ARC
  5
355
100
AcDbEntity
  8
0
100
AcDbCircle
 62
7
  6
CONTINUOUS
 10
6.1303672762
 20
5.6807800685
 40
1.25
100
AcDbArc
 50
326.2157277721
 51
333.7842722279
  0
ARC
  5
356
100
AcDbEntity
  8
0
100
AcDbCircle
 62
7
  6
CONTINUOUS
 10
6.1303672762
 20
5.6807800685
 40
1.25
100
AcDbArc
 50
26.2157277721
 51
33.7842722279
  0
ARC
  5
357
100
AcDbEntity
  8
0
100
AcDbCircle
 62
7
  6
CONTINUOUS
 10
6.1303672762
 20
5.6807800685
 40
1.25
100
AcDbArc
 50
56.2157277721
 51
63.7842722279
  0
ARC
  5
358
100
AcDbEntity
  8
0
100
AcDbCircle
 62
7
  6
CONTINUOUS
 10
6.1303672762
 20
5.6807800685
 40
1.25
100
AcDbArc
 50
86.2157277721
 51
93.7842722279
  0
ARC
  5
359
100
AcDbEntity
  8
0
100
AcDbCircle
 62
7
  6
CONTINUOUS
 10
6.1303672762
 20
5.6807800685
 40
1.25
100
AcDbArc
 50
116.2157277721
 51
123.7842722279
  0
ARC
  5
35A
100
AcDbEntity
  8
0
100
AcDbCircle
 62
7
  6
CONTINUOUS
 10
6.1303672762
 20
5.6807800685
 40
1.25
100
AcDbArc
 50
176.2157277721
 51
183.7842722279
  0
ARC
  5
35B
100
AcDbEntity
  8
0
100
AcDbCircle
 62
7
  6
CONTINUOUS
 10
6.1303672762
 20
5.6807800685
 40
1.25
100
AcDbArc
 50
356.2157277721
 51
3.7842722279
  0
ARC
  5
35C
100
AcDbEntity
  8
0
100
AcDbCircle
 62
7
  6
CONTINUOUS
 10
6.1303672762
 20
5.6807800685
 40
1.0625
100
AcDbArc
 50
145.5466686653
 51
154.4533313347
  0
ARC
  5
35D
100
AcDbEntity
  8
0
100
AcDbCircle
 62
7
  6
CONTINUOUS
 10
6.1303672762
 20
5.6807800685
 40
1.0625
100
AcDbArc
 50
205.5466686653
 51
214.4533313347
  0
ARC
  5
35E
100
AcDbEntity
  8
0
100
AcDbCircle
 62
7
  6
CONTINUOUS
 10
6.1303672762
 20
5.6807800685
 40
1.0625
100
AcDbArc
 50
175.5466686653
 51
184.4533313347
  0
ARC
  5
35F
100
AcDbEntity
  8
0
100
AcDbCircle
 62
7
  6
CONTINUOUS
 10
6.1303672762
 20
5.6807800685
 40
1.0625
100
AcDbArc
 50
355.5466686653
 51
4.4533313347
  0
ARC
  5
360
100
AcDbEntity
  8
0
100
AcDbCircle
 62
7
  6
CONTINUOUS
 10
6.1303672762
 20
5.6807800685
 40
1.0625
100
AcDbArc
 50
235.5466686653
 51
244.4533313347
  0
ARC
  5
361
100
AcDbEntity
  8
0
100
AcDbCircle
 62
7
  6
CONTINUOUS
 10
6.1303672762
 20
5.6807800685
 40
1.0625
100
AcDbArc
 50
265.5466686653
 51
274.4533313347
  0
ARC
  5
362
100
AcDbEntity
  8
0
100
AcDbCircle
 62
7
  6
CONTINUOUS
 10
6.1303672762
 20
5.6807800685
 40
1.0625
100
AcDbArc
 50
295.5466686653
 51
304.4533313347
  0
ARC
  5
363
100
AcDbEntity
  8
0
100
AcDbCircle
 62
7
  6
CONTINUOUS
 10
6.1303672762
 20
5.6807800685
 40
1.0625
100
AcDbArc
 50
325.5466686653
 51
334.4533313347
  0
ARC
  5
364
100
AcDbEntity
  8
0
100
AcDbCircle
 62
7
  6
CONTINUOUS
 10
6.1303672762
 20
5.6807800685
 40
1.0625
100
AcDbArc
 50
25.5466686653
 51
34.4533313347
  0
ARC
  5
365
100
AcDbEntity
  8
0
100
AcDbCircle
 62
7
  6
CONTINUOUS
 10
6.1303672762
 20
5.6807800685
 40
1.0625
100
AcDbArc
 50
55.5466686653
 51
64.4533313347
  0
ARC
  5
366
100
AcDbEntity
  8
0
100
AcDbCircle
 62
7
  6
CONTINUOUS
 10
6.1303672762
 20
5.6807800685
 40
1.0625
100
AcDbArc
 50
85.5466686653
 51
94.4533313347
  0
ARC
  5
367
100
AcDbEntity
  8
0
100
AcDbCircle
 62
7
  6
CONTINUOUS
 10
6.1303672762
 20
5.6807800685
 40
1.0625
100
AcDbArc
 50
115.5466686653
 51
124.4533313347
  0
CIRCLE
  5
368
100
AcDbEntity
  8
0
100
AcDbCircle
 62
7
  6
CONTINUOUS
 10
6.1303672762
 20
5.6807800685
 40
1.0
  0
CIRCLE
  5
369
100
AcDbEntity
  8
0
100
AcDbCircle
 62
7
  6
CONTINUOUS
 10
6.1303672762
 20
5.6807800685
 40
0.5625
  0
CIRCLE
  5
36A
100
AcDbEntity
  8
03__ASM_ALL_CURVES
100
AcDbCircle
 62
8
  6
HIDDEN
 10
6.1303672762
 20
5.6807800685
 40
0.5625
  0
ARC
  5
36B
100
AcDbEntity
  8
0
100
AcDbCircle
 62
7
  6
CONTINUOUS
 10
9.2428672762
 20
4.9807800685
 40
0.075
100
AcDbArc
 50
0.0
 51
90.0
  0
ARC
  5
36C
100
AcDbEntity
  8
0
100
AcDbCircle
 62
7
  6
CONTINUOUS
 10
7.6667091888
 20
6.882689762
 40
0.125
100
AcDbArc
 50
126.3667122903
 51
216.8459241598
  0
ARC
  5
36D
100
AcDbEntity
  8
0
100
AcDbCircle
 62
7
  6
CONTINUOUS
 10
7.3322769696
 20
7.2171219811
 40
0.125
100
AcDbArc
 50
233.1540758402
 51
323.6332877097
  0
ARC
  5
36E
100
AcDbEntity
  8
0
100
AcDbCircle
 62
7
  6
CONTINUOUS
 10
7.5229256934
 20
7.1440491639
 40
0.09
100
AcDbArc
 50
45.0000000001
 51
180.6659686837
  0
ARC
  5
36F
100
AcDbEntity
  8
0
100
AcDbCircle
 62
7
  6
CONTINUOUS
 10
7.5936363715
 20
7.0733384857
 40
0.09
100
AcDbArc
 50
269.3340313163
 51
45.0
  0
ARC
  5
370
100
AcDbEntity
  8
0
100
AcDbCircle
 62
7
  6
CONTINUOUS
 10
3.8521220839
 20
12.8812977814
 40
0.475
100
AcDbArc
 50
258.4535915573
 51
101.5464083918
  0
ARC
  5
371
100
AcDbEntity
  8
0
100
AcDbCircle
 62
7
  6
CONTINUOUS
 10
8.2896220839
 20
12.8812977814
 40
0.475
100
AcDbArc
 50
78.4535915573
 51
281.5464083918
  0
ARC
  5
372
100
AcDbEntity
  8
0
100
AcDbCircle
 62
7
  6
CONTINUOUS
 10
3.8521220839
 20
12.8812977814
 40
0.25
100
AcDbArc
 50
270.0
 51
90.0
  0
ARC
  5
373
100
AcDbEntity
  8
0
100
AcDbCircle
 62
7
  6
CONTINUOUS
 10
3.5708720839
 20
12.8812977814
 40
0.25
100
AcDbArc
 50
90.0
 51
270.0
  0
ARC
  5
374
100
AcDbEntity
  8
0
100
AcDbCircle
 62
7
  6
CONTINUOUS
 10
8.2896220839
 20
12.8812977814
 40
0.25
100
AcDbArc
 50
90.0
 51
270.0
  0
ARC
  5
375
100
AcDbEntity
  8
0
100
AcDbCircle
 62
7
  6
CONTINUOUS
 10
8.5708720839
 20
12.8812977814
 40
0.25
100
AcDbArc
 50
270.0
 51
90.0
  0
CIRCLE
  5
376
100
AcDbEntity
  8
0
100
AcDbCircle
 62
7
  6
CONTINUOUS
 10
6.0708720839
 20
11.5375477814
 40
0.15625
  0
CIRCLE
  5
377
100
AcDbEntity
  8
0
100
AcDbCircle
 62
7
  6
CONTINUOUS
 10
6.0708720839
 20
11.5375477814
 40
0.14625
  0
ARC
  5
378
100
AcDbEntity
  8
0
100
AcDbCircle
 62
7
  6
CONTINUOUS
 10
7.5018115408
 20
12.8632599004
 40
0.1226584455
100
AcDbArc
 50
236.3080725475
 51
237.1471838645
  0
ARC
  5
379
100
AcDbEntity
  8
0
100
AcDbCircle
 62
7
  6
CONTINUOUS
 10
7.5016848496
 20
12.8996154289
 40
0.122357997
100
AcDbArc
 50
123.3121287785
 51
124.0426078612
  0
ARC
  5
37A
100
AcDbEntity
  8
0
100
AcDbCircle
 62
7
  6
CONTINUOUS
 10
9.1833720839
 20
11.8937977814
 40
0.075
100
AcDbArc
 50
270.0
 51
360.0
  0
ARC
  5
37B
100
AcDbEntity
  8
0
100
AcDbCircle
 62
7
  6
CONTINUOUS
 10
2.9583720839
 20
11.8937977814
 40
0.075
100
AcDbArc
 50
180.0
 51
270.0
  0
ARC
  5
37C
100
AcDbEntity
  8
0
100
AcDbCircle
 62
7
  6
CONTINUOUS
 10
2.9583720839
 20
13.8687977814
 40
0.075
100
AcDbArc
 50
90.0
 51
180.0
  0
ARC
  5
37D
100
AcDbEntity
  8
0
100
AcDbCircle
 62
7
  6
CONTINUOUS
 10
9.1833720839
 20
13.8687977814
 40
0.075
100
AcDbArc
 50
0.0
 51
90.0
  0
ARC
  5
37E
100
AcDbEntity
  8
0
100
AcDbCircle
 62
7
  6
CONTINUOUS
 10
15.859643138
 20
7.0522243331
 40
0.1226584454
100
AcDbArc
 50
326.3080725472
 51
327.1471838648
  0
ARC
  5
37F
100
AcDbEntity
  8
0
100
AcDbCircle
 62
7
  6
CONTINUOUS
 10
15.8232876094
 20
7.0520976419
 40
0.122357997
100
AcDbArc
 50
213.3121287783
 51
214.0426078612
  0
ARC
  5
380
100
AcDbEntity
  8
0
100
AcDbCircle
 62
7
  6
CONTINUOUS
 10
14.8541052569
 20
4.9212848762
 40
0.075
100
AcDbArc
 50
90.0
 51
180.0
  0
ARC
  5
381
100
AcDbEntity
  8
0
100
AcDbCircle
 62
7
  6
CONTINUOUS
 10
16.8291052569
 20
4.9212848762
 40
0.075
100
AcDbArc
 50
0.0
 51
90.0
  0
ARC
  5
382
100
AcDbEntity
  8
0
100
AcDbCircle
 62
7
  6
CONTINUOUS
 10
14.4484461201
 20
10.268438366
 40
2.1781557326
100
AcDbArc
 50
69.7170162339
 51
74.0571342189
  0
ARC
  5
383
100
AcDbEntity
  8
0
100
AcDbCircle
 62
7
  6
CONTINUOUS
 10
14.5125895039
 20
10.4761837778
 40
1.8533801523
100
AcDbArc
 50
69.3365150843
 51
74.4376353685
  0
ARC
  5
384
100
AcDbEntity
  8
0
100
AcDbCircle
 62
7
  6
CONTINUOUS
 10
14.5198546653
 20
10.4996933953
 40
1.853369854
100
AcDbArc
 50
69.3364998067
 51
74.3996106868
  0
ARC
  5
385
100
AcDbEntity
  8
0
100
AcDbCircle
 62
7
  6
CONTINUOUS
 10
15.6843673776
 20
11.4434651499
 40
0.4160947803
100
AcDbArc
 50
333.4000705766
 51
339.3869745305
  0
ARC
  5
386
100
AcDbEntity
  8
0
100
AcDbCircle
 62
7
  6
CONTINUOUS
 10
15.6798910384
 20
11.4187315237
 40
0.4130515504
100
AcDbArc
 50
333.3800858329
 51
342.8114573485
  0
ARC
  5
387
100
AcDbEntity
  8
0
100
AcDbCircle
 62
7
  6
CONTINUOUS
 10
14.0805462805
 20
11.9127224033
 40
0.4130514739
100
AcDbArc
 50
153.3800851063
 51
162.8114583695
  0
ARC
  5
388
100
AcDbEntity
  8
0
100
AcDbCircle
 62
7
  6
CONTINUOUS
 10
14.0860714935
 20
11.9369384658
 40
0.4111818949
100
AcDbArc
 50
166.2612320108
 51
166.5649512378
  0
ARC
  5
389
100
AcDbEntity
  8
0
100
AcDbCircle
 62
7
  6
CONTINUOUS
 10
17.276979814
 20
12.0035643686
 40
0.3588108584
100
AcDbArc
 50
162.8270889519
 51
163.5270373598
  0
ARC
  5
38A
100
AcDbEntity
  8
0
100
AcDbCircle
 62
7
  6
CONTINUOUS
 10
15.559246895
 20
11.4560388316
 40
0.351832334
100
AcDbArc
 50
332.224388388
 51
342.8046841129
  0
ARC
  5
38B
100
AcDbEntity
  8
0
100
AcDbCircle
 62
7
  6
CONTINUOUS
 10
14.2011904947
 20
11.8754150658
 40
0.351832334
100
AcDbArc
 50
152.224388388
 51
162.8046841129
  0
ARC
  5
38C
100
AcDbEntity
  8
0
100
AcDbCircle
 62
7
  6
CONTINUOUS
 10
14.1989823496
 20
11.8762813492
 40
0.3494672052
100
AcDbArc
 50
163.6992512612
 51
167.7302802037
  0
ARC
  5
38D
100
AcDbEntity
  8
0
100
AcDbCircle
 62
7
  6
CONTINUOUS
 10
14.2060223492
 20
11.8998027685
 40
0.3492483563
100
AcDbArc
 50
156.1880230829
 51
162.8259764359
  0
ARC
  5
38E
100
AcDbEntity
  8
0
100
AcDbCircle
 62
7
  6
CONTINUOUS
 10
14.1979956397
 20
11.8765522879
 40
0.3484441129
100
AcDbArc
 50
162.8280165779
 51
163.6964720783
  0
ARC
  5
38F
100
AcDbEntity
  8
0
100
AcDbCircle
 62
7
  6
CONTINUOUS
 10
15.5697042945
 20
11.4784012448
 40
0.3484435331
100
AcDbArc
 50
342.828016669
 51
343.6964865168
  0
ARC
  5
390
100
AcDbEntity
  8
0
100
AcDbCircle
 62
7
  6
CONTINUOUS
 10
14.5462878041
 20
11.987229874
 40
0.2020355342
100
AcDbArc
 50
114.6716680161
 51
117.313933949
  0
ARC
  5
391
100
AcDbEntity
  8
0
100
AcDbCircle
 62
7
  6
CONTINUOUS
 10
14.5447267339
 20
11.9898402059
 40
0.199000008
100
AcDbArc
 50
117.2594516764
 51
126.8343316742
  0
ARC
  5
392
100
AcDbEntity
  8
0
100
AcDbCircle
 62
7
  6
CONTINUOUS
 10
14.540140514
 20
11.9961310576
 40
0.1912155572
100
AcDbArc
 50
126.8645062916
 51
127.9946163397
  0
ARC
  5
393
100
AcDbEntity
  8
0
100
AcDbCircle
 62
7
  6
CONTINUOUS
 10
14.5446390536
 20
12.0190136858
 40
0.1710289793
100
AcDbArc
 50
90.0085619691
 51
91.8327069034
  0
ARC
  5
394
100
AcDbEntity
  8
0
100
AcDbCircle
 62
7
  6
CONTINUOUS
 10
14.5391474949
 20
12.0336521328
 40
0.1547733611
100
AcDbArc
 50
88.0087781096
 51
90.0018808866
  0
ARC
  5
395
100
AcDbEntity
  8
0
100
AcDbCircle
 62
7
  6
CONTINUOUS
 10
15.8791104044
 20
13.3471139789
 40
0.1484259421
100
AcDbArc
 50
155.7116221683
 51
162.8678695304
  0
ARC
  5
396
100
AcDbEntity
  8
0
100
AcDbCircle
 62
7
  6
CONTINUOUS
 10
15.9814891787
 20
13.2435838974
 40
0.1442938421
100
AcDbArc
 50
294.5248180864
 51
296.6933286423
  0
ARC
  5
397
100
AcDbEntity
  8
0
100
AcDbCircle
 62
7
  6
CONTINUOUS
 10
15.8753157763
 20
13.3487997501
 40
0.1442737836
100
AcDbArc
 50
153.4364347793
 51
155.7019780926
  0
ARC
  5
398
100
AcDbEntity
  8
0
100
AcDbCircle
 62
7
  6
CONTINUOUS
 10
15.982382285
 20
13.2417892369
 40
0.1422892534
100
AcDbArc
 50
296.6966571322
 51
298.0215124959
  0
ARC
  5
399
100
AcDbEntity
  8
0
100
AcDbCircle
 62
7
  6
CONTINUOUS
 10
14.4413715648
 20
12.0432966658
 40
0.0767928868
100
AcDbArc
 50
211.644478872
 51
215.4832600756
  0
ARC
  5
39A
100
AcDbEntity
  8
0
100
AcDbCircle
 62
7
  6
CONTINUOUS
 10
12.245106329
 20
11.2893500527
 40
0.075005064
100
AcDbArc
 50
162.8293248001
 51
206.1369824929
  0
ARC
  5
39B
100
AcDbEntity
  8
0
100
AcDbCircle
 62
7
  6
CONTINUOUS
 10
18.4567856047
 20
12.8364200532
 40
0.0750002417
100
AcDbArc
 50
26.1383329623
 51
89.9994625016
  0
ARC
  5
39C
100
AcDbEntity
  8
0
100
AcDbCircle
 62
7
  6
CONTINUOUS
 10
12.7231819238
 20
12.8364203852
 40
0.0749994981
100
AcDbArc
 50
90.0002316344
 51
162.8278791311
  0
ARC
  5
39D
100
AcDbEntity
  8
0
100
AcDbCircle
 62
7
  6
CONTINUOUS
 10
14.301837637
 20
11.3305651425
 40
0.0413978936
100
AcDbArc
 50
249.1226174206
 51
269.9798041739
  0
SPLINE
  5
39E
100
AcDbEntity
  8
0
100
AcDbSpline
 62
7
  6
CONTINUOUS
 70
0
 71
3
 72
11
 73
7
 74
0
 42
0.0000001
 43
0.0000001
 44
0.0000000001
 40
0.0
 40
0.0
 40
0.0
 40
0.0
 40
0.2456393789
 40
0.4939437123
 40
0.7460141402
 40
1.0
 40
1.0
 40
1.0
 40
1.0
 10
5.1219838377
 20
5.1851921593
 30
0.0
 10
5.1225277003
 20
5.1855061585
 30
0.0
 10
5.1237655995
 20
5.1859136272
 30
0.0
 10
5.1257164268
 20
5.1857552723
 30
0.0
 10
5.1274688677
 20
5.1848425007
 30
0.0
 10
5.1283417507
 20
5.1838391891
 30
0.0
 10
5.1286664192
 20
5.1832768468
 30
0.0
  0
SPLINE
  5
39F
100
AcDbEntity
  8
0
100
AcDbSpline
 62
7
  6
CONTINUOUS
 70
0
 71
3
 72
11
 73
7
 74
0
 42
0.0000001
 43
0.0000001
 44
0.0000000001
 40
0.0
 40
0.0
 40
0.0
 40
0.0
 40
0.2528902902
 40
0.5037501428
 40
0.752585693
 40
1.0
 40
1.0
 40
1.0
 40
1.0
 10
5.1993544224
 20
5.0596184757
 30
0.0
 10
5.1993672694
 20
5.0591829892
 30
0.0
 10
5.1992788328
 20
5.0583079175
 30
0.0
 10
5.1988113803
 20
5.0570823494
 30
0.0
 10
5.1980373488
 20
5.056034662
 30
0.0
 10
5.1973529741
 20
5.0555014697
 30
0.0
 10
5.1969838377
 20
5.0552883487
 30
0.0
  0
SPLINE
  5
3A0
100
AcDbEntity
  8
0
100
AcDbSpline
 62
7
  6
CONTINUOUS
 70
0
 71
3
 72
15
 73
11
 74
0
 42
0.0000001
 43
0.0000001
 44
0.0000000001
 40
0.0
 40
0.0
 40
0.0
 40
0.0
 40
0.1263942945
 40
0.2527884982
 40
0.3786412802
 40
0.5037861427
 40
0.6283532298
 40
0.7524790508
 40
0.876308311
 40
1.0
 40
1.0
 40
1.0
 40
1.0
 10
7.3734305011
 20
12.8812977814
 30
0.0
 10
7.3734305011
 20
12.8871593546
 30
0.0
 10
7.374077534
 20
12.8988924016
 30
0.0
 10
7.376961588
 20
12.9162481951
 30
0.0
 10
7.3817606068
 20
12.9331191372
 30
0.0
 10
7.3884509968
 20
12.9492437372
 30
0.0
 10
7.3969937695
 20
12.9643795884
 30
0.0
 10
7.4073266509
 20
12.9782844592
 30
0.0
 10
7.4193611281
 20
12.9906907109
 30
0.0
 10
7.4284345261
 20
12.9977927149
 30
0.0
 10
7.4331877097
 20
13.0010038961
 30
0.0
  0
SPLINE
  5
3A1
100
AcDbEntity
  8
0
100
AcDbSpline
 62
7
  6
CONTINUOUS
 70
0
 71
3
 72
27
 73
23
 74
0
 42
0.0000001
 43
0.0000001
 44
0.0000000001
 40
0.0
 40
0.0
 40
0.0
 40
0.0
 40
0.0620987394
 40
0.0931712493
 40
0.1242449921
 40
0.1553231816
 40
0.1864129092
 40
0.2485711929
 40
0.2796712581
 40
0.3107689705
 40
0.3729254067
 40
0.4040215388
 40
0.4351113995
 40
0.4972695506
 40
0.5594655341
 40
0.6217212403
 40
0.6841469358
 40
0.7467772335
 40
0.8097011723
 40
0.8729720661
 40
0.9364920744
 40
1.0
 40
1.0
 40
1.0
 40
1.0
 10
7.43448587
 20
13.0018689207
 30
0.0
 10
7.4392752552
 20
13.0050163826
 30
0.0
 10
7.4468113991
 20
13.0092374073
 30
0.0
 10
7.4573719889
 20
13.0137222445
 30
0.0
 10
7.4655221614
 20
13.0165037641
 30
0.0
 10
7.4738570018
 20
13.0186770605
 30
0.0
 10
7.4851532124
 20
13.0207345212
 30
0.0
 10
7.4966525891
 20
13.021524973
 30
0.0
 10
7.5081273056
 20
13.0210266002
 30
0.0
 10
7.5195316514
 20
13.0196639104
 30
0.0
 10
7.5307521676
 20
13.0170287462
 30
0.0
 10
7.5415751871
 20
13.0131900167
 30
0.0
 10
7.552087011
 20
13.0085635658
 30
0.0
 10
7.5645591357
 20
13.0013690724
 30
0.0
 10
7.5781720735
 20
12.9907314957
 30
0.0
 10
7.5902148445
 20
12.9783129262
 30
0.0
 10
7.6005629937
 20
12.9644069896
 30
0.0
 10
7.6091131806
 20
12.94926122
 30
0.0
 10
7.6158083761
 20
12.9331283582
 30
0.0
 10
7.6206090672
 20
12.9162506007
 30
0.0
 10
7.6234941364
 20
12.8988920725
 30
0.0
 10
7.6241411792
 20
12.8871588658
 30
0.0
 10
7.6241411792
 20
12.8812977814
 30
0.0
  0
SPLINE
  5
3A2
100
AcDbEntity
  8
0
100
AcDbSpline
 62
7
  6
CONTINUOUS
 70
0
 71
3
 72
25
 73
21
 74
0
 42
0.0000001
 43
0.0000001
 44
0.0000000001
 40
0.0
 40
0.0
 40
0.0
 40
0.0
 40
0.0635285457
 40
0.1270580107
 40
0.190317431
 40
0.2532219456
 40
0.3158358149
 40
0.3782279784
 40
0.4404693536
 40
0.5026414808
 40
0.5647639967
 40
0.626891046
 40
0.6579787114
 40
0.689076519
 40
0.7512555814
 40
0.782367754
 40
0.813476903
 40
0.8756555503
 40
0.9378248736
 40
1.0
 40
1.0
 40
1.0
 40
1.0
 10
7.6241411792
 20
12.8812977814
 30
0.0
 10
7.6241411792
 20
12.8754550482
 30
0.0
 10
7.6234982912
 20
12.8637596859
 30
0.0
 10
7.6206326521
 20
12.8464580186
 30
0.0
 10
7.6158643314
 20
12.8296364659
 30
0.0
 10
7.6092164868
 20
12.8135542703
 30
0.0
 10
7.6007274468
 20
12.7984512399
 30
0.0
 10
7.5904593435
 20
12.784567841
 30
0.0
 10
7.5784956115
 20
12.7721664683
 30
0.0
 10
7.564979918
 20
12.7615116512
 30
0.0
 10
7.5501179302
 20
12.7528495899
 30
0.0
 10
7.5368156677
 20
12.747490125
 30
0.0
 10
7.5257984475
 20
12.7444004794
 30
0.0
 10
7.5145777428
 20
12.7421390381
 30
0.0
 10
7.5031316132
 20
12.7411356013
 30
0.0
 10
7.4916852075
 20
12.7414096287
 30
0.0
 10
7.4802908874
 20
12.742543314
 30
0.0
 10
7.4662544325
 20
12.7455485526
 30
0.0
 10
7.4501319086
 20
12.7515751743
 30
0.0
 10
7.4400751713
 20
12.7571165607
 30
0.0
 10
7.4352714405
 20
12.7602186014
 30
0.0
  0
SPLINE
  5
3A3
100
AcDbEntity
  8
0
100
AcDbSpline
 62
7
  6
CONTINUOUS
 70
0
 71
3
 72
15
 73
11
 74
0
 42
0.0000001
 43
0.0000001
 44
0.0000000001
 40
0.0
 40
0.0
 40
0.0
 40
0.0
 40
0.1237205114
 40
0.2475543043
 40
0.3717237917
 40
0.49630039
 40
0.6214601423
 40
0.7473130279
 40
0.8736672729
 40
1.0
 40
1.0
 40
1.0
 40
1.0
 10
7.4337695641
 20
12.7612041134
 30
0.0
 10
7.4289717729
 20
12.7644028432
 30
0.0
 10
7.4198105354
 20
12.7714903714
 30
0.0
 10
7.407665304
 20
12.7839154905
 30
0.0
 10
7.3972241888
 20
12.7978517106
 30
0.0
 10
7.3885964278
 20
12.8130442326
 30
0.0
 10
7.3818399944
 20
12.8292377914
 30
0.0
 10
7.3769950873
 20
12.846186321
 30
0.0
 10
7.3740835117
 20
12.8636224536
 30
0.0
 10
7.3734305011
 20
12.8754096922
 30
0.0
 10
7.3734305011
 20
12.8812977814
 30
0.0
  0
SPLINE
  5
3A4
100
AcDbEntity
  8
0
100
AcDbSpline
 62
7
  6
CONTINUOUS
 70
0
 71
3
 72
12
 73
8
 74
0
 42
0.0000001
 43
0.0000001
 44
0.0000000001
 40
0.0
 40
0.0
 40
0.0
 40
0.0
 40
0.0830682151
 40
0.1873389741
 40
0.4421158328
 40
0.727570337
 40
1.0
 40
1.0
 40
1.0
 40
1.0
 10
5.0529332506
 20
11.8133580724
 30
0.0
 10
5.0527443335
 20
11.8133580724
 30
0.0
 10
5.052318406
 20
11.8133347037
 30
0.0
 10
5.0513185619
 20
11.8132268911
 30
0.0
 10
5.0498721228
 20
11.812981755
 30
0.0
 10
5.0480675749
 20
11.8125805937
 30
0.0
 10
5.0468425566
 20
11.8122471078
 30
0.0
 10
5.046250669
 20
11.8120639772
 30
0.0
  0
SPLINE
  5
3A5
100
AcDbEntity
  8
0
100
AcDbSpline
 62
7
  6
CONTINUOUS
 70
0
 71
3
 72
9
 73
5
 74
0
 42
0.0000001
 43
0.0000001
 44
0.0000000001
 40
0.0
 40
0.0
 40
0.0
 40
0.0
 40
0.4837943625
 40
1.0
 40
1.0
 40
1.0
 40
1.0
 10
7.4298428744
 20
12.691854858
 30
0.0
 10
7.4384864604
 20
12.6989123164
 30
0.0
 10
7.4547811167
 20
12.7154851907
 30
0.0
 10
7.4677129702
 20
12.7347350301
 30
0.0
 10
7.4735504808
 20
12.7451122023
 30
0.0
  0
SPLINE
  5
3A6
100
AcDbEntity
  8
0
100
AcDbSpline
 62
7
  6
CONTINUOUS
 70
0
 71
3
 72
11
 73
7
 74
0
 42
0.0000001
 43
0.0000001
 44
0.0000000001
 40
0.0
 40
0.0
 40
0.0
 40
0.0
 40
0.185405045
 40
0.4999947827
 40
0.8145874478
 40
1.0
 40
1.0
 40
1.0
 40
1.0
 10
5.0716860796
 20
11.6885005343
 30
0.0
 10
5.0744820807
 20
11.669986238
 30
0.0
 10
5.080701109
 20
11.6198509157
 30
0.0
 10
5.0846981138
 20
11.5375496291
 30
0.0
 10
5.0807013924
 20
11.4552475656
 30
0.0
 10
5.0744823399
 20
11.4051111816
 30
0.0
 10
5.0716862464
 20
11.3865961325
 30
0.0
  0
SPLINE
  5
3A7
100
AcDbEntity
  8
0
100
AcDbSpline
 62
7
  6
CONTINUOUS
 70
0
 71
3
 72
17
 73
13
 74
0
 42
0.0000001
 43
0.0000001
 44
0.0000000001
 40
0.0
 40
0.0
 40
0.0
 40
0.0
 40
0.1311891354
 40
0.2573247183
 40
0.3188963505
 40
0.3797231314
 40
0.5
 40
0.6202768686
 40
0.6811036495
 40
0.7426752817
 40
0.8688108646
 40
1.0
 40
1.0
 40
1.0
 40
1.0
 10
7.2751633751
 20
12.691854858
 30
0.0
 10
7.2808734605
 20
12.6871925928
 30
0.0
 10
7.2927601259
 20
12.6788457018
 30
0.0
 10
7.3089696987
 20
12.6709989804
 30
0.0
 10
7.3222469882
 20
12.6666147899
 30
0.0
 10
7.3355393385
 20
12.6635022805
 30
0.0
 10
7.3525031248
 20
12.661918241
 30
0.0
 10
7.369466911
 20
12.6635022805
 30
0.0
 10
7.3827592613
 20
12.6666147899
 30
0.0
 10
7.3960365508
 20
12.6709989804
 30
0.0
 10
7.4122461236
 20
12.6788457018
 30
0.0
 10
7.424132789
 20
12.6871925928
 30
0.0
 10
7.4298428744
 20
12.691854858
 30
0.0
  0
SPLINE
  5
3A8
100
AcDbEntity
  8
0
100
AcDbSpline
 62
7
  6
CONTINUOUS
 70
0
 71
3
 72
15
 73
11
 74
0
 42
0.0000001
 43
0.0000001
 44
0.0000000001
 40
0.0
 40
0.0
 40
0.0
 40
0.0
 40
0.1354937069
 40
0.2699497245
 40
0.4020761527
 40
0.5309525127
 40
0.6557318145
 40
0.7163908292
 40
0.7758144438
 40
1.0
 40
1.0
 40
1.0
 40
1.0
 10
7.1978236255
 20
12.8812977814
 30
0.0
 10
7.1978236255
 20
12.8717735765
 30
0.0
 10
7.1987025425
 20
12.8527864298
 30
0.0
 10
7.2026235869
 20
12.8247568535
 30
0.0
 10
7.2090947956
 20
12.7976765827
 30
0.0
 10
7.2180043774
 20
12.7720157834
 30
0.0
 10
7.2274200108
 20
12.7519767751
 30
0.0
 10
7.2360575516
 20
12.7370748205
 30
0.0
 10
7.2493988381
 20
12.7168939363
 30
0.0
 10
7.2629568273
 20
12.7018214625
 30
0.0
 10
7.2751633751
 20
12.691854858
 30
0.0
  0
SPLINE
  5
3A9
100
AcDbEntity
  8
0
100
AcDbSpline
 62
7
  6
CONTINUOUS
 70
0
 71
3
 72
15
 73
11
 74
0
 42
0.0000001
 43
0.0000001
 44
0.0000000001
 40
0.0
 40
0.0
 40
0.0
 40
0.0
 40
0.2241855562
 40
0.2836091708
 40
0.3442681855
 40
0.4690474873
 40
0.5979238473
 40
0.7300502755
 40
0.8645062931
 40
1.0
 40
1.0
 40
1.0
 40
1.0
 10
7.2751633751
 20
13.0707407048
 30
0.0
 10
7.2629568273
 20
13.0607741002
 30
0.0
 10
7.2493988381
 20
13.0457016264
 30
0.0
 10
7.2360575516
 20
13.0255207422
 30
0.0
 10
7.2274200108
 20
13.0106187876
 30
0.0
 10
7.2180043774
 20
12.9905797794
 30
0.0
 10
7.2090947956
 20
12.96491898
 30
0.0
 10
7.2026235869
 20
12.9378387092
 30
0.0
 10
7.1987025425
 20
12.9098091329
 30
0.0
 10
7.1978236255
 20
12.8908219862
 30
0.0
 10
7.1978236255
 20
12.8812977814
 30
0.0
  0
SPLINE
  5
3AA
100
AcDbEntity
  8
0
100
AcDbSpline
 62
7
  6
CONTINUOUS
 70
0
 71
3
 72
17
 73
13
 74
0
 42
0.0000001
 43
0.0000001
 44
0.0000000001
 40
0.0
 40
0.0
 40
0.0
 40
0.0
 40
0.1311891354
 40
0.2573247183
 40
0.3188963505
 40
0.3797231314
 40
0.5
 40
0.6202768686
 40
0.6811036495
 40
0.7426752817
 40
0.8688108646
 40
1.0
 40
1.0
 40
1.0
 40
1.0
 10
7.4298428744
 20
13.0707407048
 30
0.0
 10
7.424132789
 20
13.0754029699
 30
0.0
 10
7.4122461236
 20
13.083749861
 30
0.0
 10
7.3960365508
 20
13.0915965823
 30
0.0
 10
7.3827592613
 20
13.0959807728
 30
0.0
 10
7.369466911
 20
13.0990932822
 30
0.0
 10
7.3525031248
 20
13.1006773217
 30
0.0
 10
7.3355393385
 20
13.0990932822
 30
0.0
 10
7.3222469882
 20
13.0959807728
 30
0.0
 10
7.3089696987
 20
13.0915965823
 30
0.0
 10
7.2927601259
 20
13.083749861
 30
0.0
 10
7.2808734605
 20
13.0754029699
 30
0.0
 10
7.2751633751
 20
13.0707407048
 30
0.0
  0
SPLINE
  5
3AB
100
AcDbEntity
  8
0
100
AcDbSpline
 62
7
  6
CONTINUOUS
 70
0
 71
3
 72
9
 73
5
 74
0
 42
0.0000001
 43
0.0000001
 44
0.0000000001
 40
0.0
 40
0.0
 40
0.0
 40
0.0
 40
0.515953093
 40
1.0
 40
1.0
 40
1.0
 40
1.0
 10
7.4729171599
 20
13.0186016562
 30
0.0
 10
7.4671319345
 20
13.0287486914
 30
0.0
 10
7.4543516281
 20
13.0475790574
 30
0.0
 10
7.4383309577
 20
13.0638102137
 30
0.0
 10
7.4298428744
 20
13.0707407048
 30
0.0
  0
LINE
  5
3AC
100
AcDbEntity
  8
0
100
AcDbLine
 62
7
  6
CONTINUOUS
 10
5.0504322032
 20
11.7940440694
 11
5.0564143217
 21
11.7873672839
  0
SPLINE
  5
3AD
100
AcDbEntity
  8
0
100
AcDbSpline
 62
7
  6
CONTINUOUS
 70
0
 71
3
 72
9
 73
5
 74
0
 42
0.0000001
 43
0.0000001
 44
0.0000000001
 40
0.0
 40
0.0
 40
0.0
 40
0.0
 40
0.5039190751
 40
1.0
 40
1.0
 40
1.0
 40
1.0
 10
5.0564143217
 20
11.7873672839
 30
0.0
 10
5.0572095933
 20
11.7863875103
 30
0.0
 10
5.0586954291
 20
11.7843644663
 30
0.0
 10
5.0599102829
 20
11.7821644031
 30
0.0
 10
5.0604332506
 20
11.7810375643
 30
0.0
  0
SPLINE
  5
3AE
100
AcDbEntity
  8
0
100
AcDbSpline
 62
7
  6
CONTINUOUS
 70
0
 71
3
 72
12
 73
8
 74
0
 42
0.0000001
 43
0.0000001
 44
0.0000000001
 40
0.0
 40
0.0
 40
0.0
 40
0.0
 40
0.2719529487
 40
0.5569340845
 40
0.8121688326
 40
0.9167750521
 40
1.0
 40
1.0
 40
1.0
 40
1.0
 10
5.0624886454
 20
11.7420880245
 30
0.0
 10
5.0630794961
 20
11.7422708344
 30
0.0
 10
5.0643023176
 20
11.7426041376
 30
0.0
 10
5.0661057977
 20
11.7430049805
 30
0.0
 10
5.0675529623
 20
11.7432501446
 30
0.0
 10
5.0685549158
 20
11.7433584504
 30
0.0
 10
5.0689819537
 20
11.7433821198
 30
0.0
 10
5.0691712269
 20
11.7433821198
 30
0.0
  0
SPLINE
  5
3AF
100
AcDbEntity
  8
0
100
AcDbSpline
 62
7
  6
CONTINUOUS
 70
0
 71
3
 72
18
 73
14
 74
0
 42
0.0000001
 43
0.0000001
 44
0.0000000001
 40
0.0
 40
0.0
 40
0.0
 40
0.0
 40
0.1248607712
 40
0.1874936742
 40
0.2500822893
 40
0.312642841
 40
0.3751743225
 40
0.4377313216
 40
0.5002775572
 40
0.6252228777
 40
0.7500798733
 40
0.8751053416
 40
1.0
 40
1.0
 40
1.0
 40
1.0
 10
3.6893022232
 20
12.3700832449
 30
0.0
 10
3.6893022225
 20
12.3739735705
 30
0.0
 10
3.6900987958
 20
12.379855655
 30
0.0
 10
3.6926930009
 20
12.3872207572
 30
0.0
 10
3.6953713135
 20
12.3924434923
 30
0.0
 10
3.6987015951
 20
12.3972695053
 30
0.0
 10
3.7026182708
 20
12.4016305996
 30
0.0
 10
3.7070284762
 20
12.4054893959
 30
0.0
 10
3.7134552038
 20
12.4099185994
 30
0.0
 10
3.7223307481
 20
12.4140954092
 30
0.0
 10
3.7337361875
 20
12.4169087459
 30
0.0
 10
3.7454528005
 20
12.4175917762
 30
0.0
 10
3.7532326984
 20
12.4166893082
 30
0.0
 10
3.7570453298
 20
12.4159104042
 30
0.0
  0
SPLINE
  5
3B0
100
AcDbEntity
  8
0
100
AcDbSpline
 62
7
  6
CONTINUOUS
 70
0
 71
3
 72
18
 73
14
 74
0
 42
0.0000001
 43
0.0000001
 44
0.0000000001
 40
0.0
 40
0.0
 40
0.0
 40
0.0
 40
0.1247592503
 40
0.2498115876
 40
0.3747186556
 40
0.4996463546
 40
0.5622524605
 40
0.6248115308
 40
0.6873930163
 40
0.7500045412
 40
0.8126018054
 40
0.8752429042
 40
1.0
 40
1.0
 40
1.0
 40
1.0
 10
3.7570453298
 20
13.3466851599
 30
0.0
 10
3.7532369104
 20
13.3459071161
 30
0.0
 10
3.745460508
 20
13.3450048846
 30
0.0
 10
3.733746455
 20
13.3456870696
 30
0.0
 10
3.7223367372
 20
13.3484919768
 30
0.0
 10
3.7134616674
 20
13.3526772834
 30
0.0
 10
3.7070345178
 20
13.3571070994
 30
0.0
 10
3.7026170083
 20
13.3609630501
 30
0.0
 10
3.6987036043
 20
13.3653315751
 30
0.0
 10
3.6953710669
 20
13.3701594212
 30
0.0
 10
3.6926880718
 20
13.3753824118
 30
0.0
 10
3.6901028142
 20
13.3827476243
 30
0.0
 10
3.6893022237
 20
13.3886253081
 30
0.0
 10
3.6893022235
 20
13.3925123234
 30
0.0
  0
SPLINE
  5
3B1
100
AcDbEntity
  8
0
100
AcDbSpline
 62
7
  6
CONTINUOUS
 70
0
 71
3
 72
18
 73
14
 74
0
 42
0.0000001
 43
0.0000001
 44
0.0000000001
 40
0.0
 40
0.0
 40
0.0
 40
0.0
 40
0.1248607719
 40
0.1874936751
 40
0.2500822904
 40
0.3126428426
 40
0.375174325
 40
0.4377313242
 40
0.5002775587
 40
0.6252228806
 40
0.7500798821
 40
0.8751053375
 40
1.0
 40
1.0
 40
1.0
 40
1.0
 10
8.4524419445
 20
13.3925123178
 30
0.0
 10
8.4524419452
 20
13.3886219922
 30
0.0
 10
8.451645372
 20
13.3827399078
 30
0.0
 10
8.4490511668
 20
13.3753748056
 30
0.0
 10
8.4463728542
 20
13.3701520704
 30
0.0
 10
8.4430425726
 20
13.3653260574
 30
0.0
 10
8.4391258969
 20
13.3609649631
 30
0.0
 10
8.4347156916
 20
13.3571061668
 30
0.0
 10
8.4282889638
 20
13.3526769635
 30
0.0
 10
8.4194134193
 20
13.3485001542
 30
0.0
 10
8.4080079808
 20
13.345686814
 30
0.0
 10
8.3962913669
 20
13.3450037911
 30
0.0
 10
8.3885114708
 20
13.3459062609
 30
0.0
 10
8.384698838
 20
13.3466851585
 30
0.0
  0
SPLINE
  5
3B2
100
AcDbEntity
  8
0
100
AcDbSpline
 62
7
  6
CONTINUOUS
 70
0
 71
3
 72
18
 73
14
 74
0
 42
0.0000001
 43
0.0000001
 44
0.0000000001
 40
0.0
 40
0.0
 40
0.0
 40
0.0
 40
0.1247592557
 40
0.2498115783
 40
0.3747186462
 40
0.4996463539
 40
0.5622524598
 40
0.6248115287
 40
0.6873930134
 40
0.7500045388
 40
0.8126018039
 40
0.8752429035
 40
1.0
 40
1.0
 40
1.0
 40
1.0
 10
8.384698838
 20
12.4159104029
 30
0.0
 10
8.3885072587
 20
12.4166884406
 30
0.0
 10
8.3962836597
 20
12.4175906717
 30
0.0
 10
8.4079977132
 20
12.4169084954
 30
0.0
 10
8.4194074308
 20
12.4141035866
 30
0.0
 10
8.4282825001
 20
12.409918279
 30
0.0
 10
8.4347096499
 20
12.4054884631
 30
0.0
 10
8.4391271594
 20
12.4016325126
 30
0.0
 10
8.4430405635
 20
12.3972639877
 30
0.0
 10
8.4463731008
 20
12.3924361416
 30
0.0
 10
8.4490560959
 20
12.387213151
 30
0.0
 10
8.4516413535
 20
12.3798479385
 30
0.0
 10
8.452441944
 20
12.3739702546
 30
0.0
 10
8.4524419442
 20
12.3700832393
 30
0.0
  0
SPLINE
  5
3B3
100
AcDbEntity
  8
0
100
AcDbSpline
 62
7
  6
CONTINUOUS
 70
0
 71
3
 72
25
 73
21
 74
0
 42
0.0000001
 43
0.0000001
 44
0.0000000001
 40
0.0
 40
0.0
 40
0.0
 40
0.0
 40
0.0635285457
 40
0.1270580107
 40
0.190317431
 40
0.2532219456
 40
0.3158358149
 40
0.3782279784
 40
0.4404693536
 40
0.5026414808
 40
0.5647639967
 40
0.626891046
 40
0.6579787114
 40
0.689076519
 40
0.7512555814
 40
0.782367754
 40
0.813476903
 40
0.8756555503
 40
0.9378248736
 40
1.0
 40
1.0
 40
1.0
 40
1.0
 10
15.8416052569
 20
7.1745539715
 30
0.0
 10
15.8474479901
 20
7.1745539715
 30
0.0
 10
15.8591433524
 20
7.1739110836
 30
0.0
 10
15.8764450197
 20
7.1710454444
 30
0.0
 10
15.8932665724
 20
7.1662771237
 30
0.0
 10
15.909348768
 20
7.1596292791
 30
0.0
 10
15.9244517984
 20
7.1511402391
 30
0.0
 10
15.9383351973
 20
7.1408721359
 30
0.0
 10
15.95073657
 20
7.1289084039
 30
0.0
 10
15.9613913871
 20
7.1153927103
 30
0.0
 10
15.9700534484
 20
7.1005307226
 30
0.0
 10
15.9754129133
 20
7.0872284601
 30
0.0
 10
15.9785025589
 20
7.0762112399
 30
0.0
 10
15.9807640002
 20
7.0649905352
 30
0.0
 10
15.981767437
 20
7.0535444056
 30
0.0
 10
15.9814934096
 20
7.0420979999
 30
0.0
 10
15.9803597243
 20
7.0307036797
 30
0.0
 10
15.9773544857
 20
7.0166672249
 30
0.0
 10
15.971327864
 20
7.000544701
 30
0.0
 10
15.9657864776
 20
6.9904879637
 30
0.0
 10
15.9626844369
 20
6.9856842329
 30
0.0
  0
SPLINE
  5
3B4
100
AcDbEntity
  8
0
100
AcDbSpline
 62
7
  6
CONTINUOUS
 70
0
 71
3
 72
15
 73
11
 74
0
 42
0.0000001
 43
0.0000001
 44
0.0000000001
 40
0.0
 40
0.0
 40
0.0
 40
0.0
 40
0.1237205114
 40
0.2475543043
 40
0.3717237917
 40
0.49630039
 40
0.6214601423
 40
0.7473130279
 40
0.8736672729
 40
1.0
 40
1.0
 40
1.0
 40
1.0
 10
15.9616989249
 20
6.9841823565
 30
0.0
 10
15.9585001951
 20
6.9793845653
 30
0.0
 10
15.9514126669
 20
6.9702233278
 30
0.0
 10
15.9389875478
 20
6.9580780963
 30
0.0
 10
15.9250513277
 20
6.9476369812
 30
0.0
 10
15.9098588057
 20
6.9390092201
 30
0.0
 10
15.8936652469
 20
6.9322527868
 30
0.0
 10
15.8767167173
 20
6.9274078797
 30
0.0
 10
15.8592805848
 20
6.9244963041
 30
0.0
 10
15.8474933461
 20
6.9238432934
 30
0.0
 10
15.8416052569
 20
6.9238432934
 30
0.0
  0
SPLINE
  5
3B5
100
AcDbEntity
  8
0
100
AcDbSpline
 62
7
  6
CONTINUOUS
 70
0
 71
3
 72
15
 73
11
 74
0
 42
0.0000001
 43
0.0000001
 44
0.0000000001
 40
0.0
 40
0.0
 40
0.0
 40
0.0
 40
0.1263942945
 40
0.2527884982
 40
0.3786412802
 40
0.5037861427
 40
0.6283532298
 40
0.7524790508
 40
0.876308311
 40
1.0
 40
1.0
 40
1.0
 40
1.0
 10
15.8416052569
 20
6.9238432934
 30
0.0
 10
15.8357436837
 20
6.9238432934
 30
0.0
 10
15.8240106367
 20
6.9244903264
 30
0.0
 10
15.8066548432
 20
6.9273743803
 30
0.0
 10
15.7897839011
 20
6.9321733991
 30
0.0
 10
15.7736593011
 20
6.9388637891
 30
0.0
 10
15.7585234499
 20
6.9474065619
 30
0.0
 10
15.7446185791
 20
6.9577394433
 30
0.0
 10
15.7322123274
 20
6.9697739204
 30
0.0
 10
15.7251103234
 20
6.9788473185
 30
0.0
 10
15.7218991422
 20
6.9836005021
 30
0.0
  0
SPLINE
  5
3B6
100
AcDbEntity
  8
0
100
AcDbSpline
 62
7
  6
CONTINUOUS
 70
0
 71
3
 72
27
 73
23
 74
0
 42
0.0000001
 43
0.0000001
 44
0.0000000001
 40
0.0
 40
0.0
 40
0.0
 40
0.0
 40
0.0620987394
 40
0.0931712493
 40
0.1242449921
 40
0.1553231816
 40
0.1864129092
 40
0.2485711929
 40
0.2796712581
 40
0.3107689705
 40
0.3729254067
 40
0.4040215388
 40
0.4351113995
 40
0.4972695506
 40
0.5594655341
 40
0.6217212403
 40
0.6841469358
 40
0.7467772335
 40
0.8097011723
 40
0.8729720661
 40
0.9364920744
 40
1.0
 40
1.0
 40
1.0
 40
1.0
 10
15.7210341176
 20
6.9848986623
 30
0.0
 10
15.7178866557
 20
6.9896880476
 30
0.0
 10
15.713665631
 20
6.9972241915
 30
0.0
 10
15.7091807938
 20
7.0077847812
 30
0.0
 10
15.7063992742
 20
7.0159349538
 30
0.0
 10
15.7042259778
 20
7.0242697942
 30
0.0
 10
15.7021685171
 20
7.0355660048
 30
0.0
 10
15.7013780653
 20
7.0470653814
 30
0.0
 10
15.7018764381
 20
7.0585400979
 30
0.0
 10
15.7032391279
 20
7.0699444437
 30
0.0
 10
15.7058742921
 20
7.0811649599
 30
0.0
 10
15.7097130216
 20
7.0919879795
 30
0.0
 10
15.7143394725
 20
7.1024998034
 30
0.0
 10
15.7215339659
 20
7.114971928
 30
0.0
 10
15.7321715426
 20
7.1285848659
 30
0.0
 10
15.7445901121
 20
7.1406276369
 30
0.0
 10
15.7584960487
 20
7.1509757861
 30
0.0
 10
15.7736418183
 20
7.1595259729
 30
0.0
 10
15.7897746801
 20
7.1662211684
 30
0.0
 10
15.8066524376
 20
7.1710218596
 30
0.0
 10
15.8240109658
 20
7.1739069288
 30
0.0
 10
15.8357441725
 20
7.1745539715
 30
0.0
 10
15.8416052569
 20
7.1745539715
 30
0.0
  0
SPLINE
  5
3B7
100
AcDbEntity
  8
0
100
AcDbSpline
 62
7
  6
CONTINUOUS
 70
0
 71
3
 72
15
 73
11
 74
0
 42
0.0000001
 43
0.0000001
 44
0.0000000001
 40
0.0
 40
0.0
 40
0.0
 40
0.0
 40
0.2241855562
 40
0.2836091708
 40
0.3442681855
 40
0.4690474873
 40
0.5979238473
 40
0.7300502755
 40
0.8645062931
 40
1.0
 40
1.0
 40
1.0
 40
1.0
 10
15.6521623335
 20
6.8255761675
 30
0.0
 10
15.6621289381
 20
6.8133696197
 30
0.0
 10
15.6772014119
 20
6.7998116305
 30
0.0
 10
15.6973822961
 20
6.7864703439
 30
0.0
 10
15.7122842507
 20
6.7778328032
 30
0.0
 10
15.7323232589
 20
6.7684171698
 30
0.0
 10
15.7579840583
 20
6.759507588
 30
0.0
 10
15.7850643291
 20
6.7530363792
 30
0.0
 10
15.8130939054
 20
6.7491153349
 30
0.0
 10
15.8320810521
 20
6.7482364179
 30
0.0
 10
15.8416052569
 20
6.7482364179
 30
0.0
  0
SPLINE
  5
3B8
100
AcDbEntity
  8
0
100
AcDbSpline
 62
7
  6
CONTINUOUS
 70
0
 71
3
 72
17
 73
13
 74
0
 42
0.0000001
 43
0.0000001
 44
0.0000000001
 40
0.0
 40
0.0
 40
0.0
 40
0.0
 40
0.1311891354
 40
0.2573247183
 40
0.3188963505
 40
0.3797231314
 40
0.5
 40
0.6202768686
 40
0.6811036495
 40
0.7426752817
 40
0.8688108646
 40
1.0
 40
1.0
 40
1.0
 40
1.0
 10
15.6521623335
 20
6.9802556667
 30
0.0
 10
15.6475000684
 20
6.9745455814
 30
0.0
 10
15.6391531773
 20
6.962658916
 30
0.0
 10
15.631306456
 20
6.9464493432
 30
0.0
 10
15.6269222655
 20
6.9331720537
 30
0.0
 10
15.6238097561
 20
6.9198797034
 30
0.0
 10
15.6222257166
 20
6.9029159171
 30
0.0
 10
15.6238097561
 20
6.8859521308
 30
0.0
 10
15.6269222655
 20
6.8726597806
 30
0.0
 10
15.631306456
 20
6.8593824911
 30
0.0
 10
15.6391531773
 20
6.8431729182
 30
0.0
 10
15.6475000684
 20
6.8312862529
 30
0.0
 10
15.6521623335
 20
6.8255761675
 30
0.0
  0
SPLINE
  5
3B9
100
AcDbEntity
  8
0
100
AcDbSpline
 62
7
  6
CONTINUOUS
 70
0
 71
3
 72
9
 73
5
 74
0
 42
0.0000001
 43
0.0000001
 44
0.0000000001
 40
0.0
 40
0.0
 40
0.0
 40
0.0
 40
0.515953093
 40
1.0
 40
1.0
 40
1.0
 40
1.0
 10
15.7043013821
 20
7.0233299522
 30
0.0
 10
15.6941543469
 20
7.0175447269
 30
0.0
 10
15.6753239809
 20
7.0047644205
 30
0.0
 10
15.6590928246
 20
6.9887437501
 30
0.0
 10
15.6521623335
 20
6.9802556667
 30
0.0
  0
SPLINE
  5
3BA
100
AcDbEntity
  8
0
100
AcDbSpline
 62
7
  6
CONTINUOUS
 70
0
 71
3
 72
9
 73
5
 74
0
 42
0.0000001
 43
0.0000001
 44
0.0000000001
 40
0.0
 40
0.0
 40
0.0
 40
0.0
 40
0.4837943625
 40
1.0
 40
1.0
 40
1.0
 40
1.0
 10
16.0310481803
 20
6.9802556667
 30
0.0
 10
16.0239907219
 20
6.9888992527
 30
0.0
 10
16.0074178476
 20
7.0051939091
 30
0.0
 10
15.9881680082
 20
7.0181257626
 30
0.0
 10
15.977790836
 20
7.0239632731
 30
0.0
  0
SPLINE
  5
3BB
100
AcDbEntity
  8
0
100
AcDbSpline
 62
7
  6
CONTINUOUS
 70
0
 71
3
 72
17
 73
13
 74
0
 42
0.0000001
 43
0.0000001
 44
0.0000000001
 40
0.0
 40
0.0
 40
0.0
 40
0.0
 40
0.1311891354
 40
0.2573247183
 40
0.3188963505
 40
0.3797231314
 40
0.5
 40
0.6202768686
 40
0.6811036495
 40
0.7426752817
 40
0.8688108646
 40
1.0
 40
1.0
 40
1.0
 40
1.0
 10
16.0310481803
 20
6.8255761675
 30
0.0
 10
16.0357104455
 20
6.8312862529
 30
0.0
 10
16.0440573365
 20
6.8431729182
 30
0.0
 10
16.0519040579
 20
6.8593824911
 30
0.0
 10
16.0562882484
 20
6.8726597806
 30
0.0
 10
16.0594007578
 20
6.8859521308
 30
0.0
 10
16.0609847973
 20
6.9029159171
 30
0.0
 10
16.0594007578
 20
6.9198797034
 30
0.0
 10
16.0562882484
 20
6.9331720537
 30
0.0
 10
16.0519040579
 20
6.9464493432
 30
0.0
 10
16.0440573365
 20
6.962658916
 30
0.0
 10
16.0357104455
 20
6.9745455814
 30
0.0
 10
16.0310481803
 20
6.9802556667
 30
0.0
  0
SPLINE
  5
3BC
100
AcDbEntity
  8
0
100
AcDbSpline
 62
7
  6
CONTINUOUS
 70
0
 71
3
 72
11
 73
7
 74
0
 42
0.0000001
 43
0.0000001
 44
0.0000000001
 40
0.0
 40
0.0
 40
0.0
 40
0.0
 40
0.1852500464
 40
0.4999896171
 40
0.8147346571
 40
1.0
 40
1.0
 40
1.0
 40
1.0
 10
14.3468514249
 20
6.6204785986
 30
0.0
 10
14.3653563196
 20
6.6176830206
 30
0.0
 10
14.4155075732
 20
6.6114589158
 30
0.0
 10
14.4978514784
 20
6.6074562701
 30
0.0
 10
14.5801969678
 20
6.6114583325
 30
0.0
 10
14.6303503352
 20
6.6176824847
 30
0.0
 10
14.6488567648
 20
6.6204782473
 30
0.0
  0
SPLINE
  5
3BD
100
AcDbEntity
  8
0
100
AcDbSpline
 62
7
  6
CONTINUOUS
 70
0
 71
3
 72
15
 73
11
 74
0
 42
0.0000001
 43
0.0000001
 44
0.0000000001
 40
0.0
 40
0.0
 40
0.0
 40
0.0
 40
0.1354937069
 40
0.2699497245
 40
0.4020761527
 40
0.5309525127
 40
0.6557318145
 40
0.7163908292
 40
0.7758144438
 40
1.0
 40
1.0
 40
1.0
 40
1.0
 10
15.8416052569
 20
6.7482364179
 30
0.0
 10
15.8511294618
 20
6.7482364179
 30
0.0
 10
15.8701166085
 20
6.7491153349
 30
0.0
 10
15.8981461848
 20
6.7530363792
 30
0.0
 10
15.9252264556
 20
6.759507588
 30
0.0
 10
15.9508872549
 20
6.7684171698
 30
0.0
 10
15.9709262632
 20
6.7778328032
 30
0.0
 10
15.9858282178
 20
6.7864703439
 30
0.0
 10
16.006009102
 20
6.7998116305
 30
0.0
 10
16.0210815758
 20
6.8133696197
 30
0.0
 10
16.0310481803
 20
6.8255761675
 30
0.0
  0
SPLINE
  5
3BE
100
AcDbEntity
  8
03__ASM_ALL_CURVES
100
AcDbSpline
 62
8
  6
HIDDEN
 70
0
 71
3
 72
17
 73
13
 74
0
 42
0.0000001
 43
0.0000001
 44
0.0000000001
 40
0.0
 40
0.0
 40
0.0
 40
0.0
 40
0.25
 40
0.375
 40
0.4375
 40
0.5
 40
0.5625
 40
0.625
 40
0.75
 40
0.8125
 40
0.875
 40
1.0
 40
1.0
 40
1.0
 40
1.0
 10
15.2621531971
 20
11.225105562
 30
0.0
 10
15.2593305483
 20
11.230597036
 30
0.0
 10
15.2550377219
 20
11.2388477237
 30
0.0
 10
15.2495716429
 20
11.2484121319
 30
0.0
 10
15.2461584561
 20
11.2539367698
 30
0.0
 10
15.2438490137
 20
11.2578875035
 30
0.0
 10
15.2406826371
 20
11.2625795851
 30
0.0
 10
15.2367462372
 20
11.268673314
 30
0.0
 10
15.2328110923
 20
11.274258627
 30
0.0
 10
15.2290845504
 20
11.2796019447
 30
0.0
 10
15.2248062195
 20
11.2853317799
 30
0.0
 10
15.2214769076
 20
11.2897056195
 30
0.0
 10
15.2192841583
 20
11.2926045207
 30
0.0
  0
SPLINE
  5
3BF
100
AcDbEntity
  8
03__ASM_ALL_CURVES
100
AcDbSpline
 62
8
  6
HIDDEN
 70
0
 71
3
 72
109
 73
105
 74
0
 42
0.0000001
 43
0.0000001
 44
0.0000000001
 40
0.0
 40
0.0
 40
0.0
 40
0.0
 40
0.03125
 40
0.046875
 40
0.0625
 40
0.0703125
 40
0.078125
 40
0.08203125
 40
0.0859375
 40
0.08984375
 40
0.09375
 40
0.109375
 40
0.125
 40
0.140625
 40
0.15625
 40
0.16015625
 40
0.1640625
 40
0.16796875
 40
0.171875
 40
0.1796875
 40
0.1875
 40
0.21875
 40
0.234375
 40
0.2421875
 40
0.24609375
 40
0.25
 40
0.25390625
 40
0.2578125
 40
0.265625
 40
0.28125
 40
0.3125
 40
0.3203125
 40
0.328125
 40
0.33203125
 40
0.3359375
 40
0.34375
 40
0.359375
 40
0.375
 40
0.390625
 40
0.40625
 40
0.4140625
 40
0.41796875
 40
0.421875
 40
0.4296875
 40
0.4375
 40
0.453125
 40
0.46875
 40
0.484375
 40
0.4921875
 40
0.49609375
 40
0.5
 40
0.50390625
 40
0.5078125
 40
0.515625
 40
0.53125
 40
0.5625
 40
0.5703125
 40
0.578125
 40
0.58203125
 40
0.5859375
 40
0.59375
 40
0.609375
 40
0.625
 40
0.640625
 40
0.65625
 40
0.66015625
 40
0.6640625
 40
0.66796875
 40
0.671875
 40
0.6796875
 40
0.6875
 40
0.703125
 40
0.71875
 40
0.7265625
 40
0.734375
 40
0.7421875
 40
0.74609375
 40
0.75
 40
0.75390625
 40
0.7578125
 40
0.765625
 40
0.78125
 40
0.8125
 40
0.8203125
 40
0.828125
 40
0.83203125
 40
0.833984375
 40
0.8359375
 40
0.83984375
 40
0.84375
 40
0.859375
 40
0.875
 40
0.890625
 40
0.90625
 40
0.91015625
 40
0.9140625
 40
0.916015625
 40
0.91796875
 40
0.921875
 40
0.9296875
 40
0.9375
 40
0.953125
 40
0.96875
 40
1.0
 40
1.0
 40
1.0
 40
1.0
 10
15.2192841593
 20
11.2926045195
 30
0.0
 10
15.2114814355
 20
11.3009145608
 30
0.0
 10
15.199774607
 20
11.3133787327
 30
0.0
 10
15.1841764732
 20
11.3300011892
 30
0.0
 10
15.1744047838
 20
11.3403828065
 30
0.0
 10
15.1666395435
 20
11.3487050134
 30
0.0
 10
15.161667418
 20
11.353867819
 30
0.0
 10
15.1579619306
 20
11.3580864122
 30
0.0
 10
15.1544374864
 20
11.3610084552
 30
0.0
 10
15.1507041836
 20
11.3638627111
 30
0.0
 10
15.1433450383
 20
11.3696061033
 30
0.0
 10
15.1322608539
 20
11.3782063892
 30
0.0
 10
15.1175095082
 20
11.3896826225
 30
0.0
 10
15.1027448906
 20
11.4011536922
 30
0.0
 10
15.0916905681
 20
11.4097655962
 30
0.0
 10
15.084293266
 20
11.415494143
 30
0.0
 10
15.0806437422
 20
11.4183809943
 30
0.0
 10
15.0768032602
 20
11.4211800782
 30
0.0
 10
15.0707741415
 20
11.4244946121
 30
0.0
 10
15.0635483941
 20
11.4287806558
 30
0.0
 10
15.0459497794
 20
11.4389482817
 30
0.0
 10
15.0255148985
 20
11.4508639202
 30
0.0
 10
15.0050142273
 20
11.4627233529
 30
0.0
 10
14.9948044753
 20
11.468705333
 30
0.0
 10
14.988910158
 20
11.4720420418
 30
0.0
 10
14.9846583445
 20
11.4747743374
 30
0.0
 10
14.97976092
 20
11.47662836
 30
0.0
 10
14.9734562194
 20
11.4794067603
 30
0.0
 10
14.9623180442
 20
11.4841260297
 30
0.0
 10
14.9401187906
 20
11.4936712984
 30
0.0
 10
14.9178767528
 20
11.5031479118
 30
0.0
 10
14.8988487603
 20
11.5113416062
 30
0.0
 10
14.8908797847
 20
11.5146702004
 30
0.0
 10
14.884598492
 20
11.5175310558
 30
0.0
 10
14.8779741644
 20
11.5196683471
 30
0.0
 10
14.8662221561
 20
11.52307222
 30
0.0
 10
14.8495172535
 20
11.528112045
 30
0.0
 10
14.8294341255
 20
11.5340784021
 30
0.0
 10
14.8093660883
 20
11.5400870518
 30
0.0
 10
14.7926234585
 20
11.5450211451
 30
0.0
 10
14.7809374729
 20
11.5486100485
 30
0.0
 10
14.774207509
 20
11.550451291
 30
0.0
 10
14.7672808664
 20
11.5515035688
 30
0.0
 10
14.7586899263
 20
11.5530890027
 30
0.0
 10
14.7449066553
 20
11.5554750718
 30
0.0
 10
14.7276913657
 20
11.5585070005
 30
0.0
 10
14.7070234322
 20
11.5621344096
 30
0.0
 10
14.6898137088
 20
11.5651278115
 30
0.0
 10
14.6777426319
 20
11.567289786
 30
0.0
 10
14.6708824139
 20
11.568419872
 30
0.0
 10
14.6656315641
 20
11.5695643937
 30
0.0
 10
14.6607846895
 20
11.5695737508
 30
0.0
 10
14.6541812631
 20
11.569982205
 30
0.0
 10
14.6426910859
 20
11.5705123069
 30
0.0
 10
14.6196607718
 20
11.5717099407
 30
0.0
 10
14.5966669395
 20
11.5728217662
 30
0.0
 10
14.5769154505
 20
11.57386047
 30
0.0
 10
14.5687391076
 20
11.5741912736
 30
0.0
 10
14.5620740162
 20
11.5746921206
 30
0.0
 10
14.5558622379
 20
11.5743297426
 30
0.0
 10
14.5452022364
 20
11.5732945167
 30
0.0
 10
14.5298637679
 20
11.5720250037
 30
0.0
 10
14.5115037053
 20
11.570413277
 30
0.0
 10
14.4931350766
 20
11.5688197847
 30
0.0
 10
14.4793497285
 20
11.5676361958
 30
0.0
 10
14.4701769677
 20
11.5668222211
 30
0.0
 10
14.4655586036
 20
11.5664612211
 30
0.0
 10
14.4610646799
 20
11.5659212548
 30
0.0
 10
14.455664931
 20
11.5643496766
 30
0.0
 10
14.4487124724
 20
11.5626768173
 30
0.0
 10
14.4377019838
 20
11.5598371633
 30
0.0
 10
14.4238991246
 20
11.5563442354
 30
0.0
 10
14.4101134527
 20
11.5528285976
 30
0.0
 10
14.3990754645
 20
11.5500252796
 30
0.0
 10
14.3908150131
 20
11.5479088405
 30
0.0
 10
14.3838751086
 20
11.546187813
 30
0.0
 10
14.3784490332
 20
11.544715554
 30
0.0
 10
14.3740356491
 20
11.543872068
 30
0.0
 10
14.3709346512
 20
11.5420334673
 30
0.0
 10
14.3663422259
 20
11.539929094
 30
0.0
 10
14.3585186257
 20
11.5360848526
 30
0.0
 10
14.3427169435
 20
11.5285131833
 30
0.0
 10
14.3269895755
 20
11.5208869856
 30
0.0
 10
14.3134600739
 20
11.5143836529
 30
0.0
 10
14.3078688946
 20
11.5116442166
 30
0.0
 10
14.3038625104
 20
11.509786088
 30
0.0
 10
14.3017179863
 20
11.5086312543
 30
0.0
 10
14.3001190013
 20
11.5071259657
 30
0.0
 10
14.2979337981
 20
11.5053641445
 30
0.0
 10
14.2928428241
 20
11.5010371592
 30
0.0
 10
14.2851413208
 20
11.4945884213
 30
0.0
 10
14.2749125148
 20
11.4859647197
 30
0.0
 10
14.2646630053
 20
11.4773535105
 30
0.0
 10
14.2570080848
 20
11.4708766646
 30
0.0
 10
14.2518575884
 20
11.4665855951
 30
0.0
 10
14.249781294
 20
11.4647580585
 30
0.0
 10
14.2479575902
 20
11.4633883647
 30
0.0
 10
14.2467287629
 20
11.461681002
 30
0.0
 10
14.2448547084
 20
11.4585362289
 30
0.0
 10
14.2420332793
 20
11.4541255525
 30
0.0
 10
14.2375995847
 20
11.447022724
 30
0.0
 10
14.2320298599
 20
11.4381598587
 30
0.0
 10
14.2231337986
 20
11.4239704769
 30
0.0
 10
14.2164582655
 20
11.4133304199
 30
0.0
 10
14.2120086851
 20
11.4062366087
 30
0.0
  0
SPLINE
  5
3C0
100
AcDbEntity
  8
03__ASM_ALL_CURVES
100
AcDbSpline
 62
8
  6
HIDDEN
 70
0
 71
3
 72
15
 73
11
 74
0
 42
0.0000001
 43
0.0000001
 44
0.0000000001
 40
0.0
 40
0.0
 40
0.0
 40
0.0
 40
0.25
 40
0.375
 40
0.4375
 40
0.5
 40
0.625
 40
0.75
 40
0.875
 40
1.0
 40
1.0
 40
1.0
 40
1.0
 10
14.2120086858
 20
11.4062366105
 30
0.0
 10
14.2115906397
 20
11.4051904157
 30
0.0
 10
14.2109624507
 20
11.4036103351
 30
0.0
 10
14.2102675712
 20
11.4017932138
 30
0.0
 10
14.2098649276
 20
11.4007009942
 30
0.0
 10
14.2095221063
 20
11.3997969644
 30
0.0
 10
14.2086518746
 20
11.3973228334
 30
0.0
 10
14.2080936494
 20
11.3957045786
 30
0.0
 10
14.2075231189
 20
11.393983181
 30
0.0
 10
14.2069920054
 20
11.3923157108
 30
0.0
 10
14.2067452936
 20
11.3915469597
 30
0.0
  0
LINE
  5
3C1
100
AcDbEntity
  8
03__ASM_ALL_CURVES
100
AcDbLine
 62
8
  6
HIDDEN
 10
14.2067452934
 20
11.3915469591
 11
14.2036977889
 21
11.3805747452
  0
SPLINE
  5
3C2
100
AcDbEntity
  8
03__ASM_ALL_CURVES
100
AcDbSpline
 62
8
  6
HIDDEN
 70
0
 71
3
 72
29
 73
25
 74
0
 42
0.0000001
 43
0.0000001
 44
0.0000000001
 40
0.0
 40
0.0
 40
0.0
 40
0.0
 40
0.0625
 40
0.125
 40
0.15625
 40
0.1875
 40
0.25
 40
0.3125
 40
0.34375
 40
0.375
 40
0.4375
 40
0.46875
 40
0.5
 40
0.53125
 40
0.5625
 40
0.625
 40
0.65625
 40
0.6875
 40
0.75
 40
0.8125
 40
0.84375
 40
0.875
 40
0.9375
 40
1.0
 40
1.0
 40
1.0
 40
1.0
 10
14.203697789
 20
11.3805747456
 30
0.0
 10
14.2031772634
 20
11.3776553663
 30
0.0
 10
14.2021169702
 20
11.3718289012
 30
0.0
 10
14.2008878136
 20
11.3644843532
 30
0.0
 10
14.1997024475
 20
11.3587377945
 30
0.0
 10
14.199248277
 20
11.3525240905
 30
0.0
 10
14.1989593201
 20
11.3445910037
 30
0.0
 10
14.1984780675
 20
11.3367362765
 30
0.0
 10
14.1983315703
 20
11.3303971972
 30
0.0
 10
14.1989933453
 20
11.3239015947
 30
0.0
 10
14.1993923482
 20
11.3174553517
 30
0.0
 10
14.1999734633
 20
11.3109784227
 30
0.0
 10
14.2001257352
 20
11.3061634245
 30
0.0
 10
14.2013212085
 20
11.3011929751
 30
0.0
 10
14.2025372758
 20
11.2946213871
 30
0.0
 10
14.2039343235
 20
11.2880266338
 30
0.0
 10
14.2050718527
 20
11.2814596182
 30
0.0
 10
14.2070061485
 20
11.274812539
 30
0.0
 10
14.2097249304
 20
11.2664649605
 30
0.0
 10
14.2122281933
 20
11.2581708681
 30
0.0
 10
14.2145073196
 20
11.2514382113
 30
0.0
 10
14.2177132898
 20
11.2443593893
 30
0.0
 10
14.2214006256
 20
11.2356304254
 30
0.0
 10
14.2244480567
 20
11.2286108158
 30
0.0
 10
14.2259595769
 20
11.2251055659
 30
0.0
  0
SPLINE
  5
3C3
100
AcDbEntity
  8
03__ASM_ALL_CURVES
100
AcDbSpline
 62
8
  6
HIDDEN
 70
0
 71
3
 72
120
 73
116
 74
0
 42
0.0000001
 43
0.0000001
 44
0.0000000001
 40
0.0
 40
0.0
 40
0.0
 40
0.0
 40
0.03125
 40
0.046875
 40
0.0546875
 40
0.0625
 40
0.0703125
 40
0.078125
 40
0.08203125
 40
0.0859375
 40
0.09375
 40
0.1015625
 40
0.109375
 40
0.125
 40
0.140625
 40
0.1484375
 40
0.15234375
 40
0.154296875
 40
0.15625
 40
0.16015625
 40
0.1640625
 40
0.171875
 40
0.1875
 40
0.203125
 40
0.21875
 40
0.2265625
 40
0.23046875
 40
0.234375
 40
0.2421875
 40
0.25
 40
0.265625
 40
0.28125
 40
0.296875
 40
0.3046875
 40
0.30859375
 40
0.3125
 40
0.3203125
 40
0.328125
 40
0.34375
 40
0.359375
 40
0.375
 40
0.37890625
 40
0.3828125
 40
0.390625
 40
0.3984375
 40
0.40625
 40
0.421875
 40
0.4375
 40
0.4453125
 40
0.453125
 40
0.45703125
 40
0.4609375
 40
0.46484375
 40
0.46875
 40
0.4765625
 40
0.484375
 40
0.5
 40
0.515625
 40
0.5234375
 40
0.53125
 40
0.53515625
 40
0.5390625
 40
0.54296875
 40
0.546875
 40
0.5546875
 40
0.5625
 40
0.578125
 40
0.59375
 40
0.6015625
 40
0.609375
 40
0.6171875
 40
0.62109375
 40
0.625
 40
0.640625
 40
0.65625
 40
0.671875
 40
0.6796875
 40
0.6875
 40
0.69140625
 40
0.6953125
 40
0.69921875
 40
0.703125
 40
0.71875
 40
0.734375
 40
0.75
 40
0.7578125
 40
0.765625
 40
0.76953125
 40
0.771484375
 40
0.7734375
 40
0.78125
 40
0.796875
 40
0.8125
 40
0.8203125
 40
0.828125
 40
0.8359375
 40
0.83984375
 40
0.84375
 40
0.845703125
 40
0.84765625
 40
0.8515625
 40
0.859375
 40
0.875
 40
0.890625
 40
0.8984375
 40
0.90625
 40
0.9140625
 40
0.91796875
 40
0.921875
 40
0.9296875
 40
0.9375
 40
0.9453125
 40
0.953125
 40
0.96875
 40
1.0
 40
1.0
 40
1.0
 40
1.0
 10
14.2259595788
 20
11.225105562
 30
0.0
 10
14.232064726
 20
11.215584684
 30
0.0
 10
14.2412249014
 20
11.2013037317
 30
0.0
 10
14.2519031819
 20
11.1846413438
 30
0.0
 10
14.258017329
 20
11.1751218035
 30
0.0
 10
14.2625685762
 20
11.1679770405
 30
0.0
 10
14.2672511397
 20
11.1608517963
 30
0.0
 10
14.2707441909
 20
11.1548532869
 30
0.0
 10
14.275360512
 20
11.1503252813
 30
0.0
 10
14.2796586315
 20
11.1457499789
 30
0.0
 10
14.285140443
 20
11.1400470752
 30
0.0
 10
14.2916719413
 20
11.1331966589
 30
0.0
 10
14.3003966624
 20
11.1240651288
 30
0.0
 10
14.3112988266
 20
11.1126503584
 30
0.0
 10
14.3221958687
 20
11.1012340712
 30
0.0
 10
14.3298371708
 20
11.093246106
 30
0.0
 10
14.3336391073
 20
11.0892473677
 30
0.0
 10
14.3358418141
 20
11.0869700363
 30
0.0
 10
14.3387849002
 20
11.0848807013
 30
0.0
 10
14.3422103012
 20
11.0822046831
 30
0.0
 10
14.3478323066
 20
11.0779588979
 30
0.0
 10
14.3576058534
 20
11.0705127708
 30
0.0
 10
14.3715947712
 20
11.0598781999
 30
0.0
 10
14.3884017596
 20
11.0471400758
 30
0.0
 10
14.402304349
 20
11.0364434313
 30
0.0
 10
14.412244078
 20
11.0291167959
 30
0.0
 10
14.4175984653
 20
11.0246785824
 30
0.0
 10
14.4241754778
 20
11.0211852887
 30
0.0
 10
14.432107075
 20
11.0165948031
 30
0.0
 10
14.4449594311
 20
11.0093750409
 30
0.0
 10
14.4609700454
 20
11.0003082011
 30
0.0
 10
14.4802032699
 20
10.9894427287
 30
0.0
 10
14.4962357738
 20
10.9803952335
 30
0.0
 10
14.5074394479
 20
10.9740407032
 30
0.0
 10
14.5138728086
 20
10.9704439099
 30
0.0
 10
14.521074218
 20
10.9676906811
 30
0.0
 10
14.5298129489
 20
10.9639602253
 30
0.0
 10
14.5439422181
 20
10.9581534534
 30
0.0
 10
14.5615511794
 20
10.9508359883
 30
0.0
 10
14.582713584
 20
10.942095295
 30
0.0
 10
14.5985535848
 20
10.9354897807
 30
0.0
 10
14.6091566989
 20
10.9311568456
 30
0.0
 10
14.6161246066
 20
10.9281017992
 30
0.0
 10
14.625569197
 20
10.9254957929
 30
0.0
 10
14.6368553093
 20
10.9222904229
 30
0.0
 10
14.6519200418
 20
10.9180436126
 30
0.0
 10
14.6707450774
 20
10.9127278839
 30
0.0
 10
14.6895729048
 20
10.907407248
 30
0.0
 10
14.7046331703
 20
10.9031682891
 30
0.0
 10
14.7140494315
 20
10.9004775187
 30
0.0
 10
14.7215743109
 20
10.8984199257
 30
0.0
 10
14.7272402021
 20
10.8966165138
 30
0.0
 10
14.7328212314
 20
10.8958064584
 30
0.0
 10
14.740272575
 20
10.894609673
 30
0.0
 10
14.7495833358
 20
10.8931536706
 30
0.0
 10
14.7644824907
 20
10.8908016218
 30
0.0
 10
14.7831055772
 20
10.8878699809
 30
0.0
 10
14.80172967
 20
10.8849327155
 30
0.0
 10
14.8166272149
 20
10.8825896658
 30
0.0
 10
14.8259420005
 20
10.8811111656
 30
0.0
 10
14.8333850932
 20
10.8799605007
 30
0.0
 10
14.8389913281
 20
10.8790095527
 30
0.0
 10
14.8443261613
 20
10.8790566798
 30
0.0
 10
14.8515340657
 20
10.8787709124
 30
0.0
 10
14.8605114999
 20
10.8785330414
 30
0.0
 10
14.8748934639
 20
10.8780858905
 30
0.0
 10
14.8928651849
 20
10.8775487787
 30
0.0
 10
14.9108372552
 20
10.8770075563
 30
0.0
 10
14.9252186602
 20
10.8765669824
 30
0.0
 10
14.9359932581
 20
10.8762618063
 30
0.0
 10
14.945008714
 20
10.8759264767
 30
0.0
 10
14.9516758301
 20
10.8768648169
 30
0.0
 10
14.9618168585
 20
10.8779618724
 30
0.0
 10
14.9769677693
 20
10.8797395116
 30
0.0
 10
14.9972116448
 20
10.8820263088
 30
0.0
 10
15.0140471274
 20
10.8839751682
 30
0.0
 10
15.0275767757
 20
10.8854722818
 30
0.0
 10
15.035896857
 20
10.8865413151
 30
0.0
 10
15.0428638838
 20
10.8870920256
 30
0.0
 10
15.047237838
 20
10.8883386048
 30
0.0
 10
15.0515758629
 20
10.8896203601
 30
0.0
 10
15.0602705521
 20
10.8921656311
 30
0.0
 10
15.0733024627
 20
10.8959933106
 30
0.0
 10
15.0906950547
 20
10.9010812401
 30
0.0
 10
15.1051511745
 20
10.9053559513
 30
0.0
 10
15.1167982111
 20
10.9087000941
 30
0.0
 10
15.1238911107
 20
10.9109618636
 30
0.0
 10
15.1292298185
 20
10.9122011169
 30
0.0
 10
15.1315236527
 20
10.9136059767
 30
0.0
 10
15.1351588631
 20
10.9155342589
 30
0.0
 10
15.14292151
 20
10.9198168273
 30
0.0
 10
15.1549407545
 20
10.9263346743
 30
0.0
 10
15.1669328907
 20
10.9328778651
 30
0.0
 10
15.1765302909
 20
10.9381081686
 30
0.0
 10
15.1837335324
 20
10.9420284373
 30
0.0
 10
15.189717391
 20
10.9453052945
 30
0.0
 10
15.1945471046
 20
10.9479040899
 30
0.0
 10
15.1974685302
 20
10.9495800797
 30
0.0
 10
15.2000281629
 20
10.9508023618
 30
0.0
 10
15.2017755432
 20
10.9524572887
 30
0.0
 10
15.2047755369
 20
10.9553842633
 30
0.0
 10
15.2108165862
 20
10.9612163376
 30
0.0
 10
15.2194256789
 20
10.9695590707
 30
0.0
 10
15.2280404693
 20
10.9778986766
 30
0.0
 10
15.2349354095
 20
10.984568908
 30
0.0
 10
15.2400938723
 20
10.9895778179
 30
0.0
 10
15.2444337708
 20
10.993731727
 30
0.0
 10
15.24781323
 20
10.9971001742
 30
0.0
 10
15.251529584
 20
11.0003034876
 30
0.0
 10
15.2537638893
 20
11.0054894827
 30
0.0
 10
15.2569647967
 20
11.0114579183
 30
0.0
 10
15.2600266733
 20
11.0174945019
 30
0.0
 10
15.2641576846
 20
11.0255195024
 30
0.0
 10
15.2713642158
 20
11.0395743991
 30
0.0
 10
15.2775490386
 20
11.0516176321
 30
0.0
 10
15.2816705214
 20
11.0596473032
 30
0.0
  0
LINE
  5
3C4
100
AcDbEntity
  8
03__ASM_ALL_CURVES
100
AcDbLine
 62
8
  6
HIDDEN
 10
15.2816705106
 20
11.0596472679
 11
15.2844149868
 21
11.069636378
  0
SPLINE
  5
3C5
100
AcDbEntity
  8
03__ASM_ALL_CURVES
100
AcDbSpline
 62
8
  6
HIDDEN
 70
0
 71
3
 72
12
 73
8
 74
0
 42
0.0000001
 43
0.0000001
 44
0.0000000001
 40
0.0
 40
0.0
 40
0.0
 40
0.0
 40
0.125
 40
0.25
 40
0.5
 40
0.75
 40
1.0
 40
1.0
 40
1.0
 40
1.0
 10
15.2844149869
 20
11.0696363785
 30
0.0
 10
15.2845455124
 20
11.070183942
 30
0.0
 10
15.2847769666
 20
11.0711284114
 30
0.0
 10
15.2854766493
 20
11.0742226112
 30
0.0
 10
15.2863845344
 20
11.0784990927
 30
0.0
 10
15.2872375638
 20
11.083287051
 30
0.0
 10
15.2878065689
 20
11.0871207247
 30
0.0
 10
15.2880978346
 20
11.0891201714
 30
0.0
  0
LINE
  5
3C6
100
AcDbEntity
  8
03__ASM_ALL_CURVES
100
AcDbLine
 62
8
  6
HIDDEN
 10
15.2880978346
 20
11.0891201717
 11
15.288372534
 21
11.0912491898
  0
SPLINE
  5
3C7
100
AcDbEntity
  8
03__ASM_ALL_CURVES
100
AcDbSpline
 62
8
  6
HIDDEN
 70
0
 71
3
 72
16
 73
12
 74
0
 42
0.0000001
 43
0.0000001
 44
0.0000000001
 40
0.0
 40
0.0
 40
0.0
 40
0.0
 40
0.25
 40
0.375
 40
0.4375
 40
0.5
 40
0.5625
 40
0.625
 40
0.75
 40
0.875
 40
1.0
 40
1.0
 40
1.0
 40
1.0
 10
15.288372534
 20
11.0912491899
 30
0.0
 10
15.2888637029
 20
11.0963553567
 30
0.0
 10
15.2895471433
 20
11.1040405021
 30
0.0
 10
15.2898247724
 20
11.1130760258
 30
0.0
 10
15.2897165236
 20
11.1183610085
 30
0.0
 10
15.2897766368
 20
11.122107138
 30
0.0
 10
15.2894049976
 20
11.1266627846
 30
0.0
 10
15.2890976784
 20
11.1325475831
 30
0.0
 10
15.2883814123
 20
11.1393002655
 30
0.0
 10
15.2873516719
 20
11.1473518946
 30
0.0
 10
15.2863219608
 20
11.1531373634
 30
0.0
 10
15.2858500075
 20
11.1559778833
 30
0.0
  0
SPLINE
  5
3C8
100
AcDbEntity
  8
03__ASM_ALL_CURVES
100
AcDbSpline
 62
8
  6
HIDDEN
 70
0
 71
3
 72
17
 73
13
 74
0
 42
0.0000001
 43
0.0000001
 44
0.0000000001
 40
0.0
 40
0.0
 40
0.0
 40
0.0
 40
0.25
 40
0.375
 40
0.4375
 40
0.5
 40
0.5625
 40
0.625
 40
0.75
 40
0.8125
 40
0.875
 40
1.0
 40
1.0
 40
1.0
 40
1.0
 10
15.2856053591
 20
11.157234344
 30
0.0
 10
15.2844076247
 20
11.1626381154
 30
0.0
 10
15.282553801
 20
11.1707638488
 30
0.0
 10
15.2798929297
 20
11.1802475177
 30
0.0
 10
15.2780884883
 20
11.1857590972
 30
0.0
 10
15.2769355102
 20
11.1896831099
 30
0.0
 10
15.2751230922
 20
11.1943996401
 30
0.0
 10
15.2729546985
 20
11.2004987676
 30
0.0
 10
15.2706162025
 20
11.2061503367
 30
0.0
 10
15.268444728
 20
11.2114992402
 30
0.0
 10
15.2657271953
 20
11.2174638674
 30
0.0
 10
15.2635664496
 20
11.2220660465
 30
0.0
 10
15.2621531961
 20
11.225105564
 30
0.0
  0
SPLINE
  5
3C9
100
AcDbEntity
  8
0
100
AcDbSpline
 62
7
  6
CONTINUOUS
 70
0
 71
3
 72
36
 73
32
 74
0
 42
0.0000001
 43
0.0000001
 44
0.0000000001
 40
0.0
 40
0.0
 40
0.0
 40
0.0
 40
0.0336581753
 40
0.0680626527
 40
0.103106396
 40
0.1386951839
 40
0.1747407589
 40
0.2111474049
 40
0.2846131913
 40
0.3582635981
 40
0.431255063
 40
0.4672516378
 40
0.5027785339
 40
0.5377413311
 40
0.5720514724
 40
0.6056255095
 40
0.6383891416
 40
0.670274967
 40
0.7012272147
 40
0.7312005157
 40
0.7601628146
 40
0.7880973209
 40
0.8150025632
 40
0.8408979123
 40
0.86582098
 40
0.8898329195
 40
0.9130165436
 40
0.9354825273
 40
0.9573671824
 40
0.9788212285
 40
1.0
 40
1.0
 40
1.0
 40
1.0
 10
16.5236068825
 20
13.8742053539
 30
0.0
 10
16.4956270937
 20
13.8949894946
 30
0.0
 10
16.4380605965
 20
13.935705675
 30
0.0
 10
16.3482501035
 20
13.9935059388
 30
0.0
 10
16.2543548032
 20
14.0484760228
 30
0.0
 10
16.1567996039
 20
14.1003715005
 30
0.0
 10
16.0559938436
 20
14.1489761545
 30
0.0
 10
15.9174172249
 20
14.2092966234
 30
0.0
 10
15.7389289791
 20
14.2751381513
 30
0.0
 10
15.5196035296
 20
14.3379124221
 30
0.0
 10
15.334183317
 20
14.3762092517
 30
0.0
 10
15.1860758725
 20
14.3978792447
 30
0.0
 10
15.0763870858
 20
14.4095020535
 30
0.0
 10
14.9680573409
 20
14.416511505
 30
0.0
 10
14.8615476095
 20
14.4188898281
 30
0.0
 10
14.7573114619
 20
14.4166120046
 30
0.0
 10
14.6557931574
 20
14.4097019477
 30
0.0
 10
14.5574245752
 20
14.3981762042
 30
0.0
 10
14.4626238841
 20
14.3820906149
 30
0.0
 10
14.3717934244
 20
14.3615096202
 30
0.0
 10
14.285320307
 20
14.3365143347
 30
0.0
 10
14.2035686136
 20
14.3072179014
 30
0.0
 10
14.1268904718
 20
14.2737252812
 30
0.0
 10
14.0556056359
 20
14.2361887642
 30
0.0
 10
13.9900280152
 20
14.1947425951
 30
0.0
 10
13.9304342115
 20
14.1495708082
 30
0.0
 10
13.877089936
 20
14.1008483026
 30
0.0
 10
13.8302331106
 20
14.0487722965
 30
0.0
 10
13.7900788362
 20
13.9935532891
 30
0.0
 10
13.7568364629
 20
13.9354495898
 30
0.0
 10
13.7393043879
 20
13.8948091901
 30
0.0
 10
13.7317891151
 20
13.8742053539
 30
0.0
  0
SPLINE
  5
3CA
100
AcDbEntity
  8
0
100
AcDbSpline
 62
7
  6
CONTINUOUS
 70
0
 71
3
 72
9
 73
5
 74
0
 42
0.0000001
 43
0.0000001
 44
0.0000000001
 40
0.0
 40
0.0
 40
0.0
 40
0.0
 40
0.2453880121
 40
1.0
 40
1.0
 40
1.0
 40
1.0
 10
15.7446751097
 20
12.0089738618
 30
0.0
 10
15.735249042
 20
12.016698008
 30
0.0
 10
15.6964499439
 20
12.0477021475
 30
0.0
 10
15.656164665
 20
12.0768372947
 30
0.0
 10
15.6250988667
 20
12.0977983158
 30
0.0
  0
SPLINE
  5
3CB
100
AcDbEntity
  8
0
100
AcDbSpline
 62
7
  6
CONTINUOUS
 70
0
 71
3
 72
9
 73
5
 74
0
 42
0.0000001
 43
0.0000001
 44
0.0000000001
 40
0.0
 40
0.0
 40
0.0
 40
0.0
 40
0.254039483
 40
1.0
 40
1.0
 40
1.0
 40
1.0
 10
14.5757352764
 20
12.4410452289
 30
0.0
 10
14.5628759446
 20
12.4416069606
 30
0.0
 10
14.5122350561
 20
12.4432790036
 30
0.0
 10
14.4615170097
 20
12.4427684303
 30
0.0
 10
14.4237602124
 20
12.4410452289
 30
0.0
  0
SPLINE
  5
3CC
100
AcDbEntity
  8
0
100
AcDbSpline
 62
7
  6
CONTINUOUS
 70
0
 71
3
 72
9
 73
5
 74
0
 42
0.0000001
 43
0.0000001
 44
0.0000000001
 40
0.0
 40
0.0
 40
0.0
 40
0.0
 40
0.2573410946
 40
1.0
 40
1.0
 40
1.0
 40
1.0
 10
14.0295373838
 20
12.3628136866
 30
0.0
 10
14.0201125182
 20
12.3590713856
 30
0.0
 10
13.9837391697
 20
12.3439120053
 30
0.0
 10
13.9484034774
 20
12.3262146084
 30
0.0
 10
13.9230890717
 20
12.3115308642
 30
0.0
  0
SPLINE
  5
3CD
100
AcDbEntity
  8
0
100
AcDbSpline
 62
7
  6
CONTINUOUS
 70
0
 71
3
 72
15
 73
11
 74
0
 42
0.0000001
 43
0.0000001
 44
0.0000000001
 40
0.0
 40
0.0
 40
0.0
 40
0.0
 40
0.1242834758
 40
0.2533972171
 40
0.3848453028
 40
0.5164025774
 40
0.6456768474
 40
0.7087959342
 40
0.7705888578
 40
1.0
 40
1.0
 40
1.0
 40
1.0
 10
18.2045838386
 20
10.7333119963
 30
0.0
 10
18.2092041914
 20
10.7333119963
 30
0.0
 10
18.2186370643
 20
10.7341205339
 30
0.0
 10
18.2325936359
 20
10.7374782342
 30
0.0
 10
18.2461776317
 20
10.7429049817
 30
0.0
 10
18.2588669366
 20
10.7501869907
 30
0.0
 10
18.2683947148
 20
10.757627612
 30
0.0
 10
18.2751348394
 20
10.7642685111
 30
0.0
 10
18.2837606023
 20
10.7742103086
 30
0.0
 10
18.2893003493
 20
10.7839131403
 30
0.0
 10
18.2918183874
 20
10.7920615145
 30
0.0
  0
SPLINE
  5
3CE
100
AcDbEntity
  8
0
100
AcDbSpline
 62
7
  6
CONTINUOUS
 70
0
 71
3
 72
11
 73
7
 74
0
 42
0.0000001
 43
0.0000001
 44
0.0000000001
 40
0.0
 40
0.0
 40
0.0
 40
0.0
 40
0.2640340299
 40
0.5170418852
 40
0.7609842547
 40
1.0
 40
1.0
 40
1.0
 40
1.0
 10
18.7698993762
 20
12.339132161
 30
0.0
 10
18.7707789696
 20
12.3419785265
 30
0.0
 10
18.7720627104
 20
12.3477019236
 30
0.0
 10
18.7724600521
 20
12.3563268008
 30
0.0
 10
18.7712318667
 20
12.3645934103
 30
0.0
 10
18.7693376964
 20
12.369751753
 30
0.0
 10
18.7681493788
 20
12.3721727227
 30
0.0
  0
SPLINE
  5
3CF
100
AcDbEntity
  8
0
100
AcDbSpline
 62
7
  6
CONTINUOUS
 70
0
 71
3
 72
14
 73
10
 74
0
 42
0.0000001
 43
0.0000001
 44
0.0000000001
 40
0.0
 40
0.0
 40
0.0
 40
0.0
 40
0.1128542955
 40
0.2272150028
 40
0.3444468585
 40
0.4656197936
 40
0.7221707832
 40
0.8586922626
 40
1.0
 40
1.0
 40
1.0
 40
1.0
 10
14.6470602206
 20
12.1364821493
 30
0.0
 10
14.6450428446
 20
12.1405914096
 30
0.0
 10
14.6402713531
 20
12.1485370516
 30
0.0
 10
14.6311422368
 20
12.1591930503
 30
0.0
 10
14.6201665872
 20
12.1684680104
 30
0.0
 10
14.6030074204
 20
12.1790107288
 30
0.0
 10
14.5830495511
 20
12.1859913378
 30
0.0
 10
14.5616289115
 20
12.189463032
 30
0.0
 10
14.5503454175
 20
12.1900426632
 30
0.0
 10
14.5446134959
 20
12.1900426632
 30
0.0
  0
SPLINE
  5
3D0
100
AcDbEntity
  8
0
100
AcDbSpline
 62
7
  6
CONTINUOUS
 70
0
 71
3
 72
25
 73
21
 74
0
 42
0.0000001
 43
0.0000001
 44
0.0000000001
 40
0.0
 40
0.0
 40
0.0
 40
0.0
 40
0.0252071757
 40
0.0505168687
 40
0.0760288389
 40
0.1018349322
 40
0.1546140904
 40
0.2094597926
 40
0.2667239277
 40
0.3265623817
 40
0.3889361831
 40
0.453647362
 40
0.5203563437
 40
0.5886248179
 40
0.6579332771
 40
0.7277108438
 40
0.7973530267
 40
0.8663056757
 40
0.9340529602
 40
1.0
 40
1.0
 40
1.0
 40
1.0
 10
14.3665210452
 20
11.9988135179
 30
0.0
 10
14.3654182516
 20
12.0010598347
 30
0.0
 10
14.3634146869
 20
12.0056664802
 30
0.0
 10
14.361053655
 20
12.0128459399
 30
0.0
 10
14.3593406748
 20
12.0202686848
 30
0.0
 10
14.3579164719
 20
12.0305158217
 30
0.0
 10
14.3578303918
 20
12.0438310669
 30
0.0
 10
14.3603818388
 20
12.0600649639
 30
0.0
 10
14.3655237283
 20
12.0764032743
 30
0.0
 10
14.3731529941
 20
12.0925602544
 30
0.0
 10
14.3831300012
 20
12.1082593403
 30
0.0
 10
14.395273729
 20
12.1232323138
 30
0.0
 10
14.4093725232
 20
12.1372198289
 30
0.0
 10
14.4251766341
 20
12.1499829367
 30
0.0
 10
14.4424132399
 20
12.1612954356
 30
0.0
 10
14.4607755744
 20
12.1709656045
 30
0.0
 10
14.4799458802
 20
12.1788218345
 30
0.0
 10
14.4995946709
 20
12.1847307229
 30
0.0
 10
14.5193748522
 20
12.188575314
 30
0.0
 10
14.5326258337
 20
12.1897461169
 30
0.0
 10
14.5391693218
 20
12.1899551782
 30
0.0
  0
SPLINE
  5
3D1
100
AcDbEntity
  8
0
100
AcDbSpline
 62
7
  6
CONTINUOUS
 70
0
 71
3
 72
14
 73
10
 74
0
 42
0.0000001
 43
0.0000001
 44
0.0000000001
 40
0.0
 40
0.0
 40
0.0
 40
0.0
 40
0.1164573727
 40
0.23380889
 40
0.3529343313
 40
0.4746578005
 40
0.5997251886
 40
0.7287537502
 40
1.0
 40
1.0
 40
1.0
 40
1.0
 10
15.2814771175
 20
11.0590300006
 30
0.0
 10
15.283439515
 20
11.0653805946
 30
0.0
 10
15.2866924422
 20
11.0783544331
 30
0.0
 10
15.2894699277
 20
11.0983426665
 30
0.0
 10
15.2901424681
 20
11.1188131075
 30
0.0
 10
15.2887162831
 20
11.1396827844
 30
0.0
 10
15.2851937949
 20
11.1608753063
 30
0.0
 10
15.2775993748
 20
11.1899132993
 30
0.0
 10
15.2689734861
 20
11.2112072742
 30
0.0
 10
15.2621531971
 20
11.225105562
 30
0.0
  0
SPLINE
  5
3D2
100
AcDbEntity
  8
0
100
AcDbSpline
 62
7
  6
CONTINUOUS
 70
0
 71
3
 72
16
 73
12
 74
0
 42
0.0000001
 43
0.0000001
 44
0.0000000001
 40
0.0
 40
0.0
 40
0.0
 40
0.0
 40
0.0614389925
 40
0.1243432416
 40
0.2532222249
 40
0.3845524448
 40
0.515994042
 40
0.6451479438
 40
0.7698506863
 40
0.8884617274
 40
1.0
 40
1.0
 40
1.0
 40
1.0
 10
17.5702012343
 20
11.9136738326
 30
0.0
 10
17.5778223274
 20
11.9136738326
 30
0.0
 10
17.593253262
 20
11.9143295032
 30
0.0
 10
17.6244576179
 20
11.9181372386
 30
0.0
 10
17.6635788358
 20
11.9275700024
 30
0.0
 10
17.7088383759
 20
11.9456518745
 30
0.0
 10
17.7511574521
 20
11.9699114955
 30
0.0
 10
17.7889420607
 20
11.9994535847
 30
0.0
 10
17.8207912631
 20
12.033190854
 30
0.0
 10
17.8454814791
 20
12.0698782058
 30
0.0
 10
17.8568981476
 20
12.0962867668
 30
0.0
 10
17.8609830636
 20
12.10950556
 30
0.0
  0
SPLINE
  5
3D3
100
AcDbEntity
  8
0
100
AcDbSpline
 62
7
  6
CONTINUOUS
 70
0
 71
3
 72
14
 73
10
 74
0
 42
0.0000001
 43
0.0000001
 44
0.0000000001
 40
0.0
 40
0.0
 40
0.0
 40
0.0
 40
0.2640966488
 40
0.3918604383
 40
0.5169364325
 40
0.6397510525
 40
0.7608190775
 40
0.8807065102
 40
1.0
 40
1.0
 40
1.0
 40
1.0
 10
17.8609830636
 20
12.10950556
 30
0.0
 10
17.8639183897
 20
12.1190042785
 30
0.0
 10
17.8671751779
 20
12.1334869558
 30
0.0
 10
17.8688887667
 20
12.1528914677
 30
0.0
 10
17.868824265
 20
12.1670551484
 30
0.0
 10
17.8674281746
 20
12.1808959341
 30
0.0
 10
17.8647091098
 20
12.1943413902
 30
0.0
 10
17.8606762021
 20
12.207313129
 30
0.0
 10
17.8571262757
 20
12.2156083076
 30
0.0
 10
17.8551483875
 20
12.2196400919
 30
0.0
  0
SPLINE
  5
3D4
100
AcDbEntity
  8
0
100
AcDbSpline
 62
7
  6
CONTINUOUS
 70
0
 71
3
 72
11
 73
7
 74
0
 42
0.0000001
 43
0.0000001
 44
0.0000000001
 40
0.0
 40
0.0
 40
0.0
 40
0.0
 40
0.2240663686
 40
0.4622759032
 40
0.7199396089
 40
1.0
 40
1.0
 40
1.0
 40
1.0
 10
14.2870847029
 20
11.2918852183
 30
0.0
 10
14.2839546365
 20
11.2930740738
 30
0.0
 10
14.2777709984
 20
11.2963033001
 30
0.0
 10
14.2694593338
 20
11.3032435996
 30
0.0
 10
14.2620921989
 20
11.3122736356
 30
0.0
 10
14.2580615226
 20
11.3192644552
 30
0.0
 10
14.2562178692
 20
11.3230214257
 30
0.0
  0
SPLINE
  5
3D5
100
AcDbEntity
  8
0
100
AcDbSpline
 62
7
  6
CONTINUOUS
 70
0
 71
3
 72
39
 73
35
 74
0
 42
0.0000001
 43
0.0000001
 44
0.0000000001
 40
0.0
 40
0.0
 40
0.0
 40
0.0
 40
0.0107135689
 40
0.0214644199
 40
0.0322893725
 40
0.0432239019
 40
0.0543019234
 40
0.0655553012
 40
0.0886885403
 40
0.1128311375
 40
0.1381303059
 40
0.1646833339
 40
0.1925445705
 40
0.2217252016
 40
0.2522042129
 40
0.2839267009
 40
0.316815125
 40
0.3507665553
 40
0.3856625109
 40
0.4577087519
 40
0.5317647822
 40
0.6064997456
 40
0.6437044944
 40
0.6805672706
 40
0.7169239913
 40
0.7526164655
 40
0.7874976953
 40
0.8214337346
 40
0.8543045838
 40
0.8860074508
 40
0.9164633406
 40
0.9456283336
 40
0.9734780685
 40
1.0
 40
1.0
 40
1.0
 40
1.0
 10
15.699475738
 20
10.9298586469
 30
0.0
 10
15.6971454207
 20
10.9223151058
 30
0.0
 10
15.691927379
 20
10.907365217
 30
0.0
 10
15.6824770389
 20
10.8855057285
 30
0.0
 10
15.671418758
 20
10.8642294118
 30
0.0
 10
15.6587735578
 20
10.8435743192
 30
0.0
 10
15.6445611805
 20
10.8235757145
 30
0.0
 10
15.6233629236
 20
10.7976026343
 30
0.0
 10
15.5928872144
 20
10.7669073165
 30
0.0
 10
15.5508803274
 20
10.7336234091
 30
0.0
 10
15.5033930249
 20
10.7037462372
 30
0.0
 10
15.4507628545
 20
10.6774591868
 30
0.0
 10
15.393343713
 20
10.6549352718
 30
0.0
 10
15.331528275
 20
10.6363033823
 30
0.0
 10
15.2657297424
 20
10.6216982407
 30
0.0
 10
15.1963944223
 20
10.6111969645
 30
0.0
 10
15.1239894219
 20
10.6048859255
 30
0.0
 10
15.0490030884
 20
10.6027879212
 30
0.0
 10
14.9451688274
 20
10.6056811765
 30
0.0
 10
14.8123036789
 20
10.6200618778
 30
0.0
 10
14.6527615994
 20
10.6533480049
 30
0.0
 10
14.521603962
 20
10.6939307706
 30
0.0
 10
14.4193813077
 20
10.7337181629
 30
0.0
 10
14.3450256078
 20
10.7668663446
 30
0.0
 10
14.2733869326
 20
10.8031314114
 30
0.0
 10
14.2049499692
 20
10.8422677231
 30
0.0
 10
14.1401815677
 20
10.8840120275
 30
0.0
 10
14.0795182725
 20
10.9280787344
 30
0.0
 10
14.0233766698
 20
10.9741747217
 30
0.0
 10
13.9721298686
 20
11.0219786746
 30
0.0
 10
13.9261320245
 20
11.0711834896
 30
0.0
 10
13.8856848246
 20
11.1214604873
 30
0.0
 10
13.8510905198
 20
11.1724663718
 30
0.0
 10
13.8316058537
 20
11.2075592898
 30
0.0
 10
13.8229953939
 20
11.225105562
 30
0.0
  0
SPLINE
  5
3D6
100
AcDbEntity
  8
0
100
AcDbSpline
 62
7
  6
CONTINUOUS
 70
0
 71
3
 72
15
 73
11
 74
0
 42
0.0000001
 43
0.0000001
 44
0.0000000001
 40
0.0
 40
0.0
 40
0.0
 40
0.0
 40
0.1210419431
 40
0.2456205171
 40
0.3726248348
 40
0.5008234843
 40
0.6289044268
 40
0.755568038
 40
0.8796820196
 40
1.0
 40
1.0
 40
1.0
 40
1.0
 10
17.3167569095
 20
11.9140018685
 30
0.0
 10
17.323972463
 20
11.9229364053
 30
0.0
 10
17.3397603234
 20
11.9401660333
 30
0.0
 10
17.3665108672
 20
11.9633865601
 30
0.0
 10
17.3961915098
 20
11.9839425512
 30
0.0
 10
17.4281685969
 20
12.0014008315
 30
0.0
 10
17.461768279
 20
12.015402382
 30
0.0
 10
17.4962969742
 20
12.0256487848
 30
0.0
 10
17.5310151963
 20
12.031912421
 30
0.0
 10
17.5542261528
 20
12.0333829263
 30
0.0
 10
17.5656418081
 20
12.0333829263
 30
0.0
  0
SPLINE
  5
3D7
100
AcDbEntity
  8
0
100
AcDbSpline
 62
7
  6
CONTINUOUS
 70
0
 71
3
 72
32
 73
28
 74
0
 42
0.0000001
 43
0.0000001
 44
0.0000000001
 40
0.0
 40
0.0
 40
0.0
 40
0.0
 40
0.0620101191
 40
0.0930507119
 40
0.1240891557
 40
0.1551253852
 40
0.1861576781
 40
0.2171952976
 40
0.2482436173
 40
0.2793021672
 40
0.3103856673
 40
0.3415023276
 40
0.3726494671
 40
0.435035428
 40
0.4663655553
 40
0.497770663
 40
0.5607413377
 40
0.6239272694
 40
0.6555776159
 40
0.6872135603
 40
0.7188108633
 40
0.7503496719
 40
0.8131371443
 40
0.8756133489
 40
0.9067910995
 40
0.9379323657
 40
1.0
 40
1.0
 40
1.0
 40
1.0
 10
15.8876991912
 20
13.4341667095
 30
0.0
 10
15.8902812547
 20
13.4425222701
 30
0.0
 10
15.8955074668
 20
13.4547022868
 30
0.0
 10
15.9049086071
 20
13.4694914747
 30
0.0
 10
15.9131348707
 20
13.4797637147
 30
0.0
 10
15.9224168141
 20
13.4890873094
 30
0.0
 10
15.9326578543
 20
13.4973477806
 30
0.0
 10
15.9437359729
 20
13.5044476879
 30
0.0
 10
15.9555105139
 20
13.5103283293
 30
0.0
 10
15.9678523004
 20
13.5149188016
 30
0.0
 10
15.9806156137
 20
13.518189582
 30
0.0
 10
15.9936603338
 20
13.5201366791
 30
0.0
 10
16.0112447118
 20
13.5209498661
 30
0.0
 10
16.0288930631
 20
13.5191245203
 30
0.0
 10
16.0460276777
 20
13.5148249092
 30
0.0
 10
16.0627694748
 20
13.5089226962
 30
0.0
 10
16.0826369694
 20
13.4986885736
 30
0.0
 10
16.1004135845
 20
13.4850974947
 30
0.0
 10
16.1130677972
 20
13.4725002975
 30
0.0
 10
16.1217029897
 20
13.4622547312
 30
0.0
 10
16.1294021576
 20
13.4513071641
 30
0.0
 10
16.1383021259
 20
13.4359166849
 30
0.0
 10
16.1467614125
 20
13.4153434941
 30
0.0
 10
16.1512463848
 20
13.393595305
 30
0.0
 10
16.15225965
 20
13.3759972432
 30
0.0
 10
16.1515158584
 20
13.3584504521
 30
0.0
 10
16.1489579663
 20
13.3454310308
 30
0.0
 10
16.1463735079
 20
13.3370677203
 30
0.0
  0
SPLINE
  5
3D8
100
AcDbEntity
  8
0
100
AcDbSpline
 62
7
  6
CONTINUOUS
 70
0
 71
3
 72
32
 73
28
 74
0
 42
0.0000001
 43
0.0000001
 44
0.0000000001
 40
0.0
 40
0.0
 40
0.0
 40
0.0
 40
0.0620101191
 40
0.0930507119
 40
0.1240891557
 40
0.1551253852
 40
0.1861576781
 40
0.2171952976
 40
0.2482436173
 40
0.2793021672
 40
0.3103856673
 40
0.3415023276
 40
0.3726494671
 40
0.435035428
 40
0.4663655553
 40
0.497770663
 40
0.5607413377
 40
0.6239272694
 40
0.6555776159
 40
0.6872135603
 40
0.7188108633
 40
0.7503496719
 40
0.8131371443
 40
0.8756133489
 40
0.9067910995
 40
0.9379323657
 40
1.0
 40
1.0
 40
1.0
 40
1.0
 10
16.1463735079
 20
13.3370677203
 30
0.0
 10
16.1437914444
 20
13.3287121597
 30
0.0
 10
16.1385652323
 20
13.316532143
 30
0.0
 10
16.1291640921
 20
13.3017429551
 30
0.0
 10
16.1209378284
 20
13.2914707151
 30
0.0
 10
16.111655885
 20
13.2821471204
 30
0.0
 10
16.1014148448
 20
13.2738866492
 30
0.0
 10
16.0903367263
 20
13.2667867419
 30
0.0
 10
16.0785621852
 20
13.2609061005
 30
0.0
 10
16.0662203987
 20
13.2563156282
 30
0.0
 10
16.0534570854
 20
13.2530448478
 30
0.0
 10
16.0404123653
 20
13.2510977506
 30
0.0
 10
16.0228279873
 20
13.2502845637
 30
0.0
 10
16.005179636
 20
13.2521099095
 30
0.0
 10
15.9880450214
 20
13.2564095206
 30
0.0
 10
15.9713032243
 20
13.2623117336
 30
0.0
 10
15.9514357297
 20
13.2725458562
 30
0.0
 10
15.9336591146
 20
13.2861369351
 30
0.0
 10
15.921004902
 20
13.2987341323
 30
0.0
 10
15.9123697094
 20
13.3089796986
 30
0.0
 10
15.9046705415
 20
13.3199272657
 30
0.0
 10
15.8957705732
 20
13.3353177449
 30
0.0
 10
15.8873112866
 20
13.3558909357
 30
0.0
 10
15.8828263143
 20
13.3776391248
 30
0.0
 10
15.8818130491
 20
13.3952371865
 30
0.0
 10
15.8825568407
 20
13.4127839777
 30
0.0
 10
15.8851147328
 20
13.425803399
 30
0.0
 10
15.8876991912
 20
13.4341667095
 30
0.0
  0
SPLINE
  5
3D9
100
AcDbEntity
  8
0
100
AcDbSpline
 62
7
  6
CONTINUOUS
 70
0
 71
3
 72
11
 73
7
 74
0
 42
0.0000001
 43
0.0000001
 44
0.0000000001
 40
0.0
 40
0.0
 40
0.0
 40
0.0
 40
0.2415706126
 40
0.4914291427
 40
0.7456772813
 40
1.0
 40
1.0
 40
1.0
 40
1.0
 10
12.970500344
 20
11.9140018685
 30
0.0
 10
12.9798940608
 20
11.925633479
 30
0.0
 10
13.0009508101
 20
11.9477738765
 30
0.0
 10
13.0373813731
 20
11.9763432429
 30
0.0
 10
13.0780787995
 20
12.0000154932
 30
0.0
 10
13.1072856537
 20
12.0120583304
 30
0.0
 10
13.122219785
 20
12.0170313691
 30
0.0
  0
SPLINE
  5
3DA
100
AcDbEntity
  8
0
100
AcDbSpline
 62
7
  6
CONTINUOUS
 70
0
 71
3
 72
18
 73
14
 74
0
 42
0.0000001
 43
0.0000001
 44
0.0000000001
 40
0.0
 40
0.0
 40
0.0
 40
0.0
 40
0.0563355619
 40
0.1128605543
 40
0.1697626303
 40
0.2272182918
 40
0.2853925853
 40
0.3444367274
 40
0.4655305692
 40
0.5913466475
 40
0.7223664086
 40
0.8587441307
 40
1.0
 40
1.0
 40
1.0
 40
1.0
 10
12.8009822727
 20
11.9993710281
 30
0.0
 10
12.8025939334
 20
11.9960857725
 30
0.0
 10
12.8061017457
 20
11.989636893
 30
0.0
 10
12.8121760226
 20
11.9804190047
 30
0.0
 10
12.819041919
 20
11.9716812982
 30
0.0
 10
12.8266707676
 20
11.9634554385
 30
0.0
 10
12.8350360589
 20
11.9557721754
 30
0.0
 10
12.8472305499
 20
11.9462160179
 30
0.0
 10
12.8642312736
 20
11.9357745777
 30
0.0
 10
12.8868094766
 20
11.9259570107
 30
0.0
 10
12.9114148786
 20
11.9188600163
 30
0.0
 10
12.9376707837
 20
11.9145960955
 30
0.0
 10
12.955720972
 20
11.9136738326
 30
0.0
 10
12.9648962643
 20
11.9136738326
 30
0.0
  0
SPLINE
  5
3DB
100
AcDbEntity
  8
0
100
AcDbSpline
 62
7
  6
CONTINUOUS
 70
0
 71
3
 72
9
 73
5
 74
0
 42
0.0000001
 43
0.0000001
 44
0.0000000001
 40
0.0
 40
0.0
 40
0.0
 40
0.0
 40
0.2573984219
 40
1.0
 40
1.0
 40
1.0
 40
1.0
 10
16.0038686581
 20
11.7170097711
 30
0.0
 10
16.0088447533
 20
11.7085576166
 30
0.0
 10
16.0275812787
 20
11.6753766764
 30
0.0
 10
16.0438568625
 20
11.6407827115
 30
0.0
 10
16.0542005661
 20
11.6144441263
 30
0.0
  0
SPLINE
  5
3DC
100
AcDbEntity
  8
0
100
AcDbSpline
 62
7
  6
CONTINUOUS
 70
0
 71
3
 72
18
 73
14
 74
0
 42
0.0000001
 43
0.0000001
 44
0.0000000001
 40
0.0
 40
0.0
 40
0.0
 40
0.0
 40
0.0563355619
 40
0.1128605543
 40
0.1697626303
 40
0.2272182918
 40
0.2853925853
 40
0.3444367274
 40
0.4655305692
 40
0.5913466475
 40
0.7223664086
 40
0.8587441307
 40
1.0
 40
1.0
 40
1.0
 40
1.0
 10
17.1472388382
 20
11.9993710281
 30
0.0
 10
17.1488504989
 20
11.9960857725
 30
0.0
 10
17.1523583111
 20
11.989636893
 30
0.0
 10
17.158432588
 20
11.9804190047
 30
0.0
 10
17.1652984844
 20
11.9716812982
 30
0.0
 10
17.1729273331
 20
11.9634554385
 30
0.0
 10
17.1812926244
 20
11.9557721754
 30
0.0
 10
17.1934871153
 20
11.9462160179
 30
0.0
 10
17.2104878391
 20
11.9357745777
 30
0.0
 10
17.2330660421
 20
11.9259570107
 30
0.0
 10
17.2576714441
 20
11.9188600163
 30
0.0
 10
17.2839273491
 20
11.9145960955
 30
0.0
 10
17.3019775374
 20
11.9136738326
 30
0.0
 10
17.3111528297
 20
11.9136738326
 30
0.0
  0
SPLINE
  5
3DD
100
AcDbEntity
  8
0
100
AcDbSpline
 62
7
  6
CONTINUOUS
 70
0
 71
3
 72
15
 73
11
 74
0
 42
0.0000001
 43
0.0000001
 44
0.0000000001
 40
0.0
 40
0.0
 40
0.0
 40
0.0
 40
0.1127784282
 40
0.2270860552
 40
0.344224796
 40
0.4653167524
 40
0.5911991537
 40
0.7224073401
 40
0.858881044
 40
1.0
 40
1.0
 40
1.0
 40
1.0
 10
12.421804548
 20
10.7590209528
 30
0.0
 10
12.4227725955
 20
10.7570487415
 30
0.0
 10
12.4250664612
 20
10.7532370954
 30
0.0
 10
12.4294475611
 20
10.7481231621
 30
0.0
 10
12.4347105651
 20
10.7436670349
 30
0.0
 10
12.4407777432
 20
10.739944284
 30
0.0
 10
12.447553168
 20
10.7369949709
 30
0.0
 10
12.4549406622
 20
10.7348701112
 30
0.0
 10
12.4628175568
 20
10.7335908493
 30
0.0
 10
12.4682300799
 20
10.7333119963
 30
0.0
 10
12.470979151
 20
10.7333119963
 30
0.0
  0
SPLINE
  5
3DE
100
AcDbEntity
  8
0
100
AcDbSpline
 62
7
  6
CONTINUOUS
 70
0
 71
3
 72
15
 73
11
 74
0
 42
0.0000001
 43
0.0000001
 44
0.0000000001
 40
0.0
 40
0.0
 40
0.0
 40
0.0
 40
0.1011922562
 40
0.2111105099
 40
0.3290598141
 40
0.4541809611
 40
0.585345267
 40
0.7211431497
 40
0.8599530917
 40
1.0
 40
1.0
 40
1.0
 40
1.0
 10
14.2562178692
 20
11.3230214257
 30
0.0
 10
14.2541369616
 20
11.3272618697
 30
0.0
 10
14.2504608799
 20
11.3364415032
 30
0.0
 10
14.2464568408
 20
11.3512985855
 30
0.0
 10
14.2437826561
 20
11.3675812152
 30
0.0
 10
14.2423824017
 20
11.3850101145
 30
0.0
 10
14.2421952319
 20
11.4033235516
 30
0.0
 10
14.2431040155
 20
11.4222516198
 30
0.0
 10
14.2449889313
 20
11.4415216583
 30
0.0
 10
14.2468006817
 20
11.4544154391
 30
0.0
 10
14.2478273377
 20
11.4608715073
 30
0.0
  0
SPLINE
  5
3DF
100
AcDbEntity
  8
0
100
AcDbSpline
 62
7
  6
CONTINUOUS
 70
0
 71
3
 72
15
 73
11
 74
0
 42
0.0000001
 43
0.0000001
 44
0.0000000001
 40
0.0
 40
0.0
 40
0.0
 40
0.0
 40
0.1380668811
 40
0.2714437868
 40
0.4004206154
 40
0.525434853
 40
0.6471241113
 40
0.7662276989
 40
0.8835640128
 40
1.0
 40
1.0
 40
1.0
 40
1.0
 10
13.8229953939
 20
11.225105562
 30
0.0
 10
13.8168223469
 20
11.2376849094
 30
0.0
 10
13.8055806756
 20
11.2628701865
 30
0.0
 10
13.7919885089
 20
11.3012145852
 30
0.0
 10
13.7820309951
 20
11.339299531
 30
0.0
 10
13.7757744069
 20
11.3769669577
 30
0.0
 10
13.7732351727
 20
11.4140659688
 30
0.0
 10
13.7744337896
 20
11.4504583612
 30
0.0
 10
13.7793715454
 20
11.4859944913
 30
0.0
 10
13.7851491942
 20
11.5090618725
 30
0.0
 10
13.7886370378
 20
11.5203524772
 30
0.0
  0
SPLINE
  5
3E0
100
AcDbEntity
  8
0
100
AcDbSpline
 62
7
  6
CONTINUOUS
 70
0
 71
3
 72
37
 73
33
 74
0
 42
0.0000001
 43
0.0000001
 44
0.0000000001
 40
0.0
 40
0.0
 40
0.0
 40
0.0
 40
0.0265178047
 40
0.0543696519
 40
0.0835399341
 40
0.1139986079
 40
0.1457001296
 40
0.1785723315
 40
0.2473666873
 40
0.2830602863
 40
0.3194176765
 40
0.3562825185
 40
0.3934890812
 40
0.4308687267
 40
0.4682496799
 40
0.505460027
 40
0.5423313953
 40
0.6143808744
 40
0.6832039234
 40
0.7160936082
 40
0.7478171239
 40
0.7782966902
 40
0.8074788462
 40
0.8353399525
 40
0.8618947777
 40
0.8871938161
 40
0.8994067931
 40
0.9113473047
 40
0.9344806349
 40
0.9568002346
 40
0.9785478803
 40
1.0
 40
1.0
 40
1.0
 40
1.0
 10
15.2621531971
 20
11.225105562
 30
0.0
 10
15.2573107717
 20
11.2349733875
 30
0.0
 10
15.246350385
 20
11.2547109889
 30
0.0
 10
15.2268914239
 20
11.2834017227
 30
0.0
 10
15.204140482
 20
11.3116866635
 30
0.0
 10
15.1782645292
 20
11.339363596
 30
0.0
 10
15.149439835
 20
11.3662559079
 30
0.0
 10
15.1066867627
 20
11.4013491764
 30
0.0
 10
15.0595035719
 20
11.4334726041
 30
0.0
 10
15.0088103927
 20
11.4624651932
 30
0.0
 10
14.9685116334
 20
11.4828649106
 30
0.0
 10
14.926687195
 20
11.5015084092
 30
0.0
 10
14.8836203609
 20
11.5182752346
 30
0.0
 10
14.8396018231
 20
11.5330411063
 30
0.0
 10
14.7949352725
 20
11.5457170384
 30
0.0
 10
14.749920064
 20
11.556206666
 30
0.0
 10
14.6903159617
 20
11.567105083
 30
0.0
 10
14.6169372638
 20
11.5750450729
 30
0.0
 10
14.5447475231
 20
11.5752333101
 30
0.0
 10
14.4896146795
 20
11.5704282055
 30
0.0
 10
14.4506131974
 20
11.5645222457
 30
0.0
 10
14.4136027608
 20
11.5563038987
 30
0.0
 10
14.3788308662
 20
11.5458281734
 30
0.0
 10
14.3465345747
 20
11.5331528673
 30
0.0
 10
14.3169294497
 20
11.5183729847
 30
0.0
 10
14.2944095974
 20
11.5041992102
 30
0.0
 10
14.2780081283
 20
11.491886901
 30
0.0
 10
14.2630175363
 20
11.4792449635
 30
0.0
 10
14.2462083831
 20
11.4623178227
 30
0.0
 10
14.2292353454
 20
11.4401270413
 30
0.0
 10
14.2157978611
 20
11.4164270431
 30
0.0
 10
14.2092609438
 20
11.3996769162
 30
0.0
 10
14.2066356583
 20
11.3911811235
 30
0.0
  0
SPLINE
  5
3E1
100
AcDbEntity
  8
0
100
AcDbSpline
 62
7
  6
CONTINUOUS
 70
0
 71
3
 72
36
 73
32
 74
0
 42
0.0000001
 43
0.0000001
 44
0.0000000001
 40
0.0
 40
0.0
 40
0.0
 40
0.0
 40
0.0211787567
 40
0.0426327742
 40
0.0645174176
 40
0.0869834227
 40
0.1101670921
 40
0.1341790959
 40
0.1591022461
 40
0.1849977053
 40
0.2119030754
 40
0.2398377273
 40
0.2688001968
 40
0.298773654
 40
0.3297260749
 40
0.3616120283
 40
0.3943757735
 40
0.4279498685
 40
0.4622600005
 40
0.4972227487
 40
0.5327495312
 40
0.5687459707
 40
0.6417370952
 40
0.7153871766
 40
0.7888527041
 40
0.8252592567
 40
0.8613047613
 40
0.8968935138
 40
0.9319372763
 40
0.9663418
 40
1.0
 40
1.0
 40
1.0
 40
1.0
 10
13.2173981779
 20
12.2096356709
 30
0.0
 10
13.2249134454
 20
12.2302394928
 30
0.0
 10
13.2424454818
 20
12.2708798591
 30
0.0
 10
13.2756878141
 20
12.3289835184
 30
0.0
 10
13.3158420984
 20
12.3842024932
 30
0.0
 10
13.3626989353
 20
12.4362785641
 30
0.0
 10
13.4160433124
 20
12.4850011629
 30
0.0
 10
13.4756372989
 20
12.530173037
 30
0.0
 10
13.5412151426
 20
12.5716193528
 30
0.0
 10
13.612500317
 20
12.6091559428
 30
0.0
 10
13.6891788463
 20
12.6426486642
 30
0.0
 10
13.770931001
 20
12.6719451833
 30
0.0
 10
13.8574046455
 20
12.6969403984
 30
0.0
 10
13.9482356078
 20
12.717521527
 30
0.0
 10
14.0430368232
 20
12.73360686
 30
0.0
 10
14.1414058268
 20
12.7451326793
 30
0.0
 10
14.2429244651
 20
12.7520424387
 30
0.0
 10
14.3471607785
 20
12.7543201456
 30
0.0
 10
14.4536705097
 20
12.7519416948
 30
0.0
 10
14.5620000559
 20
12.7449319656
 30
0.0
 10
14.6716885368
 20
12.7333092019
 30
0.0
 10
14.8197953287
 20
12.7116389545
 30
0.0
 10
15.0052147082
 20
12.6733422383
 30
0.0
 10
15.2245391957
 20
12.6105680807
 30
0.0
 10
15.4030267654
 20
12.5447267588
 30
0.0
 10
15.5416029717
 20
12.4844064396
 30
0.0
 10
15.6424085453
 20
12.4358018747
 30
0.0
 10
15.7399636758
 20
12.3839064586
 30
0.0
 10
15.8338589943
 20
12.3289363441
 30
0.0
 10
15.9236695705
 20
12.2711360383
 30
0.0
 10
15.981236136
 20
12.2304198269
 30
0.0
 10
16.0092159452
 20
12.2096356709
 30
0.0
  0
SPLINE
  5
3E2
100
AcDbEntity
  8
0
100
AcDbSpline
 62
7
  6
CONTINUOUS
 70
0
 71
3
 72
9
 73
5
 74
0
 42
0.0000001
 43
0.0000001
 44
0.0000000001
 40
0.0
 40
0.0
 40
0.0
 40
0.0
 40
0.2416269967
 40
1.0
 40
1.0
 40
1.0
 40
1.0
 10
14.0593206997
 20
12.2103343416
 30
0.0
 10
14.0674900674
 20
12.215229183
 30
0.0
 10
14.1017851076
 20
12.2346732582
 30
0.0
 10
14.1378578523
 20
12.2509203302
 30
0.0
 10
14.1657690119
 20
12.261617164
 30
0.0
  0
SPLINE
  5
3E3
100
AcDbEntity
  8
0
100
AcDbSpline
 62
7
  6
CONTINUOUS
 70
0
 71
3
 72
9
 73
5
 74
0
 42
0.0000001
 43
0.0000001
 44
0.0000000001
 40
0.0
 40
0.0
 40
0.0
 40
0.0
 40
0.2573984219
 40
1.0
 40
1.0
 40
1.0
 40
1.0
 10
13.7565687316
 20
11.6144441263
 30
0.0
 10
13.7515926364
 20
11.6228962808
 30
0.0
 10
13.732856111
 20
11.656077221
 30
0.0
 10
13.7165805272
 20
11.6906711859
 30
0.0
 10
13.7062368236
 20
11.7170097711
 30
0.0
  0
SPLINE
  5
3E4
100
AcDbEntity
  8
0
100
AcDbSpline
 62
7
  6
CONTINUOUS
 70
0
 71
3
 72
9
 73
5
 74
0
 42
0.0000001
 43
0.0000001
 44
0.0000000001
 40
0.0
 40
0.0
 40
0.0
 40
0.0
 40
0.2444925847
 40
1.0
 40
1.0
 40
1.0
 40
1.0
 10
13.7232542357
 20
11.717015557
 30
0.0
 10
13.7261595105
 20
11.7103779777
 30
0.0
 10
13.738475287
 20
11.6834201808
 30
0.0
 10
13.7524715956
 20
11.6572379947
 30
0.0
 10
13.7638307213
 20
11.6379439336
 30
0.0
  0
SPLINE
  5
3E5
100
AcDbEntity
  8
0
100
AcDbSpline
 62
7
  6
CONTINUOUS
 70
0
 71
3
 72
18
 73
14
 74
0
 42
0.0000001
 43
0.0000001
 44
0.0000000001
 40
0.0
 40
0.0
 40
0.0
 40
0.0
 40
0.0563355619
 40
0.1128605543
 40
0.1697626303
 40
0.2272182918
 40
0.2853925853
 40
0.3444367274
 40
0.4655305692
 40
0.5913466475
 40
0.7223664086
 40
0.8587441307
 40
1.0
 40
1.0
 40
1.0
 40
1.0
 10
17.8551483875
 20
12.2196400919
 30
0.0
 10
17.8535367268
 20
12.2229253475
 30
0.0
 10
17.8500289146
 20
12.2293742271
 30
0.0
 10
17.8439546377
 20
12.2385921153
 30
0.0
 10
17.8370887413
 20
12.2473298218
 30
0.0
 10
17.8294598926
 20
12.2555556815
 30
0.0
 10
17.8210946013
 20
12.2632389446
 30
0.0
 10
17.8089001103
 20
12.2727951021
 30
0.0
 10
17.7918993866
 20
12.2832365423
 30
0.0
 10
17.7693211836
 20
12.2930541093
 30
0.0
 10
17.7447157816
 20
12.3001511037
 30
0.0
 10
17.7184598765
 20
12.3044150245
 30
0.0
 10
17.7004096882
 20
12.3053372874
 30
0.0
 10
17.691234396
 20
12.3053372874
 30
0.0
  0
SPLINE
  5
3E6
100
AcDbEntity
  8
0
100
AcDbSpline
 62
7
  6
CONTINUOUS
 70
0
 71
3
 72
9
 73
5
 74
0
 42
0.0000001
 43
0.0000001
 44
0.0000000001
 40
0.0
 40
0.0
 40
0.0
 40
0.0
 40
0.2556602288
 40
1.0
 40
1.0
 40
1.0
 40
1.0
 10
15.7381619956
 20
10.9921400181
 30
0.0
 10
15.7455131862
 20
10.9950589316
 30
0.0
 10
15.7741142893
 20
11.0068545794
 30
0.0
 10
15.8020854321
 20
11.0201951291
 30
0.0
 10
15.8223940432
 20
11.0310510076
 30
0.0
  0
SPLINE
  5
3E7
100
AcDbEntity
  8
0
100
AcDbSpline
 62
7
  6
CONTINUOUS
 70
0
 71
3
 72
15
 73
11
 74
0
 42
0.0000001
 43
0.0000001
 44
0.0000000001
 40
0.0
 40
0.0
 40
0.0
 40
0.0
 40
0.1088874569
 40
0.2193166675
 40
0.3334538562
 40
0.4530047169
 40
0.5791551824
 40
0.7125153257
 40
0.8530945304
 40
1.0
 40
1.0
 40
1.0
 40
1.0
 10
14.3693824674
 20
11.9929820816
 30
0.0
 10
14.3712513112
 20
11.9891752978
 30
0.0
 10
14.3757240769
 20
11.9818329303
 30
0.0
 10
14.3844145082
 20
11.9720951193
 30
0.0
 10
14.3949597232
 20
11.9637256575
 30
0.0
 10
14.4071992578
 20
11.9567961589
 30
0.0
 10
14.4209722917
 20
11.9513646519
 30
0.0
 10
14.4360946883
 20
11.9474640862
 30
0.0
 10
14.4523467758
 20
11.9451320374
 30
0.0
 10
14.4635513705
 20
11.944631394
 30
0.0
 10
14.4692728117
 20
11.944631394
 30
0.0
  0
SPLINE
  5
3E8
100
AcDbEntity
  8
0
100
AcDbSpline
 62
7
  6
CONTINUOUS
 70
0
 71
3
 72
14
 73
10
 74
0
 42
0.0000001
 43
0.0000001
 44
0.0000000001
 40
0.0
 40
0.0
 40
0.0
 40
0.0
 40
0.2513269351
 40
0.3728072734
 40
0.4932457345
 40
0.6143946623
 40
0.7383340504
 40
0.8666519284
 40
1.0
 40
1.0
 40
1.0
 40
1.0
 10
17.3859355909
 20
11.7396167319
 30
0.0
 10
17.3884949096
 20
11.7380855322
 30
0.0
 10
17.3920455859
 20
11.7353042977
 30
0.0
 10
17.3956287658
 20
11.7306450144
 30
0.0
 10
17.3976223811
 20
11.7267984054
 30
0.0
 10
17.3988923633
 20
11.7226248409
 30
0.0
 10
17.3993698762
 20
11.7181941533
 30
0.0
 10
17.3990575782
 20
11.7136086351
 30
0.0
 10
17.3983558041
 20
11.7105692991
 30
0.0
 10
17.3978886083
 20
11.7090574526
 30
0.0
  0
SPLINE
  5
3E9
100
AcDbEntity
  8
0
100
AcDbSpline
 62
7
  6
CONTINUOUS
 70
0
 71
3
 72
16
 73
12
 74
0
 42
0.0000001
 43
0.0000001
 44
0.0000000001
 40
0.0
 40
0.0
 40
0.0
 40
0.0
 40
0.0614389925
 40
0.1243432416
 40
0.2532222249
 40
0.3845524448
 40
0.515994042
 40
0.6451479438
 40
0.7698506863
 40
0.8884617274
 40
1.0
 40
1.0
 40
1.0
 40
1.0
 10
13.085929426
 20
12.3053372874
 30
0.0
 10
13.0783083329
 20
12.3053372874
 30
0.0
 10
13.0628773983
 20
12.3046816168
 30
0.0
 10
13.0316730424
 20
12.3008738814
 30
0.0
 10
12.9925518244
 20
12.2914411176
 30
0.0
 10
12.9472922843
 20
12.2733592455
 30
0.0
 10
12.9049732082
 20
12.2490996245
 30
0.0
 10
12.8671885995
 20
12.2195575353
 30
0.0
 10
12.8353393971
 20
12.185820266
 30
0.0
 10
12.8106491811
 20
12.1491329142
 30
0.0
 10
12.7992325127
 20
12.1227243532
 30
0.0
 10
12.7951475966
 20
12.10950556
 30
0.0
  0
SPLINE
  5
3EA
100
AcDbEntity
  8
0
100
AcDbSpline
 62
7
  6
CONTINUOUS
 70
0
 71
3
 72
14
 73
10
 74
0
 42
0.0000001
 43
0.0000001
 44
0.0000000001
 40
0.0
 40
0.0
 40
0.0
 40
0.0
 40
0.2640966488
 40
0.3918604383
 40
0.5169364325
 40
0.6397510525
 40
0.7608190775
 40
0.8807065102
 40
1.0
 40
1.0
 40
1.0
 40
1.0
 10
12.7951475966
 20
12.10950556
 30
0.0
 10
12.7922122706
 20
12.1000068415
 30
0.0
 10
12.7889554823
 20
12.0855241642
 30
0.0
 10
12.7872418935
 20
12.0661196523
 30
0.0
 10
12.7873063953
 20
12.0519559716
 30
0.0
 10
12.7887024856
 20
12.0381151859
 30
0.0
 10
12.7914215504
 20
12.0246697298
 30
0.0
 10
12.7954544581
 20
12.011697991
 30
0.0
 10
12.7990043846
 20
12.0034028124
 30
0.0
 10
12.8009822727
 20
11.9993710281
 30
0.0
  0
SPLINE
  5
3EB
100
AcDbEntity
  8
0
100
AcDbSpline
 62
7
  6
CONTINUOUS
 70
0
 71
3
 72
16
 73
12
 74
0
 42
0.0000001
 43
0.0000001
 44
0.0000000001
 40
0.0
 40
0.0
 40
0.0
 40
0.0
 40
0.1349200733
 40
0.2002922965
 40
0.264299664
 40
0.3882779685
 40
0.508176146
 40
0.6264127885
 40
0.7458874635
 40
0.8698484202
 40
1.0
 40
1.0
 40
1.0
 40
1.0
 10
13.2804784202
 20
12.4750712991
 30
0.0
 10
13.2784518631
 20
12.4756362366
 30
0.0
 10
13.275489561
 20
12.4766674757
 30
0.0
 10
13.2717731043
 20
12.4784570971
 30
0.0
 10
13.2683602578
 20
12.4804538352
 30
0.0
 10
13.2645361116
 20
12.4834050669
 30
0.0
 10
13.2608246704
 20
12.4877188506
 30
0.0
 10
13.2582167465
 20
12.4927055474
 30
0.0
 10
13.2568438147
 20
12.4982328995
 30
0.0
 10
13.2568237681
 20
12.5041069039
 30
0.0
 10
13.257642856
 20
12.5080146682
 30
0.0
 10
13.2582420519
 20
12.5099536674
 30
0.0
  0
SPLINE
  5
3EC
100
AcDbEntity
  8
0
100
AcDbSpline
 62
7
  6
CONTINUOUS
 70
0
 71
3
 72
21
 73
17
 74
0
 42
0.0000001
 43
0.0000001
 44
0.0000000001
 40
0.0
 40
0.0
 40
0.0
 40
0.0
 40
0.1126568239
 40
0.1421396257
 40
0.1721002935
 40
0.2333701517
 40
0.2962858546
 40
0.360565561
 40
0.4917830058
 40
0.5580951985
 40
0.6243249201
 40
0.7549003075
 40
0.8186327031
 40
0.8808858876
 40
0.9414286046
 40
1.0
 40
1.0
 40
1.0
 40
1.0
 10
16.9341654384
 20
12.10950556
 30
0.0
 10
16.9429558988
 20
12.1379515002
 30
0.0
 10
16.9585218712
 20
12.1726069795
 30
0.0
 10
16.9821764516
 20
12.2114468743
 30
0.0
 10
17.0001107438
 20
12.2378499963
 30
0.0
 10
17.0254322428
 20
12.2698424972
 30
0.0
 10
17.0598031272
 20
12.3059834389
 30
0.0
 10
17.1110221624
 20
12.3512563476
 30
0.0
 10
17.1684953926
 20
12.390435678
 30
0.0
 10
17.2304010949
 20
12.422604396
 30
0.0
 10
17.2945167868
 20
12.4496699634
 30
0.0
 10
17.3610506421
 20
12.4687917354
 30
0.0
 10
17.4281352646
 20
12.4790957071
 30
0.0
 10
17.4774019035
 20
12.4822609596
 30
0.0
 10
17.5253816479
 20
12.4808649636
 30
0.0
 10
17.5566706198
 20
12.476851364
 30
0.0
 10
17.5718955116
 20
12.4740560159
 30
0.0
  0
SPLINE
  5
3ED
100
AcDbEntity
  8
0
100
AcDbSpline
 62
7
  6
CONTINUOUS
 70
0
 71
3
 72
16
 73
12
 74
0
 42
0.0000001
 43
0.0000001
 44
0.0000000001
 40
0.0
 40
0.0
 40
0.0
 40
0.0
 40
0.0614389925
 40
0.1243432416
 40
0.2532222249
 40
0.3845524448
 40
0.515994042
 40
0.6451479438
 40
0.7698506863
 40
0.8884617274
 40
1.0
 40
1.0
 40
1.0
 40
1.0
 10
17.4321859914
 20
12.3053372874
 30
0.0
 10
17.4245648983
 20
12.3053372874
 30
0.0
 10
17.4091339637
 20
12.3046816168
 30
0.0
 10
17.3779296078
 20
12.3008738814
 30
0.0
 10
17.3388083899
 20
12.2914411176
 30
0.0
 10
17.2935488498
 20
12.2733592455
 30
0.0
 10
17.2512297736
 20
12.2490996245
 30
0.0
 10
17.213445165
 20
12.2195575353
 30
0.0
 10
17.1815959626
 20
12.185820266
 30
0.0
 10
17.1569057465
 20
12.1491329142
 30
0.0
 10
17.1454890781
 20
12.1227243532
 30
0.0
 10
17.1414041621
 20
12.10950556
 30
0.0
  0
SPLINE
  5
3EE
100
AcDbEntity
  8
0
100
AcDbSpline
 62
7
  6
CONTINUOUS
 70
0
 71
3
 72
14
 73
10
 74
0
 42
0.0000001
 43
0.0000001
 44
0.0000000001
 40
0.0
 40
0.0
 40
0.0
 40
0.0
 40
0.2640966488
 40
0.3918604383
 40
0.5169364325
 40
0.6397510525
 40
0.7608190775
 40
0.8807065102
 40
1.0
 40
1.0
 40
1.0
 40
1.0
 10
17.1414041621
 20
12.10950556
 30
0.0
 10
17.138468836
 20
12.1000068415
 30
0.0
 10
17.1352120478
 20
12.0855241642
 30
0.0
 10
17.133498459
 20
12.0661196523
 30
0.0
 10
17.1335629607
 20
12.0519559716
 30
0.0
 10
17.134959051
 20
12.0381151859
 30
0.0
 10
17.1376781158
 20
12.0246697298
 30
0.0
 10
17.1417110236
 20
12.011697991
 30
0.0
 10
17.14526095
 20
12.0034028124
 30
0.0
 10
17.1472388382
 20
11.9993710281
 30
0.0
  0
SPLINE
  5
3EF
100
AcDbEntity
  8
0
100
AcDbSpline
 62
7
  6
CONTINUOUS
 70
0
 71
3
 72
15
 73
11
 74
0
 42
0.0000001
 43
0.0000001
 44
0.0000000001
 40
0.0
 40
0.0
 40
0.0
 40
0.0
 40
0.1134337356
 40
0.236317002
 40
0.3657031457
 40
0.4979339312
 40
0.6295994103
 40
0.7580754426
 40
0.8819733274
 40
1.0
 40
1.0
 40
1.0
 40
1.0
 10
17.6453842565
 20
12.509953663
 30
0.0
 10
17.6443996413
 20
12.5067674446
 30
0.0
 10
17.6413416406
 20
12.5004194667
 30
0.0
 10
17.6344237484
 20
12.4920822052
 30
0.0
 10
17.6255431103
 20
12.484978002
 30
0.0
 10
17.6153478267
 20
12.4794150987
 30
0.0
 10
17.604444332
 20
12.4755185855
 30
0.0
 10
17.5933326205
 20
12.4733017546
 30
0.0
 10
17.5824214913
 20
12.4727345532
 30
0.0
 10
17.5753083792
 20
12.4734294071
 30
0.0
 10
17.5718955116
 20
12.4740560159
 30
0.0
  0
SPLINE
  5
3F0
100
AcDbEntity
  8
0
100
AcDbSpline
 62
7
  6
CONTINUOUS
 70
0
 71
3
 72
11
 73
7
 74
0
 42
0.0000001
 43
0.0000001
 44
0.0000000001
 40
0.0
 40
0.0
 40
0.0
 40
0.0
 40
0.2391474027
 40
0.4853688091
 40
0.7389091465
 40
1.0
 40
1.0
 40
1.0
 40
1.0
 10
16.1165763754
 20
13.1985361022
 30
0.0
 10
16.118771048
 20
13.2056380655
 30
0.0
 10
16.1221753744
 20
13.2203954644
 30
0.0
 10
16.1242672663
 20
13.2433311923
 30
0.0
 10
16.1233751896
 20
13.2670236969
 30
0.0
 10
16.1208435891
 20
13.2828616029
 30
0.0
 10
16.1191144138
 20
13.2907906381
 30
0.0
  0
SPLINE
  5
3F1
100
AcDbEntity
  8
0
100
AcDbSpline
 62
7
  6
CONTINUOUS
 70
0
 71
3
 72
9
 73
5
 74
0
 42
0.0000001
 43
0.0000001
 44
0.0000000001
 40
0.0
 40
0.0
 40
0.0
 40
0.0
 40
0.2573410576
 40
1.0
 40
1.0
 40
1.0
 40
1.0
 10
15.7309000059
 20
10.9686402108
 30
0.0
 10
15.7403248702
 20
10.9723825112
 30
0.0
 10
15.7766982191
 20
10.9875418905
 30
0.0
 10
15.8120339111
 20
11.0052392883
 30
0.0
 10
15.837348318
 20
11.0199230332
 30
0.0
  0
SPLINE
  5
3F2
100
AcDbEntity
  8
0
100
AcDbSpline
 62
7
  6
CONTINUOUS
 70
0
 71
3
 72
9
 73
5
 74
0
 42
0.0000001
 43
0.0000001
 44
0.0000000001
 40
0.0
 40
0.0
 40
0.0
 40
0.0
 40
0.2552854857
 40
1.0
 40
1.0
 40
1.0
 40
1.0
 10
15.9215423371
 20
13.4867838611
 30
0.0
 10
15.9178899502
 20
13.4875499342
 30
0.0
 10
15.9035086816
 20
13.4901784739
 30
0.0
 10
15.8888403219
 20
13.4912947432
 30
0.0
 10
15.8779546626
 20
13.4911573199
 30
0.0
  0
SPLINE
  5
3F3
100
AcDbEntity
  8
0
100
AcDbSpline
 62
7
  6
CONTINUOUS
 70
0
 71
3
 72
15
 73
11
 74
0
 42
0.0000001
 43
0.0000001
 44
0.0000000001
 40
0.0
 40
0.0
 40
0.0
 40
0.0
 40
0.1327529122
 40
0.2621446063
 40
0.3883877011
 40
0.5121557268
 40
0.6342782603
 40
0.7556318183
 40
0.8772017191
 40
1.0
 40
1.0
 40
1.0
 40
1.0
 10
15.8779546626
 20
13.4911573199
 30
0.0
 10
15.8708278362
 20
13.491067349
 30
0.0
 10
15.8567488452
 20
13.4900685293
 30
0.0
 10
15.8362365259
 20
13.4860284085
 30
0.0
 10
15.816878987
 20
13.4794910093
 30
0.0
 10
15.7989411562
 20
13.4705464445
 30
0.0
 10
15.7826599029
 20
13.4593061428
 30
0.0
 10
15.7682505839
 20
13.4459185815
 30
0.0
 10
15.7559116555
 20
13.4305600085
 30
0.0
 10
15.7492201552
 20
13.4192145064
 30
0.0
 10
15.746271708
 20
13.4133176009
 30
0.0
  0
SPLINE
  5
3F4
100
AcDbEntity
  8
0
100
AcDbSpline
 62
7
  6
CONTINUOUS
 70
0
 71
3
 72
15
 73
11
 74
0
 42
0.0000001
 43
0.0000001
 44
0.0000000001
 40
0.0
 40
0.0
 40
0.0
 40
0.0
 40
0.1129531978
 40
0.2294698078
 40
0.3496878673
 40
0.4736956513
 40
0.60125187
 40
0.731912929
 40
0.8651418248
 40
1.0
 40
1.0
 40
1.0
 40
1.0
 10
15.7372704224
 20
13.3908367395
 30
0.0
 10
15.7349305203
 20
13.3832648134
 30
0.0
 10
15.7313710262
 20
13.367490203
 30
0.0
 10
15.7294596277
 20
13.3429536114
 30
0.0
 10
15.7309332116
 20
13.3176109824
 30
0.0
 10
15.7357536163
 20
13.2919077787
 30
0.0
 10
15.7438211956
 20
13.2662682279
 30
0.0
 10
15.7550074442
 20
13.2411213243
 30
0.0
 10
15.7691159935
 20
13.2169026711
 30
0.0
 10
15.7802593114
 20
13.2016989124
 30
0.0
 10
15.7862391587
 20
13.1943658404
 30
0.0
  0
SPLINE
  5
3F5
100
AcDbEntity
  8
0
100
AcDbSpline
 62
7
  6
CONTINUOUS
 70
0
 71
3
 72
14
 73
10
 74
0
 42
0.0000001
 43
0.0000001
 44
0.0000000001
 40
0.0
 40
0.0
 40
0.0
 40
0.0
 40
0.1164573727
 40
0.23380889
 40
0.3529343313
 40
0.4746578005
 40
0.5997251886
 40
0.7287537502
 40
1.0
 40
1.0
 40
1.0
 40
1.0
 10
14.2066356583
 20
11.3911811235
 30
0.0
 10
14.2046732609
 20
11.3848305294
 30
0.0
 10
14.2014203336
 20
11.371856691
 30
0.0
 10
14.1986428481
 20
11.3518684575
 30
0.0
 10
14.1979703078
 20
11.3313980165
 30
0.0
 10
14.1993964928
 20
11.3105283397
 30
0.0
 10
14.202918981
 20
11.2893358177
 30
0.0
 10
14.210513401
 20
11.2602978247
 30
0.0
 10
14.2191392897
 20
11.2390038499
 30
0.0
 10
14.2259595788
 20
11.225105562
 30
0.0
  0
SPLINE
  5
3F6
100
AcDbEntity
  8
0
100
AcDbSpline
 62
7
  6
CONTINUOUS
 70
0
 71
3
 72
14
 73
10
 74
0
 42
0.0000001
 43
0.0000001
 44
0.0000000001
 40
0.0
 40
0.0
 40
0.0
 40
0.0
 40
0.1302005712
 40
0.2605329267
 40
0.5174212053
 40
0.6428798826
 40
0.7653761527
 40
0.8845452409
 40
1.0
 40
1.0
 40
1.0
 40
1.0
 10
15.7862391587
 20
13.1943658404
 30
0.0
 10
15.7922592063
 20
13.1869834708
 30
0.0
 10
15.805085784
 20
13.1728254492
 30
0.0
 10
15.8332616003
 20
13.1474786664
 30
0.0
 10
15.8649444761
 20
13.1267791209
 30
0.0
 10
15.8987913341
 20
13.1118455165
 30
0.0
 10
15.9244954262
 20
13.103831562
 30
0.0
 10
15.9502488758
 20
13.0990762263
 30
0.0
 10
15.9674458725
 20
13.098108894
 30
0.0
 10
15.9758921352
 20
13.0982155218
 30
0.0
  0
SPLINE
  5
3F7
100
AcDbEntity
  8
0
100
AcDbSpline
 62
7
  6
CONTINUOUS
 70
0
 71
3
 72
11
 73
7
 74
0
 42
0.0000001
 43
0.0000001
 44
0.0000000001
 40
0.0
 40
0.0
 40
0.0
 40
0.0
 40
0.2576875357
 40
0.510101364
 40
0.7573267063
 40
1.0
 40
1.0
 40
1.0
 40
1.0
 10
15.9758921352
 20
13.0982155218
 30
0.0
 10
15.9816849121
 20
13.0982886513
 30
0.0
 10
15.9931533316
 20
13.0989775617
 30
0.0
 10
16.0099922339
 20
13.1016806097
 30
0.0
 10
16.0261343506
 20
13.1060329943
 30
0.0
 10
16.0364202967
 20
13.1100433052
 30
0.0
 10
16.0413837287
 20
13.1123080209
 30
0.0
  0
SPLINE
  5
3F8
100
AcDbEntity
  8
0
100
AcDbSpline
 62
7
  6
CONTINUOUS
 70
0
 71
3
 72
14
 73
10
 74
0
 42
0.0000001
 43
0.0000001
 44
0.0000000001
 40
0.0
 40
0.0
 40
0.0
 40
0.0
 40
0.1251298541
 40
0.2493265839
 40
0.3730193769
 40
0.4966822948
 40
0.6208196282
 40
0.7459182687
 40
1.0
 40
1.0
 40
1.0
 40
1.0
 10
16.0492302095
 20
13.1161803732
 30
0.0
 10
16.0532485741
 20
13.1183190068
 30
0.0
 10
16.0610551652
 20
13.1229701288
 30
0.0
 10
16.0719920839
 20
13.1310384667
 30
0.0
 10
16.0820342334
 20
13.1401199759
 30
0.0
 10
16.091113833
 20
13.1501596776
 30
0.0
 10
16.099180987
 20
13.1610955966
 30
0.0
 10
16.1085526113
 20
13.1768500026
 30
0.0
 10
16.1138473726
 20
13.189705046
 30
0.0
 10
16.1165763754
 20
13.1985361022
 30
0.0
  0
SPLINE
  5
3F9
100
AcDbEntity
  8
0
100
AcDbSpline
 62
7
  6
CONTINUOUS
 70
0
 71
3
 72
15
 73
11
 74
0
 42
0.0000001
 43
0.0000001
 44
0.0000000001
 40
0.0
 40
0.0
 40
0.0
 40
0.0
 40
0.116436087
 40
0.2337720225
 40
0.3528751051
 40
0.4745639416
 40
0.5995780971
 40
0.7285553171
 40
0.8619327397
 40
1.0
 40
1.0
 40
1.0
 40
1.0
 10
15.8356384553
 20
11.3704799109
 30
0.0
 10
15.839126311
 20
11.381770527
 30
0.0
 10
15.8449039035
 20
11.4048379073
 30
0.0
 10
15.8498414804
 20
11.440373993
 30
0.0
 10
15.8510400525
 20
11.4767662631
 30
0.0
 10
15.8485008301
 20
11.5138651859
 30
0.0
 10
15.8422442234
 20
11.5515326133
 30
0.0
 10
15.8322866473
 20
11.5896176436
 30
0.0
 10
15.8186944541
 20
11.6279621859
 30
0.0
 10
15.8074527551
 20
11.6531475622
 30
0.0
 10
15.8012796888
 20
11.6657269487
 30
0.0
  0
SPLINE
  5
3FA
100
AcDbEntity
  8
0
100
AcDbSpline
 62
7
  6
CONTINUOUS
 70
0
 71
3
 72
9
 73
5
 74
0
 42
0.0000001
 43
0.0000001
 44
0.0000000001
 40
0.0
 40
0.0
 40
0.0
 40
0.0
 40
0.2416924859
 40
1.0
 40
1.0
 40
1.0
 40
1.0
 10
15.8810573907
 20
11.6144441263
 30
0.0
 10
15.8778203442
 20
11.6230687071
 30
0.0
 10
15.8635120113
 20
11.6584070163
 30
0.0
 10
15.8457070492
 20
11.6922929946
 30
0.0
 10
15.8307254827
 20
11.7170097711
 30
0.0
  0
SPLINE
  5
3FB
100
AcDbEntity
  8
0
100
AcDbSpline
 62
7
  6
CONTINUOUS
 70
0
 71
3
 72
9
 73
5
 74
0
 42
0.0000001
 43
0.0000001
 44
0.0000000001
 40
0.0
 40
0.0
 40
0.0
 40
0.0
 40
0.2566930851
 40
1.0
 40
1.0
 40
1.0
 40
1.0
 10
15.8516033413
 20
11.7170177828
 30
0.0
 10
15.855215786
 20
11.7104869328
 30
0.0
 10
15.8688581799
 20
11.6848106174
 30
0.0
 10
15.8807251964
 20
11.6581773942
 30
0.0
 10
15.8883193804
 20
11.6379439336
 30
0.0
  0
SPLINE
  5
3FC
100
AcDbEntity
  8
0
100
AcDbSpline
 62
7
  6
CONTINUOUS
 70
0
 71
3
 72
9
 73
5
 74
0
 42
0.0000001
 43
0.0000001
 44
0.0000000001
 40
0.0
 40
0.0
 40
0.0
 40
0.0
 40
0.2456143003
 40
1.0
 40
1.0
 40
1.0
 40
1.0
 10
14.4883646775
 20
12.3476933571
 30
0.0
 10
14.4992229758
 20
12.3482791963
 30
0.0
 10
14.5434598179
 20
12.3501236601
 30
0.0
 10
14.5877801349
 20
12.3498512482
 30
0.0
 10
14.6211539995
 20
12.3485571455
 30
0.0
  0
SPLINE
  5
3FD
100
AcDbEntity
  8
0
100
AcDbSpline
 62
7
  6
CONTINUOUS
 70
0
 71
3
 72
9
 73
5
 74
0
 42
0.0000001
 43
0.0000001
 44
0.0000000001
 40
0.0
 40
0.0
 40
0.0
 40
0.0
 40
0.254683236
 40
1.0
 40
1.0
 40
1.0
 40
1.0
 10
15.5283683134
 20
12.0512290673
 30
0.0
 10
15.5373488203
 20
12.0450852344
 30
0.0
 10
15.5723369104
 20
12.0205658559
 30
0.0
 10
15.6062084164
 20
11.9944434166
 30
0.0
 10
15.6306619488
 20
11.9740478296
 30
0.0
  0
SPLINE
  5
3FE
100
AcDbEntity
  8
0
100
AcDbSpline
 62
7
  6
CONTINUOUS
 70
0
 71
3
 72
9
 73
5
 74
0
 42
0.0000001
 43
0.0000001
 44
0.0000000001
 40
0.0
 40
0.0
 40
0.0
 40
0.0
 40
0.5071559614
 40
1.0
 40
1.0
 40
1.0
 40
1.0
 10
15.5038237161
 20
12.0393724762
 30
0.0
 10
15.5248151391
 20
12.0254461611
 30
0.0
 10
15.5655129985
 20
11.9969253259
 30
0.0
 10
15.6046005544
 20
11.9662277567
 30
0.0
 10
15.6233999591
 20
11.9505480223
 30
0.0
  0
SPLINE
  5
3FF
100
AcDbEntity
  8
0
100
AcDbSpline
 62
7
  6
CONTINUOUS
 70
0
 71
3
 72
39
 73
35
 74
0
 42
0.0000001
 43
0.0000001
 44
0.0000000001
 40
0.0
 40
0.0
 40
0.0
 40
0.0
 40
0.0107135689
 40
0.0214644199
 40
0.0322893725
 40
0.0432239019
 40
0.0543019234
 40
0.0655553012
 40
0.0886885403
 40
0.1128311375
 40
0.1381303059
 40
0.1646833339
 40
0.1925445705
 40
0.2217252016
 40
0.2522042129
 40
0.2839267009
 40
0.316815125
 40
0.3507665553
 40
0.3856625109
 40
0.4577087519
 40
0.5317647822
 40
0.6064997456
 40
0.6437044944
 40
0.6805672706
 40
0.7169239913
 40
0.7526164655
 40
0.7874976953
 40
0.8214337346
 40
0.8543045838
 40
0.8860074508
 40
0.9164633406
 40
0.9456283336
 40
0.9734780685
 40
1.0
 40
1.0
 40
1.0
 40
1.0
 10
13.7886370378
 20
11.5203524772
 30
0.0
 10
13.7909673552
 20
11.5278960183
 30
0.0
 10
13.7961853968
 20
11.542845907
 30
0.0
 10
13.8056357369
 20
11.5647053956
 30
0.0
 10
13.8166940178
 20
11.5859817123
 30
0.0
 10
13.8293392181
 20
11.6066368049
 30
0.0
 10
13.8435515953
 20
11.6266354096
 30
0.0
 10
13.8647498523
 20
11.6526084898
 30
0.0
 10
13.8952255614
 20
11.6833038076
 30
0.0
 10
13.9372324484
 20
11.7165877149
 30
0.0
 10
13.984719751
 20
11.7464648869
 30
0.0
 10
14.0373499214
 20
11.7727519373
 30
0.0
 10
14.0947690629
 20
11.7952758523
 30
0.0
 10
14.1565845009
 20
11.8139077418
 30
0.0
 10
14.2223830335
 20
11.8285128834
 30
0.0
 10
14.2917183535
 20
11.8390141596
 30
0.0
 10
14.3641233539
 20
11.8453251986
 30
0.0
 10
14.4391096875
 20
11.8474232029
 30
0.0
 10
14.5429439485
 20
11.8445299475
 30
0.0
 10
14.6758090969
 20
11.8301492463
 30
0.0
 10
14.8353511765
 20
11.7968631191
 30
0.0
 10
14.9665088138
 20
11.7562803535
 30
0.0
 10
15.0687314681
 20
11.7164929611
 30
0.0
 10
15.143087168
 20
11.6833447794
 30
0.0
 10
15.2147258432
 20
11.6470797127
 30
0.0
 10
15.2831628067
 20
11.607943401
 30
0.0
 10
15.3479312081
 20
11.5661990966
 30
0.0
 10
15.4085945034
 20
11.5221323896
 30
0.0
 10
15.464736106
 20
11.4760364024
 30
0.0
 10
15.5159829072
 20
11.4282324495
 30
0.0
 10
15.5619807514
 20
11.3790276344
 30
0.0
 10
15.6024279513
 20
11.3287506368
 30
0.0
 10
15.637022256
 20
11.2777447522
 30
0.0
 10
15.6565069222
 20
11.2426518342
 30
0.0
 10
15.6651173819
 20
11.225105562
 30
0.0
  0
SPLINE
  5
400
100
AcDbEntity
  8
0
100
AcDbSpline
 62
7
  6
CONTINUOUS
 70
0
 71
3
 72
15
 73
11
 74
0
 42
0.0000001
 43
0.0000001
 44
0.0000000001
 40
0.0
 40
0.0
 40
0.0
 40
0.0
 40
0.1413426603
 40
0.277540566
 40
0.4081524587
 40
0.5334720446
 40
0.6541773606
 40
0.771276943
 40
0.8860392014
 40
1.0
 40
1.0
 40
1.0
 40
1.0
 10
14.5445253093
 20
12.1883320359
 30
0.0
 10
14.5499486421
 20
12.18814292
 30
0.0
 10
14.5605887067
 20
12.187204352
 30
0.0
 10
14.5759731042
 20
12.1840367538
 30
0.0
 10
14.5902581107
 20
12.1791462394
 30
0.0
 10
14.6032181466
 20
12.1726224653
 30
0.0
 10
14.6146480736
 20
12.1645440105
 30
0.0
 10
14.6243715719
 20
12.1550391673
 30
0.0
 10
14.6322178626
 20
12.144251297
 30
0.0
 10
14.6361018989
 20
12.136317833
 30
0.0
 10
14.6376826827
 20
12.1322380325
 30
0.0
  0
SPLINE
  5
401
100
AcDbEntity
  8
0
100
AcDbSpline
 62
7
  6
CONTINUOUS
 70
0
 71
3
 72
22
 73
18
 74
0
 42
0.0000001
 43
0.0000001
 44
0.0000000001
 40
0.0
 40
0.0
 40
0.0
 40
0.0
 40
0.050432559
 40
0.1019944164
 40
0.155303474
 40
0.2108214077
 40
0.2687996478
 40
0.3293165401
 40
0.4571886236
 40
0.5241274928
 40
0.592419683
 40
0.6615418071
 40
0.7309139883
 40
0.7999790421
 40
0.8682205346
 40
0.9351031913
 40
1.0
 40
1.0
 40
1.0
 40
1.0
 10
14.6376826827
 20
12.1322380325
 30
0.0
 10
14.6393661229
 20
12.127893289
 30
0.0
 10
14.6419691691
 20
12.1187733542
 30
0.0
 10
14.6434083208
 20
12.1044294152
 30
0.0
 10
14.6424236907
 20
12.0895785032
 30
0.0
 10
14.6390209823
 20
12.0744902914
 30
0.0
 10
14.6332960468
 20
12.0594127986
 30
0.0
 10
14.6224921892
 20
12.0393204998
 30
0.0
 10
14.6076149841
 20
12.0207121245
 30
0.0
 10
14.5896959094
 20
12.0042497641
 30
0.0
 10
14.5745656567
 20
11.9929002397
 30
0.0
 10
14.5582268765
 20
11.9829446226
 30
0.0
 10
14.540956391
 20
11.9745434598
 30
0.0
 10
14.5230426406
 20
11.9678485002
 30
0.0
 10
14.5047877997
 20
11.9629675344
 30
0.0
 10
14.4865171419
 20
11.9600008627
 30
0.0
 10
14.4743338528
 20
11.9593023727
 30
0.0
 10
14.4683380144
 20
11.9593023727
 30
0.0
  0
SPLINE
  5
402
100
AcDbEntity
  8
0
100
AcDbSpline
 62
7
  6
CONTINUOUS
 70
0
 71
3
 72
15
 73
11
 74
0
 42
0.0000001
 43
0.0000001
 44
0.0000000001
 40
0.0
 40
0.0
 40
0.0
 40
0.0
 40
0.139561402
 40
0.2751094341
 40
0.4061334168
 40
0.5324804485
 40
0.6544447088
 40
0.7725214341
 40
0.8874178622
 40
1.0
 40
1.0
 40
1.0
 40
1.0
 10
14.4683380144
 20
11.9593023727
 30
0.0
 10
14.4636159376
 20
11.9593023727
 30
0.0
 10
14.4543011779
 20
11.9597239212
 30
0.0
 10
14.4406746052
 20
11.9616564819
 30
0.0
 10
14.427747402
 20
11.9648679473
 30
0.0
 10
14.4156855934
 20
11.9693365392
 30
0.0
 10
14.4046225418
 20
11.9749986239
 30
0.0
 10
14.394686147
 20
11.9818060049
 30
0.0
 10
14.3859920743
 20
11.9896761417
 30
0.0
 10
14.3810513181
 20
11.9956192314
 30
0.0
 10
14.3788402578
 20
11.9987210771
 30
0.0
  0
SPLINE
  5
403
100
AcDbEntity
  8
0
100
AcDbSpline
 62
7
  6
CONTINUOUS
 70
0
 71
3
 72
18
 73
14
 74
0
 42
0.0000001
 43
0.0000001
 44
0.0000000001
 40
0.0
 40
0.0
 40
0.0
 40
0.0
 40
0.0542207754
 40
0.1085061013
 40
0.1632083613
 40
0.2186676689
 40
0.332832562
 40
0.4529955551
 40
0.5800747779
 40
0.6463188039
 40
0.7142468843
 40
0.8546100502
 40
1.0
 40
1.0
 40
1.0
 40
1.0
 10
14.3759962517
 20
12.0030075122
 30
0.0
 10
14.3744310396
 20
12.0055476151
 30
0.0
 10
14.3715939615
 20
12.010819783
 30
0.0
 10
14.3682869136
 20
12.0191905303
 30
0.0
 10
14.3659602179
 20
12.027957362
 30
0.0
 10
14.3641771958
 20
12.0401949272
 30
0.0
 10
14.3645340401
 20
12.0562700792
 30
0.0
 10
14.3690001465
 20
12.0757678064
 30
0.0
 10
14.375826485
 20
12.0917074734
 30
0.0
 10
14.3830308333
 20
12.1041608224
 30
0.0
 10
14.3915759679
 20
12.1166352339
 30
0.0
 10
14.4043254495
 20
12.1314288987
 30
0.0
 10
14.4161258098
 20
12.1418969892
 30
0.0
 10
14.4224306208
 20
12.1468220339
 30
0.0
  0
SPLINE
  5
404
100
AcDbEntity
  8
0
100
AcDbSpline
 62
7
  6
CONTINUOUS
 70
0
 71
3
 72
11
 73
7
 74
0
 42
0.0000001
 43
0.0000001
 44
0.0000000001
 40
0.0
 40
0.0
 40
0.0
 40
0.0
 40
0.2566025993
 40
0.5103500784
 40
0.7590214656
 40
1.0
 40
1.0
 40
1.0
 40
1.0
 10
14.4619545804
 20
12.170822533
 30
0.0
 10
14.468152206
 20
12.173669207
 30
0.0
 10
14.4807741185
 20
12.1787112015
 30
0.0
 10
14.5002085325
 20
12.1842538314
 30
0.0
 10
14.5197137202
 20
12.1876285977
 30
0.0
 10
14.5327375533
 20
12.1884254938
 30
0.0
 10
14.539142414
 20
12.1884254938
 30
0.0
  0
SPLINE
  5
405
100
AcDbEntity
  8
0
100
AcDbSpline
 62
7
  6
CONTINUOUS
 70
0
 71
3
 72
9
 73
5
 74
0
 42
0.0000001
 43
0.0000001
 44
0.0000000001
 40
0.0
 40
0.0
 40
0.0
 40
0.0
 40
0.2434244311
 40
1.0
 40
1.0
 40
1.0
 40
1.0
 10
14.0665826894
 20
12.2338341489
 30
0.0
 10
14.0729251314
 20
12.2376343509
 30
0.0
 10
14.0992705119
 20
12.2527588414
 30
0.0
 10
14.1267045276
 20
12.2659638847
 30
0.0
 10
14.1478542396
 20
12.2749517973
 30
0.0
  0
SPLINE
  5
406
100
AcDbEntity
  8
0
100
AcDbSpline
 62
7
  6
CONTINUOUS
 70
0
 71
3
 72
24
 73
20
 74
0
 42
0.0000001
 43
0.0000001
 44
0.0000000001
 40
0.0
 40
0.0
 40
0.0
 40
0.0
 40
0.0653074664
 40
0.1326197978
 40
0.2012963661
 40
0.2707959308
 40
0.3405590676
 40
0.4099646322
 40
0.4784108006
 40
0.545351371
 40
0.6103163936
 40
0.6729410427
 40
0.7329999407
 40
0.7904374115
 40
0.8453966601
 40
0.8982302614
 40
0.9495032279
 40
0.9748046792
 40
1.0
 40
1.0
 40
1.0
 40
1.0
 10
14.4689677699
 20
11.945253004
 30
0.0
 10
14.4755691159
 20
11.945253004
 30
0.0
 10
14.4889840261
 20
11.9460430708
 30
0.0
 10
14.5090872051
 20
11.949403894
 30
0.0
 10
14.5291477309
 20
11.9549267289
 30
0.0
 10
14.5487937667
 20
11.9624919139
 30
0.0
 10
14.5676731672
 20
11.9719717423
 30
0.0
 10
14.5854524339
 20
11.9831847653
 30
0.0
 10
14.6018003035
 20
11.9959413448
 30
0.0
 10
14.6164283525
 20
12.0100014304
 30
0.0
 10
14.6290641257
 20
12.0251213481
 30
0.0
 10
14.639484578
 20
12.0410255291
 30
0.0
 10
14.6474894542
 20
12.0574367043
 30
0.0
 10
14.6529324167
 20
12.0740603686
 30
0.0
 10
14.6556956562
 20
12.0906025133
 30
0.0
 10
14.6557163822
 20
12.1067572625
 30
0.0
 10
14.6534119508
 20
12.1197138343
 30
0.0
 10
14.6502180836
 20
12.1295050662
 30
0.0
 10
14.6481825595
 20
12.1341960199
 30
0.0
 10
14.6470602206
 20
12.1364821493
 30
0.0
  0
SPLINE
  5
407
100
AcDbEntity
  8
0
100
AcDbSpline
 62
7
  6
CONTINUOUS
 70
0
 71
3
 72
14
 73
10
 74
0
 42
0.0000001
 43
0.0000001
 44
0.0000000001
 40
0.0
 40
0.0
 40
0.0
 40
0.0
 40
0.1413077374
 40
0.2778292168
 40
0.5343802064
 40
0.6555531415
 40
0.7727849972
 40
0.8871457045
 40
1.0
 40
1.0
 40
1.0
 40
1.0
 10
14.4689677699
 20
11.945253004
 30
0.0
 10
14.4632358483
 20
11.945253004
 30
0.0
 10
14.4519523543
 20
11.9458326352
 30
0.0
 10
14.4305317147
 20
11.9493043294
 30
0.0
 10
14.4105738454
 20
11.9562849384
 30
0.0
 10
14.3934146786
 20
11.9668276568
 30
0.0
 10
14.382439029
 20
11.9761026169
 30
0.0
 10
14.3733099127
 20
11.9867586156
 30
0.0
 10
14.3685384212
 20
11.9947042576
 30
0.0
 10
14.3665210452
 20
11.9988135179
 30
0.0
  0
SPLINE
  5
408
100
AcDbEntity
  8
0
100
AcDbSpline
 62
7
  6
CONTINUOUS
 70
0
 71
3
 72
25
 73
21
 74
0
 42
0.0000001
 43
0.0000001
 44
0.0000000001
 40
0.0
 40
0.0
 40
0.0
 40
0.0
 40
0.0696437483
 40
0.1427628644
 40
0.2181047488
 40
0.2944484942
 40
0.3706586419
 40
0.4456788019
 40
0.5185276338
 40
0.588345664
 40
0.6544067553
 40
0.6858749475
 40
0.7162297568
 40
0.7734615252
 40
0.8261197143
 40
0.8744385056
 40
0.9189364789
 40
0.9604016239
 40
0.980364342
 40
1.0
 40
1.0
 40
1.0
 40
1.0
 10
14.34694571
 20
11.530967821
 30
0.0
 10
14.3490453887
 20
11.5249105662
 30
0.0
 10
14.3530677198
 20
11.5123945255
 30
0.0
 10
14.3583841757
 20
11.4930279496
 30
0.0
 10
14.3629565463
 20
11.4728377232
 30
0.0
 10
14.3665733113
 20
11.4521638938
 30
0.0
 10
14.3690302861
 20
11.4313473464
 30
0.0
 10
14.3701371438
 20
11.4107340675
 30
0.0
 10
14.369733909
 20
11.3906782205
 30
0.0
 10
14.3677061174
 20
11.3715457087
 30
0.0
 10
14.3645670472
 20
11.356430631
 30
0.0
 10
14.3611724459
 20
11.3451516351
 30
0.0
 10
14.3573767391
 20
11.3348648785
 30
0.0
 10
14.3517260184
 20
11.3232070022
 30
0.0
 10
14.3434529713
 20
11.3111463408
 30
0.0
 10
14.3340370874
 20
11.3015174726
 30
0.0
 10
14.3237733952
 20
11.2944752286
 30
0.0
 10
14.3146204595
 20
11.2908354693
 30
0.0
 10
14.3072802057
 20
11.2894048642
 30
0.0
 10
14.3036305473
 20
11.2891668202
 30
0.0
 10
14.3018230449
 20
11.2891672515
 30
0.0
  0
SPLINE
  5
409
100
AcDbEntity
  8
0
100
AcDbSpline
 62
7
  6
CONTINUOUS
 70
0
 71
3
 72
15
 73
11
 74
0
 42
0.0000001
 43
0.0000001
 44
0.0000000001
 40
0.0
 40
0.0
 40
0.0
 40
0.0
 40
0.1380668811
 40
0.2714437868
 40
0.4004206154
 40
0.525434853
 40
0.6471241113
 40
0.7662276989
 40
0.8835640128
 40
1.0
 40
1.0
 40
1.0
 40
1.0
 10
15.6651173819
 20
11.225105562
 30
0.0
 10
15.671290429
 20
11.2125262147
 30
0.0
 10
15.6825321003
 20
11.1873409375
 30
0.0
 10
15.6961242669
 20
11.1489965389
 30
0.0
 10
15.7060817807
 20
11.1109115931
 30
0.0
 10
15.7123383689
 20
11.0732441663
 30
0.0
 10
15.7148776032
 20
11.0361451552
 30
0.0
 10
15.7136789863
 20
10.9997527629
 30
0.0
 10
15.7087412304
 20
10.9642166328
 30
0.0
 10
15.7029635817
 20
10.9411492516
 30
0.0
 10
15.699475738
 20
10.9298586469
 30
0.0
  0
SPLINE
  5
40A
100
AcDbEntity
  8
0
100
AcDbSpline
 62
7
  6
CONTINUOUS
 70
0
 71
3
 72
25
 73
21
 74
0
 42
0.0000001
 43
0.0000001
 44
0.0000000001
 40
0.0
 40
0.0
 40
0.0
 40
0.0
 40
0.0687853407
 40
0.1410727979
 40
0.2159507751
 40
0.2924063281
 40
0.3694042611
 40
0.4458941005
 40
0.5208429928
 40
0.5932507448
 40
0.662177825
 40
0.7267862094
 40
0.7863493773
 40
0.8403316259
 40
0.888403152
 40
0.9305903003
 40
0.9496203257
 40
0.9674117121
 40
0.9841326571
 40
1.0
 40
1.0
 40
1.0
 40
1.0
 10
14.3451718592
 20
11.5301167409
 30
0.0
 10
14.3466084049
 20
11.5243975902
 30
0.0
 10
14.3491608305
 20
11.5125667224
 30
0.0
 10
14.3520068327
 20
11.4942648803
 30
0.0
 10
14.3539368525
 20
11.475182958
 30
0.0
 10
14.3549196866
 20
11.4556252433
 30
0.0
 10
14.3549357981
 20
11.4359047987
 30
0.0
 10
14.3539891105
 20
11.4163362403
 30
0.0
 10
14.3520906859
 20
11.3972319333
 30
0.0
 10
14.3492768012
 20
11.3788955529
 30
0.0
 10
14.3455867026
 20
11.3616193323
 30
0.0
 10
14.3410875905
 20
11.3456746547
 30
0.0
 10
14.335843033
 20
11.331313255
 30
0.0
 10
14.3299435736
 20
11.3187510548
 30
0.0
 10
14.323467257
 20
11.30818429
 30
0.0
 10
14.3174709443
 20
11.3009226784
 30
0.0
 10
14.3124396507
 20
11.2963717094
 30
0.0
 10
14.3087147247
 20
11.2936718
 30
0.0
 10
14.3049234994
 20
11.291579207
 30
0.0
 10
14.3023031254
 20
11.2905766578
 30
0.0
 10
14.3009986125
 20
11.2901911939
 30
0.0
  0
SPLINE
  5
40B
100
AcDbEntity
  8
0
100
AcDbSpline
 62
7
  6
CONTINUOUS
 70
0
 71
3
 72
37
 73
33
 74
0
 42
0.0000001
 43
0.0000001
 44
0.0000000001
 40
0.0
 40
0.0
 40
0.0
 40
0.0
 40
0.0265178047
 40
0.0543696519
 40
0.0835399341
 40
0.1139986079
 40
0.1457001296
 40
0.1785723315
 40
0.2473666873
 40
0.2830602863
 40
0.3194176765
 40
0.3562825185
 40
0.3934890812
 40
0.4308687267
 40
0.4682496799
 40
0.505460027
 40
0.5423313953
 40
0.6143808744
 40
0.6832039234
 40
0.7160936082
 40
0.7478171239
 40
0.7782966902
 40
0.8074788462
 40
0.8353399525
 40
0.8618947777
 40
0.8871938161
 40
0.8994067931
 40
0.9113473047
 40
0.9344806349
 40
0.9568002346
 40
0.9785478803
 40
1.0
 40
1.0
 40
1.0
 40
1.0
 10
14.2259595788
 20
11.225105562
 30
0.0
 10
14.2308020042
 20
11.2152377366
 30
0.0
 10
14.2417623909
 20
11.1955001352
 30
0.0
 10
14.261221352
 20
11.1668094013
 30
0.0
 10
14.2839722939
 20
11.1385244605
 30
0.0
 10
14.3098482466
 20
11.110847528
 30
0.0
 10
14.3386729409
 20
11.0839552162
 30
0.0
 10
14.3814260132
 20
11.0488619477
 30
0.0
 10
14.4286092039
 20
11.0167385199
 30
0.0
 10
14.4793023831
 20
10.9877459309
 30
0.0
 10
14.5196011424
 20
10.9673462135
 30
0.0
 10
14.5614255808
 20
10.9487027149
 30
0.0
 10
14.6044924149
 20
10.9319358895
 30
0.0
 10
14.6485109528
 20
10.9171700178
 30
0.0
 10
14.6931775034
 20
10.9044940857
 30
0.0
 10
14.7381927119
 20
10.8940044581
 30
0.0
 10
14.7977968142
 20
10.8831060411
 30
0.0
 10
14.8711755121
 20
10.8751660512
 30
0.0
 10
14.9433652527
 20
10.8749778139
 30
0.0
 10
14.9984980964
 20
10.8797829185
 30
0.0
 10
15.0374995784
 20
10.8856888783
 30
0.0
 10
15.0745100151
 20
10.8939072253
 30
0.0
 10
15.1092819096
 20
10.9043829506
 30
0.0
 10
15.1415782012
 20
10.9170582568
 30
0.0
 10
15.1711833262
 20
10.9318381393
 30
0.0
 10
15.1937031784
 20
10.9460119139
 30
0.0
 10
15.2101046476
 20
10.958324223
 30
0.0
 10
15.2250952395
 20
10.9709661605
 30
0.0
 10
15.2419043927
 20
10.9878933014
 30
0.0
 10
15.2588774305
 20
11.0100840828
 30
0.0
 10
15.2723149148
 20
11.0337840809
 30
0.0
 10
15.2788518321
 20
11.0505342079
 30
0.0
 10
15.2814771175
 20
11.0590300006
 30
0.0
  0
SPLINE
  5
40C
100
AcDbEntity
  8
0
100
AcDbSpline
 62
7
  6
CONTINUOUS
 70
0
 71
3
 72
39
 73
35
 74
0
 42
0.0000001
 43
0.0000001
 44
0.0000000001
 40
0.0
 40
0.0
 40
0.0
 40
0.0
 40
0.0265217587
 40
0.0543710186
 40
0.0835354128
 40
0.1139908432
 40
0.1456934161
 40
0.1785641151
 40
0.2125005394
 40
0.2473823579
 40
0.2830750874
 40
0.3194316689
 40
0.3562943613
 40
0.3934992507
 40
0.4682347901
 40
0.5422915385
 40
0.6143384681
 40
0.6492347062
 40
0.6831863247
 40
0.7160748618
 40
0.747797361
 40
0.7782762691
 40
0.8074567298
 40
0.8353176842
 40
0.8618704337
 40
0.8871692407
 40
0.9113114338
 40
0.9344443015
 40
0.9456975942
 40
0.9567756439
 40
0.9677102881
 40
0.9785353881
 40
0.9892863672
 40
1.0
 40
1.0
 40
1.0
 40
1.0
 10
15.8012796888
 20
11.6657269487
 30
0.0
 10
15.7926692803
 20
11.6832731165
 30
0.0
 10
15.773184961
 20
11.718365703
 30
0.0
 10
15.73859121
 20
11.7693709003
 30
0.0
 10
15.6981447635
 20
11.819647091
 30
0.0
 10
15.6521478294
 20
11.8688514423
 30
0.0
 10
15.6009016816
 20
11.9166551696
 30
0.0
 10
15.5447604525
 20
11.9627516186
 30
0.0
 10
15.4840965075
 20
12.0068185419
 30
0.0
 10
15.4193275496
 20
12.0485637217
 30
0.0
 10
15.3508901919
 20
12.0877004887
 30
0.0
 10
15.2792515596
 20
12.1239657976
 30
0.0
 10
15.2048958474
 20
12.1571139154
 30
0.0
 10
15.1026728218
 20
12.1969018014
 30
0.0
 10
14.9715141186
 20
12.2374850026
 30
0.0
 10
14.8119705213
 20
12.2707714811
 30
0.0
 10
14.6791040408
 20
12.2851522004
 30
0.0
 10
14.5752688633
 20
12.2880453728
 30
0.0
 10
14.5002820595
 20
12.2859471604
 30
0.0
 10
14.4278768133
 20
12.279635856
 30
0.0
 10
14.3585414516
 20
12.2691344451
 30
0.0
 10
14.2927431724
 20
12.2545289071
 30
0.0
 10
14.2309280859
 20
12.2358971272
 30
0.0
 10
14.1735096088
 20
12.2133729079
 30
0.0
 10
14.1208800185
 20
12.187086142
 30
0.0
 10
14.0733935787
 20
12.1572089898
 30
0.0
 10
14.0313872524
 20
12.1239257018
 30
0.0
 10
14.0009119638
 20
12.0932308111
 30
0.0
 10
13.9797140062
 20
12.0672578679
 30
0.0
 10
13.9655017004
 20
12.0472591444
 30
0.0
 10
13.9528564088
 20
12.0266038433
 30
0.0
 10
13.9417979537
 20
12.005327279
 30
0.0
 10
13.9323474203
 20
11.9834675878
 30
0.0
 10
13.9271292721
 20
11.9685175752
 30
0.0
 10
13.9247989344
 20
11.9609739865
 30
0.0
  0
SPLINE
  5
40D
100
AcDbEntity
  8
0
100
AcDbSpline
 62
7
  6
CONTINUOUS
 70
0
 71
3
 72
24
 73
20
 74
0
 42
0.0000001
 43
0.0000001
 44
0.0000000001
 40
0.0
 40
0.0
 40
0.0
 40
0.0
 40
0.0652662785
 40
0.1327450395
 40
0.201571407
 40
0.2710185221
 40
0.3403969971
 40
0.4090404491
 40
0.4763738325
 40
0.5419561956
 40
0.6054876601
 40
0.6668194715
 40
0.7259767374
 40
0.7831398006
 40
0.8386472924
 40
0.865938524
 40
0.8929891419
 40
0.9465814708
 40
1.0
 40
1.0
 40
1.0
 40
1.0
 10
14.4692728117
 20
11.944631394
 30
0.0
 10
14.4759034625
 20
11.944631394
 30
0.0
 10
14.4893967091
 20
11.9453280708
 30
0.0
 10
14.5096878197
 20
11.9482823439
 30
0.0
 10
14.5300450575
 20
11.9531513553
 30
0.0
 10
14.5500733787
 20
11.9598663657
 30
0.0
 10
14.5693986201
 20
11.9683545071
 30
0.0
 10
14.5876592315
 20
11.9785116539
 30
0.0
 10
14.6044990413
 20
11.9902265255
 30
0.0
 10
14.6195955275
 20
12.0033449201
 30
0.0
 10
14.632641183
 20
12.0176991871
 30
0.0
 10
14.6433747239
 20
12.0330748541
 30
0.0
 10
14.651559129
 20
12.0492334888
 30
0.0
 10
14.657026626
 20
12.0658858532
 30
0.0
 10
14.6592235136
 20
12.0800072719
 30
0.0
 10
14.6595190623
 20
12.0911755948
 30
0.0
 10
14.6588554874
 20
12.102133197
 30
0.0
 10
14.6562541076
 20
12.1155765155
 30
0.0
 10
14.6523135172
 20
12.125779216
 30
0.0
 10
14.6499220273
 20
12.1306508713
 30
0.0
  0
SPLINE
  5
40E
100
AcDbEntity
  8
0
100
AcDbSpline
 62
7
  6
CONTINUOUS
 70
0
 71
3
 72
9
 73
5
 74
0
 42
0.0000001
 43
0.0000001
 44
0.0000000001
 40
0.0
 40
0.0
 40
0.0
 40
0.0
 40
0.4935658538
 40
1.0
 40
1.0
 40
1.0
 40
1.0
 10
14.4811026878
 20
12.3241935498
 30
0.0
 10
14.5060782056
 20
12.3255410573
 30
0.0
 10
14.5567650681
 20
12.3268509088
 30
0.0
 10
14.6074474228
 20
12.325506844
 30
0.0
 10
14.6330777518
 20
12.3241935498
 30
0.0
  0
ELLIPSE
  5
40F
100
AcDbEntity
  8
0
100
AcDbEllipse
 62
7
  6
CONTINUOUS
 10
3.6460009533
 20
13.8687977814
 30
0.0
 11
-0.0
 21
0.075
 31
0.0
 40
0.5773502692
 41
-1.5707963268
 42
-0.0
  0
ELLIPSE
  5
410
100
AcDbEntity
  8
0
100
AcDbEllipse
 62
7
  6
CONTINUOUS
 10
3.6460009533
 20
11.8937977814
 30
0.0
 11
-0.0
 21
0.075
 31
0.0
 40
0.5773502692
 41
-3.1415926536
 42
-1.5707963268
  0
ELLIPSE
  5
411
100
AcDbEntity
  8
0
100
AcDbEllipse
 62
7
  6
CONTINUOUS
 10
8.4957432145
 20
13.8687977814
 30
0.0
 11
0.0
 21
0.075
 31
0.0
 40
0.5773502692
 41
0.0
 42
1.5707963268
  0
ELLIPSE
  5
412
100
AcDbEntity
  8
0
100
AcDbEllipse
 62
7
  6
CONTINUOUS
 10
5.0554332506
 20
11.8133580724
 30
0.0
 11
-0.008806219
 21
0.0373037424
 31
0.0
 40
0.1270166538
 41
-3.6951670125
 42
-3.1715682369
  0
ELLIPSE
  5
413
100
AcDbEntity
  8
0
100
AcDbEllipse
 62
7
  6
CONTINUOUS
 10
8.4957432145
 20
11.8937977814
 30
0.0
 11
0.0
 21
0.075
 31
0.0
 40
0.5773502692
 41
-4.7123889804
 42
-3.1415926536
  0
ELLIPSE
  5
414
100
AcDbEntity
  8
0
100
AcDbEllipse
 62
7
  6
CONTINUOUS
 10
17.8234381783
 20
12.8364201356
 30
0.0
 11
-0.0477110078
 21
0.0681883936
 31
0.0
 40
0.6545760187
 41
-0.4294874613
 42
0.4705108309
  0
ELLIPSE
  5
415
100
AcDbEntity
  8
0
100
AcDbEllipse
 62
7
  6
CONTINUOUS
 10
17.3453571896
 20
11.2893494891
 30
0.0
 11
-0.0477110078
 21
0.0681883936
 31
0.0
 40
0.6545760187
 41
0.4705108309
 42
2.0413071577
  0
ELLIPSE
  5
416
100
AcDbEntity
  8
0
100
AcDbEllipse
 62
7
  6
CONTINUOUS
 10
13.3565297506
 20
12.8364201356
 30
0.0
 11
0.0248073937
 21
0.0749975452
 31
0.0
 40
0.0244606467
 41
-0.8919091798
 42
0.0080914919
  0
ELLIPSE
  5
417
100
AcDbEntity
  8
0
100
AcDbEllipse
 62
7
  6
CONTINUOUS
 10
12.8784487619
 20
11.2893494891
 30
0.0
 11
0.0248073937
 21
0.0749975452
 31
0.0
 40
0.0244606467
 41
-2.4627055066
 42
-0.8919091798
  0
ENDSEC
  0
SECTION
  2
OBJECTS
  0
DICTIONARY
  5
C
100
AcDbDictionary
280
0
281
1
  3
ACAD_GROUP
350
D
  3
ACAD_MLINESTYLE
350
17
  3
ACAD_LAYOUT
350
1A
  3
ACAD_PLOTSETTINGS
350
19
  3
ACAD_PLOTSTYLENAME
350
E
  0
DICTIONARY
  5
D
102
{ACAD_REACTORS
330
C
102
}
100
AcDbDictionary
280
0
281
1
  0
ACDBDICTIONARYWDFLT
  5
E
102
{ACAD_REACTORS
330
C
102
}
100
AcDbDictionary
281
1
  3
Normal
350
F
100
AcDbDictionaryWithDefault
340
F
  0
DICTIONARY
  5
17
102
{ACAD_REACTORS
330
C
102
}
100
AcDbDictionary
280
0
281
1
  3
Standard
350
18
  0
DICTIONARY
  5
19
102
{ACAD_REACTORS
330
C
102
}
100
AcDbDictionary
281
1
  0
DICTIONARY
  5
1A
102
{ACAD_REACTORS
330
C
102
}
100
AcDbDictionary
281
1
  3
Model
350
418
  3
Layout1
350
419
  0
ACDBPLACEHOLDER
  5
F
102
{ACAD_REACTORS
330
E
102
}
  0
MLINESTYLE
  5
18
102
{ACAD_REACTORS
330
17
102
}
100
AcDbMlineStyle
  2
STANDARD
 70
0
  3

 62
256
 51
90.0
 52
90.0
 71
2
 49
0.5
 62
256
  6
BYLAYER
 49
-0.5
 62
256
  6
BYLAYER
  0
LAYOUT
  5
418
102
{ACAD_REACTORS
330
1A
102
}
100
AcDbPlotSettings
  1

  2
none_device
  4
ANSI_C_(22.00_x_17.00_Inches)
  6

 40
0.0
 41
0.0
 42
0.0
 43
0.0
 44
558.8
 45
431.8
 46
0.0
 47
0.0
 48
0.0
 49
0.0
140
0.0
141
0.0
142
1.0
143
1.0
 70
1024
 72
0
 73
0
 74
0
  7

 75
0
147
1.0
148
0.0
149
0.0
100
AcDbLayout
  1
Model
 70
0
 71
0
 10
0.0
 20
0.0
 11
22.0
 21
17.0
 12
0.0
 22
0.0
 32
0.0
 14
0.0
 24
0.0
 34
0.0
 15
0.0
 25
0.0
 35
0.0
146
0.0
 13
0.0
 23
0.0
 33
0.0
 16
1.0
 26
0.0
 36
0.0
 17
0.0
 27
1.0
 37
0.0
 76
0
330
22E
345
0
346
0
  0
LAYOUT
  5
419
102
{ACAD_REACTORS
330
1A
102
}
100
AcDbPlotSettings
  1

  2
none_device
  4
ANSI_C_(22.00_x_17.00_Inches)
  6

 40
0.0
 41
0.0
 42
0.0
 43
0.0
 44
558.8
 45
431.8
 46
0.0
 47
0.0
 48
0.0
 49
0.0
140
0.0
141
0.0
142
1.0
143
1.0
 70
0
 72
0
 73
0
 74
0
  7

 75
0
147
1.0
148
0.0
149
0.0
100
AcDbLayout
  1
Layout1
 70
0
 71
1
 10
0.0
 20
0.0
 11
22.0
 21
17.0
 12
0.0
 22
0.0
 32
0.0
 14
0.0
 24
0.0
 34
0.0
 15
0.0
 25
0.0
 35
0.0
146
0.0
 13
0.0
 23
0.0
 33
0.0
 16
1.0
 26
0.0
 36
0.0
 17
0.0
 27
1.0
 37
0.0
 76
0
330
22F
345
0
346
0
  0
ENDSEC
  0
EOF