999
DXF file: _cgs_temp_output.dxf
999
Pro/ENGINEER 2016360 by Parametric Technology Corporation
  0
SECTION
  2
HEADER
  9
$ACADVER
  1
AC1021
  9
$DWGCODEPAGE
  3
ANSI_1252
  9
$EXTMAX
 10
22.0
 20
17.0
 30
0.0
  9
$EXTMIN
 10
0.0
 20
0.0
 30
0.0
  9
$LIMMIN
 10
0.0
 20
0.0
  9
$LIMMAX
 10
22.0
 20
17.0
  9
$VIEWCTR
 10
11.0
 20
8.5
  9
$VIEWSIZE
 40
17.0
  9
$CLAYER
  8
0
  9
$LTSCALE
 40
1.21
  9
$CELTYPE
  6
BYLAYER
  9
$DIMSCALE
 40
1.0
  9
$DIMASZ
 40
0.1875
  9
$DIMEXO
 40
0.0625
  9
$DIMDLI
 40
0.836
  9
$DIMEXE
 40
0.125
  9
$DIMCEN
 40
0.198
  9
$DIMLFAC
 40
1.0
  9
$DIMBLK
  1
_CLOSED
  9
$DIMALT
 70
0
  9
$DIMALTF
 40
25.4
  9
$DIMTXT
 40
0.15625
  9
$DIMTOL
 70
0
  9
$DIMLIM
 70
0
  9
$DIMTFAC
 40
1.0
  9
$DIMGAP
 40
0.09
  9
$DIMDSEP
 70
46
  9
$AUNITS
 70
0
  9
$PDMODE
 70
3
  9
$PDSIZE
 40
0.3125
  9
$HANDSEED
  5
340
  9
$TILEMODE
 70
1
  9
$MEASUREMENT
 70
0
  9
$INSUNITS
 70
1
  0
ENDSEC
  0
SECTION
  2
CLASSES
  0
CLASS
  1
ACDBDICTIONARYWDFLT
  2
AcDbDictionaryWithDefault
  3
AutoCAD 2000
 90
0
 91
1
280
0
281
0
  0
CLASS
  1
ACDBPLACEHOLDER
  2
AcDbPlaceHolder
  3
AutoCAD 2000
 90
0
 91
1
280
0
281
0
  0
CLASS
  1
LAYOUT
  2
AcDbLayout
  3
AutoCAD 2000
 90
0
 91
0
280
0
281
0
  0
ENDSEC
  0
SECTION
  2
TABLES
  0
TABLE
  2
VPORT
  5
8
100
AcDbSymbolTable
 70
2
  0
VPORT
  5
1F4
100
AcDbSymbolTableRecord
100
AcDbViewportTableRecord
  2
*ACTIVE
 70
0
 10
0.0
 20
0.0
 11
1.0
 21
1.0
 12
11.0
 22
8.5
 13
0.0
 23
0.0
 14
1.0
 24
1.0
 15
0.0
 25
0.0
 16
0.0
 26
0.0
 36
1.0
 17
0.0
 27
0.0
 37
0.0
 40
17.0
 41
1.2941176471
 42
50.0
 43
0.0
 44
0.0
 50
0.0
 51
0.0
 71
0
 72
100
 73
1
 74
1
 75
0
 76
0
 77
0
 78
0
  0
ENDTAB
  0
TABLE
  2
LTYPE
  5
5
100
AcDbSymbolTable
 70
6
  0
LTYPE
  5
14
100
AcDbSymbolTableRecord
100
AcDbLinetypeTableRecord
  2
BYBLOCK
 70
0
  3

 72
65
 73
0
 40
0.0
  0
LTYPE
  5
15
100
AcDbSymbolTableRecord
100
AcDbLinetypeTableRecord
  2
BYLAYER
 70
0
  3

 72
65
 73
0
 40
0.0
  0
LTYPE
  5
16
100
AcDbSymbolTableRecord
100
AcDbLinetypeTableRecord
  2
CONTINUOUS
 70
64
  3
Solid line
 72
65
 73
0
 40
0.0
  0
LTYPE
  5
1F5
100
AcDbSymbolTableRecord
100
AcDbLinetypeTableRecord
  2
CENTER
 70
64
  3
____ _ ____ _ ____ _ ____ _ ____ _ ____ _ ____
 72
65
 73
4
 40
0.6
 49
0.375
 74
0
 49
-0.075
 74
0
 49
0.075
 74
0
 49
-0.075
 74
0
  0
LTYPE
  5
1F6
100
AcDbSymbolTableRecord
100
AcDbLinetypeTableRecord
  2
HIDDEN
 70
64
  3
- - - - - - - - - - - - - - - - - - - -
 72
65
 73
2
 40
0.2
 49
0.1
 74
0
 49
-0.1
 74
0
  0
LTYPE
  5
1F7
100
AcDbSymbolTableRecord
100
AcDbLinetypeTableRecord
  2
PHANTOM
 70
64
  3
_____ _ _ _____ _ _ _____ _ _ _____
 72
65
 73
6
 40
0.8
 49
0.45
 74
0
 49
-0.05
 74
0
 49
0.1
 74
0
 49
-0.05
 74
0
 49
0.1
 74
0
 49
-0.05
 74
0
  0
LTYPE
  5
1F8
100
AcDbSymbolTableRecord
100
AcDbLinetypeTableRecord
  2
DOT
 70
64
  3
. . . . . . . . . . . . . . . . . . . .
 72
65
 73
2
 40
0.2
 49
0.1
 74
0
 49
-0.1
 74
0
  0
LTYPE
  5
1F9
100
AcDbSymbolTableRecord
100
AcDbLinetypeTableRecord
  2
DASHED
 70
64
  3
- - - - - - - - - - - - - - - - - - - -
 72
65
 73
2
 40
0.2
 49
0.1
 74
0
 49
-0.1
 74
0
  0
ENDTAB
  0
TABLE
  2
LAYER
  5
2
100
AcDbSymbolTable
 70
36
  0
LAYER
  5
10
100
AcDbSymbolTableRecord
100
AcDbLayerTableRecord
  2
0
 70
0
 62
7
  6
CONTINUOUS
370
-3
390
F
  0
LAYER
  5
1FA
100
AcDbSymbolTableRecord
100
AcDbLayerTableRecord
  2
DEFAULT_1
 70
0
 62
7
  6
CENTER
370
-3
390
F
  0
LAYER
  5
1FB
100
AcDbSymbolTableRecord
100
AcDbLayerTableRecord
  2
DEFAULT_2
 70
0
 62
8
  6
HIDDEN
370
-3
390
F
  0
LAYER
  5
1FC
100
AcDbSymbolTableRecord
100
AcDbLayerTableRecord
  2
DEFAULT_3
 70
0
 62
7
  6
PHANTOM
370
-3
390
F
  0
LAYER
  5
1FD
100
AcDbSymbolTableRecord
100
AcDbLayerTableRecord
  2
01_ALL_DTM_PLN
 70
0
 62
7
  6
CONTINUOUS
370
-3
390
F
  0
LAYER
  5
1FE
100
AcDbSymbolTableRecord
100
AcDbLayerTableRecord
  2
01__ASM_ALL_DTM_PLN
 70
0
 62
7
  6
CONTINUOUS
370
-3
390
F
  0
LAYER
  5
1FF
100
AcDbSymbolTableRecord
100
AcDbLayerTableRecord
  2
01__ASM_DEF_DTM_PLN
 70
0
 62
7
  6
CONTINUOUS
370
-3
390
F
  0
LAYER
  5
200
100
AcDbSymbolTableRecord
100
AcDbLayerTableRecord
  2
01___PRT_ALL_DTM_PLN
 70
0
 62
7
  6
CONTINUOUS
370
-3
390
F
  0
LAYER
  5
201
100
AcDbSymbolTableRecord
100
AcDbLayerTableRecord
  2
01___PRT_DEF_DTM_PLN
 70
0
 62
7
  6
CONTINUOUS
370
-3
390
F
  0
LAYER
  5
202
100
AcDbSymbolTableRecord
100
AcDbLayerTableRecord
  2
02_ALL_AXES
 70
0
 62
7
  6
CONTINUOUS
370
-3
390
F
  0
LAYER
  5
203
100
AcDbSymbolTableRecord
100
AcDbLayerTableRecord
  2
02__ASM_ALL_AXES
 70
0
 62
7
  6
CONTINUOUS
370
-3
390
F
  0
LAYER
  5
204
100
AcDbSymbolTableRecord
100
AcDbLayerTableRecord
  2
02___PRT_ALL_AXES
 70
0
 62
7
  6
CONTINUOUS
370
-3
390
F
  0
LAYER
  5
205
100
AcDbSymbolTableRecord
100
AcDbLayerTableRecord
  2
03_ALL_CURVES
 70
0
 62
7
  6
CONTINUOUS
370
-3
390
F
  0
LAYER
  5
206
100
AcDbSymbolTableRecord
100
AcDbLayerTableRecord
  2
03__ASM_ALL_CURVES
 70
0
 62
7
  6
CONTINUOUS
370
-3
390
F
  0
LAYER
  5
207
100
AcDbSymbolTableRecord
100
AcDbLayerTableRecord
  2
03___PRT_ALL_CURVES
 70
0
 62
7
  6
CONTINUOUS
370
-3
390
F
  0
LAYER
  5
208
100
AcDbSymbolTableRecord
100
AcDbLayerTableRecord
  2
04_ALL_DTM_PNT
 70
0
 62
7
  6
CONTINUOUS
370
-3
390
F
  0
LAYER
  5
209
100
AcDbSymbolTableRecord
100
AcDbLayerTableRecord
  2
04__ASM_ALL_DTM_PNT
 70
0
 62
7
  6
CONTINUOUS
370
-3
390
F
  0
LAYER
  5
20A
100
AcDbSymbolTableRecord
100
AcDbLayerTableRecord
  2
04___PRT_ALL_DTM_PNT
 70
0
 62
7
  6
CONTINUOUS
370
-3
390
F
  0
LAYER
  5
20B
100
AcDbSymbolTableRecord
100
AcDbLayerTableRecord
  2
05_ALL_DTM_CSYS
 70
0
 62
7
  6
CONTINUOUS
370
-3
390
F
  0
LAYER
  5
20C
100
AcDbSymbolTableRecord
100
AcDbLayerTableRecord
  2
05__ASM_ALL_DTM_CSYS
 70
0
 62
7
  6
CONTINUOUS
370
-3
390
F
  0
LAYER
  5
20D
100
AcDbSymbolTableRecord
100
AcDbLayerTableRecord
  2
05__ASM_DEF_DTM_CSYS
 70
0
 62
7
  6
CONTINUOUS
370
-3
390
F
  0
LAYER
  5
20E
100
AcDbSymbolTableRecord
100
AcDbLayerTableRecord
  2
05___PRT_ALL_DTM_CSYS
 70
0
 62
7
  6
CONTINUOUS
370
-3
390
F
  0
LAYER
  5
20F
100
AcDbSymbolTableRecord
100
AcDbLayerTableRecord
  2
05___PRT_DEF_DTM_CSYS
 70
0
 62
7
  6
CONTINUOUS
370
-3
390
F
  0
LAYER
  5
210
100
AcDbSymbolTableRecord
100
AcDbLayerTableRecord
  2
06_ALL_SURFS
 70
0
 62
7
  6
CONTINUOUS
370
-3
390
F
  0
LAYER
  5
211
100
AcDbSymbolTableRecord
100
AcDbLayerTableRecord
  2
06__ASM_ALL_SURFS
 70
0
 62
7
  6
CONTINUOUS
370
-3
390
F
  0
LAYER
  5
212
100
AcDbSymbolTableRecord
100
AcDbLayerTableRecord
  2
06___PRT_ALL_SURFS
 70
0
 62
7
  6
CONTINUOUS
370
-3
390
F
  0
LAYER
  5
213
100
AcDbSymbolTableRecord
100
AcDbLayerTableRecord
  2
07__ASM_ALL_SKELETONS
 70
0
 62
7
  6
CONTINUOUS
370
-3
390
F
  0
ENDTAB
  0
TABLE
  2
STYLE
  5
3
100
AcDbSymbolTable
 70
1
  0
STYLE
  5
11
100
AcDbSymbolTableRecord
100
AcDbTextStyleTableRecord
  2
STANDARD
 70
0
 40
0.0
 41
0.8
 50
0.0
 71
0
 42
0.2
  3
txt
  4

  0
STYLE
  5
214
100
AcDbSymbolTableRecord
100
AcDbTextStyleTableRecord
  2
TEXTSTYLE_1
 70
0
 40
0.0
 41
0.8
 50
0.0
 71
0
 42
0.2
  3
gdt
  4

  0
ENDTAB
  0
TABLE
  2
VIEW
  5
6
100
AcDbSymbolTable
 70
0
  0
ENDTAB
  0
TABLE
  2
UCS
  5
7
100
AcDbSymbolTable
 70
0
  0
ENDTAB
  0
TABLE
  2
APPID
  5
9
100
AcDbSymbolTable
 70
1
  0
APPID
  5
215
100
AcDbSymbolTableRecord
100
AcDbRegAppTableRecord
  2
ACAD
 70
0
  0
ENDTAB
  0
TABLE
  2
BLOCK_RECORD
  5
1
100
AcDbSymbolTable
 70
0
  0
BLOCK_RECORD
  5
216
100
AcDbSymbolTableRecord
100
AcDbBlockTableRecord
  2
*Model_Space
  0
BLOCK_RECORD
  5
217
100
AcDbSymbolTableRecord
100
AcDbBlockTableRecord
  2
*Paper_Space
  0
ENDTAB
  0
TABLE
  2
DIMSTYLE
  5
A
100
AcDbSymbolTable
 70
1
100
AcDbDimStyleTable
 71
0
  0
DIMSTYLE
105
218
100
AcDbSymbolTableRecord
100
AcDbDimStyleTableRecord
  2
STANDARD
 70
0
  3

  4

 40
1.0
 41
0.1875
 42
0.0625
 43
0.38
 44
0.125
 45
0.0
 46
0.0
 47
0.0001
 48
0.0001
140
0.15625
141
0.09
142
0.0
143
25.4
144
1.0
145
0.0
146
1.0
147
0.09
 71
0.0
 72
0.0
 73
1
 74
1
 75
0
 76
0
 77
0
 78
4
 79
1
170
0
171
3
172
0
173
0
174
0
175
0
176
0
177
0
178
0
270
2
179
4
271
4
272
4
273
2
274
2
275
0
280
0
281
0
282
0
283
1
284
4
285
0
286
0
287
3
288
0
340
11
278
46
  0
ENDTAB
  0
ENDSEC
  0
SECTION
  2
BLOCKS
  0
BLOCK
  5
20
100
AcDbEntity
  8
0
100
AcDbBlockBegin
  2
*Model_Space
 70
0
 10
0.0
 20
0.0
 30
0.0
  3
*Model_Space
  1

  0
ENDBLK
  5
21
100
AcDbEntity
  8
0
100
AcDbBlockEnd
  0
BLOCK
  5
1C
100
AcDbEntity
  8
0
100
AcDbBlockBegin
  2
*Paper_Space
 70
0
 10
0.0
 20
0.0
 30
0.0
  3
*Paper_Space
  1

  0
ENDBLK
  5
1D
100
AcDbEntity
  8
0
100
AcDbBlockEnd
  0
ENDSEC
  0
SECTION
  2
ENTITIES
  0
MTEXT
  5
219
100
AcDbEntity
  8
0
100
AcDbMText
 62
7
  6
CONTINUOUS
  7
STANDARD
 71
1
 72
1
 10
15.9560215477
 20
0.9479130325
 30
0.0
 11
1.0
 21
0.0
 31
0.0
 44
0.9
  1
SCALE: 1:1.000
 40
0.3
 41
3.36
  0
LINE
  5
21A
100
AcDbEntity
  8
0
100
AcDbLine
 62
7
  6
CONTINUOUS
 10
0.0
 20
0.0
 11
0.0
 21
17.0
  0
LINE
  5
21B
100
AcDbEntity
  8
0
100
AcDbLine
 62
7
  6
CONTINUOUS
 10
0.0
 20
0.0
 11
22.0
 21
0.0
  0
LINE
  5
21C
100
AcDbEntity
  8
0
100
AcDbLine
 62
7
  6
CONTINUOUS
 10
0.0
 20
17.0
 11
22.0
 21
17.0
  0
LINE
  5
21D
100
AcDbEntity
  8
0
100
AcDbLine
 62
7
  6
CONTINUOUS
 10
22.0
 20
0.0
 11
22.0
 21
17.0
  0
LINE
  5
21E
100
AcDbEntity
  8
0
100
AcDbLine
 62
7
  6
CONTINUOUS
 10
5.6928672762
 20
5.7671028364
 11
5.6928672762
 21
5.7489134966
  0
LINE
  5
21F
100
AcDbEntity
  8
0
100
AcDbLine
 62
7
  6
CONTINUOUS
 10
5.853487007
 20
5.2547553082
 11
6.4072475454
 21
5.2547553082
  0
LINE
  5
220
100
AcDbEntity
  8
0
100
AcDbLine
 62
7
  6
CONTINUOUS
 10
5.7993509601
 20
5.4318386416
 11
6.4613835922
 21
5.4318386416
  0
LINE
  5
221
100
AcDbEntity
  8
0
100
AcDbLine
 62
7
  6
CONTINUOUS
 10
6.5678672762
 20
5.7489134966
 11
6.5678672762
 21
5.7671028364
  0
LINE
  5
222
100
AcDbEntity
  8
0
100
AcDbLine
 62
7
  6
CONTINUOUS
 10
6.5083720839
 20
10.6000477814
 11
5.6333720839
 21
10.6000477814
  0
LINE
  5
223
100
AcDbEntity
  8
0
100
AcDbLine
 62
7
  6
CONTINUOUS
 10
5.6333720839
 20
10.6000477814
 11
5.6333720839
 21
14.6000477814
  0
LINE
  5
224
100
AcDbEntity
  8
0
100
AcDbLine
 62
7
  6
CONTINUOUS
 10
6.5083720839
 20
10.6000477814
 11
6.5083720839
 21
14.6000477814
  0
LINE
  5
225
100
AcDbEntity
  8
0
100
AcDbLine
 62
7
  6
CONTINUOUS
 10
5.6333720839
 20
14.6000477814
 11
6.5083720839
 21
14.6000477814
  0
LINE
  5
226
100
AcDbEntity
  8
0
100
AcDbLine
 62
7
  6
CONTINUOUS
 10
13.5603552569
 20
5.3723434493
 11
13.5603552569
 21
5.7265100905
  0
LINE
  5
227
100
AcDbEntity
  8
0
100
AcDbLine
 62
7
  6
CONTINUOUS
 10
13.6525883047
 20
5.317444149
 11
13.6681222092
 21
5.2501594163
  0
LINE
  5
228
100
AcDbEntity
  8
0
100
AcDbLine
 62
7
  6
CONTINUOUS
 10
13.8525883047
 20
5.2501594163
 11
13.8681222092
 21
5.317444149
  0
LINE
  5
229
100
AcDbEntity
  8
0
100
AcDbLine
 62
7
  6
CONTINUOUS
 10
14.0525883047
 20
5.317444149
 11
14.0681222092
 21
5.2501594163
  0
LINE
  5
22A
100
AcDbEntity
  8
0
100
AcDbLine
 62
7
  6
CONTINUOUS
 10
14.2525883047
 20
5.2501594163
 11
14.2681222092
 21
5.317444149
  0
LINE
  5
22B
100
AcDbEntity
  8
0
100
AcDbLine
 62
7
  6
CONTINUOUS
 10
14.4525883047
 20
5.317444149
 11
14.4681222092
 21
5.2501594163
  0
LINE
  5
22C
100
AcDbEntity
  8
0
100
AcDbLine
 62
7
  6
CONTINUOUS
 10
14.6525883047
 20
5.2501594163
 11
14.6681222092
 21
5.317444149
  0
LINE
  5
22D
100
AcDbEntity
  8
0
100
AcDbLine
 62
7
  6
CONTINUOUS
 10
14.8525883047
 20
5.317444149
 11
14.8681222092
 21
5.2501594163
  0
LINE
  5
22E
100
AcDbEntity
  8
0
100
AcDbLine
 62
7
  6
CONTINUOUS
 10
15.0525883047
 20
5.2501594163
 11
15.0681222092
 21
5.317444149
  0
LINE
  5
22F
100
AcDbEntity
  8
0
100
AcDbLine
 62
7
  6
CONTINUOUS
 10
13.7371400888
 20
5.1952601159
 11
13.7835704251
 21
5.1952601159
  0
LINE
  5
230
100
AcDbEntity
  8
0
100
AcDbLine
 62
7
  6
CONTINUOUS
 10
14.1371400888
 20
5.1952601159
 11
14.1835704251
 21
5.1952601159
  0
LINE
  5
231
100
AcDbEntity
  8
0
100
AcDbLine
 62
7
  6
CONTINUOUS
 10
14.5371400888
 20
5.1952601159
 11
14.5835704251
 21
5.1952601159
  0
LINE
  5
232
100
AcDbEntity
  8
0
100
AcDbLine
 62
7
  6
CONTINUOUS
 10
14.9371400888
 20
5.1952601159
 11
14.9835704251
 21
5.1952601159
  0
LINE
  5
233
100
AcDbEntity
  8
0
100
AcDbLine
 62
7
  6
CONTINUOUS
 10
15.3371400888
 20
5.1952601159
 11
15.3835704251
 21
5.1952601159
  0
LINE
  5
234
100
AcDbEntity
  8
0
100
AcDbLine
 62
7
  6
CONTINUOUS
 10
15.7371400888
 20
5.1952601159
 11
15.7835704251
 21
5.1952601159
  0
LINE
  5
235
100
AcDbEntity
  8
0
100
AcDbLine
 62
7
  6
CONTINUOUS
 10
16.1371400888
 20
5.1952601159
 11
16.1835704251
 21
5.1952601159
  0
LINE
  5
236
100
AcDbEntity
  8
0
100
AcDbLine
 62
7
  6
CONTINUOUS
 10
16.5371400888
 20
5.1952601159
 11
16.5835704251
 21
5.1952601159
  0
LINE
  5
237
100
AcDbEntity
  8
0
100
AcDbLine
 62
7
  6
CONTINUOUS
 10
16.9371400888
 20
5.1952601159
 11
16.9835704251
 21
5.1952601159
  0
LINE
  5
238
100
AcDbEntity
  8
0
100
AcDbLine
 62
7
  6
CONTINUOUS
 10
17.3371400888
 20
5.1952601159
 11
17.3835704251
 21
5.1952601159
  0
LINE
  5
239
100
AcDbEntity
  8
0
100
AcDbLine
 62
7
  6
CONTINUOUS
 10
15.2525883047
 20
5.317444149
 11
15.2681222092
 21
5.2501594163
  0
LINE
  5
23A
100
AcDbEntity
  8
0
100
AcDbLine
 62
7
  6
CONTINUOUS
 10
15.4525883047
 20
5.2501594163
 11
15.4681222092
 21
5.317444149
  0
LINE
  5
23B
100
AcDbEntity
  8
0
100
AcDbLine
 62
7
  6
CONTINUOUS
 10
13.5603552569
 20
5.3723434493
 11
13.5835704251
 21
5.3723434493
  0
LINE
  5
23C
100
AcDbEntity
  8
0
100
AcDbLine
 62
7
  6
CONTINUOUS
 10
13.9371400888
 20
5.3723434493
 11
13.9835704251
 21
5.3723434493
  0
LINE
  5
23D
100
AcDbEntity
  8
0
100
AcDbLine
 62
7
  6
CONTINUOUS
 10
14.3371400888
 20
5.3723434493
 11
14.3835704251
 21
5.3723434493
  0
LINE
  5
23E
100
AcDbEntity
  8
0
100
AcDbLine
 62
7
  6
CONTINUOUS
 10
14.7371400888
 20
5.3723434493
 11
14.7835704251
 21
5.3723434493
  0
LINE
  5
23F
100
AcDbEntity
  8
0
100
AcDbLine
 62
7
  6
CONTINUOUS
 10
15.1371400888
 20
5.3723434493
 11
15.1835704251
 21
5.3723434493
  0
LINE
  5
240
100
AcDbEntity
  8
0
100
AcDbLine
 62
7
  6
CONTINUOUS
 10
15.5371400888
 20
5.3723434493
 11
15.5835704251
 21
5.3723434493
  0
LINE
  5
241
100
AcDbEntity
  8
0
100
AcDbLine
 62
7
  6
CONTINUOUS
 10
15.9371400888
 20
5.3723434493
 11
15.9835704251
 21
5.3723434493
  0
LINE
  5
242
100
AcDbEntity
  8
0
100
AcDbLine
 62
7
  6
CONTINUOUS
 10
16.3371400888
 20
5.3723434493
 11
16.3835704251
 21
5.3723434493
  0
LINE
  5
243
100
AcDbEntity
  8
0
100
AcDbLine
 62
7
  6
CONTINUOUS
 10
16.7371400888
 20
5.3723434493
 11
16.7835704251
 21
5.3723434493
  0
LINE
  5
244
100
AcDbEntity
  8
0
100
AcDbLine
 62
7
  6
CONTINUOUS
 10
17.1371400888
 20
5.3723434493
 11
17.1835704251
 21
5.3723434493
  0
LINE
  5
245
100
AcDbEntity
  8
0
100
AcDbLine
 62
7
  6
CONTINUOUS
 10
17.5371400888
 20
5.3723434493
 11
17.5603552569
 21
5.3723434493
  0
LINE
  5
246
100
AcDbEntity
  8
0
100
AcDbLine
 62
7
  6
CONTINUOUS
 10
15.6525883047
 20
5.317444149
 11
15.6681222092
 21
5.2501594163
  0
LINE
  5
247
100
AcDbEntity
  8
0
100
AcDbLine
 62
7
  6
CONTINUOUS
 10
17.5603552569
 20
5.7265101159
 11
13.5603552569
 21
5.7265101159
  0
LINE
  5
248
100
AcDbEntity
  8
0
100
AcDbLine
 62
7
  6
CONTINUOUS
 10
15.8525883047
 20
5.2501594163
 11
15.8681222092
 21
5.317444149
  0
LINE
  5
249
100
AcDbEntity
  8
0
100
AcDbLine
 62
7
  6
CONTINUOUS
 10
16.0525883047
 20
5.317444149
 11
16.0681222092
 21
5.2501594163
  0
LINE
  5
24A
100
AcDbEntity
  8
0
100
AcDbLine
 62
7
  6
CONTINUOUS
 10
16.2525883047
 20
5.2501594163
 11
16.2681222092
 21
5.317444149
  0
LINE
  5
24B
100
AcDbEntity
  8
0
100
AcDbLine
 62
7
  6
CONTINUOUS
 10
16.4525883047
 20
5.317444149
 11
16.4681222092
 21
5.2501594163
  0
LINE
  5
24C
100
AcDbEntity
  8
0
100
AcDbLine
 62
7
  6
CONTINUOUS
 10
16.6525883047
 20
5.2501594163
 11
16.6681222092
 21
5.317444149
  0
LINE
  5
24D
100
AcDbEntity
  8
0
100
AcDbLine
 62
7
  6
CONTINUOUS
 10
16.8525883047
 20
5.317444149
 11
16.8681222092
 21
5.2501594163
  0
LINE
  5
24E
100
AcDbEntity
  8
0
100
AcDbLine
 62
7
  6
CONTINUOUS
 10
17.0525883047
 20
5.2501594163
 11
17.0681222092
 21
5.317444149
  0
LINE
  5
24F
100
AcDbEntity
  8
0
100
AcDbLine
 62
7
  6
CONTINUOUS
 10
17.2525883047
 20
5.317444149
 11
17.2681222092
 21
5.2501594163
  0
LINE
  5
250
100
AcDbEntity
  8
0
100
AcDbLine
 62
7
  6
CONTINUOUS
 10
17.5603552569
 20
5.3723434493
 11
17.5603552569
 21
5.7265100905
  0
LINE
  5
251
100
AcDbEntity
  8
0
100
AcDbLine
 62
7
  6
CONTINUOUS
 10
17.4525883047
 20
5.2501594163
 11
17.4681222092
 21
5.317444149
  0
LWPOLYLINE
  5
252
100
AcDbEntity
  8
0
100
AcDbPolyline
 62
7
  6
CONTINUOUS
 90
4
 70
0
 10
15.4198146922
 20
10.8358373364
 10
15.4233061234
 20
10.8363581421
 10
15.428160955
 20
10.8390266537
 10
15.4316125631
 20
10.8427960345
  0
LINE
  5
253
100
AcDbEntity
  8
0
100
AcDbLine
 62
7
  6
CONTINUOUS
 10
14.7784456262
 20
10.8342362828
 11
15.3882180603
 21
10.8342362828
  0
LINE
  5
254
100
AcDbEntity
  8
0
100
AcDbLine
 62
7
  6
CONTINUOUS
 10
15.3934617134
 20
10.8358372064
 11
15.4198050081
 21
10.8358372064
  0
LINE
  5
255
100
AcDbEntity
  8
0
100
AcDbLine
 62
7
  6
CONTINUOUS
 10
14.5780980426
 20
11.0426398483
 11
14.5836465527
 21
11.0313331734
  0
LWPOLYLINE
  5
256
100
AcDbEntity
  8
0
100
AcDbPolyline
 62
7
  6
CONTINUOUS
 90
4
 70
0
 10
15.5166412215
 20
11.1491681002
 10
15.5201326528
 20
11.149688906
 10
15.5249874844
 20
11.1523574175
 10
15.5284390925
 20
11.1561267984
  0
LINE
  5
257
100
AcDbEntity
  8
0
100
AcDbLine
 62
7
  6
CONTINUOUS
 10
15.4910345655
 20
11.1491679702
 11
15.5166315375
 21
11.1491679702
  0
LWPOLYLINE
  5
258
100
AcDbEntity
  8
0
100
AcDbPolyline
 62
7
  6
CONTINUOUS
 90
4
 70
0
 10
15.6134677509
 20
11.4624988641
 10
15.6169591822
 20
11.4630196698
 10
15.6218140138
 20
11.4656881814
 10
15.6252656219
 20
11.4694575622
  0
LINE
  5
259
100
AcDbEntity
  8
0
100
AcDbLine
 62
7
  6
CONTINUOUS
 10
15.5878610949
 20
11.4624987341
 11
15.6134580669
 21
11.4624987341
  0
LWPOLYLINE
  5
25A
100
AcDbEntity
  8
0
100
AcDbPolyline
 62
7
  6
CONTINUOUS
 90
4
 70
0
 10
15.7102942802
 20
11.7758296279
 10
15.7137857115
 20
11.7763504337
 10
15.7186405431
 20
11.7790189452
 10
15.7220921512
 20
11.7827883261
  0
LINE
  5
25B
100
AcDbEntity
  8
0
100
AcDbLine
 62
7
  6
CONTINUOUS
 10
15.6846876243
 20
11.7758294979
 11
15.7102845962
 21
11.7758294979
  0
LINE
  5
25C
100
AcDbEntity
  8
0
100
AcDbLine
 62
7
  6
CONTINUOUS
 10
15.3895749225
 20
11.0313331734
 11
15.3840264123
 21
11.0426398483
  0
LINE
  5
25D
100
AcDbEntity
  8
0
100
AcDbLine
 62
7
  6
CONTINUOUS
 10
14.5776094885
 20
11.0468378969
 11
15.5458747821
 21
14.1801455354
  0
LWPOLYLINE
  5
25E
100
AcDbEntity
  8
0
100
AcDbPolyline
 62
7
  6
CONTINUOUS
 90
4
 70
0
 10
15.8071208096
 20
12.0891603918
 10
15.8106122409
 20
12.0896811975
 10
15.8154670725
 20
12.0923497091
 10
15.8189186806
 20
12.0961190899
  0
LINE
  5
25F
100
AcDbEntity
  8
0
100
AcDbLine
 62
7
  6
CONTINUOUS
 10
15.7815141536
 20
12.0891602618
 11
15.8071111256
 21
12.0891602618
  0
LWPOLYLINE
  5
260
100
AcDbEntity
  8
0
100
AcDbPolyline
 62
7
  6
CONTINUOUS
 90
4
 70
0
 10
15.903947339
 20
12.4024911556
 10
15.9074387703
 20
12.4030119614
 10
15.9122936019
 20
12.4056804729
 10
15.9157452099
 20
12.4094498538
  0
LINE
  5
261
100
AcDbEntity
  8
0
100
AcDbLine
 62
7
  6
CONTINUOUS
 10
15.878340683
 20
12.4024910256
 11
15.903937655
 21
12.4024910256
  0
LINE
  5
262
100
AcDbEntity
  8
0
100
AcDbLine
 62
7
  6
CONTINUOUS
 10
15.4661836276
 20
10.9806304532
 11
15.466752745
 21
10.9968089947
  0
LWPOLYLINE
  5
263
100
AcDbEntity
  8
0
100
AcDbPolyline
 62
7
  6
CONTINUOUS
 90
3
 70
0
 10
15.563010157
 20
11.293961217
 10
15.5635792743
 20
11.3101397586
 10
15.5644049166
 20
11.3312845562
  0
LINE
  5
264
100
AcDbEntity
  8
0
100
AcDbLine
 62
7
  6
CONTINUOUS
 10
15.466752745
 20
10.9968089947
 11
15.4682898328
 21
11.0345118113
  0
LINE
  5
265
100
AcDbEntity
  8
0
100
AcDbLine
 62
7
  6
CONTINUOUS
 10
15.4682900015
 20
11.0345118076
 11
15.468290421
 21
11.0345213698
  0
LINE
  5
266
100
AcDbEntity
  8
0
100
AcDbLine
 62
7
  6
CONTINUOUS
 10
15.4654055304
 20
10.9681880407
 11
15.4661839336
 21
10.9806408755
  0
LWPOLYLINE
  5
267
100
AcDbEntity
  8
0
100
AcDbPolyline
 62
7
  6
CONTINUOUS
 90
7
 70
0
 10
15.468290421
 20
11.0345213698
 10
15.469039542
 20
11.0456014749
 10
15.4711749147
 20
11.0642206339
 10
15.4743789798
 20
11.0841409084
 10
15.4783925891
 20
11.1039136304
 10
15.4828757757
 20
11.1220859532
 10
15.4859272894
 20
11.1326412204
  0
LINE
  5
268
100
AcDbEntity
  8
0
100
AcDbLine
 62
7
  6
CONTINUOUS
 10
16.3030513274
 20
13.6627729092
 11
16.3059605583
 21
13.6675383429
  0
LWPOLYLINE
  5
269
100
AcDbEntity
  8
0
100
AcDbPolyline
 62
7
  6
CONTINUOUS
 90
4
 70
0
 10
16.0007738683
 20
12.7158219195
 10
16.0042652996
 20
12.7163427252
 10
16.0091201312
 20
12.7190112368
 10
16.0125717393
 20
12.7227806177
  0
LINE
  5
26A
100
AcDbEntity
  8
0
100
AcDbLine
 62
7
  6
CONTINUOUS
 10
15.6598366863
 20
11.6072919809
 11
15.6604058037
 21
11.6234705224
  0
LINE
  5
26B
100
AcDbEntity
  8
0
100
AcDbLine
 62
7
  6
CONTINUOUS
 10
15.5644049166
 20
11.3312845562
 11
15.5651163621
 21
11.3478425752
  0
LINE
  5
26C
100
AcDbEntity
  8
0
100
AcDbLine
 62
7
  6
CONTINUOUS
 10
15.6604058037
 20
11.6234705224
 11
15.6619428915
 21
11.661173339
  0
LINE
  5
26D
100
AcDbEntity
  8
0
100
AcDbLine
 62
7
  6
CONTINUOUS
 10
15.6619430602
 20
11.6611733353
 11
15.6619434797
 21
11.6611828975
  0
LINE
  5
26E
100
AcDbEntity
  8
0
100
AcDbLine
 62
7
  6
CONTINUOUS
 10
15.5622320598
 20
11.2815188046
 11
15.563010463
 21
11.2939716394
  0
LINE
  5
26F
100
AcDbEntity
  8
0
100
AcDbLine
 62
7
  6
CONTINUOUS
 10
15.6590585892
 20
11.5948495684
 11
15.6598369923
 21
11.6073024032
  0
LWPOLYLINE
  5
270
100
AcDbEntity
  8
0
100
AcDbPolyline
 62
7
  6
CONTINUOUS
 90
7
 70
0
 10
15.5651169504
 20
11.3478521336
 10
15.5658660714
 20
11.3589322387
 10
15.5680014441
 20
11.3775513978
 10
15.5712055092
 20
11.3974716723
 10
15.5752191185
 20
11.4172443943
 10
15.579702305
 20
11.435416717
 10
15.5827538188
 20
11.4459719842
  0
LWPOLYLINE
  5
271
100
AcDbEntity
  8
0
100
AcDbPolyline
 62
7
  6
CONTINUOUS
 90
7
 70
0
 10
15.6619434797
 20
11.6611828975
 10
15.6626926007
 20
11.6722630026
 10
15.6648279735
 20
11.6908821616
 10
15.6680320386
 20
11.7108024361
 10
15.6720456478
 20
11.7305751581
 10
15.6765288344
 20
11.7487474809
 10
15.6795803481
 20
11.7593027481
  0
LINE
  5
272
100
AcDbEntity
  8
0
100
AcDbLine
 62
7
  6
CONTINUOUS
 10
15.3947216855
 20
10.8374999595
 11
15.3948696097
 21
10.8385654102
  0
LINE
  5
273
100
AcDbEntity
  8
0
100
AcDbLine
 62
7
  6
CONTINUOUS
 10
16.206224798
 20
13.3494421454
 11
16.209134029
 21
13.354207579
  0
LINE
  5
274
100
AcDbEntity
  8
0
100
AcDbLine
 62
7
  6
CONTINUOUS
 10
15.9751672124
 20
12.7158217895
 11
16.0007641843
 21
12.7158217895
  0
LINE
  5
275
100
AcDbEntity
  8
0
100
AcDbLine
 62
7
  6
CONTINUOUS
 10
15.7566632157
 20
11.9206227447
 11
15.757232333
 21
11.9368012863
  0
LINE
  5
276
100
AcDbEntity
  8
0
100
AcDbLine
 62
7
  6
CONTINUOUS
 10
15.853489745
 20
12.2339535086
 11
15.8540588624
 21
12.2501320501
  0
LINE
  5
277
100
AcDbEntity
  8
0
100
AcDbLine
 62
7
  6
CONTINUOUS
 10
15.757232333
 20
11.9368012863
 11
15.7587694209
 21
11.9745041029
  0
LINE
  5
278
100
AcDbEntity
  8
0
100
AcDbLine
 62
7
  6
CONTINUOUS
 10
15.8540588624
 20
12.2501320501
 11
15.8555959502
 21
12.2878348667
  0
LINE
  5
279
100
AcDbEntity
  8
0
100
AcDbLine
 62
7
  6
CONTINUOUS
 10
15.7587695896
 20
11.9745040991
 11
15.7587700091
 21
11.9745136613
  0
LINE
  5
27A
100
AcDbEntity
  8
0
100
AcDbLine
 62
7
  6
CONTINUOUS
 10
15.8555961189
 20
12.287834863
 11
15.8555965385
 21
12.2878444252
  0
LINE
  5
27B
100
AcDbEntity
  8
0
100
AcDbLine
 62
7
  6
CONTINUOUS
 10
15.7558851185
 20
11.9081803323
 11
15.7566635217
 21
11.9206331671
  0
LWPOLYLINE
  5
27C
100
AcDbEntity
  8
0
100
AcDbPolyline
 62
7
  6
CONTINUOUS
 90
7
 70
0
 10
15.7587700091
 20
11.9745136613
 10
15.7595191301
 20
11.9855937664
 10
15.7616545028
 20
12.0042129255
 10
15.7648585679
 20
12.0241332
 10
15.7688721772
 20
12.043905922
 10
15.7733553637
 20
12.0620782448
 10
15.7764068775
 20
12.0726335119
  0
LWPOLYLINE
  5
27D
100
AcDbEntity
  8
0
100
AcDbPolyline
 62
7
  6
CONTINUOUS
 90
4
 70
0
 10
15.4559770406
 20
10.913163725
 10
15.4600131874
 20
10.9309954358
 10
15.463236376
 20
10.9497760339
 10
15.4654055304
 20
10.9681880407
  0
LWPOLYLINE
  5
27E
100
AcDbEntity
  8
0
100
AcDbPolyline
 62
7
  6
CONTINUOUS
 90
4
 70
0
 10
15.55280357
 20
11.2264944889
 10
15.5568397167
 20
11.2443261996
 10
15.5600629054
 20
11.2631067978
 10
15.5622320598
 20
11.2815188046
  0
LWPOLYLINE
  5
27F
100
AcDbEntity
  8
0
100
AcDbPolyline
 62
7
  6
CONTINUOUS
 90
4
 70
0
 10
15.6496300993
 20
11.5398252527
 10
15.6536662461
 20
11.5576569635
 10
15.6568894347
 20
11.5764375616
 10
15.6590585892
 20
11.5948495684
  0
LWPOLYLINE
  5
280
100
AcDbEntity
  8
0
100
AcDbPolyline
 62
7
  6
CONTINUOUS
 90
5
 70
0
 10
16.2738432189
 20
13.6820302178
 10
16.2770733315
 20
13.6907308183
 10
16.2797374822
 20
13.6965992641
 10
16.2816638388
 20
13.6998840856
 10
16.2820680621
 20
13.7004183019
  0
LWPOLYLINE
  5
281
100
AcDbEntity
  8
0
100
AcDbPolyline
 62
7
  6
CONTINUOUS
 90
5
 70
0
 10
16.1770166896
 20
13.368699454
 10
16.1802468021
 20
13.3774000545
 10
16.1829109529
 20
13.3832685003
 10
16.1848373094
 20
13.3865533217
 10
16.1852415327
 20
13.3870875381
  0
LWPOLYLINE
  5
282
100
AcDbEntity
  8
0
100
AcDbPolyline
 62
7
  6
CONTINUOUS
 90
5
 70
0
 10
16.0801901602
 20
13.0553686901
 10
16.0834202727
 20
13.0640692906
 10
16.0860844235
 20
13.0699377364
 10
16.0880107801
 20
13.0732225579
 10
16.0884150033
 20
13.0737567742
  0
LWPOLYLINE
  5
283
100
AcDbEntity
  8
0
100
AcDbPolyline
 62
7
  6
CONTINUOUS
 90
3
 70
0
 10
16.3059605583
 20
13.6675383429
 10
16.3087750699
 20
13.6736322449
 10
16.3116274922
 20
13.6812968404
  0
LWPOLYLINE
  5
284
100
AcDbEntity
  8
0
100
AcDbPolyline
 62
7
  6
CONTINUOUS
 90
3
 70
0
 10
16.209134029
 20
13.354207579
 10
16.2119485405
 20
13.360301481
 10
16.2148009629
 20
13.3679660765
  0
LWPOLYLINE
  5
285
100
AcDbEntity
  8
0
100
AcDbPolyline
 62
7
  6
CONTINUOUS
 90
3
 70
0
 10
16.1123074996
 20
13.0408768152
 10
16.1151220112
 20
13.0469707171
 10
16.1179744335
 20
13.0546353127
  0
LINE
  5
286
100
AcDbEntity
  8
0
100
AcDbLine
 62
7
  6
CONTINUOUS
 10
16.1093982687
 20
13.0361113815
 11
16.1123074996
 21
13.0408768152
  0
LINE
  5
287
100
AcDbEntity
  8
0
100
AcDbLine
 62
7
  6
CONTINUOUS
 10
16.0125717393
 20
12.7227806177
 11
16.0154809702
 21
12.7275460513
  0
LINE
  5
288
100
AcDbEntity
  8
0
100
AcDbLine
 62
7
  6
CONTINUOUS
 10
15.9503162744
 20
12.5472842724
 11
15.9508853918
 21
12.563462814
  0
LINE
  5
289
100
AcDbEntity
  8
0
100
AcDbLine
 62
7
  6
CONTINUOUS
 10
15.9508853918
 20
12.563462814
 11
15.9524224796
 21
12.6011656306
  0
LINE
  5
28A
100
AcDbEntity
  8
0
100
AcDbLine
 62
7
  6
CONTINUOUS
 10
15.9524226483
 20
12.6011656268
 11
15.9524230678
 21
12.601175189
  0
LINE
  5
28B
100
AcDbEntity
  8
0
100
AcDbLine
 62
7
  6
CONTINUOUS
 10
15.8527116479
 20
12.2215110961
 11
15.8534900511
 21
12.2339639309
  0
LINE
  5
28C
100
AcDbEntity
  8
0
100
AcDbLine
 62
7
  6
CONTINUOUS
 10
15.9495381772
 20
12.53484186
 11
15.9503165804
 21
12.5472946948
  0
LWPOLYLINE
  5
28D
100
AcDbEntity
  8
0
100
AcDbPolyline
 62
7
  6
CONTINUOUS
 90
7
 70
0
 10
15.8555965385
 20
12.2878444252
 10
15.8563456594
 20
12.2989245303
 10
15.8584810322
 20
12.3175436893
 10
15.8616850973
 20
12.3374639638
 10
15.8656987065
 20
12.3572366858
 10
15.8701818931
 20
12.3754090086
 10
15.8732334068
 20
12.3859642758
  0
LWPOLYLINE
  5
28E
100
AcDbEntity
  8
0
100
AcDbPolyline
 62
7
  6
CONTINUOUS
 90
7
 70
0
 10
15.9524230678
 20
12.601175189
 10
15.9531721888
 20
12.6122552941
 10
15.9553075616
 20
12.6308744532
 10
15.9585116266
 20
12.6507947277
 10
15.9625252359
 20
12.6705674497
 10
15.9670084225
 20
12.6887397725
 10
15.9700599362
 20
12.6992950396
  0
LWPOLYLINE
  5
28F
100
AcDbEntity
  8
0
100
AcDbPolyline
 62
7
  6
CONTINUOUS
 90
4
 70
0
 10
15.7464566287
 20
11.8531560166
 10
15.7504927755
 20
11.8709877273
 10
15.7537159641
 20
11.8897683255
 10
15.7558851185
 20
11.9081803323
  0
LWPOLYLINE
  5
290
100
AcDbEntity
  8
0
100
AcDbPolyline
 62
7
  6
CONTINUOUS
 90
4
 70
0
 10
15.843283158
 20
12.1664867804
 10
15.8473193048
 20
12.1843184912
 10
15.8505424935
 20
12.2030990893
 10
15.8527116479
 20
12.2215110961
  0
LWPOLYLINE
  5
291
100
AcDbEntity
  8
0
100
AcDbPolyline
 62
7
  6
CONTINUOUS
 90
4
 70
0
 10
15.9401096874
 20
12.4798175443
 10
15.9441458342
 20
12.497649255
 10
15.9473690228
 20
12.5164298532
 10
15.9495381772
 20
12.53484186
  0
LWPOLYLINE
  5
292
100
AcDbEntity
  8
0
100
AcDbPolyline
 62
7
  6
CONTINUOUS
 90
4
 70
0
 10
16.0369362168
 20
12.7931483081
 10
16.0409723635
 20
12.8109800189
 10
16.0441955522
 20
12.829760617
 10
16.0463647066
 20
12.8481726238
  0
LWPOLYLINE
  5
293
100
AcDbEntity
  8
0
100
AcDbPolyline
 62
7
  6
CONTINUOUS
 90
4
 70
0
 10
16.1337627461
 20
13.106479072
 10
16.1377988929
 20
13.1243107827
 10
16.1410220816
 20
13.1430913809
 10
16.143191236
 20
13.1615033877
  0
LINE
  5
294
100
AcDbEntity
  8
0
100
AcDbLine
 62
7
  6
CONTINUOUS
 10
15.4529079138
 20
10.9022681184
 11
15.4559770406
 21
10.913163725
  0
LINE
  5
295
100
AcDbEntity
  8
0
100
AcDbLine
 62
7
  6
CONTINUOUS
 10
15.5497344431
 20
11.2155988822
 11
15.55280357
 21
11.2264944889
  0
LINE
  5
296
100
AcDbEntity
  8
0
100
AcDbLine
 62
7
  6
CONTINUOUS
 10
15.6465609725
 20
11.5289296461
 11
15.6496300993
 21
11.5398252527
  0
LINE
  5
297
100
AcDbEntity
  8
0
100
AcDbLine
 62
7
  6
CONTINUOUS
 10
15.7433875019
 20
11.8422604099
 11
15.7464566287
 21
11.8531560166
  0
LINE
  5
298
100
AcDbEntity
  8
0
100
AcDbLine
 62
7
  6
CONTINUOUS
 10
15.8402140312
 20
12.1555911738
 11
15.843283158
 21
12.1664867804
  0
LINE
  5
299
100
AcDbEntity
  8
0
100
AcDbLine
 62
7
  6
CONTINUOUS
 10
15.9370405606
 20
12.4689219376
 11
15.9401096874
 21
12.4798175443
  0
LINE
  5
29A
100
AcDbEntity
  8
0
100
AcDbLine
 62
7
  6
CONTINUOUS
 10
16.03386709
 20
12.7822527015
 11
16.0369362168
 21
12.7931483081
  0
LINE
  5
29B
100
AcDbEntity
  8
0
100
AcDbLine
 62
7
  6
CONTINUOUS
 10
16.1306936193
 20
13.0955834654
 11
16.1337627461
 21
13.106479072
  0
LINE
  5
29C
100
AcDbEntity
  8
0
100
AcDbLine
 62
7
  6
CONTINUOUS
 10
16.2275201487
 20
13.4089142292
 11
16.2305892755
 21
13.4198098358
  0
LINE
  5
29D
100
AcDbEntity
  8
0
100
AcDbLine
 62
7
  6
CONTINUOUS
 10
16.324346678
 20
13.7222449931
 11
16.3274158049
 21
13.7331405997
  0
LINE
  5
29E
100
AcDbEntity
  8
0
100
AcDbLine
 62
7
  6
CONTINUOUS
 10
15.3947218501
 20
10.8374999088
 11
15.4003414607
 21
10.8556849753
  0
LINE
  5
29F
100
AcDbEntity
  8
0
100
AcDbLine
 62
7
  6
CONTINUOUS
 10
15.4859287691
 20
11.1326456067
 11
15.49716799
 21
11.1690157392
  0
LINE
  5
2A0
100
AcDbEntity
  8
0
100
AcDbLine
 62
7
  6
CONTINUOUS
 10
15.5827552984
 20
11.4459763706
 11
15.5939945194
 21
11.482346503
  0
LINE
  5
2A1
100
AcDbEntity
  8
0
100
AcDbLine
 62
7
  6
CONTINUOUS
 10
15.6795818278
 20
11.7593071344
 11
15.6908210488
 21
11.7956772669
  0
LINE
  5
2A2
100
AcDbEntity
  8
0
100
AcDbLine
 62
7
  6
CONTINUOUS
 10
15.7764083571
 20
12.0726378983
 11
15.7876475781
 21
12.1090080307
  0
LINE
  5
2A3
100
AcDbEntity
  8
0
100
AcDbLine
 62
7
  6
CONTINUOUS
 10
15.8732348865
 20
12.3859686621
 11
15.8844741075
 21
12.4223387946
  0
LINE
  5
2A4
100
AcDbEntity
  8
0
100
AcDbLine
 62
7
  6
CONTINUOUS
 10
15.9700614159
 20
12.699299426
 11
15.9813006369
 21
12.7356695584
  0
LINE
  5
2A5
100
AcDbEntity
  8
0
100
AcDbLine
 62
7
  6
CONTINUOUS
 10
16.0668879452
 20
13.0126301898
 11
16.0781271662
 21
13.0490003223
  0
LINE
  5
2A6
100
AcDbEntity
  8
0
100
AcDbLine
 62
7
  6
CONTINUOUS
 10
16.1637144746
 20
13.3259609537
 11
16.1749536956
 21
13.3623310861
  0
LINE
  5
2A7
100
AcDbEntity
  8
0
100
AcDbLine
 62
7
  6
CONTINUOUS
 10
16.260541004
 20
13.6392917175
 11
16.2717802249
 21
13.67566185
  0
LINE
  5
2A8
100
AcDbEntity
  8
0
100
AcDbLine
 62
7
  6
CONTINUOUS
 10
16.3573675333
 20
13.9526224814
 11
16.3629871437
 21
13.9708075473
  0
LINE
  5
2A9
100
AcDbEntity
  8
0
100
AcDbLine
 62
7
  6
CONTINUOUS
 10
15.4416707338
 20
10.8659034596
 11
15.4529099547
 21
10.9022735915
  0
LINE
  5
2AA
100
AcDbEntity
  8
0
100
AcDbLine
 62
7
  6
CONTINUOUS
 10
15.5384972632
 20
11.1792342234
 11
15.549736484
 21
11.2156043554
  0
LINE
  5
2AB
100
AcDbEntity
  8
0
100
AcDbLine
 62
7
  6
CONTINUOUS
 10
15.6353237926
 20
11.4925649873
 11
15.6465630134
 21
11.5289351192
  0
LINE
  5
2AC
100
AcDbEntity
  8
0
100
AcDbLine
 62
7
  6
CONTINUOUS
 10
15.7321503219
 20
11.8058957511
 11
15.7433895428
 21
11.8422658831
  0
LINE
  5
2AD
100
AcDbEntity
  8
0
100
AcDbLine
 62
7
  6
CONTINUOUS
 10
15.8289768513
 20
12.119226515
 11
15.8402160721
 21
12.1555966469
  0
LINE
  5
2AE
100
AcDbEntity
  8
0
100
AcDbLine
 62
7
  6
CONTINUOUS
 10
15.9258033806
 20
12.4325572788
 11
15.9370426015
 21
12.4689274108
  0
LINE
  5
2AF
100
AcDbEntity
  8
0
100
AcDbLine
 62
7
  6
CONTINUOUS
 10
16.02262991
 20
12.7458880427
 11
16.0338691308
 21
12.7822581746
  0
LINE
  5
2B0
100
AcDbEntity
  8
0
100
AcDbLine
 62
7
  6
CONTINUOUS
 10
16.1194564394
 20
13.0592188065
 11
16.1306956602
 21
13.0955889385
  0
LINE
  5
2B1
100
AcDbEntity
  8
0
100
AcDbLine
 62
7
  6
CONTINUOUS
 10
16.2162829687
 20
13.3725495704
 11
16.2275221896
 21
13.4089197023
  0
LINE
  5
2B2
100
AcDbEntity
  8
0
100
AcDbLine
 62
7
  6
CONTINUOUS
 10
16.3131094981
 20
13.6858803342
 11
16.3243487189
 21
13.7222504662
  0
LINE
  5
2B3
100
AcDbEntity
  8
0
100
AcDbLine
 62
7
  6
CONTINUOUS
 10
16.3116274922
 20
13.6812968404
 11
16.3131102836
 21
13.6858842338
  0
LINE
  5
2B4
100
AcDbEntity
  8
0
100
AcDbLine
 62
7
  6
CONTINUOUS
 10
16.2148009629
 20
13.3679660765
 11
16.2162837542
 21
13.37255347
  0
LINE
  5
2B5
100
AcDbEntity
  8
0
100
AcDbLine
 62
7
  6
CONTINUOUS
 10
16.1179744335
 20
13.0546353127
 11
16.1194572248
 21
13.0592227061
  0
LINE
  5
2B6
100
AcDbEntity
  8
0
100
AcDbLine
 62
7
  6
CONTINUOUS
 10
16.0211479042
 20
12.7413045488
 11
16.0226306955
 21
12.7458919423
  0
LINE
  5
2B7
100
AcDbEntity
  8
0
100
AcDbLine
 62
7
  6
CONTINUOUS
 10
15.9243213748
 20
12.427973785
 11
15.9258041661
 21
12.4325611784
  0
LINE
  5
2B8
100
AcDbEntity
  8
0
100
AcDbLine
 62
7
  6
CONTINUOUS
 10
15.8274948454
 20
12.1146430211
 11
15.8289776367
 21
12.1192304146
  0
LINE
  5
2B9
100
AcDbEntity
  8
0
100
AcDbLine
 62
7
  6
CONTINUOUS
 10
15.7306683161
 20
11.8013122573
 11
15.7321511074
 21
11.8058996507
  0
LINE
  5
2BA
100
AcDbEntity
  8
0
100
AcDbLine
 62
7
  6
CONTINUOUS
 10
15.6338417867
 20
11.4879814934
 11
15.635324578
 21
11.4925688869
  0
LINE
  5
2BB
100
AcDbEntity
  8
0
100
AcDbLine
 62
7
  6
CONTINUOUS
 10
15.5370152573
 20
11.1746507296
 11
15.5384980487
 21
11.179238123
  0
LINE
  5
2BC
100
AcDbEntity
  8
0
100
AcDbLine
 62
7
  6
CONTINUOUS
 10
15.440188728
 20
10.8613199657
 11
15.4416715193
 21
10.8659073592
  0
LINE
  5
2BD
100
AcDbEntity
  8
0
100
AcDbLine
 62
7
  6
CONTINUOUS
 10
16.2717806083
 20
13.6756636266
 11
16.2738432189
 21
13.6820302178
  0
LINE
  5
2BE
100
AcDbEntity
  8
0
100
AcDbLine
 62
7
  6
CONTINUOUS
 10
16.1749540789
 20
13.3623328628
 11
16.1770166896
 21
13.368699454
  0
LINE
  5
2BF
100
AcDbEntity
  8
0
100
AcDbLine
 62
7
  6
CONTINUOUS
 10
16.0781275496
 20
13.0490020989
 11
16.0801901602
 21
13.0553686901
  0
LINE
  5
2C0
100
AcDbEntity
  8
0
100
AcDbLine
 62
7
  6
CONTINUOUS
 10
15.9813010202
 20
12.7356713351
 11
15.9833636309
 21
12.7420379263
  0
LINE
  5
2C1
100
AcDbEntity
  8
0
100
AcDbLine
 62
7
  6
CONTINUOUS
 10
15.8844744908
 20
12.4223405712
 11
15.8865371015
 21
12.4287071624
  0
LINE
  5
2C2
100
AcDbEntity
  8
0
100
AcDbLine
 62
7
  6
CONTINUOUS
 10
15.7876479615
 20
12.1090098074
 11
15.7897105721
 21
12.1153763986
  0
LINE
  5
2C3
100
AcDbEntity
  8
0
100
AcDbLine
 62
7
  6
CONTINUOUS
 10
15.6908214321
 20
11.7956790435
 11
15.6928840428
 21
11.8020456347
  0
LINE
  5
2C4
100
AcDbEntity
  8
0
100
AcDbLine
 62
7
  6
CONTINUOUS
 10
15.5939949027
 20
11.4823482797
 11
15.5960575134
 21
11.4887148709
  0
LINE
  5
2C5
100
AcDbEntity
  8
0
100
AcDbLine
 62
7
  6
CONTINUOUS
 10
15.4971683734
 20
11.1690175158
 11
15.499230984
 21
11.175384107
  0
LINE
  5
2C6
100
AcDbEntity
  8
0
100
AcDbLine
 62
7
  6
CONTINUOUS
 10
15.400341844
 20
10.855686752
 11
15.4024044547
 21
10.8620533432
  0
LWPOLYLINE
  5
2C7
100
AcDbEntity
  8
0
100
AcDbPolyline
 62
7
  6
CONTINUOUS
 90
5
 70
0
 10
15.9833636309
 20
12.7420379263
 10
15.9865937434
 20
12.7507385268
 10
15.9892578942
 20
12.7566069726
 10
15.9911842507
 20
12.759891794
 10
15.991588474
 20
12.7604260104
  0
LWPOLYLINE
  5
2C8
100
AcDbEntity
  8
0
100
AcDbPolyline
 62
7
  6
CONTINUOUS
 90
5
 70
0
 10
15.8865371015
 20
12.4287071624
 10
15.889767214
 20
12.4374077629
 10
15.8924313648
 20
12.4432762087
 10
15.8943577213
 20
12.4465610302
 10
15.8947619446
 20
12.4470952465
  0
LWPOLYLINE
  5
2C9
100
AcDbEntity
  8
0
100
AcDbPolyline
 62
7
  6
CONTINUOUS
 90
5
 70
0
 10
15.7897105721
 20
12.1153763986
 10
15.7929406847
 20
12.1240769991
 10
15.7956048354
 20
12.1299454449
 10
15.797531192
 20
12.1332302663
 10
15.7979354152
 20
12.1337644827
  0
LWPOLYLINE
  5
2CA
100
AcDbEntity
  8
0
100
AcDbPolyline
 62
7
  6
CONTINUOUS
 90
5
 70
0
 10
15.6928840428
 20
11.8020456347
 10
15.6961141553
 20
11.8107462352
 10
15.6987783061
 20
11.816614681
 10
15.7007046626
 20
11.8198995025
 10
15.7011088859
 20
11.8204337188
  0
LWPOLYLINE
  5
2CB
100
AcDbEntity
  8
0
100
AcDbPolyline
 62
7
  6
CONTINUOUS
 90
5
 70
0
 10
15.5960575134
 20
11.4887148709
 10
15.5992876259
 20
11.4974154714
 10
15.6019517767
 20
11.5032839172
 10
15.6038781332
 20
11.5065687386
 10
15.6042823565
 20
11.507102955
  0
LWPOLYLINE
  5
2CC
100
AcDbEntity
  8
0
100
AcDbPolyline
 62
7
  6
CONTINUOUS
 90
5
 70
0
 10
15.499230984
 20
11.175384107
 10
15.5024610966
 20
11.1840847075
 10
15.5051252473
 20
11.1899531533
 10
15.5070516039
 20
11.1932379748
 10
15.5074558272
 20
11.1937721911
  0
LWPOLYLINE
  5
2CD
100
AcDbEntity
  8
0
100
AcDbPolyline
 62
7
  6
CONTINUOUS
 90
5
 70
0
 10
15.4024044547
 20
10.8620533432
 10
15.4056345672
 20
10.8707539437
 10
15.408298718
 20
10.8766223895
 10
15.4102250745
 20
10.8799072109
 10
15.4106292978
 20
10.8804414273
  0
LWPOLYLINE
  5
2CE
100
AcDbEntity
  8
0
100
AcDbPolyline
 62
7
  6
CONTINUOUS
 90
3
 70
0
 10
16.0154809702
 20
12.7275460513
 10
16.0182954818
 20
12.7336399533
 10
16.0211479042
 20
12.7413045488
  0
LWPOLYLINE
  5
2CF
100
AcDbEntity
  8
0
100
AcDbPolyline
 62
7
  6
CONTINUOUS
 90
3
 70
0
 10
15.9186544409
 20
12.4142152875
 10
15.9214689524
 20
12.4203091894
 10
15.9243213748
 20
12.427973785
  0
LWPOLYLINE
  5
2D0
100
AcDbEntity
  8
0
100
AcDbPolyline
 62
7
  6
CONTINUOUS
 90
3
 70
0
 10
15.8218279115
 20
12.1008845236
 10
15.8246424231
 20
12.1069784256
 10
15.8274948454
 20
12.1146430211
  0
LINE
  5
2D1
100
AcDbEntity
  8
0
100
AcDbLine
 62
7
  6
CONTINUOUS
 10
15.9157452099
 20
12.4094498538
 11
15.9186544409
 21
12.4142152875
  0
LINE
  5
2D2
100
AcDbEntity
  8
0
100
AcDbLine
 62
7
  6
CONTINUOUS
 10
15.8189186806
 20
12.0961190899
 11
15.8218279115
 21
12.1008845236
  0
LWPOLYLINE
  5
2D3
100
AcDbEntity
  8
0
100
AcDbPolyline
 62
7
  6
CONTINUOUS
 90
4
 70
0
 10
16.0976003977
 20
13.0291526833
 10
16.101091829
 20
13.0296734891
 10
16.1059466606
 20
13.0323420006
 10
16.1093982687
 20
13.0361113815
  0
LINE
  5
2D4
100
AcDbEntity
  8
0
100
AcDbLine
 62
7
  6
CONTINUOUS
 10
16.0719937417
 20
13.0291525533
 11
16.0975907137
 21
13.0291525533
  0
LINE
  5
2D5
100
AcDbEntity
  8
0
100
AcDbLine
 62
7
  6
CONTINUOUS
 10
16.0471428038
 20
12.8606150363
 11
16.0477119211
 21
12.8767935778
  0
LINE
  5
2D6
100
AcDbEntity
  8
0
100
AcDbLine
 62
7
  6
CONTINUOUS
 10
16.1439693331
 20
13.1739458001
 11
16.1453640928
 21
13.2112691393
  0
LINE
  5
2D7
100
AcDbEntity
  8
0
100
AcDbLine
 62
7
  6
CONTINUOUS
 10
16.0477119211
 20
12.8767935778
 11
16.049249009
 21
12.9144963944
  0
LINE
  5
2D8
100
AcDbEntity
  8
0
100
AcDbLine
 62
7
  6
CONTINUOUS
 10
16.1453640928
 20
13.2112691393
 11
16.1460755383
 21
13.2278271583
  0
LINE
  5
2D9
100
AcDbEntity
  8
0
100
AcDbLine
 62
7
  6
CONTINUOUS
 10
16.0492491776
 20
12.9144963907
 11
16.0492495972
 21
12.9145059529
  0
LINE
  5
2DA
100
AcDbEntity
  8
0
100
AcDbLine
 62
7
  6
CONTINUOUS
 10
16.0463647066
 20
12.8481726238
 11
16.0471431098
 21
12.8606254586
  0
LINE
  5
2DB
100
AcDbEntity
  8
0
100
AcDbLine
 62
7
  6
CONTINUOUS
 10
16.143191236
 20
13.1615033877
 11
16.1439696391
 21
13.1739562225
  0
LWPOLYLINE
  5
2DC
100
AcDbEntity
  8
0
100
AcDbPolyline
 62
7
  6
CONTINUOUS
 90
7
 70
0
 10
16.0492495972
 20
12.9145059529
 10
16.0499987182
 20
12.925586058
 10
16.0521340909
 20
12.944205217
 10
16.055338156
 20
12.9641254915
 10
16.0593517653
 20
12.9838982135
 10
16.0638349518
 20
13.0020705363
 10
16.0668864656
 20
13.0126258035
  0
LWPOLYLINE
  5
2DD
100
AcDbEntity
  8
0
100
AcDbPolyline
 62
7
  6
CONTINUOUS
 90
7
 70
0
 10
16.1460761266
 20
13.2278367167
 10
16.1468252475
 20
13.2389168218
 10
16.1489606203
 20
13.2575359809
 10
16.1521646854
 20
13.2774562554
 10
16.1561782946
 20
13.2972289774
 10
16.1606614812
 20
13.3154013002
 10
16.1637129949
 20
13.3259565673
  0
LWPOLYLINE
  5
2DE
100
AcDbEntity
  8
0
100
AcDbPolyline
 62
7
  6
CONTINUOUS
 90
4
 70
0
 10
16.2305892755
 20
13.4198098358
 10
16.2346254223
 20
13.4376415466
 10
16.2378486109
 20
13.4564221447
 10
16.2400177653
 20
13.4748341515
  0
LWPOLYLINE
  5
2DF
100
AcDbEntity
  8
0
100
AcDbPolyline
 62
7
  6
CONTINUOUS
 90
4
 70
0
 10
16.3274158049
 20
13.7331405997
 10
16.3314519516
 20
13.7509723104
 10
16.3346751403
 20
13.7697529086
 10
16.3368442947
 20
13.7881649154
  0
LWPOLYLINE
  5
2E0
100
AcDbEntity
  8
0
100
AcDbPolyline
 62
7
  6
CONTINUOUS
 90
3
 70
0
 10
15.7250013821
 20
11.7875537598
 10
15.7278158937
 20
11.7936476617
 10
15.7306683161
 20
11.8013122573
  0
LWPOLYLINE
  5
2E1
100
AcDbEntity
  8
0
100
AcDbPolyline
 62
7
  6
CONTINUOUS
 90
3
 70
0
 10
15.6281748528
 20
11.4742229959
 10
15.6309893643
 20
11.4803168979
 10
15.6338417867
 20
11.4879814934
  0
LWPOLYLINE
  5
2E2
100
AcDbEntity
  8
0
100
AcDbPolyline
 62
7
  6
CONTINUOUS
 90
3
 70
0
 10
15.5313483234
 20
11.1608922321
 10
15.534162835
 20
11.166986134
 10
15.5370152573
 20
11.1746507296
  0
LINE
  5
2E3
100
AcDbEntity
  8
0
100
AcDbLine
 62
7
  6
CONTINUOUS
 10
15.7220921512
 20
11.7827883261
 11
15.7250013821
 21
11.7875537598
  0
LINE
  5
2E4
100
AcDbEntity
  8
0
100
AcDbLine
 62
7
  6
CONTINUOUS
 10
16.1439693331
 20
13.1739458001
 11
16.1439696698
 21
13.1739562217
  0
LINE
  5
2E5
100
AcDbEntity
  8
0
100
AcDbLine
 62
7
  6
CONTINUOUS
 10
16.2407958625
 20
13.487276564
 11
16.2413649799
 21
13.5034551055
  0
LINE
  5
2E6
100
AcDbEntity
  8
0
100
AcDbLine
 62
7
  6
CONTINUOUS
 10
16.2413649799
 20
13.5034551055
 11
16.2429020677
 21
13.5411579221
  0
LINE
  5
2E7
100
AcDbEntity
  8
0
100
AcDbLine
 62
7
  6
CONTINUOUS
 10
16.2429022364
 20
13.5411579184
 11
16.2429026559
 21
13.5411674806
  0
LINE
  5
2E8
100
AcDbEntity
  8
0
100
AcDbLine
 62
7
  6
CONTINUOUS
 10
16.2400177653
 20
13.4748341515
 11
16.2407961685
 21
13.4872869863
  0
LWPOLYLINE
  5
2E9
100
AcDbEntity
  8
0
100
AcDbPolyline
 62
7
  6
CONTINUOUS
 90
7
 70
0
 10
16.2429026559
 20
13.5411674806
 10
16.2436517769
 20
13.5522475857
 10
16.2457871497
 20
13.5708667447
 10
16.2489912147
 20
13.5907870192
 10
16.253004824
 20
13.6105597412
 10
16.2574880106
 20
13.628732064
 10
16.2605395243
 20
13.6392873312
  0
LWPOLYLINE
  5
2EA
100
AcDbEntity
  8
0
100
AcDbPolyline
 62
7
  6
CONTINUOUS
 90
7
 70
0
 10
16.3397291853
 20
13.8544982444
 10
16.3404783063
 20
13.8655783495
 10
16.342613679
 20
13.8841975086
 10
16.3458177441
 20
13.9041177831
 10
16.3498313534
 20
13.9238905051
 10
16.3543145399
 20
13.9420628279
 10
16.3573660537
 20
13.952618095
  0
LINE
  5
2EB
100
AcDbEntity
  8
0
100
AcDbLine
 62
7
  6
CONTINUOUS
 10
16.3631349033
 20
13.9718730487
 11
16.3629869792
 21
13.970807598
  0
LWPOLYLINE
  5
2EC
100
AcDbEntity
  8
0
100
AcDbPolyline
 62
7
  6
CONTINUOUS
 90
3
 70
0
 10
15.4345217941
 20
10.8475614682
 10
15.4373363056
 20
10.8536553702
 10
15.440188728
 20
10.8613199657
  0
LINE
  5
2ED
100
AcDbEntity
  8
0
100
AcDbLine
 62
7
  6
CONTINUOUS
 10
15.6252656219
 20
11.4694575622
 11
15.6281748528
 21
11.4742229959
  0
LINE
  5
2EE
100
AcDbEntity
  8
0
100
AcDbLine
 62
7
  6
CONTINUOUS
 10
15.5284390925
 20
11.1561267984
 11
15.5313483234
 21
11.1608922321
  0
LWPOLYLINE
  5
2EF
100
AcDbEntity
  8
0
100
AcDbPolyline
 62
7
  6
CONTINUOUS
 90
4
 70
0
 10
16.1944269271
 20
13.3424834472
 10
16.1979183583
 20
13.3430042529
 10
16.2027731899
 20
13.3456727645
 10
16.206224798
 20
13.3494421454
  0
LINE
  5
2F0
100
AcDbEntity
  8
0
100
AcDbLine
 62
7
  6
CONTINUOUS
 10
16.3376223919
 20
13.8006073278
 11
16.3381915092
 21
13.8167858694
  0
LINE
  5
2F1
100
AcDbEntity
  8
0
100
AcDbLine
 62
7
  6
CONTINUOUS
 10
16.3381915092
 20
13.8167858694
 11
16.339728597
 21
13.854488686
  0
LINE
  5
2F2
100
AcDbEntity
  8
0
100
AcDbLine
 62
7
  6
CONTINUOUS
 10
16.3397287657
 20
13.8544886822
 11
16.3397291853
 21
13.8544982444
  0
LINE
  5
2F3
100
AcDbEntity
  8
0
100
AcDbLine
 62
7
  6
CONTINUOUS
 10
16.3368442947
 20
13.7881649154
 11
16.3376226979
 21
13.8006177502
  0
LINE
  5
2F4
100
AcDbEntity
  8
0
100
AcDbLine
 62
7
  6
CONTINUOUS
 10
15.4316125631
 20
10.8427960345
 11
15.4345217941
 21
10.8475614682
  0
LINE
  5
2F5
100
AcDbEntity
  8
0
100
AcDbLine
 62
7
  6
CONTINUOUS
 10
16.1688202711
 20
13.3424833172
 11
16.194417243
 21
13.3424833172
  0
LWPOLYLINE
  5
2F6
100
AcDbEntity
  8
0
100
AcDbPolyline
 62
7
  6
CONTINUOUS
 90
4
 70
0
 10
16.2912534564
 20
13.655814211
 10
16.2947448877
 20
13.6563350168
 10
16.2995997193
 20
13.6590035283
 10
16.3030513274
 20
13.6627729092
  0
LINE
  5
2F7
100
AcDbEntity
  8
0
100
AcDbLine
 62
7
  6
CONTINUOUS
 10
16.2656468004
 20
13.655814081
 11
16.2912437724
 21
13.655814081
  0
LINE
  5
2F8
100
AcDbEntity
  8
0
100
AcDbLine
 62
7
  6
CONTINUOUS
 10
16.3578402161
 20
14.1646408119
 11
16.352291706
 21
14.1759474868
  0
ARC
  5
2F9
100
AcDbEntity
  8
0
100
AcDbCircle
 62
7
  6
CONTINUOUS
 10
-1.7135689453
 20
3.048251481
 40
7.875
100
AcDbArc
 50
17.6716773149
 51
19.6856243989
  0
ARC
  5
2FA
100
AcDbEntity
  8
0
100
AcDbCircle
 62
7
  6
CONTINUOUS
 10
-1.7135689453
 20
3.048251481
 40
7.875
100
AcDbArc
 50
16.3260967405
 51
17.6571347936
  0
ARC
  5
2FB
100
AcDbEntity
  8
0
100
AcDbCircle
 62
7
  6
CONTINUOUS
 10
5.7070860262
 20
5.7671028364
 40
0.01421875
100
AcDbArc
 50
91.2679349482
 51
180.0
  0
ARC
  5
2FC
100
AcDbEntity
  8
0
100
AcDbCircle
 62
7
  6
CONTINUOUS
 10
5.7993509601
 20
5.4418386416
 40
0.01
100
AcDbArc
 50
197.6716773149
 51
270.0
  0
ARC
  5
2FD
100
AcDbEntity
  8
0
100
AcDbCircle
 62
7
  6
CONTINUOUS
 10
5.8534865242
 20
5.2647570135
 40
0.01
100
AcDbArc
 50
196.336250733
 51
270.0027646304
  0
ARC
  5
2FE
100
AcDbEntity
  8
0
100
AcDbCircle
 62
7
  6
CONTINUOUS
 10
5.8350547762
 20
5.7489134966
 40
0.1421875
100
AcDbArc
 50
180.0
 51
199.6856243989
  0
ARC
  5
2FF
100
AcDbEntity
  8
0
100
AcDbCircle
 62
7
  6
CONTINUOUS
 10
6.1303672762
 20
-13.3571196918
 40
19.143125
100
AcDbArc
 50
88.7320650518
 51
91.2679349482
  0
ARC
  5
300
100
AcDbEntity
  8
0
100
AcDbCircle
 62
7
  6
CONTINUOUS
 10
6.4072479416
 20
5.2647567076
 40
0.01
100
AcDbArc
 50
269.997730565
 51
343.6655707099
  0
ARC
  5
301
100
AcDbEntity
  8
0
100
AcDbCircle
 62
7
  6
CONTINUOUS
 10
6.4613835922
 20
5.4418386416
 40
0.01
100
AcDbArc
 50
270.0
 51
342.3283226851
  0
ARC
  5
302
100
AcDbEntity
  8
0
100
AcDbCircle
 62
7
  6
CONTINUOUS
 10
6.4256797762
 20
5.7489134966
 40
0.1421875
100
AcDbArc
 50
340.3143756011
 51
360.0
  0
ARC
  5
303
100
AcDbEntity
  8
0
100
AcDbCircle
 62
7
  6
CONTINUOUS
 10
6.5536485262
 20
5.7671028364
 40
0.01421875
100
AcDbArc
 50
0.0
 51
88.7320650518
  0
ARC
  5
304
100
AcDbEntity
  8
0
100
AcDbCircle
 62
7
  6
CONTINUOUS
 10
13.9743034976
 20
3.048251481
 40
7.875
100
AcDbArc
 50
160.3143756011
 51
162.3283226851
  0
ARC
  5
305
100
AcDbEntity
  8
0
100
AcDbCircle
 62
7
  6
CONTINUOUS
 10
13.9743034976
 20
3.048251481
 40
7.875
100
AcDbArc
 50
162.3428652138
 51
163.6739032595
  0
ARC
  5
306
100
AcDbEntity
  8
0
100
AcDbCircle
 62
7
  6
CONTINUOUS
 10
13.7371400888
 20
5.2660934493
 40
0.0708333333
100
AcDbArc
 50
193.0
 51
270.0
  0
ARC
  5
307
100
AcDbEntity
  8
0
100
AcDbCircle
 62
7
  6
CONTINUOUS
 10
14.1371400888
 20
5.2660934493
 40
0.0708333333
100
AcDbArc
 50
193.0
 51
270.0
  0
ARC
  5
308
100
AcDbEntity
  8
0
100
AcDbCircle
 62
7
  6
CONTINUOUS
 10
13.7835704251
 20
5.2660934493
 40
0.0708333333
100
AcDbArc
 50
270.0
 51
347.0
  0
ARC
  5
309
100
AcDbEntity
  8
0
100
AcDbCircle
 62
7
  6
CONTINUOUS
 10
14.5371400888
 20
5.2660934493
 40
0.0708333333
100
AcDbArc
 50
193.0
 51
270.0
  0
ARC
  5
30A
100
AcDbEntity
  8
0
100
AcDbCircle
 62
7
  6
CONTINUOUS
 10
14.1835704251
 20
5.2660934493
 40
0.0708333333
100
AcDbArc
 50
270.0
 51
347.0
  0
ARC
  5
30B
100
AcDbEntity
  8
0
100
AcDbCircle
 62
7
  6
CONTINUOUS
 10
14.9371400888
 20
5.2660934493
 40
0.0708333333
100
AcDbArc
 50
193.0
 51
270.0
  0
ARC
  5
30C
100
AcDbEntity
  8
0
100
AcDbCircle
 62
7
  6
CONTINUOUS
 10
14.5835704251
 20
5.2660934493
 40
0.0708333333
100
AcDbArc
 50
270.0
 51
347.0
  0
ARC
  5
30D
100
AcDbEntity
  8
0
100
AcDbCircle
 62
7
  6
CONTINUOUS
 10
15.3371400888
 20
5.2660934493
 40
0.0708333333
100
AcDbArc
 50
193.0
 51
270.0
  0
ARC
  5
30E
100
AcDbEntity
  8
0
100
AcDbCircle
 62
7
  6
CONTINUOUS
 10
14.9835704251
 20
5.2660934493
 40
0.0708333333
100
AcDbArc
 50
270.0
 51
347.0
  0
ARC
  5
30F
100
AcDbEntity
  8
0
100
AcDbCircle
 62
7
  6
CONTINUOUS
 10
15.3835704251
 20
5.2660934493
 40
0.0708333333
100
AcDbArc
 50
270.0
 51
347.0
  0
ARC
  5
310
100
AcDbEntity
  8
0
100
AcDbCircle
 62
7
  6
CONTINUOUS
 10
13.5835704251
 20
5.3015101159
 40
0.0708333333
100
AcDbArc
 50
13.0
 51
90.0
  0
ARC
  5
311
100
AcDbEntity
  8
0
100
AcDbCircle
 62
7
  6
CONTINUOUS
 10
13.9835704251
 20
5.3015101159
 40
0.0708333333
100
AcDbArc
 50
13.0
 51
90.0
  0
ARC
  5
312
100
AcDbEntity
  8
0
100
AcDbCircle
 62
7
  6
CONTINUOUS
 10
13.9371400888
 20
5.3015101159
 40
0.0708333333
100
AcDbArc
 50
90.0
 51
167.0
  0
ARC
  5
313
100
AcDbEntity
  8
0
100
AcDbCircle
 62
7
  6
CONTINUOUS
 10
14.3835704251
 20
5.3015101159
 40
0.0708333333
100
AcDbArc
 50
13.0
 51
90.0
  0
ARC
  5
314
100
AcDbEntity
  8
0
100
AcDbCircle
 62
7
  6
CONTINUOUS
 10
14.3371400888
 20
5.3015101159
 40
0.0708333333
100
AcDbArc
 50
90.0
 51
167.0
  0
ARC
  5
315
100
AcDbEntity
  8
0
100
AcDbCircle
 62
7
  6
CONTINUOUS
 10
14.7835704251
 20
5.3015101159
 40
0.0708333333
100
AcDbArc
 50
13.0
 51
90.0
  0
ARC
  5
316
100
AcDbEntity
  8
0
100
AcDbCircle
 62
7
  6
CONTINUOUS
 10
14.7371400888
 20
5.3015101159
 40
0.0708333333
100
AcDbArc
 50
90.0
 51
167.0
  0
ARC
  5
317
100
AcDbEntity
  8
0
100
AcDbCircle
 62
7
  6
CONTINUOUS
 10
15.1835704251
 20
5.3015101159
 40
0.0708333333
100
AcDbArc
 50
13.0
 51
90.0
  0
ARC
  5
318
100
AcDbEntity
  8
0
100
AcDbCircle
 62
7
  6
CONTINUOUS
 10
15.1371400888
 20
5.3015101159
 40
0.0708333333
100
AcDbArc
 50
90.0
 51
167.0
  0
ARC
  5
319
100
AcDbEntity
  8
0
100
AcDbCircle
 62
7
  6
CONTINUOUS
 10
15.5371400888
 20
5.3015101159
 40
0.0708333333
100
AcDbArc
 50
90.0
 51
167.0
  0
ARC
  5
31A
100
AcDbEntity
  8
0
100
AcDbCircle
 62
7
  6
CONTINUOUS
 10
17.3835704251
 20
5.2660934493
 40
0.0708333333
100
AcDbArc
 50
270.0
 51
347.0
  0
ARC
  5
31B
100
AcDbEntity
  8
0
100
AcDbCircle
 62
7
  6
CONTINUOUS
 10
16.9835704251
 20
5.2660934493
 40
0.0708333333
100
AcDbArc
 50
270.0
 51
347.0
  0
ARC
  5
31C
100
AcDbEntity
  8
0
100
AcDbCircle
 62
7
  6
CONTINUOUS
 10
17.3371400888
 20
5.2660934493
 40
0.0708333333
100
AcDbArc
 50
193.0
 51
270.0
  0
ARC
  5
31D
100
AcDbEntity
  8
0
100
AcDbCircle
 62
7
  6
CONTINUOUS
 10
16.5835704251
 20
5.2660934493
 40
0.0708333333
100
AcDbArc
 50
270.0
 51
347.0
  0
ARC
  5
31E
100
AcDbEntity
  8
0
100
AcDbCircle
 62
7
  6
CONTINUOUS
 10
16.9371400888
 20
5.2660934493
 40
0.0708333333
100
AcDbArc
 50
193.0
 51
270.0
  0
ARC
  5
31F
100
AcDbEntity
  8
0
100
AcDbCircle
 62
7
  6
CONTINUOUS
 10
16.1835704251
 20
5.2660934493
 40
0.0708333333
100
AcDbArc
 50
270.0
 51
347.0
  0
ARC
  5
320
100
AcDbEntity
  8
0
100
AcDbCircle
 62
7
  6
CONTINUOUS
 10
16.5371400888
 20
5.2660934493
 40
0.0708333333
100
AcDbArc
 50
193.0
 51
270.0
  0
ARC
  5
321
100
AcDbEntity
  8
0
100
AcDbCircle
 62
7
  6
CONTINUOUS
 10
15.7835704251
 20
5.2660934493
 40
0.0708333333
100
AcDbArc
 50
270.0
 51
347.0
  0
ARC
  5
322
100
AcDbEntity
  8
0
100
AcDbCircle
 62
7
  6
CONTINUOUS
 10
15.7371400888
 20
5.2660934493
 40
0.0708333333
100
AcDbArc
 50
193.0
 51
270.0
  0
ARC
  5
323
100
AcDbEntity
  8
0
100
AcDbCircle
 62
7
  6
CONTINUOUS
 10
16.1371400888
 20
5.2660934493
 40
0.0708333333
100
AcDbArc
 50
193.0
 51
270.0
  0
ARC
  5
324
100
AcDbEntity
  8
0
100
AcDbCircle
 62
7
  6
CONTINUOUS
 10
17.5371400888
 20
5.3015101159
 40
0.0708333333
100
AcDbArc
 50
90.0
 51
167.0
  0
ARC
  5
325
100
AcDbEntity
  8
0
100
AcDbCircle
 62
7
  6
CONTINUOUS
 10
17.1371400888
 20
5.3015101159
 40
0.0708333333
100
AcDbArc
 50
90.0
 51
167.0
  0
ARC
  5
326
100
AcDbEntity
  8
0
100
AcDbCircle
 62
7
  6
CONTINUOUS
 10
17.1835704251
 20
5.3015101159
 40
0.0708333333
100
AcDbArc
 50
13.0
 51
90.0
  0
ARC
  5
327
100
AcDbEntity
  8
0
100
AcDbCircle
 62
7
  6
CONTINUOUS
 10
16.7371400888
 20
5.3015101159
 40
0.0708333333
100
AcDbArc
 50
90.0
 51
167.0
  0
ARC
  5
328
100
AcDbEntity
  8
0
100
AcDbCircle
 62
7
  6
CONTINUOUS
 10
16.7835704251
 20
5.3015101159
 40
0.0708333333
100
AcDbArc
 50
13.0
 51
90.0
  0
ARC
  5
329
100
AcDbEntity
  8
0
100
AcDbCircle
 62
7
  6
CONTINUOUS
 10
16.3371400888
 20
5.3015101159
 40
0.0708333333
100
AcDbArc
 50
90.0
 51
167.0
  0
ARC
  5
32A
100
AcDbEntity
  8
0
100
AcDbCircle
 62
7
  6
CONTINUOUS
 10
16.3835704251
 20
5.3015101159
 40
0.0708333333
100
AcDbArc
 50
13.0
 51
90.0
  0
ARC
  5
32B
100
AcDbEntity
  8
0
100
AcDbCircle
 62
7
  6
CONTINUOUS
 10
15.9371400888
 20
5.3015101159
 40
0.0708333333
100
AcDbArc
 50
90.0
 51
167.0
  0
ARC
  5
32C
100
AcDbEntity
  8
0
100
AcDbCircle
 62
7
  6
CONTINUOUS
 10
15.9835704251
 20
5.3015101159
 40
0.0708333333
100
AcDbArc
 50
13.0
 51
90.0
  0
ARC
  5
32D
100
AcDbEntity
  8
0
100
AcDbCircle
 62
7
  6
CONTINUOUS
 10
15.5835704251
 20
5.3015101159
 40
0.0708333333
100
AcDbArc
 50
13.0
 51
90.0
  0
ARC
  5
32E
100
AcDbEntity
  8
0
100
AcDbCircle
 62
7
  6
CONTINUOUS
 10
15.944991269
 20
-12.031555865
 40
26.2192427519
100
AcDbArc
 50
89.1473738756
 51
90.8526261244
  0
ARC
  5
32F
100
AcDbEntity
  8
0
100
AcDbCircle
 62
7
  6
CONTINUOUS
 10
14.9767259754
 20
-15.1648635035
 40
26.2192427519
100
AcDbArc
 50
89.1473738756
 51
90.8526261244
  0
ARC
  5
330
100
AcDbEntity
  8
0
100
AcDbCircle
 62
7
  6
CONTINUOUS
 10
9.0930290856
 20
5.3730544702
 40
7.8785749488
100
AcDbArc
 50
43.9251632142
 51
45.5945829319
  0
ARC
  5
331
100
AcDbEntity
  8
0
100
AcDbCircle
 62
7
  6
CONTINUOUS
 10
18.2489611562
 20
10.8918078413
 40
2.8545881161
100
AcDbArc
 50
180.7247629527
 51
181.0687158231
  0
ARC
  5
332
100
AcDbEntity
  8
0
100
AcDbCircle
 62
7
  6
CONTINUOUS
 10
19.1801400611
 20
14.0246580265
 40
2.8174996563
100
AcDbArc
 50
177.758243786
 51
181.0734813713
  0
ARC
  5
333
100
AcDbEntity
  8
0
100
AcDbCircle
 62
7
  6
CONTINUOUS
 10
18.2059272457
 20
10.8914435376
 40
2.8115530461
100
AcDbArc
 50
177.7553996299
 51
180.7284325126
  0
SPLINE
  5
334
100
AcDbEntity
  8
0
100
AcDbSpline
 62
7
  6
CONTINUOUS
 70
0
 71
3
 72
11
 73
7
 74
0
 42
0.0000001
 43
0.0000001
 44
0.0000000001
 40
0.0
 40
0.0
 40
0.0
 40
0.0
 40
0.267057893
 40
0.5215262851
 40
0.7650820089
 40
1.0
 40
1.0
 40
1.0
 40
1.0
 10
16.3578402161
 20
14.1646408119
 30
0.0
 10
16.3590508961
 20
14.1621737056
 30
0.0
 10
16.361176573
 20
14.1572327711
 30
0.0
 10
16.363456799
 20
14.1496781469
 30
0.0
 10
16.3647262341
 20
14.1422229756
 30
0.0
 10
16.3648918564
 20
14.1372830173
 30
0.0
 10
16.3647967088
 20
14.13486747
 30
0.0
  0
SPLINE
  5
335
100
AcDbEntity
  8
0
100
AcDbSpline
 62
7
  6
CONTINUOUS
 70
0
 71
3
 72
15
 73
11
 74
0
 42
0.0000001
 43
0.0000001
 44
0.0000000001
 40
0.0
 40
0.0
 40
0.0
 40
0.0
 40
0.1301506427
 40
0.2655953412
 40
0.4023945484
 40
0.5371559779
 40
0.6667323102
 40
0.7884011167
 40
0.8999707946
 40
1.0
 40
1.0
 40
1.0
 40
1.0
 10
16.3351489114
 20
14.1847838394
 30
0.0
 10
16.3360207432
 20
14.1847709113
 30
0.0
 10
16.3377993419
 20
14.1846259441
 30
0.0
 10
16.3404493194
 20
14.1841032143
 30
0.0
 10
16.3430543181
 20
14.183278841
 30
0.0
 10
16.3455174473
 20
14.1821899875
 30
0.0
 10
16.3477496911
 20
14.1808721276
 30
0.0
 10
16.3496744452
 20
14.1793744134
 30
0.0
 10
16.3512149536
 20
14.1777461716
 30
0.0
 10
16.3519964838
 20
14.1765490863
 30
0.0
 10
16.352291706
 20
14.1759474868
 30
0.0
  0
SPLINE
  5
336
100
AcDbEntity
  8
0
100
AcDbSpline
 62
7
  6
CONTINUOUS
 70
0
 71
3
 72
10
 73
6
 74
0
 42
0.0000001
 43
0.0000001
 44
0.0000000001
 40
0.0
 40
0.0
 40
0.0
 40
0.0
 40
0.4759393169
 40
0.7321114111
 40
1.0
 40
1.0
 40
1.0
 40
1.0
 10
14.5836465527
 20
11.0313331734
 30
0.0
 10
14.5862551523
 20
11.0260174063
 30
0.0
 10
14.5911516664
 20
11.0182557681
 30
0.0
 10
14.5990265603
 20
11.0086179643
 30
0.0
 10
14.6035304281
 20
11.0038921104
 30
0.0
 10
14.6059113282
 20
11.0015598315
 30
0.0
  0
SPLINE
  5
337
100
AcDbEntity
  8
0
100
AcDbSpline
 62
7
  6
CONTINUOUS
 70
0
 71
3
 72
13
 73
9
 74
0
 42
0.0000001
 43
0.0000001
 44
0.0000000001
 40
0.0
 40
0.0
 40
0.0
 40
0.0
 40
0.3030097002
 40
0.5686362909
 40
0.6869912913
 40
0.7967827248
 40
0.9001298154
 40
1.0
 40
1.0
 40
1.0
 40
1.0
 10
15.3882180603
 20
10.8342362828
 30
0.0
 10
15.3890005752
 20
10.8342362828
 30
0.0
 10
15.3904734617
 20
10.8343601425
 30
0.0
 10
15.392187634
 20
10.834898741
 30
0.0
 10
15.3932878704
 20
10.8355543375
 30
0.0
 10
15.3939375125
 20
10.8361200043
 30
0.0
 10
15.3944301086
 20
10.8367686836
 30
0.0
 10
15.3946452734
 20
10.8372536264
 30
0.0
 10
15.3947213477
 20
10.8375000639
 30
0.0
  0
SPLINE
  5
338
100
AcDbEntity
  8
0
100
AcDbSpline
 62
7
  6
CONTINUOUS
 70
0
 71
3
 72
11
 73
7
 74
0
 42
0.0000001
 43
0.0000001
 44
0.0000000001
 40
0.0
 40
0.0
 40
0.0
 40
0.0
 40
0.2313309784
 40
0.4858355152
 40
0.7478209056
 40
1.0
 40
1.0
 40
1.0
 40
1.0
 10
14.7675452225
 20
10.8385654102
 30
0.0
 10
14.7681867558
 20
10.8378990923
 30
0.0
 10
14.7697308157
 20
10.8366862043
 30
0.0
 10
14.7724167114
 20
10.835337409
 30
0.0
 10
14.7753782347
 20
10.8344602714
 30
0.0
 10
14.7774373103
 20
10.8342362828
 30
0.0
 10
14.7784456262
 20
10.8342362828
 30
0.0
  0
SPLINE
  5
339
100
AcDbEntity
  8
0
100
AcDbSpline
 62
7
  6
CONTINUOUS
 70
0
 71
3
 72
13
 73
9
 74
0
 42
0.0000001
 43
0.0000001
 44
0.0000000001
 40
0.0
 40
0.0
 40
0.0
 40
0.0
 40
0.1003296928
 40
0.2040199458
 40
0.3140324872
 40
0.4324332055
 40
0.697884891
 40
1.0
 40
1.0
 40
1.0
 40
1.0
 10
15.5458748628
 20
14.1801454985
 30
0.0
 10
15.5459809873
 20
14.1804882173
 30
0.0
 10
15.5462793888
 20
14.1811621907
 30
0.0
 10
15.5469555503
 20
14.1820690554
 30
0.0
 10
15.5478491697
 20
14.1828622563
 30
0.0
 10
15.5493607794
 20
14.1837899649
 30
0.0
 10
15.5517209107
 20
14.1845651997
 30
0.0
 10
15.5537534012
 20
14.1847675845
 30
0.0
 10
15.5548336266
 20
14.1847838394
 30
0.0
  0
SPLINE
  5
33A
100
AcDbEntity
  8
0
100
AcDbSpline
 62
7
  6
CONTINUOUS
 70
0
 71
3
 72
11
 73
7
 74
0
 42
0.0000001
 43
0.0000001
 44
0.0000000001
 40
0.0
 40
0.0
 40
0.0
 40
0.0
 40
0.2338998655
 40
0.4752215417
 40
0.729389339
 40
1.0
 40
1.0
 40
1.0
 40
1.0
 10
14.5776095692
 20
11.04683786
 30
0.0
 10
14.5775098517
 20
11.0465158322
 30
0.0
 10
14.5773789165
 20
11.0458369924
 30
0.0
 10
14.5774047611
 20
11.0447790832
 30
0.0
 10
14.5776415643
 20
11.0436947139
 30
0.0
 10
14.5779262205
 20
11.0429899849
 30
0.0
 10
14.5780980426
 20
11.0426398483
 30
0.0
  0
SPLINE
  5
33B
100
AcDbEntity
  8
0
100
AcDbSpline
 62
7
  6
CONTINUOUS
 70
0
 71
3
 72
11
 73
7
 74
0
 42
0.0000001
 43
0.0000001
 44
0.0000000001
 40
0.0
 40
0.0
 40
0.0
 40
0.0
 40
0.2349179911
 40
0.4784737149
 40
0.732942107
 40
1.0
 40
1.0
 40
1.0
 40
1.0
 10
15.3965314151
 20
11.0015598315
 30
0.0
 10
15.3966265628
 20
11.0039753788
 30
0.0
 10
15.3964609404
 20
11.0089153371
 30
0.0
 10
15.3951915054
 20
11.0163705084
 30
0.0
 10
15.3929112794
 20
11.0239251326
 30
0.0
 10
15.3907856024
 20
11.028866067
 30
0.0
 10
15.3895749225
 20
11.0313331734
 30
0.0
  0
SPLINE
  5
33C
100
AcDbEntity
  8
0
100
AcDbSpline
 62
7
  6
CONTINUOUS
 70
0
 71
3
 72
13
 73
9
 74
0
 42
0.0000001
 43
0.0000001
 44
0.0000000001
 40
0.0
 40
0.0
 40
0.0
 40
0.0
 40
0.302115109
 40
0.5675667945
 40
0.6859675128
 40
0.7959800542
 40
0.8996703072
 40
1.0
 40
1.0
 40
1.0
 40
1.0
 10
14.586568333
 20
11.0514762009
 30
0.0
 10
14.5854881075
 20
11.051459946
 30
0.0
 10
14.5834556171
 20
11.0512575612
 30
0.0
 10
14.5810954857
 20
11.0504823263
 30
0.0
 10
14.579583876
 20
11.0495546178
 30
0.0
 10
14.5786902567
 20
11.0487614169
 30
0.0
 10
14.5780140952
 20
11.0478545522
 30
0.0
 10
14.5777156937
 20
11.0471805788
 30
0.0
 10
14.5776095692
 20
11.04683786
 30
0.0
  0
SPLINE
  5
33D
100
AcDbEntity
  8
0
100
AcDbSpline
 62
7
  6
CONTINUOUS
 70
0
 71
3
 72
15
 73
11
 74
0
 42
0.0000001
 43
0.0000001
 44
0.0000000001
 40
0.0
 40
0.0
 40
0.0
 40
0.0
 40
0.1000292054
 40
0.2115988833
 40
0.3332676898
 40
0.4628440221
 40
0.5976054516
 40
0.7344046588
 40
0.8698493573
 40
1.0
 40
1.0
 40
1.0
 40
1.0
 10
15.3840264123
 20
11.0426398483
 30
0.0
 10
15.3837311902
 20
11.0432414478
 30
0.0
 10
15.3829496599
 20
11.0444385331
 30
0.0
 10
15.3814091516
 20
11.0460667749
 30
0.0
 10
15.3794843975
 20
11.0475644891
 30
0.0
 10
15.3772521537
 20
11.048882349
 30
0.0
 10
15.3747890245
 20
11.0499712025
 30
0.0
 10
15.3721840257
 20
11.0507955758
 30
0.0
 10
15.3695340483
 20
11.0513183056
 30
0.0
 10
15.3677554496
 20
11.0514632728
 30
0.0
 10
15.3668836178
 20
11.0514762009
 30
0.0
  0
ENDSEC
  0
SECTION
  2
OBJECTS
  0
DICTIONARY
  5
C
100
AcDbDictionary
280
0
281
1
  3
ACAD_GROUP
350
D
  3
ACAD_MLINESTYLE
350
17
  3
ACAD_LAYOUT
350
1A
  3
ACAD_PLOTSETTINGS
350
19
  3
ACAD_PLOTSTYLENAME
350
E
  0
DICTIONARY
  5
D
102
{ACAD_REACTORS
330
C
102
}
100
AcDbDictionary
280
0
281
1
  0
ACDBDICTIONARYWDFLT
  5
E
102
{ACAD_REACTORS
330
C
102
}
100
AcDbDictionary
281
1
  3
Normal
350
F
100
AcDbDictionaryWithDefault
340
F
  0
DICTIONARY
  5
17
102
{ACAD_REACTORS
330
C
102
}
100
AcDbDictionary
280
0
281
1
  3
Standard
350
18
  0
DICTIONARY
  5
19
102
{ACAD_REACTORS
330
C
102
}
100
AcDbDictionary
281
1
  0
DICTIONARY
  5
1A
102
{ACAD_REACTORS
330
C
102
}
100
AcDbDictionary
281
1
  3
Model
350
33E
  3
Layout1
350
33F
  0
ACDBPLACEHOLDER
  5
F
102
{ACAD_REACTORS
330
E
102
}
  0
MLINESTYLE
  5
18
102
{ACAD_REACTORS
330
17
102
}
100
AcDbMlineStyle
  2
STANDARD
 70
0
  3

 62
256
 51
90.0
 52
90.0
 71
2
 49
0.5
 62
256
  6
BYLAYER
 49
-0.5
 62
256
  6
BYLAYER
  0
LAYOUT
  5
33E
102
{ACAD_REACTORS
330
1A
102
}
100
AcDbPlotSettings
  1

  2
none_device
  4
ANSI_C_(22.00_x_17.00_Inches)
  6

 40
0.0
 41
0.0
 42
0.0
 43
0.0
 44
558.8
 45
431.8
 46
0.0
 47
0.0
 48
0.0
 49
0.0
140
0.0
141
0.0
142
1.0
143
1.0
 70
1024
 72
0
 73
0
 74
0
  7

 75
0
147
1.0
148
0.0
149
0.0
100
AcDbLayout
  1
Model
 70
0
 71
0
 10
0.0
 20
0.0
 11
22.0
 21
17.0
 12
0.0
 22
0.0
 32
0.0
 14
0.0
 24
0.0
 34
0.0
 15
0.0
 25
0.0
 35
0.0
146
0.0
 13
0.0
 23
0.0
 33
0.0
 16
1.0
 26
0.0
 36
0.0
 17
0.0
 27
1.0
 37
0.0
 76
0
330
216
345
0
346
0
  0
LAYOUT
  5
33F
102
{ACAD_REACTORS
330
1A
102
}
100
AcDbPlotSettings
  1

  2
none_device
  4
ANSI_C_(22.00_x_17.00_Inches)
  6

 40
0.0
 41
0.0
 42
0.0
 43
0.0
 44
558.8
 45
431.8
 46
0.0
 47
0.0
 48
0.0
 49
0.0
140
0.0
141
0.0
142
1.0
143
1.0
 70
0
 72
0
 73
0
 74
0
  7

 75
0
147
1.0
148
0.0
149
0.0
100
AcDbLayout
  1
Layout1
 70
0
 71
1
 10
0.0
 20
0.0
 11
22.0
 21
17.0
 12
0.0
 22
0.0
 32
0.0
 14
0.0
 24
0.0
 34
0.0
 15
0.0
 25
0.0
 35
0.0
146
0.0
 13
0.0
 23
0.0
 33
0.0
 16
1.0
 26
0.0
 36
0.0
 17
0.0
 27
1.0
 37
0.0
 76
0
330
217
345
0
346
0
  0
ENDSEC
  0
EOF