999
DXF file: _cgs_temp_output.dxf
999
Pro/ENGINEER 2015110 by Parametric Technology Corporation
  0
SECTION
  2
HEADER
  9
$ACADVER
  1
AC1021
  9
$DWGCODEPAGE
  3
ANSI_1252
  9
$EXTMAX
 10
22.0
 20
17.0
 30
0.0
  9
$EXTMIN
 10
0.0
 20
0.0
 30
0.0
  9
$LIMMIN
 10
0.0
 20
0.0
  9
$LIMMAX
 10
22.0
 20
17.0
  9
$VIEWCTR
 10
11.0
 20
8.5
  9
$VIEWSIZE
 40
17.0
  9
$CLAYER
  8
0
  9
$LTSCALE
 40
1.21
  9
$CELTYPE
  6
BYLAYER
  9
$DIMSCALE
 40
1.0
  9
$DIMASZ
 40
0.1875
  9
$DIMEXO
 40
0.0625
  9
$DIMDLI
 40
0.836
  9
$DIMEXE
 40
0.125
  9
$DIMCEN
 40
0.198
  9
$DIMLFAC
 40
1.0
  9
$DIMBLK
  1
_CLOSED
  9
$DIMALT
 70
0
  9
$DIMALTF
 40
25.4
  9
$DIMTXT
 40
0.15625
  9
$DIMTOL
 70
0
  9
$DIMLIM
 70
0
  9
$DIMTFAC
 40
1.0
  9
$DIMGAP
 40
0.09
  9
$DIMDSEP
 70
46
  9
$AUNITS
 70
0
  9
$PDMODE
 70
3
  9
$PDSIZE
 40
0.3125
  9
$HANDSEED
  5
2AE
  9
$TILEMODE
 70
1
  9
$MEASUREMENT
 70
0
  9
$INSUNITS
 70
1
  0
ENDSEC
  0
SECTION
  2
CLASSES
  0
CLASS
  1
ACDBDICTIONARYWDFLT
  2
AcDbDictionaryWithDefault
  3
AutoCAD 2000
 90
0
 91
1
280
0
281
0
  0
CLASS
  1
ACDBPLACEHOLDER
  2
AcDbPlaceHolder
  3
AutoCAD 2000
 90
0
 91
1
280
0
281
0
  0
CLASS
  1
LAYOUT
  2
AcDbLayout
  3
AutoCAD 2000
 90
0
 91
0
280
0
281
0
  0
ENDSEC
  0
SECTION
  2
TABLES
  0
TABLE
  2
VPORT
  5
8
100
AcDbSymbolTable
 70
2
  0
VPORT
  5
1F4
100
AcDbSymbolTableRecord
100
AcDbViewportTableRecord
  2
*ACTIVE
 70
0
 10
0.0
 20
0.0
 11
1.0
 21
1.0
 12
11.0
 22
8.5
 13
0.0
 23
0.0
 14
1.0
 24
1.0
 15
0.0
 25
0.0
 16
0.0
 26
0.0
 36
1.0
 17
0.0
 27
0.0
 37
0.0
 40
17.0
 41
1.2941176471
 42
50.0
 43
0.0
 44
0.0
 50
0.0
 51
0.0
 71
0
 72
100
 73
1
 74
1
 75
0
 76
0
 77
0
 78
0
  0
ENDTAB
  0
TABLE
  2
LTYPE
  5
5
100
AcDbSymbolTable
 70
6
  0
LTYPE
  5
14
100
AcDbSymbolTableRecord
100
AcDbLinetypeTableRecord
  2
BYBLOCK
 70
0
  3

 72
65
 73
0
 40
0.0
  0
LTYPE
  5
15
100
AcDbSymbolTableRecord
100
AcDbLinetypeTableRecord
  2
BYLAYER
 70
0
  3

 72
65
 73
0
 40
0.0
  0
LTYPE
  5
16
100
AcDbSymbolTableRecord
100
AcDbLinetypeTableRecord
  2
CONTINUOUS
 70
64
  3
Solid line
 72
65
 73
0
 40
0.0
  0
LTYPE
  5
1F5
100
AcDbSymbolTableRecord
100
AcDbLinetypeTableRecord
  2
CENTER
 70
64
  3
____ _ ____ _ ____ _ ____ _ ____ _ ____ _ ____
 72
65
 73
4
 40
0.6
 49
0.375
 74
0
 49
-0.075
 74
0
 49
0.075
 74
0
 49
-0.075
 74
0
  0
LTYPE
  5
1F6
100
AcDbSymbolTableRecord
100
AcDbLinetypeTableRecord
  2
HIDDEN
 70
64
  3
- - - - - - - - - - - - - - - - - - - -
 72
65
 73
2
 40
0.2
 49
0.1
 74
0
 49
-0.1
 74
0
  0
LTYPE
  5
1F7
100
AcDbSymbolTableRecord
100
AcDbLinetypeTableRecord
  2
PHANTOM
 70
64
  3
_____ _ _ _____ _ _ _____ _ _ _____
 72
65
 73
6
 40
0.8
 49
0.45
 74
0
 49
-0.05
 74
0
 49
0.1
 74
0
 49
-0.05
 74
0
 49
0.1
 74
0
 49
-0.05
 74
0
  0
LTYPE
  5
1F8
100
AcDbSymbolTableRecord
100
AcDbLinetypeTableRecord
  2
DOT
 70
64
  3
. . . . . . . . . . . . . . . . . . . .
 72
65
 73
2
 40
0.2
 49
0.1
 74
0
 49
-0.1
 74
0
  0
LTYPE
  5
1F9
100
AcDbSymbolTableRecord
100
AcDbLinetypeTableRecord
  2
DASHED
 70
64
  3
- - - - - - - - - - - - - - - - - - - -
 72
65
 73
2
 40
0.2
 49
0.1
 74
0
 49
-0.1
 74
0
  0
ENDTAB
  0
TABLE
  2
LAYER
  5
2
100
AcDbSymbolTable
 70
36
  0
LAYER
  5
10
100
AcDbSymbolTableRecord
100
AcDbLayerTableRecord
  2
0
 70
0
 62
7
  6
CONTINUOUS
370
-3
390
F
  0
LAYER
  5
1FA
100
AcDbSymbolTableRecord
100
AcDbLayerTableRecord
  2
DEFAULT_1
 70
0
 62
7
  6
CENTER
370
-3
390
F
  0
LAYER
  5
1FB
100
AcDbSymbolTableRecord
100
AcDbLayerTableRecord
  2
DEFAULT_2
 70
0
 62
8
  6
HIDDEN
370
-3
390
F
  0
LAYER
  5
1FC
100
AcDbSymbolTableRecord
100
AcDbLayerTableRecord
  2
DEFAULT_3
 70
0
 62
7
  6
PHANTOM
370
-3
390
F
  0
LAYER
  5
1FD
100
AcDbSymbolTableRecord
100
AcDbLayerTableRecord
  2
01_ALL_DTM_PLN
 70
0
 62
7
  6
CONTINUOUS
370
-3
390
F
  0
LAYER
  5
1FE
100
AcDbSymbolTableRecord
100
AcDbLayerTableRecord
  2
01__ASM_ALL_DTM_PLN
 70
0
 62
7
  6
CONTINUOUS
370
-3
390
F
  0
LAYER
  5
1FF
100
AcDbSymbolTableRecord
100
AcDbLayerTableRecord
  2
01__ASM_DEF_DTM_PLN
 70
0
 62
7
  6
CONTINUOUS
370
-3
390
F
  0
LAYER
  5
200
100
AcDbSymbolTableRecord
100
AcDbLayerTableRecord
  2
01___PRT_ALL_DTM_PLN
 70
0
 62
7
  6
CONTINUOUS
370
-3
390
F
  0
LAYER
  5
201
100
AcDbSymbolTableRecord
100
AcDbLayerTableRecord
  2
01___PRT_DEF_DTM_PLN
 70
0
 62
7
  6
CONTINUOUS
370
-3
390
F
  0
LAYER
  5
202
100
AcDbSymbolTableRecord
100
AcDbLayerTableRecord
  2
02_ALL_AXES
 70
0
 62
7
  6
CONTINUOUS
370
-3
390
F
  0
LAYER
  5
203
100
AcDbSymbolTableRecord
100
AcDbLayerTableRecord
  2
02__ASM_ALL_AXES
 70
0
 62
7
  6
CONTINUOUS
370
-3
390
F
  0
LAYER
  5
204
100
AcDbSymbolTableRecord
100
AcDbLayerTableRecord
  2
02___PRT_ALL_AXES
 70
0
 62
7
  6
CONTINUOUS
370
-3
390
F
  0
LAYER
  5
205
100
AcDbSymbolTableRecord
100
AcDbLayerTableRecord
  2
03_ALL_CURVES
 70
0
 62
7
  6
CONTINUOUS
370
-3
390
F
  0
LAYER
  5
206
100
AcDbSymbolTableRecord
100
AcDbLayerTableRecord
  2
03__ASM_ALL_CURVES
 70
0
 62
7
  6
CONTINUOUS
370
-3
390
F
  0
LAYER
  5
207
100
AcDbSymbolTableRecord
100
AcDbLayerTableRecord
  2
03___PRT_ALL_CURVES
 70
0
 62
7
  6
CONTINUOUS
370
-3
390
F
  0
LAYER
  5
208
100
AcDbSymbolTableRecord
100
AcDbLayerTableRecord
  2
04_ALL_DTM_PNT
 70
0
 62
7
  6
CONTINUOUS
370
-3
390
F
  0
LAYER
  5
209
100
AcDbSymbolTableRecord
100
AcDbLayerTableRecord
  2
04__ASM_ALL_DTM_PNT
 70
0
 62
7
  6
CONTINUOUS
370
-3
390
F
  0
LAYER
  5
20A
100
AcDbSymbolTableRecord
100
AcDbLayerTableRecord
  2
04___PRT_ALL_DTM_PNT
 70
0
 62
7
  6
CONTINUOUS
370
-3
390
F
  0
LAYER
  5
20B
100
AcDbSymbolTableRecord
100
AcDbLayerTableRecord
  2
05_ALL_DTM_CSYS
 70
0
 62
7
  6
CONTINUOUS
370
-3
390
F
  0
LAYER
  5
20C
100
AcDbSymbolTableRecord
100
AcDbLayerTableRecord
  2
05__ASM_ALL_DTM_CSYS
 70
0
 62
7
  6
CONTINUOUS
370
-3
390
F
  0
LAYER
  5
20D
100
AcDbSymbolTableRecord
100
AcDbLayerTableRecord
  2
05__ASM_DEF_DTM_CSYS
 70
0
 62
7
  6
CONTINUOUS
370
-3
390
F
  0
LAYER
  5
20E
100
AcDbSymbolTableRecord
100
AcDbLayerTableRecord
  2
05___PRT_ALL_DTM_CSYS
 70
0
 62
7
  6
CONTINUOUS
370
-3
390
F
  0
LAYER
  5
20F
100
AcDbSymbolTableRecord
100
AcDbLayerTableRecord
  2
05___PRT_DEF_DTM_CSYS
 70
0
 62
7
  6
CONTINUOUS
370
-3
390
F
  0
LAYER
  5
210
100
AcDbSymbolTableRecord
100
AcDbLayerTableRecord
  2
06_ALL_SURFS
 70
0
 62
7
  6
CONTINUOUS
370
-3
390
F
  0
LAYER
  5
211
100
AcDbSymbolTableRecord
100
AcDbLayerTableRecord
  2
06__ASM_ALL_SURFS
 70
0
 62
7
  6
CONTINUOUS
370
-3
390
F
  0
LAYER
  5
212
100
AcDbSymbolTableRecord
100
AcDbLayerTableRecord
  2
06___PRT_ALL_SURFS
 70
0
 62
7
  6
CONTINUOUS
370
-3
390
F
  0
LAYER
  5
213
100
AcDbSymbolTableRecord
100
AcDbLayerTableRecord
  2
07__ASM_ALL_SKELETONS
 70
0
 62
7
  6
CONTINUOUS
370
-3
390
F
  0
ENDTAB
  0
TABLE
  2
STYLE
  5
3
100
AcDbSymbolTable
 70
1
  0
STYLE
  5
11
100
AcDbSymbolTableRecord
100
AcDbTextStyleTableRecord
  2
STANDARD
 70
0
 40
0.0
 41
0.8
 50
0.0
 71
0
 42
0.2
  3
txt
  4

  0
STYLE
  5
214
100
AcDbSymbolTableRecord
100
AcDbTextStyleTableRecord
  2
TEXTSTYLE_1
 70
0
 40
0.0
 41
0.8
 50
0.0
 71
0
 42
0.2
  3
gdt
  4

  0
ENDTAB
  0
TABLE
  2
VIEW
  5
6
100
AcDbSymbolTable
 70
0
  0
ENDTAB
  0
TABLE
  2
UCS
  5
7
100
AcDbSymbolTable
 70
0
  0
ENDTAB
  0
TABLE
  2
APPID
  5
9
100
AcDbSymbolTable
 70
1
  0
APPID
  5
215
100
AcDbSymbolTableRecord
100
AcDbRegAppTableRecord
  2
ACAD
 70
0
  0
ENDTAB
  0
TABLE
  2
BLOCK_RECORD
  5
1
100
AcDbSymbolTable
 70
0
  0
BLOCK_RECORD
  5
216
100
AcDbSymbolTableRecord
100
AcDbBlockTableRecord
  2
*Model_Space
  0
BLOCK_RECORD
  5
217
100
AcDbSymbolTableRecord
100
AcDbBlockTableRecord
  2
*Paper_Space
  0
ENDTAB
  0
TABLE
  2
DIMSTYLE
  5
A
100
AcDbSymbolTable
 70
1
100
AcDbDimStyleTable
 71
0
  0
DIMSTYLE
105
218
100
AcDbSymbolTableRecord
100
AcDbDimStyleTableRecord
  2
STANDARD
 70
0
  3

  4

 40
1.0
 41
0.1875
 42
0.0625
 43
0.38
 44
0.125
 45
0.0
 46
0.0
 47
0.0001
 48
0.0001
140
0.15625
141
0.09
142
0.0
143
25.4
144
1.0
145
0.0
146
1.0
147
0.09
 71
0.0
 72
0.0
 73
1
 74
1
 75
0
 76
0
 77
0
 78
4
170
0
171
2
172
0
173
0
174
0
175
0
176
0
177
0
178
0
270
2
271
4
272
4
273
2
274
2
275
0
280
0
281
0
282
0
283
1
284
4
285
0
286
0
287
3
288
0
340
11
278
46
  0
ENDTAB
  0
ENDSEC
  0
SECTION
  2
BLOCKS
  0
BLOCK
  5
20
100
AcDbEntity
  8
0
100
AcDbBlockBegin
  2
*Model_Space
 70
0
 10
0.0
 20
0.0
 30
0.0
  3
*Model_Space
  1

  0
ENDBLK
  5
21
100
AcDbEntity
  8
0
100
AcDbBlockEnd
  0
BLOCK
  5
1C
100
AcDbEntity
  8
0
100
AcDbBlockBegin
  2
*Paper_Space
 70
0
 10
0.0
 20
0.0
 30
0.0
  3
*Paper_Space
  1

  0
ENDBLK
  5
1D
100
AcDbEntity
  8
0
100
AcDbBlockEnd
  0
ENDSEC
  0
SECTION
  2
ENTITIES
  0
MTEXT
  5
219
100
AcDbEntity
  8
0
100
AcDbMText
 62
7
  6
CONTINUOUS
  7
STANDARD
 71
1
 72
1
 10
15.9560215477
 20
0.9479130325
 30
0.0
 11
1.0
 21
0.0
 31
0.0
 44
0.9
  1
SCALE: 1:8.000
 40
0.3
 41
3.36
  0
LINE
  5
21A
100
AcDbEntity
  8
0
100
AcDbLine
 62
7
  6
CONTINUOUS
 10
0.0
 20
0.0
 11
0.0
 21
17.0
  0
LINE
  5
21B
100
AcDbEntity
  8
0
100
AcDbLine
 62
7
  6
CONTINUOUS
 10
0.0
 20
0.0
 11
22.0
 21
0.0
  0
LINE
  5
21C
100
AcDbEntity
  8
0
100
AcDbLine
 62
7
  6
CONTINUOUS
 10
0.0
 20
17.0
 11
22.0
 21
17.0
  0
LINE
  5
21D
100
AcDbEntity
  8
0
100
AcDbLine
 62
7
  6
CONTINUOUS
 10
22.0
 20
0.0
 11
22.0
 21
17.0
  0
LINE
  5
21E
100
AcDbEntity
  8
0
100
AcDbLine
 62
7
  6
CONTINUOUS
 10
4.2103672762
 20
5.7001198968
 11
4.2103672762
 21
5.5001198968
  0
LINE
  5
21F
100
AcDbEntity
  8
0
100
AcDbLine
 62
7
  6
CONTINUOUS
 10
4.3394588635
 20
5.4781708632
 11
4.3830040651
 21
5.373043447
  0
LINE
  5
220
100
AcDbEntity
  8
0
100
AcDbLine
 62
7
  6
CONTINUOUS
 10
4.6777304872
 20
5.373043447
 11
4.7212756888
 21
5.4781708632
  0
LINE
  5
221
100
AcDbEntity
  8
0
100
AcDbLine
 62
7
  6
CONTINUOUS
 10
4.9794588635
 20
5.4781708632
 11
5.0230040651
 21
5.373043447
  0
LINE
  5
222
100
AcDbEntity
  8
0
100
AcDbLine
 62
7
  6
CONTINUOUS
 10
5.3177304872
 20
5.373043447
 11
5.3612756888
 21
5.4781708632
  0
LINE
  5
223
100
AcDbEntity
  8
0
100
AcDbLine
 62
7
  6
CONTINUOUS
 10
5.6194588635
 20
5.4781708632
 11
5.6630040651
 21
5.373043447
  0
LINE
  5
224
100
AcDbEntity
  8
0
100
AcDbLine
 62
7
  6
CONTINUOUS
 10
4.4322776402
 20
5.3401198968
 11
4.6284569122
 21
5.3401198968
  0
LINE
  5
225
100
AcDbEntity
  8
0
100
AcDbLine
 62
7
  6
CONTINUOUS
 10
5.0722776402
 20
5.3401198968
 11
5.2684569122
 21
5.3401198968
  0
LINE
  5
226
100
AcDbEntity
  8
0
100
AcDbLine
 62
7
  6
CONTINUOUS
 10
5.7122776402
 20
5.3401198968
 11
5.9084569122
 21
5.3401198968
  0
LINE
  5
227
100
AcDbEntity
  8
0
100
AcDbLine
 62
7
  6
CONTINUOUS
 10
6.3522776402
 20
5.3401198968
 11
6.5484569122
 21
5.3401198968
  0
LINE
  5
228
100
AcDbEntity
  8
0
100
AcDbLine
 62
7
  6
CONTINUOUS
 10
6.9922776402
 20
5.3401198968
 11
7.1884569122
 21
5.3401198968
  0
LINE
  5
229
100
AcDbEntity
  8
0
100
AcDbLine
 62
7
  6
CONTINUOUS
 10
7.6322776402
 20
5.3401198968
 11
7.8284569122
 21
5.3401198968
  0
LINE
  5
22A
100
AcDbEntity
  8
0
100
AcDbLine
 62
7
  6
CONTINUOUS
 10
5.9577304872
 20
5.373043447
 11
6.0012756888
 21
5.4781708632
  0
LINE
  5
22B
100
AcDbEntity
  8
0
100
AcDbLine
 62
7
  6
CONTINUOUS
 10
4.2103672762
 20
5.5001198968
 11
4.3066098135
 21
5.5001198968
  0
LINE
  5
22C
100
AcDbEntity
  8
0
100
AcDbLine
 62
7
  6
CONTINUOUS
 10
4.7541247388
 20
5.5001198968
 11
4.9466098135
 21
5.5001198968
  0
LINE
  5
22D
100
AcDbEntity
  8
0
100
AcDbLine
 62
7
  6
CONTINUOUS
 10
5.3941247388
 20
5.5001198968
 11
5.5866098135
 21
5.5001198968
  0
LINE
  5
22E
100
AcDbEntity
  8
0
100
AcDbLine
 62
7
  6
CONTINUOUS
 10
6.0341247388
 20
5.5001198968
 11
6.2266098135
 21
5.5001198968
  0
LINE
  5
22F
100
AcDbEntity
  8
0
100
AcDbLine
 62
7
  6
CONTINUOUS
 10
6.6741247388
 20
5.5001198968
 11
6.8666098135
 21
5.5001198968
  0
LINE
  5
230
100
AcDbEntity
  8
0
100
AcDbLine
 62
7
  6
CONTINUOUS
 10
7.3141247388
 20
5.5001198968
 11
7.5066098135
 21
5.5001198968
  0
LINE
  5
231
100
AcDbEntity
  8
0
100
AcDbLine
 62
7
  6
CONTINUOUS
 10
7.9541247388
 20
5.5001198968
 11
8.0503672762
 21
5.5001198968
  0
LINE
  5
232
100
AcDbEntity
  8
0
100
AcDbLine
 62
7
  6
CONTINUOUS
 10
6.2594588635
 20
5.4781708632
 11
6.3030040651
 21
5.373043447
  0
LINE
  5
233
100
AcDbEntity
  8
0
100
AcDbLine
 62
7
  6
CONTINUOUS
 10
8.0503672762
 20
5.7001198968
 11
4.2103672762
 21
5.7001198968
  0
LINE
  5
234
100
AcDbEntity
  8
0
100
AcDbLine
 62
7
  6
CONTINUOUS
 10
6.5977304872
 20
5.373043447
 11
6.6412756888
 21
5.4781708632
  0
LINE
  5
235
100
AcDbEntity
  8
0
100
AcDbLine
 62
7
  6
CONTINUOUS
 10
6.8994588635
 20
5.4781708632
 11
6.9430040651
 21
5.373043447
  0
LINE
  5
236
100
AcDbEntity
  8
0
100
AcDbLine
 62
7
  6
CONTINUOUS
 10
7.2377304872
 20
5.373043447
 11
7.2812756888
 21
5.4781708632
  0
LINE
  5
237
100
AcDbEntity
  8
0
100
AcDbLine
 62
7
  6
CONTINUOUS
 10
7.5394588635
 20
5.4781708632
 11
7.5830040651
 21
5.373043447
  0
LINE
  5
238
100
AcDbEntity
  8
0
100
AcDbLine
 62
7
  6
CONTINUOUS
 10
7.8777304872
 20
5.373043447
 11
7.9212756888
 21
5.4781708632
  0
LINE
  5
239
100
AcDbEntity
  8
0
100
AcDbLine
 62
7
  6
CONTINUOUS
 10
8.0503672762
 20
5.5001198968
 11
8.0503672762
 21
5.7001198968
  0
LINE
  5
23A
100
AcDbEntity
  8
0
100
AcDbLine
 62
7
  6
CONTINUOUS
 10
4.1508720839
 20
13.3560477814
 11
4.1508720839
 21
11.8440477814
  0
LINE
  5
23B
100
AcDbEntity
  8
0
100
AcDbLine
 62
7
  6
CONTINUOUS
 10
7.9908720839
 20
11.8440477814
 11
4.1508720839
 21
11.8440477814
  0
LINE
  5
23C
100
AcDbEntity
  8
0
100
AcDbLine
 62
7
  6
CONTINUOUS
 10
4.1508720839
 20
13.3560477814
 11
7.9908720839
 21
13.3560477814
  0
LINE
  5
23D
100
AcDbEntity
  8
0
100
AcDbLine
 62
7
  6
CONTINUOUS
 10
7.9908720839
 20
13.3560477814
 11
7.9908720839
 21
11.8440477814
  0
LINE
  5
23E
100
AcDbEntity
  8
0
100
AcDbLine
 62
7
  6
CONTINUOUS
 10
14.8043552569
 20
5.2806247044
 11
14.8043552569
 21
5.6406247044
  0
LINE
  5
23F
100
AcDbEntity
  8
0
100
AcDbLine
 62
7
  6
CONTINUOUS
 10
14.8043552569
 20
5.2806247044
 11
16.3163552569
 21
5.2806247044
  0
LINE
  5
240
100
AcDbEntity
  8
0
100
AcDbLine
 62
7
  6
CONTINUOUS
 10
16.3163552569
 20
5.4406247044
 11
14.8043552569
 21
5.4406247044
  0
LINE
  5
241
100
AcDbEntity
  8
0
100
AcDbLine
 62
7
  6
CONTINUOUS
 10
16.3163552569
 20
5.6406247044
 11
14.8043552569
 21
5.6406247044
  0
LINE
  5
242
100
AcDbEntity
  8
0
100
AcDbLine
 62
7
  6
CONTINUOUS
 10
16.3163552569
 20
5.2806247044
 11
16.3163552569
 21
5.6406247044
  0
LINE
  5
243
100
AcDbEntity
  8
0
100
AcDbLine
 62
7
  6
CONTINUOUS
 10
13.4891690328
 20
12.0304996435
 11
13.5501774062
 21
11.9061776499
  0
LINE
  5
244
100
AcDbEntity
  8
0
100
AcDbLine
 62
7
  6
CONTINUOUS
 10
13.8551733138
 20
13.2148899309
 11
13.4891690328
 21
12.0304996435
  0
LINE
  5
245
100
AcDbEntity
  8
0
100
AcDbLine
 62
7
  6
CONTINUOUS
 10
13.6757740061
 20
11.8925339118
 11
13.747950056
 21
11.827185662
  0
LINE
  5
246
100
AcDbEntity
  8
0
100
AcDbLine
 62
7
  6
CONTINUOUS
 10
14.0194110673
 20
11.827185662
 11
14.0274505907
 21
11.8925339118
  0
LINE
  5
247
100
AcDbEntity
  8
0
100
AcDbLine
 62
7
  6
CONTINUOUS
 10
14.0187615972
 20
11.8241246533
 11
14.0194110673
 21
11.827185662
  0
LINE
  5
248
100
AcDbEntity
  8
0
100
AcDbLine
 62
7
  6
CONTINUOUS
 10
14.0274505907
 20
11.8925339118
 11
14.0278912332
 21
11.8945722199
  0
LINE
  5
249
100
AcDbEntity
  8
0
100
AcDbLine
 62
7
  6
CONTINUOUS
 10
14.2652530422
 20
11.8925339118
 11
14.3374290922
 21
11.827185662
  0
LINE
  5
24A
100
AcDbEntity
  8
0
100
AcDbLine
 62
7
  6
CONTINUOUS
 10
14.0196771209
 20
11.8271034452
 11
14.0438814146
 21
11.9054285683
  0
LINE
  5
24B
100
AcDbEntity
  8
0
100
AcDbLine
 62
7
  6
CONTINUOUS
 10
14.8547320784
 20
11.8925339118
 11
14.9269081283
 21
11.827185662
  0
LINE
  5
24C
100
AcDbEntity
  8
0
100
AcDbLine
 62
7
  6
CONTINUOUS
 10
14.6088901035
 20
11.827185662
 11
14.6169296269
 21
11.8925339118
  0
LINE
  5
24D
100
AcDbEntity
  8
0
100
AcDbLine
 62
7
  6
CONTINUOUS
 10
14.6082406334
 20
11.8241246533
 11
14.6088901035
 21
11.827185662
  0
LINE
  5
24E
100
AcDbEntity
  8
0
100
AcDbLine
 62
7
  6
CONTINUOUS
 10
14.6169296269
 20
11.8925339118
 11
14.6173702694
 21
11.8945722199
  0
LINE
  5
24F
100
AcDbEntity
  8
0
100
AcDbLine
 62
7
  6
CONTINUOUS
 10
13.8033770853
 20
11.8067200549
 11
13.9840701605
 21
11.8067200549
  0
LINE
  5
250
100
AcDbEntity
  8
0
100
AcDbLine
 62
7
  6
CONTINUOUS
 10
14.3928561214
 20
11.8067200549
 11
14.5735491967
 21
11.8067200549
  0
LINE
  5
251
100
AcDbEntity
  8
0
100
AcDbLine
 62
7
  6
CONTINUOUS
 10
14.9823351576
 20
11.8067200549
 11
15.1630282329
 21
11.8067200549
  0
LINE
  5
252
100
AcDbEntity
  8
0
100
AcDbLine
 62
7
  6
CONTINUOUS
 10
15.5718141938
 20
11.8067200549
 11
15.752507269
 21
11.8067200549
  0
LINE
  5
253
100
AcDbEntity
  8
0
100
AcDbLine
 62
7
  6
CONTINUOUS
 10
16.1612932299
 20
11.8067200549
 11
16.3419863052
 21
11.8067200549
  0
LINE
  5
254
100
AcDbEntity
  8
0
100
AcDbLine
 62
7
  6
CONTINUOUS
 10
16.7507722661
 20
11.8067200549
 11
16.9314653413
 21
11.8067200549
  0
LINE
  5
255
100
AcDbEntity
  8
0
100
AcDbLine
 62
7
  6
CONTINUOUS
 10
14.6091561571
 20
11.8271034452
 11
14.6333604508
 21
11.9054285683
  0
LINE
  5
256
100
AcDbEntity
  8
0
100
AcDbLine
 62
7
  6
CONTINUOUS
 10
13.5501774062
 20
11.9061776499
 11
13.6388226532
 21
11.9061776499
  0
LINE
  5
257
100
AcDbEntity
  8
0
100
AcDbLine
 62
7
  6
CONTINUOUS
 10
14.0510111952
 20
11.9061776499
 11
14.2283016894
 21
11.9061776499
  0
LINE
  5
258
100
AcDbEntity
  8
0
100
AcDbLine
 62
7
  6
CONTINUOUS
 10
14.6404902314
 20
11.9061776499
 11
14.8177807256
 21
11.9061776499
  0
LINE
  5
259
100
AcDbEntity
  8
0
100
AcDbLine
 62
7
  6
CONTINUOUS
 10
15.2299692676
 20
11.9061776499
 11
15.4072597617
 21
11.9061776499
  0
LINE
  5
25A
100
AcDbEntity
  8
0
100
AcDbLine
 62
7
  6
CONTINUOUS
 10
15.8194483037
 20
11.9061776499
 11
15.9967387979
 21
11.9061776499
  0
LINE
  5
25B
100
AcDbEntity
  8
0
100
AcDbLine
 62
7
  6
CONTINUOUS
 10
16.4089273399
 20
11.9061776499
 11
16.5862178341
 21
11.9061776499
  0
LINE
  5
25C
100
AcDbEntity
  8
0
100
AcDbLine
 62
7
  6
CONTINUOUS
 10
16.998406376
 20
11.9061776499
 11
17.0870516231
 21
11.9061776499
  0
LINE
  5
25D
100
AcDbEntity
  8
0
100
AcDbLine
 62
7
  6
CONTINUOUS
 10
17.0260432498
 20
12.0304996435
 11
13.4891690328
 21
12.0304996435
  0
LINE
  5
25E
100
AcDbEntity
  8
0
100
AcDbLine
 62
7
  6
CONTINUOUS
 10
15.4442111146
 20
11.8925339118
 11
15.5163871645
 21
11.827185662
  0
LINE
  5
25F
100
AcDbEntity
  8
0
100
AcDbLine
 62
7
  6
CONTINUOUS
 10
15.1983691397
 20
11.827185662
 11
15.206408663
 21
11.8925339118
  0
LINE
  5
260
100
AcDbEntity
  8
0
100
AcDbLine
 62
7
  6
CONTINUOUS
 10
15.1977196696
 20
11.8241246533
 11
15.1983691397
 21
11.827185662
  0
LINE
  5
261
100
AcDbEntity
  8
0
100
AcDbLine
 62
7
  6
CONTINUOUS
 10
15.206408663
 20
11.8925339118
 11
15.2068493055
 21
11.8945722199
  0
LINE
  5
262
100
AcDbEntity
  8
0
100
AcDbLine
 62
7
  6
CONTINUOUS
 10
15.1986351932
 20
11.8271034452
 11
15.2228394869
 21
11.9054285683
  0
LINE
  5
263
100
AcDbEntity
  8
0
100
AcDbLine
 62
7
  6
CONTINUOUS
 10
16.0336901507
 20
11.8925339118
 11
16.1058662007
 21
11.827185662
  0
LINE
  5
264
100
AcDbEntity
  8
0
100
AcDbLine
 62
7
  6
CONTINUOUS
 10
15.7878481758
 20
11.827185662
 11
15.7958876992
 21
11.8925339118
  0
LINE
  5
265
100
AcDbEntity
  8
0
100
AcDbLine
 62
7
  6
CONTINUOUS
 10
16.6231691869
 20
11.8925339118
 11
16.6953452368
 21
11.827185662
  0
LINE
  5
266
100
AcDbEntity
  8
0
100
AcDbLine
 62
7
  6
CONTINUOUS
 10
15.7871987057
 20
11.8241246533
 11
15.7878481758
 21
11.827185662
  0
LINE
  5
267
100
AcDbEntity
  8
0
100
AcDbLine
 62
7
  6
CONTINUOUS
 10
15.7958876992
 20
11.8925339118
 11
15.7963283417
 21
11.8945722199
  0
LINE
  5
268
100
AcDbEntity
  8
0
100
AcDbLine
 62
7
  6
CONTINUOUS
 10
15.7881142294
 20
11.8271034452
 11
15.8123185231
 21
11.9054285683
  0
LINE
  5
269
100
AcDbEntity
  8
0
100
AcDbLine
 62
7
  6
CONTINUOUS
 10
13.8551733138
 20
13.2148899309
 11
17.3920475308
 21
13.2148899309
  0
LINE
  5
26A
100
AcDbEntity
  8
0
100
AcDbLine
 62
7
  6
CONTINUOUS
 10
16.377327212
 20
11.827185662
 11
16.3853667353
 21
11.8925339118
  0
LINE
  5
26B
100
AcDbEntity
  8
0
100
AcDbLine
 62
7
  6
CONTINUOUS
 10
16.3766777419
 20
11.8241246533
 11
16.377327212
 21
11.827185662
  0
LINE
  5
26C
100
AcDbEntity
  8
0
100
AcDbLine
 62
7
  6
CONTINUOUS
 10
16.3853667353
 20
11.8925339118
 11
16.3858073779
 21
11.8945722199
  0
LINE
  5
26D
100
AcDbEntity
  8
0
100
AcDbLine
 62
7
  6
CONTINUOUS
 10
16.3775932656
 20
11.8271034452
 11
16.4017975593
 21
11.9054285683
  0
LINE
  5
26E
100
AcDbEntity
  8
0
100
AcDbLine
 62
7
  6
CONTINUOUS
 10
17.0870516231
 20
11.9061776499
 11
17.0260432498
 21
12.0304996435
  0
LINE
  5
26F
100
AcDbEntity
  8
0
100
AcDbLine
 62
7
  6
CONTINUOUS
 10
16.9668062481
 20
11.827185662
 11
16.9748457715
 21
11.8925339118
  0
LINE
  5
270
100
AcDbEntity
  8
0
100
AcDbLine
 62
7
  6
CONTINUOUS
 10
16.966156778
 20
11.8241246533
 11
16.9668062481
 21
11.827185662
  0
LINE
  5
271
100
AcDbEntity
  8
0
100
AcDbLine
 62
7
  6
CONTINUOUS
 10
16.9748457715
 20
11.8925339118
 11
16.975286414
 21
11.8945722199
  0
LINE
  5
272
100
AcDbEntity
  8
0
100
AcDbLine
 62
7
  6
CONTINUOUS
 10
17.3920475308
 20
13.2148899309
 11
17.0260432498
 21
12.0304996435
  0
LINE
  5
273
100
AcDbEntity
  8
0
100
AcDbLine
 62
7
  6
CONTINUOUS
 10
16.9670723017
 20
11.8271034452
 11
16.9912765954
 21
11.9054285683
  0
LINE
  5
274
100
AcDbEntity
  8
0
100
AcDbLine
 62
7
  6
CONTINUOUS
 10
17.4530559041
 20
13.0905679372
 11
17.0870516231
 21
11.9061776499
  0
LINE
  5
275
100
AcDbEntity
  8
0
100
AcDbLine
 62
7
  6
CONTINUOUS
 10
17.4530559041
 20
13.0905679372
 11
17.3920475308
 21
13.2148899309
  0
ARC
  5
276
100
AcDbEntity
  8
0
100
AcDbCircle
 62
7
  6
CONTINUOUS
 10
5.0722776402
 20
5.3934532301
 40
0.0533333333
100
AcDbArc
 50
202.5
 51
270.0
  0
ARC
  5
277
100
AcDbEntity
  8
0
100
AcDbCircle
 62
7
  6
CONTINUOUS
 10
5.2684569122
 20
5.3934532301
 40
0.0533333333
100
AcDbArc
 50
270.0
 51
337.5
  0
ARC
  5
278
100
AcDbEntity
  8
0
100
AcDbCircle
 62
7
  6
CONTINUOUS
 10
5.7122776402
 20
5.3934532301
 40
0.0533333333
100
AcDbArc
 50
202.5
 51
270.0
  0
ARC
  5
279
100
AcDbEntity
  8
0
100
AcDbCircle
 62
7
  6
CONTINUOUS
 10
5.9084569122
 20
5.3934532301
 40
0.0533333333
100
AcDbArc
 50
270.0
 51
337.5
  0
ARC
  5
27A
100
AcDbEntity
  8
0
100
AcDbCircle
 62
7
  6
CONTINUOUS
 10
6.3522776402
 20
5.3934532301
 40
0.0533333333
100
AcDbArc
 50
202.5
 51
270.0
  0
ARC
  5
27B
100
AcDbEntity
  8
0
100
AcDbCircle
 62
7
  6
CONTINUOUS
 10
6.5484569122
 20
5.3934532301
 40
0.0533333333
100
AcDbArc
 50
270.0
 51
337.5
  0
ARC
  5
27C
100
AcDbEntity
  8
0
100
AcDbCircle
 62
7
  6
CONTINUOUS
 10
4.6284569122
 20
5.3934532301
 40
0.0533333333
100
AcDbArc
 50
270.0
 51
337.5
  0
ARC
  5
27D
100
AcDbEntity
  8
0
100
AcDbCircle
 62
7
  6
CONTINUOUS
 10
4.4322776402
 20
5.3934532301
 40
0.0533333333
100
AcDbArc
 50
202.5
 51
270.0
  0
ARC
  5
27E
100
AcDbEntity
  8
0
100
AcDbCircle
 62
7
  6
CONTINUOUS
 10
7.8284569122
 20
5.3934532301
 40
0.0533333333
100
AcDbArc
 50
270.0
 51
337.5
  0
ARC
  5
27F
100
AcDbEntity
  8
0
100
AcDbCircle
 62
7
  6
CONTINUOUS
 10
7.6322776402
 20
5.3934532301
 40
0.0533333333
100
AcDbArc
 50
202.5
 51
270.0
  0
ARC
  5
280
100
AcDbEntity
  8
0
100
AcDbCircle
 62
7
  6
CONTINUOUS
 10
7.1884569122
 20
5.3934532301
 40
0.0533333333
100
AcDbArc
 50
270.0
 51
337.5
  0
ARC
  5
281
100
AcDbEntity
  8
0
100
AcDbCircle
 62
7
  6
CONTINUOUS
 10
6.9922776402
 20
5.3934532301
 40
0.0533333333
100
AcDbArc
 50
202.5
 51
270.0
  0
ARC
  5
282
100
AcDbEntity
  8
0
100
AcDbCircle
 62
7
  6
CONTINUOUS
 10
4.7541247388
 20
5.4645643412
 40
0.0355555556
100
AcDbArc
 50
90.0
 51
157.5
  0
ARC
  5
283
100
AcDbEntity
  8
0
100
AcDbCircle
 62
7
  6
CONTINUOUS
 10
4.3066098135
 20
5.4645643412
 40
0.0355555556
100
AcDbArc
 50
22.5
 51
90.0
  0
ARC
  5
284
100
AcDbEntity
  8
0
100
AcDbCircle
 62
7
  6
CONTINUOUS
 10
5.3941247388
 20
5.4645643412
 40
0.0355555556
100
AcDbArc
 50
90.0
 51
157.5
  0
ARC
  5
285
100
AcDbEntity
  8
0
100
AcDbCircle
 62
7
  6
CONTINUOUS
 10
4.9466098135
 20
5.4645643412
 40
0.0355555556
100
AcDbArc
 50
22.5
 51
90.0
  0
ARC
  5
286
100
AcDbEntity
  8
0
100
AcDbCircle
 62
7
  6
CONTINUOUS
 10
6.0341247388
 20
5.4645643412
 40
0.0355555556
100
AcDbArc
 50
90.0
 51
157.5
  0
ARC
  5
287
100
AcDbEntity
  8
0
100
AcDbCircle
 62
7
  6
CONTINUOUS
 10
5.5866098135
 20
5.4645643412
 40
0.0355555556
100
AcDbArc
 50
22.5
 51
90.0
  0
ARC
  5
288
100
AcDbEntity
  8
0
100
AcDbCircle
 62
7
  6
CONTINUOUS
 10
6.6741247388
 20
5.4645643412
 40
0.0355555556
100
AcDbArc
 50
90.0
 51
157.5
  0
ARC
  5
289
100
AcDbEntity
  8
0
100
AcDbCircle
 62
7
  6
CONTINUOUS
 10
6.2266098135
 20
5.4645643412
 40
0.0355555556
100
AcDbArc
 50
22.5
 51
90.0
  0
ARC
  5
28A
100
AcDbEntity
  8
0
100
AcDbCircle
 62
7
  6
CONTINUOUS
 10
7.3141247388
 20
5.4645643412
 40
0.0355555556
100
AcDbArc
 50
90.0
 51
157.5
  0
ARC
  5
28B
100
AcDbEntity
  8
0
100
AcDbCircle
 62
7
  6
CONTINUOUS
 10
6.8666098135
 20
5.4645643412
 40
0.0355555556
100
AcDbArc
 50
22.5
 51
90.0
  0
ARC
  5
28C
100
AcDbEntity
  8
0
100
AcDbCircle
 62
7
  6
CONTINUOUS
 10
7.9541247388
 20
5.4645643412
 40
0.0355555556
100
AcDbArc
 50
90.0
 51
157.5
  0
ARC
  5
28D
100
AcDbEntity
  8
0
100
AcDbCircle
 62
7
  6
CONTINUOUS
 10
7.5066098135
 20
5.4645643412
 40
0.0355555556
100
AcDbArc
 50
22.5
 51
90.0
  0
SPLINE
  5
28E
100
AcDbEntity
  8
0
100
AcDbSpline
 62
7
  6
CONTINUOUS
 70
0
 71
3
 72
13
 73
9
 74
0
 42
0.0000001
 43
0.0000001
 44
0.0000000001
 40
0.0
 40
0.0
 40
0.0
 40
0.0
 40
0.1167214975
 40
0.2344029984
 40
0.3538126247
 40
0.4756938742
 40
0.7293205816
 40
1.0
 40
1.0
 40
1.0
 40
1.0
 10
14.0278877249
 20
11.8945733048
 30
0.0
 10
14.0280099917
 20
11.8949681651
 30
0.0
 10
14.0282978513
 20
11.8957487181
 30
0.0
 10
14.028853293
 20
11.8968742585
 30
0.0
 10
14.029531515
 20
11.8979521945
 30
0.0
 10
14.0306108122
 20
11.8993364261
 30
0.0
 10
14.0322735448
 20
11.9009280356
 30
0.0
 10
14.0338178368
 20
11.9019741267
 30
0.0
 10
14.0346474379
 20
11.902454379
 30
0.0
  0
SPLINE
  5
28F
100
AcDbEntity
  8
0
100
AcDbSpline
 62
7
  6
CONTINUOUS
 70
0
 71
3
 72
14
 73
10
 74
0
 42
0.0000001
 43
0.0000001
 44
0.0000000001
 40
0.0
 40
0.0
 40
0.0
 40
0.0
 40
0.2218099185
 40
0.3400739536
 40
0.4632239654
 40
0.5911684454
 40
0.7235761616
 40
0.8600118149
 40
1.0
 40
1.0
 40
1.0
 40
1.0
 10
14.0346474379
 20
11.902454379
 30
0.0
 10
14.0357328336
 20
11.9030827097
 30
0.0
 10
14.0374885574
 20
11.9038935947
 30
0.0
 10
14.0399724603
 20
11.9047273418
 30
0.0
 10
14.0419950798
 20
11.9052546428
 30
0.0
 10
14.0441253641
 20
11.9056661596
 30
0.0
 10
14.0463506067
 20
11.9059613387
 30
0.0
 10
14.0486564191
 20
11.9061389293
 30
0.0
 10
14.0502196812
 20
11.9061776499
 30
0.0
 10
14.0510111952
 20
11.9061776499
 30
0.0
  0
SPLINE
  5
290
100
AcDbEntity
  8
0
100
AcDbSpline
 62
7
  6
CONTINUOUS
 70
0
 71
3
 72
13
 73
9
 74
0
 42
0.0000001
 43
0.0000001
 44
0.0000000001
 40
0.0
 40
0.0
 40
0.0
 40
0.0
 40
0.1167214975
 40
0.2344029984
 40
0.3538126247
 40
0.4756938742
 40
0.7293205816
 40
1.0
 40
1.0
 40
1.0
 40
1.0
 10
14.6173667611
 20
11.8945733048
 30
0.0
 10
14.6174890278
 20
11.8949681651
 30
0.0
 10
14.6177768875
 20
11.8957487181
 30
0.0
 10
14.6183323292
 20
11.8968742585
 30
0.0
 10
14.6190105512
 20
11.8979521945
 30
0.0
 10
14.6200898484
 20
11.8993364261
 30
0.0
 10
14.6217525809
 20
11.9009280356
 30
0.0
 10
14.623296873
 20
11.9019741267
 30
0.0
 10
14.6241264741
 20
11.902454379
 30
0.0
  0
SPLINE
  5
291
100
AcDbEntity
  8
0
100
AcDbSpline
 62
7
  6
CONTINUOUS
 70
0
 71
3
 72
14
 73
10
 74
0
 42
0.0000001
 43
0.0000001
 44
0.0000000001
 40
0.0
 40
0.0
 40
0.0
 40
0.0
 40
0.2218099185
 40
0.3400739536
 40
0.4632239654
 40
0.5911684454
 40
0.7235761616
 40
0.8600118149
 40
1.0
 40
1.0
 40
1.0
 40
1.0
 10
14.6241264741
 20
11.902454379
 30
0.0
 10
14.6252118697
 20
11.9030827097
 30
0.0
 10
14.6269675936
 20
11.9038935947
 30
0.0
 10
14.6294514964
 20
11.9047273418
 30
0.0
 10
14.631474116
 20
11.9052546428
 30
0.0
 10
14.6336044002
 20
11.9056661596
 30
0.0
 10
14.6358296429
 20
11.9059613387
 30
0.0
 10
14.6381354552
 20
11.9061389293
 30
0.0
 10
14.6396987173
 20
11.9061776499
 30
0.0
 10
14.6404902314
 20
11.9061776499
 30
0.0
  0
SPLINE
  5
292
100
AcDbEntity
  8
0
100
AcDbSpline
 62
7
  6
CONTINUOUS
 70
0
 71
3
 72
13
 73
9
 74
0
 42
0.0000001
 43
0.0000001
 44
0.0000000001
 40
0.0
 40
0.0
 40
0.0
 40
0.0
 40
0.1167214975
 40
0.2344029984
 40
0.3538126247
 40
0.4756938742
 40
0.7293205816
 40
1.0
 40
1.0
 40
1.0
 40
1.0
 10
15.2068457973
 20
11.8945733048
 30
0.0
 10
15.206968064
 20
11.8949681651
 30
0.0
 10
15.2072559236
 20
11.8957487181
 30
0.0
 10
15.2078113654
 20
11.8968742585
 30
0.0
 10
15.2084895873
 20
11.8979521945
 30
0.0
 10
15.2095688845
 20
11.8993364261
 30
0.0
 10
15.2112316171
 20
11.9009280356
 30
0.0
 10
15.2127759092
 20
11.9019741267
 30
0.0
 10
15.2136055103
 20
11.902454379
 30
0.0
  0
SPLINE
  5
293
100
AcDbEntity
  8
0
100
AcDbSpline
 62
7
  6
CONTINUOUS
 70
0
 71
3
 72
14
 73
10
 74
0
 42
0.0000001
 43
0.0000001
 44
0.0000000001
 40
0.0
 40
0.0
 40
0.0
 40
0.0
 40
0.2218099185
 40
0.3400739536
 40
0.4632239654
 40
0.5911684454
 40
0.7235761616
 40
0.8600118149
 40
1.0
 40
1.0
 40
1.0
 40
1.0
 10
15.2136055103
 20
11.902454379
 30
0.0
 10
15.2146909059
 20
11.9030827097
 30
0.0
 10
15.2164466298
 20
11.9038935947
 30
0.0
 10
15.2189305326
 20
11.9047273418
 30
0.0
 10
15.2209531521
 20
11.9052546428
 30
0.0
 10
15.2230834364
 20
11.9056661596
 30
0.0
 10
15.2253086791
 20
11.9059613387
 30
0.0
 10
15.2276144914
 20
11.9061389293
 30
0.0
 10
15.2291777535
 20
11.9061776499
 30
0.0
 10
15.2299692676
 20
11.9061776499
 30
0.0
  0
SPLINE
  5
294
100
AcDbEntity
  8
0
100
AcDbSpline
 62
7
  6
CONTINUOUS
 70
0
 71
3
 72
13
 73
9
 74
0
 42
0.0000001
 43
0.0000001
 44
0.0000000001
 40
0.0
 40
0.0
 40
0.0
 40
0.0
 40
0.1167214975
 40
0.2344029984
 40
0.3538126247
 40
0.4756938742
 40
0.7293205816
 40
1.0
 40
1.0
 40
1.0
 40
1.0
 10
15.7963248334
 20
11.8945733048
 30
0.0
 10
15.7964471001
 20
11.8949681651
 30
0.0
 10
15.7967349598
 20
11.8957487181
 30
0.0
 10
15.7972904015
 20
11.8968742585
 30
0.0
 10
15.7979686235
 20
11.8979521945
 30
0.0
 10
15.7990479207
 20
11.8993364261
 30
0.0
 10
15.8007106532
 20
11.9009280356
 30
0.0
 10
15.8022549453
 20
11.9019741267
 30
0.0
 10
15.8030845464
 20
11.902454379
 30
0.0
  0
SPLINE
  5
295
100
AcDbEntity
  8
0
100
AcDbSpline
 62
7
  6
CONTINUOUS
 70
0
 71
3
 72
14
 73
10
 74
0
 42
0.0000001
 43
0.0000001
 44
0.0000000001
 40
0.0
 40
0.0
 40
0.0
 40
0.0
 40
0.2218099185
 40
0.3400739536
 40
0.4632239654
 40
0.5911684454
 40
0.7235761616
 40
0.8600118149
 40
1.0
 40
1.0
 40
1.0
 40
1.0
 10
15.8030845464
 20
11.902454379
 30
0.0
 10
15.804169942
 20
11.9030827097
 30
0.0
 10
15.8059256659
 20
11.9038935947
 30
0.0
 10
15.8084095688
 20
11.9047273418
 30
0.0
 10
15.8104321883
 20
11.9052546428
 30
0.0
 10
15.8125624725
 20
11.9056661596
 30
0.0
 10
15.8147877152
 20
11.9059613387
 30
0.0
 10
15.8170935275
 20
11.9061389293
 30
0.0
 10
15.8186567896
 20
11.9061776499
 30
0.0
 10
15.8194483037
 20
11.9061776499
 30
0.0
  0
SPLINE
  5
296
100
AcDbEntity
  8
0
100
AcDbSpline
 62
7
  6
CONTINUOUS
 70
0
 71
3
 72
13
 73
9
 74
0
 42
0.0000001
 43
0.0000001
 44
0.0000000001
 40
0.0
 40
0.0
 40
0.0
 40
0.0
 40
0.1167214975
 40
0.2344029984
 40
0.3538126247
 40
0.4756938742
 40
0.7293205816
 40
1.0
 40
1.0
 40
1.0
 40
1.0
 10
16.3858038696
 20
11.8945733048
 30
0.0
 10
16.3859261363
 20
11.8949681651
 30
0.0
 10
16.386213996
 20
11.8957487181
 30
0.0
 10
16.3867694377
 20
11.8968742585
 30
0.0
 10
16.3874476597
 20
11.8979521945
 30
0.0
 10
16.3885269569
 20
11.8993364261
 30
0.0
 10
16.3901896894
 20
11.9009280356
 30
0.0
 10
16.3917339815
 20
11.9019741267
 30
0.0
 10
16.3925635826
 20
11.902454379
 30
0.0
  0
SPLINE
  5
297
100
AcDbEntity
  8
0
100
AcDbSpline
 62
7
  6
CONTINUOUS
 70
0
 71
3
 72
14
 73
10
 74
0
 42
0.0000001
 43
0.0000001
 44
0.0000000001
 40
0.0
 40
0.0
 40
0.0
 40
0.0
 40
0.2218099185
 40
0.3400739536
 40
0.4632239654
 40
0.5911684454
 40
0.7235761616
 40
0.8600118149
 40
1.0
 40
1.0
 40
1.0
 40
1.0
 10
16.3925635826
 20
11.902454379
 30
0.0
 10
16.3936489782
 20
11.9030827097
 30
0.0
 10
16.3954047021
 20
11.9038935947
 30
0.0
 10
16.3978886049
 20
11.9047273418
 30
0.0
 10
16.3999112244
 20
11.9052546428
 30
0.0
 10
16.4020415087
 20
11.9056661596
 30
0.0
 10
16.4042667514
 20
11.9059613387
 30
0.0
 10
16.4065725637
 20
11.9061389293
 30
0.0
 10
16.4081358258
 20
11.9061776499
 30
0.0
 10
16.4089273399
 20
11.9061776499
 30
0.0
  0
SPLINE
  5
298
100
AcDbEntity
  8
0
100
AcDbSpline
 62
7
  6
CONTINUOUS
 70
0
 71
3
 72
13
 73
9
 74
0
 42
0.0000001
 43
0.0000001
 44
0.0000000001
 40
0.0
 40
0.0
 40
0.0
 40
0.0
 40
0.1167214975
 40
0.2344029984
 40
0.3538126247
 40
0.4756938742
 40
0.7293205816
 40
1.0
 40
1.0
 40
1.0
 40
1.0
 10
16.9752829058
 20
11.8945733048
 30
0.0
 10
16.9754051725
 20
11.8949681651
 30
0.0
 10
16.9756930321
 20
11.8957487181
 30
0.0
 10
16.9762484738
 20
11.8968742585
 30
0.0
 10
16.9769266958
 20
11.8979521945
 30
0.0
 10
16.978005993
 20
11.8993364261
 30
0.0
 10
16.9796687256
 20
11.9009280356
 30
0.0
 10
16.9812130176
 20
11.9019741267
 30
0.0
 10
16.9820426187
 20
11.902454379
 30
0.0
  0
SPLINE
  5
299
100
AcDbEntity
  8
0
100
AcDbSpline
 62
7
  6
CONTINUOUS
 70
0
 71
3
 72
14
 73
10
 74
0
 42
0.0000001
 43
0.0000001
 44
0.0000000001
 40
0.0
 40
0.0
 40
0.0
 40
0.0
 40
0.2218099185
 40
0.3400739536
 40
0.4632239654
 40
0.5911684454
 40
0.7235761616
 40
0.8600118149
 40
1.0
 40
1.0
 40
1.0
 40
1.0
 10
16.9820426187
 20
11.902454379
 30
0.0
 10
16.9831280144
 20
11.9030827097
 30
0.0
 10
16.9848837383
 20
11.9038935947
 30
0.0
 10
16.9873676411
 20
11.9047273418
 30
0.0
 10
16.9893902606
 20
11.9052546428
 30
0.0
 10
16.9915205449
 20
11.9056661596
 30
0.0
 10
16.9937457876
 20
11.9059613387
 30
0.0
 10
16.9960515999
 20
11.9061389293
 30
0.0
 10
16.997614862
 20
11.9061776499
 30
0.0
 10
16.998406376
 20
11.9061776499
 30
0.0
  0
SPLINE
  5
29A
100
AcDbEntity
  8
0
100
AcDbSpline
 62
7
  6
CONTINUOUS
 70
0
 71
3
 72
22
 73
18
 74
0
 42
0.0000001
 43
0.0000001
 44
0.0000000001
 40
0.0
 40
0.0
 40
0.0
 40
0.0
 40
0.0787629342
 40
0.1556801947
 40
0.3030353158
 40
0.3731897383
 40
0.4408814189
 40
0.506084616
 40
0.5688106784
 40
0.6291213325
 40
0.6871208604
 40
0.7429628895
 40
0.7968773006
 40
0.8491655561
 40
0.9001806233
 40
0.9503219911
 40
1.0
 40
1.0
 40
1.0
 40
1.0
 10
13.9840701605
 20
11.8067200549
 30
0.0
 10
13.9851568224
 20
11.8067200549
 30
0.0
 10
13.9873051634
 20
11.8067685167
 30
0.0
 10
13.991476685
 20
11.8070608118
 30
0.0
 10
13.9955062964
 20
11.8076426138
 30
0.0
 10
13.9993395169
 20
11.8085394177
 30
0.0
 10
14.0020254048
 20
11.8093421987
 30
0.0
 10
14.0045573379
 20
11.8102826953
 30
0.0
 10
14.0069240001
 20
11.8113577934
 30
0.0
 10
14.0091152024
 20
11.8125619656
 30
0.0
 10
14.0111212384
 20
11.8138897279
 30
0.0
 10
14.0129322589
 20
11.8153362217
 30
0.0
 10
14.0145395594
 20
11.816895485
 30
0.0
 10
14.015936226
 20
11.8185603016
 30
0.0
 10
14.0171152925
 20
11.8203239682
 30
0.0
 10
14.0180691619
 20
11.8221784569
 30
0.0
 10
14.0185537343
 20
11.8234715201
 30
0.0
 10
14.0187562042
 20
11.8241263202
 30
0.0
  0
SPLINE
  5
29B
100
AcDbEntity
  8
0
100
AcDbSpline
 62
7
  6
CONTINUOUS
 70
0
 71
3
 72
21
 73
17
 74
0
 42
0.0000001
 43
0.0000001
 44
0.0000000001
 40
0.0
 40
0.0
 40
0.0
 40
0.0
 40
0.0565488968
 40
0.1148912273
 40
0.1748164837
 40
0.2361075059
 40
0.298565338
 40
0.3619929624
 40
0.4908920505
 40
0.6209956411
 40
0.6859175497
 40
0.7504443205
 40
0.8143575259
 40
0.8774284852
 40
0.9393962711
 40
1.0
 40
1.0
 40
1.0
 40
1.0
 10
13.747950056
 20
11.827185662
 30
0.0
 10
13.7487926626
 20
11.8264227654
 30
0.0
 10
13.7505504997
 20
11.8249228315
 30
0.0
 10
13.7533434147
 20
11.8227879857
 30
0.0
 10
13.756319681
 20
11.8207436641
 30
0.0
 10
13.7594624092
 20
11.8188035879
 30
0.0
 10
13.7627536821
 20
11.8169779641
 30
0.0
 10
13.7673404562
 20
11.8146967335
 30
0.0
 10
13.7733290286
 20
11.81219657
 30
0.0
 10
13.7795344163
 20
11.8101984109
 30
0.0
 10
13.7845929789
 20
11.8089165762
 30
0.0
 10
13.7883989164
 20
11.8081224496
 30
0.0
 10
13.7921989246
 20
11.8074997968
 30
0.0
 10
13.7959718613
 20
11.807052747
 30
0.0
 10
13.7996948065
 20
11.8067823317
 30
0.0
 10
13.8021589207
 20
11.8067200549
 30
0.0
 10
13.8033770853
 20
11.8067200549
 30
0.0
  0
SPLINE
  5
29C
100
AcDbEntity
  8
0
100
AcDbSpline
 62
7
  6
CONTINUOUS
 70
0
 71
3
 72
22
 73
18
 74
0
 42
0.0000001
 43
0.0000001
 44
0.0000000001
 40
0.0
 40
0.0
 40
0.0
 40
0.0
 40
0.0787629342
 40
0.1556801947
 40
0.3030353158
 40
0.3731897383
 40
0.4408814189
 40
0.506084616
 40
0.5688106784
 40
0.6291213325
 40
0.6871208604
 40
0.7429628895
 40
0.7968773006
 40
0.8491655561
 40
0.9001806233
 40
0.9503219911
 40
1.0
 40
1.0
 40
1.0
 40
1.0
 10
16.9314653413
 20
11.8067200549
 30
0.0
 10
16.9325520032
 20
11.8067200549
 30
0.0
 10
16.9347003442
 20
11.8067685167
 30
0.0
 10
16.9388718658
 20
11.8070608118
 30
0.0
 10
16.9429014772
 20
11.8076426138
 30
0.0
 10
16.9467346977
 20
11.8085394177
 30
0.0
 10
16.9494205856
 20
11.8093421987
 30
0.0
 10
16.9519525188
 20
11.8102826953
 30
0.0
 10
16.9543191809
 20
11.8113577934
 30
0.0
 10
16.9565103832
 20
11.8125619656
 30
0.0
 10
16.9585164192
 20
11.8138897279
 30
0.0
 10
16.9603274397
 20
11.8153362217
 30
0.0
 10
16.9619347402
 20
11.816895485
 30
0.0
 10
16.9633314068
 20
11.8185603016
 30
0.0
 10
16.9645104734
 20
11.8203239682
 30
0.0
 10
16.9654643427
 20
11.8221784569
 30
0.0
 10
16.9659489151
 20
11.8234715201
 30
0.0
 10
16.966151385
 20
11.8241263202
 30
0.0
  0
SPLINE
  5
29D
100
AcDbEntity
  8
0
100
AcDbSpline
 62
7
  6
CONTINUOUS
 70
0
 71
3
 72
21
 73
17
 74
0
 42
0.0000001
 43
0.0000001
 44
0.0000000001
 40
0.0
 40
0.0
 40
0.0
 40
0.0
 40
0.0565488968
 40
0.1148912273
 40
0.1748164837
 40
0.2361075059
 40
0.298565338
 40
0.3619929624
 40
0.4908920505
 40
0.6209956411
 40
0.6859175497
 40
0.7504443205
 40
0.8143575259
 40
0.8774284852
 40
0.9393962711
 40
1.0
 40
1.0
 40
1.0
 40
1.0
 10
16.6953452368
 20
11.827185662
 30
0.0
 10
16.6961878434
 20
11.8264227654
 30
0.0
 10
16.6979456805
 20
11.8249228315
 30
0.0
 10
16.7007385955
 20
11.8227879857
 30
0.0
 10
16.7037148618
 20
11.8207436641
 30
0.0
 10
16.70685759
 20
11.8188035879
 30
0.0
 10
16.7101488629
 20
11.8169779641
 30
0.0
 10
16.714735637
 20
11.8146967335
 30
0.0
 10
16.7207242094
 20
11.81219657
 30
0.0
 10
16.7269295971
 20
11.8101984109
 30
0.0
 10
16.7319881597
 20
11.8089165762
 30
0.0
 10
16.7357940973
 20
11.8081224496
 30
0.0
 10
16.7395941055
 20
11.8074997968
 30
0.0
 10
16.7433670422
 20
11.807052747
 30
0.0
 10
16.7470899873
 20
11.8067823317
 30
0.0
 10
16.7495541015
 20
11.8067200549
 30
0.0
 10
16.7507722661
 20
11.8067200549
 30
0.0
  0
SPLINE
  5
29E
100
AcDbEntity
  8
0
100
AcDbSpline
 62
7
  6
CONTINUOUS
 70
0
 71
3
 72
22
 73
18
 74
0
 42
0.0000001
 43
0.0000001
 44
0.0000000001
 40
0.0
 40
0.0
 40
0.0
 40
0.0
 40
0.0787629342
 40
0.1556801947
 40
0.3030353158
 40
0.3731897383
 40
0.4408814189
 40
0.506084616
 40
0.5688106784
 40
0.6291213325
 40
0.6871208604
 40
0.7429628895
 40
0.7968773006
 40
0.8491655561
 40
0.9001806233
 40
0.9503219911
 40
1.0
 40
1.0
 40
1.0
 40
1.0
 10
16.3419863052
 20
11.8067200549
 30
0.0
 10
16.3430729671
 20
11.8067200549
 30
0.0
 10
16.3452213081
 20
11.8067685167
 30
0.0
 10
16.3493928297
 20
11.8070608118
 30
0.0
 10
16.353422441
 20
11.8076426138
 30
0.0
 10
16.3572556615
 20
11.8085394177
 30
0.0
 10
16.3599415494
 20
11.8093421987
 30
0.0
 10
16.3624734826
 20
11.8102826953
 30
0.0
 10
16.3648401447
 20
11.8113577934
 30
0.0
 10
16.3670313471
 20
11.8125619656
 30
0.0
 10
16.3690373831
 20
11.8138897279
 30
0.0
 10
16.3708484036
 20
11.8153362217
 30
0.0
 10
16.372455704
 20
11.816895485
 30
0.0
 10
16.3738523707
 20
11.8185603016
 30
0.0
 10
16.3750314372
 20
11.8203239682
 30
0.0
 10
16.3759853065
 20
11.8221784569
 30
0.0
 10
16.376469879
 20
11.8234715201
 30
0.0
 10
16.3766723488
 20
11.8241263202
 30
0.0
  0
SPLINE
  5
29F
100
AcDbEntity
  8
0
100
AcDbSpline
 62
7
  6
CONTINUOUS
 70
0
 71
3
 72
21
 73
17
 74
0
 42
0.0000001
 43
0.0000001
 44
0.0000000001
 40
0.0
 40
0.0
 40
0.0
 40
0.0
 40
0.0565488968
 40
0.1148912273
 40
0.1748164837
 40
0.2361075059
 40
0.298565338
 40
0.3619929624
 40
0.4908920505
 40
0.6209956411
 40
0.6859175497
 40
0.7504443205
 40
0.8143575259
 40
0.8774284852
 40
0.9393962711
 40
1.0
 40
1.0
 40
1.0
 40
1.0
 10
16.1058662007
 20
11.827185662
 30
0.0
 10
16.1067088072
 20
11.8264227654
 30
0.0
 10
16.1084666444
 20
11.8249228315
 30
0.0
 10
16.1112595593
 20
11.8227879857
 30
0.0
 10
16.1142358256
 20
11.8207436641
 30
0.0
 10
16.1173785538
 20
11.8188035879
 30
0.0
 10
16.1206698267
 20
11.8169779641
 30
0.0
 10
16.1252566008
 20
11.8146967335
 30
0.0
 10
16.1312451733
 20
11.81219657
 30
0.0
 10
16.1374505609
 20
11.8101984109
 30
0.0
 10
16.1425091235
 20
11.8089165762
 30
0.0
 10
16.1463150611
 20
11.8081224496
 30
0.0
 10
16.1501150693
 20
11.8074997968
 30
0.0
 10
16.153888006
 20
11.807052747
 30
0.0
 10
16.1576109511
 20
11.8067823317
 30
0.0
 10
16.1600750653
 20
11.8067200549
 30
0.0
 10
16.1612932299
 20
11.8067200549
 30
0.0
  0
SPLINE
  5
2A0
100
AcDbEntity
  8
0
100
AcDbSpline
 62
7
  6
CONTINUOUS
 70
0
 71
3
 72
22
 73
18
 74
0
 42
0.0000001
 43
0.0000001
 44
0.0000000001
 40
0.0
 40
0.0
 40
0.0
 40
0.0
 40
0.0787629342
 40
0.1556801947
 40
0.3030353158
 40
0.3731897383
 40
0.4408814189
 40
0.506084616
 40
0.5688106784
 40
0.6291213325
 40
0.6871208604
 40
0.7429628895
 40
0.7968773006
 40
0.8491655561
 40
0.9001806233
 40
0.9503219911
 40
1.0
 40
1.0
 40
1.0
 40
1.0
 10
15.752507269
 20
11.8067200549
 30
0.0
 10
15.7535939309
 20
11.8067200549
 30
0.0
 10
15.7557422719
 20
11.8067685167
 30
0.0
 10
15.7599137935
 20
11.8070608118
 30
0.0
 10
15.7639434049
 20
11.8076426138
 30
0.0
 10
15.7677766253
 20
11.8085394177
 30
0.0
 10
15.7704625132
 20
11.8093421987
 30
0.0
 10
15.7729944464
 20
11.8102826953
 30
0.0
 10
15.7753611086
 20
11.8113577934
 30
0.0
 10
15.7775523109
 20
11.8125619656
 30
0.0
 10
15.7795583469
 20
11.8138897279
 30
0.0
 10
15.7813693674
 20
11.8153362217
 30
0.0
 10
15.7829766679
 20
11.816895485
 30
0.0
 10
15.7843733345
 20
11.8185603016
 30
0.0
 10
15.785552401
 20
11.8203239682
 30
0.0
 10
15.7865062704
 20
11.8221784569
 30
0.0
 10
15.7869908428
 20
11.8234715201
 30
0.0
 10
15.7871933126
 20
11.8241263202
 30
0.0
  0
SPLINE
  5
2A1
100
AcDbEntity
  8
0
100
AcDbSpline
 62
7
  6
CONTINUOUS
 70
0
 71
3
 72
21
 73
17
 74
0
 42
0.0000001
 43
0.0000001
 44
0.0000000001
 40
0.0
 40
0.0
 40
0.0
 40
0.0
 40
0.0565488968
 40
0.1148912273
 40
0.1748164837
 40
0.2361075059
 40
0.298565338
 40
0.3619929624
 40
0.4908920505
 40
0.6209956411
 40
0.6859175497
 40
0.7504443205
 40
0.8143575259
 40
0.8774284852
 40
0.9393962711
 40
1.0
 40
1.0
 40
1.0
 40
1.0
 10
15.5163871645
 20
11.827185662
 30
0.0
 10
15.5172297711
 20
11.8264227654
 30
0.0
 10
15.5189876082
 20
11.8249228315
 30
0.0
 10
15.5217805232
 20
11.8227879857
 30
0.0
 10
15.5247567895
 20
11.8207436641
 30
0.0
 10
15.5278995177
 20
11.8188035879
 30
0.0
 10
15.5311907905
 20
11.8169779641
 30
0.0
 10
15.5357775647
 20
11.8146967335
 30
0.0
 10
15.5417661371
 20
11.81219657
 30
0.0
 10
15.5479715248
 20
11.8101984109
 30
0.0
 10
15.5530300873
 20
11.8089165762
 30
0.0
 10
15.5568360249
 20
11.8081224496
 30
0.0
 10
15.5606360331
 20
11.8074997968
 30
0.0
 10
15.5644089698
 20
11.807052747
 30
0.0
 10
15.568131915
 20
11.8067823317
 30
0.0
 10
15.5705960291
 20
11.8067200549
 30
0.0
 10
15.5718141938
 20
11.8067200549
 30
0.0
  0
SPLINE
  5
2A2
100
AcDbEntity
  8
0
100
AcDbSpline
 62
7
  6
CONTINUOUS
 70
0
 71
3
 72
22
 73
18
 74
0
 42
0.0000001
 43
0.0000001
 44
0.0000000001
 40
0.0
 40
0.0
 40
0.0
 40
0.0
 40
0.0787629342
 40
0.1556801947
 40
0.3030353158
 40
0.3731897383
 40
0.4408814189
 40
0.506084616
 40
0.5688106784
 40
0.6291213325
 40
0.6871208604
 40
0.7429628895
 40
0.7968773006
 40
0.8491655561
 40
0.9001806233
 40
0.9503219911
 40
1.0
 40
1.0
 40
1.0
 40
1.0
 10
15.1630282329
 20
11.8067200549
 30
0.0
 10
15.1641148947
 20
11.8067200549
 30
0.0
 10
15.1662632357
 20
11.8067685167
 30
0.0
 10
15.1704347573
 20
11.8070608118
 30
0.0
 10
15.1744643687
 20
11.8076426138
 30
0.0
 10
15.1782975892
 20
11.8085394177
 30
0.0
 10
15.1809834771
 20
11.8093421987
 30
0.0
 10
15.1835154103
 20
11.8102826953
 30
0.0
 10
15.1858820724
 20
11.8113577934
 30
0.0
 10
15.1880732748
 20
11.8125619656
 30
0.0
 10
15.1900793107
 20
11.8138897279
 30
0.0
 10
15.1918903312
 20
11.8153362217
 30
0.0
 10
15.1934976317
 20
11.816895485
 30
0.0
 10
15.1948942984
 20
11.8185603016
 30
0.0
 10
15.1960733649
 20
11.8203239682
 30
0.0
 10
15.1970272342
 20
11.8221784569
 30
0.0
 10
15.1975118066
 20
11.8234715201
 30
0.0
 10
15.1977142765
 20
11.8241263202
 30
0.0
  0
SPLINE
  5
2A3
100
AcDbEntity
  8
0
100
AcDbSpline
 62
7
  6
CONTINUOUS
 70
0
 71
3
 72
21
 73
17
 74
0
 42
0.0000001
 43
0.0000001
 44
0.0000000001
 40
0.0
 40
0.0
 40
0.0
 40
0.0
 40
0.0565488968
 40
0.1148912273
 40
0.1748164837
 40
0.2361075059
 40
0.298565338
 40
0.3619929624
 40
0.4908920505
 40
0.6209956411
 40
0.6859175497
 40
0.7504443205
 40
0.8143575259
 40
0.8774284852
 40
0.9393962711
 40
1.0
 40
1.0
 40
1.0
 40
1.0
 10
14.9269081283
 20
11.827185662
 30
0.0
 10
14.9277507349
 20
11.8264227654
 30
0.0
 10
14.9295085721
 20
11.8249228315
 30
0.0
 10
14.932301487
 20
11.8227879857
 30
0.0
 10
14.9352777533
 20
11.8207436641
 30
0.0
 10
14.9384204815
 20
11.8188035879
 30
0.0
 10
14.9417117544
 20
11.8169779641
 30
0.0
 10
14.9462985285
 20
11.8146967335
 30
0.0
 10
14.952287101
 20
11.81219657
 30
0.0
 10
14.9584924886
 20
11.8101984109
 30
0.0
 10
14.9635510512
 20
11.8089165762
 30
0.0
 10
14.9673569888
 20
11.8081224496
 30
0.0
 10
14.971156997
 20
11.8074997968
 30
0.0
 10
14.9749299337
 20
11.807052747
 30
0.0
 10
14.9786528788
 20
11.8067823317
 30
0.0
 10
14.981116993
 20
11.8067200549
 30
0.0
 10
14.9823351576
 20
11.8067200549
 30
0.0
  0
SPLINE
  5
2A4
100
AcDbEntity
  8
0
100
AcDbSpline
 62
7
  6
CONTINUOUS
 70
0
 71
3
 72
22
 73
18
 74
0
 42
0.0000001
 43
0.0000001
 44
0.0000000001
 40
0.0
 40
0.0
 40
0.0
 40
0.0
 40
0.0787629342
 40
0.1556801947
 40
0.3030353158
 40
0.3731897383
 40
0.4408814189
 40
0.506084616
 40
0.5688106784
 40
0.6291213325
 40
0.6871208604
 40
0.7429628895
 40
0.7968773006
 40
0.8491655561
 40
0.9001806233
 40
0.9503219911
 40
1.0
 40
1.0
 40
1.0
 40
1.0
 10
14.5735491967
 20
11.8067200549
 30
0.0
 10
14.5746358586
 20
11.8067200549
 30
0.0
 10
14.5767841996
 20
11.8067685167
 30
0.0
 10
14.5809557212
 20
11.8070608118
 30
0.0
 10
14.5849853325
 20
11.8076426138
 30
0.0
 10
14.588818553
 20
11.8085394177
 30
0.0
 10
14.5915044409
 20
11.8093421987
 30
0.0
 10
14.5940363741
 20
11.8102826953
 30
0.0
 10
14.5964030363
 20
11.8113577934
 30
0.0
 10
14.5985942386
 20
11.8125619656
 30
0.0
 10
14.6006002746
 20
11.8138897279
 30
0.0
 10
14.6024112951
 20
11.8153362217
 30
0.0
 10
14.6040185956
 20
11.816895485
 30
0.0
 10
14.6054152622
 20
11.8185603016
 30
0.0
 10
14.6065943287
 20
11.8203239682
 30
0.0
 10
14.6075481981
 20
11.8221784569
 30
0.0
 10
14.6080327705
 20
11.8234715201
 30
0.0
 10
14.6082352403
 20
11.8241263202
 30
0.0
  0
SPLINE
  5
2A5
100
AcDbEntity
  8
0
100
AcDbSpline
 62
7
  6
CONTINUOUS
 70
0
 71
3
 72
21
 73
17
 74
0
 42
0.0000001
 43
0.0000001
 44
0.0000000001
 40
0.0
 40
0.0
 40
0.0
 40
0.0
 40
0.0565488968
 40
0.1148912273
 40
0.1748164837
 40
0.2361075059
 40
0.298565338
 40
0.3619929624
 40
0.4908920505
 40
0.6209956411
 40
0.6859175497
 40
0.7504443205
 40
0.8143575259
 40
0.8774284852
 40
0.9393962711
 40
1.0
 40
1.0
 40
1.0
 40
1.0
 10
14.3374290922
 20
11.827185662
 30
0.0
 10
14.3382716987
 20
11.8264227654
 30
0.0
 10
14.3400295359
 20
11.8249228315
 30
0.0
 10
14.3428224508
 20
11.8227879857
 30
0.0
 10
14.3457987172
 20
11.8207436641
 30
0.0
 10
14.3489414454
 20
11.8188035879
 30
0.0
 10
14.3522327182
 20
11.8169779641
 30
0.0
 10
14.3568194924
 20
11.8146967335
 30
0.0
 10
14.3628080648
 20
11.81219657
 30
0.0
 10
14.3690134525
 20
11.8101984109
 30
0.0
 10
14.374072015
 20
11.8089165762
 30
0.0
 10
14.3778779526
 20
11.8081224496
 30
0.0
 10
14.3816779608
 20
11.8074997968
 30
0.0
 10
14.3854508975
 20
11.807052747
 30
0.0
 10
14.3891738426
 20
11.8067823317
 30
0.0
 10
14.3916379568
 20
11.8067200549
 30
0.0
 10
14.3928561214
 20
11.8067200549
 30
0.0
  0
SPLINE
  5
2A6
100
AcDbEntity
  8
0
100
AcDbSpline
 62
7
  6
CONTINUOUS
 70
0
 71
3
 72
19
 73
15
 74
0
 42
0.0000001
 43
0.0000001
 44
0.0000000001
 40
0.0
 40
0.0
 40
0.0
 40
0.0
 40
0.0605497941
 40
0.1225024535
 40
0.1855941876
 40
0.2495549555
 40
0.3790347529
 40
0.5091124196
 40
0.6379818378
 40
0.763892791
 40
0.8252262209
 40
0.885170943
 40
0.9435004846
 40
1.0
 40
1.0
 40
1.0
 40
1.0
 10
13.6388226532
 20
11.9061776499
 30
0.0
 10
13.6396339876
 20
11.9061776499
 30
0.0
 10
13.6412756988
 20
11.9061359955
 30
0.0
 10
13.6437568268
 20
11.9059555139
 30
0.0
 10
13.6462726869
 20
11.905657456
 30
0.0
 10
13.6496659419
 20
11.9051025632
 30
0.0
 10
13.6538946747
 20
11.9041229803
 30
0.0
 10
13.6588550312
 20
11.9025273255
 30
0.0
 10
13.6636188672
 20
11.9005368074
 30
0.0
 10
13.6673766367
 20
11.8985684421
 30
0.0
 10
13.6701953835
 20
11.8968270219
 30
0.0
 10
13.6721799581
 20
11.895463804
 30
0.0
 10
13.6740414929
 20
11.8940412488
 30
0.0
 10
13.6752127953
 20
11.8930420325
 30
0.0
 10
13.6757740061
 20
11.8925339118
 30
0.0
  0
SPLINE
  5
2A7
100
AcDbEntity
  8
0
100
AcDbSpline
 62
7
  6
CONTINUOUS
 70
0
 71
3
 72
19
 73
15
 74
0
 42
0.0000001
 43
0.0000001
 44
0.0000000001
 40
0.0
 40
0.0
 40
0.0
 40
0.0
 40
0.0605497941
 40
0.1225024535
 40
0.1855941876
 40
0.2495549555
 40
0.3790347529
 40
0.5091124196
 40
0.6379818378
 40
0.763892791
 40
0.8252262209
 40
0.885170943
 40
0.9435004846
 40
1.0
 40
1.0
 40
1.0
 40
1.0
 10
14.2283016894
 20
11.9061776499
 30
0.0
 10
14.2291130237
 20
11.9061776499
 30
0.0
 10
14.230754735
 20
11.9061359955
 30
0.0
 10
14.2332358629
 20
11.9059555139
 30
0.0
 10
14.2357517231
 20
11.905657456
 30
0.0
 10
14.239144978
 20
11.9051025632
 30
0.0
 10
14.2433737108
 20
11.9041229803
 30
0.0
 10
14.2483340674
 20
11.9025273255
 30
0.0
 10
14.2530979034
 20
11.9005368074
 30
0.0
 10
14.2568556729
 20
11.8985684421
 30
0.0
 10
14.2596744197
 20
11.8968270219
 30
0.0
 10
14.2616589943
 20
11.895463804
 30
0.0
 10
14.2635205291
 20
11.8940412488
 30
0.0
 10
14.2646918315
 20
11.8930420325
 30
0.0
 10
14.2652530422
 20
11.8925339118
 30
0.0
  0
SPLINE
  5
2A8
100
AcDbEntity
  8
0
100
AcDbSpline
 62
7
  6
CONTINUOUS
 70
0
 71
3
 72
19
 73
15
 74
0
 42
0.0000001
 43
0.0000001
 44
0.0000000001
 40
0.0
 40
0.0
 40
0.0
 40
0.0
 40
0.0605497941
 40
0.1225024535
 40
0.1855941876
 40
0.2495549555
 40
0.3790347529
 40
0.5091124196
 40
0.6379818378
 40
0.763892791
 40
0.8252262209
 40
0.885170943
 40
0.9435004846
 40
1.0
 40
1.0
 40
1.0
 40
1.0
 10
14.8177807256
 20
11.9061776499
 30
0.0
 10
14.8185920599
 20
11.9061776499
 30
0.0
 10
14.8202337712
 20
11.9061359955
 30
0.0
 10
14.8227148991
 20
11.9059555139
 30
0.0
 10
14.8252307592
 20
11.905657456
 30
0.0
 10
14.8286240142
 20
11.9051025632
 30
0.0
 10
14.832852747
 20
11.9041229803
 30
0.0
 10
14.8378131035
 20
11.9025273255
 30
0.0
 10
14.8425769395
 20
11.9005368074
 30
0.0
 10
14.846334709
 20
11.8985684421
 30
0.0
 10
14.8491534558
 20
11.8968270219
 30
0.0
 10
14.8511380304
 20
11.895463804
 30
0.0
 10
14.8529995652
 20
11.8940412488
 30
0.0
 10
14.8541708677
 20
11.8930420325
 30
0.0
 10
14.8547320784
 20
11.8925339118
 30
0.0
  0
SPLINE
  5
2A9
100
AcDbEntity
  8
0
100
AcDbSpline
 62
7
  6
CONTINUOUS
 70
0
 71
3
 72
19
 73
15
 74
0
 42
0.0000001
 43
0.0000001
 44
0.0000000001
 40
0.0
 40
0.0
 40
0.0
 40
0.0
 40
0.0605497941
 40
0.1225024535
 40
0.1855941876
 40
0.2495549555
 40
0.3790347529
 40
0.5091124196
 40
0.6379818378
 40
0.763892791
 40
0.8252262209
 40
0.885170943
 40
0.9435004846
 40
1.0
 40
1.0
 40
1.0
 40
1.0
 10
15.4072597617
 20
11.9061776499
 30
0.0
 10
15.4080710961
 20
11.9061776499
 30
0.0
 10
15.4097128073
 20
11.9061359955
 30
0.0
 10
15.4121939353
 20
11.9059555139
 30
0.0
 10
15.4147097954
 20
11.905657456
 30
0.0
 10
15.4181030503
 20
11.9051025632
 30
0.0
 10
15.4223317832
 20
11.9041229803
 30
0.0
 10
15.4272921397
 20
11.9025273255
 30
0.0
 10
15.4320559757
 20
11.9005368074
 30
0.0
 10
15.4358137452
 20
11.8985684421
 30
0.0
 10
15.438632492
 20
11.8968270219
 30
0.0
 10
15.4406170666
 20
11.895463804
 30
0.0
 10
15.4424786014
 20
11.8940412488
 30
0.0
 10
15.4436499038
 20
11.8930420325
 30
0.0
 10
15.4442111146
 20
11.8925339118
 30
0.0
  0
SPLINE
  5
2AA
100
AcDbEntity
  8
0
100
AcDbSpline
 62
7
  6
CONTINUOUS
 70
0
 71
3
 72
19
 73
15
 74
0
 42
0.0000001
 43
0.0000001
 44
0.0000000001
 40
0.0
 40
0.0
 40
0.0
 40
0.0
 40
0.0605497941
 40
0.1225024535
 40
0.1855941876
 40
0.2495549555
 40
0.3790347529
 40
0.5091124196
 40
0.6379818378
 40
0.763892791
 40
0.8252262209
 40
0.885170943
 40
0.9435004846
 40
1.0
 40
1.0
 40
1.0
 40
1.0
 10
15.9967387979
 20
11.9061776499
 30
0.0
 10
15.9975501322
 20
11.9061776499
 30
0.0
 10
15.9991918435
 20
11.9061359955
 30
0.0
 10
16.0016729714
 20
11.9059555139
 30
0.0
 10
16.0041888316
 20
11.905657456
 30
0.0
 10
16.0075820865
 20
11.9051025632
 30
0.0
 10
16.0118108193
 20
11.9041229803
 30
0.0
 10
16.0167711758
 20
11.9025273255
 30
0.0
 10
16.0215350119
 20
11.9005368074
 30
0.0
 10
16.0252927814
 20
11.8985684421
 30
0.0
 10
16.0281115282
 20
11.8968270219
 30
0.0
 10
16.0300961027
 20
11.895463804
 30
0.0
 10
16.0319576375
 20
11.8940412488
 30
0.0
 10
16.03312894
 20
11.8930420325
 30
0.0
 10
16.0336901507
 20
11.8925339118
 30
0.0
  0
SPLINE
  5
2AB
100
AcDbEntity
  8
0
100
AcDbSpline
 62
7
  6
CONTINUOUS
 70
0
 71
3
 72
19
 73
15
 74
0
 42
0.0000001
 43
0.0000001
 44
0.0000000001
 40
0.0
 40
0.0
 40
0.0
 40
0.0
 40
0.0605497941
 40
0.1225024535
 40
0.1855941876
 40
0.2495549555
 40
0.3790347529
 40
0.5091124196
 40
0.6379818378
 40
0.763892791
 40
0.8252262209
 40
0.885170943
 40
0.9435004846
 40
1.0
 40
1.0
 40
1.0
 40
1.0
 10
16.5862178341
 20
11.9061776499
 30
0.0
 10
16.5870291684
 20
11.9061776499
 30
0.0
 10
16.5886708796
 20
11.9061359955
 30
0.0
 10
16.5911520076
 20
11.9059555139
 30
0.0
 10
16.5936678677
 20
11.905657456
 30
0.0
 10
16.5970611227
 20
11.9051025632
 30
0.0
 10
16.6012898555
 20
11.9041229803
 30
0.0
 10
16.606250212
 20
11.9025273255
 30
0.0
 10
16.611014048
 20
11.9005368074
 30
0.0
 10
16.6147718175
 20
11.8985684421
 30
0.0
 10
16.6175905643
 20
11.8968270219
 30
0.0
 10
16.6195751389
 20
11.895463804
 30
0.0
 10
16.6214366737
 20
11.8940412488
 30
0.0
 10
16.6226079761
 20
11.8930420325
 30
0.0
 10
16.6231691869
 20
11.8925339118
 30
0.0
  0
ENDSEC
  0
SECTION
  2
OBJECTS
  0
DICTIONARY
  5
C
100
AcDbDictionary
280
0
281
1
  3
ACAD_GROUP
350
D
  3
ACAD_MLINESTYLE
350
17
  3
ACAD_LAYOUT
350
1A
  3
ACAD_PLOTSETTINGS
350
19
  3
ACAD_PLOTSTYLENAME
350
E
  0
DICTIONARY
  5
D
102
{ACAD_REACTORS
330
C
102
}
100
AcDbDictionary
280
0
281
1
  0
ACDBDICTIONARYWDFLT
  5
E
102
{ACAD_REACTORS
330
C
102
}
100
AcDbDictionary
281
1
  3
Normal
350
F
100
AcDbDictionaryWithDefault
340
F
  0
DICTIONARY
  5
17
102
{ACAD_REACTORS
330
C
102
}
100
AcDbDictionary
280
0
281
1
  3
Standard
350
18
  0
DICTIONARY
  5
19
102
{ACAD_REACTORS
330
C
102
}
100
AcDbDictionary
281
1
  0
DICTIONARY
  5
1A
102
{ACAD_REACTORS
330
C
102
}
100
AcDbDictionary
281
1
  3
Model
350
2AC
  3
Layout1
350
2AD
  0
ACDBPLACEHOLDER
  5
F
102
{ACAD_REACTORS
330
E
102
}
  0
MLINESTYLE
  5
18
102
{ACAD_REACTORS
330
17
102
}
100
AcDbMlineStyle
  2
STANDARD
 70
0
  3

 62
256
 51
90.0
 52
90.0
 71
2
 49
0.5
 62
256
  6
BYLAYER
 49
-0.5
 62
256
  6
BYLAYER
  0
LAYOUT
  5
2AC
102
{ACAD_REACTORS
330
1A
102
}
100
AcDbPlotSettings
  1

  2
none_device
  4
ANSI_C_(22.00_x_17.00_Inches)
  6

 40
0.0
 41
0.0
 42
0.0
 43
0.0
 44
558.8
 45
431.8
 46
0.0
 47
0.0
 48
0.0
 49
0.0
140
0.0
141
0.0
142
1.0
143
1.0
 70
1024
 72
0
 73
0
 74
0
  7

 75
0
147
1.0
148
0.0
149
0.0
100
AcDbLayout
  1
Model
 70
0
 71
0
 10
0.0
 20
0.0
 11
22.0
 21
17.0
 12
0.0
 22
0.0
 32
0.0
 14
0.0
 24
0.0
 34
0.0
 15
0.0
 25
0.0
 35
0.0
146
0.0
 13
0.0
 23
0.0
 33
0.0
 16
1.0
 26
0.0
 36
0.0
 17
0.0
 27
1.0
 37
0.0
 76
0
330
216
345
0
346
0
  0
LAYOUT
  5
2AD
102
{ACAD_REACTORS
330
1A
102
}
100
AcDbPlotSettings
  1

  2
none_device
  4
ANSI_C_(22.00_x_17.00_Inches)
  6

 40
0.0
 41
0.0
 42
0.0
 43
0.0
 44
558.8
 45
431.8
 46
0.0
 47
0.0
 48
0.0
 49
0.0
140
0.0
141
0.0
142
1.0
143
1.0
 70
0
 72
0
 73
0
 74
0
  7

 75
0
147
1.0
148
0.0
149
0.0
100
AcDbLayout
  1
Layout1
 70
0
 71
1
 10
0.0
 20
0.0
 11
22.0
 21
17.0
 12
0.0
 22
0.0
 32
0.0
 14
0.0
 24
0.0
 34
0.0
 15
0.0
 25
0.0
 35
0.0
146
0.0
 13
0.0
 23
0.0
 33
0.0
 16
1.0
 26
0.0
 36
0.0
 17
0.0
 27
1.0
 37
0.0
 76
0
330
217
345
0
346
0
  0
ENDSEC
  0
EOF