999
DXF file: _cgs_temp_output.dxf
999
Pro/ENGINEER 2015110 by Parametric Technology Corporation
  0
SECTION
  2
HEADER
  9
$ACADVER
  1
AC1021
  9
$DWGCODEPAGE
  3
ANSI_1252
  9
$EXTMAX
 10
22.0
 20
17.0
 30
0.0
  9
$EXTMIN
 10
0.0
 20
0.0
 30
0.0
  9
$LIMMIN
 10
0.0
 20
0.0
  9
$LIMMAX
 10
22.0
 20
17.0
  9
$VIEWCTR
 10
11.0
 20
8.5
  9
$VIEWSIZE
 40
17.0
  9
$CLAYER
  8
0
  9
$LTSCALE
 40
1.21
  9
$CELTYPE
  6
BYLAYER
  9
$DIMSCALE
 40
1.0
  9
$DIMASZ
 40
0.1875
  9
$DIMEXO
 40
0.0625
  9
$DIMDLI
 40
0.836
  9
$DIMEXE
 40
0.125
  9
$DIMCEN
 40
0.198
  9
$DIMLFAC
 40
1.0
  9
$DIMBLK
  1
_CLOSED
  9
$DIMALT
 70
0
  9
$DIMALTF
 40
25.4
  9
$DIMTXT
 40
0.15625
  9
$DIMTOL
 70
0
  9
$DIMLIM
 70
0
  9
$DIMTFAC
 40
1.0
  9
$DIMGAP
 40
0.09
  9
$DIMDSEP
 70
46
  9
$AUNITS
 70
0
  9
$PDMODE
 70
3
  9
$PDSIZE
 40
0.3125
  9
$HANDSEED
  5
2AE
  9
$TILEMODE
 70
1
  9
$MEASUREMENT
 70
0
  9
$INSUNITS
 70
1
  0
ENDSEC
  0
SECTION
  2
CLASSES
  0
CLASS
  1
ACDBDICTIONARYWDFLT
  2
AcDbDictionaryWithDefault
  3
AutoCAD 2000
 90
0
 91
1
280
0
281
0
  0
CLASS
  1
ACDBPLACEHOLDER
  2
AcDbPlaceHolder
  3
AutoCAD 2000
 90
0
 91
1
280
0
281
0
  0
CLASS
  1
LAYOUT
  2
AcDbLayout
  3
AutoCAD 2000
 90
0
 91
0
280
0
281
0
  0
ENDSEC
  0
SECTION
  2
TABLES
  0
TABLE
  2
VPORT
  5
8
100
AcDbSymbolTable
 70
2
  0
VPORT
  5
1F4
100
AcDbSymbolTableRecord
100
AcDbViewportTableRecord
  2
*ACTIVE
 70
0
 10
0.0
 20
0.0
 11
1.0
 21
1.0
 12
11.0
 22
8.5
 13
0.0
 23
0.0
 14
1.0
 24
1.0
 15
0.0
 25
0.0
 16
0.0
 26
0.0
 36
1.0
 17
0.0
 27
0.0
 37
0.0
 40
17.0
 41
1.2941176471
 42
50.0
 43
0.0
 44
0.0
 50
0.0
 51
0.0
 71
0
 72
100
 73
1
 74
1
 75
0
 76
0
 77
0
 78
0
  0
ENDTAB
  0
TABLE
  2
LTYPE
  5
5
100
AcDbSymbolTable
 70
6
  0
LTYPE
  5
14
100
AcDbSymbolTableRecord
100
AcDbLinetypeTableRecord
  2
BYBLOCK
 70
0
  3

 72
65
 73
0
 40
0.0
  0
LTYPE
  5
15
100
AcDbSymbolTableRecord
100
AcDbLinetypeTableRecord
  2
BYLAYER
 70
0
  3

 72
65
 73
0
 40
0.0
  0
LTYPE
  5
16
100
AcDbSymbolTableRecord
100
AcDbLinetypeTableRecord
  2
CONTINUOUS
 70
64
  3
Solid line
 72
65
 73
0
 40
0.0
  0
LTYPE
  5
1F5
100
AcDbSymbolTableRecord
100
AcDbLinetypeTableRecord
  2
CENTER
 70
64
  3
____ _ ____ _ ____ _ ____ _ ____ _ ____ _ ____
 72
65
 73
4
 40
0.6
 49
0.375
 74
0
 49
-0.075
 74
0
 49
0.075
 74
0
 49
-0.075
 74
0
  0
LTYPE
  5
1F6
100
AcDbSymbolTableRecord
100
AcDbLinetypeTableRecord
  2
HIDDEN
 70
64
  3
- - - - - - - - - - - - - - - - - - - -
 72
65
 73
2
 40
0.2
 49
0.1
 74
0
 49
-0.1
 74
0
  0
LTYPE
  5
1F7
100
AcDbSymbolTableRecord
100
AcDbLinetypeTableRecord
  2
PHANTOM
 70
64
  3
_____ _ _ _____ _ _ _____ _ _ _____
 72
65
 73
6
 40
0.8
 49
0.45
 74
0
 49
-0.05
 74
0
 49
0.1
 74
0
 49
-0.05
 74
0
 49
0.1
 74
0
 49
-0.05
 74
0
  0
LTYPE
  5
1F8
100
AcDbSymbolTableRecord
100
AcDbLinetypeTableRecord
  2
DOT
 70
64
  3
. . . . . . . . . . . . . . . . . . . .
 72
65
 73
2
 40
0.2
 49
0.1
 74
0
 49
-0.1
 74
0
  0
LTYPE
  5
1F9
100
AcDbSymbolTableRecord
100
AcDbLinetypeTableRecord
  2
DASHED
 70
64
  3
- - - - - - - - - - - - - - - - - - - -
 72
65
 73
2
 40
0.2
 49
0.1
 74
0
 49
-0.1
 74
0
  0
ENDTAB
  0
TABLE
  2
LAYER
  5
2
100
AcDbSymbolTable
 70
36
  0
LAYER
  5
10
100
AcDbSymbolTableRecord
100
AcDbLayerTableRecord
  2
0
 70
0
 62
7
  6
CONTINUOUS
370
-3
390
F
  0
LAYER
  5
1FA
100
AcDbSymbolTableRecord
100
AcDbLayerTableRecord
  2
DEFAULT_1
 70
0
 62
7
  6
CENTER
370
-3
390
F
  0
LAYER
  5
1FB
100
AcDbSymbolTableRecord
100
AcDbLayerTableRecord
  2
DEFAULT_2
 70
0
 62
8
  6
HIDDEN
370
-3
390
F
  0
LAYER
  5
1FC
100
AcDbSymbolTableRecord
100
AcDbLayerTableRecord
  2
DEFAULT_3
 70
0
 62
7
  6
PHANTOM
370
-3
390
F
  0
LAYER
  5
1FD
100
AcDbSymbolTableRecord
100
AcDbLayerTableRecord
  2
01_ALL_DTM_PLN
 70
0
 62
7
  6
CONTINUOUS
370
-3
390
F
  0
LAYER
  5
1FE
100
AcDbSymbolTableRecord
100
AcDbLayerTableRecord
  2
01__ASM_ALL_DTM_PLN
 70
0
 62
7
  6
CONTINUOUS
370
-3
390
F
  0
LAYER
  5
1FF
100
AcDbSymbolTableRecord
100
AcDbLayerTableRecord
  2
01__ASM_DEF_DTM_PLN
 70
0
 62
7
  6
CONTINUOUS
370
-3
390
F
  0
LAYER
  5
200
100
AcDbSymbolTableRecord
100
AcDbLayerTableRecord
  2
01___PRT_ALL_DTM_PLN
 70
0
 62
7
  6
CONTINUOUS
370
-3
390
F
  0
LAYER
  5
201
100
AcDbSymbolTableRecord
100
AcDbLayerTableRecord
  2
01___PRT_DEF_DTM_PLN
 70
0
 62
7
  6
CONTINUOUS
370
-3
390
F
  0
LAYER
  5
202
100
AcDbSymbolTableRecord
100
AcDbLayerTableRecord
  2
02_ALL_AXES
 70
0
 62
7
  6
CONTINUOUS
370
-3
390
F
  0
LAYER
  5
203
100
AcDbSymbolTableRecord
100
AcDbLayerTableRecord
  2
02__ASM_ALL_AXES
 70
0
 62
7
  6
CONTINUOUS
370
-3
390
F
  0
LAYER
  5
204
100
AcDbSymbolTableRecord
100
AcDbLayerTableRecord
  2
02___PRT_ALL_AXES
 70
0
 62
7
  6
CONTINUOUS
370
-3
390
F
  0
LAYER
  5
205
100
AcDbSymbolTableRecord
100
AcDbLayerTableRecord
  2
03_ALL_CURVES
 70
0
 62
7
  6
CONTINUOUS
370
-3
390
F
  0
LAYER
  5
206
100
AcDbSymbolTableRecord
100
AcDbLayerTableRecord
  2
03__ASM_ALL_CURVES
 70
0
 62
7
  6
CONTINUOUS
370
-3
390
F
  0
LAYER
  5
207
100
AcDbSymbolTableRecord
100
AcDbLayerTableRecord
  2
03___PRT_ALL_CURVES
 70
0
 62
7
  6
CONTINUOUS
370
-3
390
F
  0
LAYER
  5
208
100
AcDbSymbolTableRecord
100
AcDbLayerTableRecord
  2
04_ALL_DTM_PNT
 70
0
 62
7
  6
CONTINUOUS
370
-3
390
F
  0
LAYER
  5
209
100
AcDbSymbolTableRecord
100
AcDbLayerTableRecord
  2
04__ASM_ALL_DTM_PNT
 70
0
 62
7
  6
CONTINUOUS
370
-3
390
F
  0
LAYER
  5
20A
100
AcDbSymbolTableRecord
100
AcDbLayerTableRecord
  2
04___PRT_ALL_DTM_PNT
 70
0
 62
7
  6
CONTINUOUS
370
-3
390
F
  0
LAYER
  5
20B
100
AcDbSymbolTableRecord
100
AcDbLayerTableRecord
  2
05_ALL_DTM_CSYS
 70
0
 62
7
  6
CONTINUOUS
370
-3
390
F
  0
LAYER
  5
20C
100
AcDbSymbolTableRecord
100
AcDbLayerTableRecord
  2
05__ASM_ALL_DTM_CSYS
 70
0
 62
7
  6
CONTINUOUS
370
-3
390
F
  0
LAYER
  5
20D
100
AcDbSymbolTableRecord
100
AcDbLayerTableRecord
  2
05__ASM_DEF_DTM_CSYS
 70
0
 62
7
  6
CONTINUOUS
370
-3
390
F
  0
LAYER
  5
20E
100
AcDbSymbolTableRecord
100
AcDbLayerTableRecord
  2
05___PRT_ALL_DTM_CSYS
 70
0
 62
7
  6
CONTINUOUS
370
-3
390
F
  0
LAYER
  5
20F
100
AcDbSymbolTableRecord
100
AcDbLayerTableRecord
  2
05___PRT_DEF_DTM_CSYS
 70
0
 62
7
  6
CONTINUOUS
370
-3
390
F
  0
LAYER
  5
210
100
AcDbSymbolTableRecord
100
AcDbLayerTableRecord
  2
06_ALL_SURFS
 70
0
 62
7
  6
CONTINUOUS
370
-3
390
F
  0
LAYER
  5
211
100
AcDbSymbolTableRecord
100
AcDbLayerTableRecord
  2
06__ASM_ALL_SURFS
 70
0
 62
7
  6
CONTINUOUS
370
-3
390
F
  0
LAYER
  5
212
100
AcDbSymbolTableRecord
100
AcDbLayerTableRecord
  2
06___PRT_ALL_SURFS
 70
0
 62
7
  6
CONTINUOUS
370
-3
390
F
  0
LAYER
  5
213
100
AcDbSymbolTableRecord
100
AcDbLayerTableRecord
  2
07__ASM_ALL_SKELETONS
 70
0
 62
7
  6
CONTINUOUS
370
-3
390
F
  0
ENDTAB
  0
TABLE
  2
STYLE
  5
3
100
AcDbSymbolTable
 70
1
  0
STYLE
  5
11
100
AcDbSymbolTableRecord
100
AcDbTextStyleTableRecord
  2
STANDARD
 70
0
 40
0.0
 41
0.8
 50
0.0
 71
0
 42
0.2
  3
txt
  4

  0
STYLE
  5
214
100
AcDbSymbolTableRecord
100
AcDbTextStyleTableRecord
  2
TEXTSTYLE_1
 70
0
 40
0.0
 41
0.8
 50
0.0
 71
0
 42
0.2
  3
gdt
  4

  0
ENDTAB
  0
TABLE
  2
VIEW
  5
6
100
AcDbSymbolTable
 70
0
  0
ENDTAB
  0
TABLE
  2
UCS
  5
7
100
AcDbSymbolTable
 70
0
  0
ENDTAB
  0
TABLE
  2
APPID
  5
9
100
AcDbSymbolTable
 70
1
  0
APPID
  5
215
100
AcDbSymbolTableRecord
100
AcDbRegAppTableRecord
  2
ACAD
 70
0
  0
ENDTAB
  0
TABLE
  2
BLOCK_RECORD
  5
1
100
AcDbSymbolTable
 70
0
  0
BLOCK_RECORD
  5
216
100
AcDbSymbolTableRecord
100
AcDbBlockTableRecord
  2
*Model_Space
  0
BLOCK_RECORD
  5
217
100
AcDbSymbolTableRecord
100
AcDbBlockTableRecord
  2
*Paper_Space
  0
ENDTAB
  0
TABLE
  2
DIMSTYLE
  5
A
100
AcDbSymbolTable
 70
1
100
AcDbDimStyleTable
 71
0
  0
DIMSTYLE
105
218
100
AcDbSymbolTableRecord
100
AcDbDimStyleTableRecord
  2
STANDARD
 70
0
  3

  4

 40
1.0
 41
0.1875
 42
0.0625
 43
0.38
 44
0.125
 45
0.0
 46
0.0
 47
0.0001
 48
0.0001
140
0.15625
141
0.09
142
0.0
143
25.4
144
1.0
145
0.0
146
1.0
147
0.09
 71
0.0
 72
0.0
 73
1
 74
1
 75
0
 76
0
 77
0
 78
4
170
0
171
2
172
0
173
0
174
0
175
0
176
0
177
0
178
0
270
2
271
4
272
4
273
2
274
2
275
0
280
0
281
0
282
0
283
1
284
4
285
0
286
0
287
3
288
0
340
11
278
46
  0
ENDTAB
  0
ENDSEC
  0
SECTION
  2
BLOCKS
  0
BLOCK
  5
20
100
AcDbEntity
  8
0
100
AcDbBlockBegin
  2
*Model_Space
 70
0
 10
0.0
 20
0.0
 30
0.0
  3
*Model_Space
  1

  0
ENDBLK
  5
21
100
AcDbEntity
  8
0
100
AcDbBlockEnd
  0
BLOCK
  5
1C
100
AcDbEntity
  8
0
100
AcDbBlockBegin
  2
*Paper_Space
 70
0
 10
0.0
 20
0.0
 30
0.0
  3
*Paper_Space
  1

  0
ENDBLK
  5
1D
100
AcDbEntity
  8
0
100
AcDbBlockEnd
  0
ENDSEC
  0
SECTION
  2
ENTITIES
  0
MTEXT
  5
219
100
AcDbEntity
  8
0
100
AcDbMText
 62
7
  6
CONTINUOUS
  7
STANDARD
 71
1
 72
1
 10
15.9560215477
 20
0.9479130325
 30
0.0
 11
1.0
 21
0.0
 31
0.0
 44
0.9
  1
SCALE: 1:3.000
 40
0.3
 41
3.36
  0
LINE
  5
21A
100
AcDbEntity
  8
0
100
AcDbLine
 62
7
  6
CONTINUOUS
 10
0.0
 20
0.0
 11
0.0
 21
17.0
  0
LINE
  5
21B
100
AcDbEntity
  8
0
100
AcDbLine
 62
7
  6
CONTINUOUS
 10
0.0
 20
0.0
 11
22.0
 21
0.0
  0
LINE
  5
21C
100
AcDbEntity
  8
0
100
AcDbLine
 62
7
  6
CONTINUOUS
 10
0.0
 20
17.0
 11
22.0
 21
17.0
  0
LINE
  5
21D
100
AcDbEntity
  8
0
100
AcDbLine
 62
7
  6
CONTINUOUS
 10
22.0
 20
0.0
 11
22.0
 21
17.0
  0
LINE
  5
21E
100
AcDbEntity
  8
0
100
AcDbLine
 62
7
  6
CONTINUOUS
 10
4.3303672762
 20
5.6551198968
 11
4.3303672762
 21
5.5351198968
  0
LINE
  5
21F
100
AcDbEntity
  8
0
100
AcDbLine
 62
7
  6
CONTINUOUS
 10
4.4513906393
 20
5.5145426778
 11
4.4922142658
 21
5.4159857251
  0
LINE
  5
220
100
AcDbEntity
  8
0
100
AcDbLine
 62
7
  6
CONTINUOUS
 10
4.7685202865
 20
5.4159857251
 11
4.809343913
 21
5.5145426778
  0
LINE
  5
221
100
AcDbEntity
  8
0
100
AcDbLine
 62
7
  6
CONTINUOUS
 10
5.0513906393
 20
5.5145426778
 11
5.0922142658
 21
5.4159857251
  0
LINE
  5
222
100
AcDbEntity
  8
0
100
AcDbLine
 62
7
  6
CONTINUOUS
 10
5.3685202865
 20
5.4159857251
 11
5.409343913
 21
5.5145426778
  0
LINE
  5
223
100
AcDbEntity
  8
0
100
AcDbLine
 62
7
  6
CONTINUOUS
 10
5.6513906393
 20
5.5145426778
 11
5.6922142658
 21
5.4159857251
  0
LINE
  5
224
100
AcDbEntity
  8
0
100
AcDbLine
 62
7
  6
CONTINUOUS
 10
5.9685202865
 20
5.4159857251
 11
6.009343913
 21
5.5145426778
  0
LINE
  5
225
100
AcDbEntity
  8
0
100
AcDbLine
 62
7
  6
CONTINUOUS
 10
4.5384082424
 20
5.3851198968
 11
4.7223263099
 21
5.3851198968
  0
LINE
  5
226
100
AcDbEntity
  8
0
100
AcDbLine
 62
7
  6
CONTINUOUS
 10
5.1384082424
 20
5.3851198968
 11
5.3223263099
 21
5.3851198968
  0
LINE
  5
227
100
AcDbEntity
  8
0
100
AcDbLine
 62
7
  6
CONTINUOUS
 10
5.7384082424
 20
5.3851198968
 11
5.9223263099
 21
5.3851198968
  0
LINE
  5
228
100
AcDbEntity
  8
0
100
AcDbLine
 62
7
  6
CONTINUOUS
 10
6.3384082424
 20
5.3851198968
 11
6.5223263099
 21
5.3851198968
  0
LINE
  5
229
100
AcDbEntity
  8
0
100
AcDbLine
 62
7
  6
CONTINUOUS
 10
6.9384082424
 20
5.3851198968
 11
7.1223263099
 21
5.3851198968
  0
LINE
  5
22A
100
AcDbEntity
  8
0
100
AcDbLine
 62
7
  6
CONTINUOUS
 10
7.5384082424
 20
5.3851198968
 11
7.7223263099
 21
5.3851198968
  0
LINE
  5
22B
100
AcDbEntity
  8
0
100
AcDbLine
 62
7
  6
CONTINUOUS
 10
4.3303672762
 20
5.5351198968
 11
4.4205946549
 21
5.5351198968
  0
LINE
  5
22C
100
AcDbEntity
  8
0
100
AcDbLine
 62
7
  6
CONTINUOUS
 10
4.8401398974
 20
5.5351198968
 11
5.0205946549
 21
5.5351198968
  0
LINE
  5
22D
100
AcDbEntity
  8
0
100
AcDbLine
 62
7
  6
CONTINUOUS
 10
5.4401398974
 20
5.5351198968
 11
5.6205946549
 21
5.5351198968
  0
LINE
  5
22E
100
AcDbEntity
  8
0
100
AcDbLine
 62
7
  6
CONTINUOUS
 10
6.0401398974
 20
5.5351198968
 11
6.2205946549
 21
5.5351198968
  0
LINE
  5
22F
100
AcDbEntity
  8
0
100
AcDbLine
 62
7
  6
CONTINUOUS
 10
6.6401398974
 20
5.5351198968
 11
6.8205946549
 21
5.5351198968
  0
LINE
  5
230
100
AcDbEntity
  8
0
100
AcDbLine
 62
7
  6
CONTINUOUS
 10
7.2401398974
 20
5.5351198968
 11
7.4205946549
 21
5.5351198968
  0
LINE
  5
231
100
AcDbEntity
  8
0
100
AcDbLine
 62
7
  6
CONTINUOUS
 10
7.8401398974
 20
5.5351198968
 11
7.9303672762
 21
5.5351198968
  0
LINE
  5
232
100
AcDbEntity
  8
0
100
AcDbLine
 62
7
  6
CONTINUOUS
 10
7.9303672762
 20
5.6551198968
 11
4.3303672762
 21
5.6551198968
  0
LINE
  5
233
100
AcDbEntity
  8
0
100
AcDbLine
 62
7
  6
CONTINUOUS
 10
6.2513906393
 20
5.5145426778
 11
6.2922142658
 21
5.4159857251
  0
LINE
  5
234
100
AcDbEntity
  8
0
100
AcDbLine
 62
7
  6
CONTINUOUS
 10
6.5685202865
 20
5.4159857251
 11
6.609343913
 21
5.5145426778
  0
LINE
  5
235
100
AcDbEntity
  8
0
100
AcDbLine
 62
7
  6
CONTINUOUS
 10
6.8513906393
 20
5.5145426778
 11
6.8922142658
 21
5.4159857251
  0
LINE
  5
236
100
AcDbEntity
  8
0
100
AcDbLine
 62
7
  6
CONTINUOUS
 10
7.1685202865
 20
5.4159857251
 11
7.209343913
 21
5.5145426778
  0
LINE
  5
237
100
AcDbEntity
  8
0
100
AcDbLine
 62
7
  6
CONTINUOUS
 10
7.4513906393
 20
5.5145426778
 11
7.4922142658
 21
5.4159857251
  0
LINE
  5
238
100
AcDbEntity
  8
0
100
AcDbLine
 62
7
  6
CONTINUOUS
 10
7.7685202865
 20
5.4159857251
 11
7.809343913
 21
5.5145426778
  0
LINE
  5
239
100
AcDbEntity
  8
0
100
AcDbLine
 62
7
  6
CONTINUOUS
 10
7.9303672762
 20
5.5351198968
 11
7.9303672762
 21
5.6551198968
  0
LINE
  5
23A
100
AcDbEntity
  8
0
100
AcDbLine
 62
7
  6
CONTINUOUS
 10
4.2708720839
 20
13.1625477814
 11
4.2708720839
 21
12.0375477814
  0
LINE
  5
23B
100
AcDbEntity
  8
0
100
AcDbLine
 62
7
  6
CONTINUOUS
 10
7.8708720839
 20
12.0375477814
 11
4.2708720839
 21
12.0375477814
  0
LINE
  5
23C
100
AcDbEntity
  8
0
100
AcDbLine
 62
7
  6
CONTINUOUS
 10
4.2708720839
 20
13.1625477814
 11
7.8708720839
 21
13.1625477814
  0
LINE
  5
23D
100
AcDbEntity
  8
0
100
AcDbLine
 62
7
  6
CONTINUOUS
 10
7.8708720839
 20
13.1625477814
 11
7.8708720839
 21
12.0375477814
  0
LINE
  5
23E
100
AcDbEntity
  8
0
100
AcDbLine
 62
7
  6
CONTINUOUS
 10
14.9978552569
 20
5.3256247044
 11
14.9978552569
 21
5.5956247044
  0
LINE
  5
23F
100
AcDbEntity
  8
0
100
AcDbLine
 62
7
  6
CONTINUOUS
 10
14.9978552569
 20
5.3256247044
 11
16.1228552569
 21
5.3256247044
  0
LINE
  5
240
100
AcDbEntity
  8
0
100
AcDbLine
 62
7
  6
CONTINUOUS
 10
16.1228552569
 20
5.4756247044
 11
14.9978552569
 21
5.4756247044
  0
LINE
  5
241
100
AcDbEntity
  8
0
100
AcDbLine
 62
7
  6
CONTINUOUS
 10
16.1228552569
 20
5.5956247044
 11
14.9978552569
 21
5.5956247044
  0
LINE
  5
242
100
AcDbEntity
  8
0
100
AcDbLine
 62
7
  6
CONTINUOUS
 10
16.1228552569
 20
5.3256247044
 11
16.1228552569
 21
5.5956247044
  0
LINE
  5
243
100
AcDbEntity
  8
0
100
AcDbLine
 62
7
  6
CONTINUOUS
 10
13.6587378604
 20
12.154100952
 11
13.6953428844
 21
12.0795077558
  0
LINE
  5
244
100
AcDbEntity
  8
0
100
AcDbLine
 62
7
  6
CONTINUOUS
 10
13.9310624742
 20
13.0353437253
 11
13.6587378604
 21
12.154100952
  0
LINE
  5
245
100
AcDbEntity
  8
0
100
AcDbLine
 62
7
  6
CONTINUOUS
 10
13.8130896968
 20
12.0667167514
 11
13.8807547436
 21
12.0054527671
  0
LINE
  5
246
100
AcDbEntity
  8
0
100
AcDbLine
 62
7
  6
CONTINUOUS
 10
14.1352494417
 20
12.0054527671
 11
14.1427864949
 21
12.0667167514
  0
LINE
  5
247
100
AcDbEntity
  8
0
100
AcDbLine
 62
7
  6
CONTINUOUS
 10
14.1346405877
 20
12.002583064
 11
14.1352494417
 21
12.0054527671
  0
LINE
  5
248
100
AcDbEntity
  8
0
100
AcDbLine
 62
7
  6
CONTINUOUS
 10
14.1427864949
 20
12.0667167514
 11
14.1431994943
 21
12.0686276969
  0
LINE
  5
249
100
AcDbEntity
  8
0
100
AcDbLine
 62
7
  6
CONTINUOUS
 10
14.1354988669
 20
12.0053756889
 11
14.1581904263
 21
12.0788056018
  0
LINE
  5
24A
100
AcDbEntity
  8
0
100
AcDbLine
 62
7
  6
CONTINUOUS
 10
14.3657262932
 20
12.0667167514
 11
14.43339134
 21
12.0054527671
  0
LINE
  5
24B
100
AcDbEntity
  8
0
100
AcDbLine
 62
7
  6
CONTINUOUS
 10
14.6878860381
 20
12.0054527671
 11
14.6954230913
 21
12.0667167514
  0
LINE
  5
24C
100
AcDbEntity
  8
0
100
AcDbLine
 62
7
  6
CONTINUOUS
 10
14.6872771841
 20
12.002583064
 11
14.6878860381
 21
12.0054527671
  0
LINE
  5
24D
100
AcDbEntity
  8
0
100
AcDbLine
 62
7
  6
CONTINUOUS
 10
14.6954230913
 20
12.0667167514
 11
14.6958360907
 21
12.0686276969
  0
LINE
  5
24E
100
AcDbEntity
  8
0
100
AcDbLine
 62
7
  6
CONTINUOUS
 10
14.9183628896
 20
12.0667167514
 11
14.9860279364
 21
12.0054527671
  0
LINE
  5
24F
100
AcDbEntity
  8
0
100
AcDbLine
 62
7
  6
CONTINUOUS
 10
14.6881354633
 20
12.0053756889
 11
14.7108270227
 21
12.0788056018
  0
LINE
  5
250
100
AcDbEntity
  8
0
100
AcDbLine
 62
7
  6
CONTINUOUS
 10
13.9327175835
 20
11.9862662605
 11
14.1021173416
 21
11.9862662605
  0
LINE
  5
251
100
AcDbEntity
  8
0
100
AcDbLine
 62
7
  6
CONTINUOUS
 10
14.4853541799
 20
11.9862662605
 11
14.654753938
 21
11.9862662605
  0
LINE
  5
252
100
AcDbEntity
  8
0
100
AcDbLine
 62
7
  6
CONTINUOUS
 10
15.0379907763
 20
11.9862662605
 11
15.2073905344
 21
11.9862662605
  0
LINE
  5
253
100
AcDbEntity
  8
0
100
AcDbLine
 62
7
  6
CONTINUOUS
 10
15.5906273727
 20
11.9862662605
 11
15.7600271308
 21
11.9862662605
  0
LINE
  5
254
100
AcDbEntity
  8
0
100
AcDbLine
 62
7
  6
CONTINUOUS
 10
16.1432639691
 20
11.9862662605
 11
16.3126637272
 21
11.9862662605
  0
LINE
  5
255
100
AcDbEntity
  8
0
100
AcDbLine
 62
7
  6
CONTINUOUS
 10
16.6959005655
 20
11.9862662605
 11
16.8653003236
 21
11.9862662605
  0
LINE
  5
256
100
AcDbEntity
  8
0
100
AcDbLine
 62
7
  6
CONTINUOUS
 10
13.6953428844
 20
12.0795077558
 11
13.7784478035
 21
12.0795077558
  0
LINE
  5
257
100
AcDbEntity
  8
0
100
AcDbLine
 62
7
  6
CONTINUOUS
 10
14.1648745616
 20
12.0795077558
 11
14.3310843999
 21
12.0795077558
  0
LINE
  5
258
100
AcDbEntity
  8
0
100
AcDbLine
 62
7
  6
CONTINUOUS
 10
14.717511158
 20
12.0795077558
 11
14.8837209963
 21
12.0795077558
  0
LINE
  5
259
100
AcDbEntity
  8
0
100
AcDbLine
 62
7
  6
CONTINUOUS
 10
15.2701477544
 20
12.0795077558
 11
15.4363575927
 21
12.0795077558
  0
LINE
  5
25A
100
AcDbEntity
  8
0
100
AcDbLine
 62
7
  6
CONTINUOUS
 10
15.8227843508
 20
12.0795077558
 11
15.9889941891
 21
12.0795077558
  0
LINE
  5
25B
100
AcDbEntity
  8
0
100
AcDbLine
 62
7
  6
CONTINUOUS
 10
16.3754209472
 20
12.0795077558
 11
16.5416307855
 21
12.0795077558
  0
LINE
  5
25C
100
AcDbEntity
  8
0
100
AcDbLine
 62
7
  6
CONTINUOUS
 10
16.9280575436
 20
12.0795077558
 11
17.0111624628
 21
12.0795077558
  0
LINE
  5
25D
100
AcDbEntity
  8
0
100
AcDbLine
 62
7
  6
CONTINUOUS
 10
16.9745574388
 20
12.154100952
 11
13.6587378604
 21
12.154100952
  0
LINE
  5
25E
100
AcDbEntity
  8
0
100
AcDbLine
 62
7
  6
CONTINUOUS
 10
15.470999486
 20
12.0667167514
 11
15.5386645328
 21
12.0054527671
  0
LINE
  5
25F
100
AcDbEntity
  8
0
100
AcDbLine
 62
7
  6
CONTINUOUS
 10
15.2405226345
 20
12.0054527671
 11
15.2480596877
 21
12.0667167514
  0
LINE
  5
260
100
AcDbEntity
  8
0
100
AcDbLine
 62
7
  6
CONTINUOUS
 10
15.2399137805
 20
12.002583064
 11
15.2405226345
 21
12.0054527671
  0
LINE
  5
261
100
AcDbEntity
  8
0
100
AcDbLine
 62
7
  6
CONTINUOUS
 10
15.2480596877
 20
12.0667167514
 11
15.2484726871
 21
12.0686276969
  0
LINE
  5
262
100
AcDbEntity
  8
0
100
AcDbLine
 62
7
  6
CONTINUOUS
 10
15.2407720597
 20
12.0053756889
 11
15.2634636191
 21
12.0788056018
  0
LINE
  5
263
100
AcDbEntity
  8
0
100
AcDbLine
 62
7
  6
CONTINUOUS
 10
16.0236360824
 20
12.0667167514
 11
16.0913011292
 21
12.0054527671
  0
LINE
  5
264
100
AcDbEntity
  8
0
100
AcDbLine
 62
7
  6
CONTINUOUS
 10
15.7931592309
 20
12.0054527671
 11
15.8006962841
 21
12.0667167514
  0
LINE
  5
265
100
AcDbEntity
  8
0
100
AcDbLine
 62
7
  6
CONTINUOUS
 10
15.7925503769
 20
12.002583064
 11
15.7931592309
 21
12.0054527671
  0
LINE
  5
266
100
AcDbEntity
  8
0
100
AcDbLine
 62
7
  6
CONTINUOUS
 10
15.8006962841
 20
12.0667167514
 11
15.8011092835
 21
12.0686276969
  0
LINE
  5
267
100
AcDbEntity
  8
0
100
AcDbLine
 62
7
  6
CONTINUOUS
 10
15.7934086562
 20
12.0053756889
 11
15.8161002155
 21
12.0788056018
  0
LINE
  5
268
100
AcDbEntity
  8
0
100
AcDbLine
 62
7
  6
CONTINUOUS
 10
16.5762726788
 20
12.0667167514
 11
16.6439377256
 21
12.0054527671
  0
LINE
  5
269
100
AcDbEntity
  8
0
100
AcDbLine
 62
7
  6
CONTINUOUS
 10
13.9310624742
 20
13.0353437253
 11
17.2468820526
 21
13.0353437253
  0
LINE
  5
26A
100
AcDbEntity
  8
0
100
AcDbLine
 62
7
  6
CONTINUOUS
 10
16.3457958273
 20
12.0054527671
 11
16.3533328805
 21
12.0667167514
  0
LINE
  5
26B
100
AcDbEntity
  8
0
100
AcDbLine
 62
7
  6
CONTINUOUS
 10
16.3451869733
 20
12.002583064
 11
16.3457958273
 21
12.0054527671
  0
LINE
  5
26C
100
AcDbEntity
  8
0
100
AcDbLine
 62
7
  6
CONTINUOUS
 10
16.3533328805
 20
12.0667167514
 11
16.3537458799
 21
12.0686276969
  0
LINE
  5
26D
100
AcDbEntity
  8
0
100
AcDbLine
 62
7
  6
CONTINUOUS
 10
16.3460452526
 20
12.0053756889
 11
16.3687368119
 21
12.0788056018
  0
LINE
  5
26E
100
AcDbEntity
  8
0
100
AcDbLine
 62
7
  6
CONTINUOUS
 10
17.0111624628
 20
12.0795077558
 11
16.9745574388
 21
12.154100952
  0
LINE
  5
26F
100
AcDbEntity
  8
0
100
AcDbLine
 62
7
  6
CONTINUOUS
 10
16.8984324237
 20
12.0054527671
 11
16.9059694769
 21
12.0667167514
  0
LINE
  5
270
100
AcDbEntity
  8
0
100
AcDbLine
 62
7
  6
CONTINUOUS
 10
16.8978235697
 20
12.002583064
 11
16.8984324237
 21
12.0054527671
  0
LINE
  5
271
100
AcDbEntity
  8
0
100
AcDbLine
 62
7
  6
CONTINUOUS
 10
16.9059694769
 20
12.0667167514
 11
16.9063824763
 21
12.0686276969
  0
LINE
  5
272
100
AcDbEntity
  8
0
100
AcDbLine
 62
7
  6
CONTINUOUS
 10
16.898681849
 20
12.0053756889
 11
16.9213734083
 21
12.0788056018
  0
LINE
  5
273
100
AcDbEntity
  8
0
100
AcDbLine
 62
7
  6
CONTINUOUS
 10
17.2468820526
 20
13.0353437253
 11
16.9745574388
 21
12.154100952
  0
LINE
  5
274
100
AcDbEntity
  8
0
100
AcDbLine
 62
7
  6
CONTINUOUS
 10
17.2834870766
 20
12.9607505291
 11
17.0111624628
 21
12.0795077558
  0
LINE
  5
275
100
AcDbEntity
  8
0
100
AcDbLine
 62
7
  6
CONTINUOUS
 10
17.2834870766
 20
12.9607505291
 11
17.2468820526
 21
13.0353437253
  0
ARC
  5
276
100
AcDbEntity
  8
0
100
AcDbCircle
 62
7
  6
CONTINUOUS
 10
5.1384082424
 20
5.4351198968
 40
0.05
100
AcDbArc
 50
202.5
 51
270.0
  0
ARC
  5
277
100
AcDbEntity
  8
0
100
AcDbCircle
 62
7
  6
CONTINUOUS
 10
5.3223263099
 20
5.4351198968
 40
0.05
100
AcDbArc
 50
270.0
 51
337.5
  0
ARC
  5
278
100
AcDbEntity
  8
0
100
AcDbCircle
 62
7
  6
CONTINUOUS
 10
5.7384082424
 20
5.4351198968
 40
0.05
100
AcDbArc
 50
202.5
 51
270.0
  0
ARC
  5
279
100
AcDbEntity
  8
0
100
AcDbCircle
 62
7
  6
CONTINUOUS
 10
5.9223263099
 20
5.4351198968
 40
0.05
100
AcDbArc
 50
270.0
 51
337.5
  0
ARC
  5
27A
100
AcDbEntity
  8
0
100
AcDbCircle
 62
7
  6
CONTINUOUS
 10
6.3384082424
 20
5.4351198968
 40
0.05
100
AcDbArc
 50
202.5
 51
270.0
  0
ARC
  5
27B
100
AcDbEntity
  8
0
100
AcDbCircle
 62
7
  6
CONTINUOUS
 10
6.5223263099
 20
5.4351198968
 40
0.05
100
AcDbArc
 50
270.0
 51
337.5
  0
ARC
  5
27C
100
AcDbEntity
  8
0
100
AcDbCircle
 62
7
  6
CONTINUOUS
 10
4.7223263099
 20
5.4351198968
 40
0.05
100
AcDbArc
 50
270.0
 51
337.5
  0
ARC
  5
27D
100
AcDbEntity
  8
0
100
AcDbCircle
 62
7
  6
CONTINUOUS
 10
4.5384082424
 20
5.4351198968
 40
0.05
100
AcDbArc
 50
202.5
 51
270.0
  0
ARC
  5
27E
100
AcDbEntity
  8
0
100
AcDbCircle
 62
7
  6
CONTINUOUS
 10
7.7223263099
 20
5.4351198968
 40
0.05
100
AcDbArc
 50
270.0
 51
337.5
  0
ARC
  5
27F
100
AcDbEntity
  8
0
100
AcDbCircle
 62
7
  6
CONTINUOUS
 10
7.5384082424
 20
5.4351198968
 40
0.05
100
AcDbArc
 50
202.5
 51
270.0
  0
ARC
  5
280
100
AcDbEntity
  8
0
100
AcDbCircle
 62
7
  6
CONTINUOUS
 10
7.1223263099
 20
5.4351198968
 40
0.05
100
AcDbArc
 50
270.0
 51
337.5
  0
ARC
  5
281
100
AcDbEntity
  8
0
100
AcDbCircle
 62
7
  6
CONTINUOUS
 10
6.9384082424
 20
5.4351198968
 40
0.05
100
AcDbArc
 50
202.5
 51
270.0
  0
ARC
  5
282
100
AcDbEntity
  8
0
100
AcDbCircle
 62
7
  6
CONTINUOUS
 10
4.8401398974
 20
5.5017865634
 40
0.0333333333
100
AcDbArc
 50
90.0
 51
157.5
  0
ARC
  5
283
100
AcDbEntity
  8
0
100
AcDbCircle
 62
7
  6
CONTINUOUS
 10
4.4205946549
 20
5.5017865634
 40
0.0333333333
100
AcDbArc
 50
22.5
 51
90.0
  0
ARC
  5
284
100
AcDbEntity
  8
0
100
AcDbCircle
 62
7
  6
CONTINUOUS
 10
5.4401398974
 20
5.5017865634
 40
0.0333333333
100
AcDbArc
 50
90.0
 51
157.5
  0
ARC
  5
285
100
AcDbEntity
  8
0
100
AcDbCircle
 62
7
  6
CONTINUOUS
 10
5.0205946549
 20
5.5017865634
 40
0.0333333333
100
AcDbArc
 50
22.5
 51
90.0
  0
ARC
  5
286
100
AcDbEntity
  8
0
100
AcDbCircle
 62
7
  6
CONTINUOUS
 10
6.0401398974
 20
5.5017865634
 40
0.0333333333
100
AcDbArc
 50
90.0
 51
157.5
  0
ARC
  5
287
100
AcDbEntity
  8
0
100
AcDbCircle
 62
7
  6
CONTINUOUS
 10
5.6205946549
 20
5.5017865634
 40
0.0333333333
100
AcDbArc
 50
22.5
 51
90.0
  0
ARC
  5
288
100
AcDbEntity
  8
0
100
AcDbCircle
 62
7
  6
CONTINUOUS
 10
6.6401398974
 20
5.5017865634
 40
0.0333333333
100
AcDbArc
 50
90.0
 51
157.5
  0
ARC
  5
289
100
AcDbEntity
  8
0
100
AcDbCircle
 62
7
  6
CONTINUOUS
 10
6.2205946549
 20
5.5017865634
 40
0.0333333333
100
AcDbArc
 50
22.5
 51
90.0
  0
ARC
  5
28A
100
AcDbEntity
  8
0
100
AcDbCircle
 62
7
  6
CONTINUOUS
 10
7.2401398974
 20
5.5017865634
 40
0.0333333333
100
AcDbArc
 50
90.0
 51
157.5
  0
ARC
  5
28B
100
AcDbEntity
  8
0
100
AcDbCircle
 62
7
  6
CONTINUOUS
 10
6.8205946549
 20
5.5017865634
 40
0.0333333333
100
AcDbArc
 50
22.5
 51
90.0
  0
ARC
  5
28C
100
AcDbEntity
  8
0
100
AcDbCircle
 62
7
  6
CONTINUOUS
 10
7.8401398974
 20
5.5017865634
 40
0.0333333333
100
AcDbArc
 50
90.0
 51
157.5
  0
ARC
  5
28D
100
AcDbEntity
  8
0
100
AcDbCircle
 62
7
  6
CONTINUOUS
 10
7.4205946549
 20
5.5017865634
 40
0.0333333333
100
AcDbArc
 50
22.5
 51
90.0
  0
SPLINE
  5
28E
100
AcDbEntity
  8
0
100
AcDbSpline
 62
7
  6
CONTINUOUS
 70
0
 71
3
 72
9
 73
5
 74
0
 42
0.0000001
 43
0.0000001
 44
0.0000000001
 40
0.0
 40
0.0
 40
0.0
 40
0.0
 40
0.4953322015
 40
1.0
 40
1.0
 40
1.0
 40
1.0
 10
14.1431963077
 20
12.0686286823
 30
0.0
 10
14.1433767595
 20
12.0692114521
 30
0.0
 10
14.1438404485
 20
12.0703593722
 30
0.0
 10
14.1444855751
 20
12.0714155036
 30
0.0
 10
14.1448496696
 20
12.0719192694
 30
0.0
  0
SPLINE
  5
28F
100
AcDbEntity
  8
0
100
AcDbSpline
 62
7
  6
CONTINUOUS
 70
0
 71
3
 72
14
 73
10
 74
0
 42
0.0000001
 43
0.0000001
 44
0.0000000001
 40
0.0
 40
0.0
 40
0.0
 40
0.0
 40
0.1008723457
 40
0.2072986367
 40
0.320538504
 40
0.4413699316
 40
0.7063111917
 40
0.8500858585
 40
1.0
 40
1.0
 40
1.0
 40
1.0
 10
14.1448496696
 20
12.0719192694
 30
0.0
 10
14.1452860784
 20
12.0725230902
 30
0.0
 10
14.146300151
 20
12.0736823151
 30
0.0
 10
14.1481349073
 20
12.0751921088
 30
0.0
 10
14.1502939417
 20
12.0764973085
 30
0.0
 10
14.1536721665
 20
12.0779902728
 30
0.0
 10
14.1574970646
 20
12.0789467179
 30
0.0
 10
14.1615966653
 20
12.0794276333
 30
0.0
 10
14.1637673328
 20
12.0795077558
 30
0.0
 10
14.1648745616
 20
12.0795077558
 30
0.0
  0
SPLINE
  5
290
100
AcDbEntity
  8
0
100
AcDbSpline
 62
7
  6
CONTINUOUS
 70
0
 71
3
 72
9
 73
5
 74
0
 42
0.0000001
 43
0.0000001
 44
0.0000000001
 40
0.0
 40
0.0
 40
0.0
 40
0.0
 40
0.4953322015
 40
1.0
 40
1.0
 40
1.0
 40
1.0
 10
14.6958329041
 20
12.0686286823
 30
0.0
 10
14.6960133559
 20
12.0692114521
 30
0.0
 10
14.6964770449
 20
12.0703593722
 30
0.0
 10
14.6971221715
 20
12.0714155036
 30
0.0
 10
14.697486266
 20
12.0719192694
 30
0.0
  0
SPLINE
  5
291
100
AcDbEntity
  8
0
100
AcDbSpline
 62
7
  6
CONTINUOUS
 70
0
 71
3
 72
14
 73
10
 74
0
 42
0.0000001
 43
0.0000001
 44
0.0000000001
 40
0.0
 40
0.0
 40
0.0
 40
0.0
 40
0.1008723457
 40
0.2072986367
 40
0.320538504
 40
0.4413699316
 40
0.7063111917
 40
0.8500858585
 40
1.0
 40
1.0
 40
1.0
 40
1.0
 10
14.697486266
 20
12.0719192694
 30
0.0
 10
14.6979226748
 20
12.0725230902
 30
0.0
 10
14.6989367474
 20
12.0736823151
 30
0.0
 10
14.7007715037
 20
12.0751921088
 30
0.0
 10
14.7029305381
 20
12.0764973085
 30
0.0
 10
14.7063087629
 20
12.0779902728
 30
0.0
 10
14.710133661
 20
12.0789467179
 30
0.0
 10
14.7142332617
 20
12.0794276333
 30
0.0
 10
14.7164039292
 20
12.0795077558
 30
0.0
 10
14.717511158
 20
12.0795077558
 30
0.0
  0
SPLINE
  5
292
100
AcDbEntity
  8
0
100
AcDbSpline
 62
7
  6
CONTINUOUS
 70
0
 71
3
 72
9
 73
5
 74
0
 42
0.0000001
 43
0.0000001
 44
0.0000000001
 40
0.0
 40
0.0
 40
0.0
 40
0.0
 40
0.4953322015
 40
1.0
 40
1.0
 40
1.0
 40
1.0
 10
15.2484695005
 20
12.0686286823
 30
0.0
 10
15.2486499523
 20
12.0692114521
 30
0.0
 10
15.2491136413
 20
12.0703593722
 30
0.0
 10
15.2497587679
 20
12.0714155036
 30
0.0
 10
15.2501228624
 20
12.0719192694
 30
0.0
  0
SPLINE
  5
293
100
AcDbEntity
  8
0
100
AcDbSpline
 62
7
  6
CONTINUOUS
 70
0
 71
3
 72
14
 73
10
 74
0
 42
0.0000001
 43
0.0000001
 44
0.0000000001
 40
0.0
 40
0.0
 40
0.0
 40
0.0
 40
0.1008723457
 40
0.2072986367
 40
0.320538504
 40
0.4413699316
 40
0.7063111917
 40
0.8500858585
 40
1.0
 40
1.0
 40
1.0
 40
1.0
 10
15.2501228624
 20
12.0719192694
 30
0.0
 10
15.2505592712
 20
12.0725230902
 30
0.0
 10
15.2515733438
 20
12.0736823151
 30
0.0
 10
15.2534081001
 20
12.0751921088
 30
0.0
 10
15.2555671345
 20
12.0764973085
 30
0.0
 10
15.2589453593
 20
12.0779902728
 30
0.0
 10
15.2627702574
 20
12.0789467179
 30
0.0
 10
15.2668698581
 20
12.0794276333
 30
0.0
 10
15.2690405256
 20
12.0795077558
 30
0.0
 10
15.2701477544
 20
12.0795077558
 30
0.0
  0
SPLINE
  5
294
100
AcDbEntity
  8
0
100
AcDbSpline
 62
7
  6
CONTINUOUS
 70
0
 71
3
 72
9
 73
5
 74
0
 42
0.0000001
 43
0.0000001
 44
0.0000000001
 40
0.0
 40
0.0
 40
0.0
 40
0.0
 40
0.4953322015
 40
1.0
 40
1.0
 40
1.0
 40
1.0
 10
15.8011060969
 20
12.0686286823
 30
0.0
 10
15.8012865487
 20
12.0692114521
 30
0.0
 10
15.8017502377
 20
12.0703593722
 30
0.0
 10
15.8023953643
 20
12.0714155036
 30
0.0
 10
15.8027594588
 20
12.0719192694
 30
0.0
  0
SPLINE
  5
295
100
AcDbEntity
  8
0
100
AcDbSpline
 62
7
  6
CONTINUOUS
 70
0
 71
3
 72
14
 73
10
 74
0
 42
0.0000001
 43
0.0000001
 44
0.0000000001
 40
0.0
 40
0.0
 40
0.0
 40
0.0
 40
0.1008723457
 40
0.2072986367
 40
0.320538504
 40
0.4413699316
 40
0.7063111917
 40
0.8500858585
 40
1.0
 40
1.0
 40
1.0
 40
1.0
 10
15.8027594588
 20
12.0719192694
 30
0.0
 10
15.8031958676
 20
12.0725230902
 30
0.0
 10
15.8042099402
 20
12.0736823151
 30
0.0
 10
15.8060446965
 20
12.0751921088
 30
0.0
 10
15.8082037309
 20
12.0764973085
 30
0.0
 10
15.8115819557
 20
12.0779902728
 30
0.0
 10
15.8154068538
 20
12.0789467179
 30
0.0
 10
15.8195064545
 20
12.0794276333
 30
0.0
 10
15.821677122
 20
12.0795077558
 30
0.0
 10
15.8227843508
 20
12.0795077558
 30
0.0
  0
SPLINE
  5
296
100
AcDbEntity
  8
0
100
AcDbSpline
 62
7
  6
CONTINUOUS
 70
0
 71
3
 72
9
 73
5
 74
0
 42
0.0000001
 43
0.0000001
 44
0.0000000001
 40
0.0
 40
0.0
 40
0.0
 40
0.0
 40
0.4953322015
 40
1.0
 40
1.0
 40
1.0
 40
1.0
 10
16.3537426933
 20
12.0686286823
 30
0.0
 10
16.3539231451
 20
12.0692114521
 30
0.0
 10
16.3543868341
 20
12.0703593722
 30
0.0
 10
16.3550319607
 20
12.0714155036
 30
0.0
 10
16.3553960552
 20
12.0719192694
 30
0.0
  0
SPLINE
  5
297
100
AcDbEntity
  8
0
100
AcDbSpline
 62
7
  6
CONTINUOUS
 70
0
 71
3
 72
14
 73
10
 74
0
 42
0.0000001
 43
0.0000001
 44
0.0000000001
 40
0.0
 40
0.0
 40
0.0
 40
0.0
 40
0.1008723457
 40
0.2072986367
 40
0.320538504
 40
0.4413699316
 40
0.7063111917
 40
0.8500858585
 40
1.0
 40
1.0
 40
1.0
 40
1.0
 10
16.3553960552
 20
12.0719192694
 30
0.0
 10
16.355832464
 20
12.0725230902
 30
0.0
 10
16.3568465366
 20
12.0736823151
 30
0.0
 10
16.3586812929
 20
12.0751921088
 30
0.0
 10
16.3608403273
 20
12.0764973085
 30
0.0
 10
16.3642185521
 20
12.0779902728
 30
0.0
 10
16.3680434502
 20
12.0789467179
 30
0.0
 10
16.3721430509
 20
12.0794276333
 30
0.0
 10
16.3743137184
 20
12.0795077558
 30
0.0
 10
16.3754209472
 20
12.0795077558
 30
0.0
  0
SPLINE
  5
298
100
AcDbEntity
  8
0
100
AcDbSpline
 62
7
  6
CONTINUOUS
 70
0
 71
3
 72
9
 73
5
 74
0
 42
0.0000001
 43
0.0000001
 44
0.0000000001
 40
0.0
 40
0.0
 40
0.0
 40
0.0
 40
0.4953322015
 40
1.0
 40
1.0
 40
1.0
 40
1.0
 10
16.9063792897
 20
12.0686286823
 30
0.0
 10
16.9065597415
 20
12.0692114521
 30
0.0
 10
16.9070234305
 20
12.0703593722
 30
0.0
 10
16.9076685571
 20
12.0714155036
 30
0.0
 10
16.9080326516
 20
12.0719192694
 30
0.0
  0
SPLINE
  5
299
100
AcDbEntity
  8
0
100
AcDbSpline
 62
7
  6
CONTINUOUS
 70
0
 71
3
 72
14
 73
10
 74
0
 42
0.0000001
 43
0.0000001
 44
0.0000000001
 40
0.0
 40
0.0
 40
0.0
 40
0.0
 40
0.1008723457
 40
0.2072986367
 40
0.320538504
 40
0.4413699316
 40
0.7063111917
 40
0.8500858585
 40
1.0
 40
1.0
 40
1.0
 40
1.0
 10
16.9080326516
 20
12.0719192694
 30
0.0
 10
16.9084690604
 20
12.0725230902
 30
0.0
 10
16.909483133
 20
12.0736823151
 30
0.0
 10
16.9113178893
 20
12.0751921088
 30
0.0
 10
16.9134769237
 20
12.0764973085
 30
0.0
 10
16.9168551485
 20
12.0779902728
 30
0.0
 10
16.9206800466
 20
12.0789467179
 30
0.0
 10
16.9247796473
 20
12.0794276333
 30
0.0
 10
16.9269503149
 20
12.0795077558
 30
0.0
 10
16.9280575436
 20
12.0795077558
 30
0.0
  0
SPLINE
  5
29A
100
AcDbEntity
  8
0
100
AcDbSpline
 62
7
  6
CONTINUOUS
 70
0
 71
3
 72
20
 73
16
 74
0
 42
0.0000001
 43
0.0000001
 44
0.0000000001
 40
0.0
 40
0.0
 40
0.0
 40
0.0
 40
0.155655562
 40
0.3030289893
 40
0.3731921169
 40
0.4408921857
 40
0.5687572298
 40
0.6290753312
 40
0.6870820248
 40
0.7429309676
 40
0.7968520739
 40
0.8491468321
 40
0.9001682415
 40
0.9503158325
 40
1.0
 40
1.0
 40
1.0
 40
1.0
 10
14.1021173416
 20
11.9862662605
 30
0.0
 10
14.1041303919
 20
11.9862662605
 30
0.0
 10
14.1080520301
 20
11.9864401249
 30
0.0
 10
14.1128385012
 20
11.9871310981
 30
0.0
 10
14.1164325428
 20
11.9879719768
 30
0.0
 10
14.1197264598
 20
11.9889564221
 30
0.0
 10
14.1228041764
 20
11.9902082019
 30
0.0
 10
14.1255970116
 20
11.9917430234
 30
0.0
 10
14.1274777404
 20
11.9929878348
 30
0.0
 10
14.1291755537
 20
11.994343914
 30
0.0
 10
14.1306824026
 20
11.9958057259
 30
0.0
 10
14.131991777
 20
11.9973664911
 30
0.0
 10
14.1330971528
 20
11.9990199289
 30
0.0
 10
14.1339914055
 20
12.0007585123
 30
0.0
 10
14.1344456921
 20
12.0019707591
 30
0.0
 10
14.1346355076
 20
12.0025846342
 30
0.0
  0
SPLINE
  5
29B
100
AcDbEntity
  8
0
100
AcDbSpline
 62
7
  6
CONTINUOUS
 70
0
 71
3
 72
15
 73
11
 74
0
 42
0.0000001
 43
0.0000001
 44
0.0000000001
 40
0.0
 40
0.0
 40
0.0
 40
0.0
 40
0.1148729586
 40
0.2360780296
 40
0.361957368
 40
0.4908828328
 40
0.6210130666
 40
0.7504589652
 40
0.8774378048
 40
1.0
 40
1.0
 40
1.0
 40
1.0
 10
13.8807547436
 20
12.0054527671
 30
0.0
 10
13.8823590995
 20
12.0040001821
 30
0.0
 10
13.8858350177
 20
12.001208595
 30
0.0
 10
13.8915638137
 20
11.9974912385
 30
0.0
 10
13.8978470496
 20
11.9941981559
 30
0.0
 10
13.9045474593
 20
11.9914003988
 30
0.0
 10
13.9115228986
 20
11.9891546534
 30
0.0
 10
13.9186269204
 20
11.9875106492
 30
0.0
 10
13.9257046769
 20
11.9865048562
 30
0.0
 10
13.9304084695
 20
11.9862662605
 30
0.0
 10
13.9327175835
 20
11.9862662605
 30
0.0
  0
SPLINE
  5
29C
100
AcDbEntity
  8
0
100
AcDbSpline
 62
7
  6
CONTINUOUS
 70
0
 71
3
 72
20
 73
16
 74
0
 42
0.0000001
 43
0.0000001
 44
0.0000000001
 40
0.0
 40
0.0
 40
0.0
 40
0.0
 40
0.155655562
 40
0.3030289893
 40
0.3731921169
 40
0.4408921857
 40
0.5687572298
 40
0.6290753312
 40
0.6870820248
 40
0.7429309676
 40
0.7968520739
 40
0.8491468321
 40
0.9001682415
 40
0.9503158325
 40
1.0
 40
1.0
 40
1.0
 40
1.0
 10
16.8653003236
 20
11.9862662605
 30
0.0
 10
16.8673133739
 20
11.9862662605
 30
0.0
 10
16.8712350121
 20
11.9864401249
 30
0.0
 10
16.8760214832
 20
11.9871310981
 30
0.0
 10
16.8796155248
 20
11.9879719768
 30
0.0
 10
16.8829094418
 20
11.9889564221
 30
0.0
 10
16.8859871584
 20
11.9902082019
 30
0.0
 10
16.8887799936
 20
11.9917430234
 30
0.0
 10
16.8906607224
 20
11.9929878348
 30
0.0
 10
16.8923585357
 20
11.994343914
 30
0.0
 10
16.8938653846
 20
11.9958057259
 30
0.0
 10
16.895174759
 20
11.9973664911
 30
0.0
 10
16.8962801348
 20
11.9990199289
 30
0.0
 10
16.8971743875
 20
12.0007585123
 30
0.0
 10
16.8976286742
 20
12.0019707591
 30
0.0
 10
16.8978184896
 20
12.0025846342
 30
0.0
  0
SPLINE
  5
29D
100
AcDbEntity
  8
0
100
AcDbSpline
 62
7
  6
CONTINUOUS
 70
0
 71
3
 72
15
 73
11
 74
0
 42
0.0000001
 43
0.0000001
 44
0.0000000001
 40
0.0
 40
0.0
 40
0.0
 40
0.0
 40
0.1148729586
 40
0.2360780296
 40
0.361957368
 40
0.4908828328
 40
0.6210130666
 40
0.7504589652
 40
0.8774378048
 40
1.0
 40
1.0
 40
1.0
 40
1.0
 10
16.6439377256
 20
12.0054527671
 30
0.0
 10
16.6455420815
 20
12.0040001821
 30
0.0
 10
16.6490179997
 20
12.001208595
 30
0.0
 10
16.6547467957
 20
11.9974912385
 30
0.0
 10
16.6610300316
 20
11.9941981559
 30
0.0
 10
16.6677304413
 20
11.9914003988
 30
0.0
 10
16.6747058806
 20
11.9891546534
 30
0.0
 10
16.6818099024
 20
11.9875106492
 30
0.0
 10
16.6888876589
 20
11.9865048562
 30
0.0
 10
16.6935914515
 20
11.9862662605
 30
0.0
 10
16.6959005655
 20
11.9862662605
 30
0.0
  0
SPLINE
  5
29E
100
AcDbEntity
  8
0
100
AcDbSpline
 62
7
  6
CONTINUOUS
 70
0
 71
3
 72
20
 73
16
 74
0
 42
0.0000001
 43
0.0000001
 44
0.0000000001
 40
0.0
 40
0.0
 40
0.0
 40
0.0
 40
0.155655562
 40
0.3030289893
 40
0.3731921169
 40
0.4408921857
 40
0.5687572298
 40
0.6290753312
 40
0.6870820248
 40
0.7429309676
 40
0.7968520739
 40
0.8491468321
 40
0.9001682415
 40
0.9503158325
 40
1.0
 40
1.0
 40
1.0
 40
1.0
 10
16.3126637272
 20
11.9862662605
 30
0.0
 10
16.3146767775
 20
11.9862662605
 30
0.0
 10
16.3185984157
 20
11.9864401249
 30
0.0
 10
16.3233848868
 20
11.9871310981
 30
0.0
 10
16.3269789284
 20
11.9879719768
 30
0.0
 10
16.3302728454
 20
11.9889564221
 30
0.0
 10
16.333350562
 20
11.9902082019
 30
0.0
 10
16.3361433972
 20
11.9917430234
 30
0.0
 10
16.338024126
 20
11.9929878348
 30
0.0
 10
16.3397219393
 20
11.994343914
 30
0.0
 10
16.3412287882
 20
11.9958057259
 30
0.0
 10
16.3425381626
 20
11.9973664911
 30
0.0
 10
16.3436435384
 20
11.9990199289
 30
0.0
 10
16.3445377911
 20
12.0007585123
 30
0.0
 10
16.3449920777
 20
12.0019707591
 30
0.0
 10
16.3451818932
 20
12.0025846342
 30
0.0
  0
SPLINE
  5
29F
100
AcDbEntity
  8
0
100
AcDbSpline
 62
7
  6
CONTINUOUS
 70
0
 71
3
 72
15
 73
11
 74
0
 42
0.0000001
 43
0.0000001
 44
0.0000000001
 40
0.0
 40
0.0
 40
0.0
 40
0.0
 40
0.1148729586
 40
0.2360780296
 40
0.361957368
 40
0.4908828328
 40
0.6210130666
 40
0.7504589652
 40
0.8774378048
 40
1.0
 40
1.0
 40
1.0
 40
1.0
 10
16.0913011292
 20
12.0054527671
 30
0.0
 10
16.0929054851
 20
12.0040001821
 30
0.0
 10
16.0963814033
 20
12.001208595
 30
0.0
 10
16.1021101993
 20
11.9974912385
 30
0.0
 10
16.1083934352
 20
11.9941981559
 30
0.0
 10
16.1150938449
 20
11.9914003988
 30
0.0
 10
16.1220692842
 20
11.9891546534
 30
0.0
 10
16.129173306
 20
11.9875106492
 30
0.0
 10
16.1362510625
 20
11.9865048562
 30
0.0
 10
16.1409548551
 20
11.9862662605
 30
0.0
 10
16.1432639691
 20
11.9862662605
 30
0.0
  0
SPLINE
  5
2A0
100
AcDbEntity
  8
0
100
AcDbSpline
 62
7
  6
CONTINUOUS
 70
0
 71
3
 72
20
 73
16
 74
0
 42
0.0000001
 43
0.0000001
 44
0.0000000001
 40
0.0
 40
0.0
 40
0.0
 40
0.0
 40
0.155655562
 40
0.3030289893
 40
0.3731921169
 40
0.4408921857
 40
0.5687572298
 40
0.6290753312
 40
0.6870820248
 40
0.7429309676
 40
0.7968520739
 40
0.8491468321
 40
0.9001682415
 40
0.9503158325
 40
1.0
 40
1.0
 40
1.0
 40
1.0
 10
15.7600271308
 20
11.9862662605
 30
0.0
 10
15.7620401811
 20
11.9862662605
 30
0.0
 10
15.7659618193
 20
11.9864401249
 30
0.0
 10
15.7707482904
 20
11.9871310981
 30
0.0
 10
15.774342332
 20
11.9879719768
 30
0.0
 10
15.777636249
 20
11.9889564221
 30
0.0
 10
15.7807139656
 20
11.9902082019
 30
0.0
 10
15.7835068008
 20
11.9917430234
 30
0.0
 10
15.7853875296
 20
11.9929878348
 30
0.0
 10
15.7870853429
 20
11.994343914
 30
0.0
 10
15.7885921918
 20
11.9958057259
 30
0.0
 10
15.7899015662
 20
11.9973664911
 30
0.0
 10
15.791006942
 20
11.9990199289
 30
0.0
 10
15.7919011947
 20
12.0007585123
 30
0.0
 10
15.7923554813
 20
12.0019707591
 30
0.0
 10
15.7925452968
 20
12.0025846342
 30
0.0
  0
SPLINE
  5
2A1
100
AcDbEntity
  8
0
100
AcDbSpline
 62
7
  6
CONTINUOUS
 70
0
 71
3
 72
15
 73
11
 74
0
 42
0.0000001
 43
0.0000001
 44
0.0000000001
 40
0.0
 40
0.0
 40
0.0
 40
0.0
 40
0.1148729586
 40
0.2360780296
 40
0.361957368
 40
0.4908828328
 40
0.6210130666
 40
0.7504589652
 40
0.8774378048
 40
1.0
 40
1.0
 40
1.0
 40
1.0
 10
15.5386645328
 20
12.0054527671
 30
0.0
 10
15.5402688887
 20
12.0040001821
 30
0.0
 10
15.5437448069
 20
12.001208595
 30
0.0
 10
15.5494736029
 20
11.9974912385
 30
0.0
 10
15.5557568388
 20
11.9941981559
 30
0.0
 10
15.5624572485
 20
11.9914003988
 30
0.0
 10
15.5694326878
 20
11.9891546534
 30
0.0
 10
15.5765367096
 20
11.9875106492
 30
0.0
 10
15.5836144661
 20
11.9865048562
 30
0.0
 10
15.5883182587
 20
11.9862662605
 30
0.0
 10
15.5906273727
 20
11.9862662605
 30
0.0
  0
SPLINE
  5
2A2
100
AcDbEntity
  8
0
100
AcDbSpline
 62
7
  6
CONTINUOUS
 70
0
 71
3
 72
20
 73
16
 74
0
 42
0.0000001
 43
0.0000001
 44
0.0000000001
 40
0.0
 40
0.0
 40
0.0
 40
0.0
 40
0.155655562
 40
0.3030289893
 40
0.3731921169
 40
0.4408921857
 40
0.5687572298
 40
0.6290753312
 40
0.6870820248
 40
0.7429309676
 40
0.7968520739
 40
0.8491468321
 40
0.9001682415
 40
0.9503158325
 40
1.0
 40
1.0
 40
1.0
 40
1.0
 10
15.2073905344
 20
11.9862662605
 30
0.0
 10
15.2094035847
 20
11.9862662605
 30
0.0
 10
15.2133252229
 20
11.9864401249
 30
0.0
 10
15.218111694
 20
11.9871310981
 30
0.0
 10
15.2217057356
 20
11.9879719768
 30
0.0
 10
15.2249996526
 20
11.9889564221
 30
0.0
 10
15.2280773692
 20
11.9902082019
 30
0.0
 10
15.2308702044
 20
11.9917430234
 30
0.0
 10
15.2327509332
 20
11.9929878348
 30
0.0
 10
15.2344487465
 20
11.994343914
 30
0.0
 10
15.2359555954
 20
11.9958057259
 30
0.0
 10
15.2372649698
 20
11.9973664911
 30
0.0
 10
15.2383703456
 20
11.9990199289
 30
0.0
 10
15.2392645983
 20
12.0007585123
 30
0.0
 10
15.2397188849
 20
12.0019707591
 30
0.0
 10
15.2399087004
 20
12.0025846342
 30
0.0
  0
SPLINE
  5
2A3
100
AcDbEntity
  8
0
100
AcDbSpline
 62
7
  6
CONTINUOUS
 70
0
 71
3
 72
15
 73
11
 74
0
 42
0.0000001
 43
0.0000001
 44
0.0000000001
 40
0.0
 40
0.0
 40
0.0
 40
0.0
 40
0.1148729586
 40
0.2360780296
 40
0.361957368
 40
0.4908828328
 40
0.6210130666
 40
0.7504589652
 40
0.8774378048
 40
1.0
 40
1.0
 40
1.0
 40
1.0
 10
14.9860279364
 20
12.0054527671
 30
0.0
 10
14.9876322923
 20
12.0040001821
 30
0.0
 10
14.9911082105
 20
12.001208595
 30
0.0
 10
14.9968370065
 20
11.9974912385
 30
0.0
 10
15.0031202424
 20
11.9941981559
 30
0.0
 10
15.0098206521
 20
11.9914003988
 30
0.0
 10
15.0167960914
 20
11.9891546534
 30
0.0
 10
15.0239001132
 20
11.9875106492
 30
0.0
 10
15.0309778697
 20
11.9865048562
 30
0.0
 10
15.0356816623
 20
11.9862662605
 30
0.0
 10
15.0379907763
 20
11.9862662605
 30
0.0
  0
SPLINE
  5
2A4
100
AcDbEntity
  8
0
100
AcDbSpline
 62
7
  6
CONTINUOUS
 70
0
 71
3
 72
20
 73
16
 74
0
 42
0.0000001
 43
0.0000001
 44
0.0000000001
 40
0.0
 40
0.0
 40
0.0
 40
0.0
 40
0.155655562
 40
0.3030289893
 40
0.3731921169
 40
0.4408921857
 40
0.5687572298
 40
0.6290753312
 40
0.6870820248
 40
0.7429309676
 40
0.7968520739
 40
0.8491468321
 40
0.9001682415
 40
0.9503158325
 40
1.0
 40
1.0
 40
1.0
 40
1.0
 10
14.654753938
 20
11.9862662605
 30
0.0
 10
14.6567669883
 20
11.9862662605
 30
0.0
 10
14.6606886265
 20
11.9864401249
 30
0.0
 10
14.6654750976
 20
11.9871310981
 30
0.0
 10
14.6690691392
 20
11.9879719768
 30
0.0
 10
14.6723630562
 20
11.9889564221
 30
0.0
 10
14.6754407728
 20
11.9902082019
 30
0.0
 10
14.678233608
 20
11.9917430234
 30
0.0
 10
14.6801143368
 20
11.9929878348
 30
0.0
 10
14.6818121501
 20
11.994343914
 30
0.0
 10
14.683318999
 20
11.9958057259
 30
0.0
 10
14.6846283734
 20
11.9973664911
 30
0.0
 10
14.6857337492
 20
11.9990199289
 30
0.0
 10
14.6866280019
 20
12.0007585123
 30
0.0
 10
14.6870822885
 20
12.0019707591
 30
0.0
 10
14.687272104
 20
12.0025846342
 30
0.0
  0
SPLINE
  5
2A5
100
AcDbEntity
  8
0
100
AcDbSpline
 62
7
  6
CONTINUOUS
 70
0
 71
3
 72
15
 73
11
 74
0
 42
0.0000001
 43
0.0000001
 44
0.0000000001
 40
0.0
 40
0.0
 40
0.0
 40
0.0
 40
0.1148729586
 40
0.2360780296
 40
0.361957368
 40
0.4908828328
 40
0.6210130666
 40
0.7504589652
 40
0.8774378048
 40
1.0
 40
1.0
 40
1.0
 40
1.0
 10
14.43339134
 20
12.0054527671
 30
0.0
 10
14.4349956959
 20
12.0040001821
 30
0.0
 10
14.4384716141
 20
12.001208595
 30
0.0
 10
14.4442004101
 20
11.9974912385
 30
0.0
 10
14.450483646
 20
11.9941981559
 30
0.0
 10
14.4571840557
 20
11.9914003988
 30
0.0
 10
14.464159495
 20
11.9891546534
 30
0.0
 10
14.4712635168
 20
11.9875106492
 30
0.0
 10
14.4783412733
 20
11.9865048562
 30
0.0
 10
14.4830450659
 20
11.9862662605
 30
0.0
 10
14.4853541799
 20
11.9862662605
 30
0.0
  0
SPLINE
  5
2A6
100
AcDbEntity
  8
0
100
AcDbSpline
 62
7
  6
CONTINUOUS
 70
0
 71
3
 72
15
 73
11
 74
0
 42
0.0000001
 43
0.0000001
 44
0.0000000001
 40
0.0
 40
0.0
 40
0.0
 40
0.0
 40
0.1224854895
 40
0.2495249387
 40
0.3790233188
 40
0.509119767
 40
0.6380078169
 40
0.7639368619
 40
0.8851964299
 40
1.0
 40
1.0
 40
1.0
 40
1.0
 10
13.7784478035
 20
12.0795077558
 30
0.0
 10
13.7799862446
 20
12.0795077558
 30
0.0
 10
13.7831218209
 20
12.0793478453
 30
0.0
 10
13.7878409681
 20
12.0786786917
 30
0.0
 10
13.7925777362
 20
12.0775815502
 30
0.0
 10
13.79722815
 20
12.0760855719
 30
0.0
 10
13.8016943735
 20
12.0742194375
 30
0.0
 10
13.8058843853
 20
12.0720244991
 30
0.0
 10
13.8097030995
 20
12.0695447513
 30
0.0
 10
13.8120207756
 20
12.0676845534
 30
0.0
 10
13.8130896968
 20
12.0667167514
 30
0.0
  0
SPLINE
  5
2A7
100
AcDbEntity
  8
0
100
AcDbSpline
 62
7
  6
CONTINUOUS
 70
0
 71
3
 72
15
 73
11
 74
0
 42
0.0000001
 43
0.0000001
 44
0.0000000001
 40
0.0
 40
0.0
 40
0.0
 40
0.0
 40
0.1224854895
 40
0.2495249387
 40
0.3790233188
 40
0.509119767
 40
0.6380078169
 40
0.7639368619
 40
0.8851964299
 40
1.0
 40
1.0
 40
1.0
 40
1.0
 10
14.3310843999
 20
12.0795077558
 30
0.0
 10
14.332622841
 20
12.0795077558
 30
0.0
 10
14.3357584173
 20
12.0793478453
 30
0.0
 10
14.3404775645
 20
12.0786786917
 30
0.0
 10
14.3452143326
 20
12.0775815502
 30
0.0
 10
14.3498647464
 20
12.0760855719
 30
0.0
 10
14.3543309699
 20
12.0742194375
 30
0.0
 10
14.3585209817
 20
12.0720244991
 30
0.0
 10
14.3623396959
 20
12.0695447513
 30
0.0
 10
14.364657372
 20
12.0676845534
 30
0.0
 10
14.3657262932
 20
12.0667167514
 30
0.0
  0
SPLINE
  5
2A8
100
AcDbEntity
  8
0
100
AcDbSpline
 62
7
  6
CONTINUOUS
 70
0
 71
3
 72
15
 73
11
 74
0
 42
0.0000001
 43
0.0000001
 44
0.0000000001
 40
0.0
 40
0.0
 40
0.0
 40
0.0
 40
0.1224854895
 40
0.2495249387
 40
0.3790233188
 40
0.509119767
 40
0.6380078169
 40
0.7639368619
 40
0.8851964299
 40
1.0
 40
1.0
 40
1.0
 40
1.0
 10
14.8837209963
 20
12.0795077558
 30
0.0
 10
14.8852594374
 20
12.0795077558
 30
0.0
 10
14.8883950137
 20
12.0793478453
 30
0.0
 10
14.893114161
 20
12.0786786917
 30
0.0
 10
14.897850929
 20
12.0775815502
 30
0.0
 10
14.9025013428
 20
12.0760855719
 30
0.0
 10
14.9069675663
 20
12.0742194375
 30
0.0
 10
14.9111575781
 20
12.0720244991
 30
0.0
 10
14.9149762923
 20
12.0695447513
 30
0.0
 10
14.9172939684
 20
12.0676845534
 30
0.0
 10
14.9183628896
 20
12.0667167514
 30
0.0
  0
SPLINE
  5
2A9
100
AcDbEntity
  8
0
100
AcDbSpline
 62
7
  6
CONTINUOUS
 70
0
 71
3
 72
15
 73
11
 74
0
 42
0.0000001
 43
0.0000001
 44
0.0000000001
 40
0.0
 40
0.0
 40
0.0
 40
0.0
 40
0.1224854895
 40
0.2495249387
 40
0.3790233188
 40
0.509119767
 40
0.6380078169
 40
0.7639368619
 40
0.8851964299
 40
1.0
 40
1.0
 40
1.0
 40
1.0
 10
15.4363575927
 20
12.0795077558
 30
0.0
 10
15.4378960338
 20
12.0795077558
 30
0.0
 10
15.4410316101
 20
12.0793478453
 30
0.0
 10
15.4457507574
 20
12.0786786917
 30
0.0
 10
15.4504875254
 20
12.0775815502
 30
0.0
 10
15.4551379392
 20
12.0760855719
 30
0.0
 10
15.4596041627
 20
12.0742194375
 30
0.0
 10
15.4637941745
 20
12.0720244991
 30
0.0
 10
15.4676128887
 20
12.0695447513
 30
0.0
 10
15.4699305648
 20
12.0676845534
 30
0.0
 10
15.470999486
 20
12.0667167514
 30
0.0
  0
SPLINE
  5
2AA
100
AcDbEntity
  8
0
100
AcDbSpline
 62
7
  6
CONTINUOUS
 70
0
 71
3
 72
15
 73
11
 74
0
 42
0.0000001
 43
0.0000001
 44
0.0000000001
 40
0.0
 40
0.0
 40
0.0
 40
0.0
 40
0.1224854895
 40
0.2495249387
 40
0.3790233188
 40
0.509119767
 40
0.6380078169
 40
0.7639368619
 40
0.8851964299
 40
1.0
 40
1.0
 40
1.0
 40
1.0
 10
15.9889941891
 20
12.0795077558
 30
0.0
 10
15.9905326302
 20
12.0795077558
 30
0.0
 10
15.9936682065
 20
12.0793478453
 30
0.0
 10
15.9983873538
 20
12.0786786917
 30
0.0
 10
16.0031241218
 20
12.0775815502
 30
0.0
 10
16.0077745356
 20
12.0760855719
 30
0.0
 10
16.0122407591
 20
12.0742194375
 30
0.0
 10
16.0164307709
 20
12.0720244991
 30
0.0
 10
16.0202494852
 20
12.0695447513
 30
0.0
 10
16.0225671612
 20
12.0676845534
 30
0.0
 10
16.0236360824
 20
12.0667167514
 30
0.0
  0
SPLINE
  5
2AB
100
AcDbEntity
  8
0
100
AcDbSpline
 62
7
  6
CONTINUOUS
 70
0
 71
3
 72
15
 73
11
 74
0
 42
0.0000001
 43
0.0000001
 44
0.0000000001
 40
0.0
 40
0.0
 40
0.0
 40
0.0
 40
0.1224854895
 40
0.2495249387
 40
0.3790233188
 40
0.509119767
 40
0.6380078169
 40
0.7639368619
 40
0.8851964299
 40
1.0
 40
1.0
 40
1.0
 40
1.0
 10
16.5416307855
 20
12.0795077558
 30
0.0
 10
16.5431692266
 20
12.0795077558
 30
0.0
 10
16.5463048029
 20
12.0793478453
 30
0.0
 10
16.5510239502
 20
12.0786786917
 30
0.0
 10
16.5557607182
 20
12.0775815502
 30
0.0
 10
16.560411132
 20
12.0760855719
 30
0.0
 10
16.5648773555
 20
12.0742194375
 30
0.0
 10
16.5690673673
 20
12.0720244991
 30
0.0
 10
16.5728860816
 20
12.0695447513
 30
0.0
 10
16.5752037576
 20
12.0676845534
 30
0.0
 10
16.5762726788
 20
12.0667167514
 30
0.0
  0
ENDSEC
  0
SECTION
  2
OBJECTS
  0
DICTIONARY
  5
C
100
AcDbDictionary
280
0
281
1
  3
ACAD_GROUP
350
D
  3
ACAD_MLINESTYLE
350
17
  3
ACAD_LAYOUT
350
1A
  3
ACAD_PLOTSETTINGS
350
19
  3
ACAD_PLOTSTYLENAME
350
E
  0
DICTIONARY
  5
D
102
{ACAD_REACTORS
330
C
102
}
100
AcDbDictionary
280
0
281
1
  0
ACDBDICTIONARYWDFLT
  5
E
102
{ACAD_REACTORS
330
C
102
}
100
AcDbDictionary
281
1
  3
Normal
350
F
100
AcDbDictionaryWithDefault
340
F
  0
DICTIONARY
  5
17
102
{ACAD_REACTORS
330
C
102
}
100
AcDbDictionary
280
0
281
1
  3
Standard
350
18
  0
DICTIONARY
  5
19
102
{ACAD_REACTORS
330
C
102
}
100
AcDbDictionary
281
1
  0
DICTIONARY
  5
1A
102
{ACAD_REACTORS
330
C
102
}
100
AcDbDictionary
281
1
  3
Model
350
2AC
  3
Layout1
350
2AD
  0
ACDBPLACEHOLDER
  5
F
102
{ACAD_REACTORS
330
E
102
}
  0
MLINESTYLE
  5
18
102
{ACAD_REACTORS
330
17
102
}
100
AcDbMlineStyle
  2
STANDARD
 70
0
  3

 62
256
 51
90.0
 52
90.0
 71
2
 49
0.5
 62
256
  6
BYLAYER
 49
-0.5
 62
256
  6
BYLAYER
  0
LAYOUT
  5
2AC
102
{ACAD_REACTORS
330
1A
102
}
100
AcDbPlotSettings
  1

  2
none_device
  4
ANSI_C_(22.00_x_17.00_Inches)
  6

 40
0.0
 41
0.0
 42
0.0
 43
0.0
 44
558.8
 45
431.8
 46
0.0
 47
0.0
 48
0.0
 49
0.0
140
0.0
141
0.0
142
1.0
143
1.0
 70
1024
 72
0
 73
0
 74
0
  7

 75
0
147
1.0
148
0.0
149
0.0
100
AcDbLayout
  1
Model
 70
0
 71
0
 10
0.0
 20
0.0
 11
22.0
 21
17.0
 12
0.0
 22
0.0
 32
0.0
 14
0.0
 24
0.0
 34
0.0
 15
0.0
 25
0.0
 35
0.0
146
0.0
 13
0.0
 23
0.0
 33
0.0
 16
1.0
 26
0.0
 36
0.0
 17
0.0
 27
1.0
 37
0.0
 76
0
330
216
345
0
346
0
  0
LAYOUT
  5
2AD
102
{ACAD_REACTORS
330
1A
102
}
100
AcDbPlotSettings
  1

  2
none_device
  4
ANSI_C_(22.00_x_17.00_Inches)
  6

 40
0.0
 41
0.0
 42
0.0
 43
0.0
 44
558.8
 45
431.8
 46
0.0
 47
0.0
 48
0.0
 49
0.0
140
0.0
141
0.0
142
1.0
143
1.0
 70
0
 72
0
 73
0
 74
0
  7

 75
0
147
1.0
148
0.0
149
0.0
100
AcDbLayout
  1
Layout1
 70
0
 71
1
 10
0.0
 20
0.0
 11
22.0
 21
17.0
 12
0.0
 22
0.0
 32
0.0
 14
0.0
 24
0.0
 34
0.0
 15
0.0
 25
0.0
 35
0.0
146
0.0
 13
0.0
 23
0.0
 33
0.0
 16
1.0
 26
0.0
 36
0.0
 17
0.0
 27
1.0
 37
0.0
 76
0
330
217
345
0
346
0
  0
ENDSEC
  0
EOF