999
DXF file: _cgs_temp_output.dxf
999
Pro/ENGINEER 2015110 by Parametric Technology Corporation
  0
SECTION
  2
HEADER
  9
$ACADVER
  1
AC1021
  9
$DWGCODEPAGE
  3
ANSI_1252
  9
$EXTMAX
 10
22.0
 20
17.0
 30
0.0
  9
$EXTMIN
 10
0.0
 20
0.0
 30
0.0
  9
$LIMMIN
 10
0.0
 20
0.0
  9
$LIMMAX
 10
22.0
 20
17.0
  9
$VIEWCTR
 10
11.0
 20
8.5
  9
$VIEWSIZE
 40
17.0
  9
$CLAYER
  8
0
  9
$LTSCALE
 40
1.21
  9
$CELTYPE
  6
BYLAYER
  9
$DIMSCALE
 40
1.0
  9
$DIMASZ
 40
0.1875
  9
$DIMEXO
 40
0.0625
  9
$DIMDLI
 40
0.836
  9
$DIMEXE
 40
0.125
  9
$DIMCEN
 40
0.198
  9
$DIMLFAC
 40
1.0
  9
$DIMBLK
  1
_CLOSED
  9
$DIMALT
 70
0
  9
$DIMALTF
 40
25.4
  9
$DIMTXT
 40
0.15625
  9
$DIMTOL
 70
0
  9
$DIMLIM
 70
0
  9
$DIMTFAC
 40
1.0
  9
$DIMGAP
 40
0.09
  9
$DIMDSEP
 70
46
  9
$AUNITS
 70
0
  9
$PDMODE
 70
3
  9
$PDSIZE
 40
0.3125
  9
$HANDSEED
  5
2A8
  9
$TILEMODE
 70
1
  9
$MEASUREMENT
 70
0
  9
$INSUNITS
 70
1
  0
ENDSEC
  0
SECTION
  2
CLASSES
  0
CLASS
  1
ACDBDICTIONARYWDFLT
  2
AcDbDictionaryWithDefault
  3
AutoCAD 2000
 90
0
 91
1
280
0
281
0
  0
CLASS
  1
ACDBPLACEHOLDER
  2
AcDbPlaceHolder
  3
AutoCAD 2000
 90
0
 91
1
280
0
281
0
  0
CLASS
  1
LAYOUT
  2
AcDbLayout
  3
AutoCAD 2000
 90
0
 91
0
280
0
281
0
  0
ENDSEC
  0
SECTION
  2
TABLES
  0
TABLE
  2
VPORT
  5
8
100
AcDbSymbolTable
 70
2
  0
VPORT
  5
1F4
100
AcDbSymbolTableRecord
100
AcDbViewportTableRecord
  2
*ACTIVE
 70
0
 10
0.0
 20
0.0
 11
1.0
 21
1.0
 12
11.0
 22
8.5
 13
0.0
 23
0.0
 14
1.0
 24
1.0
 15
0.0
 25
0.0
 16
0.0
 26
0.0
 36
1.0
 17
0.0
 27
0.0
 37
0.0
 40
17.0
 41
1.2941176471
 42
50.0
 43
0.0
 44
0.0
 50
0.0
 51
0.0
 71
0
 72
100
 73
1
 74
1
 75
0
 76
0
 77
0
 78
0
  0
ENDTAB
  0
TABLE
  2
LTYPE
  5
5
100
AcDbSymbolTable
 70
6
  0
LTYPE
  5
14
100
AcDbSymbolTableRecord
100
AcDbLinetypeTableRecord
  2
BYBLOCK
 70
0
  3

 72
65
 73
0
 40
0.0
  0
LTYPE
  5
15
100
AcDbSymbolTableRecord
100
AcDbLinetypeTableRecord
  2
BYLAYER
 70
0
  3

 72
65
 73
0
 40
0.0
  0
LTYPE
  5
16
100
AcDbSymbolTableRecord
100
AcDbLinetypeTableRecord
  2
CONTINUOUS
 70
64
  3
Solid line
 72
65
 73
0
 40
0.0
  0
LTYPE
  5
1F5
100
AcDbSymbolTableRecord
100
AcDbLinetypeTableRecord
  2
CENTER
 70
64
  3
____ _ ____ _ ____ _ ____ _ ____ _ ____ _ ____
 72
65
 73
4
 40
0.6
 49
0.375
 74
0
 49
-0.075
 74
0
 49
0.075
 74
0
 49
-0.075
 74
0
  0
LTYPE
  5
1F6
100
AcDbSymbolTableRecord
100
AcDbLinetypeTableRecord
  2
HIDDEN
 70
64
  3
- - - - - - - - - - - - - - - - - - - -
 72
65
 73
2
 40
0.2
 49
0.1
 74
0
 49
-0.1
 74
0
  0
LTYPE
  5
1F7
100
AcDbSymbolTableRecord
100
AcDbLinetypeTableRecord
  2
PHANTOM
 70
64
  3
_____ _ _ _____ _ _ _____ _ _ _____
 72
65
 73
6
 40
0.8
 49
0.45
 74
0
 49
-0.05
 74
0
 49
0.1
 74
0
 49
-0.05
 74
0
 49
0.1
 74
0
 49
-0.05
 74
0
  0
LTYPE
  5
1F8
100
AcDbSymbolTableRecord
100
AcDbLinetypeTableRecord
  2
DOT
 70
64
  3
. . . . . . . . . . . . . . . . . . . .
 72
65
 73
2
 40
0.2
 49
0.1
 74
0
 49
-0.1
 74
0
  0
LTYPE
  5
1F9
100
AcDbSymbolTableRecord
100
AcDbLinetypeTableRecord
  2
DASHED
 70
64
  3
- - - - - - - - - - - - - - - - - - - -
 72
65
 73
2
 40
0.2
 49
0.1
 74
0
 49
-0.1
 74
0
  0
ENDTAB
  0
TABLE
  2
LAYER
  5
2
100
AcDbSymbolTable
 70
36
  0
LAYER
  5
10
100
AcDbSymbolTableRecord
100
AcDbLayerTableRecord
  2
0
 70
0
 62
7
  6
CONTINUOUS
370
-3
390
F
  0
LAYER
  5
1FA
100
AcDbSymbolTableRecord
100
AcDbLayerTableRecord
  2
DEFAULT_1
 70
0
 62
7
  6
CENTER
370
-3
390
F
  0
LAYER
  5
1FB
100
AcDbSymbolTableRecord
100
AcDbLayerTableRecord
  2
DEFAULT_2
 70
0
 62
8
  6
HIDDEN
370
-3
390
F
  0
LAYER
  5
1FC
100
AcDbSymbolTableRecord
100
AcDbLayerTableRecord
  2
DEFAULT_3
 70
0
 62
7
  6
PHANTOM
370
-3
390
F
  0
LAYER
  5
1FD
100
AcDbSymbolTableRecord
100
AcDbLayerTableRecord
  2
01_ALL_DTM_PLN
 70
0
 62
7
  6
CONTINUOUS
370
-3
390
F
  0
LAYER
  5
1FE
100
AcDbSymbolTableRecord
100
AcDbLayerTableRecord
  2
01__ASM_ALL_DTM_PLN
 70
0
 62
7
  6
CONTINUOUS
370
-3
390
F
  0
LAYER
  5
1FF
100
AcDbSymbolTableRecord
100
AcDbLayerTableRecord
  2
01__ASM_DEF_DTM_PLN
 70
0
 62
7
  6
CONTINUOUS
370
-3
390
F
  0
LAYER
  5
200
100
AcDbSymbolTableRecord
100
AcDbLayerTableRecord
  2
01___PRT_ALL_DTM_PLN
 70
0
 62
7
  6
CONTINUOUS
370
-3
390
F
  0
LAYER
  5
201
100
AcDbSymbolTableRecord
100
AcDbLayerTableRecord
  2
01___PRT_DEF_DTM_PLN
 70
0
 62
7
  6
CONTINUOUS
370
-3
390
F
  0
LAYER
  5
202
100
AcDbSymbolTableRecord
100
AcDbLayerTableRecord
  2
02_ALL_AXES
 70
0
 62
7
  6
CONTINUOUS
370
-3
390
F
  0
LAYER
  5
203
100
AcDbSymbolTableRecord
100
AcDbLayerTableRecord
  2
02__ASM_ALL_AXES
 70
0
 62
7
  6
CONTINUOUS
370
-3
390
F
  0
LAYER
  5
204
100
AcDbSymbolTableRecord
100
AcDbLayerTableRecord
  2
02___PRT_ALL_AXES
 70
0
 62
7
  6
CONTINUOUS
370
-3
390
F
  0
LAYER
  5
205
100
AcDbSymbolTableRecord
100
AcDbLayerTableRecord
  2
03_ALL_CURVES
 70
0
 62
7
  6
CONTINUOUS
370
-3
390
F
  0
LAYER
  5
206
100
AcDbSymbolTableRecord
100
AcDbLayerTableRecord
  2
03__ASM_ALL_CURVES
 70
0
 62
7
  6
CONTINUOUS
370
-3
390
F
  0
LAYER
  5
207
100
AcDbSymbolTableRecord
100
AcDbLayerTableRecord
  2
03___PRT_ALL_CURVES
 70
0
 62
7
  6
CONTINUOUS
370
-3
390
F
  0
LAYER
  5
208
100
AcDbSymbolTableRecord
100
AcDbLayerTableRecord
  2
04_ALL_DTM_PNT
 70
0
 62
7
  6
CONTINUOUS
370
-3
390
F
  0
LAYER
  5
209
100
AcDbSymbolTableRecord
100
AcDbLayerTableRecord
  2
04__ASM_ALL_DTM_PNT
 70
0
 62
7
  6
CONTINUOUS
370
-3
390
F
  0
LAYER
  5
20A
100
AcDbSymbolTableRecord
100
AcDbLayerTableRecord
  2
04___PRT_ALL_DTM_PNT
 70
0
 62
7
  6
CONTINUOUS
370
-3
390
F
  0
LAYER
  5
20B
100
AcDbSymbolTableRecord
100
AcDbLayerTableRecord
  2
05_ALL_DTM_CSYS
 70
0
 62
7
  6
CONTINUOUS
370
-3
390
F
  0
LAYER
  5
20C
100
AcDbSymbolTableRecord
100
AcDbLayerTableRecord
  2
05__ASM_ALL_DTM_CSYS
 70
0
 62
7
  6
CONTINUOUS
370
-3
390
F
  0
LAYER
  5
20D
100
AcDbSymbolTableRecord
100
AcDbLayerTableRecord
  2
05__ASM_DEF_DTM_CSYS
 70
0
 62
7
  6
CONTINUOUS
370
-3
390
F
  0
LAYER
  5
20E
100
AcDbSymbolTableRecord
100
AcDbLayerTableRecord
  2
05___PRT_ALL_DTM_CSYS
 70
0
 62
7
  6
CONTINUOUS
370
-3
390
F
  0
LAYER
  5
20F
100
AcDbSymbolTableRecord
100
AcDbLayerTableRecord
  2
05___PRT_DEF_DTM_CSYS
 70
0
 62
7
  6
CONTINUOUS
370
-3
390
F
  0
LAYER
  5
210
100
AcDbSymbolTableRecord
100
AcDbLayerTableRecord
  2
06_ALL_SURFS
 70
0
 62
7
  6
CONTINUOUS
370
-3
390
F
  0
LAYER
  5
211
100
AcDbSymbolTableRecord
100
AcDbLayerTableRecord
  2
06__ASM_ALL_SURFS
 70
0
 62
7
  6
CONTINUOUS
370
-3
390
F
  0
LAYER
  5
212
100
AcDbSymbolTableRecord
100
AcDbLayerTableRecord
  2
06___PRT_ALL_SURFS
 70
0
 62
7
  6
CONTINUOUS
370
-3
390
F
  0
LAYER
  5
213
100
AcDbSymbolTableRecord
100
AcDbLayerTableRecord
  2
07__ASM_ALL_SKELETONS
 70
0
 62
7
  6
CONTINUOUS
370
-3
390
F
  0
ENDTAB
  0
TABLE
  2
STYLE
  5
3
100
AcDbSymbolTable
 70
1
  0
STYLE
  5
11
100
AcDbSymbolTableRecord
100
AcDbTextStyleTableRecord
  2
STANDARD
 70
0
 40
0.0
 41
0.8
 50
0.0
 71
0
 42
0.2
  3
txt
  4

  0
STYLE
  5
214
100
AcDbSymbolTableRecord
100
AcDbTextStyleTableRecord
  2
TEXTSTYLE_1
 70
0
 40
0.0
 41
0.8
 50
0.0
 71
0
 42
0.2
  3
gdt
  4

  0
ENDTAB
  0
TABLE
  2
VIEW
  5
6
100
AcDbSymbolTable
 70
0
  0
ENDTAB
  0
TABLE
  2
UCS
  5
7
100
AcDbSymbolTable
 70
0
  0
ENDTAB
  0
TABLE
  2
APPID
  5
9
100
AcDbSymbolTable
 70
1
  0
APPID
  5
215
100
AcDbSymbolTableRecord
100
AcDbRegAppTableRecord
  2
ACAD
 70
0
  0
ENDTAB
  0
TABLE
  2
BLOCK_RECORD
  5
1
100
AcDbSymbolTable
 70
0
  0
BLOCK_RECORD
  5
216
100
AcDbSymbolTableRecord
100
AcDbBlockTableRecord
  2
*Model_Space
  0
BLOCK_RECORD
  5
217
100
AcDbSymbolTableRecord
100
AcDbBlockTableRecord
  2
*Paper_Space
  0
ENDTAB
  0
TABLE
  2
DIMSTYLE
  5
A
100
AcDbSymbolTable
 70
1
100
AcDbDimStyleTable
 71
0
  0
DIMSTYLE
105
218
100
AcDbSymbolTableRecord
100
AcDbDimStyleTableRecord
  2
STANDARD
 70
0
  3

  4

 40
1.0
 41
0.1875
 42
0.0625
 43
0.38
 44
0.125
 45
0.0
 46
0.0
 47
0.0001
 48
0.0001
140
0.15625
141
0.09
142
0.0
143
25.4
144
1.0
145
0.0
146
1.0
147
0.09
 71
0.0
 72
0.0
 73
1
 74
1
 75
0
 76
0
 77
0
 78
4
170
0
171
2
172
0
173
0
174
0
175
0
176
0
177
0
178
0
270
2
271
4
272
4
273
2
274
2
275
0
280
0
281
0
282
0
283
1
284
4
285
0
286
0
287
3
288
0
340
11
278
46
  0
ENDTAB
  0
ENDSEC
  0
SECTION
  2
BLOCKS
  0
BLOCK
  5
20
100
AcDbEntity
  8
0
100
AcDbBlockBegin
  2
*Model_Space
 70
0
 10
0.0
 20
0.0
 30
0.0
  3
*Model_Space
  1

  0
ENDBLK
  5
21
100
AcDbEntity
  8
0
100
AcDbBlockEnd
  0
BLOCK
  5
1C
100
AcDbEntity
  8
0
100
AcDbBlockBegin
  2
*Paper_Space
 70
0
 10
0.0
 20
0.0
 30
0.0
  3
*Paper_Space
  1

  0
ENDBLK
  5
1D
100
AcDbEntity
  8
0
100
AcDbBlockEnd
  0
ENDSEC
  0
SECTION
  2
ENTITIES
  0
MTEXT
  5
219
100
AcDbEntity
  8
0
100
AcDbMText
 62
7
  6
CONTINUOUS
  7
STANDARD
 71
1
 72
1
 10
15.9560215477
 20
0.9479130325
 30
0.0
 11
1.0
 21
0.0
 31
0.0
 44
0.9
  1
SCALE: 1:3.000
 40
0.3
 41
3.36
  0
LINE
  5
21A
100
AcDbEntity
  8
0
100
AcDbLine
 62
7
  6
CONTINUOUS
 10
0.0
 20
0.0
 11
0.0
 21
17.0
  0
LINE
  5
21B
100
AcDbEntity
  8
0
100
AcDbLine
 62
7
  6
CONTINUOUS
 10
0.0
 20
0.0
 11
22.0
 21
0.0
  0
LINE
  5
21C
100
AcDbEntity
  8
0
100
AcDbLine
 62
7
  6
CONTINUOUS
 10
0.0
 20
17.0
 11
22.0
 21
17.0
  0
LINE
  5
21D
100
AcDbEntity
  8
0
100
AcDbLine
 62
7
  6
CONTINUOUS
 10
22.0
 20
0.0
 11
22.0
 21
17.0
  0
LINE
  5
21E
100
AcDbEntity
  8
0
100
AcDbLine
 62
7
  6
CONTINUOUS
 10
4.3587137329
 20
5.7451198968
 11
4.3587137329
 21
5.5230726527
  0
LINE
  5
21F
100
AcDbEntity
  8
0
100
AcDbLine
 62
7
  6
CONTINUOUS
 10
4.5789547173
 20
5.2951198968
 11
4.7290239295
 21
5.2951198968
  0
LINE
  5
220
100
AcDbEntity
  8
0
100
AcDbLine
 62
7
  6
CONTINUOUS
 10
5.1695058984
 20
5.2951198968
 11
5.3195751106
 21
5.2951198968
  0
LINE
  5
221
100
AcDbEntity
  8
0
100
AcDbLine
 62
7
  6
CONTINUOUS
 10
5.7600570795
 20
5.2951198968
 11
5.9101262917
 21
5.2951198968
  0
LINE
  5
222
100
AcDbEntity
  8
0
100
AcDbLine
 62
7
  6
CONTINUOUS
 10
6.3506082606
 20
5.2951198968
 11
6.5006774728
 21
5.2951198968
  0
LINE
  5
223
100
AcDbEntity
  8
0
100
AcDbLine
 62
7
  6
CONTINUOUS
 10
6.9411594417
 20
5.2951198968
 11
7.0912286539
 21
5.2951198968
  0
LINE
  5
224
100
AcDbEntity
  8
0
100
AcDbLine
 62
7
  6
CONTINUOUS
 10
7.5317106228
 20
5.2951198968
 11
7.681779835
 21
5.2951198968
  0
LINE
  5
225
100
AcDbEntity
  8
0
100
AcDbLine
 62
7
  6
CONTINUOUS
 10
4.3587137329
 20
5.5230726527
 11
4.422792916
 21
5.5230726527
  0
LINE
  5
226
100
AcDbEntity
  8
0
100
AcDbLine
 62
7
  6
CONTINUOUS
 10
4.8851857309
 20
5.5230726527
 11
5.0133440971
 21
5.5230726527
  0
LINE
  5
227
100
AcDbEntity
  8
0
100
AcDbLine
 62
7
  6
CONTINUOUS
 10
5.475736912
 20
5.5230726527
 11
5.6038952782
 21
5.5230726527
  0
LINE
  5
228
100
AcDbEntity
  8
0
100
AcDbLine
 62
7
  6
CONTINUOUS
 10
6.0662880931
 20
5.5230726527
 11
6.1944464593
 21
5.5230726527
  0
LINE
  5
229
100
AcDbEntity
  8
0
100
AcDbLine
 62
7
  6
CONTINUOUS
 10
6.6568392742
 20
5.5230726527
 11
6.7849976404
 21
5.5230726527
  0
LINE
  5
22A
100
AcDbEntity
  8
0
100
AcDbLine
 62
7
  6
CONTINUOUS
 10
7.2473904553
 20
5.5230726527
 11
7.3755488215
 21
5.5230726527
  0
LINE
  5
22B
100
AcDbEntity
  8
0
100
AcDbLine
 62
7
  6
CONTINUOUS
 10
7.8379416364
 20
5.5230726527
 11
7.9020208195
 21
5.5230726527
  0
LINE
  5
22C
100
AcDbEntity
  8
0
100
AcDbLine
 62
7
  6
CONTINUOUS
 10
7.9020208195
 20
5.7451198968
 11
4.3587137329
 21
5.7451198968
  0
LINE
  5
22D
100
AcDbEntity
  8
0
100
AcDbLine
 62
7
  6
CONTINUOUS
 10
7.9020208195
 20
5.5230726527
 11
7.9020208195
 21
5.7451198968
  0
LINE
  5
22E
100
AcDbEntity
  8
0
100
AcDbLine
 62
7
  6
CONTINUOUS
 10
4.2992185406
 20
14.0764257341
 11
4.2992185406
 21
11.1236698286
  0
LINE
  5
22F
100
AcDbEntity
  8
0
100
AcDbLine
 62
7
  6
CONTINUOUS
 10
7.8425256272
 20
11.1236698286
 11
4.2992185406
 21
11.1236698286
  0
LINE
  5
230
100
AcDbEntity
  8
0
100
AcDbLine
 62
7
  6
CONTINUOUS
 10
4.2992185406
 20
14.0764257341
 11
7.8425256272
 21
14.0764257341
  0
LINE
  5
231
100
AcDbEntity
  8
0
100
AcDbLine
 62
7
  6
CONTINUOUS
 10
7.8425256272
 20
14.0764257341
 11
7.8425256272
 21
11.1236698286
  0
LINE
  5
232
100
AcDbEntity
  8
0
100
AcDbLine
 62
7
  6
CONTINUOUS
 10
14.0839773042
 20
5.2356247044
 11
14.0839773042
 21
5.6856247044
  0
LINE
  5
233
100
AcDbEntity
  8
0
100
AcDbLine
 62
7
  6
CONTINUOUS
 10
14.0839773042
 20
5.2356247044
 11
17.0367332097
 21
5.2356247044
  0
LINE
  5
234
100
AcDbEntity
  8
0
100
AcDbLine
 62
7
  6
CONTINUOUS
 10
17.0367332097
 20
5.4635774604
 11
14.0839773042
 21
5.4635774604
  0
LINE
  5
235
100
AcDbEntity
  8
0
100
AcDbLine
 62
7
  6
CONTINUOUS
 10
17.0367332097
 20
5.6856247044
 11
14.0839773042
 21
5.6856247044
  0
LINE
  5
236
100
AcDbEntity
  8
0
100
AcDbLine
 62
7
  6
CONTINUOUS
 10
17.0367332097
 20
5.2356247044
 11
17.0367332097
 21
5.6856247044
  0
LINE
  5
237
100
AcDbEntity
  8
0
100
AcDbLine
 62
7
  6
CONTINUOUS
 10
13.448063259
 20
11.4941806566
 11
13.5157969648
 21
11.3561538762
  0
LINE
  5
238
100
AcDbEntity
  8
0
100
AcDbLine
 62
7
  6
CONTINUOUS
 10
14.1628260249
 20
13.8071538149
 11
13.448063259
 21
11.4941806566
  0
LINE
  5
239
100
AcDbEntity
  8
0
100
AcDbLine
 62
7
  6
CONTINUOUS
 10
13.788187479
 20
11.2144561709
 11
13.9264103768
 21
11.2144561709
  0
LINE
  5
23A
100
AcDbEntity
  8
0
100
AcDbLine
 62
7
  6
CONTINUOUS
 10
14.3321211369
 20
11.2144561709
 11
14.4703440346
 21
11.2144561709
  0
LINE
  5
23B
100
AcDbEntity
  8
0
100
AcDbLine
 62
7
  6
CONTINUOUS
 10
14.8760547947
 20
11.2144561709
 11
15.0142776925
 21
11.2144561709
  0
LINE
  5
23C
100
AcDbEntity
  8
0
100
AcDbLine
 62
7
  6
CONTINUOUS
 10
15.4199884526
 20
11.2144561709
 11
15.5582113504
 21
11.2144561709
  0
LINE
  5
23D
100
AcDbEntity
  8
0
100
AcDbLine
 62
7
  6
CONTINUOUS
 10
15.9639221105
 20
11.2144561709
 11
16.1021450083
 21
11.2144561709
  0
LINE
  5
23E
100
AcDbEntity
  8
0
100
AcDbLine
 62
7
  6
CONTINUOUS
 10
16.5078557684
 20
11.2144561709
 11
16.6460786661
 21
11.2144561709
  0
LINE
  5
23F
100
AcDbEntity
  8
0
100
AcDbLine
 62
7
  6
CONTINUOUS
 10
13.9744226992
 20
11.2385472615
 11
13.9748613177
 21
11.2401719666
  0
LINE
  5
240
100
AcDbEntity
  8
0
100
AcDbLine
 62
7
  6
CONTINUOUS
 10
13.5157969648
 20
11.3561538762
 11
13.5748178009
 21
11.3561538762
  0
LINE
  5
241
100
AcDbEntity
  8
0
100
AcDbLine
 62
7
  6
CONTINUOUS
 10
14.0007097866
 20
11.3561538762
 11
14.1187514587
 21
11.3561538762
  0
LINE
  5
242
100
AcDbEntity
  8
0
100
AcDbLine
 62
7
  6
CONTINUOUS
 10
14.5446434444
 20
11.3561538762
 11
14.6626851166
 21
11.3561538762
  0
LINE
  5
243
100
AcDbEntity
  8
0
100
AcDbLine
 62
7
  6
CONTINUOUS
 10
15.0885771023
 20
11.3561538762
 11
15.2066187745
 21
11.3561538762
  0
LINE
  5
244
100
AcDbEntity
  8
0
100
AcDbLine
 62
7
  6
CONTINUOUS
 10
15.6325107602
 20
11.3561538762
 11
15.7505524324
 21
11.3561538762
  0
LINE
  5
245
100
AcDbEntity
  8
0
100
AcDbLine
 62
7
  6
CONTINUOUS
 10
16.1764444181
 20
11.3561538762
 11
16.2944860902
 21
11.3561538762
  0
LINE
  5
246
100
AcDbEntity
  8
0
100
AcDbLine
 62
7
  6
CONTINUOUS
 10
16.7203780759
 20
11.3561538762
 11
16.779398912
 21
11.3561538762
  0
LINE
  5
247
100
AcDbEntity
  8
0
100
AcDbLine
 62
7
  6
CONTINUOUS
 10
13.9744206359
 20
11.238547898
 11
14.010763632
 21
11.3561538762
  0
LINE
  5
248
100
AcDbEntity
  8
0
100
AcDbLine
 62
7
  6
CONTINUOUS
 10
16.7116652062
 20
11.4941806566
 11
13.448063259
 21
11.4941806566
  0
LINE
  5
249
100
AcDbEntity
  8
0
100
AcDbLine
 62
7
  6
CONTINUOUS
 10
14.5183563571
 20
11.2385472615
 11
14.5187949755
 21
11.2401719666
  0
LINE
  5
24A
100
AcDbEntity
  8
0
100
AcDbLine
 62
7
  6
CONTINUOUS
 10
14.5183542938
 20
11.238547898
 11
14.5546972898
 21
11.3561538762
  0
LINE
  5
24B
100
AcDbEntity
  8
0
100
AcDbLine
 62
7
  6
CONTINUOUS
 10
15.0622900149
 20
11.2385472615
 11
15.0627286334
 21
11.2401719666
  0
LINE
  5
24C
100
AcDbEntity
  8
0
100
AcDbLine
 62
7
  6
CONTINUOUS
 10
15.0622879517
 20
11.238547898
 11
15.0986309477
 21
11.3561538762
  0
LINE
  5
24D
100
AcDbEntity
  8
0
100
AcDbLine
 62
7
  6
CONTINUOUS
 10
15.6062236728
 20
11.2385472615
 11
15.6066622913
 21
11.2401719666
  0
LINE
  5
24E
100
AcDbEntity
  8
0
100
AcDbLine
 62
7
  6
CONTINUOUS
 10
15.6062216096
 20
11.238547898
 11
15.6425646056
 21
11.3561538762
  0
LINE
  5
24F
100
AcDbEntity
  8
0
100
AcDbLine
 62
7
  6
CONTINUOUS
 10
16.779398912
 20
11.3561538762
 11
16.7116652062
 21
11.4941806566
  0
LINE
  5
250
100
AcDbEntity
  8
0
100
AcDbLine
 62
7
  6
CONTINUOUS
 10
16.1501573307
 20
11.2385472615
 11
16.1505959492
 21
11.2401719666
  0
LINE
  5
251
100
AcDbEntity
  8
0
100
AcDbLine
 62
7
  6
CONTINUOUS
 10
16.1501552674
 20
11.238547898
 11
16.1864982635
 21
11.3561538762
  0
LINE
  5
252
100
AcDbEntity
  8
0
100
AcDbLine
 62
7
  6
CONTINUOUS
 10
14.1628260249
 20
13.8071538149
 11
17.4264279722
 21
13.8071538149
  0
LINE
  5
253
100
AcDbEntity
  8
0
100
AcDbLine
 62
7
  6
CONTINUOUS
 10
16.6940909886
 20
11.2385472615
 11
16.694529607
 21
11.2401719666
  0
LINE
  5
254
100
AcDbEntity
  8
0
100
AcDbLine
 62
7
  6
CONTINUOUS
 10
17.4264279722
 20
13.8071538149
 11
16.7116652062
 21
11.4941806566
  0
LINE
  5
255
100
AcDbEntity
  8
0
100
AcDbLine
 62
7
  6
CONTINUOUS
 10
16.6940889253
 20
11.238547898
 11
16.7304319213
 21
11.3561538762
  0
LINE
  5
256
100
AcDbEntity
  8
0
100
AcDbLine
 62
7
  6
CONTINUOUS
 10
17.494161678
 20
13.6691270346
 11
16.779398912
 21
11.3561538762
  0
LINE
  5
257
100
AcDbEntity
  8
0
100
AcDbLine
 62
7
  6
CONTINUOUS
 10
17.494161678
 20
13.6691270346
 11
17.4264279722
 21
13.8071538149
  0
ARC
  5
258
100
AcDbEntity
  8
0
100
AcDbCircle
 62
7
  6
CONTINUOUS
 10
4.4140779061
 20
5.5230726527
 40
0.4244586614
100
AcDbArc
 50
333.9229805875
 51
354.0364298817
  0
ARC
  5
259
100
AcDbEntity
  8
0
100
AcDbCircle
 62
7
  6
CONTINUOUS
 10
5.4844519218
 20
5.5230726527
 40
0.4244586614
100
AcDbArc
 50
185.9635701183
 51
206.0770194125
  0
ARC
  5
25A
100
AcDbEntity
  8
0
100
AcDbCircle
 62
7
  6
CONTINUOUS
 10
5.0046290872
 20
5.5230726527
 40
0.4244586614
100
AcDbArc
 50
333.9229805875
 51
354.0364298817
  0
ARC
  5
25B
100
AcDbEntity
  8
0
100
AcDbCircle
 62
7
  6
CONTINUOUS
 10
6.0750031029
 20
5.5230726527
 40
0.4244586614
100
AcDbArc
 50
185.9635701183
 51
206.0770194125
  0
ARC
  5
25C
100
AcDbEntity
  8
0
100
AcDbCircle
 62
7
  6
CONTINUOUS
 10
5.5951802683
 20
5.5230726527
 40
0.4244586614
100
AcDbArc
 50
333.9229805875
 51
354.0364298817
  0
ARC
  5
25D
100
AcDbEntity
  8
0
100
AcDbCircle
 62
7
  6
CONTINUOUS
 10
6.665554284
 20
5.5230726527
 40
0.4244586614
100
AcDbArc
 50
185.9635701183
 51
206.0770194125
  0
ARC
  5
25E
100
AcDbEntity
  8
0
100
AcDbCircle
 62
7
  6
CONTINUOUS
 10
4.8939007407
 20
5.5230726527
 40
0.4244586614
100
AcDbArc
 50
185.9635701183
 51
206.0770194125
  0
ARC
  5
25F
100
AcDbEntity
  8
0
100
AcDbCircle
 62
7
  6
CONTINUOUS
 10
7.3668338116
 20
5.5230726527
 40
0.4244586614
100
AcDbArc
 50
333.9229805875
 51
354.0364298817
  0
ARC
  5
260
100
AcDbEntity
  8
0
100
AcDbCircle
 62
7
  6
CONTINUOUS
 10
7.8466566462
 20
5.5230726527
 40
0.4244586614
100
AcDbArc
 50
185.9635701183
 51
206.0770194125
  0
ARC
  5
261
100
AcDbEntity
  8
0
100
AcDbCircle
 62
7
  6
CONTINUOUS
 10
6.7762826305
 20
5.5230726527
 40
0.4244586614
100
AcDbArc
 50
333.9229805875
 51
354.0364298817
  0
ARC
  5
262
100
AcDbEntity
  8
0
100
AcDbCircle
 62
7
  6
CONTINUOUS
 10
7.2561054651
 20
5.5230726527
 40
0.4244586614
100
AcDbArc
 50
185.9635701183
 51
206.0770194125
  0
ARC
  5
263
100
AcDbEntity
  8
0
100
AcDbCircle
 62
7
  6
CONTINUOUS
 10
6.1857314494
 20
5.5230726527
 40
0.4244586614
100
AcDbArc
 50
333.9229805875
 51
354.0364298817
  0
ARC
  5
264
100
AcDbEntity
  8
0
100
AcDbCircle
 62
7
  6
CONTINUOUS
 10
4.5789547173
 20
5.3689387944
 40
0.0738188976
100
AcDbArc
 50
206.0770194125
 51
270.0
  0
ARC
  5
265
100
AcDbEntity
  8
0
100
AcDbCircle
 62
7
  6
CONTINUOUS
 10
4.7290239295
 20
5.3689387944
 40
0.0738188976
100
AcDbArc
 50
270.0
 51
333.9229805875
  0
ARC
  5
266
100
AcDbEntity
  8
0
100
AcDbCircle
 62
7
  6
CONTINUOUS
 10
5.1695058984
 20
5.3689387944
 40
0.0738188976
100
AcDbArc
 50
206.0770194125
 51
270.0
  0
ARC
  5
267
100
AcDbEntity
  8
0
100
AcDbCircle
 62
7
  6
CONTINUOUS
 10
5.3195751106
 20
5.3689387944
 40
0.0738188976
100
AcDbArc
 50
270.0
 51
333.9229805875
  0
ARC
  5
268
100
AcDbEntity
  8
0
100
AcDbCircle
 62
7
  6
CONTINUOUS
 10
5.7600570795
 20
5.3689387944
 40
0.0738188976
100
AcDbArc
 50
206.0770194125
 51
270.0
  0
ARC
  5
269
100
AcDbEntity
  8
0
100
AcDbCircle
 62
7
  6
CONTINUOUS
 10
5.9101262917
 20
5.3689387944
 40
0.0738188976
100
AcDbArc
 50
270.0
 51
333.9229805875
  0
ARC
  5
26A
100
AcDbEntity
  8
0
100
AcDbCircle
 62
7
  6
CONTINUOUS
 10
6.3506082606
 20
5.3689387944
 40
0.0738188976
100
AcDbArc
 50
206.0770194125
 51
270.0
  0
ARC
  5
26B
100
AcDbEntity
  8
0
100
AcDbCircle
 62
7
  6
CONTINUOUS
 10
7.681779835
 20
5.3689387944
 40
0.0738188976
100
AcDbArc
 50
270.0
 51
333.9229805875
  0
ARC
  5
26C
100
AcDbEntity
  8
0
100
AcDbCircle
 62
7
  6
CONTINUOUS
 10
7.5317106228
 20
5.3689387944
 40
0.0738188976
100
AcDbArc
 50
206.0770194125
 51
270.0
  0
ARC
  5
26D
100
AcDbEntity
  8
0
100
AcDbCircle
 62
7
  6
CONTINUOUS
 10
7.0912286539
 20
5.3689387944
 40
0.0738188976
100
AcDbArc
 50
270.0
 51
333.9229805875
  0
ARC
  5
26E
100
AcDbEntity
  8
0
100
AcDbCircle
 62
7
  6
CONTINUOUS
 10
6.9411594417
 20
5.3689387944
 40
0.0738188976
100
AcDbArc
 50
206.0770194125
 51
270.0
  0
ARC
  5
26F
100
AcDbEntity
  8
0
100
AcDbCircle
 62
7
  6
CONTINUOUS
 10
6.5006774728
 20
5.3689387944
 40
0.0738188976
100
AcDbArc
 50
270.0
 51
333.9229805875
  0
ARC
  5
270
100
AcDbEntity
  8
0
100
AcDbCircle
 62
7
  6
CONTINUOUS
 10
4.422792916
 20
5.4738600542
 40
0.0492125984
100
AcDbArc
 50
5.9635701183
 51
90.0
  0
ARC
  5
271
100
AcDbEntity
  8
0
100
AcDbCircle
 62
7
  6
CONTINUOUS
 10
4.8851857309
 20
5.4738600542
 40
0.0492125984
100
AcDbArc
 50
90.0
 51
174.0364298817
  0
ARC
  5
272
100
AcDbEntity
  8
0
100
AcDbCircle
 62
7
  6
CONTINUOUS
 10
5.0133440971
 20
5.4738600542
 40
0.0492125984
100
AcDbArc
 50
5.9635701183
 51
90.0
  0
ARC
  5
273
100
AcDbEntity
  8
0
100
AcDbCircle
 62
7
  6
CONTINUOUS
 10
5.475736912
 20
5.4738600542
 40
0.0492125984
100
AcDbArc
 50
90.0
 51
174.0364298817
  0
ARC
  5
274
100
AcDbEntity
  8
0
100
AcDbCircle
 62
7
  6
CONTINUOUS
 10
5.6038952782
 20
5.4738600542
 40
0.0492125984
100
AcDbArc
 50
5.9635701183
 51
90.0
  0
ARC
  5
275
100
AcDbEntity
  8
0
100
AcDbCircle
 62
7
  6
CONTINUOUS
 10
6.0662880931
 20
5.4738600542
 40
0.0492125984
100
AcDbArc
 50
90.0
 51
174.0364298817
  0
ARC
  5
276
100
AcDbEntity
  8
0
100
AcDbCircle
 62
7
  6
CONTINUOUS
 10
6.1944464593
 20
5.4738600542
 40
0.0492125984
100
AcDbArc
 50
5.9635701183
 51
90.0
  0
ARC
  5
277
100
AcDbEntity
  8
0
100
AcDbCircle
 62
7
  6
CONTINUOUS
 10
6.6568392742
 20
5.4738600542
 40
0.0492125984
100
AcDbArc
 50
90.0
 51
174.0364298817
  0
ARC
  5
278
100
AcDbEntity
  8
0
100
AcDbCircle
 62
7
  6
CONTINUOUS
 10
6.7849976404
 20
5.4738600542
 40
0.0492125984
100
AcDbArc
 50
5.9635701183
 51
90.0
  0
ARC
  5
279
100
AcDbEntity
  8
0
100
AcDbCircle
 62
7
  6
CONTINUOUS
 10
7.2473904553
 20
5.4738600542
 40
0.0492125984
100
AcDbArc
 50
90.0
 51
174.0364298817
  0
ARC
  5
27A
100
AcDbEntity
  8
0
100
AcDbCircle
 62
7
  6
CONTINUOUS
 10
7.3755488215
 20
5.4738600542
 40
0.0492125984
100
AcDbArc
 50
5.9635701183
 51
90.0
  0
ARC
  5
27B
100
AcDbEntity
  8
0
100
AcDbCircle
 62
7
  6
CONTINUOUS
 10
7.8379416364
 20
5.4738600542
 40
0.0492125984
100
AcDbArc
 50
90.0
 51
174.0364298817
  0
SPLINE
  5
27C
100
AcDbEntity
  8
0
100
AcDbSpline
 62
7
  6
CONTINUOUS
 70
0
 71
3
 72
12
 73
8
 74
0
 42
0.0000001
 43
0.0000001
 44
0.0000000001
 40
0.0
 40
0.0
 40
0.0
 40
0.0
 40
0.09984932
 40
0.2032497525
 40
0.4307750823
 40
0.6966170333
 40
1.0
 40
1.0
 40
1.0
 40
1.0
 10
13.9687028495
 20
11.3400927364
 30
0.0
 10
13.9690773466
 20
11.3413040144
 30
0.0
 10
13.9701379339
 20
11.3436875664
 30
0.0
 10
13.9734679372
 20
11.3480785499
 30
0.0
 10
13.9798539378
 20
11.3524909371
 30
0.0
 10
13.9896008012
 20
11.3555380426
 30
0.0
 10
13.9968575424
 20
11.3561538762
 30
0.0
 10
14.0007097866
 20
11.3561538762
 30
0.0
  0
SPLINE
  5
27D
100
AcDbEntity
  8
0
100
AcDbSpline
 62
7
  6
CONTINUOUS
 70
0
 71
3
 72
12
 73
8
 74
0
 42
0.0000001
 43
0.0000001
 44
0.0000000001
 40
0.0
 40
0.0
 40
0.0
 40
0.0
 40
0.09984932
 40
0.2032497525
 40
0.4307750823
 40
0.6966170333
 40
1.0
 40
1.0
 40
1.0
 40
1.0
 10
14.5126365074
 20
11.3400927364
 30
0.0
 10
14.5130110045
 20
11.3413040144
 30
0.0
 10
14.5140715917
 20
11.3436875664
 30
0.0
 10
14.517401595
 20
11.3480785499
 30
0.0
 10
14.5237875957
 20
11.3524909371
 30
0.0
 10
14.5335344591
 20
11.3555380426
 30
0.0
 10
14.5407912003
 20
11.3561538762
 30
0.0
 10
14.5446434444
 20
11.3561538762
 30
0.0
  0
SPLINE
  5
27E
100
AcDbEntity
  8
0
100
AcDbSpline
 62
7
  6
CONTINUOUS
 70
0
 71
3
 72
12
 73
8
 74
0
 42
0.0000001
 43
0.0000001
 44
0.0000000001
 40
0.0
 40
0.0
 40
0.0
 40
0.0
 40
0.09984932
 40
0.2032497525
 40
0.4307750823
 40
0.6966170333
 40
1.0
 40
1.0
 40
1.0
 40
1.0
 10
15.0565701653
 20
11.3400927364
 30
0.0
 10
15.0569446624
 20
11.3413040144
 30
0.0
 10
15.0580052496
 20
11.3436875664
 30
0.0
 10
15.0613352529
 20
11.3480785499
 30
0.0
 10
15.0677212536
 20
11.3524909371
 30
0.0
 10
15.0774681169
 20
11.3555380426
 30
0.0
 10
15.0847248582
 20
11.3561538762
 30
0.0
 10
15.0885771023
 20
11.3561538762
 30
0.0
  0
SPLINE
  5
27F
100
AcDbEntity
  8
0
100
AcDbSpline
 62
7
  6
CONTINUOUS
 70
0
 71
3
 72
12
 73
8
 74
0
 42
0.0000001
 43
0.0000001
 44
0.0000000001
 40
0.0
 40
0.0
 40
0.0
 40
0.0
 40
0.09984932
 40
0.2032497525
 40
0.4307750823
 40
0.6966170333
 40
1.0
 40
1.0
 40
1.0
 40
1.0
 10
15.6005038232
 20
11.3400927364
 30
0.0
 10
15.6008783202
 20
11.3413040144
 30
0.0
 10
15.6019389075
 20
11.3436875664
 30
0.0
 10
15.6052689108
 20
11.3480785499
 30
0.0
 10
15.6116549114
 20
11.3524909371
 30
0.0
 10
15.6214017748
 20
11.3555380426
 30
0.0
 10
15.628658516
 20
11.3561538762
 30
0.0
 10
15.6325107602
 20
11.3561538762
 30
0.0
  0
SPLINE
  5
280
100
AcDbEntity
  8
0
100
AcDbSpline
 62
7
  6
CONTINUOUS
 70
0
 71
3
 72
12
 73
8
 74
0
 42
0.0000001
 43
0.0000001
 44
0.0000000001
 40
0.0
 40
0.0
 40
0.0
 40
0.0
 40
0.09984932
 40
0.2032497525
 40
0.4307750823
 40
0.6966170333
 40
1.0
 40
1.0
 40
1.0
 40
1.0
 10
16.144437481
 20
11.3400927364
 30
0.0
 10
16.1448119781
 20
11.3413040144
 30
0.0
 10
16.1458725654
 20
11.3436875664
 30
0.0
 10
16.1492025687
 20
11.3480785499
 30
0.0
 10
16.1555885693
 20
11.3524909371
 30
0.0
 10
16.1653354327
 20
11.3555380426
 30
0.0
 10
16.1725921739
 20
11.3561538762
 30
0.0
 10
16.1764444181
 20
11.3561538762
 30
0.0
  0
SPLINE
  5
281
100
AcDbEntity
  8
0
100
AcDbSpline
 62
7
  6
CONTINUOUS
 70
0
 71
3
 72
12
 73
8
 74
0
 42
0.0000001
 43
0.0000001
 44
0.0000000001
 40
0.0
 40
0.0
 40
0.0
 40
0.0
 40
0.09984932
 40
0.2032497525
 40
0.4307750823
 40
0.6966170333
 40
1.0
 40
1.0
 40
1.0
 40
1.0
 10
16.6883711389
 20
11.3400927364
 30
0.0
 10
16.688745636
 20
11.3413040144
 30
0.0
 10
16.6898062233
 20
11.3436875664
 30
0.0
 10
16.6931362265
 20
11.3480785499
 30
0.0
 10
16.6995222272
 20
11.3524909371
 30
0.0
 10
16.7092690906
 20
11.3555380426
 30
0.0
 10
16.7165258318
 20
11.3561538762
 30
0.0
 10
16.7203780759
 20
11.3561538762
 30
0.0
  0
SPLINE
  5
282
100
AcDbEntity
  8
0
100
AcDbSpline
 62
7
  6
CONTINUOUS
 70
0
 71
3
 72
9
 73
5
 74
0
 42
0.0000001
 43
0.0000001
 44
0.0000000001
 40
0.0
 40
0.0
 40
0.0
 40
0.0
 40
0.4776174438
 40
1.0
 40
1.0
 40
1.0
 40
1.0
 10
13.6333525233
 20
11.3287411245
 30
0.0
 10
13.6437546551
 20
11.3126266012
 30
0.0
 10
13.6688127529
 20
11.2809623106
 30
0.0
 10
13.6982954557
 20
11.2534973279
 30
0.0
 10
13.7144975789
 20
11.2401719666
 30
0.0
  0
SPLINE
  5
283
100
AcDbEntity
  8
0
100
AcDbSpline
 62
7
  6
CONTINUOUS
 70
0
 71
3
 72
12
 73
8
 74
0
 42
0.0000001
 43
0.0000001
 44
0.0000000001
 40
0.0
 40
0.0
 40
0.0
 40
0.0
 40
0.3034091078
 40
0.5691630883
 40
0.7966910663
 40
0.9001320336
 40
1.0
 40
1.0
 40
1.0
 40
1.0
 10
16.6460786661
 20
11.2144561709
 30
0.0
 10
16.6518575399
 20
11.2144561709
 30
0.0
 10
16.6627422052
 20
11.2153782048
 30
0.0
 10
16.6773589487
 20
11.2199525128
 30
0.0
 10
16.6869421383
 20
11.2265647444
 30
0.0
 10
16.6919344843
 20
11.2331549954
 30
0.0
 10
16.6935264455
 20
11.2367308343
 30
0.0
 10
16.6940886116
 20
11.2385479963
 30
0.0
  0
SPLINE
  5
284
100
AcDbEntity
  8
0
100
AcDbSpline
 62
7
  6
CONTINUOUS
 70
0
 71
3
 72
11
 73
7
 74
0
 42
0.0000001
 43
0.0000001
 44
0.0000000001
 40
0.0
 40
0.0
 40
0.0
 40
0.0
 40
0.2392010626
 40
0.4941909191
 40
0.7522039309
 40
1.0
 40
1.0
 40
1.0
 40
1.0
 10
16.4341658682
 20
11.2401719666
 30
0.0
 10
16.4390542671
 20
11.2361515256
 30
0.0
 10
16.4500525029
 20
11.2289122053
 30
0.0
 10
16.4683518514
 20
11.2208839154
 30
0.0
 10
16.4878971205
 20
11.215744927
 30
0.0
 10
16.5012990143
 20
11.2144561709
 30
0.0
 10
16.5078557684
 20
11.2144561709
 30
0.0
  0
SPLINE
  5
285
100
AcDbEntity
  8
0
100
AcDbSpline
 62
7
  6
CONTINUOUS
 70
0
 71
3
 72
9
 73
5
 74
0
 42
0.0000001
 43
0.0000001
 44
0.0000000001
 40
0.0
 40
0.0
 40
0.0
 40
0.0
 40
0.4776179525
 40
1.0
 40
1.0
 40
1.0
 40
1.0
 10
16.3530208127
 20
11.3287411245
 30
0.0
 10
16.3634229537
 20
11.312626587
 30
0.0
 10
16.3884812723
 20
11.28096249
 30
0.0
 10
16.4179637638
 20
11.2534973124
 30
0.0
 10
16.4341658682
 20
11.2401719666
 30
0.0
  0
SPLINE
  5
286
100
AcDbEntity
  8
0
100
AcDbSpline
 62
7
  6
CONTINUOUS
 70
0
 71
3
 72
12
 73
8
 74
0
 42
0.0000001
 43
0.0000001
 44
0.0000000001
 40
0.0
 40
0.0
 40
0.0
 40
0.0
 40
0.3034091078
 40
0.5691630883
 40
0.7966910663
 40
0.9001320336
 40
1.0
 40
1.0
 40
1.0
 40
1.0
 10
16.1021450083
 20
11.2144561709
 30
0.0
 10
16.107923882
 20
11.2144561709
 30
0.0
 10
16.1188085473
 20
11.2153782048
 30
0.0
 10
16.1334252908
 20
11.2199525128
 30
0.0
 10
16.1430084804
 20
11.2265647444
 30
0.0
 10
16.1480008264
 20
11.2331549954
 30
0.0
 10
16.1495927876
 20
11.2367308343
 30
0.0
 10
16.1501549537
 20
11.2385479963
 30
0.0
  0
SPLINE
  5
287
100
AcDbEntity
  8
0
100
AcDbSpline
 62
7
  6
CONTINUOUS
 70
0
 71
3
 72
11
 73
7
 74
0
 42
0.0000001
 43
0.0000001
 44
0.0000000001
 40
0.0
 40
0.0
 40
0.0
 40
0.0
 40
0.2392010626
 40
0.4941909191
 40
0.7522039309
 40
1.0
 40
1.0
 40
1.0
 40
1.0
 10
15.8902322104
 20
11.2401719666
 30
0.0
 10
15.8951206092
 20
11.2361515256
 30
0.0
 10
15.9061188451
 20
11.2289122053
 30
0.0
 10
15.9244181936
 20
11.2208839154
 30
0.0
 10
15.9439634626
 20
11.215744927
 30
0.0
 10
15.9573653565
 20
11.2144561709
 30
0.0
 10
15.9639221105
 20
11.2144561709
 30
0.0
  0
SPLINE
  5
288
100
AcDbEntity
  8
0
100
AcDbSpline
 62
7
  6
CONTINUOUS
 70
0
 71
3
 72
9
 73
5
 74
0
 42
0.0000001
 43
0.0000001
 44
0.0000000001
 40
0.0
 40
0.0
 40
0.0
 40
0.0
 40
0.4776174438
 40
1.0
 40
1.0
 40
1.0
 40
1.0
 10
15.8090871548
 20
11.3287411245
 30
0.0
 10
15.8194892866
 20
11.3126266012
 30
0.0
 10
15.8445473844
 20
11.2809623106
 30
0.0
 10
15.8740300872
 20
11.2534973279
 30
0.0
 10
15.8902322104
 20
11.2401719666
 30
0.0
  0
SPLINE
  5
289
100
AcDbEntity
  8
0
100
AcDbSpline
 62
7
  6
CONTINUOUS
 70
0
 71
3
 72
12
 73
8
 74
0
 42
0.0000001
 43
0.0000001
 44
0.0000000001
 40
0.0
 40
0.0
 40
0.0
 40
0.0
 40
0.3034091078
 40
0.5691630883
 40
0.7966910663
 40
0.9001320336
 40
1.0
 40
1.0
 40
1.0
 40
1.0
 10
15.5582113504
 20
11.2144561709
 30
0.0
 10
15.5639902242
 20
11.2144561709
 30
0.0
 10
15.5748748895
 20
11.2153782048
 30
0.0
 10
15.5894916329
 20
11.2199525128
 30
0.0
 10
15.5990748225
 20
11.2265647444
 30
0.0
 10
15.6040671685
 20
11.2331549954
 30
0.0
 10
15.6056591297
 20
11.2367308343
 30
0.0
 10
15.6062212959
 20
11.2385479963
 30
0.0
  0
SPLINE
  5
28A
100
AcDbEntity
  8
0
100
AcDbSpline
 62
7
  6
CONTINUOUS
 70
0
 71
3
 72
11
 73
7
 74
0
 42
0.0000001
 43
0.0000001
 44
0.0000000001
 40
0.0
 40
0.0
 40
0.0
 40
0.0
 40
0.2392010626
 40
0.4941909191
 40
0.7522039309
 40
1.0
 40
1.0
 40
1.0
 40
1.0
 10
15.3462985525
 20
11.2401719666
 30
0.0
 10
15.3511869513
 20
11.2361515256
 30
0.0
 10
15.3621851872
 20
11.2289122053
 30
0.0
 10
15.3804845357
 20
11.2208839154
 30
0.0
 10
15.4000298047
 20
11.215744927
 30
0.0
 10
15.4134316986
 20
11.2144561709
 30
0.0
 10
15.4199884526
 20
11.2144561709
 30
0.0
  0
SPLINE
  5
28B
100
AcDbEntity
  8
0
100
AcDbSpline
 62
7
  6
CONTINUOUS
 70
0
 71
3
 72
9
 73
5
 74
0
 42
0.0000001
 43
0.0000001
 44
0.0000000001
 40
0.0
 40
0.0
 40
0.0
 40
0.0
 40
0.4776174438
 40
1.0
 40
1.0
 40
1.0
 40
1.0
 10
15.265153497
 20
11.3287411245
 30
0.0
 10
15.2755556288
 20
11.3126266012
 30
0.0
 10
15.3006137266
 20
11.2809623106
 30
0.0
 10
15.3300964293
 20
11.2534973279
 30
0.0
 10
15.3462985525
 20
11.2401719666
 30
0.0
  0
SPLINE
  5
28C
100
AcDbEntity
  8
0
100
AcDbSpline
 62
7
  6
CONTINUOUS
 70
0
 71
3
 72
12
 73
8
 74
0
 42
0.0000001
 43
0.0000001
 44
0.0000000001
 40
0.0
 40
0.0
 40
0.0
 40
0.0
 40
0.3034091078
 40
0.5691630883
 40
0.7966910663
 40
0.9001320336
 40
1.0
 40
1.0
 40
1.0
 40
1.0
 10
15.0142776925
 20
11.2144561709
 30
0.0
 10
15.0200565663
 20
11.2144561709
 30
0.0
 10
15.0309412316
 20
11.2153782048
 30
0.0
 10
15.0455579751
 20
11.2199525128
 30
0.0
 10
15.0551411646
 20
11.2265647444
 30
0.0
 10
15.0601335106
 20
11.2331549954
 30
0.0
 10
15.0617254719
 20
11.2367308343
 30
0.0
 10
15.062287638
 20
11.2385479963
 30
0.0
  0
SPLINE
  5
28D
100
AcDbEntity
  8
0
100
AcDbSpline
 62
7
  6
CONTINUOUS
 70
0
 71
3
 72
11
 73
7
 74
0
 42
0.0000001
 43
0.0000001
 44
0.0000000001
 40
0.0
 40
0.0
 40
0.0
 40
0.0
 40
0.2392010626
 40
0.4941909191
 40
0.7522039309
 40
1.0
 40
1.0
 40
1.0
 40
1.0
 10
14.8023648946
 20
11.2401719666
 30
0.0
 10
14.8072532935
 20
11.2361515256
 30
0.0
 10
14.8182515293
 20
11.2289122053
 30
0.0
 10
14.8365508778
 20
11.2208839154
 30
0.0
 10
14.8560961468
 20
11.215744927
 30
0.0
 10
14.8694980407
 20
11.2144561709
 30
0.0
 10
14.8760547947
 20
11.2144561709
 30
0.0
  0
SPLINE
  5
28E
100
AcDbEntity
  8
0
100
AcDbSpline
 62
7
  6
CONTINUOUS
 70
0
 71
3
 72
9
 73
5
 74
0
 42
0.0000001
 43
0.0000001
 44
0.0000000001
 40
0.0
 40
0.0
 40
0.0
 40
0.0
 40
0.4776174438
 40
1.0
 40
1.0
 40
1.0
 40
1.0
 10
14.7212198391
 20
11.3287411245
 30
0.0
 10
14.7316219709
 20
11.3126266012
 30
0.0
 10
14.7566800687
 20
11.2809623106
 30
0.0
 10
14.7861627714
 20
11.2534973279
 30
0.0
 10
14.8023648946
 20
11.2401719666
 30
0.0
  0
SPLINE
  5
28F
100
AcDbEntity
  8
0
100
AcDbSpline
 62
7
  6
CONTINUOUS
 70
0
 71
3
 72
12
 73
8
 74
0
 42
0.0000001
 43
0.0000001
 44
0.0000000001
 40
0.0
 40
0.0
 40
0.0
 40
0.0
 40
0.3034091078
 40
0.5691630883
 40
0.7966910663
 40
0.9001320336
 40
1.0
 40
1.0
 40
1.0
 40
1.0
 10
14.4703440346
 20
11.2144561709
 30
0.0
 10
14.4761229084
 20
11.2144561709
 30
0.0
 10
14.4870075737
 20
11.2153782048
 30
0.0
 10
14.5016243172
 20
11.2199525128
 30
0.0
 10
14.5112075068
 20
11.2265647444
 30
0.0
 10
14.5161998528
 20
11.2331549954
 30
0.0
 10
14.517791814
 20
11.2367308343
 30
0.0
 10
14.5183539801
 20
11.2385479963
 30
0.0
  0
SPLINE
  5
290
100
AcDbEntity
  8
0
100
AcDbSpline
 62
7
  6
CONTINUOUS
 70
0
 71
3
 72
11
 73
7
 74
0
 42
0.0000001
 43
0.0000001
 44
0.0000000001
 40
0.0
 40
0.0
 40
0.0
 40
0.0
 40
0.2392010626
 40
0.4941909191
 40
0.7522039309
 40
1.0
 40
1.0
 40
1.0
 40
1.0
 10
14.2584312367
 20
11.2401719666
 30
0.0
 10
14.2633196356
 20
11.2361515256
 30
0.0
 10
14.2743178714
 20
11.2289122053
 30
0.0
 10
14.2926172199
 20
11.2208839154
 30
0.0
 10
14.312162489
 20
11.215744927
 30
0.0
 10
14.3255643828
 20
11.2144561709
 30
0.0
 10
14.3321211369
 20
11.2144561709
 30
0.0
  0
SPLINE
  5
291
100
AcDbEntity
  8
0
100
AcDbSpline
 62
7
  6
CONTINUOUS
 70
0
 71
3
 72
9
 73
5
 74
0
 42
0.0000001
 43
0.0000001
 44
0.0000000001
 40
0.0
 40
0.0
 40
0.0
 40
0.0
 40
0.4776174438
 40
1.0
 40
1.0
 40
1.0
 40
1.0
 10
14.1772861812
 20
11.3287411245
 30
0.0
 10
14.187688313
 20
11.3126266012
 30
0.0
 10
14.2127464108
 20
11.2809623106
 30
0.0
 10
14.2422291136
 20
11.2534973279
 30
0.0
 10
14.2584312367
 20
11.2401719666
 30
0.0
  0
SPLINE
  5
292
100
AcDbEntity
  8
0
100
AcDbSpline
 62
7
  6
CONTINUOUS
 70
0
 71
3
 72
12
 73
8
 74
0
 42
0.0000001
 43
0.0000001
 44
0.0000000001
 40
0.0
 40
0.0
 40
0.0
 40
0.0
 40
0.3034091078
 40
0.5691630883
 40
0.7966910663
 40
0.9001320336
 40
1.0
 40
1.0
 40
1.0
 40
1.0
 10
13.9264103768
 20
11.2144561709
 30
0.0
 10
13.9321892505
 20
11.2144561709
 30
0.0
 10
13.9430739158
 20
11.2153782048
 30
0.0
 10
13.9576906593
 20
11.2199525128
 30
0.0
 10
13.9672738489
 20
11.2265647444
 30
0.0
 10
13.9722661949
 20
11.2331549954
 30
0.0
 10
13.9738581561
 20
11.2367308343
 30
0.0
 10
13.9744203222
 20
11.2385479963
 30
0.0
  0
SPLINE
  5
293
100
AcDbEntity
  8
0
100
AcDbSpline
 62
7
  6
CONTINUOUS
 70
0
 71
3
 72
11
 73
7
 74
0
 42
0.0000001
 43
0.0000001
 44
0.0000000001
 40
0.0
 40
0.0
 40
0.0
 40
0.0
 40
0.2392010626
 40
0.4941909191
 40
0.7522039309
 40
1.0
 40
1.0
 40
1.0
 40
1.0
 10
13.7144975789
 20
11.2401719666
 30
0.0
 10
13.7193859777
 20
11.2361515256
 30
0.0
 10
13.7303842136
 20
11.2289122053
 30
0.0
 10
13.748683562
 20
11.2208839154
 30
0.0
 10
13.7682288311
 20
11.215744927
 30
0.0
 10
13.781630725
 20
11.2144561709
 30
0.0
 10
13.788187479
 20
11.2144561709
 30
0.0
  0
SPLINE
  5
294
100
AcDbEntity
  8
0
100
AcDbSpline
 62
7
  6
CONTINUOUS
 70
0
 71
3
 72
11
 73
7
 74
0
 42
0.0000001
 43
0.0000001
 44
0.0000000001
 40
0.0
 40
0.0
 40
0.0
 40
0.0
 40
0.2600396221
 40
0.5283845915
 40
0.7814283675
 40
1.0
 40
1.0
 40
1.0
 40
1.0
 10
13.5748178009
 20
11.3561538762
 30
0.0
 10
13.5806076534
 20
11.3561538762
 30
0.0
 10
13.5923945794
 20
11.3546674628
 30
0.0
 10
13.6089627046
 20
11.3489842198
 30
0.0
 10
13.6232056606
 20
11.3404745861
 30
0.0
 10
13.6307132174
 20
11.3328298208
 30
0.0
 10
13.6333525233
 20
11.3287411245
 30
0.0
  0
SPLINE
  5
295
100
AcDbEntity
  8
0
100
AcDbSpline
 62
7
  6
CONTINUOUS
 70
0
 71
3
 72
11
 73
7
 74
0
 42
0.0000001
 43
0.0000001
 44
0.0000000001
 40
0.0
 40
0.0
 40
0.0
 40
0.0
 40
0.2600396221
 40
0.5283845915
 40
0.7814283675
 40
1.0
 40
1.0
 40
1.0
 40
1.0
 10
14.1187514587
 20
11.3561538762
 30
0.0
 10
14.1245413113
 20
11.3561538762
 30
0.0
 10
14.1363282373
 20
11.3546674628
 30
0.0
 10
14.1528963625
 20
11.3489842198
 30
0.0
 10
14.1671393185
 20
11.3404745861
 30
0.0
 10
14.1746468753
 20
11.3328298208
 30
0.0
 10
14.1772861812
 20
11.3287411245
 30
0.0
  0
SPLINE
  5
296
100
AcDbEntity
  8
0
100
AcDbSpline
 62
7
  6
CONTINUOUS
 70
0
 71
3
 72
11
 73
7
 74
0
 42
0.0000001
 43
0.0000001
 44
0.0000000001
 40
0.0
 40
0.0
 40
0.0
 40
0.0
 40
0.2600396221
 40
0.5283845915
 40
0.7814283675
 40
1.0
 40
1.0
 40
1.0
 40
1.0
 10
14.6626851166
 20
11.3561538762
 30
0.0
 10
14.6684749692
 20
11.3561538762
 30
0.0
 10
14.6802618952
 20
11.3546674628
 30
0.0
 10
14.6968300203
 20
11.3489842198
 30
0.0
 10
14.7110729763
 20
11.3404745861
 30
0.0
 10
14.7185805332
 20
11.3328298208
 30
0.0
 10
14.7212198391
 20
11.3287411245
 30
0.0
  0
SPLINE
  5
297
100
AcDbEntity
  8
0
100
AcDbSpline
 62
7
  6
CONTINUOUS
 70
0
 71
3
 72
11
 73
7
 74
0
 42
0.0000001
 43
0.0000001
 44
0.0000000001
 40
0.0
 40
0.0
 40
0.0
 40
0.0
 40
0.2600396221
 40
0.5283845915
 40
0.7814283675
 40
1.0
 40
1.0
 40
1.0
 40
1.0
 10
15.2066187745
 20
11.3561538762
 30
0.0
 10
15.212408627
 20
11.3561538762
 30
0.0
 10
15.2241955531
 20
11.3546674628
 30
0.0
 10
15.2407636782
 20
11.3489842198
 30
0.0
 10
15.2550066342
 20
11.3404745861
 30
0.0
 10
15.262514191
 20
11.3328298208
 30
0.0
 10
15.265153497
 20
11.3287411245
 30
0.0
  0
SPLINE
  5
298
100
AcDbEntity
  8
0
100
AcDbSpline
 62
7
  6
CONTINUOUS
 70
0
 71
3
 72
11
 73
7
 74
0
 42
0.0000001
 43
0.0000001
 44
0.0000000001
 40
0.0
 40
0.0
 40
0.0
 40
0.0
 40
0.2600396221
 40
0.5283845915
 40
0.7814283675
 40
1.0
 40
1.0
 40
1.0
 40
1.0
 10
15.7505524324
 20
11.3561538762
 30
0.0
 10
15.7563422849
 20
11.3561538762
 30
0.0
 10
15.7681292109
 20
11.3546674628
 30
0.0
 10
15.7846973361
 20
11.3489842198
 30
0.0
 10
15.7989402921
 20
11.3404745861
 30
0.0
 10
15.8064478489
 20
11.3328298208
 30
0.0
 10
15.8090871548
 20
11.3287411245
 30
0.0
  0
SPLINE
  5
299
100
AcDbEntity
  8
0
100
AcDbSpline
 62
7
  6
CONTINUOUS
 70
0
 71
3
 72
11
 73
7
 74
0
 42
0.0000001
 43
0.0000001
 44
0.0000000001
 40
0.0
 40
0.0
 40
0.0
 40
0.0
 40
0.2600396221
 40
0.5283845915
 40
0.7814283675
 40
1.0
 40
1.0
 40
1.0
 40
1.0
 10
16.2944860902
 20
11.3561538762
 30
0.0
 10
16.3002759428
 20
11.3561538762
 30
0.0
 10
16.3120628688
 20
11.3546674628
 30
0.0
 10
16.328630994
 20
11.3489842198
 30
0.0
 10
16.34287395
 20
11.3404745861
 30
0.0
 10
16.3503815068
 20
11.3328298208
 30
0.0
 10
16.3530208127
 20
11.3287411245
 30
0.0
  0
SPLINE
  5
29A
100
AcDbEntity
  8
0
100
AcDbSpline
 62
7
  6
CONTINUOUS
 70
0
 71
3
 72
10
 73
6
 74
0
 42
0.0000001
 43
0.0000001
 44
0.0000000001
 40
0.0
 40
0.0
 40
0.0
 40
0.0
 40
0.239241892
 40
0.4838003572
 40
1.0
 40
1.0
 40
1.0
 40
1.0
 10
14.5187949755
 20
11.2401719666
 30
0.0
 10
14.5204285667
 20
11.2471403568
 30
0.0
 10
14.5226448793
 20
11.2615126545
 30
0.0
 10
14.5227713652
 20
11.2915097062
 30
0.0
 10
14.5179310513
 20
11.3141021635
 30
0.0
 10
14.5130131713
 20
11.3287411245
 30
0.0
  0
SPLINE
  5
29B
100
AcDbEntity
  8
0
100
AcDbSpline
 62
7
  6
CONTINUOUS
 70
0
 71
3
 72
9
 73
5
 74
0
 42
0.0000001
 43
0.0000001
 44
0.0000000001
 40
0.0
 40
0.0
 40
0.0
 40
0.0
 40
0.5169536472
 40
1.0
 40
1.0
 40
1.0
 40
1.0
 10
13.9690795134
 20
11.3287411245
 30
0.0
 10
13.9684484464
 20
11.3306196098
 30
0.0
 10
13.9676759019
 20
11.3344358057
 30
0.0
 10
13.9681559019
 20
11.3383236822
 30
0.0
 10
13.9687028495
 20
11.3400927364
 30
0.0
  0
SPLINE
  5
29C
100
AcDbEntity
  8
0
100
AcDbSpline
 62
7
  6
CONTINUOUS
 70
0
 71
3
 72
10
 73
6
 74
0
 42
0.0000001
 43
0.0000001
 44
0.0000000001
 40
0.0
 40
0.0
 40
0.0
 40
0.0
 40
0.239241892
 40
0.4838003572
 40
1.0
 40
1.0
 40
1.0
 40
1.0
 10
15.6066622913
 20
11.2401719666
 30
0.0
 10
15.6082958824
 20
11.2471403568
 30
0.0
 10
15.6105121951
 20
11.2615126545
 30
0.0
 10
15.6106386809
 20
11.2915097062
 30
0.0
 10
15.605798367
 20
11.3141021635
 30
0.0
 10
15.6008804871
 20
11.3287411245
 30
0.0
  0
SPLINE
  5
29D
100
AcDbEntity
  8
0
100
AcDbSpline
 62
7
  6
CONTINUOUS
 70
0
 71
3
 72
9
 73
5
 74
0
 42
0.0000001
 43
0.0000001
 44
0.0000000001
 40
0.0
 40
0.0
 40
0.0
 40
0.0
 40
0.5169536472
 40
1.0
 40
1.0
 40
1.0
 40
1.0
 10
14.5130131713
 20
11.3287411245
 30
0.0
 10
14.5123821043
 20
11.3306196098
 30
0.0
 10
14.5116095597
 20
11.3344358057
 30
0.0
 10
14.5120895598
 20
11.3383236822
 30
0.0
 10
14.5126365074
 20
11.3400927364
 30
0.0
  0
SPLINE
  5
29E
100
AcDbEntity
  8
0
100
AcDbSpline
 62
7
  6
CONTINUOUS
 70
0
 71
3
 72
9
 73
5
 74
0
 42
0.0000001
 43
0.0000001
 44
0.0000000001
 40
0.0
 40
0.0
 40
0.0
 40
0.0
 40
0.5169536472
 40
1.0
 40
1.0
 40
1.0
 40
1.0
 10
15.0569468292
 20
11.3287411245
 30
0.0
 10
15.0563157622
 20
11.3306196098
 30
0.0
 10
15.0555432176
 20
11.3344358057
 30
0.0
 10
15.0560232176
 20
11.3383236822
 30
0.0
 10
15.0565701653
 20
11.3400927364
 30
0.0
  0
SPLINE
  5
29F
100
AcDbEntity
  8
0
100
AcDbSpline
 62
7
  6
CONTINUOUS
 70
0
 71
3
 72
10
 73
6
 74
0
 42
0.0000001
 43
0.0000001
 44
0.0000000001
 40
0.0
 40
0.0
 40
0.0
 40
0.0
 40
0.239241892
 40
0.4838003572
 40
1.0
 40
1.0
 40
1.0
 40
1.0
 10
13.9748613177
 20
11.2401719666
 30
0.0
 10
13.9764949088
 20
11.2471403568
 30
0.0
 10
13.9787112215
 20
11.2615126545
 30
0.0
 10
13.9788377073
 20
11.2915097062
 30
0.0
 10
13.9739973934
 20
11.3141021635
 30
0.0
 10
13.9690795134
 20
11.3287411245
 30
0.0
  0
SPLINE
  5
2A0
100
AcDbEntity
  8
0
100
AcDbSpline
 62
7
  6
CONTINUOUS
 70
0
 71
3
 72
10
 73
6
 74
0
 42
0.0000001
 43
0.0000001
 44
0.0000000001
 40
0.0
 40
0.0
 40
0.0
 40
0.0
 40
0.239241892
 40
0.4838003572
 40
1.0
 40
1.0
 40
1.0
 40
1.0
 10
16.1505959492
 20
11.2401719666
 30
0.0
 10
16.1522295403
 20
11.2471403568
 30
0.0
 10
16.154445853
 20
11.2615126545
 30
0.0
 10
16.1545723388
 20
11.2915097062
 30
0.0
 10
16.1497320249
 20
11.3141021635
 30
0.0
 10
16.1448141449
 20
11.3287411245
 30
0.0
  0
SPLINE
  5
2A1
100
AcDbEntity
  8
0
100
AcDbSpline
 62
7
  6
CONTINUOUS
 70
0
 71
3
 72
9
 73
5
 74
0
 42
0.0000001
 43
0.0000001
 44
0.0000000001
 40
0.0
 40
0.0
 40
0.0
 40
0.0
 40
0.5169536472
 40
1.0
 40
1.0
 40
1.0
 40
1.0
 10
15.6008804871
 20
11.3287411245
 30
0.0
 10
15.60024942
 20
11.3306196098
 30
0.0
 10
15.5994768755
 20
11.3344358057
 30
0.0
 10
15.5999568755
 20
11.3383236822
 30
0.0
 10
15.6005038232
 20
11.3400927364
 30
0.0
  0
SPLINE
  5
2A2
100
AcDbEntity
  8
0
100
AcDbSpline
 62
7
  6
CONTINUOUS
 70
0
 71
3
 72
10
 73
6
 74
0
 42
0.0000001
 43
0.0000001
 44
0.0000000001
 40
0.0
 40
0.0
 40
0.0
 40
0.0
 40
0.239241892
 40
0.4838003572
 40
1.0
 40
1.0
 40
1.0
 40
1.0
 10
15.0627286334
 20
11.2401719666
 30
0.0
 10
15.0643622246
 20
11.2471403568
 30
0.0
 10
15.0665785372
 20
11.2615126545
 30
0.0
 10
15.066705023
 20
11.2915097062
 30
0.0
 10
15.0618647092
 20
11.3141021635
 30
0.0
 10
15.0569468292
 20
11.3287411245
 30
0.0
  0
SPLINE
  5
2A3
100
AcDbEntity
  8
0
100
AcDbSpline
 62
7
  6
CONTINUOUS
 70
0
 71
3
 72
9
 73
5
 74
0
 42
0.0000001
 43
0.0000001
 44
0.0000000001
 40
0.0
 40
0.0
 40
0.0
 40
0.0
 40
0.5169536472
 40
1.0
 40
1.0
 40
1.0
 40
1.0
 10
16.1448141449
 20
11.3287411245
 30
0.0
 10
16.1441830779
 20
11.3306196098
 30
0.0
 10
16.1434105334
 20
11.3344358057
 30
0.0
 10
16.1438905334
 20
11.3383236822
 30
0.0
 10
16.144437481
 20
11.3400927364
 30
0.0
  0
SPLINE
  5
2A4
100
AcDbEntity
  8
0
100
AcDbSpline
 62
7
  6
CONTINUOUS
 70
0
 71
3
 72
9
 73
5
 74
0
 42
0.0000001
 43
0.0000001
 44
0.0000000001
 40
0.0
 40
0.0
 40
0.0
 40
0.0
 40
0.5169536472
 40
1.0
 40
1.0
 40
1.0
 40
1.0
 10
16.6887478028
 20
11.3287411245
 30
0.0
 10
16.6881167358
 20
11.3306196098
 30
0.0
 10
16.6873441912
 20
11.3344358057
 30
0.0
 10
16.6878241913
 20
11.3383236822
 30
0.0
 10
16.6883711389
 20
11.3400927364
 30
0.0
  0
SPLINE
  5
2A5
100
AcDbEntity
  8
0
100
AcDbSpline
 62
7
  6
CONTINUOUS
 70
0
 71
3
 72
10
 73
6
 74
0
 42
0.0000001
 43
0.0000001
 44
0.0000000001
 40
0.0
 40
0.0
 40
0.0
 40
0.0
 40
0.2392552135
 40
0.4838014689
 40
1.0
 40
1.0
 40
1.0
 40
1.0
 10
16.694529607
 20
11.2401719666
 30
0.0
 10
16.6961632895
 20
11.2471407462
 30
0.0
 10
16.6983803233
 20
11.2615130104
 30
0.0
 10
16.698505053
 20
11.2915100987
 30
0.0
 10
16.6936656732
 20
11.3141021922
 30
0.0
 10
16.6887478028
 20
11.3287411245
 30
0.0
  0
ENDSEC
  0
SECTION
  2
OBJECTS
  0
DICTIONARY
  5
C
100
AcDbDictionary
280
0
281
1
  3
ACAD_GROUP
350
D
  3
ACAD_MLINESTYLE
350
17
  3
ACAD_LAYOUT
350
1A
  3
ACAD_PLOTSETTINGS
350
19
  3
ACAD_PLOTSTYLENAME
350
E
  0
DICTIONARY
  5
D
102
{ACAD_REACTORS
330
C
102
}
100
AcDbDictionary
280
0
281
1
  0
ACDBDICTIONARYWDFLT
  5
E
102
{ACAD_REACTORS
330
C
102
}
100
AcDbDictionary
281
1
  3
Normal
350
F
100
AcDbDictionaryWithDefault
340
F
  0
DICTIONARY
  5
17
102
{ACAD_REACTORS
330
C
102
}
100
AcDbDictionary
280
0
281
1
  3
Standard
350
18
  0
DICTIONARY
  5
19
102
{ACAD_REACTORS
330
C
102
}
100
AcDbDictionary
281
1
  0
DICTIONARY
  5
1A
102
{ACAD_REACTORS
330
C
102
}
100
AcDbDictionary
281
1
  3
Model
350
2A6
  3
Layout1
350
2A7
  0
ACDBPLACEHOLDER
  5
F
102
{ACAD_REACTORS
330
E
102
}
  0
MLINESTYLE
  5
18
102
{ACAD_REACTORS
330
17
102
}
100
AcDbMlineStyle
  2
STANDARD
 70
0
  3

 62
256
 51
90.0
 52
90.0
 71
2
 49
0.5
 62
256
  6
BYLAYER
 49
-0.5
 62
256
  6
BYLAYER
  0
LAYOUT
  5
2A6
102
{ACAD_REACTORS
330
1A
102
}
100
AcDbPlotSettings
  1

  2
none_device
  4
ANSI_C_(22.00_x_17.00_Inches)
  6

 40
0.0
 41
0.0
 42
0.0
 43
0.0
 44
558.8
 45
431.8
 46
0.0
 47
0.0
 48
0.0
 49
0.0
140
0.0
141
0.0
142
1.0
143
1.0
 70
1024
 72
0
 73
0
 74
0
  7

 75
0
147
1.0
148
0.0
149
0.0
100
AcDbLayout
  1
Model
 70
0
 71
0
 10
0.0
 20
0.0
 11
22.0
 21
17.0
 12
0.0
 22
0.0
 32
0.0
 14
0.0
 24
0.0
 34
0.0
 15
0.0
 25
0.0
 35
0.0
146
0.0
 13
0.0
 23
0.0
 33
0.0
 16
1.0
 26
0.0
 36
0.0
 17
0.0
 27
1.0
 37
0.0
 76
0
330
216
345
0
346
0
  0
LAYOUT
  5
2A7
102
{ACAD_REACTORS
330
1A
102
}
100
AcDbPlotSettings
  1

  2
none_device
  4
ANSI_C_(22.00_x_17.00_Inches)
  6

 40
0.0
 41
0.0
 42
0.0
 43
0.0
 44
558.8
 45
431.8
 46
0.0
 47
0.0
 48
0.0
 49
0.0
140
0.0
141
0.0
142
1.0
143
1.0
 70
0
 72
0
 73
0
 74
0
  7

 75
0
147
1.0
148
0.0
149
0.0
100
AcDbLayout
  1
Layout1
 70
0
 71
1
 10
0.0
 20
0.0
 11
22.0
 21
17.0
 12
0.0
 22
0.0
 32
0.0
 14
0.0
 24
0.0
 34
0.0
 15
0.0
 25
0.0
 35
0.0
146
0.0
 13
0.0
 23
0.0
 33
0.0
 16
1.0
 26
0.0
 36
0.0
 17
0.0
 27
1.0
 37
0.0
 76
0
330
217
345
0
346
0
  0
ENDSEC
  0
EOF