999
DXF file: _cgs_temp_output.dxf
999
Pro/ENGINEER 2015110 by Parametric Technology Corporation
  0
SECTION
  2
HEADER
  9
$ACADVER
  1
AC1021
  9
$DWGCODEPAGE
  3
ANSI_1252
  9
$EXTMAX
 10
22.0
 20
17.0
 30
0.0
  9
$EXTMIN
 10
0.0
 20
0.0
 30
0.0
  9
$LIMMIN
 10
0.0
 20
0.0
  9
$LIMMAX
 10
22.0
 20
17.0
  9
$VIEWCTR
 10
11.0
 20
8.5
  9
$VIEWSIZE
 40
17.0
  9
$CLAYER
  8
0
  9
$LTSCALE
 40
1.21
  9
$CELTYPE
  6
BYLAYER
  9
$DIMSCALE
 40
1.0
  9
$DIMASZ
 40
0.1875
  9
$DIMEXO
 40
0.0625
  9
$DIMDLI
 40
0.836
  9
$DIMEXE
 40
0.125
  9
$DIMCEN
 40
0.198
  9
$DIMLFAC
 40
1.0
  9
$DIMBLK
  1
_CLOSED
  9
$DIMALT
 70
0
  9
$DIMALTF
 40
25.4
  9
$DIMTXT
 40
0.15625
  9
$DIMTOL
 70
0
  9
$DIMLIM
 70
0
  9
$DIMTFAC
 40
1.0
  9
$DIMGAP
 40
0.09
  9
$DIMDSEP
 70
46
  9
$AUNITS
 70
0
  9
$PDMODE
 70
3
  9
$PDSIZE
 40
0.3125
  9
$HANDSEED
  5
2AE
  9
$TILEMODE
 70
1
  9
$MEASUREMENT
 70
0
  9
$INSUNITS
 70
1
  0
ENDSEC
  0
SECTION
  2
CLASSES
  0
CLASS
  1
ACDBDICTIONARYWDFLT
  2
AcDbDictionaryWithDefault
  3
AutoCAD 2000
 90
0
 91
1
280
0
281
0
  0
CLASS
  1
ACDBPLACEHOLDER
  2
AcDbPlaceHolder
  3
AutoCAD 2000
 90
0
 91
1
280
0
281
0
  0
CLASS
  1
LAYOUT
  2
AcDbLayout
  3
AutoCAD 2000
 90
0
 91
0
280
0
281
0
  0
ENDSEC
  0
SECTION
  2
TABLES
  0
TABLE
  2
VPORT
  5
8
100
AcDbSymbolTable
 70
2
  0
VPORT
  5
1F4
100
AcDbSymbolTableRecord
100
AcDbViewportTableRecord
  2
*ACTIVE
 70
0
 10
0.0
 20
0.0
 11
1.0
 21
1.0
 12
11.0
 22
8.5
 13
0.0
 23
0.0
 14
1.0
 24
1.0
 15
0.0
 25
0.0
 16
0.0
 26
0.0
 36
1.0
 17
0.0
 27
0.0
 37
0.0
 40
17.0
 41
1.2941176471
 42
50.0
 43
0.0
 44
0.0
 50
0.0
 51
0.0
 71
0
 72
100
 73
1
 74
1
 75
0
 76
0
 77
0
 78
0
  0
ENDTAB
  0
TABLE
  2
LTYPE
  5
5
100
AcDbSymbolTable
 70
6
  0
LTYPE
  5
14
100
AcDbSymbolTableRecord
100
AcDbLinetypeTableRecord
  2
BYBLOCK
 70
0
  3

 72
65
 73
0
 40
0.0
  0
LTYPE
  5
15
100
AcDbSymbolTableRecord
100
AcDbLinetypeTableRecord
  2
BYLAYER
 70
0
  3

 72
65
 73
0
 40
0.0
  0
LTYPE
  5
16
100
AcDbSymbolTableRecord
100
AcDbLinetypeTableRecord
  2
CONTINUOUS
 70
64
  3
Solid line
 72
65
 73
0
 40
0.0
  0
LTYPE
  5
1F5
100
AcDbSymbolTableRecord
100
AcDbLinetypeTableRecord
  2
CENTER
 70
64
  3
____ _ ____ _ ____ _ ____ _ ____ _ ____ _ ____
 72
65
 73
4
 40
0.6
 49
0.375
 74
0
 49
-0.075
 74
0
 49
0.075
 74
0
 49
-0.075
 74
0
  0
LTYPE
  5
1F6
100
AcDbSymbolTableRecord
100
AcDbLinetypeTableRecord
  2
HIDDEN
 70
64
  3
- - - - - - - - - - - - - - - - - - - -
 72
65
 73
2
 40
0.2
 49
0.1
 74
0
 49
-0.1
 74
0
  0
LTYPE
  5
1F7
100
AcDbSymbolTableRecord
100
AcDbLinetypeTableRecord
  2
PHANTOM
 70
64
  3
_____ _ _ _____ _ _ _____ _ _ _____
 72
65
 73
6
 40
0.8
 49
0.45
 74
0
 49
-0.05
 74
0
 49
0.1
 74
0
 49
-0.05
 74
0
 49
0.1
 74
0
 49
-0.05
 74
0
  0
LTYPE
  5
1F8
100
AcDbSymbolTableRecord
100
AcDbLinetypeTableRecord
  2
DOT
 70
64
  3
. . . . . . . . . . . . . . . . . . . .
 72
65
 73
2
 40
0.2
 49
0.1
 74
0
 49
-0.1
 74
0
  0
LTYPE
  5
1F9
100
AcDbSymbolTableRecord
100
AcDbLinetypeTableRecord
  2
DASHED
 70
64
  3
- - - - - - - - - - - - - - - - - - - -
 72
65
 73
2
 40
0.2
 49
0.1
 74
0
 49
-0.1
 74
0
  0
ENDTAB
  0
TABLE
  2
LAYER
  5
2
100
AcDbSymbolTable
 70
36
  0
LAYER
  5
10
100
AcDbSymbolTableRecord
100
AcDbLayerTableRecord
  2
0
 70
0
 62
7
  6
CONTINUOUS
370
-3
390
F
  0
LAYER
  5
1FA
100
AcDbSymbolTableRecord
100
AcDbLayerTableRecord
  2
DEFAULT_1
 70
0
 62
7
  6
CENTER
370
-3
390
F
  0
LAYER
  5
1FB
100
AcDbSymbolTableRecord
100
AcDbLayerTableRecord
  2
DEFAULT_2
 70
0
 62
8
  6
HIDDEN
370
-3
390
F
  0
LAYER
  5
1FC
100
AcDbSymbolTableRecord
100
AcDbLayerTableRecord
  2
DEFAULT_3
 70
0
 62
7
  6
PHANTOM
370
-3
390
F
  0
LAYER
  5
1FD
100
AcDbSymbolTableRecord
100
AcDbLayerTableRecord
  2
01_ALL_DTM_PLN
 70
0
 62
7
  6
CONTINUOUS
370
-3
390
F
  0
LAYER
  5
1FE
100
AcDbSymbolTableRecord
100
AcDbLayerTableRecord
  2
01__ASM_ALL_DTM_PLN
 70
0
 62
7
  6
CONTINUOUS
370
-3
390
F
  0
LAYER
  5
1FF
100
AcDbSymbolTableRecord
100
AcDbLayerTableRecord
  2
01__ASM_DEF_DTM_PLN
 70
0
 62
7
  6
CONTINUOUS
370
-3
390
F
  0
LAYER
  5
200
100
AcDbSymbolTableRecord
100
AcDbLayerTableRecord
  2
01___PRT_ALL_DTM_PLN
 70
0
 62
7
  6
CONTINUOUS
370
-3
390
F
  0
LAYER
  5
201
100
AcDbSymbolTableRecord
100
AcDbLayerTableRecord
  2
01___PRT_DEF_DTM_PLN
 70
0
 62
7
  6
CONTINUOUS
370
-3
390
F
  0
LAYER
  5
202
100
AcDbSymbolTableRecord
100
AcDbLayerTableRecord
  2
02_ALL_AXES
 70
0
 62
7
  6
CONTINUOUS
370
-3
390
F
  0
LAYER
  5
203
100
AcDbSymbolTableRecord
100
AcDbLayerTableRecord
  2
02__ASM_ALL_AXES
 70
0
 62
7
  6
CONTINUOUS
370
-3
390
F
  0
LAYER
  5
204
100
AcDbSymbolTableRecord
100
AcDbLayerTableRecord
  2
02___PRT_ALL_AXES
 70
0
 62
7
  6
CONTINUOUS
370
-3
390
F
  0
LAYER
  5
205
100
AcDbSymbolTableRecord
100
AcDbLayerTableRecord
  2
03_ALL_CURVES
 70
0
 62
7
  6
CONTINUOUS
370
-3
390
F
  0
LAYER
  5
206
100
AcDbSymbolTableRecord
100
AcDbLayerTableRecord
  2
03__ASM_ALL_CURVES
 70
0
 62
7
  6
CONTINUOUS
370
-3
390
F
  0
LAYER
  5
207
100
AcDbSymbolTableRecord
100
AcDbLayerTableRecord
  2
03___PRT_ALL_CURVES
 70
0
 62
7
  6
CONTINUOUS
370
-3
390
F
  0
LAYER
  5
208
100
AcDbSymbolTableRecord
100
AcDbLayerTableRecord
  2
04_ALL_DTM_PNT
 70
0
 62
7
  6
CONTINUOUS
370
-3
390
F
  0
LAYER
  5
209
100
AcDbSymbolTableRecord
100
AcDbLayerTableRecord
  2
04__ASM_ALL_DTM_PNT
 70
0
 62
7
  6
CONTINUOUS
370
-3
390
F
  0
LAYER
  5
20A
100
AcDbSymbolTableRecord
100
AcDbLayerTableRecord
  2
04___PRT_ALL_DTM_PNT
 70
0
 62
7
  6
CONTINUOUS
370
-3
390
F
  0
LAYER
  5
20B
100
AcDbSymbolTableRecord
100
AcDbLayerTableRecord
  2
05_ALL_DTM_CSYS
 70
0
 62
7
  6
CONTINUOUS
370
-3
390
F
  0
LAYER
  5
20C
100
AcDbSymbolTableRecord
100
AcDbLayerTableRecord
  2
05__ASM_ALL_DTM_CSYS
 70
0
 62
7
  6
CONTINUOUS
370
-3
390
F
  0
LAYER
  5
20D
100
AcDbSymbolTableRecord
100
AcDbLayerTableRecord
  2
05__ASM_DEF_DTM_CSYS
 70
0
 62
7
  6
CONTINUOUS
370
-3
390
F
  0
LAYER
  5
20E
100
AcDbSymbolTableRecord
100
AcDbLayerTableRecord
  2
05___PRT_ALL_DTM_CSYS
 70
0
 62
7
  6
CONTINUOUS
370
-3
390
F
  0
LAYER
  5
20F
100
AcDbSymbolTableRecord
100
AcDbLayerTableRecord
  2
05___PRT_DEF_DTM_CSYS
 70
0
 62
7
  6
CONTINUOUS
370
-3
390
F
  0
LAYER
  5
210
100
AcDbSymbolTableRecord
100
AcDbLayerTableRecord
  2
06_ALL_SURFS
 70
0
 62
7
  6
CONTINUOUS
370
-3
390
F
  0
LAYER
  5
211
100
AcDbSymbolTableRecord
100
AcDbLayerTableRecord
  2
06__ASM_ALL_SURFS
 70
0
 62
7
  6
CONTINUOUS
370
-3
390
F
  0
LAYER
  5
212
100
AcDbSymbolTableRecord
100
AcDbLayerTableRecord
  2
06___PRT_ALL_SURFS
 70
0
 62
7
  6
CONTINUOUS
370
-3
390
F
  0
LAYER
  5
213
100
AcDbSymbolTableRecord
100
AcDbLayerTableRecord
  2
07__ASM_ALL_SKELETONS
 70
0
 62
7
  6
CONTINUOUS
370
-3
390
F
  0
ENDTAB
  0
TABLE
  2
STYLE
  5
3
100
AcDbSymbolTable
 70
1
  0
STYLE
  5
11
100
AcDbSymbolTableRecord
100
AcDbTextStyleTableRecord
  2
STANDARD
 70
0
 40
0.0
 41
0.8
 50
0.0
 71
0
 42
0.2
  3
txt
  4

  0
STYLE
  5
214
100
AcDbSymbolTableRecord
100
AcDbTextStyleTableRecord
  2
TEXTSTYLE_1
 70
0
 40
0.0
 41
0.8
 50
0.0
 71
0
 42
0.2
  3
gdt
  4

  0
ENDTAB
  0
TABLE
  2
VIEW
  5
6
100
AcDbSymbolTable
 70
0
  0
ENDTAB
  0
TABLE
  2
UCS
  5
7
100
AcDbSymbolTable
 70
0
  0
ENDTAB
  0
TABLE
  2
APPID
  5
9
100
AcDbSymbolTable
 70
1
  0
APPID
  5
215
100
AcDbSymbolTableRecord
100
AcDbRegAppTableRecord
  2
ACAD
 70
0
  0
ENDTAB
  0
TABLE
  2
BLOCK_RECORD
  5
1
100
AcDbSymbolTable
 70
0
  0
BLOCK_RECORD
  5
216
100
AcDbSymbolTableRecord
100
AcDbBlockTableRecord
  2
*Model_Space
  0
BLOCK_RECORD
  5
217
100
AcDbSymbolTableRecord
100
AcDbBlockTableRecord
  2
*Paper_Space
  0
ENDTAB
  0
TABLE
  2
DIMSTYLE
  5
A
100
AcDbSymbolTable
 70
1
100
AcDbDimStyleTable
 71
0
  0
DIMSTYLE
105
218
100
AcDbSymbolTableRecord
100
AcDbDimStyleTableRecord
  2
STANDARD
 70
0
  3

  4

 40
1.0
 41
0.1875
 42
0.0625
 43
0.38
 44
0.125
 45
0.0
 46
0.0
 47
0.0001
 48
0.0001
140
0.15625
141
0.09
142
0.0
143
25.4
144
1.0
145
0.0
146
1.0
147
0.09
 71
0.0
 72
0.0
 73
1
 74
1
 75
0
 76
0
 77
0
 78
4
170
0
171
2
172
0
173
0
174
0
175
0
176
0
177
0
178
0
270
2
271
4
272
4
273
2
274
2
275
0
280
0
281
0
282
0
283
1
284
4
285
0
286
0
287
3
288
0
340
11
278
46
  0
ENDTAB
  0
ENDSEC
  0
SECTION
  2
BLOCKS
  0
BLOCK
  5
20
100
AcDbEntity
  8
0
100
AcDbBlockBegin
  2
*Model_Space
 70
0
 10
0.0
 20
0.0
 30
0.0
  3
*Model_Space
  1

  0
ENDBLK
  5
21
100
AcDbEntity
  8
0
100
AcDbBlockEnd
  0
BLOCK
  5
1C
100
AcDbEntity
  8
0
100
AcDbBlockBegin
  2
*Paper_Space
 70
0
 10
0.0
 20
0.0
 30
0.0
  3
*Paper_Space
  1

  0
ENDBLK
  5
1D
100
AcDbEntity
  8
0
100
AcDbBlockEnd
  0
ENDSEC
  0
SECTION
  2
ENTITIES
  0
MTEXT
  5
219
100
AcDbEntity
  8
0
100
AcDbMText
 62
7
  6
CONTINUOUS
  7
STANDARD
 71
1
 72
1
 10
15.9560215477
 20
0.9479130325
 30
0.0
 11
1.0
 21
0.0
 31
0.0
 44
0.9
  1
SCALE: 1:3.000
 40
0.3
 41
3.36
  0
LINE
  5
21A
100
AcDbEntity
  8
0
100
AcDbLine
 62
7
  6
CONTINUOUS
 10
0.0
 20
0.0
 11
0.0
 21
17.0
  0
LINE
  5
21B
100
AcDbEntity
  8
0
100
AcDbLine
 62
7
  6
CONTINUOUS
 10
0.0
 20
0.0
 11
22.0
 21
0.0
  0
LINE
  5
21C
100
AcDbEntity
  8
0
100
AcDbLine
 62
7
  6
CONTINUOUS
 10
0.0
 20
17.0
 11
22.0
 21
17.0
  0
LINE
  5
21D
100
AcDbEntity
  8
0
100
AcDbLine
 62
7
  6
CONTINUOUS
 10
22.0
 20
0.0
 11
22.0
 21
17.0
  0
LINE
  5
21E
100
AcDbEntity
  8
0
100
AcDbLine
 62
7
  6
CONTINUOUS
 10
4.3303672762
 20
5.6551198968
 11
4.3303672762
 21
5.5351198968
  0
LINE
  5
21F
100
AcDbEntity
  8
0
100
AcDbLine
 62
7
  6
CONTINUOUS
 10
4.4513906393
 20
5.5145426778
 11
4.4922142658
 21
5.4159857251
  0
LINE
  5
220
100
AcDbEntity
  8
0
100
AcDbLine
 62
7
  6
CONTINUOUS
 10
4.7685202865
 20
5.4159857251
 11
4.809343913
 21
5.5145426778
  0
LINE
  5
221
100
AcDbEntity
  8
0
100
AcDbLine
 62
7
  6
CONTINUOUS
 10
5.0513906393
 20
5.5145426778
 11
5.0922142658
 21
5.4159857251
  0
LINE
  5
222
100
AcDbEntity
  8
0
100
AcDbLine
 62
7
  6
CONTINUOUS
 10
5.3685202865
 20
5.4159857251
 11
5.409343913
 21
5.5145426778
  0
LINE
  5
223
100
AcDbEntity
  8
0
100
AcDbLine
 62
7
  6
CONTINUOUS
 10
5.6513906393
 20
5.5145426778
 11
5.6922142658
 21
5.4159857251
  0
LINE
  5
224
100
AcDbEntity
  8
0
100
AcDbLine
 62
7
  6
CONTINUOUS
 10
5.9685202865
 20
5.4159857251
 11
6.009343913
 21
5.5145426778
  0
LINE
  5
225
100
AcDbEntity
  8
0
100
AcDbLine
 62
7
  6
CONTINUOUS
 10
4.5384082424
 20
5.3851198968
 11
4.7223263099
 21
5.3851198968
  0
LINE
  5
226
100
AcDbEntity
  8
0
100
AcDbLine
 62
7
  6
CONTINUOUS
 10
5.1384082424
 20
5.3851198968
 11
5.3223263099
 21
5.3851198968
  0
LINE
  5
227
100
AcDbEntity
  8
0
100
AcDbLine
 62
7
  6
CONTINUOUS
 10
5.7384082424
 20
5.3851198968
 11
5.9223263099
 21
5.3851198968
  0
LINE
  5
228
100
AcDbEntity
  8
0
100
AcDbLine
 62
7
  6
CONTINUOUS
 10
6.3384082424
 20
5.3851198968
 11
6.5223263099
 21
5.3851198968
  0
LINE
  5
229
100
AcDbEntity
  8
0
100
AcDbLine
 62
7
  6
CONTINUOUS
 10
6.9384082424
 20
5.3851198968
 11
7.1223263099
 21
5.3851198968
  0
LINE
  5
22A
100
AcDbEntity
  8
0
100
AcDbLine
 62
7
  6
CONTINUOUS
 10
7.5384082424
 20
5.3851198968
 11
7.7223263099
 21
5.3851198968
  0
LINE
  5
22B
100
AcDbEntity
  8
0
100
AcDbLine
 62
7
  6
CONTINUOUS
 10
4.3303672762
 20
5.5351198968
 11
4.4205946549
 21
5.5351198968
  0
LINE
  5
22C
100
AcDbEntity
  8
0
100
AcDbLine
 62
7
  6
CONTINUOUS
 10
4.8401398974
 20
5.5351198968
 11
5.0205946549
 21
5.5351198968
  0
LINE
  5
22D
100
AcDbEntity
  8
0
100
AcDbLine
 62
7
  6
CONTINUOUS
 10
5.4401398974
 20
5.5351198968
 11
5.6205946549
 21
5.5351198968
  0
LINE
  5
22E
100
AcDbEntity
  8
0
100
AcDbLine
 62
7
  6
CONTINUOUS
 10
6.0401398974
 20
5.5351198968
 11
6.2205946549
 21
5.5351198968
  0
LINE
  5
22F
100
AcDbEntity
  8
0
100
AcDbLine
 62
7
  6
CONTINUOUS
 10
6.6401398974
 20
5.5351198968
 11
6.8205946549
 21
5.5351198968
  0
LINE
  5
230
100
AcDbEntity
  8
0
100
AcDbLine
 62
7
  6
CONTINUOUS
 10
7.2401398974
 20
5.5351198968
 11
7.4205946549
 21
5.5351198968
  0
LINE
  5
231
100
AcDbEntity
  8
0
100
AcDbLine
 62
7
  6
CONTINUOUS
 10
7.8401398974
 20
5.5351198968
 11
7.9303672762
 21
5.5351198968
  0
LINE
  5
232
100
AcDbEntity
  8
0
100
AcDbLine
 62
7
  6
CONTINUOUS
 10
7.9303672762
 20
5.6551198968
 11
4.3303672762
 21
5.6551198968
  0
LINE
  5
233
100
AcDbEntity
  8
0
100
AcDbLine
 62
7
  6
CONTINUOUS
 10
6.2513906393
 20
5.5145426778
 11
6.2922142658
 21
5.4159857251
  0
LINE
  5
234
100
AcDbEntity
  8
0
100
AcDbLine
 62
7
  6
CONTINUOUS
 10
6.5685202865
 20
5.4159857251
 11
6.609343913
 21
5.5145426778
  0
LINE
  5
235
100
AcDbEntity
  8
0
100
AcDbLine
 62
7
  6
CONTINUOUS
 10
6.8513906393
 20
5.5145426778
 11
6.8922142658
 21
5.4159857251
  0
LINE
  5
236
100
AcDbEntity
  8
0
100
AcDbLine
 62
7
  6
CONTINUOUS
 10
7.1685202865
 20
5.4159857251
 11
7.209343913
 21
5.5145426778
  0
LINE
  5
237
100
AcDbEntity
  8
0
100
AcDbLine
 62
7
  6
CONTINUOUS
 10
7.4513906393
 20
5.5145426778
 11
7.4922142658
 21
5.4159857251
  0
LINE
  5
238
100
AcDbEntity
  8
0
100
AcDbLine
 62
7
  6
CONTINUOUS
 10
7.7685202865
 20
5.4159857251
 11
7.809343913
 21
5.5145426778
  0
LINE
  5
239
100
AcDbEntity
  8
0
100
AcDbLine
 62
7
  6
CONTINUOUS
 10
7.9303672762
 20
5.5351198968
 11
7.9303672762
 21
5.6551198968
  0
LINE
  5
23A
100
AcDbEntity
  8
0
100
AcDbLine
 62
7
  6
CONTINUOUS
 10
4.2708720839
 20
12.9750477814
 11
4.2708720839
 21
12.2250477814
  0
LINE
  5
23B
100
AcDbEntity
  8
0
100
AcDbLine
 62
7
  6
CONTINUOUS
 10
7.8708720839
 20
12.2250477814
 11
4.2708720839
 21
12.2250477814
  0
LINE
  5
23C
100
AcDbEntity
  8
0
100
AcDbLine
 62
7
  6
CONTINUOUS
 10
4.2708720839
 20
12.9750477814
 11
7.8708720839
 21
12.9750477814
  0
LINE
  5
23D
100
AcDbEntity
  8
0
100
AcDbLine
 62
7
  6
CONTINUOUS
 10
7.8708720839
 20
12.9750477814
 11
7.8708720839
 21
12.2250477814
  0
LINE
  5
23E
100
AcDbEntity
  8
0
100
AcDbLine
 62
7
  6
CONTINUOUS
 10
15.1853552569
 20
5.3256247044
 11
15.1853552569
 21
5.5956247044
  0
LINE
  5
23F
100
AcDbEntity
  8
0
100
AcDbLine
 62
7
  6
CONTINUOUS
 10
15.1853552569
 20
5.3256247044
 11
15.9353552569
 21
5.3256247044
  0
LINE
  5
240
100
AcDbEntity
  8
0
100
AcDbLine
 62
7
  6
CONTINUOUS
 10
15.9353552569
 20
5.4756247044
 11
15.1853552569
 21
5.4756247044
  0
LINE
  5
241
100
AcDbEntity
  8
0
100
AcDbLine
 62
7
  6
CONTINUOUS
 10
15.9353552569
 20
5.5956247044
 11
15.1853552569
 21
5.5956247044
  0
LINE
  5
242
100
AcDbEntity
  8
0
100
AcDbLine
 62
7
  6
CONTINUOUS
 10
15.9353552569
 20
5.3256247044
 11
15.9353552569
 21
5.5956247044
  0
LINE
  5
243
100
AcDbEntity
  8
0
100
AcDbLine
 62
7
  6
CONTINUOUS
 10
13.704125296
 20
12.3009747475
 11
13.74073032
 21
12.2263815513
  0
LINE
  5
244
100
AcDbEntity
  8
0
100
AcDbLine
 62
7
  6
CONTINUOUS
 10
13.8856750385
 20
12.8884699297
 11
13.704125296
 21
12.3009747475
  0
LINE
  5
245
100
AcDbEntity
  8
0
100
AcDbLine
 62
7
  6
CONTINUOUS
 10
14.1806368773
 20
12.1523265627
 11
14.1881739305
 21
12.2135905469
  0
LINE
  5
246
100
AcDbEntity
  8
0
100
AcDbLine
 62
7
  6
CONTINUOUS
 10
14.1881739305
 20
12.2135905469
 11
14.1885868401
 21
12.2155015202
  0
LINE
  5
247
100
AcDbEntity
  8
0
100
AcDbLine
 62
7
  6
CONTINUOUS
 10
13.8584771324
 20
12.2135905469
 11
13.9261421792
 21
12.1523265627
  0
LINE
  5
248
100
AcDbEntity
  8
0
100
AcDbLine
 62
7
  6
CONTINUOUS
 10
14.1800280397
 20
12.1494568545
 11
14.1806368773
 21
12.1523265627
  0
LINE
  5
249
100
AcDbEntity
  8
0
100
AcDbLine
 62
7
  6
CONTINUOUS
 10
14.1808863026
 20
12.1522494845
 11
14.2035778922
 21
12.2256794954
  0
LINE
  5
24A
100
AcDbEntity
  8
0
100
AcDbLine
 62
7
  6
CONTINUOUS
 10
14.4111137288
 20
12.2135905469
 11
14.4787787756
 21
12.1523265627
  0
LINE
  5
24B
100
AcDbEntity
  8
0
100
AcDbLine
 62
7
  6
CONTINUOUS
 10
14.7332734737
 20
12.1523265627
 11
14.7408105269
 21
12.2135905469
  0
LINE
  5
24C
100
AcDbEntity
  8
0
100
AcDbLine
 62
7
  6
CONTINUOUS
 10
14.7326646361
 20
12.1494568545
 11
14.7332734737
 21
12.1523265627
  0
LINE
  5
24D
100
AcDbEntity
  8
0
100
AcDbLine
 62
7
  6
CONTINUOUS
 10
14.7408105269
 20
12.2135905469
 11
14.7412234365
 21
12.2155015202
  0
LINE
  5
24E
100
AcDbEntity
  8
0
100
AcDbLine
 62
7
  6
CONTINUOUS
 10
14.733522899
 20
12.1522494845
 11
14.7562144886
 21
12.2256794954
  0
LINE
  5
24F
100
AcDbEntity
  8
0
100
AcDbLine
 62
7
  6
CONTINUOUS
 10
14.9637503252
 20
12.2135905469
 11
15.031415372
 21
12.1523265627
  0
LINE
  5
250
100
AcDbEntity
  8
0
100
AcDbLine
 62
7
  6
CONTINUOUS
 10
13.9781050192
 20
12.1331400561
 11
14.1475047772
 21
12.1331400561
  0
LINE
  5
251
100
AcDbEntity
  8
0
100
AcDbLine
 62
7
  6
CONTINUOUS
 10
14.5307416156
 20
12.1331400561
 11
14.7001413736
 21
12.1331400561
  0
LINE
  5
252
100
AcDbEntity
  8
0
100
AcDbLine
 62
7
  6
CONTINUOUS
 10
15.083378212
 20
12.1331400561
 11
15.25277797
 21
12.1331400561
  0
LINE
  5
253
100
AcDbEntity
  8
0
100
AcDbLine
 62
7
  6
CONTINUOUS
 10
15.6360148084
 20
12.1331400561
 11
15.8054145664
 21
12.1331400561
  0
LINE
  5
254
100
AcDbEntity
  8
0
100
AcDbLine
 62
7
  6
CONTINUOUS
 10
16.1886514048
 20
12.1331400561
 11
16.3580511628
 21
12.1331400561
  0
LINE
  5
255
100
AcDbEntity
  8
0
100
AcDbLine
 62
7
  6
CONTINUOUS
 10
16.7412880012
 20
12.1331400561
 11
16.9106877592
 21
12.1331400561
  0
LINE
  5
256
100
AcDbEntity
  8
0
100
AcDbLine
 62
7
  6
CONTINUOUS
 10
13.74073032
 20
12.2263815513
 11
13.8238352391
 21
12.2263815513
  0
LINE
  5
257
100
AcDbEntity
  8
0
100
AcDbLine
 62
7
  6
CONTINUOUS
 10
14.2102619972
 20
12.2263815513
 11
14.3764718355
 21
12.2263815513
  0
LINE
  5
258
100
AcDbEntity
  8
0
100
AcDbLine
 62
7
  6
CONTINUOUS
 10
14.7628985936
 20
12.2263815513
 11
14.9291084319
 21
12.2263815513
  0
LINE
  5
259
100
AcDbEntity
  8
0
100
AcDbLine
 62
7
  6
CONTINUOUS
 10
15.31553519
 20
12.2263815513
 11
15.4817450283
 21
12.2263815513
  0
LINE
  5
25A
100
AcDbEntity
  8
0
100
AcDbLine
 62
7
  6
CONTINUOUS
 10
15.8681717865
 20
12.2263815513
 11
16.0343816247
 21
12.2263815513
  0
LINE
  5
25B
100
AcDbEntity
  8
0
100
AcDbLine
 62
7
  6
CONTINUOUS
 10
16.4208083829
 20
12.2263815513
 11
16.5870182211
 21
12.2263815513
  0
LINE
  5
25C
100
AcDbEntity
  8
0
100
AcDbLine
 62
7
  6
CONTINUOUS
 10
16.9734449793
 20
12.2263815513
 11
17.0565498984
 21
12.2263815513
  0
LINE
  5
25D
100
AcDbEntity
  8
0
100
AcDbLine
 62
7
  6
CONTINUOUS
 10
15.2859100701
 20
12.1523265627
 11
15.2934471233
 21
12.2135905469
  0
LINE
  5
25E
100
AcDbEntity
  8
0
100
AcDbLine
 62
7
  6
CONTINUOUS
 10
15.2853012325
 20
12.1494568545
 11
15.2859100701
 21
12.1523265627
  0
LINE
  5
25F
100
AcDbEntity
  8
0
100
AcDbLine
 62
7
  6
CONTINUOUS
 10
15.2934471233
 20
12.2135905469
 11
15.2938600329
 21
12.2155015202
  0
LINE
  5
260
100
AcDbEntity
  8
0
100
AcDbLine
 62
7
  6
CONTINUOUS
 10
17.0199448744
 20
12.3009747475
 11
13.704125296
 21
12.3009747475
  0
LINE
  5
261
100
AcDbEntity
  8
0
100
AcDbLine
 62
7
  6
CONTINUOUS
 10
15.5163869216
 20
12.2135905469
 11
15.5840519684
 21
12.1523265627
  0
LINE
  5
262
100
AcDbEntity
  8
0
100
AcDbLine
 62
7
  6
CONTINUOUS
 10
15.2861594954
 20
12.1522494845
 11
15.308851085
 21
12.2256794954
  0
LINE
  5
263
100
AcDbEntity
  8
0
100
AcDbLine
 62
7
  6
CONTINUOUS
 10
16.069023518
 20
12.2135905469
 11
16.1366885648
 21
12.1523265627
  0
LINE
  5
264
100
AcDbEntity
  8
0
100
AcDbLine
 62
7
  6
CONTINUOUS
 10
15.8385466665
 20
12.1523265627
 11
15.8460837197
 21
12.2135905469
  0
LINE
  5
265
100
AcDbEntity
  8
0
100
AcDbLine
 62
7
  6
CONTINUOUS
 10
15.8379378289
 20
12.1494568545
 11
15.8385466665
 21
12.1523265627
  0
LINE
  5
266
100
AcDbEntity
  8
0
100
AcDbLine
 62
7
  6
CONTINUOUS
 10
15.8460837197
 20
12.2135905469
 11
15.8464966293
 21
12.2155015202
  0
LINE
  5
267
100
AcDbEntity
  8
0
100
AcDbLine
 62
7
  6
CONTINUOUS
 10
15.8387960918
 20
12.1522494845
 11
15.8614876814
 21
12.2256794954
  0
LINE
  5
268
100
AcDbEntity
  8
0
100
AcDbLine
 62
7
  6
CONTINUOUS
 10
13.8856750385
 20
12.8884699297
 11
17.201494617
 21
12.8884699297
  0
LINE
  5
269
100
AcDbEntity
  8
0
100
AcDbLine
 62
7
  6
CONTINUOUS
 10
16.6216601144
 20
12.2135905469
 11
16.6893251612
 21
12.1523265627
  0
LINE
  5
26A
100
AcDbEntity
  8
0
100
AcDbLine
 62
7
  6
CONTINUOUS
 10
16.3911832629
 20
12.1523265627
 11
16.3987203161
 21
12.2135905469
  0
LINE
  5
26B
100
AcDbEntity
  8
0
100
AcDbLine
 62
7
  6
CONTINUOUS
 10
16.3905744253
 20
12.1494568545
 11
16.3911832629
 21
12.1523265627
  0
LINE
  5
26C
100
AcDbEntity
  8
0
100
AcDbLine
 62
7
  6
CONTINUOUS
 10
16.3987203161
 20
12.2135905469
 11
16.3991332257
 21
12.2155015202
  0
LINE
  5
26D
100
AcDbEntity
  8
0
100
AcDbLine
 62
7
  6
CONTINUOUS
 10
16.3914326882
 20
12.1522494845
 11
16.4141242778
 21
12.2256794954
  0
LINE
  5
26E
100
AcDbEntity
  8
0
100
AcDbLine
 62
7
  6
CONTINUOUS
 10
17.0565498984
 20
12.2263815513
 11
17.0199448744
 21
12.3009747475
  0
LINE
  5
26F
100
AcDbEntity
  8
0
100
AcDbLine
 62
7
  6
CONTINUOUS
 10
16.9438198593
 20
12.1523265627
 11
16.9513569125
 21
12.2135905469
  0
LINE
  5
270
100
AcDbEntity
  8
0
100
AcDbLine
 62
7
  6
CONTINUOUS
 10
16.9432110217
 20
12.1494568545
 11
16.9438198593
 21
12.1523265627
  0
LINE
  5
271
100
AcDbEntity
  8
0
100
AcDbLine
 62
7
  6
CONTINUOUS
 10
16.9513569125
 20
12.2135905469
 11
16.9517698221
 21
12.2155015202
  0
LINE
  5
272
100
AcDbEntity
  8
0
100
AcDbLine
 62
7
  6
CONTINUOUS
 10
16.9440692846
 20
12.1522494845
 11
16.9667608742
 21
12.2256794954
  0
LINE
  5
273
100
AcDbEntity
  8
0
100
AcDbLine
 62
7
  6
CONTINUOUS
 10
17.201494617
 20
12.8884699297
 11
17.0199448744
 21
12.3009747475
  0
LINE
  5
274
100
AcDbEntity
  8
0
100
AcDbLine
 62
7
  6
CONTINUOUS
 10
17.238099641
 20
12.8138767335
 11
17.0565498984
 21
12.2263815513
  0
LINE
  5
275
100
AcDbEntity
  8
0
100
AcDbLine
 62
7
  6
CONTINUOUS
 10
17.238099641
 20
12.8138767335
 11
17.201494617
 21
12.8884699297
  0
ARC
  5
276
100
AcDbEntity
  8
0
100
AcDbCircle
 62
7
  6
CONTINUOUS
 10
5.1384082424
 20
5.4351198968
 40
0.05
100
AcDbArc
 50
202.5
 51
270.0
  0
ARC
  5
277
100
AcDbEntity
  8
0
100
AcDbCircle
 62
7
  6
CONTINUOUS
 10
5.3223263099
 20
5.4351198968
 40
0.05
100
AcDbArc
 50
270.0
 51
337.5
  0
ARC
  5
278
100
AcDbEntity
  8
0
100
AcDbCircle
 62
7
  6
CONTINUOUS
 10
5.7384082424
 20
5.4351198968
 40
0.05
100
AcDbArc
 50
202.5
 51
270.0
  0
ARC
  5
279
100
AcDbEntity
  8
0
100
AcDbCircle
 62
7
  6
CONTINUOUS
 10
5.9223263099
 20
5.4351198968
 40
0.05
100
AcDbArc
 50
270.0
 51
337.5
  0
ARC
  5
27A
100
AcDbEntity
  8
0
100
AcDbCircle
 62
7
  6
CONTINUOUS
 10
6.3384082424
 20
5.4351198968
 40
0.05
100
AcDbArc
 50
202.5
 51
270.0
  0
ARC
  5
27B
100
AcDbEntity
  8
0
100
AcDbCircle
 62
7
  6
CONTINUOUS
 10
6.5223263099
 20
5.4351198968
 40
0.05
100
AcDbArc
 50
270.0
 51
337.5
  0
ARC
  5
27C
100
AcDbEntity
  8
0
100
AcDbCircle
 62
7
  6
CONTINUOUS
 10
4.7223263099
 20
5.4351198968
 40
0.05
100
AcDbArc
 50
270.0
 51
337.5
  0
ARC
  5
27D
100
AcDbEntity
  8
0
100
AcDbCircle
 62
7
  6
CONTINUOUS
 10
4.5384082424
 20
5.4351198968
 40
0.05
100
AcDbArc
 50
202.5
 51
270.0
  0
ARC
  5
27E
100
AcDbEntity
  8
0
100
AcDbCircle
 62
7
  6
CONTINUOUS
 10
7.7223263099
 20
5.4351198968
 40
0.05
100
AcDbArc
 50
270.0
 51
337.5
  0
ARC
  5
27F
100
AcDbEntity
  8
0
100
AcDbCircle
 62
7
  6
CONTINUOUS
 10
7.5384082424
 20
5.4351198968
 40
0.05
100
AcDbArc
 50
202.5
 51
270.0
  0
ARC
  5
280
100
AcDbEntity
  8
0
100
AcDbCircle
 62
7
  6
CONTINUOUS
 10
7.1223263099
 20
5.4351198968
 40
0.05
100
AcDbArc
 50
270.0
 51
337.5
  0
ARC
  5
281
100
AcDbEntity
  8
0
100
AcDbCircle
 62
7
  6
CONTINUOUS
 10
6.9384082424
 20
5.4351198968
 40
0.05
100
AcDbArc
 50
202.5
 51
270.0
  0
ARC
  5
282
100
AcDbEntity
  8
0
100
AcDbCircle
 62
7
  6
CONTINUOUS
 10
4.8401398974
 20
5.5017865634
 40
0.0333333333
100
AcDbArc
 50
90.0
 51
157.5
  0
ARC
  5
283
100
AcDbEntity
  8
0
100
AcDbCircle
 62
7
  6
CONTINUOUS
 10
4.4205946549
 20
5.5017865634
 40
0.0333333333
100
AcDbArc
 50
22.5
 51
90.0
  0
ARC
  5
284
100
AcDbEntity
  8
0
100
AcDbCircle
 62
7
  6
CONTINUOUS
 10
5.4401398974
 20
5.5017865634
 40
0.0333333333
100
AcDbArc
 50
90.0
 51
157.5
  0
ARC
  5
285
100
AcDbEntity
  8
0
100
AcDbCircle
 62
7
  6
CONTINUOUS
 10
5.0205946549
 20
5.5017865634
 40
0.0333333333
100
AcDbArc
 50
22.5
 51
90.0
  0
ARC
  5
286
100
AcDbEntity
  8
0
100
AcDbCircle
 62
7
  6
CONTINUOUS
 10
6.0401398974
 20
5.5017865634
 40
0.0333333333
100
AcDbArc
 50
90.0
 51
157.5
  0
ARC
  5
287
100
AcDbEntity
  8
0
100
AcDbCircle
 62
7
  6
CONTINUOUS
 10
5.6205946549
 20
5.5017865634
 40
0.0333333333
100
AcDbArc
 50
22.5
 51
90.0
  0
ARC
  5
288
100
AcDbEntity
  8
0
100
AcDbCircle
 62
7
  6
CONTINUOUS
 10
6.6401398974
 20
5.5017865634
 40
0.0333333333
100
AcDbArc
 50
90.0
 51
157.5
  0
ARC
  5
289
100
AcDbEntity
  8
0
100
AcDbCircle
 62
7
  6
CONTINUOUS
 10
6.2205946549
 20
5.5017865634
 40
0.0333333333
100
AcDbArc
 50
22.5
 51
90.0
  0
ARC
  5
28A
100
AcDbEntity
  8
0
100
AcDbCircle
 62
7
  6
CONTINUOUS
 10
7.2401398974
 20
5.5017865634
 40
0.0333333333
100
AcDbArc
 50
90.0
 51
157.5
  0
ARC
  5
28B
100
AcDbEntity
  8
0
100
AcDbCircle
 62
7
  6
CONTINUOUS
 10
6.8205946549
 20
5.5017865634
 40
0.0333333333
100
AcDbArc
 50
22.5
 51
90.0
  0
ARC
  5
28C
100
AcDbEntity
  8
0
100
AcDbCircle
 62
7
  6
CONTINUOUS
 10
7.8401398974
 20
5.5017865634
 40
0.0333333333
100
AcDbArc
 50
90.0
 51
157.5
  0
ARC
  5
28D
100
AcDbEntity
  8
0
100
AcDbCircle
 62
7
  6
CONTINUOUS
 10
7.4205946549
 20
5.5017865634
 40
0.0333333333
100
AcDbArc
 50
22.5
 51
90.0
  0
SPLINE
  5
28E
100
AcDbEntity
  8
0
100
AcDbSpline
 62
7
  6
CONTINUOUS
 70
0
 71
3
 72
9
 73
5
 74
0
 42
0.0000001
 43
0.0000001
 44
0.0000000001
 40
0.0
 40
0.0
 40
0.0
 40
0.0
 40
0.4953333078
 40
1.0
 40
1.0
 40
1.0
 40
1.0
 10
14.1885837429
 20
12.215502478
 30
0.0
 10
14.1887641704
 20
12.2160851702
 30
0.0
 10
14.1892277829
 20
12.2172329387
 30
0.0
 10
14.1898727872
 20
12.2182889467
 30
0.0
 10
14.190236811
 20
12.2187926581
 30
0.0
  0
SPLINE
  5
28F
100
AcDbEntity
  8
0
100
AcDbSpline
 62
7
  6
CONTINUOUS
 70
0
 71
3
 72
15
 73
11
 74
0
 42
0.0000001
 43
0.0000001
 44
0.0000000001
 40
0.0
 40
0.0
 40
0.0
 40
0.0
 40
0.1008385372
 40
0.2072291337
 40
0.3204311686
 40
0.4412224742
 40
0.5698936493
 40
0.7064072393
 40
0.8501347407
 40
1.0
 40
1.0
 40
1.0
 40
1.0
 10
14.190236811
 20
12.2187926581
 30
0.0
 10
14.1906732031
 20
12.2193965079
 30
0.0
 10
14.1916872463
 20
12.2205557879
 30
0.0
 10
14.1935220225
 20
12.2220656829
 30
0.0
 10
14.1956809601
 20
12.223370874
 30
0.0
 10
14.1981374495
 20
12.2244566572
 30
0.0
 10
14.2008626332
 20
12.2253143747
 30
0.0
 10
14.2038248533
 20
12.2259307953
 30
0.0
 10
14.2069845123
 20
12.2263014915
 30
0.0
 10
14.209154738
 20
12.2263815513
 30
0.0
 10
14.2102619972
 20
12.2263815513
 30
0.0
  0
SPLINE
  5
290
100
AcDbEntity
  8
0
100
AcDbSpline
 62
7
  6
CONTINUOUS
 70
0
 71
3
 72
9
 73
5
 74
0
 42
0.0000001
 43
0.0000001
 44
0.0000000001
 40
0.0
 40
0.0
 40
0.0
 40
0.0
 40
0.4953333078
 40
1.0
 40
1.0
 40
1.0
 40
1.0
 10
14.7412203393
 20
12.215502478
 30
0.0
 10
14.7414007668
 20
12.2160851702
 30
0.0
 10
14.7418643793
 20
12.2172329387
 30
0.0
 10
14.7425093836
 20
12.2182889467
 30
0.0
 10
14.7428734074
 20
12.2187926581
 30
0.0
  0
SPLINE
  5
291
100
AcDbEntity
  8
0
100
AcDbSpline
 62
7
  6
CONTINUOUS
 70
0
 71
3
 72
15
 73
11
 74
0
 42
0.0000001
 43
0.0000001
 44
0.0000000001
 40
0.0
 40
0.0
 40
0.0
 40
0.0
 40
0.1008385372
 40
0.2072291337
 40
0.3204311686
 40
0.4412224742
 40
0.5698936492
 40
0.7064072393
 40
0.8501347407
 40
1.0
 40
1.0
 40
1.0
 40
1.0
 10
14.7428734074
 20
12.2187926581
 30
0.0
 10
14.7433097995
 20
12.2193965079
 30
0.0
 10
14.7443238427
 20
12.2205557879
 30
0.0
 10
14.7461586189
 20
12.2220656829
 30
0.0
 10
14.7483175565
 20
12.223370874
 30
0.0
 10
14.7507740459
 20
12.2244566572
 30
0.0
 10
14.7534992296
 20
12.2253143747
 30
0.0
 10
14.7564614497
 20
12.2259307953
 30
0.0
 10
14.7596211087
 20
12.2263014915
 30
0.0
 10
14.7617913344
 20
12.2263815513
 30
0.0
 10
14.7628985936
 20
12.2263815513
 30
0.0
  0
SPLINE
  5
292
100
AcDbEntity
  8
0
100
AcDbSpline
 62
7
  6
CONTINUOUS
 70
0
 71
3
 72
9
 73
5
 74
0
 42
0.0000001
 43
0.0000001
 44
0.0000000001
 40
0.0
 40
0.0
 40
0.0
 40
0.0
 40
0.4953333078
 40
1.0
 40
1.0
 40
1.0
 40
1.0
 10
15.2938569357
 20
12.215502478
 30
0.0
 10
15.2940373632
 20
12.2160851702
 30
0.0
 10
15.2945009757
 20
12.2172329387
 30
0.0
 10
15.29514598
 20
12.2182889467
 30
0.0
 10
15.2955100038
 20
12.2187926581
 30
0.0
  0
SPLINE
  5
293
100
AcDbEntity
  8
0
100
AcDbSpline
 62
7
  6
CONTINUOUS
 70
0
 71
3
 72
15
 73
11
 74
0
 42
0.0000001
 43
0.0000001
 44
0.0000000001
 40
0.0
 40
0.0
 40
0.0
 40
0.0
 40
0.1008385372
 40
0.2072291337
 40
0.3204311686
 40
0.4412224742
 40
0.5698936493
 40
0.7064072393
 40
0.8501347407
 40
1.0
 40
1.0
 40
1.0
 40
1.0
 10
15.2955100038
 20
12.2187926581
 30
0.0
 10
15.2959463959
 20
12.2193965079
 30
0.0
 10
15.2969604391
 20
12.2205557879
 30
0.0
 10
15.2987952153
 20
12.2220656829
 30
0.0
 10
15.3009541529
 20
12.223370874
 30
0.0
 10
15.3034106423
 20
12.2244566572
 30
0.0
 10
15.306135826
 20
12.2253143747
 30
0.0
 10
15.3090980461
 20
12.2259307953
 30
0.0
 10
15.3122577051
 20
12.2263014915
 30
0.0
 10
15.3144279308
 20
12.2263815513
 30
0.0
 10
15.31553519
 20
12.2263815513
 30
0.0
  0
SPLINE
  5
294
100
AcDbEntity
  8
0
100
AcDbSpline
 62
7
  6
CONTINUOUS
 70
0
 71
3
 72
9
 73
5
 74
0
 42
0.0000001
 43
0.0000001
 44
0.0000000001
 40
0.0
 40
0.0
 40
0.0
 40
0.0
 40
0.4953333078
 40
1.0
 40
1.0
 40
1.0
 40
1.0
 10
15.8464935321
 20
12.215502478
 30
0.0
 10
15.8466739596
 20
12.2160851702
 30
0.0
 10
15.8471375721
 20
12.2172329387
 30
0.0
 10
15.8477825764
 20
12.2182889467
 30
0.0
 10
15.8481466002
 20
12.2187926581
 30
0.0
  0
SPLINE
  5
295
100
AcDbEntity
  8
0
100
AcDbSpline
 62
7
  6
CONTINUOUS
 70
0
 71
3
 72
15
 73
11
 74
0
 42
0.0000001
 43
0.0000001
 44
0.0000000001
 40
0.0
 40
0.0
 40
0.0
 40
0.0
 40
0.1008385372
 40
0.2072291337
 40
0.3204311686
 40
0.4412224742
 40
0.5698936493
 40
0.7064072393
 40
0.8501347407
 40
1.0
 40
1.0
 40
1.0
 40
1.0
 10
15.8481466002
 20
12.2187926581
 30
0.0
 10
15.8485829923
 20
12.2193965079
 30
0.0
 10
15.8495970355
 20
12.2205557879
 30
0.0
 10
15.8514318117
 20
12.2220656829
 30
0.0
 10
15.8535907493
 20
12.223370874
 30
0.0
 10
15.8560472387
 20
12.2244566572
 30
0.0
 10
15.8587724224
 20
12.2253143747
 30
0.0
 10
15.8617346425
 20
12.2259307953
 30
0.0
 10
15.8648943015
 20
12.2263014915
 30
0.0
 10
15.8670645272
 20
12.2263815513
 30
0.0
 10
15.8681717865
 20
12.2263815513
 30
0.0
  0
SPLINE
  5
296
100
AcDbEntity
  8
0
100
AcDbSpline
 62
7
  6
CONTINUOUS
 70
0
 71
3
 72
9
 73
5
 74
0
 42
0.0000001
 43
0.0000001
 44
0.0000000001
 40
0.0
 40
0.0
 40
0.0
 40
0.0
 40
0.4953333078
 40
1.0
 40
1.0
 40
1.0
 40
1.0
 10
16.3991301285
 20
12.215502478
 30
0.0
 10
16.399310556
 20
12.2160851702
 30
0.0
 10
16.3997741685
 20
12.2172329387
 30
0.0
 10
16.4004191728
 20
12.2182889467
 30
0.0
 10
16.4007831966
 20
12.2187926581
 30
0.0
  0
SPLINE
  5
297
100
AcDbEntity
  8
0
100
AcDbSpline
 62
7
  6
CONTINUOUS
 70
0
 71
3
 72
15
 73
11
 74
0
 42
0.0000001
 43
0.0000001
 44
0.0000000001
 40
0.0
 40
0.0
 40
0.0
 40
0.0
 40
0.1008385372
 40
0.2072291337
 40
0.3204311686
 40
0.4412224742
 40
0.5698936492
 40
0.7064072393
 40
0.8501347407
 40
1.0
 40
1.0
 40
1.0
 40
1.0
 10
16.4007831966
 20
12.2187926581
 30
0.0
 10
16.4012195887
 20
12.2193965079
 30
0.0
 10
16.4022336319
 20
12.2205557879
 30
0.0
 10
16.4040684081
 20
12.2220656829
 30
0.0
 10
16.4062273457
 20
12.223370874
 30
0.0
 10
16.4086838351
 20
12.2244566572
 30
0.0
 10
16.4114090188
 20
12.2253143747
 30
0.0
 10
16.4143712389
 20
12.2259307953
 30
0.0
 10
16.4175308979
 20
12.2263014915
 30
0.0
 10
16.4197011236
 20
12.2263815513
 30
0.0
 10
16.4208083829
 20
12.2263815513
 30
0.0
  0
SPLINE
  5
298
100
AcDbEntity
  8
0
100
AcDbSpline
 62
7
  6
CONTINUOUS
 70
0
 71
3
 72
9
 73
5
 74
0
 42
0.0000001
 43
0.0000001
 44
0.0000000001
 40
0.0
 40
0.0
 40
0.0
 40
0.0
 40
0.4953333078
 40
1.0
 40
1.0
 40
1.0
 40
1.0
 10
16.9517667249
 20
12.215502478
 30
0.0
 10
16.9519471524
 20
12.2160851702
 30
0.0
 10
16.9524107649
 20
12.2172329387
 30
0.0
 10
16.9530557692
 20
12.2182889467
 30
0.0
 10
16.953419793
 20
12.2187926581
 30
0.0
  0
SPLINE
  5
299
100
AcDbEntity
  8
0
100
AcDbSpline
 62
7
  6
CONTINUOUS
 70
0
 71
3
 72
15
 73
11
 74
0
 42
0.0000001
 43
0.0000001
 44
0.0000000001
 40
0.0
 40
0.0
 40
0.0
 40
0.0
 40
0.1008385372
 40
0.2072291337
 40
0.3204311686
 40
0.4412224742
 40
0.5698936492
 40
0.7064072393
 40
0.8501347407
 40
1.0
 40
1.0
 40
1.0
 40
1.0
 10
16.953419793
 20
12.2187926581
 30
0.0
 10
16.9538561851
 20
12.2193965079
 30
0.0
 10
16.9548702283
 20
12.2205557879
 30
0.0
 10
16.9567050045
 20
12.2220656829
 30
0.0
 10
16.9588639421
 20
12.223370874
 30
0.0
 10
16.9613204315
 20
12.2244566572
 30
0.0
 10
16.9640456152
 20
12.2253143747
 30
0.0
 10
16.9670078353
 20
12.2259307953
 30
0.0
 10
16.9701674944
 20
12.2263014915
 30
0.0
 10
16.97233772
 20
12.2263815513
 30
0.0
 10
16.9734449793
 20
12.2263815513
 30
0.0
  0
SPLINE
  5
29A
100
AcDbEntity
  8
0
100
AcDbSpline
 62
7
  6
CONTINUOUS
 70
0
 71
3
 72
20
 73
16
 74
0
 42
0.0000001
 43
0.0000001
 44
0.0000000001
 40
0.0
 40
0.0
 40
0.0
 40
0.0
 40
0.1556555792
 40
0.3030290429
 40
0.3731921759
 40
0.4408922383
 40
0.5687572427
 40
0.6290753161
 40
0.687081986
 40
0.7429309188
 40
0.7968520335
 40
0.8491468086
 40
0.9001682333
 40
0.9503158315
 40
1.0
 40
1.0
 40
1.0
 40
1.0
 10
14.1475047772
 20
12.1331400561
 30
0.0
 10
14.1495178277
 20
12.1331400561
 30
0.0
 10
14.1534394666
 20
12.1333139207
 30
0.0
 10
14.1582259386
 20
12.1340048939
 30
0.0
 10
14.1618199805
 20
12.134845773
 30
0.0
 10
14.1651138969
 20
12.1358302184
 30
0.0
 10
14.1681916127
 20
12.1370819976
 30
0.0
 10
14.170984447
 20
12.1386168183
 30
0.0
 10
14.1728651751
 20
12.1398616293
 30
0.0
 10
14.1745629879
 20
12.1412177086
 30
0.0
 10
14.1760698369
 20
12.1426795206
 30
0.0
 10
14.1773792119
 20
12.1442402861
 30
0.0
 10
14.1784845882
 20
12.1458937241
 30
0.0
 10
14.1793788412
 20
12.1476323077
 30
0.0
 10
14.1798331279
 20
12.1488445546
 30
0.0
 10
14.1800229433
 20
12.1494584297
 30
0.0
  0
SPLINE
  5
29B
100
AcDbEntity
  8
0
100
AcDbSpline
 62
7
  6
CONTINUOUS
 70
0
 71
3
 72
15
 73
11
 74
0
 42
0.0000001
 43
0.0000001
 44
0.0000000001
 40
0.0
 40
0.0
 40
0.0
 40
0.0
 40
0.1148729756
 40
0.236078076
 40
0.3619574101
 40
0.4908828192
 40
0.6210130149
 40
0.7504589434
 40
0.8774378066
 40
1.0
 40
1.0
 40
1.0
 40
1.0
 10
13.9261421792
 20
12.1523265627
 30
0.0
 10
13.9277465354
 20
12.1508739774
 30
0.0
 10
13.9312224545
 20
12.14808239
 30
0.0
 10
13.936951251
 20
12.1443650329
 30
0.0
 10
13.9432344866
 20
12.1410719512
 30
0.0
 10
13.9499348944
 20
12.1382741941
 30
0.0
 10
13.9569103327
 20
12.1360284496
 30
0.0
 10
13.9640143547
 20
12.1343844451
 30
0.0
 10
13.9710921121
 20
12.1333786516
 30
0.0
 10
13.9757959052
 20
12.1331400561
 30
0.0
 10
13.9781050192
 20
12.1331400561
 30
0.0
  0
SPLINE
  5
29C
100
AcDbEntity
  8
0
100
AcDbSpline
 62
7
  6
CONTINUOUS
 70
0
 71
3
 72
20
 73
16
 74
0
 42
0.0000001
 43
0.0000001
 44
0.0000000001
 40
0.0
 40
0.0
 40
0.0
 40
0.0
 40
0.1556555792
 40
0.3030290429
 40
0.3731921759
 40
0.4408922383
 40
0.5687572427
 40
0.6290753161
 40
0.687081986
 40
0.7429309188
 40
0.7968520335
 40
0.8491468086
 40
0.9001682333
 40
0.9503158315
 40
1.0
 40
1.0
 40
1.0
 40
1.0
 10
16.9106877592
 20
12.1331400561
 30
0.0
 10
16.9127008097
 20
12.1331400561
 30
0.0
 10
16.9166224486
 20
12.1333139207
 30
0.0
 10
16.9214089206
 20
12.1340048939
 30
0.0
 10
16.9250029626
 20
12.134845773
 30
0.0
 10
16.9282968789
 20
12.1358302184
 30
0.0
 10
16.9313745947
 20
12.1370819976
 30
0.0
 10
16.934167429
 20
12.1386168183
 30
0.0
 10
16.9360481571
 20
12.1398616293
 30
0.0
 10
16.9377459699
 20
12.1412177086
 30
0.0
 10
16.9392528189
 20
12.1426795206
 30
0.0
 10
16.9405621939
 20
12.1442402861
 30
0.0
 10
16.9416675702
 20
12.1458937241
 30
0.0
 10
16.9425618232
 20
12.1476323077
 30
0.0
 10
16.9430161099
 20
12.1488445546
 30
0.0
 10
16.9432059253
 20
12.1494584297
 30
0.0
  0
SPLINE
  5
29D
100
AcDbEntity
  8
0
100
AcDbSpline
 62
7
  6
CONTINUOUS
 70
0
 71
3
 72
15
 73
11
 74
0
 42
0.0000001
 43
0.0000001
 44
0.0000000001
 40
0.0
 40
0.0
 40
0.0
 40
0.0
 40
0.1148729756
 40
0.236078076
 40
0.3619574101
 40
0.4908828192
 40
0.6210130149
 40
0.7504589434
 40
0.8774378066
 40
1.0
 40
1.0
 40
1.0
 40
1.0
 10
16.6893251612
 20
12.1523265627
 30
0.0
 10
16.6909295174
 20
12.1508739774
 30
0.0
 10
16.6944054365
 20
12.14808239
 30
0.0
 10
16.700134233
 20
12.1443650329
 30
0.0
 10
16.7064174686
 20
12.1410719512
 30
0.0
 10
16.7131178764
 20
12.1382741941
 30
0.0
 10
16.7200933147
 20
12.1360284496
 30
0.0
 10
16.7271973367
 20
12.1343844451
 30
0.0
 10
16.7342750941
 20
12.1333786516
 30
0.0
 10
16.7389788872
 20
12.1331400561
 30
0.0
 10
16.7412880012
 20
12.1331400561
 30
0.0
  0
SPLINE
  5
29E
100
AcDbEntity
  8
0
100
AcDbSpline
 62
7
  6
CONTINUOUS
 70
0
 71
3
 72
20
 73
16
 74
0
 42
0.0000001
 43
0.0000001
 44
0.0000000001
 40
0.0
 40
0.0
 40
0.0
 40
0.0
 40
0.1556555792
 40
0.3030290429
 40
0.3731921759
 40
0.4408922383
 40
0.5687572427
 40
0.6290753161
 40
0.687081986
 40
0.7429309188
 40
0.7968520335
 40
0.8491468086
 40
0.9001682333
 40
0.9503158315
 40
1.0
 40
1.0
 40
1.0
 40
1.0
 10
16.3580511628
 20
12.1331400561
 30
0.0
 10
16.3600642133
 20
12.1331400561
 30
0.0
 10
16.3639858522
 20
12.1333139207
 30
0.0
 10
16.3687723242
 20
12.1340048939
 30
0.0
 10
16.3723663661
 20
12.134845773
 30
0.0
 10
16.3756602825
 20
12.1358302184
 30
0.0
 10
16.3787379983
 20
12.1370819976
 30
0.0
 10
16.3815308326
 20
12.1386168183
 30
0.0
 10
16.3834115607
 20
12.1398616293
 30
0.0
 10
16.3851093735
 20
12.1412177086
 30
0.0
 10
16.3866162225
 20
12.1426795206
 30
0.0
 10
16.3879255975
 20
12.1442402861
 30
0.0
 10
16.3890309738
 20
12.1458937241
 30
0.0
 10
16.3899252268
 20
12.1476323077
 30
0.0
 10
16.3903795135
 20
12.1488445546
 30
0.0
 10
16.3905693289
 20
12.1494584297
 30
0.0
  0
SPLINE
  5
29F
100
AcDbEntity
  8
0
100
AcDbSpline
 62
7
  6
CONTINUOUS
 70
0
 71
3
 72
15
 73
11
 74
0
 42
0.0000001
 43
0.0000001
 44
0.0000000001
 40
0.0
 40
0.0
 40
0.0
 40
0.0
 40
0.1148729756
 40
0.236078076
 40
0.3619574101
 40
0.4908828192
 40
0.6210130149
 40
0.7504589434
 40
0.8774378066
 40
1.0
 40
1.0
 40
1.0
 40
1.0
 10
16.1366885648
 20
12.1523265627
 30
0.0
 10
16.138292921
 20
12.1508739774
 30
0.0
 10
16.1417688401
 20
12.14808239
 30
0.0
 10
16.1474976366
 20
12.1443650329
 30
0.0
 10
16.1537808722
 20
12.1410719512
 30
0.0
 10
16.16048128
 20
12.1382741941
 30
0.0
 10
16.1674567183
 20
12.1360284496
 30
0.0
 10
16.1745607403
 20
12.1343844451
 30
0.0
 10
16.1816384977
 20
12.1333786516
 30
0.0
 10
16.1863422908
 20
12.1331400561
 30
0.0
 10
16.1886514048
 20
12.1331400561
 30
0.0
  0
SPLINE
  5
2A0
100
AcDbEntity
  8
0
100
AcDbSpline
 62
7
  6
CONTINUOUS
 70
0
 71
3
 72
20
 73
16
 74
0
 42
0.0000001
 43
0.0000001
 44
0.0000000001
 40
0.0
 40
0.0
 40
0.0
 40
0.0
 40
0.1556555792
 40
0.3030290429
 40
0.3731921759
 40
0.4408922383
 40
0.5687572427
 40
0.6290753161
 40
0.687081986
 40
0.7429309188
 40
0.7968520335
 40
0.8491468086
 40
0.9001682333
 40
0.9503158315
 40
1.0
 40
1.0
 40
1.0
 40
1.0
 10
15.8054145664
 20
12.1331400561
 30
0.0
 10
15.8074276169
 20
12.1331400561
 30
0.0
 10
15.8113492558
 20
12.1333139207
 30
0.0
 10
15.8161357278
 20
12.1340048939
 30
0.0
 10
15.8197297697
 20
12.134845773
 30
0.0
 10
15.8230236861
 20
12.1358302184
 30
0.0
 10
15.8261014019
 20
12.1370819976
 30
0.0
 10
15.8288942362
 20
12.1386168183
 30
0.0
 10
15.8307749643
 20
12.1398616293
 30
0.0
 10
15.8324727771
 20
12.1412177086
 30
0.0
 10
15.8339796261
 20
12.1426795206
 30
0.0
 10
15.8352890011
 20
12.1442402861
 30
0.0
 10
15.8363943774
 20
12.1458937241
 30
0.0
 10
15.8372886304
 20
12.1476323077
 30
0.0
 10
15.8377429171
 20
12.1488445546
 30
0.0
 10
15.8379327325
 20
12.1494584297
 30
0.0
  0
SPLINE
  5
2A1
100
AcDbEntity
  8
0
100
AcDbSpline
 62
7
  6
CONTINUOUS
 70
0
 71
3
 72
15
 73
11
 74
0
 42
0.0000001
 43
0.0000001
 44
0.0000000001
 40
0.0
 40
0.0
 40
0.0
 40
0.0
 40
0.1148729756
 40
0.236078076
 40
0.3619574101
 40
0.4908828192
 40
0.6210130149
 40
0.7504589434
 40
0.8774378066
 40
1.0
 40
1.0
 40
1.0
 40
1.0
 10
15.5840519684
 20
12.1523265627
 30
0.0
 10
15.5856563246
 20
12.1508739774
 30
0.0
 10
15.5891322437
 20
12.14808239
 30
0.0
 10
15.5948610402
 20
12.1443650329
 30
0.0
 10
15.6011442758
 20
12.1410719512
 30
0.0
 10
15.6078446836
 20
12.1382741941
 30
0.0
 10
15.6148201219
 20
12.1360284496
 30
0.0
 10
15.6219241439
 20
12.1343844451
 30
0.0
 10
15.6290019013
 20
12.1333786516
 30
0.0
 10
15.6337056944
 20
12.1331400561
 30
0.0
 10
15.6360148084
 20
12.1331400561
 30
0.0
  0
SPLINE
  5
2A2
100
AcDbEntity
  8
0
100
AcDbSpline
 62
7
  6
CONTINUOUS
 70
0
 71
3
 72
20
 73
16
 74
0
 42
0.0000001
 43
0.0000001
 44
0.0000000001
 40
0.0
 40
0.0
 40
0.0
 40
0.0
 40
0.1556555792
 40
0.3030290429
 40
0.3731921759
 40
0.4408922383
 40
0.5687572427
 40
0.6290753161
 40
0.687081986
 40
0.7429309188
 40
0.7968520335
 40
0.8491468086
 40
0.9001682333
 40
0.9503158315
 40
1.0
 40
1.0
 40
1.0
 40
1.0
 10
15.25277797
 20
12.1331400561
 30
0.0
 10
15.2547910205
 20
12.1331400561
 30
0.0
 10
15.2587126594
 20
12.1333139207
 30
0.0
 10
15.2634991314
 20
12.1340048939
 30
0.0
 10
15.2670931733
 20
12.134845773
 30
0.0
 10
15.2703870897
 20
12.1358302184
 30
0.0
 10
15.2734648055
 20
12.1370819976
 30
0.0
 10
15.2762576398
 20
12.1386168183
 30
0.0
 10
15.2781383679
 20
12.1398616293
 30
0.0
 10
15.2798361807
 20
12.1412177086
 30
0.0
 10
15.2813430297
 20
12.1426795206
 30
0.0
 10
15.2826524047
 20
12.1442402861
 30
0.0
 10
15.283757781
 20
12.1458937241
 30
0.0
 10
15.284652034
 20
12.1476323077
 30
0.0
 10
15.2851063207
 20
12.1488445546
 30
0.0
 10
15.2852961361
 20
12.1494584297
 30
0.0
  0
SPLINE
  5
2A3
100
AcDbEntity
  8
0
100
AcDbSpline
 62
7
  6
CONTINUOUS
 70
0
 71
3
 72
15
 73
11
 74
0
 42
0.0000001
 43
0.0000001
 44
0.0000000001
 40
0.0
 40
0.0
 40
0.0
 40
0.0
 40
0.1148729756
 40
0.236078076
 40
0.3619574101
 40
0.4908828192
 40
0.6210130149
 40
0.7504589434
 40
0.8774378066
 40
1.0
 40
1.0
 40
1.0
 40
1.0
 10
15.031415372
 20
12.1523265627
 30
0.0
 10
15.0330197282
 20
12.1508739774
 30
0.0
 10
15.0364956473
 20
12.14808239
 30
0.0
 10
15.0422244438
 20
12.1443650329
 30
0.0
 10
15.0485076794
 20
12.1410719512
 30
0.0
 10
15.0552080872
 20
12.1382741941
 30
0.0
 10
15.0621835255
 20
12.1360284496
 30
0.0
 10
15.0692875475
 20
12.1343844451
 30
0.0
 10
15.0763653049
 20
12.1333786516
 30
0.0
 10
15.081069098
 20
12.1331400561
 30
0.0
 10
15.083378212
 20
12.1331400561
 30
0.0
  0
SPLINE
  5
2A4
100
AcDbEntity
  8
0
100
AcDbSpline
 62
7
  6
CONTINUOUS
 70
0
 71
3
 72
20
 73
16
 74
0
 42
0.0000001
 43
0.0000001
 44
0.0000000001
 40
0.0
 40
0.0
 40
0.0
 40
0.0
 40
0.1556555792
 40
0.3030290429
 40
0.3731921759
 40
0.4408922383
 40
0.5687572427
 40
0.6290753161
 40
0.687081986
 40
0.7429309188
 40
0.7968520335
 40
0.8491468086
 40
0.9001682333
 40
0.9503158315
 40
1.0
 40
1.0
 40
1.0
 40
1.0
 10
14.7001413736
 20
12.1331400561
 30
0.0
 10
14.7021544241
 20
12.1331400561
 30
0.0
 10
14.706076063
 20
12.1333139207
 30
0.0
 10
14.710862535
 20
12.1340048939
 30
0.0
 10
14.7144565769
 20
12.134845773
 30
0.0
 10
14.7177504933
 20
12.1358302184
 30
0.0
 10
14.7208282091
 20
12.1370819976
 30
0.0
 10
14.7236210434
 20
12.1386168183
 30
0.0
 10
14.7255017715
 20
12.1398616293
 30
0.0
 10
14.7271995843
 20
12.1412177086
 30
0.0
 10
14.7287064333
 20
12.1426795206
 30
0.0
 10
14.7300158083
 20
12.1442402861
 30
0.0
 10
14.7311211846
 20
12.1458937241
 30
0.0
 10
14.7320154376
 20
12.1476323077
 30
0.0
 10
14.7324697243
 20
12.1488445546
 30
0.0
 10
14.7326595397
 20
12.1494584297
 30
0.0
  0
SPLINE
  5
2A5
100
AcDbEntity
  8
0
100
AcDbSpline
 62
7
  6
CONTINUOUS
 70
0
 71
3
 72
15
 73
11
 74
0
 42
0.0000001
 43
0.0000001
 44
0.0000000001
 40
0.0
 40
0.0
 40
0.0
 40
0.0
 40
0.1148729756
 40
0.236078076
 40
0.3619574101
 40
0.4908828192
 40
0.6210130149
 40
0.7504589434
 40
0.8774378066
 40
1.0
 40
1.0
 40
1.0
 40
1.0
 10
14.4787787756
 20
12.1523265627
 30
0.0
 10
14.4803831318
 20
12.1508739774
 30
0.0
 10
14.4838590509
 20
12.14808239
 30
0.0
 10
14.4895878474
 20
12.1443650329
 30
0.0
 10
14.495871083
 20
12.1410719512
 30
0.0
 10
14.5025714908
 20
12.1382741941
 30
0.0
 10
14.5095469291
 20
12.1360284496
 30
0.0
 10
14.5166509511
 20
12.1343844451
 30
0.0
 10
14.5237287085
 20
12.1333786516
 30
0.0
 10
14.5284325016
 20
12.1331400561
 30
0.0
 10
14.5307416156
 20
12.1331400561
 30
0.0
  0
SPLINE
  5
2A6
100
AcDbEntity
  8
0
100
AcDbSpline
 62
7
  6
CONTINUOUS
 70
0
 71
3
 72
15
 73
11
 74
0
 42
0.0000001
 43
0.0000001
 44
0.0000000001
 40
0.0
 40
0.0
 40
0.0
 40
0.0
 40
0.1224854329
 40
0.2495247982
 40
0.3790232025
 40
0.5091197747
 40
0.6380079713
 40
0.7639370604
 40
0.8851965133
 40
1.0
 40
1.0
 40
1.0
 40
1.0
 10
13.8238352391
 20
12.2263815513
 30
0.0
 10
13.8253736795
 20
12.2263815513
 30
0.0
 10
13.8285092541
 20
12.2262216417
 30
0.0
 10
13.8332283999
 20
12.225552488
 30
0.0
 10
13.8379651687
 20
12.2244553463
 30
0.0
 10
13.8426155864
 20
12.2229593677
 30
0.0
 10
13.847081813
 20
12.2210932303
 30
0.0
 10
13.8512718257
 20
12.218898292
 30
0.0
 10
13.8550905387
 20
12.2164185456
 30
0.0
 10
13.857408212
 20
12.2145583483
 30
0.0
 10
13.8584771324
 20
12.2135905469
 30
0.0
  0
SPLINE
  5
2A7
100
AcDbEntity
  8
0
100
AcDbSpline
 62
7
  6
CONTINUOUS
 70
0
 71
3
 72
15
 73
11
 74
0
 42
0.0000001
 43
0.0000001
 44
0.0000000001
 40
0.0
 40
0.0
 40
0.0
 40
0.0
 40
0.1224854329
 40
0.2495247982
 40
0.3790232025
 40
0.5091197747
 40
0.6380079713
 40
0.7639370604
 40
0.8851965133
 40
1.0
 40
1.0
 40
1.0
 40
1.0
 10
14.3764718355
 20
12.2263815513
 30
0.0
 10
14.3780102759
 20
12.2263815513
 30
0.0
 10
14.3811458505
 20
12.2262216417
 30
0.0
 10
14.3858649963
 20
12.225552488
 30
0.0
 10
14.3906017651
 20
12.2244553463
 30
0.0
 10
14.3952521828
 20
12.2229593677
 30
0.0
 10
14.3997184094
 20
12.2210932303
 30
0.0
 10
14.4039084221
 20
12.218898292
 30
0.0
 10
14.4077271351
 20
12.2164185456
 30
0.0
 10
14.4100448084
 20
12.2145583483
 30
0.0
 10
14.4111137288
 20
12.2135905469
 30
0.0
  0
SPLINE
  5
2A8
100
AcDbEntity
  8
0
100
AcDbSpline
 62
7
  6
CONTINUOUS
 70
0
 71
3
 72
15
 73
11
 74
0
 42
0.0000001
 43
0.0000001
 44
0.0000000001
 40
0.0
 40
0.0
 40
0.0
 40
0.0
 40
0.1224854329
 40
0.2495247982
 40
0.3790232025
 40
0.5091197747
 40
0.6380079713
 40
0.7639370604
 40
0.8851965133
 40
1.0
 40
1.0
 40
1.0
 40
1.0
 10
14.9291084319
 20
12.2263815513
 30
0.0
 10
14.9306468723
 20
12.2263815513
 30
0.0
 10
14.9337824469
 20
12.2262216417
 30
0.0
 10
14.9385015927
 20
12.225552488
 30
0.0
 10
14.9432383615
 20
12.2244553463
 30
0.0
 10
14.9478887792
 20
12.2229593677
 30
0.0
 10
14.9523550058
 20
12.2210932303
 30
0.0
 10
14.9565450185
 20
12.218898292
 30
0.0
 10
14.9603637315
 20
12.2164185456
 30
0.0
 10
14.9626814048
 20
12.2145583483
 30
0.0
 10
14.9637503252
 20
12.2135905469
 30
0.0
  0
SPLINE
  5
2A9
100
AcDbEntity
  8
0
100
AcDbSpline
 62
7
  6
CONTINUOUS
 70
0
 71
3
 72
15
 73
11
 74
0
 42
0.0000001
 43
0.0000001
 44
0.0000000001
 40
0.0
 40
0.0
 40
0.0
 40
0.0
 40
0.1224854329
 40
0.2495247982
 40
0.3790232025
 40
0.5091197747
 40
0.6380079713
 40
0.7639370604
 40
0.8851965133
 40
1.0
 40
1.0
 40
1.0
 40
1.0
 10
15.4817450283
 20
12.2263815513
 30
0.0
 10
15.4832834687
 20
12.2263815513
 30
0.0
 10
15.4864190433
 20
12.2262216417
 30
0.0
 10
15.4911381891
 20
12.225552488
 30
0.0
 10
15.4958749579
 20
12.2244553463
 30
0.0
 10
15.5005253756
 20
12.2229593677
 30
0.0
 10
15.5049916022
 20
12.2210932303
 30
0.0
 10
15.5091816149
 20
12.218898292
 30
0.0
 10
15.5130003279
 20
12.2164185456
 30
0.0
 10
15.5153180012
 20
12.2145583483
 30
0.0
 10
15.5163869216
 20
12.2135905469
 30
0.0
  0
SPLINE
  5
2AA
100
AcDbEntity
  8
0
100
AcDbSpline
 62
7
  6
CONTINUOUS
 70
0
 71
3
 72
15
 73
11
 74
0
 42
0.0000001
 43
0.0000001
 44
0.0000000001
 40
0.0
 40
0.0
 40
0.0
 40
0.0
 40
0.1224854329
 40
0.2495247982
 40
0.3790232025
 40
0.5091197747
 40
0.6380079713
 40
0.7639370604
 40
0.8851965133
 40
1.0
 40
1.0
 40
1.0
 40
1.0
 10
16.0343816247
 20
12.2263815513
 30
0.0
 10
16.0359200651
 20
12.2263815513
 30
0.0
 10
16.0390556397
 20
12.2262216417
 30
0.0
 10
16.0437747855
 20
12.225552488
 30
0.0
 10
16.0485115543
 20
12.2244553463
 30
0.0
 10
16.053161972
 20
12.2229593677
 30
0.0
 10
16.0576281986
 20
12.2210932303
 30
0.0
 10
16.0618182113
 20
12.218898292
 30
0.0
 10
16.0656369243
 20
12.2164185456
 30
0.0
 10
16.0679545976
 20
12.2145583483
 30
0.0
 10
16.069023518
 20
12.2135905469
 30
0.0
  0
SPLINE
  5
2AB
100
AcDbEntity
  8
0
100
AcDbSpline
 62
7
  6
CONTINUOUS
 70
0
 71
3
 72
15
 73
11
 74
0
 42
0.0000001
 43
0.0000001
 44
0.0000000001
 40
0.0
 40
0.0
 40
0.0
 40
0.0
 40
0.1224854329
 40
0.2495247982
 40
0.3790232025
 40
0.5091197747
 40
0.6380079713
 40
0.7639370604
 40
0.8851965133
 40
1.0
 40
1.0
 40
1.0
 40
1.0
 10
16.5870182211
 20
12.2263815513
 30
0.0
 10
16.5885566615
 20
12.2263815513
 30
0.0
 10
16.5916922361
 20
12.2262216417
 30
0.0
 10
16.5964113819
 20
12.225552488
 30
0.0
 10
16.6011481507
 20
12.2244553463
 30
0.0
 10
16.6057985684
 20
12.2229593677
 30
0.0
 10
16.610264795
 20
12.2210932303
 30
0.0
 10
16.6144548077
 20
12.218898292
 30
0.0
 10
16.6182735207
 20
12.2164185456
 30
0.0
 10
16.620591194
 20
12.2145583483
 30
0.0
 10
16.6216601144
 20
12.2135905469
 30
0.0
  0
ENDSEC
  0
SECTION
  2
OBJECTS
  0
DICTIONARY
  5
C
100
AcDbDictionary
280
0
281
1
  3
ACAD_GROUP
350
D
  3
ACAD_MLINESTYLE
350
17
  3
ACAD_LAYOUT
350
1A
  3
ACAD_PLOTSETTINGS
350
19
  3
ACAD_PLOTSTYLENAME
350
E
  0
DICTIONARY
  5
D
102
{ACAD_REACTORS
330
C
102
}
100
AcDbDictionary
280
0
281
1
  0
ACDBDICTIONARYWDFLT
  5
E
102
{ACAD_REACTORS
330
C
102
}
100
AcDbDictionary
281
1
  3
Normal
350
F
100
AcDbDictionaryWithDefault
340
F
  0
DICTIONARY
  5
17
102
{ACAD_REACTORS
330
C
102
}
100
AcDbDictionary
280
0
281
1
  3
Standard
350
18
  0
DICTIONARY
  5
19
102
{ACAD_REACTORS
330
C
102
}
100
AcDbDictionary
281
1
  0
DICTIONARY
  5
1A
102
{ACAD_REACTORS
330
C
102
}
100
AcDbDictionary
281
1
  3
Model
350
2AC
  3
Layout1
350
2AD
  0
ACDBPLACEHOLDER
  5
F
102
{ACAD_REACTORS
330
E
102
}
  0
MLINESTYLE
  5
18
102
{ACAD_REACTORS
330
17
102
}
100
AcDbMlineStyle
  2
STANDARD
 70
0
  3

 62
256
 51
90.0
 52
90.0
 71
2
 49
0.5
 62
256
  6
BYLAYER
 49
-0.5
 62
256
  6
BYLAYER
  0
LAYOUT
  5
2AC
102
{ACAD_REACTORS
330
1A
102
}
100
AcDbPlotSettings
  1

  2
none_device
  4
ANSI_C_(22.00_x_17.00_Inches)
  6

 40
0.0
 41
0.0
 42
0.0
 43
0.0
 44
558.8
 45
431.8
 46
0.0
 47
0.0
 48
0.0
 49
0.0
140
0.0
141
0.0
142
1.0
143
1.0
 70
1024
 72
0
 73
0
 74
0
  7

 75
0
147
1.0
148
0.0
149
0.0
100
AcDbLayout
  1
Model
 70
0
 71
0
 10
0.0
 20
0.0
 11
22.0
 21
17.0
 12
0.0
 22
0.0
 32
0.0
 14
0.0
 24
0.0
 34
0.0
 15
0.0
 25
0.0
 35
0.0
146
0.0
 13
0.0
 23
0.0
 33
0.0
 16
1.0
 26
0.0
 36
0.0
 17
0.0
 27
1.0
 37
0.0
 76
0
330
216
345
0
346
0
  0
LAYOUT
  5
2AD
102
{ACAD_REACTORS
330
1A
102
}
100
AcDbPlotSettings
  1

  2
none_device
  4
ANSI_C_(22.00_x_17.00_Inches)
  6

 40
0.0
 41
0.0
 42
0.0
 43
0.0
 44
558.8
 45
431.8
 46
0.0
 47
0.0
 48
0.0
 49
0.0
140
0.0
141
0.0
142
1.0
143
1.0
 70
0
 72
0
 73
0
 74
0
  7

 75
0
147
1.0
148
0.0
149
0.0
100
AcDbLayout
  1
Layout1
 70
0
 71
1
 10
0.0
 20
0.0
 11
22.0
 21
17.0
 12
0.0
 22
0.0
 32
0.0
 14
0.0
 24
0.0
 34
0.0
 15
0.0
 25
0.0
 35
0.0
146
0.0
 13
0.0
 23
0.0
 33
0.0
 16
1.0
 26
0.0
 36
0.0
 17
0.0
 27
1.0
 37
0.0
 76
0
330
217
345
0
346
0
  0
ENDSEC
  0
EOF