999
DXF file: _cgs_temp_output.dxf
999
Pro/ENGINEER 2016360 by Parametric Technology Corporation
  0
SECTION
  2
HEADER
  9
$ACADVER
  1
AC1021
  9
$DWGCODEPAGE
  3
ANSI_1252
  9
$EXTMAX
 10
22.0
 20
17.0
 30
0.0
  9
$EXTMIN
 10
0.0
 20
0.0
 30
0.0
  9
$LIMMIN
 10
0.0
 20
0.0
  9
$LIMMAX
 10
22.0
 20
17.0
  9
$VIEWCTR
 10
11.0
 20
8.5
  9
$VIEWSIZE
 40
17.0
  9
$CLAYER
  8
0
  9
$LTSCALE
 40
1.21
  9
$CELTYPE
  6
BYLAYER
  9
$DIMSCALE
 40
1.0
  9
$DIMASZ
 40
0.1875
  9
$DIMEXO
 40
0.0625
  9
$DIMDLI
 40
0.836
  9
$DIMEXE
 40
0.125
  9
$DIMCEN
 40
0.198
  9
$DIMLFAC
 40
1.0
  9
$DIMBLK
  1
_CLOSED
  9
$DIMALT
 70
0
  9
$DIMALTF
 40
25.4
  9
$DIMTXT
 40
0.15625
  9
$DIMTOL
 70
0
  9
$DIMLIM
 70
0
  9
$DIMTFAC
 40
1.0
  9
$DIMGAP
 40
0.09
  9
$DIMDSEP
 70
46
  9
$AUNITS
 70
0
  9
$PDMODE
 70
3
  9
$PDSIZE
 40
0.3125
  9
$HANDSEED
  5
37A
  9
$TILEMODE
 70
1
  9
$MEASUREMENT
 70
0
  9
$INSUNITS
 70
1
  0
ENDSEC
  0
SECTION
  2
CLASSES
  0
CLASS
  1
ACDBDICTIONARYWDFLT
  2
AcDbDictionaryWithDefault
  3
AutoCAD 2000
 90
0
 91
1
280
0
281
0
  0
CLASS
  1
ACDBPLACEHOLDER
  2
AcDbPlaceHolder
  3
AutoCAD 2000
 90
0
 91
1
280
0
281
0
  0
CLASS
  1
LAYOUT
  2
AcDbLayout
  3
AutoCAD 2000
 90
0
 91
0
280
0
281
0
  0
ENDSEC
  0
SECTION
  2
TABLES
  0
TABLE
  2
VPORT
  5
8
100
AcDbSymbolTable
 70
2
  0
VPORT
  5
1F4
100
AcDbSymbolTableRecord
100
AcDbViewportTableRecord
  2
*ACTIVE
 70
0
 10
0.0
 20
0.0
 11
1.0
 21
1.0
 12
11.0
 22
8.5
 13
0.0
 23
0.0
 14
1.0
 24
1.0
 15
0.0
 25
0.0
 16
0.0
 26
0.0
 36
1.0
 17
0.0
 27
0.0
 37
0.0
 40
17.0
 41
1.2941176471
 42
50.0
 43
0.0
 44
0.0
 50
0.0
 51
0.0
 71
0
 72
100
 73
1
 74
1
 75
0
 76
0
 77
0
 78
0
  0
ENDTAB
  0
TABLE
  2
LTYPE
  5
5
100
AcDbSymbolTable
 70
6
  0
LTYPE
  5
14
100
AcDbSymbolTableRecord
100
AcDbLinetypeTableRecord
  2
BYBLOCK
 70
0
  3

 72
65
 73
0
 40
0.0
  0
LTYPE
  5
15
100
AcDbSymbolTableRecord
100
AcDbLinetypeTableRecord
  2
BYLAYER
 70
0
  3

 72
65
 73
0
 40
0.0
  0
LTYPE
  5
16
100
AcDbSymbolTableRecord
100
AcDbLinetypeTableRecord
  2
CONTINUOUS
 70
64
  3
Solid line
 72
65
 73
0
 40
0.0
  0
LTYPE
  5
1F5
100
AcDbSymbolTableRecord
100
AcDbLinetypeTableRecord
  2
CENTER
 70
64
  3
____ _ ____ _ ____ _ ____ _ ____ _ ____ _ ____
 72
65
 73
4
 40
0.6
 49
0.375
 74
0
 49
-0.075
 74
0
 49
0.075
 74
0
 49
-0.075
 74
0
  0
LTYPE
  5
1F6
100
AcDbSymbolTableRecord
100
AcDbLinetypeTableRecord
  2
HIDDEN
 70
64
  3
- - - - - - - - - - - - - - - - - - - -
 72
65
 73
2
 40
0.2
 49
0.1
 74
0
 49
-0.1
 74
0
  0
LTYPE
  5
1F7
100
AcDbSymbolTableRecord
100
AcDbLinetypeTableRecord
  2
PHANTOM
 70
64
  3
_____ _ _ _____ _ _ _____ _ _ _____
 72
65
 73
6
 40
0.8
 49
0.45
 74
0
 49
-0.05
 74
0
 49
0.1
 74
0
 49
-0.05
 74
0
 49
0.1
 74
0
 49
-0.05
 74
0
  0
LTYPE
  5
1F8
100
AcDbSymbolTableRecord
100
AcDbLinetypeTableRecord
  2
DOT
 70
64
  3
. . . . . . . . . . . . . . . . . . . .
 72
65
 73
2
 40
0.2
 49
0.1
 74
0
 49
-0.1
 74
0
  0
LTYPE
  5
1F9
100
AcDbSymbolTableRecord
100
AcDbLinetypeTableRecord
  2
DASHED
 70
64
  3
- - - - - - - - - - - - - - - - - - - -
 72
65
 73
2
 40
0.2
 49
0.1
 74
0
 49
-0.1
 74
0
  0
ENDTAB
  0
TABLE
  2
LAYER
  5
2
100
AcDbSymbolTable
 70
36
  0
LAYER
  5
10
100
AcDbSymbolTableRecord
100
AcDbLayerTableRecord
  2
0
 70
0
 62
7
  6
CONTINUOUS
370
-3
390
F
  0
LAYER
  5
1FA
100
AcDbSymbolTableRecord
100
AcDbLayerTableRecord
  2
DEFAULT_1
 70
0
 62
7
  6
CENTER
370
-3
390
F
  0
LAYER
  5
1FB
100
AcDbSymbolTableRecord
100
AcDbLayerTableRecord
  2
DEFAULT_2
 70
0
 62
8
  6
HIDDEN
370
-3
390
F
  0
LAYER
  5
1FC
100
AcDbSymbolTableRecord
100
AcDbLayerTableRecord
  2
DEFAULT_3
 70
0
 62
7
  6
PHANTOM
370
-3
390
F
  0
LAYER
  5
1FD
100
AcDbSymbolTableRecord
100
AcDbLayerTableRecord
  2
01_ALL_DTM_PLN
 70
0
 62
7
  6
CONTINUOUS
370
-3
390
F
  0
LAYER
  5
1FE
100
AcDbSymbolTableRecord
100
AcDbLayerTableRecord
  2
01__ASM_ALL_DTM_PLN
 70
0
 62
7
  6
CONTINUOUS
370
-3
390
F
  0
LAYER
  5
1FF
100
AcDbSymbolTableRecord
100
AcDbLayerTableRecord
  2
01__ASM_DEF_DTM_PLN
 70
0
 62
7
  6
CONTINUOUS
370
-3
390
F
  0
LAYER
  5
200
100
AcDbSymbolTableRecord
100
AcDbLayerTableRecord
  2
01___PRT_ALL_DTM_PLN
 70
0
 62
7
  6
CONTINUOUS
370
-3
390
F
  0
LAYER
  5
201
100
AcDbSymbolTableRecord
100
AcDbLayerTableRecord
  2
01___PRT_DEF_DTM_PLN
 70
0
 62
7
  6
CONTINUOUS
370
-3
390
F
  0
LAYER
  5
202
100
AcDbSymbolTableRecord
100
AcDbLayerTableRecord
  2
02_ALL_AXES
 70
0
 62
7
  6
CONTINUOUS
370
-3
390
F
  0
LAYER
  5
203
100
AcDbSymbolTableRecord
100
AcDbLayerTableRecord
  2
02__ASM_ALL_AXES
 70
0
 62
7
  6
CONTINUOUS
370
-3
390
F
  0
LAYER
  5
204
100
AcDbSymbolTableRecord
100
AcDbLayerTableRecord
  2
02___PRT_ALL_AXES
 70
0
 62
7
  6
CONTINUOUS
370
-3
390
F
  0
LAYER
  5
205
100
AcDbSymbolTableRecord
100
AcDbLayerTableRecord
  2
03_ALL_CURVES
 70
0
 62
7
  6
CONTINUOUS
370
-3
390
F
  0
LAYER
  5
206
100
AcDbSymbolTableRecord
100
AcDbLayerTableRecord
  2
03__ASM_ALL_CURVES
 70
0
 62
7
  6
CONTINUOUS
370
-3
390
F
  0
LAYER
  5
207
100
AcDbSymbolTableRecord
100
AcDbLayerTableRecord
  2
03___PRT_ALL_CURVES
 70
0
 62
7
  6
CONTINUOUS
370
-3
390
F
  0
LAYER
  5
208
100
AcDbSymbolTableRecord
100
AcDbLayerTableRecord
  2
04_ALL_DTM_PNT
 70
0
 62
7
  6
CONTINUOUS
370
-3
390
F
  0
LAYER
  5
209
100
AcDbSymbolTableRecord
100
AcDbLayerTableRecord
  2
04__ASM_ALL_DTM_PNT
 70
0
 62
7
  6
CONTINUOUS
370
-3
390
F
  0
LAYER
  5
20A
100
AcDbSymbolTableRecord
100
AcDbLayerTableRecord
  2
04___PRT_ALL_DTM_PNT
 70
0
 62
7
  6
CONTINUOUS
370
-3
390
F
  0
LAYER
  5
20B
100
AcDbSymbolTableRecord
100
AcDbLayerTableRecord
  2
05_ALL_DTM_CSYS
 70
0
 62
7
  6
CONTINUOUS
370
-3
390
F
  0
LAYER
  5
20C
100
AcDbSymbolTableRecord
100
AcDbLayerTableRecord
  2
05__ASM_ALL_DTM_CSYS
 70
0
 62
7
  6
CONTINUOUS
370
-3
390
F
  0
LAYER
  5
20D
100
AcDbSymbolTableRecord
100
AcDbLayerTableRecord
  2
05__ASM_DEF_DTM_CSYS
 70
0
 62
7
  6
CONTINUOUS
370
-3
390
F
  0
LAYER
  5
20E
100
AcDbSymbolTableRecord
100
AcDbLayerTableRecord
  2
05___PRT_ALL_DTM_CSYS
 70
0
 62
7
  6
CONTINUOUS
370
-3
390
F
  0
LAYER
  5
20F
100
AcDbSymbolTableRecord
100
AcDbLayerTableRecord
  2
05___PRT_DEF_DTM_CSYS
 70
0
 62
7
  6
CONTINUOUS
370
-3
390
F
  0
LAYER
  5
210
100
AcDbSymbolTableRecord
100
AcDbLayerTableRecord
  2
06_ALL_SURFS
 70
0
 62
7
  6
CONTINUOUS
370
-3
390
F
  0
LAYER
  5
211
100
AcDbSymbolTableRecord
100
AcDbLayerTableRecord
  2
06__ASM_ALL_SURFS
 70
0
 62
7
  6
CONTINUOUS
370
-3
390
F
  0
LAYER
  5
212
100
AcDbSymbolTableRecord
100
AcDbLayerTableRecord
  2
06___PRT_ALL_SURFS
 70
0
 62
7
  6
CONTINUOUS
370
-3
390
F
  0
LAYER
  5
213
100
AcDbSymbolTableRecord
100
AcDbLayerTableRecord
  2
07__ASM_ALL_SKELETONS
 70
0
 62
7
  6
CONTINUOUS
370
-3
390
F
  0
LAYER
  5
214
100
AcDbSymbolTableRecord
100
AcDbLayerTableRecord
  2
SHELL
 70
0
 62
7
  6
CONTINUOUS
370
-3
390
F
  0
ENDTAB
  0
TABLE
  2
STYLE
  5
3
100
AcDbSymbolTable
 70
1
  0
STYLE
  5
11
100
AcDbSymbolTableRecord
100
AcDbTextStyleTableRecord
  2
STANDARD
 70
0
 40
0.0
 41
0.8
 50
0.0
 71
0
 42
0.2
  3
txt
  4

  0
STYLE
  5
215
100
AcDbSymbolTableRecord
100
AcDbTextStyleTableRecord
  2
TEXTSTYLE_1
 70
0
 40
0.0
 41
0.8
 50
0.0
 71
0
 42
0.2
  3
gdt
  4

  0
ENDTAB
  0
TABLE
  2
VIEW
  5
6
100
AcDbSymbolTable
 70
0
  0
ENDTAB
  0
TABLE
  2
UCS
  5
7
100
AcDbSymbolTable
 70
0
  0
ENDTAB
  0
TABLE
  2
APPID
  5
9
100
AcDbSymbolTable
 70
1
  0
APPID
  5
216
100
AcDbSymbolTableRecord
100
AcDbRegAppTableRecord
  2
ACAD
 70
0
  0
ENDTAB
  0
TABLE
  2
BLOCK_RECORD
  5
1
100
AcDbSymbolTable
 70
0
  0
BLOCK_RECORD
  5
217
100
AcDbSymbolTableRecord
100
AcDbBlockTableRecord
  2
*Model_Space
  0
BLOCK_RECORD
  5
218
100
AcDbSymbolTableRecord
100
AcDbBlockTableRecord
  2
*Paper_Space
  0
BLOCK_RECORD
  5
219
100
AcDbSymbolTableRecord
100
AcDbBlockTableRecord
  2
_NONE
  0
ENDTAB
  0
TABLE
  2
DIMSTYLE
  5
A
100
AcDbSymbolTable
 70
1
100
AcDbDimStyleTable
 71
0
  0
DIMSTYLE
105
21A
100
AcDbSymbolTableRecord
100
AcDbDimStyleTableRecord
  2
STANDARD
 70
0
  3

  4

 40
1.0
 41
0.1875
 42
0.0625
 43
0.38
 44
0.125
 45
0.0
 46
0.0
 47
0.0001
 48
0.0001
140
0.15625
141
0.09
142
0.0
143
25.4
144
1.0
145
0.0
146
1.0
147
0.09
 71
0.0
 72
0.0
 73
1
 74
1
 75
0
 76
0
 77
0
 78
4
 79
1
170
0
171
3
172
0
173
0
174
0
175
0
176
0
177
0
178
0
270
2
179
4
271
4
272
4
273
2
274
2
275
0
280
0
281
0
282
0
283
1
284
4
285
0
286
0
287
3
288
0
340
11
278
46
  0
ENDTAB
  0
ENDSEC
  0
SECTION
  2
BLOCKS
  0
BLOCK
  5
20
100
AcDbEntity
  8
0
100
AcDbBlockBegin
  2
*Model_Space
 70
0
 10
0.0
 20
0.0
 30
0.0
  3
*Model_Space
  1

  0
ENDBLK
  5
21
100
AcDbEntity
  8
0
100
AcDbBlockEnd
  0
BLOCK
  5
1C
100
AcDbEntity
  8
0
100
AcDbBlockBegin
  2
*Paper_Space
 70
0
 10
0.0
 20
0.0
 30
0.0
  3
*Paper_Space
  1

  0
ENDBLK
  5
1D
100
AcDbEntity
  8
0
100
AcDbBlockEnd
  0
BLOCK
  5
21B
100
AcDbEntity
  8
0
100
AcDbBlockBegin
  2
_NONE
 70
64
 10
0.0
 20
0.0
  3
_NONE
  1

  0
ENDBLK
  5
21C
100
AcDbEntity
  8
0
  6
BYBLOCK
 62
0
100
AcDbBlockEnd
  0
ENDSEC
  0
SECTION
  2
ENTITIES
  0
MTEXT
  5
21D
100
AcDbEntity
  8
0
100
AcDbMText
 62
7
  6
CONTINUOUS
  7
STANDARD
 71
1
 72
1
 10
15.9560215477
 20
0.9479130325
 30
0.0
 11
1.0
 21
0.0
 31
0.0
 44
0.9
  1
SCALE: 1:0.500
 40
0.3
 41
3.36
  0
LEADER
  5
21E
100
AcDbEntity
  8
0
100
AcDbLeader
 62
2
  6
CONTINUOUS
  3
STANDARD
 71
1
 72
0
 73
0
 75
0
 40
0.15625
 41
1.5
 76
3
 10
4.8750209156
 20
4.9888698968
 30
0.0
 10
8.8115500555
 20
3.7669064446
 30
0.0
 10
9.0615500555
 20
3.7669064446
 30
0.0
340
21F
1001
ACAD
1000
DSTYLE
1002
{
1070
77
1070
0
1070
341
1005
219
1002
}
  0
MTEXT
  5
21F
102
{ACAD_REACTORS
330
21E
102
}
100
AcDbEntity
  8
0
100
AcDbMText
 62
2
  6
CONTINUOUS
  7
STANDARD
 71
1
 72
1
 10
9.0615500555
 20
3.8450314446
 30
0.0
 11
1.0
 21
0.0
 31
0.0
 44
0.9
  1
 0.375 BOLTS
 40
0.15625
 41
1.5
  0
LEADER
  5
220
100
AcDbEntity
  8
0
100
AcDbLeader
 62
2
  6
CONTINUOUS
  3
STANDARD
 71
1
 72
0
 73
0
 75
0
 40
0.15625
 41
1.5
 76
3
 10
4.8750209156
 20
4.9888698968
 30
0.0
 10
8.8115500555
 20
3.7669064446
 30
0.0
 10
9.0615500555
 20
3.7669064446
 30
0.0
340
221
1001
ACAD
1000
DSTYLE
1002
{
1070
77
1070
0
1070
341
1005
219
1002
}
  0
MTEXT
  5
221
102
{ACAD_REACTORS
330
220
102
}
100
AcDbEntity
  8
0
100
AcDbMText
 62
2
  6
CONTINUOUS
  7
STANDARD
 71
1
 72
1
 10
9.0615500555
 20
3.8450314446
 30
0.0
 11
1.0
 21
0.0
 31
0.0
 44
0.9
  1
 0.375 BOLTS
 40
0.15625
 41
1.5
  0
LINE
  5
222
100
AcDbEntity
  8
0
100
AcDbLine
 62
7
  6
CONTINUOUS
 10
0.0
 20
0.0
 11
0.0
 21
17.0
  0
LINE
  5
223
100
AcDbEntity
  8
0
100
AcDbLine
 62
7
  6
CONTINUOUS
 10
0.0
 20
0.0
 11
22.0
 21
0.0
  0
LINE
  5
224
100
AcDbEntity
  8
0
100
AcDbLine
 62
7
  6
CONTINUOUS
 10
0.0
 20
17.0
 11
22.0
 21
17.0
  0
LINE
  5
225
100
AcDbEntity
  8
0
100
AcDbLine
 62
7
  6
CONTINUOUS
 10
22.0
 20
0.0
 11
22.0
 21
17.0
  0
LINE
  5
226
100
AcDbEntity
  8
0
100
AcDbLine
 62
7
  6
CONTINUOUS
 10
4.6562709156
 20
4.9013698968
 11
4.6562709156
 21
4.4263698968
  0
LINE
  5
227
100
AcDbEntity
  8
0
100
AcDbLine
 62
7
  6
CONTINUOUS
 10
4.7162669635
 20
4.9888698968
 11
4.7162669635
 21
4.9263698968
  0
LINE
  5
228
100
AcDbEntity
  8
0
100
AcDbLine
 62
7
  6
CONTINUOUS
 10
4.9312709156
 20
4.9263698968
 11
4.9312709156
 21
4.9888698968
  0
LINE
  5
229
100
AcDbEntity
  8
0
100
AcDbLine
 62
7
  6
CONTINUOUS
 10
4.6562709156
 20
4.4263698968
 11
8.3437709156
 21
4.4263698968
  0
LINE
  5
22A
100
AcDbEntity
  8
0
100
AcDbLine
 62
7
  6
CONTINUOUS
 10
5.3475169635
 20
4.9888698968
 11
5.3475169635
 21
4.9353384961
  0
LINE
  5
22B
100
AcDbEntity
  8
0
100
AcDbLine
 62
7
  6
CONTINUOUS
 10
5.5340950893
 20
5.6226889419
 11
5.3524819344
 21
4.9448994206
  0
LINE
  5
22C
100
AcDbEntity
  8
0
100
AcDbLine
 62
7
  6
CONTINUOUS
 10
8.3187709156
 20
4.9263698968
 11
7.6717080424
 21
4.9263698968
  0
LINE
  5
22D
100
AcDbEntity
  8
0
100
AcDbLine
 62
7
  6
CONTINUOUS
 10
5.3283337888
 20
4.9263698968
 11
4.6812709156
 21
4.9263698968
  0
LINE
  5
22E
100
AcDbEntity
  8
0
100
AcDbLine
 62
7
  6
CONTINUOUS
 10
4.7162670072
 20
4.9888698968
 11
5.364263788
 21
4.9888698968
  0
LINE
  5
22F
100
AcDbEntity
  8
0
100
AcDbLine
 62
7
  6
CONTINUOUS
 10
7.6357780431
 20
4.9888698968
 11
8.2837748239
 21
4.9888698968
  0
LINE
  5
230
100
AcDbEntity
  8
03__ASM_ALL_CURVES
100
AcDbLine
 62
4
  6
CONTINUOUS
 10
3.9169636368
 20
5.1763698968
 11
4.1669636368
 21
5.1763698968
  0
LINE
  5
231
100
AcDbEntity
  8
0
100
AcDbLine
 62
7
  6
CONTINUOUS
 10
7.1803517263
 20
5.3013698968
 11
7.1689826227
 21
5.3013698968
  0
LINE
  5
232
100
AcDbEntity
  8
0
100
AcDbLine
 62
7
  6
CONTINUOUS
 10
5.8196901048
 20
5.3013698968
 11
5.8310592084
 21
5.3013698968
  0
LINE
  5
233
100
AcDbEntity
  8
0
100
AcDbLine
 62
7
  6
CONTINUOUS
 10
5.8310592084
 20
5.4263698968
 11
5.8196901048
 21
5.4263698968
  0
LINE
  5
234
100
AcDbEntity
  8
0
100
AcDbLine
 62
7
  6
CONTINUOUS
 10
7.1689826227
 20
5.4263698968
 11
7.1803517263
 21
5.4263698968
  0
LINE
  5
235
100
AcDbEntity
  8
0
100
AcDbLine
 62
7
  6
CONTINUOUS
 10
7.0579546806
 20
4.9695779037
 11
7.0481087481
 21
4.9752624554
  0
LINE
  5
236
100
AcDbEntity
  8
0
100
AcDbLine
 62
7
  6
CONTINUOUS
 10
5.889433083
 20
5.6442241626
 11
5.8795871505
 21
5.6499087144
  0
LINE
  5
237
100
AcDbEntity
  8
0
100
AcDbLine
 62
7
  6
CONTINUOUS
 10
5.9420871505
 20
5.7581618899
 11
5.951933083
 21
5.7524773381
  0
LINE
  5
238
100
AcDbEntity
  8
0
100
AcDbLine
 62
7
  6
CONTINUOUS
 10
7.1106087481
 20
5.0835156309
 11
7.1204546806
 21
5.0778310791
  0
LINE
  5
239
100
AcDbEntity
  8
0
100
AcDbLine
 62
7
  6
CONTINUOUS
 10
6.7860597332
 20
4.7434361317
 11
6.7803751814
 21
4.7532820642
  0
LINE
  5
23A
100
AcDbEntity
  8
0
100
AcDbLine
 62
7
  6
CONTINUOUS
 10
6.1114134743
 20
5.9119577293
 11
6.1057289225
 21
5.9218036618
  0
LINE
  5
23B
100
AcDbEntity
  8
0
100
AcDbLine
 62
7
  6
CONTINUOUS
 10
6.4375209156
 20
6.0442007075
 11
6.4375209156
 21
6.0328316039
  0
LINE
  5
23C
100
AcDbEntity
  8
0
100
AcDbLine
 62
7
  6
CONTINUOUS
 10
6.4375209156
 20
4.683539086
 11
6.4375209156
 21
4.6949081896
  0
LINE
  5
23D
100
AcDbEntity
  8
0
100
AcDbLine
 62
7
  6
CONTINUOUS
 10
6.1057289225
 20
4.8059361317
 11
6.1114134743
 21
4.8157820642
  0
LINE
  5
23E
100
AcDbEntity
  8
0
100
AcDbLine
 62
7
  6
CONTINUOUS
 10
6.7803751814
 20
5.9744577293
 11
6.7860597332
 21
5.9843036618
  0
LINE
  5
23F
100
AcDbEntity
  8
0
100
AcDbLine
 62
7
  6
CONTINUOUS
 10
7.1522385329
 20
6.1707671224
 11
7.1301414459
 21
6.1486700355
  0
LINE
  5
240
100
AcDbEntity
  8
0
100
AcDbLine
 62
7
  6
CONTINUOUS
 10
7.1328726014
 20
6.1381429388
 11
7.136770572
 21
6.1420409094
  0
LINE
  5
241
100
AcDbEntity
  8
0
100
AcDbLine
 62
7
  6
CONTINUOUS
 10
5.8795871505
 20
5.0778310791
 11
5.889433083
 21
5.0835156309
  0
LINE
  5
242
100
AcDbEntity
  8
0
100
AcDbLine
 62
7
  6
CONTINUOUS
 10
7.0481087481
 20
5.7524773381
 11
7.0579546806
 21
5.7581618899
  0
LINE
  5
243
100
AcDbEntity
  8
0
100
AcDbLine
 62
7
  6
CONTINUOUS
 10
6.2139820979
 20
5.9843036618
 11
6.2196666497
 21
5.9744577293
  0
LINE
  5
244
100
AcDbEntity
  8
0
100
AcDbLine
 62
7
  6
CONTINUOUS
 10
6.8886283569
 20
4.8157820642
 11
6.8943129087
 21
4.8059361317
  0
LINE
  5
245
100
AcDbEntity
  8
0
100
AcDbLine
 62
7
  6
CONTINUOUS
 10
6.5625209156
 20
6.0442007075
 11
6.5625209156
 21
6.0328316039
  0
LINE
  5
246
100
AcDbEntity
  8
0
100
AcDbLine
 62
7
  6
CONTINUOUS
 10
6.5625209156
 20
4.683539086
 11
6.5625209156
 21
4.6949081896
  0
LINE
  5
247
100
AcDbEntity
  8
0
100
AcDbLine
 62
7
  6
CONTINUOUS
 10
6.8943129087
 20
5.9218036618
 11
6.8886283569
 21
5.9119577293
  0
LINE
  5
248
100
AcDbEntity
  8
0
100
AcDbLine
 62
7
  6
CONTINUOUS
 10
6.2196666497
 20
4.7532820642
 11
6.2139820979
 21
4.7434361317
  0
LINE
  5
249
100
AcDbEntity
  8
0
100
AcDbLine
 62
7
  6
CONTINUOUS
 10
7.2074812501
 20
6.0713302313
 11
7.2295783371
 21
6.0934273182
  0
LINE
  5
24A
100
AcDbEntity
  8
0
100
AcDbLine
 62
7
  6
CONTINUOUS
 10
7.2781919283
 20
6.0006195532
 11
7.2742939577
 21
5.9967215826
  0
LINE
  5
24B
100
AcDbEntity
  8
0
100
AcDbLine
 62
7
  6
CONTINUOUS
 10
7.2848210543
 20
5.9939904271
 11
7.3069181412
 21
6.016087514
  0
LINE
  5
24C
100
AcDbEntity
  8
0
100
AcDbLine
 62
7
  6
CONTINUOUS
 10
7.1204546806
 20
5.6499087144
 11
7.1106087481
 21
5.6442241626
  0
LINE
  5
24D
100
AcDbEntity
  8
0
100
AcDbLine
 62
7
  6
CONTINUOUS
 10
5.951933083
 20
4.9752624554
 11
5.9420871505
 21
4.9695779037
  0
LINE
  5
24E
100
AcDbEntity
  8
0
100
AcDbLine
 62
7
  6
CONTINUOUS
 10
7.1301414459
 20
6.1486700355
 11
7.2848210543
 21
5.9939904271
  0
LINE
  5
24F
100
AcDbEntity
  8
0
100
AcDbLine
 62
7
  6
CONTINUOUS
 10
7.1522385329
 20
6.1707671224
 11
7.3069181412
 21
6.016087514
  0
LINE
  5
250
100
AcDbEntity
  8
0
100
AcDbLine
 62
7
  6
CONTINUOUS
 10
7.2452187725
 20
6.1785495991
 11
7.3147006179
 21
6.1090677537
  0
LINE
  5
251
100
AcDbEntity
  8
0
100
AcDbLine
 62
7
  6
CONTINUOUS
 10
7.3209597048
 20
6.220164025
 11
7.3563150438
 21
6.184808686
  0
LINE
  5
252
100
AcDbEntity
  8
0
100
AcDbLine
 62
7
  6
CONTINUOUS
 10
7.6475598967
 20
4.9448994206
 11
7.4659467419
 21
5.6226889419
  0
LINE
  5
253
100
AcDbEntity
  8
0
100
AcDbLine
 62
7
  6
CONTINUOUS
 10
7.6525248677
 20
4.9353384961
 11
7.6525248677
 21
4.9888698968
  0
LINE
  5
254
100
AcDbEntity
  8
0
100
AcDbLine
 62
7
  6
CONTINUOUS
 10
8.0687709156
 20
4.9888698968
 11
8.0687709156
 21
4.9263698968
  0
LINE
  5
255
100
AcDbEntity
  8
0
100
AcDbLine
 62
7
  6
CONTINUOUS
 10
8.2837748677
 20
4.9888698968
 11
8.2837748677
 21
4.9263698968
  0
LINE
  5
256
100
AcDbEntity
  8
0
100
AcDbLine
 62
7
  6
CONTINUOUS
 10
8.3437709156
 20
4.9013698968
 11
8.3437709156
 21
4.4263698968
  0
LINE
  5
257
100
AcDbEntity
  8
0
100
AcDbLine
 62
7
  6
CONTINUOUS
 10
4.5967757233
 20
13.1719056519
 11
4.5967757233
 21
12.0469056519
  0
LINE
  5
258
100
AcDbEntity
  8
0
100
AcDbLine
 62
7
  6
CONTINUOUS
 10
4.5967757233
 20
12.0469056519
 11
4.6217757233
 21
12.0719056519
  0
LINE
  5
259
100
AcDbEntity
  8
0
100
AcDbLine
 62
7
  6
CONTINUOUS
 10
4.5967757233
 20
13.1719056519
 11
4.6217757233
 21
13.1469056519
  0
LINE
  5
25A
100
AcDbEntity
  8
0
100
AcDbLine
 62
7
  6
CONTINUOUS
 10
4.5967757233
 20
12.0469056519
 11
8.2842757233
 21
12.0469056519
  0
LINE
  5
25B
100
AcDbEntity
  8
0
100
AcDbLine
 62
7
  6
CONTINUOUS
 10
4.8717757233
 20
12.3618672173
 11
5.2880217712
 21
12.3618672173
  0
LINE
  5
25C
100
AcDbEntity
  8
0
100
AcDbLine
 62
7
  6
CONTINUOUS
 10
7.5930296754
 20
12.3618672173
 11
8.0092757233
 21
12.3618672173
  0
LINE
  5
25D
100
AcDbEntity
  8
0
100
AcDbLine
 62
7
  6
CONTINUOUS
 10
4.9405257233
 20
12.4844056519
 11
5.2530257233
 21
12.4844056519
  0
LINE
  5
25E
100
AcDbEntity
  8
0
100
AcDbLine
 62
7
  6
CONTINUOUS
 10
7.6280257233
 20
12.4844056519
 11
7.9405257233
 21
12.4844056519
  0
LINE
  5
25F
100
AcDbEntity
  8
0
100
AcDbLine
 62
7
  6
CONTINUOUS
 10
7.1479860578
 20
12.4987352805
 11
7.1700831447
 21
12.4987352805
  0
LINE
  5
260
100
AcDbEntity
  8
0
100
AcDbLine
 62
7
  6
CONTINUOUS
 10
7.0927433406
 20
12.5618829662
 11
7.0706462536
 21
12.5618829662
  0
LINE
  5
261
100
AcDbEntity
  8
03__ASM_ALL_CURVES
100
AcDbLine
 62
4
  6
CONTINUOUS
 10
3.8574684445
 20
12.6094056519
 11
4.1074684445
 21
12.6094056519
  0
LINE
  5
262
100
AcDbEntity
  8
0
100
AcDbLine
 62
7
  6
CONTINUOUS
 10
7.0706462536
 20
12.6881783376
 11
7.0927433406
 21
12.6881783376
  0
LINE
  5
263
100
AcDbEntity
  8
0
100
AcDbLine
 62
7
  6
CONTINUOUS
 10
7.9405257233
 20
12.7344056519
 11
7.6280257233
 21
12.7344056519
  0
LINE
  5
264
100
AcDbEntity
  8
0
100
AcDbLine
 62
7
  6
CONTINUOUS
 10
5.2530257233
 20
12.7344056519
 11
4.9405257233
 21
12.7344056519
  0
LINE
  5
265
100
AcDbEntity
  8
0
100
AcDbLine
 62
7
  6
CONTINUOUS
 10
7.1700831447
 20
12.7513260233
 11
7.1479860578
 21
12.7513260233
  0
LINE
  5
266
100
AcDbEntity
  8
0
100
AcDbLine
 62
7
  6
CONTINUOUS
 10
8.0092757233
 20
12.8569440866
 11
7.5930296754
 21
12.8569440866
  0
LINE
  5
267
100
AcDbEntity
  8
0
100
AcDbLine
 62
7
  6
CONTINUOUS
 10
5.2880217712
 20
12.8569440866
 11
4.8717757233
 21
12.8569440866
  0
LINE
  5
268
100
AcDbEntity
  8
03__ASM_ALL_CURVES
100
AcDbLine
 62
4
  6
CONTINUOUS
 10
6.4405257233
 20
11.7238530576
 11
6.4405257233
 21
13.4762425051
  0
LINE
  5
269
100
AcDbEntity
  8
0
100
AcDbLine
 62
7
  6
CONTINUOUS
 10
7.1479860578
 20
12.7513260233
 11
7.0706462536
 21
12.6881783376
  0
LINE
  5
26A
100
AcDbEntity
  8
0
100
AcDbLine
 62
7
  6
CONTINUOUS
 10
7.1700831447
 20
12.7513260233
 11
7.0927433406
 21
12.6881783376
  0
LINE
  5
26B
100
AcDbEntity
  8
0
100
AcDbLine
 62
7
  6
CONTINUOUS
 10
4.5967757233
 20
13.1719056519
 11
8.2842757233
 21
13.1719056519
  0
LINE
  5
26C
100
AcDbEntity
  8
0
100
AcDbLine
 62
7
  6
CONTINUOUS
 10
7.0706462536
 20
12.5618829662
 11
7.1479860578
 21
12.4987352805
  0
LINE
  5
26D
100
AcDbEntity
  8
0
100
AcDbLine
 62
7
  6
CONTINUOUS
 10
7.1700831447
 20
12.4987352805
 11
7.0927433406
 21
12.5618829662
  0
LINE
  5
26E
100
AcDbEntity
  8
0
100
AcDbLine
 62
7
  6
CONTINUOUS
 10
7.239806859
 20
12.5556644549
 11
7.1700831447
 21
12.4987352805
  0
LINE
  5
26F
100
AcDbEntity
  8
0
100
AcDbLine
 62
7
  6
CONTINUOUS
 10
7.2397295421
 20
12.694459978
 11
7.1700831447
 21
12.7513260233
  0
LINE
  5
270
100
AcDbEntity
  8
0
100
AcDbLine
 62
7
  6
CONTINUOUS
 10
7.0706462536
 20
12.6881783376
 11
7.0706462536
 21
12.5618829662
  0
LINE
  5
271
100
AcDbEntity
  8
0
100
AcDbLine
 62
7
  6
CONTINUOUS
 10
7.0927433406
 20
12.6881783376
 11
7.0927433406
 21
12.5618829662
  0
LINE
  5
272
100
AcDbEntity
  8
0
100
AcDbLine
 62
7
  6
CONTINUOUS
 10
8.2592757233
 20
13.1469056519
 11
8.2842757233
 21
13.1719056519
  0
LINE
  5
273
100
AcDbEntity
  8
0
100
AcDbLine
 62
7
  6
CONTINUOUS
 10
8.2842757233
 20
12.0469056519
 11
8.2592757233
 21
12.0719056519
  0
LINE
  5
274
100
AcDbEntity
  8
0
100
AcDbLine
 62
7
  6
CONTINUOUS
 10
8.2842757233
 20
12.0469056519
 11
8.2842757233
 21
13.1719056519
  0
LINE
  5
275
100
AcDbEntity
  8
0
100
AcDbLine
 62
7
  6
CONTINUOUS
 10
15.0072131275
 20
4.3668747044
 11
16.1322131275
 21
4.3668747044
  0
LINE
  5
276
100
AcDbEntity
  8
0
100
AcDbLine
 62
7
  6
CONTINUOUS
 10
15.0072131275
 20
4.3668747044
 11
15.0072131275
 21
6.279374657
  0
LINE
  5
277
100
AcDbEntity
  8
0
100
AcDbLine
 62
7
  6
CONTINUOUS
 10
16.1072131275
 20
4.8668747044
 11
15.0322131275
 21
4.8668747044
  0
LINE
  5
278
100
AcDbEntity
  8
0
100
AcDbLine
 62
7
  6
CONTINUOUS
 10
15.3221746928
 20
4.9293747044
 11
15.8172515621
 21
4.9293747044
  0
LINE
  5
279
100
AcDbEntity
  8
0
100
AcDbLine
 62
7
  6
CONTINUOUS
 10
15.4590427561
 20
6.0339321259
 11
15.5159088014
 21
6.1035785233
  0
LINE
  5
27A
100
AcDbEntity
  8
0
100
AcDbLine
 62
7
  6
CONTINUOUS
 10
15.3221746928
 20
4.9293747044
 11
15.3221746928
 21
4.8668747044
  0
LINE
  5
27B
100
AcDbEntity
  8
0
100
AcDbLine
 62
7
  6
CONTINUOUS
 10
15.6484858132
 20
5.9565923217
 11
15.7116334989
 21
6.0339321259
  0
LINE
  5
27C
100
AcDbEntity
  8
0
100
AcDbLine
 62
7
  6
CONTINUOUS
 10
15.6484858132
 20
5.9344952348
 11
15.7116334989
 21
6.011835039
  0
LINE
  5
27D
100
AcDbEntity
  8
0
100
AcDbLine
 62
7
  6
CONTINUOUS
 10
15.4590427561
 20
6.011835039
 11
15.4590427561
 21
6.0339321259
  0
LINE
  5
27E
100
AcDbEntity
  8
0
100
AcDbLine
 62
7
  6
CONTINUOUS
 10
15.5221904418
 20
5.9344952348
 11
15.5221904418
 21
5.9565923217
  0
LINE
  5
27F
100
AcDbEntity
  8
0
100
AcDbLine
 62
7
  6
CONTINUOUS
 10
15.6484858132
 20
5.9565923217
 11
15.6484858132
 21
5.9344952348
  0
LINE
  5
280
100
AcDbEntity
  8
0
100
AcDbLine
 62
7
  6
CONTINUOUS
 10
15.7116334989
 20
6.0339321259
 11
15.7116334989
 21
6.011835039
  0
LINE
  5
281
100
AcDbEntity
  8
0
100
AcDbLine
 62
7
  6
CONTINUOUS
 10
15.8172515621
 20
4.8668747044
 11
15.8172515621
 21
4.9293747044
  0
LINE
  5
282
100
AcDbEntity
  8
0
100
AcDbLine
 62
7
  6
CONTINUOUS
 10
15.4590427561
 20
6.011835039
 11
15.5221904418
 21
5.9344952348
  0
LINE
  5
283
100
AcDbEntity
  8
0
100
AcDbLine
 62
7
  6
CONTINUOUS
 10
15.5221904418
 20
5.9565923217
 11
15.4590427561
 21
6.0339321259
  0
LINE
  5
284
100
AcDbEntity
  8
0
100
AcDbLine
 62
7
  6
CONTINUOUS
 10
15.6484858132
 20
5.9344952348
 11
15.5221904418
 21
5.9344952348
  0
LINE
  5
285
100
AcDbEntity
  8
0
100
AcDbLine
 62
7
  6
CONTINUOUS
 10
16.1322131275
 20
4.3668747044
 11
16.1322131275
 21
6.279374657
  0
LINE
  5
286
100
AcDbEntity
  8
0
100
AcDbLine
 62
7
  6
CONTINUOUS
 10
15.5221904418
 20
5.9565923217
 11
15.6484858132
 21
5.9565923217
  0
LINE
  5
287
100
AcDbEntity
  8
0
100
AcDbLine
 62
7
  6
CONTINUOUS
 10
15.7116334989
 20
6.0339321259
 11
15.6547043246
 21
6.1036558402
  0
LINE
  5
288
100
AcDbEntity
  8
0
100
AcDbLine
 62
7
  6
CONTINUOUS
 10
15.0322131275
 20
6.3043747044
 11
16.1072131275
 21
6.3043747044
  0
LINE
  5
289
100
AcDbEntity
  8
03__ASM_ALL_CURVES
100
AcDbLine
 62
4
  6
CONTINUOUS
 10
14.6841605332
 20
6.5543747044
 11
16.4365499807
 21
6.5543747044
  0
LINE
  5
28A
100
AcDbEntity
  8
0
100
AcDbLine
 62
7
  6
CONTINUOUS
 10
13.8786321623
 20
11.566364815
 11
14.0235270489
 21
11.2711000801
  0
LINE
  5
28B
100
AcDbEntity
  8
0
100
AcDbLine
 62
7
  6
CONTINUOUS
 10
14.0491956605
 20
11.9512413967
 11
14.0682607772
 21
11.9123907737
  0
LINE
  5
28C
100
AcDbEntity
  8
0
100
AcDbLine
 62
7
  6
CONTINUOUS
 10
14.2005394771
 20
11.8286229339
 11
14.1814743604
 21
11.8674735569
  0
LINE
  5
28D
100
AcDbEntity
  8
0
100
AcDbLine
 62
7
  6
CONTINUOUS
 10
13.8784993597
 20
11.576095963
 11
14.1493715862
 21
12.452638809
  0
LINE
  5
28E
100
AcDbEntity
  8
0
100
AcDbLine
 62
7
  6
CONTINUOUS
 10
14.0235270489
 20
11.2711000801
 11
17.4199394643
 21
11.2711000801
  0
LINE
  5
28F
100
AcDbEntity
  8
0
100
AcDbLine
 62
7
  6
CONTINUOUS
 10
14.5119830141
 20
11.6066519986
 11
14.4725056263
 21
12.0279727214
  0
LINE
  5
290
100
AcDbEntity
  8
0
100
AcDbLine
 62
7
  6
CONTINUOUS
 10
14.336614204
 20
11.9634612102
 11
14.3632657902
 21
12.0497057746
  0
LINE
  5
291
100
AcDbEntity
  8
0
100
AcDbLine
 62
7
  6
CONTINUOUS
 10
14.4863873205
 20
12.1686899696
 11
14.7466086181
 21
13.0107663974
  0
LINE
  5
292
100
AcDbEntity
  8
0
100
AcDbLine
 62
7
  6
CONTINUOUS
 10
16.0814477961
 20
11.8150088023
 11
16.0709761583
 21
11.8150088023
  0
LINE
  5
293
100
AcDbEntity
  8
0
100
AcDbLine
 62
7
  6
CONTINUOUS
 10
14.8281954505
 20
11.8150088023
 11
14.8386670884
 21
11.8150088023
  0
LINE
  5
294
100
AcDbEntity
  8
0
100
AcDbLine
 62
7
  6
CONTINUOUS
 10
14.4911845292
 20
11.8286229339
 11
14.2005394771
 21
11.8286229339
  0
LINE
  5
295
100
AcDbEntity
  8
0
100
AcDbLine
 62
7
  6
CONTINUOUS
 10
16.7246492211
 20
11.8286229339
 11
17.0903683458
 21
11.8286229339
  0
LINE
  5
296
100
AcDbEntity
  8
0
100
AcDbLine
 62
7
  6
CONTINUOUS
 10
16.0699231005
 20
11.608763592
 11
16.0591203698
 21
11.6122971661
  0
LINE
  5
297
100
AcDbEntity
  8
0
100
AcDbLine
 62
7
  6
CONTINUOUS
 10
14.7878480821
 20
12.0281304316
 11
14.7770453514
 21
12.0316640057
  0
LINE
  5
298
100
AcDbEntity
  8
0
100
AcDbLine
 62
7
  6
CONTINUOUS
 10
14.7770453514
 20
12.0316640057
 11
14.7830171606
 21
12.0555711395
  0
LINE
  5
299
100
AcDbEntity
  8
0
100
AcDbLine
 62
7
  6
CONTINUOUS
 10
14.7914375377
 20
12.0782371374
 11
14.7770453514
 21
12.0316640057
  0
LINE
  5
29A
100
AcDbEntity
  8
0
100
AcDbLine
 62
7
  6
CONTINUOUS
 10
14.8029772273
 20
12.0770883635
 11
14.7878480821
 21
12.0281304316
  0
LINE
  5
29B
100
AcDbEntity
  8
0
100
AcDbLine
 62
7
  6
CONTINUOUS
 10
14.8433245958
 20
11.8639667342
 11
14.8537962336
 21
11.8639667342
  0
LINE
  5
29C
100
AcDbEntity
  8
0
100
AcDbLine
 62
7
  6
CONTINUOUS
 10
14.1814743604
 20
11.8674735569
 11
14.4875442594
 21
11.8674735569
  0
LINE
  5
29D
100
AcDbEntity
  8
0
100
AcDbLine
 62
7
  6
CONTINUOUS
 10
16.6879152305
 20
11.8674735569
 11
17.0713032291
 21
11.8674735569
  0
LINE
  5
29E
100
AcDbEntity
  8
0
100
AcDbLine
 62
7
  6
CONTINUOUS
 10
14.8005368551
 20
11.8927100484
 11
14.7900652172
 21
11.8927100484
  0
LINE
  5
29F
100
AcDbEntity
  8
0
100
AcDbLine
 62
7
  6
CONTINUOUS
 10
16.0328459249
 20
11.8927100484
 11
16.0433175628
 21
11.8927100484
  0
LINE
  5
2A0
100
AcDbEntity
  8
0
100
AcDbLine
 62
7
  6
CONTINUOUS
 10
14.2744597321
 20
11.9634612102
 11
14.4785502992
 21
11.9634612102
  0
LINE
  5
2A1
100
AcDbEntity
  8
0
100
AcDbLine
 62
7
  6
CONTINUOUS
 10
16.7498111535
 20
11.9634612102
 11
17.0376427141
 21
11.9634612102
  0
LINE
  5
2A2
100
AcDbEntity
  8
0
100
AcDbLine
 62
7
  6
CONTINUOUS
 10
14.7925465168
 20
12.0805002497
 11
14.8029772273
 21
12.0770883635
  0
LINE
  5
2A3
100
AcDbEntity
  8
0
100
AcDbLine
 62
7
  6
CONTINUOUS
 10
16.074249515
 20
11.6612550979
 11
16.0850522457
 21
11.6577215239
  0
LINE
  5
2A4
100
AcDbEntity
  8
0
100
AcDbLine
 62
7
  6
CONTINUOUS
 10
14.8015899128
 20
12.0989552587
 11
14.8123926435
 21
12.0954216846
  0
LINE
  5
2A5
100
AcDbEntity
  8
0
100
AcDbLine
 62
7
  6
CONTINUOUS
 10
16.0836649312
 20
11.6795884191
 11
16.0944676619
 21
11.676054845
  0
LINE
  5
2A6
100
AcDbEntity
  8
0
100
AcDbLine
 62
7
  6
CONTINUOUS
 10
15.8884739782
 20
11.4681916123
 11
15.8802347376
 21
11.4743119421
  0
LINE
  5
2A7
100
AcDbEntity
  8
0
100
AcDbLine
 62
7
  6
CONTINUOUS
 10
14.910635615
 20
12.1945562856
 11
14.9023963744
 21
12.2006766154
  0
LINE
  5
2A8
100
AcDbEntity
  8
0
100
AcDbLine
 62
7
  6
CONTINUOUS
 10
15.8953638828
 20
11.523269874
 11
15.9036031234
 21
11.5171495442
  0
LINE
  5
2A9
100
AcDbEntity
  8
0
100
AcDbLine
 62
7
  6
CONTINUOUS
 10
14.9830390352
 20
12.2395272384
 11
14.9912782757
 21
12.2334069086
  0
LINE
  5
2AA
100
AcDbEntity
  8
0
100
AcDbLine
 62
7
  6
CONTINUOUS
 10
15.9608773983
 20
11.5131625652
 11
15.9691166389
 21
11.5070422354
  0
LINE
  5
2AB
100
AcDbEntity
  8
0
100
AcDbLine
 62
7
  6
CONTINUOUS
 10
14.8156660003
 20
11.9416679802
 11
14.8005368551
 21
11.8927100484
  0
LINE
  5
2AC
100
AcDbEntity
  8
0
100
AcDbLine
 62
7
  6
CONTINUOUS
 10
14.9147025305
 20
12.2077168292
 11
14.910635615
 21
12.1945562856
  0
LINE
  5
2AD
100
AcDbEntity
  8
03__ASM_ALL_CURVES
100
AcDbLine
 62
4
  6
CONTINUOUS
 10
14.9762540196
 20
12.3778160953
 11
15.4004484903
 21
13.7505099057
  0
LINE
  5
2AE
100
AcDbEntity
  8
0
100
AcDbLine
 62
7
  6
CONTINUOUS
 10
14.8433245958
 20
11.8639667342
 11
14.8281954505
 21
11.8150088023
  0
LINE
  5
2AF
100
AcDbEntity
  8
0
100
AcDbLine
 62
7
  6
CONTINUOUS
 10
14.8537962336
 20
11.8639667342
 11
14.8386670884
 21
11.8150088023
  0
LINE
  5
2B0
100
AcDbEntity
  8
0
100
AcDbLine
 62
7
  6
CONTINUOUS
 10
14.4713375257
 20
12.0530114849
 11
14.3953454617
 21
12.0530114849
  0
LINE
  5
2B1
100
AcDbEntity
  8
0
100
AcDbLine
 62
7
  6
CONTINUOUS
 10
16.870696883
 20
12.0530114849
 11
17.1585284437
 21
12.0530114849
  0
LINE
  5
2B2
100
AcDbEntity
  8
0
100
AcDbLine
 62
7
  6
CONTINUOUS
 10
17.098159295
 20
12.1592929376
 11
16.8103277344
 21
12.1592929376
  0
LINE
  5
2B3
100
AcDbEntity
  8
0
100
AcDbLine
 62
7
  6
CONTINUOUS
 10
14.4839964289
 20
12.1592929376
 11
14.334976313
 21
12.1592929376
  0
LINE
  5
2B4
100
AcDbEntity
  8
03__ASM_ALL_CURVES
100
AcDbLine
 62
4
  6
CONTINUOUS
 10
13.2499608588
 20
12.177928943
 11
13.4802261073
 21
12.177928943
  0
LINE
  5
2B5
100
AcDbEntity
  8
0
100
AcDbLine
 62
7
  6
CONTINUOUS
 10
15.1706608141
 20
12.276759839
 11
15.1741288667
 21
12.2696926909
  0
LINE
  5
2B6
100
AcDbEntity
  8
0
100
AcDbLine
 62
7
  6
CONTINUOUS
 10
15.585719575
 20
11.4309590117
 11
15.5822515224
 21
11.4380261598
  0
LINE
  5
2B7
100
AcDbEntity
  8
0
100
AcDbLine
 62
7
  6
CONTINUOUS
 10
15.5973806676
 20
11.4869840917
 11
15.6008487202
 21
11.4799169435
  0
LINE
  5
2B8
100
AcDbEntity
  8
0
100
AcDbLine
 62
7
  6
CONTINUOUS
 10
14.9740168045
 20
11.7285463509
 11
14.9588876593
 21
11.6795884191
  0
LINE
  5
2B9
100
AcDbEntity
  8
0
100
AcDbLine
 62
7
  6
CONTINUOUS
 10
15.1763873183
 20
12.2770010429
 11
15.1741288667
 21
12.2696926909
  0
LINE
  5
2BA
100
AcDbEntity
  8
0
100
AcDbLine
 62
7
  6
CONTINUOUS
 10
17.1911446667
 20
12.2552805909
 11
16.8077566681
 21
12.2552805909
  0
LINE
  5
2BB
100
AcDbEntity
  8
0
100
AcDbLine
 62
7
  6
CONTINUOUS
 10
14.5131458463
 20
12.2552805909
 11
14.301315798
 21
12.2552805909
  0
LINE
  5
2BC
100
AcDbEntity
  8
0
100
AcDbLine
 62
7
  6
CONTINUOUS
 10
15.6284239404
 20
12.2007888662
 11
15.6287303246
 21
12.2006766154
  0
LINE
  5
2BD
100
AcDbEntity
  8
0
100
AcDbLine
 62
7
  6
CONTINUOUS
 10
15.6284267357
 20
12.2007938996
 11
15.6287303246
 21
12.2006766154
  0
LINE
  5
2BE
100
AcDbEntity
  8
0
100
AcDbLine
 62
7
  6
CONTINUOUS
 10
15.2857934384
 20
12.276759839
 11
15.2892614909
 21
12.2696926909
  0
LINE
  5
2BF
100
AcDbEntity
  8
0
100
AcDbLine
 62
7
  6
CONTINUOUS
 10
15.7008521992
 20
11.4309590117
 11
15.6973841466
 21
11.4380261598
  0
LINE
  5
2C0
100
AcDbEntity
  8
0
100
AcDbLine
 62
7
  6
CONTINUOUS
 10
15.0572701892
 20
11.6577215239
 11
15.042141044
 21
11.608763592
  0
LINE
  5
2C1
100
AcDbEntity
  8
0
100
AcDbLine
 62
7
  6
CONTINUOUS
 10
15.0646048673
 20
11.6612550979
 11
15.0494757221
 21
11.6122971661
  0
LINE
  5
2C2
100
AcDbEntity
  8
0
100
AcDbLine
 62
7
  6
CONTINUOUS
 10
17.5363283051
 20
12.4530244156
 11
16.9223066354
 21
12.4530244156
  0
LINE
  5
2C3
100
AcDbEntity
  8
0
100
AcDbLine
 62
7
  6
CONTINUOUS
 10
14.5742533099
 20
12.4530244156
 11
14.1498943463
 21
12.4530244156
  0
LINE
  5
2C4
100
AcDbEntity
  8
0
100
AcDbLine
 62
7
  6
CONTINUOUS
 10
15.2601442312
 20
11.562120497
 11
15.245015086
 21
11.5131625652
  0
LINE
  5
2C5
100
AcDbEntity
  8
0
100
AcDbLine
 62
7
  6
CONTINUOUS
 10
15.2427826887
 20
11.5070422354
 11
15.245015086
 21
11.5131625652
  0
LINE
  5
2C6
100
AcDbEntity
  8
0
100
AcDbLine
 62
7
  6
CONTINUOUS
 10
15.5077250332
 20
12.2334069086
 11
15.5099574305
 21
12.2395272384
  0
LINE
  5
2C7
100
AcDbEntity
  8
0
100
AcDbLine
 62
7
  6
CONTINUOUS
 10
15.9319695708
 20
12.8440251658
 11
15.945581799
 21
12.8577609353
  0
LINE
  5
2C8
100
AcDbEntity
  8
0
100
AcDbLine
 62
7
  6
CONTINUOUS
 10
15.9150099428
 20
12.7588303724
 11
15.9013977146
 21
12.7450946029
  0
LINE
  5
2C9
100
AcDbEntity
  8
0
100
AcDbLine
 62
7
  6
CONTINUOUS
 10
15.9809383416
 20
12.6475541281
 11
16.0910508249
 21
12.6489442164
  0
LINE
  5
2CA
100
AcDbEntity
  8
0
100
AcDbLine
 62
7
  6
CONTINUOUS
 10
16.1046630531
 20
12.6626799859
 11
15.9945505698
 21
12.6612898976
  0
LINE
  5
2CB
100
AcDbEntity
  8
0
100
AcDbLine
 62
7
  6
CONTINUOUS
 10
15.376684728
 20
11.5171495442
 11
15.3615555828
 21
11.4681916123
  0
LINE
  5
2CC
100
AcDbEntity
  8
0
100
AcDbLine
 62
7
  6
CONTINUOUS
 10
15.3789171253
 20
11.523269874
 11
15.3637879801
 21
11.4743119421
  0
LINE
  5
2CD
100
AcDbEntity
  8
0
100
AcDbLine
 62
7
  6
CONTINUOUS
 10
15.6284189839
 20
12.2007728269
 11
15.6264979273
 21
12.1945562856
  0
LINE
  5
2CE
100
AcDbEntity
  8
0
100
AcDbLine
 62
7
  6
CONTINUOUS
 10
15.9319695708
 20
12.8440251658
 11
15.9013977146
 21
12.7450946029
  0
LINE
  5
2CF
100
AcDbEntity
  8
0
100
AcDbLine
 62
7
  6
CONTINUOUS
 10
15.945581799
 20
12.8577609353
 11
15.9150099428
 21
12.7588303724
  0
LINE
  5
2D0
100
AcDbEntity
  8
0
100
AcDbLine
 62
7
  6
CONTINUOUS
 10
15.376684728
 20
11.5171495442
 11
15.3789171253
 21
11.523269874
  0
LINE
  5
2D1
100
AcDbEntity
  8
0
100
AcDbLine
 62
7
  6
CONTINUOUS
 10
15.6287303246
 20
12.2006766154
 11
15.6264979273
 21
12.1945562856
  0
LINE
  5
2D2
100
AcDbEntity
  8
0
100
AcDbLine
 62
7
  6
CONTINUOUS
 10
15.3637879801
 20
11.4743119421
 11
15.3615555828
 21
11.4681916123
  0
LINE
  5
2D3
100
AcDbEntity
  8
0
100
AcDbLine
 62
7
  6
CONTINUOUS
 10
15.9809383416
 20
12.6475541281
 11
15.9945505698
 21
12.6612898976
  0
LINE
  5
2D4
100
AcDbEntity
  8
0
100
AcDbLine
 62
7
  6
CONTINUOUS
 10
16.0910508249
 20
12.6489442164
 11
16.1046630531
 21
12.6626799859
  0
LINE
  5
2D5
100
AcDbEntity
  8
0
100
AcDbLine
 62
7
  6
CONTINUOUS
 10
16.0244807757
 20
12.8587569763
 11
15.945581799
 21
12.8577609353
  0
LINE
  5
2D6
100
AcDbEntity
  8
0
100
AcDbLine
 62
7
  6
CONTINUOUS
 10
15.5973806676
 20
11.4869840917
 11
15.5822515224
 21
11.4380261598
  0
LINE
  5
2D7
100
AcDbEntity
  8
0
100
AcDbLine
 62
7
  6
CONTINUOUS
 10
15.6008487202
 20
11.4799169435
 11
15.585719575
 21
11.4309590117
  0
LINE
  5
2D8
100
AcDbEntity
  8
0
100
AcDbLine
 62
7
  6
CONTINUOUS
 10
14.9515529812
 20
11.676054845
 11
14.9588876593
 21
11.6795884191
  0
LINE
  5
2D9
100
AcDbEntity
  8
0
100
AcDbLine
 62
7
  6
CONTINUOUS
 10
15.8220372912
 20
12.0954216846
 11
15.8293719693
 21
12.0989552587
  0
LINE
  5
2DA
100
AcDbEntity
  8
0
100
AcDbLine
 62
7
  6
CONTINUOUS
 10
15.9013977146
 20
12.7450946029
 11
15.9809383416
 21
12.6475541281
  0
LINE
  5
2DB
100
AcDbEntity
  8
0
100
AcDbLine
 62
7
  6
CONTINUOUS
 10
15.9945505698
 20
12.6612898976
 11
15.9150099428
 21
12.7588303724
  0
LINE
  5
2DC
100
AcDbEntity
  8
0
100
AcDbLine
 62
7
  6
CONTINUOUS
 10
15.7125132918
 20
11.4869840917
 11
15.6973841466
 21
11.4380261598
  0
LINE
  5
2DD
100
AcDbEntity
  8
0
100
AcDbLine
 62
7
  6
CONTINUOUS
 10
16.1046630531
 20
12.6626799859
 11
16.1352349093
 21
12.7616105489
  0
LINE
  5
2DE
100
AcDbEntity
  8
0
100
AcDbLine
 62
7
  6
CONTINUOUS
 10
15.9149711843
 20
12.0357215411
 11
15.9126253541
 21
12.0281304316
  0
LINE
  5
2DF
100
AcDbEntity
  8
0
100
AcDbLine
 62
7
  6
CONTINUOUS
 10
15.8953638828
 20
11.523269874
 11
15.8802347376
 21
11.4743119421
  0
LINE
  5
2E0
100
AcDbEntity
  8
0
100
AcDbLine
 62
7
  6
CONTINUOUS
 10
15.0572701892
 20
11.6577215239
 11
15.0646048673
 21
11.6612550979
  0
LINE
  5
2E1
100
AcDbEntity
  8
0
100
AcDbLine
 62
7
  6
CONTINUOUS
 10
15.9199600322
 20
12.0316640057
 11
15.9126253541
 21
12.0281304316
  0
LINE
  5
2E2
100
AcDbEntity
  8
0
100
AcDbLine
 62
7
  6
CONTINUOUS
 10
15.0494757221
 20
11.6122971661
 11
15.042141044
 21
11.608763592
  0
LINE
  5
2E3
100
AcDbEntity
  8
0
100
AcDbLine
 62
7
  6
CONTINUOUS
 10
16.1352349093
 20
12.7616105489
 11
16.1298303664
 21
12.7682381265
  0
LINE
  5
2E4
100
AcDbEntity
  8
0
100
AcDbLine
 62
7
  6
CONTINUOUS
 10
16.0944676619
 20
11.676054845
 11
16.0884958527
 21
11.6521477113
  0
LINE
  5
2E5
100
AcDbEntity
  8
0
100
AcDbLine
 62
7
  6
CONTINUOUS
 10
15.9036031234
 20
11.5171495442
 11
15.8884739782
 21
11.4681916123
  0
LINE
  5
2E6
100
AcDbEntity
  8
0
100
AcDbLine
 62
7
  6
CONTINUOUS
 10
15.9760065436
 20
11.562120497
 11
15.9608773983
 21
11.5131625652
  0
LINE
  5
2E7
100
AcDbEntity
  8
0
100
AcDbLine
 62
7
  6
CONTINUOUS
 10
16.0755393743
 20
11.8297753748
 11
16.0709761583
 21
11.8150088023
  0
LINE
  5
2E8
100
AcDbEntity
  8
0
100
AcDbLine
 62
7
  6
CONTINUOUS
 10
16.074249515
 20
11.6612550979
 11
16.0591203698
 21
11.6122971661
  0
LINE
  5
2E9
100
AcDbEntity
  8
0
100
AcDbLine
 62
7
  6
CONTINUOUS
 10
16.0850522457
 20
11.6577215239
 11
16.0699231005
 21
11.608763592
  0
LINE
  5
2EA
100
AcDbEntity
  8
0
100
AcDbLine
 62
7
  6
CONTINUOUS
 10
16.7042445489
 20
11.8341979046
 11
16.6879152305
 21
11.8674735569
  0
LINE
  5
2EB
100
AcDbEntity
  8
0
100
AcDbLine
 62
7
  6
CONTINUOUS
 10
16.885213969
 20
12.4676579742
 11
16.5111829954
 21
12.888978697
  0
LINE
  5
2EC
100
AcDbEntity
  8
0
100
AcDbLine
 62
7
  6
CONTINUOUS
 10
17.0713032291
 20
11.8674735569
 11
17.0903683458
 21
11.8286229339
  0
LINE
  5
2ED
100
AcDbEntity
  8
0
100
AcDbLine
 62
7
  6
CONTINUOUS
 10
17.2750445777
 20
11.566364815
 11
17.4199394643
 21
11.2711000801
  0
LINE
  5
2EE
100
AcDbEntity
  8
0
100
AcDbLine
 62
7
  6
CONTINUOUS
 10
17.3234233666
 20
12.1715127511
 11
17.3424884833
 21
12.1326621281
  0
LINE
  5
2EF
100
AcDbEntity
  8
0
100
AcDbLine
 62
7
  6
CONTINUOUS
 10
17.6922640782
 20
12.1523428534
 11
17.5473691915
 21
12.4476075884
  0
LINE
  5
2F0
100
AcDbEntity
  8
0
100
AcDbLine
 62
7
  6
CONTINUOUS
 10
17.4199394643
 20
11.2711000801
 11
17.6922640782
 21
12.1523428534
  0
ARC
  5
2F1
100
AcDbEntity
  8
0
100
AcDbCircle
 62
7
  6
CONTINUOUS
 10
4.6812709156
 20
4.9013698968
 40
0.025
100
AcDbArc
 50
90.0
 51
180.0
  0
ARC
  5
2F2
100
AcDbEntity
  8
0
100
AcDbCircle
 62
7
  6
CONTINUOUS
 10
5.3283337888
 20
4.9513698968
 40
0.025
100
AcDbArc
 50
270.0
 51
345.0
  0
ARC
  5
2F3
100
AcDbEntity
  8
0
100
AcDbCircle
 62
7
  6
CONTINUOUS
 10
6.5000209156
 20
5.3638698968
 40
1.0
100
AcDbArc
 50
15.0
 51
165.0
  0
ARC
  5
2F4
100
AcDbEntity
  8
0
100
AcDbCircle
 62
7
  6
CONTINUOUS
 10
6.5000209156
 20
5.3638698968
 40
0.683195625
100
AcDbArc
 50
24.7511374052
 51
35.2488625948
  0
ARC
  5
2F5
100
AcDbEntity
  8
0
100
AcDbCircle
 62
7
  6
CONTINUOUS
 10
6.5000209156
 20
5.3638698968
 40
0.683195625
100
AcDbArc
 50
54.7511374052
 51
65.2488625948
  0
ARC
  5
2F6
100
AcDbEntity
  8
0
100
AcDbCircle
 62
7
  6
CONTINUOUS
 10
6.5000209156
 20
5.3638698968
 40
0.683195625
100
AcDbArc
 50
84.7511374052
 51
95.2488625948
  0
ARC
  5
2F7
100
AcDbEntity
  8
0
100
AcDbCircle
 62
7
  6
CONTINUOUS
 10
6.5000209156
 20
5.3638698968
 40
0.683195625
100
AcDbArc
 50
114.7511374052
 51
125.2488625948
  0
ARC
  5
2F8
100
AcDbEntity
  8
0
100
AcDbCircle
 62
7
  6
CONTINUOUS
 10
6.5000209156
 20
5.3638698968
 40
0.683195625
100
AcDbArc
 50
144.7511374052
 51
155.2488625948
  0
ARC
  5
2F9
100
AcDbEntity
  8
0
100
AcDbCircle
 62
7
  6
CONTINUOUS
 10
6.5000209156
 20
5.3638698968
 40
0.683195625
100
AcDbArc
 50
204.7511374052
 51
215.2488625948
  0
ARC
  5
2FA
100
AcDbEntity
  8
0
100
AcDbCircle
 62
7
  6
CONTINUOUS
 10
6.5000209156
 20
5.3638698968
 40
0.683195625
100
AcDbArc
 50
234.7511374052
 51
245.2488625948
  0
ARC
  5
2FB
100
AcDbEntity
  8
0
100
AcDbCircle
 62
7
  6
CONTINUOUS
 10
6.5000209156
 20
5.3638698968
 40
0.683195625
100
AcDbArc
 50
264.7511374052
 51
275.2488625948
  0
ARC
  5
2FC
100
AcDbEntity
  8
0
100
AcDbCircle
 62
7
  6
CONTINUOUS
 10
6.5000209156
 20
5.3638698968
 40
0.683195625
100
AcDbArc
 50
294.7511374052
 51
305.2488625948
  0
ARC
  5
2FD
100
AcDbEntity
  8
0
100
AcDbCircle
 62
7
  6
CONTINUOUS
 10
6.5000209156
 20
5.3638698968
 40
0.683195625
100
AcDbArc
 50
324.7511374052
 51
335.2488625948
  0
ARC
  5
2FE
100
AcDbEntity
  8
0
100
AcDbCircle
 62
7
  6
CONTINUOUS
 10
6.5000209156
 20
5.3638698968
 40
0.683195625
100
AcDbArc
 50
174.7511374052
 51
185.2488625948
  0
ARC
  5
2FF
100
AcDbEntity
  8
0
100
AcDbCircle
 62
7
  6
CONTINUOUS
 10
6.5000209156
 20
5.3638698968
 40
0.683195625
100
AcDbArc
 50
354.7511374052
 51
5.2488625948
  0
CIRCLE
  5
300
100
AcDbEntity
  8
0
100
AcDbCircle
 62
7
  6
CONTINUOUS
 10
6.5000209156
 20
5.3638698968
 40
0.671875
  0
ARC
  5
301
100
AcDbEntity
  8
0
100
AcDbCircle
 62
7
  6
CONTINUOUS
 10
7.6717080424
 20
4.9513698968
 40
0.025
100
AcDbArc
 50
195.0
 51
270.0
  0
ARC
  5
302
100
AcDbEntity
  8
0
100
AcDbCircle
 62
7
  6
CONTINUOUS
 10
8.3187709156
 20
4.9013698968
 40
0.025
100
AcDbArc
 50
0.0
 51
90.0
  0
ARC
  5
303
100
AcDbEntity
  8
0
100
AcDbCircle
 62
7
  6
CONTINUOUS
 10
7.1952596371
 20
6.2161040234
 40
0.0625
100
AcDbArc
 50
226.5013354903
 51
323.0677111769
  0
ARC
  5
304
100
AcDbEntity
  8
0
100
AcDbCircle
 62
7
  6
CONTINUOUS
 10
7.3522550422
 20
6.0591086183
 40
0.0625
100
AcDbArc
 50
126.9322888231
 51
223.4986645096
  0
ARC
  5
305
100
AcDbEntity
  8
0
100
AcDbCircle
 62
7
  6
CONTINUOUS
 10
7.3244952387
 20
6.1529888808
 40
0.045
100
AcDbArc
 50
257.4284727137
 51
45.0000000001
  0
ARC
  5
306
100
AcDbEntity
  8
0
100
AcDbCircle
 62
7
  6
CONTINUOUS
 10
7.2891398996
 20
6.1883442199
 40
0.045
100
AcDbArc
 50
44.9999999999
 51
192.5715272863
  0
ARC
  5
307
100
AcDbEntity
  8
0
100
AcDbCircle
 62
7
  6
CONTINUOUS
 10
7.9742796754
 20
12.6094056519
 40
0.25
100
AcDbArc
 50
278.046931485
 51
81.953068515
  0
ARC
  5
308
100
AcDbEntity
  8
0
100
AcDbCircle
 62
7
  6
CONTINUOUS
 10
7.6280257233
 20
12.6094056519
 40
0.25
100
AcDbArc
 50
98.046931485
 51
261.953068515
  0
ARC
  5
309
100
AcDbEntity
  8
0
100
AcDbCircle
 62
7
  6
CONTINUOUS
 10
4.9067717712
 20
12.6094056519
 40
0.25
100
AcDbArc
 50
98.0469314849
 51
261.953068515
  0
ARC
  5
30A
100
AcDbEntity
  8
0
100
AcDbCircle
 62
7
  6
CONTINUOUS
 10
5.2530257233
 20
12.6094056519
 40
0.25
100
AcDbArc
 50
278.0469314849
 51
81.9530685151
  0
ARC
  5
30B
100
AcDbEntity
  8
0
100
AcDbCircle
 62
7
  6
CONTINUOUS
 10
7.9405257233
 20
12.6094056519
 40
0.125
100
AcDbArc
 50
270.0
 51
90.0
  0
ARC
  5
30C
100
AcDbEntity
  8
0
100
AcDbCircle
 62
7
  6
CONTINUOUS
 10
7.6280257233
 20
12.6094056519
 40
0.125
100
AcDbArc
 50
90.0
 51
270.0
  0
ARC
  5
30D
100
AcDbEntity
  8
0
100
AcDbCircle
 62
7
  6
CONTINUOUS
 10
4.9405257233
 20
12.6094056519
 40
0.125
100
AcDbArc
 50
90.0
 51
270.0
  0
ARC
  5
30E
100
AcDbEntity
  8
0
100
AcDbCircle
 62
7
  6
CONTINUOUS
 10
5.2530257233
 20
12.6094056519
 40
0.125
100
AcDbArc
 50
270.0
 51
90.0
  0
ARC
  5
30F
100
AcDbEntity
  8
0
100
AcDbCircle
 62
7
  6
CONTINUOUS
 10
15.0322131275
 20
6.2793747044
 40
0.025
100
AcDbArc
 50
90.0
 51
179.9999999994
  0
ARC
  5
310
100
AcDbEntity
  8
0
100
AcDbCircle
 62
7
  6
CONTINUOUS
 10
16.1072131275
 20
6.2793747044
 40
0.025
100
AcDbArc
 50
0.0000000006
 51
90.0
  0
ARC
  5
311
100
AcDbEntity
  8
0
100
AcDbCircle
 62
7
  6
CONTINUOUS
 10
15.0322131275
 20
4.8418747044
 40
0.025
100
AcDbArc
 50
90.0
 51
180.0
  0
ARC
  5
312
100
AcDbEntity
  8
0
100
AcDbCircle
 62
7
  6
CONTINUOUS
 10
16.1072131275
 20
4.8418747044
 40
0.025
100
AcDbArc
 50
0.0
 51
90.0
  0
ARC
  5
313
100
AcDbEntity
  8
0
100
AcDbCircle
 62
7
  6
CONTINUOUS
 10
15.6869393878
 20
12.666631599
 40
1.1906162053
100
AcDbArc
 50
248.8945358439
 51
254.8953260877
  0
ARC
  5
314
100
AcDbEntity
  8
0
100
AcDbCircle
 62
7
  6
CONTINUOUS
 10
15.1997028039
 20
11.0900452849
 40
1.1906160988
100
AcDbArc
 50
68.8945355749
 51
74.8953263563
  0
ARC
  5
315
100
AcDbEntity
  8
0
100
AcDbCircle
 62
7
  6
CONTINUOUS
 10
15.6718028932
 20
12.6176495388
 40
1.1905909954
100
AcDbArc
 50
248.8787854829
 51
254.8953649699
  0
ARC
  5
316
100
AcDbEntity
  8
0
100
AcDbCircle
 62
7
  6
CONTINUOUS
 10
15.683004915
 20
12.6538971088
 40
1.1708062726
100
AcDbArc
 50
248.8279023179
 51
254.9462481349
  0
ARC
  5
317
100
AcDbEntity
  8
0
100
AcDbCircle
 62
7
  6
CONTINUOUS
 10
16.8428318591
 20
11.9529617529
 40
0.3043467576
100
AcDbArc
 50
96.617898416
 51
99.6876521455
  0
ARC
  5
318
100
AcDbEntity
  8
0
100
AcDbCircle
 62
7
  6
CONTINUOUS
 10
16.7164750802
 20
12.0971289625
 40
0.2314244377
100
AcDbArc
 50
259.2237979318
 51
262.911115365
  0
ARC
  5
319
100
AcDbEntity
  8
0
100
AcDbCircle
 62
7
  6
CONTINUOUS
 10
15.8834235036
 20
11.7699407578
 40
0.2307537781
100
AcDbArc
 50
330.9012766293
 51
336.0241305363
  0
ARC
  5
31A
100
AcDbEntity
  8
0
100
AcDbCircle
 62
7
  6
CONTINUOUS
 10
15.8761105904
 20
11.7722156496
 40
0.2270931031
100
AcDbArc
 50
330.7505674326
 51
335.9563725415
  0
ARC
  5
31B
100
AcDbEntity
  8
0
100
AcDbCircle
 62
7
  6
CONTINUOUS
 10
14.999720348
 20
11.988468016
 40
0.2268547997
100
AcDbArc
 50
150.8538200651
 51
162.7946241573
  0
ARC
  5
31C
100
AcDbEntity
  8
0
100
AcDbCircle
 62
7
  6
CONTINUOUS
 10
15.8717926653
 20
11.7192508347
 40
0.2268547997
100
AcDbArc
 50
330.8538200651
 51
342.7946241573
  0
ARC
  5
31D
100
AcDbEntity
  8
0
100
AcDbCircle
 62
7
  6
CONTINUOUS
 10
15.0202559713
 20
12.0359206452
 40
0.2211443728
100
AcDbArc
 50
163.9796747146
 51
169.2713661898
  0
SPLINE
  5
31E
100
AcDbEntity
  8
0
100
AcDbSpline
 62
7
  6
CONTINUOUS
 70
0
 71
3
 72
34
 73
30
 74
0
 42
0.0000001
 43
0.0000001
 44
0.0000000001
 40
0.0
 40
0.0
 40
0.0
 40
0.0
 40
0.0634303366
 40
0.1265599292
 40
0.1892506148
 40
0.220473799
 40
0.2516157796
 40
0.282700044
 40
0.3137503372
 40
0.344781116
 40
0.3758037221
 40
0.4068268368
 40
0.4378554835
 40
0.4688902578
 40
0.4999292219
 40
0.530968963
 40
0.5620063987
 40
0.5930393376
 40
0.6240668048
 40
0.6550962921
 40
0.6861365143
 40
0.7171937441
 40
0.7482860587
 40
0.7794345236
 40
0.8106643833
 40
0.8419939356
 40
0.8734305337
 40
0.9365675283
 40
1.0
 40
1.0
 40
1.0
 40
1.0
 10
7.1846447073
 20
12.6250306519
 30
0.0
 10
7.1846447073
 20
12.6294445356
 30
0.0
 10
7.1853715913
 20
12.6382693812
 30
0.0
 10
7.1886352056
 20
12.6510884989
 30
0.0
 10
7.1931554528
 20
12.6611097712
 30
0.0
 10
7.1978050888
 20
12.6684785099
 30
0.0
 10
7.2017905765
 20
12.6736302594
 30
0.0
 10
7.2062563754
 20
12.6783553882
 30
0.0
 10
7.2111736184
 20
12.6825980245
 30
0.0
 10
7.2165032229
 20
12.6863028807
 30
0.0
 10
7.2221965729
 20
12.6894171863
 30
0.0
 10
7.2281952097
 20
12.6918937271
 30
0.0
 10
7.2344317606
 20
12.6936930816
 30
0.0
 10
7.240831431
 20
12.694785671
 30
0.0
 10
7.2473142252
 20
12.6951526995
 30
0.0
 10
7.2537973014
 20
12.6947874249
 30
0.0
 10
7.2601978139
 20
12.6936965753
 30
0.0
 10
7.2664356227
 20
12.69189871
 30
0.0
 10
7.2724358281
 20
12.6894230869
 30
0.0
 10
7.2781310199
 20
12.6863091827
 30
0.0
 10
7.2834629586
 20
12.6826047948
 30
0.0
 10
7.2883817851
 20
12.6783614026
 30
0.0
 10
7.2928494614
 20
12.6736358822
 30
0.0
 10
7.2968362867
 20
12.6684837243
 30
0.0
 10
7.3003210404
 20
12.6629608785
 30
0.0
 10
7.3032890426
 20
12.6571216955
 30
0.0
 10
7.3065456681
 20
12.6489775508
 30
0.0
 10
7.309273965
 20
12.6382684913
 30
0.0
 10
7.3100000464
 20
12.6294446841
 30
0.0
 10
7.3100000464
 20
12.6250306519
 30
0.0
  0
SPLINE
  5
31F
100
AcDbEntity
  8
0
100
AcDbSpline
 62
7
  6
CONTINUOUS
 70
0
 71
3
 72
34
 73
30
 74
0
 42
0.0000001
 43
0.0000001
 44
0.0000000001
 40
0.0
 40
0.0
 40
0.0
 40
0.0
 40
0.0634303366
 40
0.1265599292
 40
0.1892506148
 40
0.220473799
 40
0.2516157796
 40
0.282700044
 40
0.3137503372
 40
0.344781116
 40
0.3758037221
 40
0.4068268368
 40
0.4378554835
 40
0.4688902578
 40
0.4999292219
 40
0.530968963
 40
0.5620063987
 40
0.5930393376
 40
0.6240668048
 40
0.6550962921
 40
0.6861365143
 40
0.7171937441
 40
0.7482860587
 40
0.7794345236
 40
0.8106643833
 40
0.8419939356
 40
0.8734305337
 40
0.9365675283
 40
1.0
 40
1.0
 40
1.0
 40
1.0
 10
7.3100000464
 20
12.6250306519
 30
0.0
 10
7.3100000464
 20
12.6206167683
 30
0.0
 10
7.3092731624
 20
12.6117919226
 30
0.0
 10
7.306009548
 20
12.598972805
 30
0.0
 10
7.3014893009
 20
12.5889515327
 30
0.0
 10
7.2968396648
 20
12.581582794
 30
0.0
 10
7.2928541772
 20
12.5764310445
 30
0.0
 10
7.2883883782
 20
12.5717059157
 30
0.0
 10
7.2834711352
 20
12.5674632794
 30
0.0
 10
7.2781415308
 20
12.5637584232
 30
0.0
 10
7.2724481808
 20
12.5606441176
 30
0.0
 10
7.2664495439
 20
12.5581675768
 30
0.0
 10
7.260212993
 20
12.5563682222
 30
0.0
 10
7.2538133226
 20
12.5552756328
 30
0.0
 10
7.2473305285
 20
12.5549086043
 30
0.0
 10
7.2408474523
 20
12.555273879
 30
0.0
 10
7.2344469398
 20
12.5563647285
 30
0.0
 10
7.2282091309
 20
12.5581625939
 30
0.0
 10
7.2222089256
 20
12.5606382169
 30
0.0
 10
7.2165137338
 20
12.5637521211
 30
0.0
 10
7.2111817951
 20
12.567456509
 30
0.0
 10
7.2062629686
 20
12.5716999013
 30
0.0
 10
7.2017952923
 20
12.5764254216
 30
0.0
 10
7.197808467
 20
12.5815775796
 30
0.0
 10
7.1943237132
 20
12.5871004253
 30
0.0
 10
7.1913557111
 20
12.5929396084
 30
0.0
 10
7.1880990856
 20
12.6010837531
 30
0.0
 10
7.1853707887
 20
12.6117928125
 30
0.0
 10
7.1846447073
 20
12.6206166197
 30
0.0
 10
7.1846447073
 20
12.6250306519
 30
0.0
  0
SPLINE
  5
320
100
AcDbEntity
  8
0
100
AcDbSpline
 62
7
  6
CONTINUOUS
 70
0
 71
3
 72
10
 73
6
 74
0
 42
0.0000001
 43
0.0000001
 44
0.0000000001
 40
0.0
 40
0.0
 40
0.0
 40
0.0
 40
0.2623823574
 40
0.5166773732
 40
1.0
 40
1.0
 40
1.0
 40
1.0
 10
7.2309396927
 20
12.5575336749
 30
0.0
 10
7.2294425388
 20
12.5548340434
 30
0.0
 10
7.2262732548
 20
12.5496348526
 30
0.0
 10
7.2192833036
 20
12.5401619459
 30
0.0
 10
7.2131577103
 20
12.533905516
 30
0.0
 10
7.2087530468
 20
12.5303091234
 30
0.0
  0
SPLINE
  5
321
100
AcDbEntity
  8
0
100
AcDbSpline
 62
7
  6
CONTINUOUS
 70
0
 71
3
 72
10
 73
6
 74
0
 42
0.0000001
 43
0.0000001
 44
0.0000000001
 40
0.0
 40
0.0
 40
0.0
 40
0.0
 40
0.4833655867
 40
0.7376482643
 40
1.0
 40
1.0
 40
1.0
 40
1.0
 10
7.2087530468
 20
12.7197521805
 30
0.0
 10
7.2131450773
 20
12.7161661026
 30
0.0
 10
7.2192545055
 20
12.7099301306
 30
0.0
 10
7.2262298638
 20
12.7004897496
 30
0.0
 10
7.2293938467
 20
12.6953090599
 30
0.0
 10
7.2308889018
 20
12.6926191136
 30
0.0
  0
SPLINE
  5
322
100
AcDbEntity
  8
0
100
AcDbSpline
 62
7
  6
CONTINUOUS
 70
0
 71
3
 72
15
 73
11
 74
0
 42
0.0000001
 43
0.0000001
 44
0.0000000001
 40
0.0
 40
0.0
 40
0.0
 40
0.0
 40
0.1312712794
 40
0.2573740503
 40
0.3796904152
 40
0.5
 40
0.6203095848
 40
0.7426259497
 40
0.8687287206
 40
1.0
 40
1.0
 40
1.0
 40
1.0
 10
7.2087530468
 20
12.5303091234
 30
0.0
 10
7.2058968886
 20
12.52797708
 30
0.0
 10
7.1999537212
 20
12.5238018123
 30
0.0
 10
7.1903095437
 20
12.5191358127
 30
0.0
 10
7.1802916687
 20
12.5162937422
 30
0.0
 10
7.1700831447
 20
12.5153393008
 30
0.0
 10
7.1598746208
 20
12.5162937422
 30
0.0
 10
7.1498567458
 20
12.5191358127
 30
0.0
 10
7.1402125682
 20
12.5238018123
 30
0.0
 10
7.1342694008
 20
12.52797708
 30
0.0
 10
7.1314132426
 20
12.5303091234
 30
0.0
  0
SPLINE
  5
323
100
AcDbEntity
  8
0
100
AcDbSpline
 62
7
  6
CONTINUOUS
 70
0
 71
3
 72
15
 73
11
 74
0
 42
0.0000001
 43
0.0000001
 44
0.0000000001
 40
0.0
 40
0.0
 40
0.0
 40
0.0
 40
0.1097092204
 40
0.2245817563
 40
0.3445658644
 40
0.4692886109
 40
0.5981117891
 40
0.7301885905
 40
0.8645185024
 40
1.0
 40
1.0
 40
1.0
 40
1.0
 10
7.1314132426
 20
12.5303091234
 30
0.0
 10
7.1284251155
 20
12.532748919
 30
0.0
 10
7.1226801399
 20
12.5382128234
 30
0.0
 10
7.1150838221
 20
12.5476915913
 30
0.0
 10
7.1084309982
 20
12.558478601
 30
0.0
 10
7.1028324652
 20
12.5703885154
 30
0.0
 10
7.0983789454
 20
12.5832207459
 30
0.0
 10
7.0951440489
 20
12.5967590869
 30
0.0
 10
7.0931813167
 20
12.6107735825
 30
0.0
 10
7.0927433406
 20
12.6202667775
 30
0.0
 10
7.0927433406
 20
12.6250306519
 30
0.0
  0
SPLINE
  5
324
100
AcDbEntity
  8
0
100
AcDbSpline
 62
7
  6
CONTINUOUS
 70
0
 71
3
 72
15
 73
11
 74
0
 42
0.0000001
 43
0.0000001
 44
0.0000000001
 40
0.0
 40
0.0
 40
0.0
 40
0.0
 40
0.1354814976
 40
0.2698114095
 40
0.4018882109
 40
0.5307113891
 40
0.6554341356
 40
0.7754182437
 40
0.8902907796
 40
1.0
 40
1.0
 40
1.0
 40
1.0
 10
7.0927433406
 20
12.6250306519
 30
0.0
 10
7.0927433406
 20
12.6297945264
 30
0.0
 10
7.0931813167
 20
12.6392877214
 30
0.0
 10
7.0951440489
 20
12.653302217
 30
0.0
 10
7.0983789454
 20
12.666840558
 30
0.0
 10
7.1028324652
 20
12.6796727885
 30
0.0
 10
7.1084309982
 20
12.6915827028
 30
0.0
 10
7.1150838221
 20
12.7023697125
 30
0.0
 10
7.1226801399
 20
12.7118484804
 30
0.0
 10
7.1284251155
 20
12.7173123849
 30
0.0
 10
7.1314132426
 20
12.7197521805
 30
0.0
  0
SPLINE
  5
325
100
AcDbEntity
  8
0
100
AcDbSpline
 62
7
  6
CONTINUOUS
 70
0
 71
3
 72
15
 73
11
 74
0
 42
0.0000001
 43
0.0000001
 44
0.0000000001
 40
0.0
 40
0.0
 40
0.0
 40
0.0
 40
0.1312712794
 40
0.2573740503
 40
0.3796904152
 40
0.5
 40
0.6203095848
 40
0.7426259497
 40
0.8687287206
 40
1.0
 40
1.0
 40
1.0
 40
1.0
 10
7.1314132426
 20
12.7197521805
 30
0.0
 10
7.1342694008
 20
12.7220842239
 30
0.0
 10
7.1402125682
 20
12.7262594915
 30
0.0
 10
7.1498567458
 20
12.7309254911
 30
0.0
 10
7.1598746208
 20
12.7337675617
 30
0.0
 10
7.1700831447
 20
12.734722003
 30
0.0
 10
7.1802916687
 20
12.7337675617
 30
0.0
 10
7.1903095437
 20
12.7309254911
 30
0.0
 10
7.1999537212
 20
12.7262594915
 30
0.0
 10
7.2058968886
 20
12.7220842239
 30
0.0
 10
7.2087530468
 20
12.7197521805
 30
0.0
  0
SPLINE
  5
326
100
AcDbEntity
  8
0
100
AcDbSpline
 62
7
  6
CONTINUOUS
 70
0
 71
3
 72
34
 73
30
 74
0
 42
0.0000001
 43
0.0000001
 44
0.0000000001
 40
0.0
 40
0.0
 40
0.0
 40
0.0
 40
0.0634303366
 40
0.1265599292
 40
0.1892506148
 40
0.220473799
 40
0.2516157796
 40
0.282700044
 40
0.3137503372
 40
0.344781116
 40
0.3758037221
 40
0.4068268368
 40
0.4378554835
 40
0.4688902578
 40
0.4999292219
 40
0.530968963
 40
0.5620063987
 40
0.5930393376
 40
0.6240668048
 40
0.6550962921
 40
0.6861365143
 40
0.7171937441
 40
0.7482860587
 40
0.7794345236
 40
0.8106643833
 40
0.8419939356
 40
0.8734305337
 40
0.9365675283
 40
1.0
 40
1.0
 40
1.0
 40
1.0
 10
15.5853381275
 20
6.1738490276
 30
0.0
 10
15.5897520111
 20
6.1738490276
 30
0.0
 10
15.5985768568
 20
6.1731221436
 30
0.0
 10
15.6113959744
 20
6.1698585292
 30
0.0
 10
15.6214172467
 20
6.1653382821
 30
0.0
 10
15.6287859855
 20
6.160688646
 30
0.0
 10
15.633937735
 20
6.1567031583
 30
0.0
 10
15.6386628638
 20
6.1522373594
 30
0.0
 10
15.6429055001
 20
6.1473201164
 30
0.0
 10
15.6466103563
 20
6.141990512
 30
0.0
 10
15.6497246619
 20
6.136297162
 30
0.0
 10
15.6522012027
 20
6.1302985251
 30
0.0
 10
15.6540005572
 20
6.1240619742
 30
0.0
 10
15.6550931466
 20
6.1176623038
 30
0.0
 10
15.6554601751
 20
6.1111795096
 30
0.0
 10
15.6550949005
 20
6.1046964335
 30
0.0
 10
15.6540040509
 20
6.098295921
 30
0.0
 10
15.6522061856
 20
6.0920581121
 30
0.0
 10
15.6497305625
 20
6.0860579068
 30
0.0
 10
15.6466166583
 20
6.080362715
 30
0.0
 10
15.6429122704
 20
6.0750307763
 30
0.0
 10
15.6386688781
 20
6.0701119498
 30
0.0
 10
15.6339433578
 20
6.0656442735
 30
0.0
 10
15.6287911999
 20
6.0616574482
 30
0.0
 10
15.6232683541
 20
6.0581726944
 30
0.0
 10
15.617429171
 20
6.0552046923
 30
0.0
 10
15.6092850263
 20
6.0519480668
 30
0.0
 10
15.5985759669
 20
6.0492197699
 30
0.0
 10
15.5897521597
 20
6.0484936885
 30
0.0
 10
15.5853381275
 20
6.0484936885
 30
0.0
  0
SPLINE
  5
327
100
AcDbEntity
  8
0
100
AcDbSpline
 62
7
  6
CONTINUOUS
 70
0
 71
3
 72
34
 73
30
 74
0
 42
0.0000001
 43
0.0000001
 44
0.0000000001
 40
0.0
 40
0.0
 40
0.0
 40
0.0
 40
0.0634303366
 40
0.1265599292
 40
0.1892506148
 40
0.220473799
 40
0.2516157796
 40
0.282700044
 40
0.3137503372
 40
0.344781116
 40
0.3758037221
 40
0.4068268368
 40
0.4378554835
 40
0.4688902578
 40
0.4999292219
 40
0.530968963
 40
0.5620063987
 40
0.5930393376
 40
0.6240668048
 40
0.6550962921
 40
0.6861365143
 40
0.7171937441
 40
0.7482860587
 40
0.7794345236
 40
0.8106643833
 40
0.8419939356
 40
0.8734305337
 40
0.9365675283
 40
1.0
 40
1.0
 40
1.0
 40
1.0
 10
15.5853381275
 20
6.0484936885
 30
0.0
 10
15.5809242439
 20
6.0484936885
 30
0.0
 10
15.5720993982
 20
6.0492205725
 30
0.0
 10
15.5592802805
 20
6.0524841868
 30
0.0
 10
15.5492590083
 20
6.057004434
 30
0.0
 10
15.5418902695
 20
6.06165407
 30
0.0
 10
15.53673852
 20
6.0656395577
 30
0.0
 10
15.5320133912
 20
6.0701053566
 30
0.0
 10
15.5277707549
 20
6.0750225996
 30
0.0
 10
15.5240658987
 20
6.0803522041
 30
0.0
 10
15.5209515931
 20
6.0860455541
 30
0.0
 10
15.5184750523
 20
6.0920441909
 30
0.0
 10
15.5166756978
 20
6.0982807418
 30
0.0
 10
15.5155831084
 20
6.1046804122
 30
0.0
 10
15.5152160799
 20
6.1111632064
 30
0.0
 10
15.5155813545
 20
6.1176462826
 30
0.0
 10
15.5166722041
 20
6.1240467951
 30
0.0
 10
15.5184700694
 20
6.1302846039
 30
0.0
 10
15.5209456925
 20
6.1362848093
 30
0.0
 10
15.5240595967
 20
6.141980001
 30
0.0
 10
15.5277639846
 20
6.1473119397
 30
0.0
 10
15.5320073769
 20
6.1522307663
 30
0.0
 10
15.5367328972
 20
6.1566984426
 30
0.0
 10
15.5418850551
 20
6.1606852679
 30
0.0
 10
15.5474079009
 20
6.1641700216
 30
0.0
 10
15.553247084
 20
6.1671380238
 30
0.0
 10
15.5613912286
 20
6.1703946493
 30
0.0
 10
15.5721002881
 20
6.1731229461
 30
0.0
 10
15.5809240953
 20
6.1738490276
 30
0.0
 10
15.5853381275
 20
6.1738490276
 30
0.0
  0
SPLINE
  5
328
100
AcDbEntity
  8
0
100
AcDbSpline
 62
7
  6
CONTINUOUS
 70
0
 71
3
 72
10
 73
6
 74
0
 42
0.0000001
 43
0.0000001
 44
0.0000000001
 40
0.0
 40
0.0
 40
0.0
 40
0.0
 40
0.4833655867
 40
0.7376482643
 40
1.0
 40
1.0
 40
1.0
 40
1.0
 10
15.490616599
 20
6.072602028
 30
0.0
 10
15.4942026768
 20
6.0769940585
 30
0.0
 10
15.5004386489
 20
6.0831034867
 30
0.0
 10
15.5098790298
 20
6.090078845
 30
0.0
 10
15.5150597196
 20
6.0932428279
 30
0.0
 10
15.5177496659
 20
6.0947378829
 30
0.0
  0
SPLINE
  5
329
100
AcDbEntity
  8
0
100
AcDbSpline
 62
7
  6
CONTINUOUS
 70
0
 71
3
 72
15
 73
11
 74
0
 42
0.0000001
 43
0.0000001
 44
0.0000000001
 40
0.0
 40
0.0
 40
0.0
 40
0.0
 40
0.1354814976
 40
0.2698114095
 40
0.4018882109
 40
0.5307113891
 40
0.6554341356
 40
0.7754182437
 40
0.8902907796
 40
1.0
 40
1.0
 40
1.0
 40
1.0
 10
15.5853381275
 20
5.9565923217
 30
0.0
 10
15.580574253
 20
5.9565923217
 30
0.0
 10
15.5710810581
 20
5.9570302979
 30
0.0
 10
15.5570665624
 20
5.9589930301
 30
0.0
 10
15.5435282214
 20
5.9622279266
 30
0.0
 10
15.5306959909
 20
5.9666814464
 30
0.0
 10
15.5187860766
 20
5.9722799794
 30
0.0
 10
15.5079990669
 20
5.9789328033
 30
0.0
 10
15.498520299
 20
5.9865291211
 30
0.0
 10
15.4930563946
 20
5.9922740967
 30
0.0
 10
15.490616599
 20
5.9952622238
 30
0.0
  0
SPLINE
  5
32A
100
AcDbEntity
  8
0
100
AcDbSpline
 62
7
  6
CONTINUOUS
 70
0
 71
3
 72
10
 73
6
 74
0
 42
0.0000001
 43
0.0000001
 44
0.0000000001
 40
0.0
 40
0.0
 40
0.0
 40
0.0
 40
0.2623823574
 40
0.5166773732
 40
1.0
 40
1.0
 40
1.0
 40
1.0
 10
15.6528351045
 20
6.0947886739
 30
0.0
 10
15.655534736
 20
6.09329152
 30
0.0
 10
15.6607339268
 20
6.090122236
 30
0.0
 10
15.6702068335
 20
6.0831322848
 30
0.0
 10
15.6764632634
 20
6.0770066914
 30
0.0
 10
15.680059656
 20
6.072602028
 30
0.0
  0
SPLINE
  5
32B
100
AcDbEntity
  8
0
100
AcDbSpline
 62
7
  6
CONTINUOUS
 70
0
 71
3
 72
29
 73
25
 74
0
 42
0.0000001
 43
0.0000001
 44
0.0000000001
 40
0.0
 40
0.0
 40
0.0
 40
0.0
 40
0.0619268952
 40
0.1238052229
 40
0.1857133813
 40
0.247780896
 40
0.3101488257
 40
0.3415136838
 40
0.3730015143
 40
0.4046134996
 40
0.4363363809
 40
0.4681446743
 40
0.4999999892
 40
0.5318553045
 40
0.5636635986
 40
0.5953864789
 40
0.6269984648
 40
0.6584862972
 40
0.6898511521
 40
0.7522190883
 40
0.814286596
 40
0.8761947631
 40
0.938073073
 40
1.0
 40
1.0
 40
1.0
 40
1.0
 10
15.6854925969
 20
5.5631937495
 30
0.0
 10
15.6825963133
 20
5.5688418323
 30
0.0
 10
15.6764246042
 20
5.5799444361
 30
0.0
 10
15.6658862764
 20
5.5958228882
 30
0.0
 10
15.6539058225
 20
5.6106760184
 30
0.0
 10
15.6403198026
 20
5.6241629327
 30
0.0
 10
15.627555177
 20
5.6338616693
 30
0.0
 10
15.6164856806
 20
5.6403829044
 30
0.0
 10
15.6077452367
 20
5.6445785187
 30
0.0
 10
15.5986228358
 20
5.6479729551
 30
0.0
 10
15.5891811243
 20
5.6504769885
 30
0.0
 10
15.5795081355
 20
5.6520142852
 30
0.0
 10
15.5697131312
 20
5.6525329506
 30
0.0
 10
15.5599181272
 20
5.6520142801
 30
0.0
 10
15.5502451387
 20
5.650476982
 30
0.0
 10
15.5408034276
 20
5.6479729462
 30
0.0
 10
15.5316810279
 20
5.6445785071
 30
0.0
 10
15.5229405807
 20
5.6403828991
 30
0.0
 10
15.5118710902
 20
5.6338616544
 30
0.0
 10
15.4991064362
 20
5.6241629534
 30
0.0
 10
15.4855204642
 20
5.6106759876
 30
0.0
 10
15.473539971
 20
5.595822899
 30
0.0
 10
15.4630015606
 20
5.5799444923
 30
0.0
 10
15.4568299431
 20
5.5688418352
 30
0.0
 10
15.4539336581
 20
5.5631937495
 30
0.0
  0
SPLINE
  5
32C
100
AcDbEntity
  8
0
100
AcDbSpline
 62
7
  6
CONTINUOUS
 70
0
 71
3
 72
15
 73
11
 74
0
 42
0.0000001
 43
0.0000001
 44
0.0000000001
 40
0.0
 40
0.0
 40
0.0
 40
0.0
 40
0.1312712794
 40
0.2573740503
 40
0.3796904152
 40
0.5
 40
0.6203095848
 40
0.7426259497
 40
0.8687287206
 40
1.0
 40
1.0
 40
1.0
 40
1.0
 10
15.680059656
 20
6.072602028
 30
0.0
 10
15.6823916994
 20
6.0697458698
 30
0.0
 10
15.6865669671
 20
6.0638027024
 30
0.0
 10
15.6912329667
 20
6.0541585249
 30
0.0
 10
15.6940750372
 20
6.0441406499
 30
0.0
 10
15.6950294786
 20
6.0339321259
 30
0.0
 10
15.6940750372
 20
6.023723602
 30
0.0
 10
15.6912329667
 20
6.013705727
 30
0.0
 10
15.6865669671
 20
6.0040615494
 30
0.0
 10
15.6823916994
 20
5.998118382
 30
0.0
 10
15.680059656
 20
5.9952622238
 30
0.0
  0
SPLINE
  5
32D
100
AcDbEntity
  8
0
100
AcDbSpline
 62
7
  6
CONTINUOUS
 70
0
 71
3
 72
15
 73
11
 74
0
 42
0.0000001
 43
0.0000001
 44
0.0000000001
 40
0.0
 40
0.0
 40
0.0
 40
0.0
 40
0.1097092204
 40
0.2245817563
 40
0.3445658644
 40
0.4692886109
 40
0.5981117891
 40
0.7301885905
 40
0.8645185024
 40
1.0
 40
1.0
 40
1.0
 40
1.0
 10
15.680059656
 20
5.9952622238
 30
0.0
 10
15.6776198604
 20
5.9922740967
 30
0.0
 10
15.672155956
 20
5.9865291211
 30
0.0
 10
15.6626771881
 20
5.9789328033
 30
0.0
 10
15.6518901784
 20
5.9722799794
 30
0.0
 10
15.6399802641
 20
5.9666814464
 30
0.0
 10
15.6271480336
 20
5.9622279266
 30
0.0
 10
15.6136096925
 20
5.9589930301
 30
0.0
 10
15.5995951969
 20
5.9570302979
 30
0.0
 10
15.590102002
 20
5.9565923217
 30
0.0
 10
15.5853381275
 20
5.9565923217
 30
0.0
  0
SPLINE
  5
32E
100
AcDbEntity
  8
0
100
AcDbSpline
 62
7
  6
CONTINUOUS
 70
0
 71
3
 72
15
 73
11
 74
0
 42
0.0000001
 43
0.0000001
 44
0.0000000001
 40
0.0
 40
0.0
 40
0.0
 40
0.0
 40
0.1312712794
 40
0.2573740503
 40
0.3796904152
 40
0.5
 40
0.6203095848
 40
0.7426259497
 40
0.8687287206
 40
1.0
 40
1.0
 40
1.0
 40
1.0
 10
15.490616599
 20
5.9952622238
 30
0.0
 10
15.4882845556
 20
5.998118382
 30
0.0
 10
15.4841092879
 20
6.0040615494
 30
0.0
 10
15.4794432883
 20
6.013705727
 30
0.0
 10
15.4766012178
 20
6.023723602
 30
0.0
 10
15.4756467764
 20
6.0339321259
 30
0.0
 10
15.4766012178
 20
6.0441406499
 30
0.0
 10
15.4794432883
 20
6.0541585249
 30
0.0
 10
15.4841092879
 20
6.0638027024
 30
0.0
 10
15.4882845556
 20
6.0697458698
 30
0.0
 10
15.490616599
 20
6.072602028
 30
0.0
  0
LINE
  5
32F
100
AcDbEntity
  8
03__ASM_ALL_CURVES
100
AcDbLine
 62
8
  6
HIDDEN
 10
14.98812036
 20
12.2356513979
 11
14.9901958453
 21
12.2327154453
  0
SPLINE
  5
330
100
AcDbEntity
  8
03__ASM_ALL_CURVES
100
AcDbSpline
 62
8
  6
HIDDEN
 70
0
 71
3
 72
172
 73
168
 74
0
 42
0.0000001
 43
0.0000001
 44
0.0000000001
 40
0.0
 40
0.0
 40
0.0
 40
0.0
 40
0.03125
 40
0.046875
 40
0.0625
 40
0.0703125
 40
0.078125
 40
0.0859375
 40
0.09375
 40
0.09765625
 40
0.1015625
 40
0.10546875
 40
0.107421875
 40
0.109375
 40
0.1103515625
 40
0.111328125
 40
0.1118164062
 40
0.1123046875
 40
0.11328125
 40
0.115234375
 40
0.1171875
 40
0.12109375
 40
0.125
 40
0.1328125
 40
0.140625
 40
0.15625
 40
0.171875
 40
0.1796875
 40
0.1875
 40
0.1953125
 40
0.203125
 40
0.20703125
 40
0.2109375
 40
0.21484375
 40
0.21875
 40
0.220703125
 40
0.22265625
 40
0.2236328125
 40
0.224609375
 40
0.2265625
 40
0.228515625
 40
0.23046875
 40
0.234375
 40
0.2421875
 40
0.25
 40
0.265625
 40
0.28125
 40
0.296875
 40
0.3046875
 40
0.3125
 40
0.3203125
 40
0.32421875
 40
0.328125
 40
0.330078125
 40
0.33203125
 40
0.3330078125
 40
0.3334960938
 40
0.333984375
 40
0.3349609375
 40
0.3359375
 40
0.33984375
 40
0.34375
 40
0.34765625
 40
0.3515625
 40
0.359375
 40
0.375
 40
0.390625
 40
0.40625
 40
0.4140625
 40
0.421875
 40
0.4296875
 40
0.43359375
 40
0.4375
 40
0.44140625
 40
0.443359375
 40
0.4443359375
 40
0.4453125
 40
0.447265625
 40
0.44921875
 40
0.453125
 40
0.45703125
 40
0.4609375
 40
0.46875
 40
0.484375
 40
0.5
 40
0.515625
 40
0.53125
 40
0.5390625
 40
0.54296875
 40
0.546875
 40
0.55078125
 40
0.552734375
 40
0.5546875
 40
0.5556640625
 40
0.556640625
 40
0.55859375
 40
0.5625
 40
0.56640625
 40
0.5703125
 40
0.578125
 40
0.5859375
 40
0.59375
 40
0.609375
 40
0.625
 40
0.640625
 40
0.6484375
 40
0.65234375
 40
0.65625
 40
0.66015625
 40
0.6640625
 40
0.6650390625
 40
0.666015625
 40
0.6665039062
 40
0.6669921875
 40
0.66796875
 40
0.669921875
 40
0.671875
 40
0.67578125
 40
0.6796875
 40
0.6875
 40
0.6953125
 40
0.703125
 40
0.71875
 40
0.734375
 40
0.75
 40
0.7578125
 40
0.765625
 40
0.76953125
 40
0.771484375
 40
0.7734375
 40
0.775390625
 40
0.7763671875
 40
0.77734375
 40
0.779296875
 40
0.78125
 40
0.78515625
 40
0.7890625
 40
0.79296875
 40
0.796875
 40
0.8046875
 40
0.8125
 40
0.8203125
 40
0.828125
 40
0.84375
 40
0.859375
 40
0.8671875
 40
0.875
 40
0.87890625
 40
0.8828125
 40
0.884765625
 40
0.88671875
 40
0.8876953125
 40
0.888671875
 40
0.8896484375
 40
0.890625
 40
0.892578125
 40
0.89453125
 40
0.8984375
 40
0.90234375
 40
0.90625
 40
0.9140625
 40
0.921875
 40
0.9296875
 40
0.9375
 40
0.953125
 40
0.96875
 40
1.0
 40
1.0
 40
1.0
 40
1.0
 10
14.9901958453
 20
12.2327154454
 30
0.0
 10
14.9969889122
 20
12.224918991
 30
0.0
 10
15.0071785126
 20
12.2132243094
 30
0.0
 10
15.0207646464
 20
12.1976314005
 30
0.0
 10
15.0292559803
 20
12.1878858326
 30
0.0
 10
15.0360490466
 20
12.180089378
 30
0.0
 10
15.0411438486
 20
12.1742420377
 30
0.0
 10
15.0462386423
 20
12.168394695
 30
0.0
 10
15.0504843293
 20
12.1635219168
 30
0.0
 10
15.0538808215
 20
12.1596236778
 30
0.0
 10
15.0564283476
 20
12.1567000433
 30
0.0
 10
15.0585507868
 20
12.1542635391
 30
0.0
 10
15.0602498578
 20
12.1523146544
 30
0.0
 10
15.0613092277
 20
12.1510958759
 30
0.0
 10
15.0621625624
 20
12.1501225147
 30
0.0
 10
15.0626825745
 20
12.1495103727
 30
0.0
 10
15.0632552155
 20
12.1490652337
 30
0.0
 10
15.0638005393
 20
12.1486123207
 30
0.0
 10
15.0647675819
 20
12.1478233445
 30
0.0
 10
15.0661424316
 20
12.146694346
 30
0.0
 10
15.0683459017
 20
12.1448890045
 30
0.0
 10
15.0710989689
 20
12.142631966
 30
0.0
 10
15.0755045863
 20
12.1390209066
 30
0.0
 10
15.0810113649
 20
12.134507013
 30
0.0
 10
15.0898223467
 20
12.127284822
 30
0.0
 10
15.1008360273
 20
12.11825707
 30
0.0
 10
15.1118497242
 20
12.1092293225
 30
0.0
 10
15.1206606799
 20
12.1020071244
 30
0.0
 10
15.1272688922
 20
12.0965904734
 30
0.0
 10
15.1338771233
 20
12.0911738323
 30
0.0
 10
15.1393839239
 20
12.0866599335
 30
0.0
 10
15.1437894956
 20
12.0830488845
 30
0.0
 10
15.1470933159
 20
12.0803404062
 30
0.0
 10
15.1503985047
 20
12.0776326594
 30
0.0
 10
15.1531485655
 20
12.0753739249
 30
0.0
 10
15.1553581618
 20
12.0735720406
 30
0.0
 10
15.1567174218
 20
12.0724342443
 30
0.0
 10
15.1580602996
 20
12.0716605541
 30
0.0
 10
15.1593585581
 20
12.0708630151
 30
0.0
 10
15.1609966896
 20
12.0698742737
 30
0.0
 10
15.1629558956
 20
12.068684282
 30
0.0
 10
15.1655704556
 20
12.067098848
 30
0.0
 10
15.1701448709
 20
12.0643237693
 30
0.0
 10
15.1766803054
 20
12.0603596682
 30
0.0
 10
15.1871366903
 20
12.0540169406
 30
0.0
 10
15.200207277
 20
12.0460885871
 30
0.0
 10
15.2158919394
 20
12.0365745424
 30
0.0
 10
15.2289624896
 20
12.0286461656
 30
0.0
 10
15.239418955
 20
12.0223034893
 30
0.0
 10
15.2472612292
 20
12.0175464105
 30
0.0
 10
15.2537966967
 20
12.0135824061
 30
0.0
 10
15.2590245347
 20
12.0104106915
 30
0.0
 10
15.2622931539
 20
12.0084295335
 30
0.0
 10
15.2649052541
 20
12.0068419421
 30
0.0
 10
15.2665441943
 20
12.0058557784
 30
0.0
 10
15.267678671
 20
12.0051532767
 30
0.0
 10
15.2683469412
 20
12.004770915
 30
0.0
 10
15.2690905328
 20
12.0044603721
 30
0.0
 10
15.2699942771
 20
12.0040476455
 30
0.0
 10
15.2721844529
 20
12.0030773058
 30
0.0
 10
15.2754608168
 20
12.0016133102
 30
0.0
 10
15.2798343888
 20
11.9996661663
 30
0.0
 10
15.2842066001
 20
11.997717725
 30
0.0
 10
15.2900366897
 20
11.9951202558
 30
0.0
 10
15.3002391257
 20
11.9905744743
 30
0.0
 10
15.3148141477
 20
11.9840806069
 30
0.0
 10
15.3323041341
 20
11.9762879372
 30
0.0
 10
15.346879105
 20
11.9697940004
 30
0.0
 10
15.3585391445
 20
11.9645989743
 30
0.0
 10
15.3672839962
 20
11.9607023621
 30
0.0
 10
15.3745719396
 20
11.9574562758
 30
0.0
 10
15.3804010227
 20
11.9548569608
 30
0.0
 10
15.3847763096
 20
11.9529141582
 30
0.0
 10
15.3884113298
 20
11.9512738962
 30
0.0
 10
15.3909775335
 20
11.9501674344
 30
0.0
 10
15.3924100691
 20
11.9494700257
 30
0.0
 10
15.3939698083
 20
11.9490173025
 30
0.0
 10
15.3958962072
 20
11.9484066274
 30
0.0
 10
15.398991454
 20
11.9474545699
 30
0.0
 10
15.4028560493
 20
11.946255913
 30
0.0
 10
15.4074954739
 20
11.944821199
 30
0.0
 10
15.4136807071
 20
11.9429069653
 30
0.0
 10
15.4245051756
 20
11.9395576539
 30
0.0
 10
15.4399685394
 20
11.9347726086
 30
0.0
 10
15.4585246469
 20
11.9290306991
 30
0.0
 10
15.4770807308
 20
11.9232887134
 30
0.0
 10
15.4925441537
 20
11.9185038584
 30
0.0
 10
15.5033685189
 20
11.9151542139
 30
0.0
 10
15.5095539174
 20
11.9132405131
 30
0.0
 10
15.5141928341
 20
11.9118041625
 30
0.0
 10
15.5180590189
 20
11.910610628
 30
0.0
 10
15.5211510229
 20
11.9096481195
 30
0.0
 10
15.5230856746
 20
11.9090640416
 30
0.0
 10
15.5246284737
 20
11.9085567238
 30
0.0
 10
15.5262048993
 20
11.9083230479
 30
0.0
 10
15.5289479768
 20
11.9077866201
 30
0.0
 10
15.5328748499
 20
11.9070869506
 30
0.0
 10
15.5375835916
 20
11.9062188161
 30
0.0
 10
15.5438631387
 20
11.9050712697
 30
0.0
 10
15.5517121523
 20
11.9036334174
 30
0.0
 10
15.5611311484
 20
11.9019094582
 30
0.0
 10
15.5736897471
 20
11.8996103351
 30
0.0
 10
15.5893880178
 20
11.8967366027
 30
0.0
 10
15.6082259295
 20
11.8932880669
 30
0.0
 10
15.6239242031
 20
11.8904142484
 30
0.0
 10
15.6349129712
 20
11.8884026816
 30
0.0
 10
15.6411923033
 20
11.8872530445
 30
0.0
 10
15.645901701
 20
11.8863912975
 30
0.0
 10
15.6506114863
 20
11.8855277121
 30
0.0
 10
15.6541427383
 20
11.8848851776
 30
0.0
 10
15.6564985968
 20
11.8844488049
 30
0.0
 10
15.657477689
 20
11.8842789118
 30
0.0
 10
15.6582668309
 20
11.8841151698
 30
0.0
 10
15.6590345126
 20
11.8840531945
 30
0.0
 10
15.6603679846
 20
11.8839920208
 30
0.0
 10
15.6622781469
 20
11.8838799599
 30
0.0
 10
15.6653314994
 20
11.8837144492
 30
0.0
 10
15.6691491854
 20
11.8835028402
 30
0.0
 10
15.6752569266
 20
11.8831669042
 30
0.0
 10
15.6828917941
 20
11.8827460789
 30
0.0
 10
15.6920535533
 20
11.882241476
 30
0.0
 10
15.7042692607
 20
11.8815685371
 30
0.0
 10
15.7195388865
 20
11.8807274073
 30
0.0
 10
15.7378624351
 20
11.8797180441
 30
0.0
 10
15.753132078
 20
11.8788768743
 30
0.0
 10
15.7653477479
 20
11.8782040233
 30
0.0
 10
15.7729826429
 20
11.8777832964
 30
0.0
 10
15.7783268664
 20
11.8774891785
 30
0.0
 10
15.7813810261
 20
11.8773204994
 30
0.0
 10
15.7836707508
 20
11.8771957136
 30
0.0
 10
15.7855817057
 20
11.8770862354
 30
0.0
 10
15.7871040748
 20
11.8770109671
 30
0.0
 10
15.7886497424
 20
11.8768908337
 30
0.0
 10
15.7904150819
 20
11.8770617625
 30
0.0
 10
15.793257786
 20
11.8773002768
 30
0.0
 10
15.7968049343
 20
11.8776104201
 30
0.0
 10
15.8010641836
 20
11.8779774478
 30
0.0
 10
15.8053227183
 20
11.8783458517
 30
0.0
 10
15.8110010142
 20
11.8788365762
 30
0.0
 10
15.8180987983
 20
11.8794501468
 30
0.0
 10
15.8266161761
 20
11.8801863607
 30
0.0
 10
15.8351335438
 20
11.8809225939
 30
0.0
 10
15.8464900391
 20
11.8819042295
 30
0.0
 10
15.860685645
 20
11.8831312914
 30
0.0
 10
15.8748812976
 20
11.8843582942
 30
0.0
 10
15.8862377183
 20
11.8853400244
 30
0.0
 10
15.8933357112
 20
11.8859533153
 30
0.0
 10
15.8990135789
 20
11.8864446132
 30
0.0
 10
15.9025634479
 20
11.8867501568
 30
0.0
 10
15.9054005907
 20
11.8869980677
 30
0.0
 10
15.9071800849
 20
11.8871450806
 30
0.0
 10
15.9085892966
 20
11.8872808573
 30
0.0
 10
15.9096855885
 20
11.8873329496
 30
0.0
 10
15.9106315395
 20
11.8875749195
 30
0.0
 10
15.9118889471
 20
11.8879024217
 30
0.0
 10
15.9134620284
 20
11.8883101299
 30
0.0
 10
15.9159782197
 20
11.8889633962
 30
0.0
 10
15.9191237123
 20
11.8897796589
 30
0.0
 10
15.922898195
 20
11.8907593111
 30
0.0
 10
15.9279308765
 20
11.8920654663
 30
0.0
 10
15.9342217153
 20
11.8936981766
 30
0.0
 10
15.9417707274
 20
11.895657422
 30
0.0
 10
15.9493197381
 20
11.8976166693
 30
0.0
 10
15.9593850861
 20
11.9002289983
 30
0.0
 10
15.971966771
 20
11.9034944098
 30
0.0
 10
15.9920974669
 20
11.9087190681
 30
0.0
 10
16.0071954889
 20
11.9126375619
 30
0.0
 10
16.0172608368
 20
11.9152498911
 30
0.0
  0
SPLINE
  5
331
100
AcDbEntity
  8
0
100
AcDbSpline
 62
7
  6
CONTINUOUS
 70
0
 71
3
 72
19
 73
15
 74
0
 42
0.0000001
 43
0.0000001
 44
0.0000000001
 40
0.0
 40
0.0
 40
0.0
 40
0.0
 40
0.0575599239
 40
0.1152629994
 40
0.1732497372
 40
0.2316555912
 40
0.2906086185
 40
0.3502275901
 40
0.4718179673
 40
0.5972053746
 40
0.7268794534
 40
0.7934388923
 40
0.8611595208
 40
1.0
 40
1.0
 40
1.0
 40
1.0
 10
17.3234232781
 20
12.1715127077
 30
0.0
 10
17.3220438845
 20
12.1743235743
 30
0.0
 10
17.3190773723
 20
12.1798546688
 30
0.0
 10
17.3140320407
 20
12.1878237744
 30
0.0
 10
17.3084029115
 20
12.1954495671
 30
0.0
 10
17.3022053599
 20
12.2027101628
 30
0.0
 10
17.2954564583
 20
12.209586524
 30
0.0
 10
17.2856865571
 20
12.2182721348
 30
0.0
 10
17.2721330776
 20
12.2280791439
 30
0.0
 10
17.2541180024
 20
12.2379389919
 30
0.0
 10
17.2378545814
 20
12.2444968868
 30
0.0
 10
17.2241394966
 20
12.2487655054
 30
0.0
 10
17.2097347036
 20
12.2524246535
 30
0.0
 10
17.1986389628
 20
12.2543447422
 30
0.0
 10
17.1911446667
 20
12.2552805909
 30
0.0
  0
SPLINE
  5
332
100
AcDbEntity
  8
0
100
AcDbSpline
 62
7
  6
CONTINUOUS
 70
0
 71
3
 72
11
 73
7
 74
0
 42
0.0000001
 43
0.0000001
 44
0.0000000001
 40
0.0
 40
0.0
 40
0.0
 40
0.0
 40
0.2700087737
 40
0.5071173095
 40
0.7413383335
 40
1.0
 40
1.0
 40
1.0
 40
1.0
 10
14.1493715682
 20
12.4526388249
 30
0.0
 10
14.1493902126
 20
12.4526991246
 30
0.0
 10
14.1494382032
 20
12.4528096701
 30
0.0
 10
14.1495592167
 20
12.4529392111
 30
0.0
 10
14.149717603
 20
12.4530121965
 30
0.0
 10
14.1498338581
 20
12.4530244695
 30
0.0
 10
14.1498943219
 20
12.4530244659
 30
0.0
  0
SPLINE
  5
333
100
AcDbEntity
  8
0
100
AcDbSpline
 62
7
  6
CONTINUOUS
 70
0
 71
3
 72
16
 73
12
 74
0
 42
0.0000001
 43
0.0000001
 44
0.0000000001
 40
0.0
 40
0.0
 40
0.0
 40
0.0
 40
0.1219376627
 40
0.2480199477
 40
0.3767366791
 40
0.5063617366
 40
0.6351036006
 40
0.6986303658
 40
0.7613034914
 40
0.8833065692
 40
1.0
 40
1.0
 40
1.0
 40
1.0
 10
16.870696883
 20
12.0530114849
 30
0.0
 10
16.8633302436
 20
12.0530114849
 30
0.0
 10
16.8483298549
 20
12.0519059068
 30
0.0
 10
16.8259966936
 20
12.0472217771
 30
0.0
 10
16.8039884514
 20
12.0396163978
 30
0.0
 10
16.7829354964
 20
12.0293075606
 30
0.0
 10
16.7666010445
 20
12.0186543
 30
0.0
 10
16.7545504622
 20
12.0090476347
 30
0.0
 10
16.7434485449
 20
11.9989548316
 30
0.0
 10
16.7312138219
 20
11.9853934394
 30
0.0
 10
16.7231539981
 20
11.9733574573
 30
0.0
 10
16.719720686
 20
11.9672001597
 30
0.0
  0
SPLINE
  5
334
100
AcDbEntity
  8
0
100
AcDbSpline
 62
7
  6
CONTINUOUS
 70
0
 71
3
 72
18
 73
14
 74
0
 42
0.0000001
 43
0.0000001
 44
0.0000000001
 40
0.0
 40
0.0
 40
0.0
 40
0.0
 40
0.1421338277
 40
0.2787674246
 40
0.4096944328
 40
0.5350954598
 40
0.6555776093
 40
0.7143342477
 40
0.7722841414
 40
0.829615148
 40
0.8865327725
 40
0.9432535339
 40
1.0
 40
1.0
 40
1.0
 40
1.0
 10
16.7498111535
 20
11.9634612102
 30
0.0
 10
16.7448837577
 20
11.9634612102
 30
0.0
 10
16.7352089838
 20
11.9639885605
 30
0.0
 10
16.7211856788
 20
11.9664523796
 30
0.0
 10
16.7081458135
 20
11.9705396732
 30
0.0
 10
16.6963159399
 20
11.9761878487
 30
0.0
 10
16.6875583368
 20
11.9821799888
 30
0.0
 10
16.6814027457
 20
11.9876444992
 30
0.0
 10
16.6772443387
 20
11.992026793
 30
0.0
 10
16.6735269978
 20
11.9967076969
 30
0.0
 10
16.6702658227
 20
12.0016666489
 30
0.0
 10
16.6674764501
 20
12.0068820834
 30
0.0
 10
16.665940692
 20
12.0105104031
 30
0.0
 10
16.6652563611
 20
12.0123547867
 30
0.0
  0
SPLINE
  5
335
100
AcDbEntity
  8
0
100
AcDbSpline
 62
7
  6
CONTINUOUS
 70
0
 71
3
 72
11
 73
7
 74
0
 42
0.0000001
 43
0.0000001
 44
0.0000000001
 40
0.0
 40
0.0
 40
0.0
 40
0.0
 40
0.246586996
 40
0.4945584307
 40
0.7452664103
 40
1.0
 40
1.0
 40
1.0
 40
1.0
 10
14.4863873205
 20
12.1686899696
 30
0.0
 10
14.4829348088
 20
12.1575176377
 30
0.0
 10
14.4771496377
 20
12.1347402093
 30
0.0
 10
14.4719511144
 20
12.0997248963
 30
0.0
 10
14.4702284705
 20
12.0639827819
 30
0.0
 10
14.4713786816
 20
12.0399999905
 30
0.0
 10
14.4725056263
 20
12.0279727214
 30
0.0
  0
SPLINE
  5
336
100
AcDbEntity
  8
0
100
AcDbSpline
 62
7
  6
CONTINUOUS
 70
0
 71
3
 72
11
 73
7
 74
0
 42
0.0000001
 43
0.0000001
 44
0.0000000001
 40
0.0
 40
0.0
 40
0.0
 40
0.0
 40
0.2334905641
 40
0.4781882586
 40
0.73385767
 40
1.0
 40
1.0
 40
1.0
 40
1.0
 10
16.0328459249
 20
11.8927100484
 30
0.0
 10
16.0253139848
 20
11.9046813801
 30
0.0
 10
16.0087503302
 20
11.928496427
 30
0.0
 10
15.9804438405
 20
11.9628273947
 30
0.0
 10
15.9482898972
 20
11.9963772031
 30
0.0
 10
15.9248852515
 20
12.0176614978
 30
0.0
 10
15.9126253541
 20
12.0281304316
 30
0.0
  0
SPLINE
  5
337
100
AcDbEntity
  8
0
100
AcDbSpline
 62
7
  6
CONTINUOUS
 70
0
 71
3
 72
9
 73
5
 74
0
 42
0.0000001
 43
0.0000001
 44
0.0000000001
 40
0.0
 40
0.0
 40
0.0
 40
0.0
 40
0.5084338204
 40
1.0
 40
1.0
 40
1.0
 40
1.0
 10
15.8293719693
 20
12.0989552587
 30
0.0
 10
15.845413667
 20
12.0885241518
 30
0.0
 10
15.8763633032
 20
12.0670644967
 30
0.0
 10
15.905877274
 20
12.0436610389
 30
0.0
 10
15.9199600322
 20
12.0316640057
 30
0.0
  0
SPLINE
  5
338
100
AcDbEntity
  8
0
100
AcDbSpline
 62
7
  6
CONTINUOUS
 70
0
 71
3
 72
11
 73
7
 74
0
 42
0.0000001
 43
0.0000001
 44
0.0000000001
 40
0.0
 40
0.0
 40
0.0
 40
0.0
 40
0.2432826044
 40
0.4917825376
 40
0.7444066486
 40
1.0
 40
1.0
 40
1.0
 40
1.0
 10
15.8220372912
 20
12.0954216846
 30
0.0
 10
15.8070982916
 20
12.1051140628
 30
0.0
 10
15.7763435032
 20
12.1238614134
 30
0.0
 10
15.7283613128
 20
12.1497321637
 30
0.0
 10
15.6783099649
 20
12.1735107807
 30
0.0
 10
15.6439427689
 20
12.1877961642
 30
0.0
 10
15.6264979273
 20
12.1945562856
 30
0.0
  0
SPLINE
  5
339
100
AcDbEntity
  8
0
100
AcDbSpline
 62
7
  6
CONTINUOUS
 70
0
 71
3
 72
11
 73
7
 74
0
 42
0.0000001
 43
0.0000001
 44
0.0000000001
 40
0.0
 40
0.0
 40
0.0
 40
0.0
 40
0.2543672905
 40
0.5065979289
 40
0.7555174597
 40
1.0
 40
1.0
 40
1.0
 40
1.0
 10
15.5077250332
 20
12.2334069086
 30
0.0
 10
15.4895638233
 20
12.2382918155
 30
0.0
 10
15.4531530701
 20
12.2471498555
 30
0.0
 10
15.3982746178
 20
12.257689258
 30
0.0
 10
15.343661423
 20
12.2653730653
 30
0.0
 10
15.3073036439
 20
12.2685892161
 30
0.0
 10
15.2892614909
 20
12.2696926909
 30
0.0
  0
SPLINE
  5
33A
100
AcDbEntity
  8
0
100
AcDbSpline
 62
7
  6
CONTINUOUS
 70
0
 71
3
 72
9
 73
5
 74
0
 42
0.0000001
 43
0.0000001
 44
0.0000000001
 40
0.0
 40
0.0
 40
0.0
 40
0.0
 40
0.4924169409
 40
1.0
 40
1.0
 40
1.0
 40
1.0
 10
15.1706608141
 20
12.276759839
 30
0.0
 10
15.1895290712
 20
12.2779663738
 30
0.0
 10
15.2279370921
 20
12.2791326606
 30
0.0
 10
15.2663395106
 20
12.2779303631
 30
0.0
 10
15.2857934384
 20
12.276759839
 30
0.0
  0
SPLINE
  5
33B
100
AcDbEntity
  8
0
100
AcDbSpline
 62
7
  6
CONTINUOUS
 70
0
 71
3
 72
11
 73
7
 74
0
 42
0.0000001
 43
0.0000001
 44
0.0000000001
 40
0.0
 40
0.0
 40
0.0
 40
0.0
 40
0.2651611183
 40
0.5206010337
 40
0.7656830435
 40
1.0
 40
1.0
 40
1.0
 40
1.0
 10
15.1741288667
 20
12.2696926909
 30
0.0
 10
15.1576351381
 20
12.2686194988
 30
0.0
 10
15.1253048862
 20
12.265544823
 30
0.0
 10
15.0781505872
 20
12.2579376546
 30
0.0
 10
15.0335174604
 20
12.2474689776
 30
0.0
 10
15.0049968591
 20
12.2384203443
 30
0.0
 10
14.9912782757
 20
12.2334069086
 30
0.0
  0
SPLINE
  5
33C
100
AcDbEntity
  8
0
100
AcDbSpline
 62
7
  6
CONTINUOUS
 70
0
 71
3
 72
9
 73
5
 74
0
 42
0.0000001
 43
0.0000001
 44
0.0000000001
 40
0.0
 40
0.0
 40
0.0
 40
0.0
 40
0.4866173476
 40
1.0
 40
1.0
 40
1.0
 40
1.0
 10
14.9023963744
 20
12.2006766154
 30
0.0
 10
14.914737918
 20
12.2083614275
 30
0.0
 10
14.9410359484
 20
12.2226811933
 30
0.0
 10
14.9686408642
 20
12.2342400799
 30
0.0
 10
14.9830390352
 20
12.2395272384
 30
0.0
  0
SPLINE
  5
33D
100
AcDbEntity
  8
0
100
AcDbSpline
 62
7
  6
CONTINUOUS
 70
0
 71
3
 72
13
 73
9
 74
0
 42
0.0000001
 43
0.0000001
 44
0.0000000001
 40
0.0
 40
0.0
 40
0.0
 40
0.0
 40
0.265855102
 40
0.5197356008
 40
0.6428175686
 40
0.7636741978
 40
0.8826272773
 40
1.0
 40
1.0
 40
1.0
 40
1.0
 10
14.910635615
 20
12.1945562856
 30
0.0
 10
14.9000416709
 20
12.1879313195
 30
0.0
 10
14.8799740947
 20
12.1739070317
 30
0.0
 10
14.8573128672
 20
12.1538073483
 30
0.0
 10
14.8413607683
 20
12.1366720468
 30
0.0
 10
14.8305734929
 20
12.1234442834
 30
0.0
 10
14.820864185
 20
12.1097345155
 30
0.0
 10
14.8150874391
 20
12.1002350513
 30
0.0
 10
14.8123926435
 20
12.0954216846
 30
0.0
  0
SPLINE
  5
33E
100
AcDbEntity
  8
0
100
AcDbSpline
 62
7
  6
CONTINUOUS
 70
0
 71
3
 72
14
 73
10
 74
0
 42
0.0000001
 43
0.0000001
 44
0.0000000001
 40
0.0
 40
0.0
 40
0.0
 40
0.0
 40
0.1187485803
 40
0.2385850705
 40
0.3598750378
 40
0.4829887993
 40
0.6082760449
 40
0.7360540013
 40
1.0
 40
1.0
 40
1.0
 40
1.0
 10
16.0836649312
 20
11.6795884191
 30
0.0
 10
16.0846794018
 20
11.6849385325
 30
0.0
 10
16.0863237439
 20
11.6957665505
 30
0.0
 10
16.0876221775
 20
11.7122314704
 30
0.0
 10
16.0877578582
 20
11.7289476028
 30
0.0
 10
16.0867321102
 20
11.745882104
 30
0.0
 10
16.0845465801
 20
11.7630065932
 30
0.0
 10
16.0800463342
 20
11.786295985
 30
0.0
 10
16.0749979462
 20
11.8035927605
 30
0.0
 10
16.0709761583
 20
11.8150088023
 30
0.0
  0
SPLINE
  5
33F
100
AcDbEntity
  8
0
100
AcDbSpline
 62
7
  6
CONTINUOUS
 70
0
 71
3
 72
14
 73
10
 74
0
 42
0.0000001
 43
0.0000001
 44
0.0000000001
 40
0.0
 40
0.0
 40
0.0
 40
0.0
 40
0.2719458096
 40
0.4011906259
 40
0.5260109928
 40
0.646934171
 40
0.7650908281
 40
0.882149411
 40
1.0
 40
1.0
 40
1.0
 40
1.0
 10
17.536328319
 20
12.4530244657
 30
0.0
 10
17.5375041003
 20
12.4530244793
 30
0.0
 10
17.5392469357
 20
12.4528936297
 30
0.0
 10
17.5414628652
 20
12.4523634374
 30
0.0
 10
17.5429857805
 20
12.4517931711
 30
0.0
 10
17.544371231
 20
12.4510349224
 30
0.0
 10
17.5455908866
 20
12.4500825814
 30
0.0
 10
17.5466140657
 20
12.4489388463
 30
0.0
 10
17.5471447186
 20
12.4480650161
 30
0.0
 10
17.5473691915
 20
12.4476075884
 30
0.0
  0
SPLINE
  5
340
100
AcDbEntity
  8
0
100
AcDbSpline
 62
7
  6
CONTINUOUS
 70
0
 71
3
 72
16
 73
12
 74
0
 42
0.0000001
 43
0.0000001
 44
0.0000000001
 40
0.0
 40
0.0
 40
0.0
 40
0.0
 40
0.0401321007
 40
0.0868838924
 40
0.1966736105
 40
0.3225299999
 40
0.4584767893
 40
0.5992116522
 40
0.7397615882
 40
0.8751362634
 40
1.0
 40
1.0
 40
1.0
 40
1.0
 10
16.885213969
 20
12.4676579742
 30
0.0
 10
16.8855766287
 20
12.4672494625
 30
0.0
 10
16.8863973334
 20
12.4663963035
 30
0.0
 10
16.888379543
 20
12.4645946326
 30
0.0
 10
16.8914688162
 20
12.46229065
 30
0.0
 10
16.8958306527
 20
12.4597135237
 30
0.0
 10
16.9008068082
 20
12.4573997843
 30
0.0
 10
16.906164511
 20
12.4554922247
 30
0.0
 10
16.9116670277
 20
12.4540847333
 30
0.0
 10
16.9170629923
 20
12.4532306337
 30
0.0
 10
16.9206070357
 20
12.4530244156
 30
0.0
 10
16.9223066354
 20
12.4530244156
 30
0.0
  0
SPLINE
  5
341
100
AcDbEntity
  8
0
100
AcDbSpline
 62
7
  6
CONTINUOUS
 70
0
 71
3
 72
43
 73
39
 74
0
 42
0.0000001
 43
0.0000001
 44
0.0000000001
 40
0.0
 40
0.0
 40
0.0
 40
0.0
 40
0.0302517034
 40
0.0615460882
 40
0.0938280719
 40
0.1270264493
 40
0.1610548619
 40
0.1958147488
 40
0.2311971044
 40
0.2670844969
 40
0.3033528882
 40
0.3398733909
 40
0.3765139624
 40
0.4131410767
 40
0.4496213756
 40
0.4858233214
 40
0.5216188555
 40
0.5568851258
 40
0.5915062585
 40
0.6253751819
 40
0.6583956116
 40
0.6904841309
 40
0.7215723833
 40
0.7516094892
 40
0.7805645428
 40
0.8084291587
 40
0.8352200476
 40
0.8609812186
 40
0.8857855596
 40
0.9097354436
 40
0.9214344203
 40
0.9329710538
 40
0.9443657524
 40
0.9556400927
 40
0.9668169424
 40
0.9779193446
 40
0.9889715592
 40
1.0
 40
1.0
 40
1.0
 40
1.0
 10
16.5111829954
 20
12.888978697
 30
0.0
 10
16.4976736349
 20
12.9041960825
 30
0.0
 10
16.4691414063
 20
12.9342384892
 30
0.0
 10
16.4229306601
 20
12.9772758532
 30
0.0
 10
16.3728070134
 20
13.0188625973
 30
0.0
 10
16.3190434842
 20
13.0587846023
 30
0.0
 10
16.26192906
 20
13.0968365656
 30
0.0
 10
16.2017726903
 20
13.1328192847
 30
0.0
 10
16.1389001909
 20
13.1665425843
 30
0.0
 10
16.0736531061
 20
13.1978266296
 30
0.0
 10
16.0063866068
 20
13.226503418
 30
0.0
 10
15.937467464
 20
13.252418072
 30
0.0
 10
15.8672718224
 20
13.2754299621
 30
0.0
 10
15.7961828982
 20
13.2954136832
 30
0.0
 10
15.7245885929
 20
13.3122598634
 30
0.0
 10
15.6528790717
 20
13.3258758008
 30
0.0
 10
15.5814443034
 20
13.3361859323
 30
0.0
 10
15.5106715922
 20
13.3431321006
 30
0.0
 10
15.4409431423
 20
13.3466736287
 30
0.0
 10
15.3726336698
 20
13.3467871573
 30
0.0
 10
15.3061081263
 20
13.343466232
 30
0.0
 10
15.2417196085
 20
13.3367206292
 30
0.0
 10
15.1798075573
 20
13.326575382
 30
0.0
 10
15.1206964041
 20
13.3130695393
 30
0.0
 10
15.064694924
 20
13.2962547913
 30
0.0
 10
15.012096375
 20
13.2761939305
 30
0.0
 10
14.9631803775
 20
13.2529603677
 30
0.0
 10
14.918214299
 20
13.2266366748
 30
0.0
 10
14.8774621923
 20
13.1973226404
 30
0.0
 10
14.8469826578
 20
13.1702774932
 30
0.0
 10
14.8250680983
 20
13.1472982593
 30
0.0
 10
14.8099695381
 20
13.1295423495
 30
0.0
 10
14.7961137127
 20
13.1111568963
 30
0.0
 10
14.783527132
 20
13.0921691202
 30
0.0
 10
14.7722381361
 20
13.0726086099
 30
0.0
 10
14.7622693488
 20
13.0525093363
 30
0.0
 10
14.7536443371
 20
13.0319067439
 30
0.0
 10
14.7487988398
 20
13.0178539573
 30
0.0
 10
14.7466086181
 20
13.0107663974
 30
0.0
  0
SPLINE
  5
342
100
AcDbEntity
  8
0
100
AcDbSpline
 62
7
  6
CONTINUOUS
 70
0
 71
3
 72
9
 73
5
 74
0
 42
0.0000001
 43
0.0000001
 44
0.0000000001
 40
0.0
 40
0.0
 40
0.0
 40
0.0
 40
0.5133904434
 40
1.0
 40
1.0
 40
1.0
 40
1.0
 10
16.0433175628
 20
11.8927100484
 30
0.0
 10
16.0511962893
 20
11.8801413164
 30
0.0
 10
16.0653869606
 20
11.854907875
 30
0.0
 10
16.0767486708
 20
11.8282604787
 30
0.0
 10
16.0814477961
 20
11.8150088023
 30
0.0
  0
SPLINE
  5
343
100
AcDbEntity
  8
0
100
AcDbSpline
 62
7
  6
CONTINUOUS
 70
0
 71
3
 72
9
 73
5
 74
0
 42
0.0000001
 43
0.0000001
 44
0.0000000001
 40
0.0
 40
0.0
 40
0.0
 40
0.0
 40
0.2455247657
 40
1.0
 40
1.0
 40
1.0
 40
1.0
 10
17.1792398169
 20
12.0515017099
 30
0.0
 10
17.1775582499
 20
12.0517543876
 30
0.0
 10
17.1706895029
 20
12.0526484373
 30
0.0
 10
17.1637537566
 20
12.0530114849
 30
0.0
 10
17.1585284437
 20
12.0530114849
 30
0.0
  0
SPLINE
  5
344
100
AcDbEntity
  8
0
100
AcDbSpline
 62
7
  6
CONTINUOUS
 70
0
 71
3
 72
25
 73
21
 74
0
 42
0.0000001
 43
0.0000001
 44
0.0000000001
 40
0.0
 40
0.0
 40
0.0
 40
0.0
 40
0.0253628532
 40
0.0507210108
 40
0.0761883124
 40
0.1018748869
 40
0.1278840841
 40
0.1543088817
 40
0.2086676698
 40
0.2654827848
 40
0.3249942674
 40
0.3872149461
 40
0.4519577368
 40
0.518870162
 40
0.5874713782
 40
0.6571876191
 40
0.7273866885
 40
0.797411316
 40
0.8666146284
 40
1.0
 40
1.0
 40
1.0
 40
1.0
 10
17.1769242685
 20
12.1221977099
 30
0.0
 10
17.1780379712
 20
12.1204099825
 30
0.0
 10
17.1800936504
 20
12.1167246106
 30
0.0
 10
17.1826289263
 20
12.1109173822
 30
0.0
 10
17.1845988408
 20
12.1048660485
 30
0.0
 10
17.1859944415
 20
12.098602178
 30
0.0
 10
17.1868080793
 20
12.0921563118
 30
0.0
 10
17.187117028
 20
12.0832827976
 30
0.0
 10
17.1859904474
 20
12.0718511121
 30
0.0
 10
17.1823334111
 20
12.0581003195
 30
0.0
 10
17.176445276
 20
12.0444386197
 30
0.0
 10
17.1684487507
 20
12.0311278373
 30
0.0
 10
17.1585034084
 20
12.0184185274
 30
0.0
 10
17.1468035627
 20
12.0065520319
 30
0.0
 10
17.1335761795
 20
11.9957545186
 30
0.0
 10
17.1190765534
 20
11.9862326693
 30
0.0
 10
17.1035863863
 20
11.978169868
 30
0.0
 10
17.087398464
 20
11.9717203759
 30
0.0
 10
17.0656019488
 20
11.9655213802
 30
0.0
 10
17.0487196769
 20
11.9634612102
 30
0.0
 10
17.0376427141
 20
11.9634612102
 30
0.0
  0
SPLINE
  5
345
100
AcDbEntity
  8
0
100
AcDbSpline
 62
7
  6
CONTINUOUS
 70
0
 71
3
 72
35
 73
31
 74
0
 42
0.0000001
 43
0.0000001
 44
0.0000000001
 40
0.0
 40
0.0
 40
0.0
 40
0.0
 40
0.0310450129
 40
0.0620800036
 40
0.0931070282
 40
0.12413124
 40
0.1551543281
 40
0.1861786215
 40
0.2172064587
 40
0.2482403186
 40
0.2792876712
 40
0.3103568628
 40
0.3414537534
 40
0.3725886829
 40
0.4037729559
 40
0.4350213022
 40
0.4663426278
 40
0.4977385379
 40
0.5606906933
 40
0.6238622646
 40
0.655507562
 40
0.6871393366
 40
0.7187338415
 40
0.7502711036
 40
0.8130595313
 40
0.8755422018
 40
0.9067188492
 40
0.9378454561
 40
0.9689386723
 40
1.0
 40
1.0
 40
1.0
 40
1.0
 10
16.0080346912
 20
12.8325078845
 30
0.0
 10
16.008681202
 20
12.8345999942
 30
0.0
 10
16.01019538
 20
12.8387188994
 30
0.0
 10
16.0131092265
 20
12.8446176356
 30
0.0
 10
16.0166391799
 20
12.8501690628
 30
0.0
 10
16.0207483046
 20
12.8553054207
 30
0.0
 10
16.0253901839
 20
12.8599657268
 30
0.0
 10
16.0305101337
 20
12.8640954193
 30
0.0
 10
16.0360471233
 20
12.8676476559
 30
0.0
 10
16.0419346819
 20
12.8705856329
 30
0.0
 10
16.0481035642
 20
12.8728822937
 30
0.0
 10
16.0544833117
 20
12.8745201807
 30
0.0
 10
16.0610037737
 20
12.875491485
 30
0.0
 10
16.0675967556
 20
12.8757977489
 30
0.0
 10
16.0741978194
 20
12.8754470976
 30
0.0
 10
16.0807460252
 20
12.874454954
 30
0.0
 10
16.0871848738
 20
12.8728415204
 30
0.0
 10
16.0955555053
 20
12.8698932648
 30
0.0
 10
16.1054900858
 20
12.8647772183
 30
0.0
 10
16.1143801686
 20
12.8579839993
 30
0.0
 10
16.1207085675
 20
12.851685867
 30
0.0
 10
16.1250284635
 20
12.8465639111
 30
0.0
 10
16.1288789895
 20
12.84108944
 30
0.0
 10
16.1333315129
 20
12.8333933444
 30
0.0
 10
16.1375635485
 20
12.8231044724
 30
0.0
 10
16.1398086025
 20
12.8122267419
 30
0.0
 10
16.1403142871
 20
12.8034274965
 30
0.0
 10
16.1400369092
 20
12.7968340376
 30
0.0
 10
16.1390932843
 20
12.7903116115
 30
0.0
 10
16.1380187001
 20
12.786051599
 30
0.0
 10
16.1373718496
 20
12.7839583899
 30
0.0
  0
SPLINE
  5
346
100
AcDbEntity
  8
0
100
AcDbSpline
 62
7
  6
CONTINUOUS
 70
0
 71
3
 72
35
 73
31
 74
0
 42
0.0000001
 43
0.0000001
 44
0.0000000001
 40
0.0
 40
0.0
 40
0.0
 40
0.0
 40
0.0310450129
 40
0.0620800036
 40
0.0931070282
 40
0.12413124
 40
0.1551543281
 40
0.1861786215
 40
0.2172064587
 40
0.2482403186
 40
0.2792876712
 40
0.3103568628
 40
0.3414537534
 40
0.3725886829
 40
0.4037729559
 40
0.4350213022
 40
0.4663426278
 40
0.4977385379
 40
0.5606906933
 40
0.6238622646
 40
0.655507562
 40
0.6871393366
 40
0.7187338415
 40
0.7502711036
 40
0.8130595313
 40
0.8755422018
 40
0.9067188492
 40
0.9378454561
 40
0.9689386723
 40
1.0
 40
1.0
 40
1.0
 40
1.0
 10
16.1373718496
 20
12.7839583899
 30
0.0
 10
16.1367253388
 20
12.7818662802
 30
0.0
 10
16.1352111607
 20
12.7777473751
 30
0.0
 10
16.1322973143
 20
12.7718486388
 30
0.0
 10
16.1287673609
 20
12.7662972116
 30
0.0
 10
16.1246582362
 20
12.7611608537
 30
0.0
 10
16.1200163569
 20
12.7565005476
 30
0.0
 10
16.1148964071
 20
12.7523708551
 30
0.0
 10
16.1093594175
 20
12.7488186185
 30
0.0
 10
16.1034718589
 20
12.7458806416
 30
0.0
 10
16.0973029766
 20
12.7435839807
 30
0.0
 10
16.090923229
 20
12.7419460937
 30
0.0
 10
16.084402767
 20
12.7409747894
 30
0.0
 10
16.0778097852
 20
12.7406685255
 30
0.0
 10
16.0712087213
 20
12.7410191769
 30
0.0
 10
16.0646605156
 20
12.7420113204
 30
0.0
 10
16.058221667
 20
12.743624754
 30
0.0
 10
16.0498510355
 20
12.7465730097
 30
0.0
 10
16.039916455
 20
12.7516890561
 30
0.0
 10
16.0310263722
 20
12.7584822751
 30
0.0
 10
16.0246979732
 20
12.7647804074
 30
0.0
 10
16.0203780773
 20
12.7699023633
 30
0.0
 10
16.0165275512
 20
12.7753768344
 30
0.0
 10
16.0120750279
 20
12.7830729301
 30
0.0
 10
16.0078429923
 20
12.793361802
 30
0.0
 10
16.0055979383
 20
12.8042395325
 30
0.0
 10
16.0050922537
 20
12.8130387779
 30
0.0
 10
16.0053696316
 20
12.8196322368
 30
0.0
 10
16.0063132565
 20
12.8261546629
 30
0.0
 10
16.0073878407
 20
12.8304146754
 30
0.0
 10
16.0080346912
 20
12.8325078845
 30
0.0
  0
SPLINE
  5
347
100
AcDbEntity
  8
0
100
AcDbSpline
 62
7
  6
CONTINUOUS
 70
0
 71
3
 72
16
 73
12
 74
0
 42
0.0000001
 43
0.0000001
 44
0.0000000001
 40
0.0
 40
0.0
 40
0.0
 40
0.0
 40
0.1219376627
 40
0.2480199477
 40
0.3767366791
 40
0.5063617366
 40
0.6351036006
 40
0.6986303658
 40
0.7613034914
 40
0.8833065692
 40
1.0
 40
1.0
 40
1.0
 40
1.0
 10
14.3953454617
 20
12.0530114849
 30
0.0
 10
14.3879788222
 20
12.0530114849
 30
0.0
 10
14.3729784335
 20
12.0519059068
 30
0.0
 10
14.3506452723
 20
12.0472217771
 30
0.0
 10
14.32863703
 20
12.0396163978
 30
0.0
 10
14.307584075
 20
12.0293075606
 30
0.0
 10
14.2912496231
 20
12.0186543
 30
0.0
 10
14.2791990409
 20
12.0090476347
 30
0.0
 10
14.2680971236
 20
11.9989548316
 30
0.0
 10
14.2558624005
 20
11.9853934394
 30
0.0
 10
14.2478025768
 20
11.9733574573
 30
0.0
 10
14.2443692647
 20
11.9672001597
 30
0.0
  0
SPLINE
  5
348
100
AcDbEntity
  8
0
100
AcDbSpline
 62
7
  6
CONTINUOUS
 70
0
 71
3
 72
18
 73
14
 74
0
 42
0.0000001
 43
0.0000001
 44
0.0000000001
 40
0.0
 40
0.0
 40
0.0
 40
0.0
 40
0.1421338277
 40
0.2787674246
 40
0.4096944328
 40
0.5350954598
 40
0.6555776093
 40
0.7143342477
 40
0.7722841414
 40
0.829615148
 40
0.8865327725
 40
0.9432535339
 40
1.0
 40
1.0
 40
1.0
 40
1.0
 10
14.2744597321
 20
11.9634612102
 30
0.0
 10
14.2695323363
 20
11.9634612102
 30
0.0
 10
14.2598575624
 20
11.9639885605
 30
0.0
 10
14.2458342574
 20
11.9664523796
 30
0.0
 10
14.2327943922
 20
11.9705396732
 30
0.0
 10
14.2209645185
 20
11.9761878487
 30
0.0
 10
14.2122069154
 20
11.9821799888
 30
0.0
 10
14.2060513243
 20
11.9876444992
 30
0.0
 10
14.2018929173
 20
11.992026793
 30
0.0
 10
14.1981755765
 20
11.9967076969
 30
0.0
 10
14.1949144013
 20
12.0016666489
 30
0.0
 10
14.1921250287
 20
12.0068820834
 30
0.0
 10
14.1905892706
 20
12.0105104031
 30
0.0
 10
14.1899049397
 20
12.0123547867
 30
0.0
  0
SPLINE
  5
349
100
AcDbEntity
  8
0
100
AcDbSpline
 62
7
  6
CONTINUOUS
 70
0
 71
3
 72
27
 73
23
 74
0
 42
0.0000001
 43
0.0000001
 44
0.0000000001
 40
0.0
 40
0.0
 40
0.0
 40
0.0
 40
0.0674739883
 40
0.1362815147
 40
0.2059386275
 40
0.2759197865
 40
0.345688831
 40
0.4147173924
 40
0.4825085045
 40
0.5486192189
 40
0.612683806
 40
0.6744381016
 40
0.7337438513
 40
0.7906116595
 40
0.8181987183
 40
0.845257979
 40
0.8718390605
 40
0.8980025037
 40
0.9238183798
 40
0.9493654047
 40
0.9747291679
 40
1.0
 40
1.0
 40
1.0
 40
1.0
 10
14.301315798
 20
12.2552805909
 30
0.0
 10
14.2912085002
 20
12.2541088753
 30
0.0
 10
14.2709021673
 20
12.2507001093
 30
0.0
 10
14.2408673025
 20
12.2426355634
 30
0.0
 10
14.211354322
 20
12.2316867622
 30
0.0
 10
14.1828345407
 20
12.2180277105
 30
0.0
 10
14.1557588112
 20
12.2018751183
 30
0.0
 10
14.1305566576
 20
12.1834842642
 30
0.0
 10
14.1076277688
 20
12.1631452679
 30
0.0
 10
14.0873362813
 20
12.1411778631
 30
0.0
 10
14.0700054004
 20
12.11792667
 30
0.0
 10
14.0559130081
 20
12.0937534915
 30
0.0
 10
14.0452896171
 20
12.069039115
 30
0.0
 10
14.039416848
 20
12.0480909104
 30
0.0
 10
14.0366687589
 20
12.0314873476
 30
0.0
 10
14.0355792253
 20
12.0192745321
 30
0.0
 10
14.035447231
 20
12.007228417
 30
0.0
 10
14.0362729541
 20
11.9953971035
 30
0.0
 10
14.0380544901
 20
11.9838288537
 30
0.0
 10
14.0407848413
 20
11.9725704831
 30
0.0
 10
14.0444529057
 20
11.9616690997
 30
0.0
 10
14.0475169051
 20
11.9546625132
 30
0.0
 10
14.049195749
 20
11.9512414401
 30
0.0
  0
SPLINE
  5
34A
100
AcDbEntity
  8
0
100
AcDbSpline
 62
7
  6
CONTINUOUS
 70
0
 71
3
 72
11
 73
7
 74
0
 42
0.0000001
 43
0.0000001
 44
0.0000000001
 40
0.0
 40
0.0
 40
0.0
 40
0.0
 40
0.2278656169
 40
0.4694381588
 40
0.7269955125
 40
1.0
 40
1.0
 40
1.0
 40
1.0
 10
13.8786321623
 20
11.566364815
 30
0.0
 10
13.8782991968
 20
11.5670433274
 30
0.0
 10
13.8777983184
 20
11.5685374888
 30
0.0
 10
13.8775713382
 20
11.5709545512
 30
0.0
 10
13.8778096777
 20
11.5735163139
 30
0.0
 10
13.8782319646
 20
11.5752308048
 30
0.0
 10
13.8784993431
 20
11.5760959586
 30
0.0
  0
SPLINE
  5
34B
100
AcDbEntity
  8
0
100
AcDbSpline
 62
7
  6
CONTINUOUS
 70
0
 71
3
 72
14
 73
10
 74
0
 42
0.0000001
 43
0.0000001
 44
0.0000000001
 40
0.0
 40
0.0
 40
0.0
 40
0.0
 40
0.1187485803
 40
0.2385850705
 40
0.3598750378
 40
0.4829887993
 40
0.6082760449
 40
0.7360540013
 40
1.0
 40
1.0
 40
1.0
 40
1.0
 10
14.7878480821
 20
12.0281304316
 30
0.0
 10
14.7868336115
 20
12.0227803182
 30
0.0
 10
14.7851892694
 20
12.0119523002
 30
0.0
 10
14.7838908359
 20
11.9954873803
 30
0.0
 10
14.7837551551
 20
11.9787712479
 30
0.0
 10
14.7847809031
 20
11.9618367467
 30
0.0
 10
14.7869664332
 20
11.9447122575
 30
0.0
 10
14.7914666791
 20
11.9214228657
 30
0.0
 10
14.7965150671
 20
11.9041260902
 30
0.0
 10
14.8005368551
 20
11.8927100484
 30
0.0
  0
SPLINE
  5
34C
100
AcDbEntity
  8
0
100
AcDbSpline
 62
7
  6
CONTINUOUS
 70
0
 71
3
 72
11
 73
7
 74
0
 42
0.0000001
 43
0.0000001
 44
0.0000000001
 40
0.0
 40
0.0
 40
0.0
 40
0.0
 40
0.2334905641
 40
0.4781882586
 40
0.73385767
 40
1.0
 40
1.0
 40
1.0
 40
1.0
 10
14.8386670884
 20
11.8150088023
 30
0.0
 10
14.8461990286
 20
11.8030374706
 30
0.0
 10
14.8627626831
 20
11.7792224237
 30
0.0
 10
14.8910691728
 20
11.744891456
 30
0.0
 10
14.9232231161
 20
11.7113416476
 30
0.0
 10
14.9466277618
 20
11.6900573529
 30
0.0
 10
14.9588876593
 20
11.6795884191
 30
0.0
  0
SPLINE
  5
34D
100
AcDbEntity
  8
0
100
AcDbSpline
 62
7
  6
CONTINUOUS
 70
0
 71
3
 72
9
 73
5
 74
0
 42
0.0000001
 43
0.0000001
 44
0.0000000001
 40
0.0
 40
0.0
 40
0.0
 40
0.0
 40
0.5084338204
 40
1.0
 40
1.0
 40
1.0
 40
1.0
 10
15.042141044
 20
11.608763592
 30
0.0
 10
15.0260993463
 20
11.6191946989
 30
0.0
 10
14.9951497102
 20
11.640654354
 30
0.0
 10
14.9656357393
 20
11.6640578118
 30
0.0
 10
14.9515529812
 20
11.676054845
 30
0.0
  0
SPLINE
  5
34E
100
AcDbEntity
  8
0
100
AcDbSpline
 62
7
  6
CONTINUOUS
 70
0
 71
3
 72
11
 73
7
 74
0
 42
0.0000001
 43
0.0000001
 44
0.0000000001
 40
0.0
 40
0.0
 40
0.0
 40
0.0
 40
0.2432826044
 40
0.4917825376
 40
0.7444066486
 40
1.0
 40
1.0
 40
1.0
 40
1.0
 10
15.0494757221
 20
11.6122971661
 30
0.0
 10
15.0644147217
 20
11.6026047879
 30
0.0
 10
15.0951695101
 20
11.5838574373
 30
0.0
 10
15.1431517005
 20
11.557986687
 30
0.0
 10
15.1932030484
 20
11.53420807
 30
0.0
 10
15.2275702444
 20
11.5199226865
 30
0.0
 10
15.245015086
 20
11.5131625652
 30
0.0
  0
SPLINE
  5
34F
100
AcDbEntity
  8
0
100
AcDbSpline
 62
7
  6
CONTINUOUS
 70
0
 71
3
 72
11
 73
7
 74
0
 42
0.0000001
 43
0.0000001
 44
0.0000000001
 40
0.0
 40
0.0
 40
0.0
 40
0.0
 40
0.2543672905
 40
0.5065979289
 40
0.7555174597
 40
1.0
 40
1.0
 40
1.0
 40
1.0
 10
15.3637879801
 20
11.4743119421
 30
0.0
 10
15.38194919
 20
11.4694270352
 30
0.0
 10
15.4183599432
 20
11.4605689952
 30
0.0
 10
15.4732383955
 20
11.4500295927
 30
0.0
 10
15.5278515903
 20
11.4423457854
 30
0.0
 10
15.5642093694
 20
11.4391296346
 30
0.0
 10
15.5822515224
 20
11.4380261598
 30
0.0
  0
SPLINE
  5
350
100
AcDbEntity
  8
0
100
AcDbSpline
 62
7
  6
CONTINUOUS
 70
0
 71
3
 72
9
 73
5
 74
0
 42
0.0000001
 43
0.0000001
 44
0.0000000001
 40
0.0
 40
0.0
 40
0.0
 40
0.0
 40
0.4924169409
 40
1.0
 40
1.0
 40
1.0
 40
1.0
 10
15.7008521992
 20
11.4309590117
 30
0.0
 10
15.6819839421
 20
11.4297524769
 30
0.0
 10
15.6435759212
 20
11.4285861901
 30
0.0
 10
15.6051735027
 20
11.4297884876
 30
0.0
 10
15.585719575
 20
11.4309590117
 30
0.0
  0
SPLINE
  5
351
100
AcDbEntity
  8
0
100
AcDbSpline
 62
7
  6
CONTINUOUS
 70
0
 71
3
 72
11
 73
7
 74
0
 42
0.0000001
 43
0.0000001
 44
0.0000000001
 40
0.0
 40
0.0
 40
0.0
 40
0.0
 40
0.2651611183
 40
0.5206010337
 40
0.7656830435
 40
1.0
 40
1.0
 40
1.0
 40
1.0
 10
15.6973841466
 20
11.4380261598
 30
0.0
 10
15.7138778752
 20
11.4390993519
 30
0.0
 10
15.7462081272
 20
11.4421740277
 30
0.0
 10
15.7933624261
 20
11.4497811961
 30
0.0
 10
15.8379955529
 20
11.4602498731
 30
0.0
 10
15.8665161542
 20
11.4692985064
 30
0.0
 10
15.8802347376
 20
11.4743119421
 30
0.0
  0
SPLINE
  5
352
100
AcDbEntity
  8
0
100
AcDbSpline
 62
7
  6
CONTINUOUS
 70
0
 71
3
 72
9
 73
5
 74
0
 42
0.0000001
 43
0.0000001
 44
0.0000000001
 40
0.0
 40
0.0
 40
0.0
 40
0.0
 40
0.4866173476
 40
1.0
 40
1.0
 40
1.0
 40
1.0
 10
15.9691166389
 20
11.5070422354
 30
0.0
 10
15.9567750953
 20
11.4993574232
 30
0.0
 10
15.9304770649
 20
11.4850376574
 30
0.0
 10
15.9028721492
 20
11.4734787708
 30
0.0
 10
15.8884739782
 20
11.4681916123
 30
0.0
  0
SPLINE
  5
353
100
AcDbEntity
  8
0
100
AcDbSpline
 62
7
  6
CONTINUOUS
 70
0
 71
3
 72
13
 73
9
 74
0
 42
0.0000001
 43
0.0000001
 44
0.0000000001
 40
0.0
 40
0.0
 40
0.0
 40
0.0
 40
0.265855102
 40
0.5197356008
 40
0.6428175686
 40
0.7636741978
 40
0.8826272773
 40
1.0
 40
1.0
 40
1.0
 40
1.0
 10
15.9608773983
 20
11.5131625652
 30
0.0
 10
15.9714713424
 20
11.5197875312
 30
0.0
 10
15.9915389187
 20
11.533811819
 30
0.0
 10
16.0142001462
 20
11.5539115024
 30
0.0
 10
16.030152245
 20
11.5710468039
 30
0.0
 10
16.0409395204
 20
11.5842745673
 30
0.0
 10
16.0506488283
 20
11.5979843352
 30
0.0
 10
16.0564255742
 20
11.6074837994
 30
0.0
 10
16.0591203698
 20
11.6122971661
 30
0.0
  0
SPLINE
  5
354
100
AcDbEntity
  8
0
100
AcDbSpline
 62
7
  6
CONTINUOUS
 70
0
 71
3
 72
14
 73
10
 74
0
 42
0.0000001
 43
0.0000001
 44
0.0000000001
 40
0.0
 40
0.0
 40
0.0
 40
0.0
 40
0.1151560352
 40
0.2356843947
 40
0.3599167035
 40
0.4865517215
 40
0.6145984635
 40
0.7432792819
 40
1.0
 40
1.0
 40
1.0
 40
1.0
 10
13.8784993431
 20
11.5760959586
 30
0.0
 10
13.8788833299
 20
11.577338421
 30
0.0
 10
13.8798814498
 20
11.5798175523
 30
0.0
 10
13.8818547221
 20
11.5833789713
 30
0.0
 10
13.8842423665
 20
11.5868343202
 30
0.0
 10
13.8869605153
 20
11.5901444239
 30
0.0
 10
13.8899456936
 20
11.5932849805
 30
0.0
 10
13.8942105381
 20
11.5972172723
 30
0.0
 10
13.8976796565
 20
11.5998687919
 30
0.0
 10
13.9000842986
 20
11.601488237
 30
0.0
  0
SPLINE
  5
355
100
AcDbEntity
  8
0
100
AcDbSpline
 62
7
  6
CONTINUOUS
 70
0
 71
3
 72
24
 73
20
 74
0
 42
0.0000001
 43
0.0000001
 44
0.0000000001
 40
0.0
 40
0.0
 40
0.0
 40
0.0
 40
0.0251438444
 40
0.0504917823
 40
0.076133139
 40
0.1021488867
 40
0.1555368778
 40
0.2111391125
 40
0.2692007871
 40
0.3297802214
 40
0.3927672886
 40
0.4579083034
 40
0.5248335883
 40
0.5930852264
 40
0.6621428546
 40
0.7314497737
 40
0.8004380748
 40
0.86855458
 40
1.0
 40
1.0
 40
1.0
 40
1.0
 10
14.1899049397
 20
12.0123547867
 30
0.0
 10
14.1892168736
 20
12.014209237
 30
0.0
 10
14.1880035141
 20
12.0179980605
 30
0.0
 10
14.1866908336
 20
12.0238491301
 30
0.0
 10
14.1858862337
 20
12.0298611641
 30
0.0
 10
14.1854901497
 20
12.0381236268
 30
0.0
 10
14.186313045
 20
12.0487621794
 30
0.0
 10
14.189325347
 20
12.0616005167
 30
0.0
 10
14.1943076501
 20
12.0744148053
 30
0.0
 10
14.2011683497
 20
12.0869891026
 30
0.0
 10
14.2097868703
 20
12.099115601
 30
0.0
 10
14.2200152019
 20
12.110592463
 30
0.0
 10
14.2316793648
 20
12.121228197
 30
0.0
 10
14.2445816055
 20
12.1308445518
 30
0.0
 10
14.2585039676
 20
12.1392799032
 30
0.0
 10
14.2732096171
 20
12.1463917707
 30
0.0
 10
14.2884550706
 20
12.1520607727
 30
0.0
 10
14.3088881899
 20
12.1574978246
 30
0.0
 10
14.3246359315
 20
12.1592929376
 30
0.0
 10
14.334976313
 20
12.1592929376
 30
0.0
  0
SPLINE
  5
356
100
AcDbEntity
  8
0
100
AcDbSpline
 62
7
  6
CONTINUOUS
 70
0
 71
3
 72
15
 73
11
 74
0
 42
0.0000001
 43
0.0000001
 44
0.0000000001
 40
0.0
 40
0.0
 40
0.0
 40
0.0
 40
0.1250886006
 40
0.2478001143
 40
0.3692806726
 40
0.4907955671
 40
0.6136067084
 40
0.7388507269
 40
0.8674400284
 40
1.0
 40
1.0
 40
1.0
 40
1.0
 10
16.1199489812
 20
12.7121452674
 30
0.0
 10
16.1188087258
 20
12.7084553995
 30
0.0
 10
16.115990825
 20
12.7013028248
 30
0.0
 10
16.1101429743
 20
12.6914586849
 30
0.0
 10
16.1028207766
 20
12.682794243
 30
0.0
 10
16.0941553442
 20
12.6754694957
 30
0.0
 10
16.084303433
 20
12.6696135219
 30
0.0
 10
16.0734422464
 20
12.6653261587
 30
0.0
 10
16.0617674529
 20
12.6626760312
 30
0.0
 10
16.0536991935
 20
12.662036605
 30
0.0
 10
16.0496068114
 20
12.6619849418
 30
0.0
  0
SPLINE
  5
357
100
AcDbEntity
  8
0
100
AcDbSpline
 62
7
  6
CONTINUOUS
 70
0
 71
3
 72
27
 73
23
 74
0
 42
0.0000001
 43
0.0000001
 44
0.0000000001
 40
0.0
 40
0.0
 40
0.0
 40
0.0
 40
0.0252708639
 40
0.0506346612
 40
0.0761817213
 40
0.1019976333
 40
0.1281611105
 40
0.1547422227
 40
0.1818015091
 40
0.2093885856
 40
0.2662564077
 40
0.3255621366
 40
0.3873163744
 40
0.4513808762
 40
0.5174914952
 40
0.5852825153
 40
0.65431099
 40
0.7240799705
 40
0.7940611258
 40
0.8637183022
 40
0.9325259257
 40
1.0
 40
1.0
 40
1.0
 40
1.0
 10
17.3424883942
 20
12.1326620844
 30
0.0
 10
17.3441672407
 20
12.1292410072
 30
0.0
 10
17.3472312435
 20
12.1222344114
 30
0.0
 10
17.3508993106
 20
12.1113330127
 30
0.0
 10
17.3536296632
 20
12.100074626
 30
0.0
 10
17.3554111956
 20
12.0885063596
 30
0.0
 10
17.3562369144
 20
12.0766750306
 30
0.0
 10
17.3561049142
 20
12.0646289018
 30
0.0
 10
17.3550153697
 20
12.0524160761
 30
0.0
 10
17.3522672735
 20
12.0358125057
 30
0.0
 10
17.3463944893
 20
12.0148643035
 30
0.0
 10
17.3357710897
 20
11.9901499416
 30
0.0
 10
17.3216786997
 20
11.9659767905
 30
0.0
 10
17.3043478347
 20
11.9427256308
 30
0.0
 10
17.284056374
 20
11.9207582576
 30
0.0
 10
17.2611275175
 20
11.9004192873
 30
0.0
 10
17.2359253969
 20
11.8820284503
 30
0.0
 10
17.2088496919
 20
11.8658758627
 30
0.0
 10
17.1803299156
 20
11.8522168023
 30
0.0
 10
17.1508169159
 20
11.8412679843
 30
0.0
 10
17.1207820165
 20
11.8332034232
 30
0.0
 10
17.1004756564
 20
11.829794651
 30
0.0
 10
17.0903683458
 20
11.8286229339
 30
0.0
  0
SPLINE
  5
358
100
AcDbEntity
  8
0
100
AcDbSpline
 62
7
  6
CONTINUOUS
 70
0
 71
3
 72
9
 73
5
 74
0
 42
0.0000001
 43
0.0000001
 44
0.0000000001
 40
0.0
 40
0.0
 40
0.0
 40
0.0
 40
0.5133904434
 40
1.0
 40
1.0
 40
1.0
 40
1.0
 10
14.8281954505
 20
11.8150088023
 30
0.0
 10
14.820316724
 20
11.8275775343
 30
0.0
 10
14.8061260527
 20
11.8528109757
 30
0.0
 10
14.7947643426
 20
11.879458372
 30
0.0
 10
14.7900652172
 20
11.8927100484
 30
0.0
  0
SPLINE
  5
359
100
AcDbEntity
  8
0
100
AcDbSpline
 62
7
  6
CONTINUOUS
 70
0
 71
3
 72
9
 73
5
 74
0
 42
0.0000001
 43
0.0000001
 44
0.0000000001
 40
0.0
 40
0.0
 40
0.0
 40
0.0
 40
0.2420405384
 40
1.0
 40
1.0
 40
1.0
 40
1.0
 10
14.8108103624
 20
11.9269124392
 30
0.0
 10
14.8129645202
 20
11.9216134611
 30
0.0
 10
14.8223873276
 20
11.8999344186
 30
0.0
 10
14.8338106739
 20
11.8791440517
 30
0.0
 10
14.8433245958
 20
11.8639667342
 30
0.0
  0
LINE
  5
35A
100
AcDbEntity
  8
0
100
AcDbLine
 62
7
  6
CONTINUOUS
 10
14.1498943219
 20
12.4530244659
 11
14.1504169481
 21
12.4529090249
  0
SPLINE
  5
35B
100
AcDbEntity
  8
0
100
AcDbSpline
 62
7
  6
CONTINUOUS
 70
0
 71
3
 72
16
 73
12
 74
0
 42
0.0000001
 43
0.0000001
 44
0.0000000001
 40
0.0
 40
0.0
 40
0.0
 40
0.0
 40
0.0298909636
 40
0.0649854853
 40
0.1051635575
 40
0.150209918
 40
0.2540565841
 40
0.3748648556
 40
0.5110721533
 40
0.6614367659
 40
1.0
 40
1.0
 40
1.0
 40
1.0
 10
14.1504169481
 20
12.4529090249
 30
0.0
 10
14.1505442471
 20
12.4528604658
 30
0.0
 10
14.1508132128
 20
12.4527345167
 30
0.0
 10
14.1512275344
 20
12.4524927764
 30
0.0
 10
14.1516826805
 20
12.4521862566
 30
0.0
 10
14.1523736067
 20
12.4516707634
 30
0.0
 10
14.1533156275
 20
12.450879532
 30
0.0
 10
14.1545235964
 20
12.4497626392
 30
0.0
 10
14.1558422367
 20
12.4484548163
 30
0.0
 10
14.1578102758
 20
12.446393901
 30
0.0
 10
14.1592948085
 20
12.4447307671
 30
0.0
 10
14.1603055962
 20
12.4435646648
 30
0.0
  0
SPLINE
  5
35C
100
AcDbEntity
  8
0
100
AcDbSpline
 62
7
  6
CONTINUOUS
 70
0
 71
3
 72
15
 73
11
 74
0
 42
0.0000001
 43
0.0000001
 44
0.0000000001
 40
0.0
 40
0.0
 40
0.0
 40
0.0
 40
0.1404265678
 40
0.2762464244
 40
0.4072283866
 40
0.5334187755
 40
0.6550988411
 40
0.7728326141
 40
0.8874465627
 40
1.0
 40
1.0
 40
1.0
 40
1.0
 10
17.098159295
 20
12.1592929376
 30
0.0
 10
17.1024114705
 20
12.1592929376
 30
0.0
 10
17.1107829474
 20
12.1588988565
 30
0.0
 10
17.1229994161
 20
12.1570677661
 30
0.0
 10
17.1345304164
 20
12.1540252838
 30
0.0
 10
17.1452291259
 20
12.1498069076
 30
0.0
 10
17.154959636
 20
12.1444607358
 30
0.0
 10
17.1635958543
 20
12.1380492467
 30
0.0
 10
17.1710209
 20
12.1306529392
 30
0.0
 10
17.1751221665
 20
12.1250904629
 30
0.0
 10
17.1769242685
 20
12.1221977099
 30
0.0
  0
SPLINE
  5
35D
100
AcDbEntity
  8
0
100
AcDbSpline
 62
7
  6
CONTINUOUS
 70
0
 71
3
 72
9
 73
5
 74
0
 42
0.0000001
 43
0.0000001
 44
0.0000000001
 40
0.0
 40
0.0
 40
0.0
 40
0.0
 40
0.511158683
 40
1.0
 40
1.0
 40
1.0
 40
1.0
 10
15.9036031234
 20
11.5171495442
 30
0.0
 10
15.9156940856
 20
11.5215894715
 30
0.0
 10
15.9390329357
 20
11.5311677543
 30
0.0
 10
15.9614940522
 20
11.5426718771
 30
0.0
 10
15.9721824331
 20
11.5487949651
 30
0.0
  0
SPLINE
  5
35E
100
AcDbEntity
  8
0
100
AcDbSpline
 62
7
  6
CONTINUOUS
 70
0
 71
3
 72
9
 73
5
 74
0
 42
0.0000001
 43
0.0000001
 44
0.0000000001
 40
0.0
 40
0.0
 40
0.0
 40
0.0
 40
0.5071294054
 40
1.0
 40
1.0
 40
1.0
 40
1.0
 10
15.6008487202
 20
11.4799169435
 30
0.0
 10
15.6193282298
 20
11.4788050492
 30
0.0
 10
15.6558356777
 20
11.477609556
 30
0.0
 10
15.6923542851
 20
11.4785457104
 30
0.0
 10
15.7103172959
 20
11.4795738014
 30
0.0
  0
SPLINE
  5
35F
100
AcDbEntity
  8
0
100
AcDbSpline
 62
7
  6
CONTINUOUS
 70
0
 71
3
 72
24
 73
20
 74
0
 42
0.0000001
 43
0.0000001
 44
0.0000000001
 40
0.0
 40
0.0
 40
0.0
 40
0.0
 40
0.0251438444
 40
0.0504917823
 40
0.076133139
 40
0.1021488867
 40
0.1555368778
 40
0.2111391125
 40
0.2692007871
 40
0.3297802214
 40
0.3927672886
 40
0.4579083034
 40
0.5248335883
 40
0.5930852264
 40
0.6621428546
 40
0.7314497737
 40
0.8004380748
 40
0.86855458
 40
1.0
 40
1.0
 40
1.0
 40
1.0
 10
16.6652563611
 20
12.0123547867
 30
0.0
 10
16.664568295
 20
12.014209237
 30
0.0
 10
16.6633549355
 20
12.0179980605
 30
0.0
 10
16.662042255
 20
12.0238491301
 30
0.0
 10
16.6612376551
 20
12.0298611641
 30
0.0
 10
16.6608415711
 20
12.0381236268
 30
0.0
 10
16.6616644664
 20
12.0487621794
 30
0.0
 10
16.6646767683
 20
12.0616005167
 30
0.0
 10
16.6696590715
 20
12.0744148053
 30
0.0
 10
16.6765197711
 20
12.0869891026
 30
0.0
 10
16.6851382917
 20
12.099115601
 30
0.0
 10
16.6953666233
 20
12.110592463
 30
0.0
 10
16.7070307862
 20
12.121228197
 30
0.0
 10
16.7199330268
 20
12.1308445518
 30
0.0
 10
16.733855389
 20
12.1392799032
 30
0.0
 10
16.7485610385
 20
12.1463917707
 30
0.0
 10
16.7638064919
 20
12.1520607727
 30
0.0
 10
16.7842396113
 20
12.1574978246
 30
0.0
 10
16.7999873529
 20
12.1592929376
 30
0.0
 10
16.8103277344
 20
12.1592929376
 30
0.0
  0
SPLINE
  5
360
100
AcDbEntity
  8
0
100
AcDbSpline
 62
7
  6
CONTINUOUS
 70
0
 71
3
 72
9
 73
5
 74
0
 42
0.0000001
 43
0.0000001
 44
0.0000000001
 40
0.0
 40
0.0
 40
0.0
 40
0.0
 40
0.4921340421
 40
1.0
 40
1.0
 40
1.0
 40
1.0
 10
14.9715420283
 20
11.7209062947
 30
0.0
 10
14.9849375507
 20
11.7096791272
 30
0.0
 10
15.0129105077
 20
11.6877538299
 30
0.0
 10
15.0421489272
 20
11.6675541178
 30
0.0
 10
15.0572701892
 20
11.6577215239
 30
0.0
  0
SPLINE
  5
361
100
AcDbEntity
  8
0
100
AcDbSpline
 62
7
  6
CONTINUOUS
 70
0
 71
3
 72
27
 73
23
 74
0
 42
0.0000001
 43
0.0000001
 44
0.0000000001
 40
0.0
 40
0.0
 40
0.0
 40
0.0
 40
0.0674739883
 40
0.1362815147
 40
0.2059386275
 40
0.2759197865
 40
0.345688831
 40
0.4147173924
 40
0.4825085045
 40
0.5486192189
 40
0.612683806
 40
0.6744381016
 40
0.7337438513
 40
0.7906116595
 40
0.8181987183
 40
0.845257979
 40
0.8718390605
 40
0.8980025037
 40
0.9238183798
 40
0.9493654047
 40
0.9747291679
 40
1.0
 40
1.0
 40
1.0
 40
1.0
 10
17.0713032291
 20
11.8674735569
 30
0.0
 10
17.0814105269
 20
11.8686452725
 30
0.0
 10
17.1017168598
 20
11.8720540386
 30
0.0
 10
17.1317517246
 20
11.8801185844
 30
0.0
 10
17.1612647051
 20
11.8910673856
 30
0.0
 10
17.1897844864
 20
11.9047264373
 30
0.0
 10
17.2168602159
 20
11.9208790296
 30
0.0
 10
17.2420623695
 20
11.9392698837
 30
0.0
 10
17.2649912584
 20
11.95960888
 30
0.0
 10
17.2852827458
 20
11.9815762848
 30
0.0
 10
17.3026136268
 20
12.0048274778
 30
0.0
 10
17.316706019
 20
12.0290006563
 30
0.0
 10
17.32732941
 20
12.0537150329
 30
0.0
 10
17.3332021791
 20
12.0746632374
 30
0.0
 10
17.3359502682
 20
12.0912668003
 30
0.0
 10
17.3370398018
 20
12.1034796158
 30
0.0
 10
17.3371717962
 20
12.1155257308
 30
0.0
 10
17.336346073
 20
12.1273570444
 30
0.0
 10
17.3345645371
 20
12.1389252941
 30
0.0
 10
17.3318341858
 20
12.1501836647
 30
0.0
 10
17.3281661214
 20
12.1610850481
 30
0.0
 10
17.325102122
 20
12.1680916346
 30
0.0
 10
17.3234232781
 20
12.1715127077
 30
0.0
  0
SPLINE
  5
362
100
AcDbEntity
  8
0
100
AcDbSpline
 62
7
  6
CONTINUOUS
 70
0
 71
3
 72
20
 73
16
 74
0
 42
0.0000001
 43
0.0000001
 44
0.0000000001
 40
0.0
 40
0.0
 40
0.0
 40
0.0
 40
0.1303412389
 40
0.196559087
 40
0.2631076802
 40
0.3960396804
 40
0.4619616849
 40
0.5271526421
 40
0.5913739904
 40
0.6544099034
 40
0.7761169165
 40
0.834622783
 40
0.8914333792
 40
0.9465416008
 40
1.0
 40
1.0
 40
1.0
 40
1.0
 10
16.7916173162
 20
12.2529684519
 30
0.0
 10
16.7768195164
 20
12.2504463036
 30
0.0
 10
16.7547430975
 20
12.2450243276
 30
0.0
 10
16.7261777645
 20
12.2348679324
 30
0.0
 10
16.698075886
 20
12.2227106082
 30
0.0
 10
16.671269072
 20
12.2078016667
 30
0.0
 10
16.6463006938
 20
12.1904113501
 30
0.0
 10
16.6287484744
 20
12.176310301
 30
0.0
 10
16.6124720484
 20
12.1612361338
 30
0.0
 10
16.5928929615
 20
12.1402659286
 30
0.0
 10
16.576096028
 20
12.117668108
 30
0.0
 10
16.5626982241
 20
12.0938524786
 30
0.0
 10
16.5546139008
 20
12.0759355892
 30
0.0
 10
16.5484369572
 20
12.0578893575
 30
0.0
 10
16.5455842694
 20
12.0456884462
 30
0.0
 10
16.5445075926
 20
12.0396265994
 30
0.0
  0
SPLINE
  5
363
100
AcDbEntity
  8
0
100
AcDbSpline
 62
7
  6
CONTINUOUS
 70
0
 71
3
 72
19
 73
15
 74
0
 42
0.0000001
 43
0.0000001
 44
0.0000000001
 40
0.0
 40
0.0
 40
0.0
 40
0.0
 40
0.0575599239
 40
0.1152629994
 40
0.1732497372
 40
0.2316555912
 40
0.2906086185
 40
0.3502275901
 40
0.4718179673
 40
0.5972053746
 40
0.7268794534
 40
0.7934388923
 40
0.8611595208
 40
1.0
 40
1.0
 40
1.0
 40
1.0
 10
14.049195749
 20
11.9512414401
 30
0.0
 10
14.0505751426
 20
11.9484305735
 30
0.0
 10
14.0535416548
 20
11.9428994791
 30
0.0
 10
14.0585869865
 20
11.9349303734
 30
0.0
 10
14.0642161156
 20
11.9273045808
 30
0.0
 10
14.0704136672
 20
11.9200439851
 30
0.0
 10
14.0771625688
 20
11.9131676239
 30
0.0
 10
14.0869324701
 20
11.904482013
 30
0.0
 10
14.1004859496
 20
11.8946750039
 30
0.0
 10
14.1185010247
 20
11.884815156
 30
0.0
 10
14.1347644457
 20
11.878257261
 30
0.0
 10
14.1484795305
 20
11.8739886424
 30
0.0
 10
14.1628843235
 20
11.8703294943
 30
0.0
 10
14.1739800643
 20
11.8684094057
 30
0.0
 10
14.1814743604
 20
11.8674735569
 30
0.0
  0
SPLINE
  5
364
100
AcDbEntity
  8
0
100
AcDbSpline
 62
7
  6
CONTINUOUS
 70
0
 71
3
 72
13
 73
9
 74
0
 42
0.0000001
 43
0.0000001
 44
0.0000000001
 40
0.0
 40
0.0
 40
0.0
 40
0.0
 40
0.2649170217
 40
0.5227094444
 40
0.6478007459
 40
0.7695223143
 40
0.8871764435
 40
1.0
 40
1.0
 40
1.0
 40
1.0
 10
17.5106649619
 20
12.4435646648
 30
0.0
 10
17.5126940858
 20
12.4449312111
 30
0.0
 10
17.5168378494
 20
12.4474259458
 30
0.0
 10
17.522284118
 20
12.4499377745
 30
0.0
 10
17.5266906571
 20
12.4514635632
 30
0.0
 10
17.5299480809
 20
12.4523252432
 30
0.0
 10
17.533156899
 20
12.4528818126
 30
0.0
 10
17.5352864467
 20
12.4530244537
 30
0.0
 10
17.536328319
 20
12.4530244657
 30
0.0
  0
SPLINE
  5
365
100
AcDbEntity
  8
0
100
AcDbSpline
 62
7
  6
CONTINUOUS
 70
0
 71
3
 72
11
 73
7
 74
0
 42
0.0000001
 43
0.0000001
 44
0.0000000001
 40
0.0
 40
0.0
 40
0.0
 40
0.0
 40
0.2610216407
 40
0.514535098
 40
0.7606717987
 40
1.0
 40
1.0
 40
1.0
 40
1.0
 10
16.1213011835
 20
12.7578917204
 30
0.0
 10
16.1221437888
 20
12.753958169
 30
0.0
 10
16.1233725428
 20
12.7461028243
 30
0.0
 10
16.123784785
 20
12.7343576275
 30
0.0
 10
16.1227323523
 20
12.7229861204
 30
0.0
 10
16.1210379875
 20
12.7156692929
 30
0.0
 10
16.1199489812
 20
12.7121452674
 30
0.0
  0
SPLINE
  5
366
100
AcDbEntity
  8
0
100
AcDbSpline
 62
7
  6
CONTINUOUS
 70
0
 71
3
 72
9
 73
5
 74
0
 42
0.0000001
 43
0.0000001
 44
0.0000000001
 40
0.0
 40
0.0
 40
0.0
 40
0.0
 40
0.5136079105
 40
1.0
 40
1.0
 40
1.0
 40
1.0
 10
15.8953638828
 20
11.523269874
 30
0.0
 10
15.9097772143
 20
11.5285372044
 30
0.0
 10
15.9373952769
 20
11.5400722115
 30
0.0
 10
15.9636849783
 20
11.5544151561
 30
0.0
 10
15.9760065436
 20
11.562120497
 30
0.0
  0
SPLINE
  5
367
100
AcDbEntity
  8
0
100
AcDbSpline
 62
7
  6
CONTINUOUS
 70
0
 71
3
 72
9
 73
5
 74
0
 42
0.0000001
 43
0.0000001
 44
0.0000000001
 40
0.0
 40
0.0
 40
0.0
 40
0.0
 40
0.5205961982
 40
1.0
 40
1.0
 40
1.0
 40
1.0
 10
16.7042445489
 20
11.8341979046
 30
0.0
 10
16.7028363412
 20
11.8351592015
 30
0.0
 10
16.7002403369
 20
11.8371718268
 30
0.0
 10
16.6979369836
 20
11.8395200857
 30
0.0
 10
16.696937269
 20
11.8407308107
 30
0.0
  0
SPLINE
  5
368
100
AcDbEntity
  8
0
100
AcDbSpline
 62
7
  6
CONTINUOUS
 70
0
 71
3
 72
9
 73
5
 74
0
 42
0.0000001
 43
0.0000001
 44
0.0000000001
 40
0.0
 40
0.0
 40
0.0
 40
0.0
 40
0.507711207
 40
1.0
 40
1.0
 40
1.0
 40
1.0
 10
15.5973806676
 20
11.4869840917
 30
0.0
 10
15.6168386579
 20
11.4857940229
 30
0.0
 10
15.6552418807
 20
11.4845711715
 30
0.0
 10
15.6936509961
 20
11.4857567848
 30
0.0
 10
15.7125132918
 20
11.4869840917
 30
0.0
  0
SPLINE
  5
369
100
AcDbEntity
  8
0
100
AcDbSpline
 62
7
  6
CONTINUOUS
 70
0
 71
3
 72
9
 73
5
 74
0
 42
0.0000001
 43
0.0000001
 44
0.0000000001
 40
0.0
 40
0.0
 40
0.0
 40
0.0
 40
0.4914237867
 40
1.0
 40
1.0
 40
1.0
 40
1.0
 10
14.9740168045
 20
11.7285463509
 30
0.0
 10
14.9880816852
 20
11.7165361112
 30
0.0
 10
15.0175848883
 20
11.6931161783
 30
0.0
 10
15.0485477422
 20
11.6716729126
 30
0.0
 10
15.0646048673
 20
11.6612550979
 30
0.0
  0
SPLINE
  5
36A
100
AcDbEntity
  8
0
100
AcDbSpline
 62
7
  6
CONTINUOUS
 70
0
 71
3
 72
17
 73
13
 74
0
 42
0.0000001
 43
0.0000001
 44
0.0000000001
 40
0.0
 40
0.0
 40
0.0
 40
0.0
 40
0.0520344194
 40
0.110837521
 40
0.1745945482
 40
0.2415983587
 40
0.3797856677
 40
0.517424033
 40
0.6502263403
 40
0.7758585012
 40
0.8928671311
 40
1.0
 40
1.0
 40
1.0
 40
1.0
 10
17.2750445777
 20
11.566364815
 30
0.0
 10
17.2747162822
 20
11.5670338108
 30
0.0
 10
17.2739829873
 20
11.5684421762
 30
0.0
 10
17.27275705
 20
11.5706217788
 30
0.0
 10
17.2713669823
 20
11.5729540163
 30
0.0
 10
17.2693278228
 20
11.5762219062
 30
0.0
 10
17.2666220165
 20
11.5803198338
 30
0.0
 10
17.263271041
 20
11.5851182123
 30
0.0
 10
17.2599180852
 20
11.5896940388
 30
0.0
 10
17.2566477772
 20
11.5939625748
 30
0.0
 10
17.2535151586
 20
11.5978719479
 30
0.0
 10
17.251448615
 20
11.6003288685
 30
0.0
 10
17.2504436642
 20
11.601488237
 30
0.0
  0
SPLINE
  5
36B
100
AcDbEntity
  8
0
100
AcDbSpline
 62
7
  6
CONTINUOUS
 70
0
 71
3
 72
9
 73
5
 74
0
 42
0.0000001
 43
0.0000001
 44
0.0000000001
 40
0.0
 40
0.0
 40
0.0
 40
0.0
 40
0.2449444289
 40
1.0
 40
1.0
 40
1.0
 40
1.0
 10
14.8320477965
 20
11.9028173572
 30
0.0
 10
14.833649716
 20
11.8995529885
 30
0.0
 10
14.840376033
 20
11.8863179419
 30
0.0
 10
14.8478271274
 20
11.8734540839
 30
0.0
 10
14.8537962336
 20
11.8639667342
 30
0.0
  0
SPLINE
  5
36C
100
AcDbEntity
  8
0
100
AcDbSpline
 62
7
  6
CONTINUOUS
 70
0
 71
3
 72
9
 73
5
 74
0
 42
0.0000001
 43
0.0000001
 44
0.0000000001
 40
0.0
 40
0.0
 40
0.0
 40
0.0
 40
0.2450403519
 40
1.0
 40
1.0
 40
1.0
 40
1.0
 10
14.8156660003
 20
11.9416679802
 30
0.0
 10
14.8168106992
 20
11.9384186963
 30
0.0
 10
14.8216886273
 20
11.9252317504
 30
0.0
 10
14.8273718855
 20
11.9123458621
 30
0.0
 10
14.8320477965
 20
11.9028173572
 30
0.0
  0
SPLINE
  5
36D
100
AcDbEntity
  8
0
100
AcDbSpline
 62
7
  6
CONTINUOUS
 70
0
 71
3
 72
19
 73
15
 74
0
 42
0.0000001
 43
0.0000001
 44
0.0000000001
 40
0.0
 40
0.0
 40
0.0
 40
0.0
 40
0.1388403506
 40
0.2065608455
 40
0.2731201997
 40
0.4027941839
 40
0.5281815348
 40
0.6497719695
 40
0.7093909955
 40
0.7683440946
 40
0.8267500234
 40
0.8847368401
 40
0.9424399945
 40
1.0
 40
1.0
 40
1.0
 40
1.0
 10
14.2005394771
 20
11.8286229339
 30
0.0
 10
14.1930451879
 20
11.8295587818
 30
0.0
 10
14.1819494608
 20
11.8314788659
 30
0.0
 10
14.1675446859
 20
11.8351380087
 30
0.0
 10
14.1538296163
 20
11.8394066185
 30
0.0
 10
14.1375662038
 20
11.8459645006
 30
0.0
 10
14.1195511301
 20
11.8558243402
 30
0.0
 10
14.1059976414
 20
11.8656313422
 30
0.0
 10
14.0962277329
 20
11.87431696
 30
0.0
 10
14.0894788176
 20
11.8811933231
 30
0.0
 10
14.0832812584
 20
11.8884539286
 30
0.0
 10
14.0776521177
 20
11.8960797284
 30
0.0
 10
14.0726067788
 20
11.904048845
 30
0.0
 10
14.0696402621
 20
11.9095799469
 30
0.0
 10
14.0682608662
 20
11.9123908174
 30
0.0
  0
SPLINE
  5
36E
100
AcDbEntity
  8
0
100
AcDbSpline
 62
7
  6
CONTINUOUS
 70
0
 71
3
 72
15
 73
11
 74
0
 42
0.0000001
 43
0.0000001
 44
0.0000000001
 40
0.0
 40
0.0
 40
0.0
 40
0.0
 40
0.115453949
 40
0.2345273807
 40
0.3569891499
 40
0.482404664
 40
0.6101743297
 40
0.7395743925
 40
0.8697985958
 40
1.0
 40
1.0
 40
1.0
 40
1.0
 10
16.0496068114
 20
12.6619849418
 30
0.0
 10
16.0453821808
 20
12.6619316089
 30
0.0
 10
16.0367840111
 20
12.6624134184
 30
0.0
 10
16.0239074385
 20
12.6647940088
 30
0.0
 10
16.011058098
 20
12.6687991835
 30
0.0
 10
15.9984553192
 20
12.6743587637
 30
0.0
 10
15.986310305
 20
12.6813770154
 30
0.0
 10
15.9748275061
 20
12.6897347793
 30
0.0
 10
15.9642017812
 20
12.699288734
 30
0.0
 10
15.9577913891
 20
12.7063675902
 30
0.0
 10
15.9547802563
 20
12.710060135
 30
0.0
  0
SPLINE
  5
36F
100
AcDbEntity
  8
0
100
AcDbSpline
 62
7
  6
CONTINUOUS
 70
0
 71
3
 72
15
 73
11
 74
0
 42
0.0000001
 43
0.0000001
 44
0.0000000001
 40
0.0
 40
0.0
 40
0.0
 40
0.0
 40
0.1349081318
 40
0.2680726626
 40
0.3987444655
 40
0.5263062402
 40
0.6503150357
 40
0.7705421366
 40
0.8870070281
 40
1.0
 40
1.0
 40
1.0
 40
1.0
 10
15.9547802563
 20
12.710060135
 30
0.0
 10
15.9517892121
 20
12.7137280452
 30
0.0
 10
15.9462164739
 20
12.7213286238
 30
0.0
 10
15.939164366
 20
12.7334392007
 30
0.0
 10
15.9335716733
 20
12.7460108972
 30
0.0
 10
15.9295358458
 20
12.7588308121
 30
0.0
 10
15.9271273277
 20
12.7716834499
 30
0.0
 10
15.9263911831
 20
12.7843531884
 30
0.0
 10
15.9273439585
 20
12.7966217538
 30
0.0
 10
15.9291255027
 20
12.8045083412
 30
0.0
 10
15.9302958709
 20
12.8082956538
 30
0.0
  0
SPLINE
  5
370
100
AcDbEntity
  8
0
100
AcDbSpline
 62
7
  6
CONTINUOUS
 70
0
 71
3
 72
34
 73
30
 74
0
 42
0.0000001
 43
0.0000001
 44
0.0000000001
 40
0.0
 40
0.0
 40
0.0
 40
0.0
 40
0.0475723081
 40
0.0944852546
 40
0.1177562445
 40
0.1409560894
 40
0.1641484959
 40
0.1874351225
 40
0.2109460106
 40
0.2348591308
 40
0.2593867014
 40
0.2847782924
 40
0.3112964538
 40
0.3391844694
 40
0.368632442
 40
0.3997414372
 40
0.4159256986
 40
0.4325127389
 40
0.4668124081
 40
0.5024561114
 40
0.5392050931
 40
0.5768073908
 40
0.61502683
 40
0.6536582223
 40
0.692523025
 40
0.7704195447
 40
0.8479206524
 40
0.9245480022
 40
1.0
 40
1.0
 40
1.0
 40
1.0
 10
16.4106710811
 20
12.5460584844
 30
0.0
 10
16.4068792046
 20
12.5472921764
 30
0.0
 10
16.3992125652
 20
12.5493517552
 30
0.0
 10
16.389402249
 20
12.5507121702
 30
0.0
 10
16.3815698237
 20
12.5509067788
 30
0.0
 10
16.3757329098
 20
12.5505700622
 30
0.0
 10
16.3699481603
 20
12.54970353
 30
0.0
 10
16.3642512838
 20
12.5482589328
 30
0.0
 10
16.3586864065
 20
12.5461826733
 30
0.0
 10
16.3533077929
 20
12.5434220842
 30
0.0
 10
16.3481808967
 20
12.5399263729
 30
0.0
 10
16.3433811605
 20
12.535655083
 30
0.0
 10
16.3389923669
 20
12.530582832
 30
0.0
 10
16.3350985626
 20
12.5247090814
 30
0.0
 10
16.3317774076
 20
12.5180621652
 30
0.0
 10
16.3295673187
 20
12.512006934
 30
0.0
 10
16.3281207076
 20
12.5068498111
 30
0.0
 10
16.3268673956
 20
12.5013673087
 30
0.0
 10
16.3257478199
 20
12.4941910003
 30
0.0
 10
16.3250890327
 20
12.4852640875
 30
0.0
 10
16.3250642045
 20
12.4760374802
 30
0.0
 10
16.3256223066
 20
12.4666131069
 30
0.0
 10
16.3267030543
 20
12.4570766739
 30
0.0
 10
16.3282449512
 20
12.4474975536
 30
0.0
 10
16.330837198
 20
12.4347301223
 30
0.0
 10
16.3349235231
 20
12.4189557061
 30
0.0
 10
16.3408165253
 20
12.4004145395
 30
0.0
 10
16.3474158171
 20
12.382333276
 30
0.0
 10
16.3521794972
 20
12.3705073337
 30
0.0
 10
16.3546184601
 20
12.3646721364
 30
0.0
  0
SPLINE
  5
371
100
AcDbEntity
  8
0
100
AcDbSpline
 62
7
  6
CONTINUOUS
 70
0
 71
3
 72
15
 73
11
 74
0
 42
0.0000001
 43
0.0000001
 44
0.0000000001
 40
0.0
 40
0.0
 40
0.0
 40
0.0
 40
0.1250886006
 40
0.2478001143
 40
0.3692806726
 40
0.4907955671
 40
0.6136067084
 40
0.7388507269
 40
0.8674400284
 40
1.0
 40
1.0
 40
1.0
 40
1.0
 10
15.9302958709
 20
12.8082956538
 30
0.0
 10
15.9314361263
 20
12.8119855217
 30
0.0
 10
15.9342540271
 20
12.8191380964
 30
0.0
 10
15.9401018778
 20
12.8289822363
 30
0.0
 10
15.9474240754
 20
12.8376466782
 30
0.0
 10
15.9560895079
 20
12.8449714255
 30
0.0
 10
15.965941419
 20
12.8508273993
 30
0.0
 10
15.9768026056
 20
12.8551147625
 30
0.0
 10
15.9884773991
 20
12.85776489
 30
0.0
 10
15.9965456586
 20
12.8584043162
 30
0.0
 10
16.0006380406
 20
12.8584559794
 30
0.0
  0
SPLINE
  5
372
100
AcDbEntity
  8
0
100
AcDbSpline
 62
7
  6
CONTINUOUS
 70
0
 71
3
 72
9
 73
5
 74
0
 42
0.0000001
 43
0.0000001
 44
0.0000000001
 40
0.0
 40
0.0
 40
0.0
 40
0.0
 40
0.4934822769
 40
1.0
 40
1.0
 40
1.0
 40
1.0
 10
16.0006380406
 20
12.8584559794
 30
0.0
 10
16.0041446421
 20
12.8585002477
 30
0.0
 10
16.0112602971
 20
12.8581845447
 30
0.0
 10
16.0182998066
 20
12.8571132336
 30
0.0
 10
16.0218268047
 20
12.8563943457
 30
0.0
  0
SPLINE
  5
373
100
AcDbEntity
  8
0
100
AcDbSpline
 62
7
  6
CONTINUOUS
 70
0
 71
3
 72
11
 73
7
 74
0
 42
0.0000001
 43
0.0000001
 44
0.0000000001
 40
0.0
 40
0.0
 40
0.0
 40
0.0
 40
0.2491244382
 40
0.5041972391
 40
0.7571200352
 40
1.0
 40
1.0
 40
1.0
 40
1.0
 10
16.7042445489
 20
11.8341979046
 30
0.0
 10
16.7057806429
 20
11.8333094836
 30
0.0
 10
16.709018321
 20
11.8317272475
 30
0.0
 10
16.7141348573
 20
11.8299815484
 30
0.0
 10
16.7193842343
 20
11.8288892135
 30
0.0
 10
16.7229191929
 20
11.8286229339
 30
0.0
 10
16.7246492211
 20
11.8286229339
 30
0.0
  0
ELLIPSE
  5
374
100
AcDbEntity
  8
0
100
AcDbEllipse
 62
7
  6
CONTINUOUS
 10
15.5697131275
 20
4.7362676756
 30
0.0
 11
-0.0
 21
0.9330127019
 31
0.0
 40
0.2679491924
 41
-1.3623179243
 42
-0.4815098498
  0
ELLIPSE
  5
375
100
AcDbEntity
  8
0
100
AcDbEllipse
 62
7
  6
CONTINUOUS
 10
15.5697131275
 20
4.7362676756
 30
0.0
 11
0.0
 21
0.9330127019
 31
0.0
 40
0.2679491924
 41
0.4815098498
 42
1.3623179243
  0
ELLIPSE
  5
376
100
AcDbEntity
  8
0
100
AcDbEllipse
 62
7
  6
CONTINUOUS
 10
16.8389751725
 20
11.9413398199
 30
0.0
 11
-0.5009578576
 21
0.6019884147
 31
0.0
 40
0.2216133796
 41
0.6247765595
 42
1.5535303411
  0
ELLIPSE
  5
377
100
AcDbEntity
  8
0
100
AcDbEllipse
 62
7
  6
CONTINUOUS
 10
16.8389751725
 20
11.9413398199
 30
0.0
 11
-0.5009578576
 21
0.6019884147
 31
0.0
 40
0.2216133796
 41
-1.2190512146
 42
-0.3382431401
  0
ENDSEC
  0
SECTION
  2
OBJECTS
  0
DICTIONARY
  5
C
100
AcDbDictionary
280
0
281
1
  3
ACAD_GROUP
350
D
  3
ACAD_MLINESTYLE
350
17
  3
ACAD_LAYOUT
350
1A
  3
ACAD_PLOTSETTINGS
350
19
  3
ACAD_PLOTSTYLENAME
350
E
  0
DICTIONARY
  5
D
102
{ACAD_REACTORS
330
C
102
}
100
AcDbDictionary
280
0
281
1
  0
ACDBDICTIONARYWDFLT
  5
E
102
{ACAD_REACTORS
330
C
102
}
100
AcDbDictionary
281
1
  3
Normal
350
F
100
AcDbDictionaryWithDefault
340
F
  0
DICTIONARY
  5
17
102
{ACAD_REACTORS
330
C
102
}
100
AcDbDictionary
280
0
281
1
  3
Standard
350
18
  0
DICTIONARY
  5
19
102
{ACAD_REACTORS
330
C
102
}
100
AcDbDictionary
281
1
  0
DICTIONARY
  5
1A
102
{ACAD_REACTORS
330
C
102
}
100
AcDbDictionary
281
1
  3
Model
350
378
  3
Layout1
350
379
  0
ACDBPLACEHOLDER
  5
F
102
{ACAD_REACTORS
330
E
102
}
  0
MLINESTYLE
  5
18
102
{ACAD_REACTORS
330
17
102
}
100
AcDbMlineStyle
  2
STANDARD
 70
0
  3

 62
256
 51
90.0
 52
90.0
 71
2
 49
0.5
 62
256
  6
BYLAYER
 49
-0.5
 62
256
  6
BYLAYER
  0
LAYOUT
  5
378
102
{ACAD_REACTORS
330
1A
102
}
100
AcDbPlotSettings
  1

  2
none_device
  4
ANSI_C_(22.00_x_17.00_Inches)
  6

 40
0.0
 41
0.0
 42
0.0
 43
0.0
 44
558.8
 45
431.8
 46
0.0
 47
0.0
 48
0.0
 49
0.0
140
0.0
141
0.0
142
1.0
143
1.0
 70
1024
 72
0
 73
0
 74
0
  7

 75
0
147
1.0
148
0.0
149
0.0
100
AcDbLayout
  1
Model
 70
0
 71
0
 10
0.0
 20
0.0
 11
22.0
 21
17.0
 12
0.0
 22
0.0
 32
0.0
 14
0.0
 24
0.0
 34
0.0
 15
0.0
 25
0.0
 35
0.0
146
0.0
 13
0.0
 23
0.0
 33
0.0
 16
1.0
 26
0.0
 36
0.0
 17
0.0
 27
1.0
 37
0.0
 76
0
330
217
345
0
346
0
  0
LAYOUT
  5
379
102
{ACAD_REACTORS
330
1A
102
}
100
AcDbPlotSettings
  1

  2
none_device
  4
ANSI_C_(22.00_x_17.00_Inches)
  6

 40
0.0
 41
0.0
 42
0.0
 43
0.0
 44
558.8
 45
431.8
 46
0.0
 47
0.0
 48
0.0
 49
0.0
140
0.0
141
0.0
142
1.0
143
1.0
 70
0
 72
0
 73
0
 74
0
  7

 75
0
147
1.0
148
0.0
149
0.0
100
AcDbLayout
  1
Layout1
 70
0
 71
1
 10
0.0
 20
0.0
 11
22.0
 21
17.0
 12
0.0
 22
0.0
 32
0.0
 14
0.0
 24
0.0
 34
0.0
 15
0.0
 25
0.0
 35
0.0
146
0.0
 13
0.0
 23
0.0
 33
0.0
 16
1.0
 26
0.0
 36
0.0
 17
0.0
 27
1.0
 37
0.0
 76
0
330
218
345
0
346
0
  0
ENDSEC
  0
EOF