999
DXF file: _cgs_temp_output.dxf
999
Pro/ENGINEER 2016360 by Parametric Technology Corporation
  0
SECTION
  2
HEADER
  9
$ACADVER
  1
AC1021
  9
$DWGCODEPAGE
  3
ANSI_1252
  9
$EXTMAX
 10
22.0
 20
17.0
 30
0.0
  9
$EXTMIN
 10
0.0
 20
0.0
 30
0.0
  9
$LIMMIN
 10
0.0
 20
0.0
  9
$LIMMAX
 10
22.0
 20
17.0
  9
$VIEWCTR
 10
11.0
 20
8.5
  9
$VIEWSIZE
 40
17.0
  9
$CLAYER
  8
0
  9
$LTSCALE
 40
1.21
  9
$CELTYPE
  6
BYLAYER
  9
$DIMSCALE
 40
1.0
  9
$DIMASZ
 40
0.1875
  9
$DIMEXO
 40
0.0625
  9
$DIMDLI
 40
0.836
  9
$DIMEXE
 40
0.125
  9
$DIMCEN
 40
0.198
  9
$DIMLFAC
 40
1.0
  9
$DIMBLK
  1
_CLOSED
  9
$DIMALT
 70
0
  9
$DIMALTF
 40
25.4
  9
$DIMTXT
 40
0.15625
  9
$DIMTOL
 70
0
  9
$DIMLIM
 70
0
  9
$DIMTFAC
 40
1.0
  9
$DIMGAP
 40
0.09
  9
$DIMDSEP
 70
46
  9
$AUNITS
 70
0
  9
$PDMODE
 70
3
  9
$PDSIZE
 40
0.3125
  9
$HANDSEED
  5
393
  9
$TILEMODE
 70
1
  9
$MEASUREMENT
 70
0
  9
$INSUNITS
 70
1
  0
ENDSEC
  0
SECTION
  2
CLASSES
  0
CLASS
  1
ACDBDICTIONARYWDFLT
  2
AcDbDictionaryWithDefault
  3
AutoCAD 2000
 90
0
 91
1
280
0
281
0
  0
CLASS
  1
ACDBPLACEHOLDER
  2
AcDbPlaceHolder
  3
AutoCAD 2000
 90
0
 91
1
280
0
281
0
  0
CLASS
  1
LAYOUT
  2
AcDbLayout
  3
AutoCAD 2000
 90
0
 91
0
280
0
281
0
  0
ENDSEC
  0
SECTION
  2
TABLES
  0
TABLE
  2
VPORT
  5
8
100
AcDbSymbolTable
 70
2
  0
VPORT
  5
1F4
100
AcDbSymbolTableRecord
100
AcDbViewportTableRecord
  2
*ACTIVE
 70
0
 10
0.0
 20
0.0
 11
1.0
 21
1.0
 12
11.0
 22
8.5
 13
0.0
 23
0.0
 14
1.0
 24
1.0
 15
0.0
 25
0.0
 16
0.0
 26
0.0
 36
1.0
 17
0.0
 27
0.0
 37
0.0
 40
17.0
 41
1.2941176471
 42
50.0
 43
0.0
 44
0.0
 50
0.0
 51
0.0
 71
0
 72
100
 73
1
 74
1
 75
0
 76
0
 77
0
 78
0
  0
ENDTAB
  0
TABLE
  2
LTYPE
  5
5
100
AcDbSymbolTable
 70
6
  0
LTYPE
  5
14
100
AcDbSymbolTableRecord
100
AcDbLinetypeTableRecord
  2
BYBLOCK
 70
0
  3

 72
65
 73
0
 40
0.0
  0
LTYPE
  5
15
100
AcDbSymbolTableRecord
100
AcDbLinetypeTableRecord
  2
BYLAYER
 70
0
  3

 72
65
 73
0
 40
0.0
  0
LTYPE
  5
16
100
AcDbSymbolTableRecord
100
AcDbLinetypeTableRecord
  2
CONTINUOUS
 70
64
  3
Solid line
 72
65
 73
0
 40
0.0
  0
LTYPE
  5
1F5
100
AcDbSymbolTableRecord
100
AcDbLinetypeTableRecord
  2
CENTER
 70
64
  3
____ _ ____ _ ____ _ ____ _ ____ _ ____ _ ____
 72
65
 73
4
 40
0.6
 49
0.375
 74
0
 49
-0.075
 74
0
 49
0.075
 74
0
 49
-0.075
 74
0
  0
LTYPE
  5
1F6
100
AcDbSymbolTableRecord
100
AcDbLinetypeTableRecord
  2
HIDDEN
 70
64
  3
- - - - - - - - - - - - - - - - - - - -
 72
65
 73
2
 40
0.2
 49
0.1
 74
0
 49
-0.1
 74
0
  0
LTYPE
  5
1F7
100
AcDbSymbolTableRecord
100
AcDbLinetypeTableRecord
  2
PHANTOM
 70
64
  3
_____ _ _ _____ _ _ _____ _ _ _____
 72
65
 73
6
 40
0.8
 49
0.45
 74
0
 49
-0.05
 74
0
 49
0.1
 74
0
 49
-0.05
 74
0
 49
0.1
 74
0
 49
-0.05
 74
0
  0
LTYPE
  5
1F8
100
AcDbSymbolTableRecord
100
AcDbLinetypeTableRecord
  2
DOT
 70
64
  3
. . . . . . . . . . . . . . . . . . . .
 72
65
 73
2
 40
0.2
 49
0.1
 74
0
 49
-0.1
 74
0
  0
LTYPE
  5
1F9
100
AcDbSymbolTableRecord
100
AcDbLinetypeTableRecord
  2
DASHED
 70
64
  3
- - - - - - - - - - - - - - - - - - - -
 72
65
 73
2
 40
0.2
 49
0.1
 74
0
 49
-0.1
 74
0
  0
ENDTAB
  0
TABLE
  2
LAYER
  5
2
100
AcDbSymbolTable
 70
36
  0
LAYER
  5
10
100
AcDbSymbolTableRecord
100
AcDbLayerTableRecord
  2
0
 70
0
 62
7
  6
CONTINUOUS
370
-3
390
F
  0
LAYER
  5
1FA
100
AcDbSymbolTableRecord
100
AcDbLayerTableRecord
  2
DEFAULT_1
 70
0
 62
7
  6
CENTER
370
-3
390
F
  0
LAYER
  5
1FB
100
AcDbSymbolTableRecord
100
AcDbLayerTableRecord
  2
DEFAULT_2
 70
0
 62
8
  6
HIDDEN
370
-3
390
F
  0
LAYER
  5
1FC
100
AcDbSymbolTableRecord
100
AcDbLayerTableRecord
  2
DEFAULT_3
 70
0
 62
7
  6
PHANTOM
370
-3
390
F
  0
LAYER
  5
1FD
100
AcDbSymbolTableRecord
100
AcDbLayerTableRecord
  2
01_ALL_DTM_PLN
 70
0
 62
7
  6
CONTINUOUS
370
-3
390
F
  0
LAYER
  5
1FE
100
AcDbSymbolTableRecord
100
AcDbLayerTableRecord
  2
01__ASM_ALL_DTM_PLN
 70
0
 62
7
  6
CONTINUOUS
370
-3
390
F
  0
LAYER
  5
1FF
100
AcDbSymbolTableRecord
100
AcDbLayerTableRecord
  2
01__ASM_DEF_DTM_PLN
 70
0
 62
7
  6
CONTINUOUS
370
-3
390
F
  0
LAYER
  5
200
100
AcDbSymbolTableRecord
100
AcDbLayerTableRecord
  2
01___PRT_ALL_DTM_PLN
 70
0
 62
7
  6
CONTINUOUS
370
-3
390
F
  0
LAYER
  5
201
100
AcDbSymbolTableRecord
100
AcDbLayerTableRecord
  2
01___PRT_DEF_DTM_PLN
 70
0
 62
7
  6
CONTINUOUS
370
-3
390
F
  0
LAYER
  5
202
100
AcDbSymbolTableRecord
100
AcDbLayerTableRecord
  2
02_ALL_AXES
 70
0
 62
7
  6
CONTINUOUS
370
-3
390
F
  0
LAYER
  5
203
100
AcDbSymbolTableRecord
100
AcDbLayerTableRecord
  2
02__ASM_ALL_AXES
 70
0
 62
7
  6
CONTINUOUS
370
-3
390
F
  0
LAYER
  5
204
100
AcDbSymbolTableRecord
100
AcDbLayerTableRecord
  2
02___PRT_ALL_AXES
 70
0
 62
7
  6
CONTINUOUS
370
-3
390
F
  0
LAYER
  5
205
100
AcDbSymbolTableRecord
100
AcDbLayerTableRecord
  2
03_ALL_CURVES
 70
0
 62
7
  6
CONTINUOUS
370
-3
390
F
  0
LAYER
  5
206
100
AcDbSymbolTableRecord
100
AcDbLayerTableRecord
  2
03__ASM_ALL_CURVES
 70
0
 62
7
  6
CONTINUOUS
370
-3
390
F
  0
LAYER
  5
207
100
AcDbSymbolTableRecord
100
AcDbLayerTableRecord
  2
03___PRT_ALL_CURVES
 70
0
 62
7
  6
CONTINUOUS
370
-3
390
F
  0
LAYER
  5
208
100
AcDbSymbolTableRecord
100
AcDbLayerTableRecord
  2
04_ALL_DTM_PNT
 70
0
 62
7
  6
CONTINUOUS
370
-3
390
F
  0
LAYER
  5
209
100
AcDbSymbolTableRecord
100
AcDbLayerTableRecord
  2
04__ASM_ALL_DTM_PNT
 70
0
 62
7
  6
CONTINUOUS
370
-3
390
F
  0
LAYER
  5
20A
100
AcDbSymbolTableRecord
100
AcDbLayerTableRecord
  2
04___PRT_ALL_DTM_PNT
 70
0
 62
7
  6
CONTINUOUS
370
-3
390
F
  0
LAYER
  5
20B
100
AcDbSymbolTableRecord
100
AcDbLayerTableRecord
  2
05_ALL_DTM_CSYS
 70
0
 62
7
  6
CONTINUOUS
370
-3
390
F
  0
LAYER
  5
20C
100
AcDbSymbolTableRecord
100
AcDbLayerTableRecord
  2
05__ASM_ALL_DTM_CSYS
 70
0
 62
7
  6
CONTINUOUS
370
-3
390
F
  0
LAYER
  5
20D
100
AcDbSymbolTableRecord
100
AcDbLayerTableRecord
  2
05__ASM_DEF_DTM_CSYS
 70
0
 62
7
  6
CONTINUOUS
370
-3
390
F
  0
LAYER
  5
20E
100
AcDbSymbolTableRecord
100
AcDbLayerTableRecord
  2
05___PRT_ALL_DTM_CSYS
 70
0
 62
7
  6
CONTINUOUS
370
-3
390
F
  0
LAYER
  5
20F
100
AcDbSymbolTableRecord
100
AcDbLayerTableRecord
  2
05___PRT_DEF_DTM_CSYS
 70
0
 62
7
  6
CONTINUOUS
370
-3
390
F
  0
LAYER
  5
210
100
AcDbSymbolTableRecord
100
AcDbLayerTableRecord
  2
06_ALL_SURFS
 70
0
 62
7
  6
CONTINUOUS
370
-3
390
F
  0
LAYER
  5
211
100
AcDbSymbolTableRecord
100
AcDbLayerTableRecord
  2
06__ASM_ALL_SURFS
 70
0
 62
7
  6
CONTINUOUS
370
-3
390
F
  0
LAYER
  5
212
100
AcDbSymbolTableRecord
100
AcDbLayerTableRecord
  2
06___PRT_ALL_SURFS
 70
0
 62
7
  6
CONTINUOUS
370
-3
390
F
  0
LAYER
  5
213
100
AcDbSymbolTableRecord
100
AcDbLayerTableRecord
  2
07__ASM_ALL_SKELETONS
 70
0
 62
7
  6
CONTINUOUS
370
-3
390
F
  0
LAYER
  5
214
100
AcDbSymbolTableRecord
100
AcDbLayerTableRecord
  2
INTFCLR_2997
 70
0
 62
7
  6
CONTINUOUS
370
-3
390
F
  0
LAYER
  5
215
100
AcDbSymbolTableRecord
100
AcDbLayerTableRecord
  2
INTFCLR_3578
 70
0
 62
7
  6
CONTINUOUS
370
-3
390
F
  0
LAYER
  5
216
100
AcDbSymbolTableRecord
100
AcDbLayerTableRecord
  2
INTFCLR_5409
 70
0
 62
7
  6
CONTINUOUS
370
-3
390
F
  0
LAYER
  5
217
100
AcDbSymbolTableRecord
100
AcDbLayerTableRecord
  2
INTFCLR_6320
 70
0
 62
7
  6
CONTINUOUS
370
-3
390
F
  0
LAYER
  5
218
100
AcDbSymbolTableRecord
100
AcDbLayerTableRecord
  2
INTFCLR_7170
 70
0
 62
7
  6
CONTINUOUS
370
-3
390
F
  0
LAYER
  5
219
100
AcDbSymbolTableRecord
100
AcDbLayerTableRecord
  2
INTFCLR_928
 70
0
 62
7
  6
CONTINUOUS
370
-3
390
F
  0
LAYER
  5
21A
100
AcDbSymbolTableRecord
100
AcDbLayerTableRecord
  2
NONE
 70
0
 62
7
  6
CONTINUOUS
370
-3
390
F
  0
LAYER
  5
21B
100
AcDbSymbolTableRecord
100
AcDbLayerTableRecord
  2
_1415
 70
0
 62
7
  6
CONTINUOUS
370
-3
390
F
  0
LAYER
  5
21C
100
AcDbSymbolTableRecord
100
AcDbLayerTableRecord
  2
_3874
 70
0
 62
7
  6
CONTINUOUS
370
-3
390
F
  0
LAYER
  5
21D
100
AcDbSymbolTableRecord
100
AcDbLayerTableRecord
  2
_5074
 70
0
 62
7
  6
CONTINUOUS
370
-3
390
F
  0
LAYER
  5
21E
100
AcDbSymbolTableRecord
100
AcDbLayerTableRecord
  2
_5393
 70
0
 62
7
  6
CONTINUOUS
370
-3
390
F
  0
LAYER
  5
21F
100
AcDbSymbolTableRecord
100
AcDbLayerTableRecord
  2
_6632
 70
0
 62
7
  6
CONTINUOUS
370
-3
390
F
  0
LAYER
  5
220
100
AcDbSymbolTableRecord
100
AcDbLayerTableRecord
  2
_8651
 70
0
 62
7
  6
CONTINUOUS
370
-3
390
F
  0
LAYER
  5
221
100
AcDbSymbolTableRecord
100
AcDbLayerTableRecord
  2
_951
 70
0
 62
7
  6
CONTINUOUS
370
-3
390
F
  0
LAYER
  5
222
100
AcDbSymbolTableRecord
100
AcDbLayerTableRecord
  2
_9578
 70
0
 62
7
  6
CONTINUOUS
370
-3
390
F
  0
ENDTAB
  0
TABLE
  2
STYLE
  5
3
100
AcDbSymbolTable
 70
1
  0
STYLE
  5
11
100
AcDbSymbolTableRecord
100
AcDbTextStyleTableRecord
  2
STANDARD
 70
0
 40
0.0
 41
0.8
 50
0.0
 71
0
 42
0.2
  3
txt
  4

  0
STYLE
  5
223
100
AcDbSymbolTableRecord
100
AcDbTextStyleTableRecord
  2
TEXTSTYLE_1
 70
0
 40
0.0
 41
0.8
 50
0.0
 71
0
 42
0.2
  3
gdt
  4

  0
ENDTAB
  0
TABLE
  2
VIEW
  5
6
100
AcDbSymbolTable
 70
0
  0
ENDTAB
  0
TABLE
  2
UCS
  5
7
100
AcDbSymbolTable
 70
0
  0
ENDTAB
  0
TABLE
  2
APPID
  5
9
100
AcDbSymbolTable
 70
1
  0
APPID
  5
224
100
AcDbSymbolTableRecord
100
AcDbRegAppTableRecord
  2
ACAD
 70
0
  0
ENDTAB
  0
TABLE
  2
BLOCK_RECORD
  5
1
100
AcDbSymbolTable
 70
0
  0
BLOCK_RECORD
  5
225
100
AcDbSymbolTableRecord
100
AcDbBlockTableRecord
  2
*Model_Space
  0
BLOCK_RECORD
  5
226
100
AcDbSymbolTableRecord
100
AcDbBlockTableRecord
  2
*Paper_Space
  0
ENDTAB
  0
TABLE
  2
DIMSTYLE
  5
A
100
AcDbSymbolTable
 70
1
100
AcDbDimStyleTable
 71
0
  0
DIMSTYLE
105
227
100
AcDbSymbolTableRecord
100
AcDbDimStyleTableRecord
  2
STANDARD
 70
0
  3

  4

 40
1.0
 41
0.1875
 42
0.0625
 43
0.38
 44
0.125
 45
0.0
 46
0.0
 47
0.0001
 48
0.0001
140
0.15625
141
0.09
142
0.0
143
25.4
144
1.0
145
0.0
146
1.0
147
0.09
 71
0.0
 72
0.0
 73
1
 74
1
 75
0
 76
0
 77
0
 78
4
 79
1
170
0
171
3
172
0
173
0
174
0
175
0
176
0
177
0
178
0
270
2
179
4
271
4
272
4
273
2
274
2
275
0
280
0
281
0
282
0
283
1
284
4
285
0
286
0
287
3
288
0
340
11
278
46
  0
ENDTAB
  0
ENDSEC
  0
SECTION
  2
BLOCKS
  0
BLOCK
  5
20
100
AcDbEntity
  8
0
100
AcDbBlockBegin
  2
*Model_Space
 70
0
 10
0.0
 20
0.0
 30
0.0
  3
*Model_Space
  1

  0
ENDBLK
  5
21
100
AcDbEntity
  8
0
100
AcDbBlockEnd
  0
BLOCK
  5
1C
100
AcDbEntity
  8
0
100
AcDbBlockBegin
  2
*Paper_Space
 70
0
 10
0.0
 20
0.0
 30
0.0
  3
*Paper_Space
  1

  0
ENDBLK
  5
1D
100
AcDbEntity
  8
0
100
AcDbBlockEnd
  0
ENDSEC
  0
SECTION
  2
ENTITIES
  0
MTEXT
  5
228
100
AcDbEntity
  8
0
100
AcDbMText
 62
7
  6
CONTINUOUS
  7
STANDARD
 71
1
 72
1
 10
15.9560215477
 20
0.9479130325
 30
0.0
 11
1.0
 21
0.0
 31
0.0
 44
0.9
  1
SCALE: 1:1.000
 40
0.3
 41
3.36
  0
LINE
  5
229
100
AcDbEntity
  8
0
100
AcDbLine
 62
7
  6
CONTINUOUS
 10
0.0
 20
0.0
 11
0.0
 21
17.0
  0
LINE
  5
22A
100
AcDbEntity
  8
0
100
AcDbLine
 62
7
  6
CONTINUOUS
 10
0.0
 20
0.0
 11
22.0
 21
0.0
  0
LINE
  5
22B
100
AcDbEntity
  8
0
100
AcDbLine
 62
7
  6
CONTINUOUS
 10
0.0
 20
17.0
 11
22.0
 21
17.0
  0
LINE
  5
22C
100
AcDbEntity
  8
0
100
AcDbLine
 62
7
  6
CONTINUOUS
 10
22.0
 20
0.0
 11
22.0
 21
17.0
  0
LINE
  5
22D
100
AcDbEntity
  8
0
100
AcDbLine
 62
7
  6
CONTINUOUS
 10
3.5053672762
 20
7.3685021554
 11
3.5053672762
 21
3.6717376381
  0
LINE
  5
22E
100
AcDbEntity
  8
0
100
AcDbLine
 62
7
  6
CONTINUOUS
 10
4.2819850175
 20
2.8951198968
 11
7.9787495349
 21
2.8951198968
  0
LINE
  5
22F
100
AcDbEntity
  8
0
100
AcDbLine
 62
7
  6
CONTINUOUS
 10
5.1782019218
 20
5.3653692724
 11
5.1782019218
 21
5.6578692724
  0
LINE
  5
230
100
AcDbEntity
  8
0
100
AcDbLine
 62
7
  6
CONTINUOUS
 10
5.1882019218
 20
5.3553692724
 11
5.1882019218
 21
5.6678692724
  0
LINE
  5
231
100
AcDbEntity
  8
0
100
AcDbLine
 62
7
  6
CONTINUOUS
 10
5.9656166518
 20
6.4622852511
 11
5.9756166518
 21
6.4722852511
  0
LINE
  5
232
100
AcDbEntity
  8
0
100
AcDbLine
 62
7
  6
CONTINUOUS
 10
7.4295978636
 20
7.9176538267
 11
6.9364641647
 21
7.4245201278
  0
LINE
  5
233
100
AcDbEntity
  8
0
100
AcDbLine
 62
7
  6
CONTINUOUS
 10
4.2259670451
 20
4.7140230083
 11
3.7328333462
 21
4.2208893093
  0
LINE
  5
234
100
AcDbEntity
  8
0
100
AcDbLine
 62
7
  6
CONTINUOUS
 10
5.1882019218
 20
5.6678692724
 11
5.1782019218
 21
5.6578692724
  0
LINE
  5
235
100
AcDbEntity
  8
0
100
AcDbLine
 62
7
  6
CONTINUOUS
 10
5.1882019218
 20
5.3553692724
 11
5.1782019218
 21
5.3653692724
  0
LINE
  5
236
100
AcDbEntity
  8
0
100
AcDbLine
 62
7
  6
CONTINUOUS
 10
3.7328333462
 20
6.8193504842
 11
4.2259670451
 21
6.3262167852
  0
LINE
  5
237
100
AcDbEntity
  8
0
100
AcDbLine
 62
7
  6
CONTINUOUS
 10
6.9364641647
 20
3.6157196657
 11
7.4295978636
 21
3.1225859668
  0
LINE
  5
238
100
AcDbEntity
  8
0
100
AcDbLine
 62
7
  6
CONTINUOUS
 10
5.8763331577
 20
7.5523698968
 11
5.8763331577
 21
7.6148698968
  0
LINE
  5
239
100
AcDbEntity
  8
0
100
AcDbLine
 62
7
  6
CONTINUOUS
 10
5.9303672762
 20
7.5523698968
 11
5.9303672762
 21
7.5370656144
  0
LINE
  5
23A
100
AcDbEntity
  8
0
100
AcDbLine
 62
7
  6
CONTINUOUS
 10
5.9656166518
 20
6.432530345
 11
5.9656166518
 21
6.4622852511
  0
LINE
  5
23B
100
AcDbEntity
  8
0
100
AcDbLine
 62
7
  6
CONTINUOUS
 10
6.0033502169
 20
7.5523698968
 11
6.0033502169
 21
7.6148698968
  0
LINE
  5
23C
100
AcDbEntity
  8
0
100
AcDbLine
 62
7
  6
CONTINUOUS
 10
5.2179568279
 20
5.3553692724
 11
5.1882019218
 21
5.3553692724
  0
LINE
  5
23D
100
AcDbEntity
  8
0
100
AcDbLine
 62
7
  6
CONTINUOUS
 10
6.2573843354
 20
7.5523698968
 11
6.2573843354
 21
7.6148698968
  0
LINE
  5
23E
100
AcDbEntity
  8
0
100
AcDbLine
 62
7
  6
CONTINUOUS
 10
6.2781166518
 20
6.435437173
 11
6.2781166518
 21
6.4622852511
  0
LINE
  5
23F
100
AcDbEntity
  8
0
100
AcDbLine
 62
7
  6
CONTINUOUS
 10
6.3303672762
 20
7.5523698968
 11
6.3303672762
 21
7.5370656144
  0
LINE
  5
240
100
AcDbEntity
  8
0
100
AcDbLine
 62
7
  6
CONTINUOUS
 10
6.3844013946
 20
7.5523698968
 11
6.3844013946
 21
7.6148698968
  0
LINE
  5
241
100
AcDbEntity
  8
0
100
AcDbLine
 62
7
  6
CONTINUOUS
 10
5.2150499999
 20
5.6678692724
 11
5.1882019218
 21
5.6678692724
  0
LINE
  5
242
100
AcDbEntity
  8
0
100
AcDbLine
 62
7
  6
CONTINUOUS
 10
4.8311366887
 20
3.1225859668
 11
5.3242703877
 21
3.6157196657
  0
LINE
  5
243
100
AcDbEntity
  8
0
100
AcDbLine
 62
7
  6
CONTINUOUS
 10
8.0347675072
 20
6.3262167852
 11
8.5279012061
 21
6.8193504842
  0
LINE
  5
244
100
AcDbEntity
  8
0
100
AcDbLine
 62
7
  6
CONTINUOUS
 10
5.9656166518
 20
6.4622852511
 11
6.2781166518
 21
6.4622852511
  0
LINE
  5
245
100
AcDbEntity
  8
0
100
AcDbLine
 62
7
  6
CONTINUOUS
 10
5.9756166518
 20
6.4722852511
 11
6.2681166518
 21
6.4722852511
  0
LINE
  5
246
100
AcDbEntity
  8
0
100
AcDbLine
 62
7
  6
CONTINUOUS
 10
6.2781166518
 20
6.4622852511
 11
6.2681166518
 21
6.4722852511
  0
LINE
  5
247
100
AcDbEntity
  8
0
100
AcDbLine
 62
7
  6
CONTINUOUS
 10
8.5279012061
 20
4.2208893093
 11
8.0347675072
 21
4.7140230083
  0
LINE
  5
248
100
AcDbEntity
  8
0
100
AcDbLine
 62
7
  6
CONTINUOUS
 10
5.3242703877
 20
7.4245201278
 11
4.8311366887
 21
7.9176538267
  0
LINE
  5
249
100
AcDbEntity
  8
0
100
AcDbLine
 62
7
  6
CONTINUOUS
 10
5.8763331577
 20
7.5523698968
 11
6.3844013946
 21
7.5523698968
  0
LINE
  5
24A
100
AcDbEntity
  8
0
100
AcDbLine
 62
7
  6
CONTINUOUS
 10
5.8763331577
 20
7.6148698968
 11
6.3844013946
 21
7.6148698968
  0
LINE
  5
24B
100
AcDbEntity
  8
0
100
AcDbLine
 62
7
  6
CONTINUOUS
 10
6.243262899
 20
7.7573698968
 11
6.0174716533
 21
7.7573698968
  0
LINE
  5
24C
100
AcDbEntity
  8
0
100
AcDbLine
 62
7
  6
CONTINUOUS
 10
6.0803672762
 20
7.9117448968
 11
6.1803672762
 21
7.9117448968
  0
LINE
  5
24D
100
AcDbEntity
  8
0
100
AcDbLine
 62
7
  6
CONTINUOUS
 10
8.7553672762
 20
3.6717376381
 11
8.7553672762
 21
7.3685021554
  0
LINE
  5
24E
100
AcDbEntity
  8
0
100
AcDbLine
 62
7
  6
CONTINUOUS
 10
7.9787495349
 20
8.1451198968
 11
4.2819850175
 21
8.1451198968
  0
LINE
  5
24F
100
AcDbEntity
  8
0
100
AcDbLine
 62
7
  6
CONTINUOUS
 10
3.4458720839
 20
13.5062977814
 11
3.4458720839
 21
13.0037977814
  0
LINE
  5
250
100
AcDbEntity
  8
0
100
AcDbLine
 62
7
  6
CONTINUOUS
 10
4.0396220839
 20
12.9437977814
 11
4.0396220839
 21
12.4100477814
  0
LINE
  5
251
100
AcDbEntity
  8
0
100
AcDbLine
 62
7
  6
CONTINUOUS
 10
5.1187067295
 20
11.8757214638
 11
5.1287067295
 21
11.8657214638
  0
LINE
  5
252
100
AcDbEntity
  8
0
100
AcDbLine
 62
7
  6
CONTINUOUS
 10
5.1187067295
 20
11.8757410067
 11
5.1187067295
 21
12.1682019209
  0
LINE
  5
253
100
AcDbEntity
  8
0
100
AcDbLine
 62
7
  6
CONTINUOUS
 10
5.1287067295
 20
11.8657214638
 11
5.1287067295
 21
12.1782214638
  0
LINE
  5
254
100
AcDbEntity
  8
0
100
AcDbLine
 62
7
  6
CONTINUOUS
 10
5.1437067295
 20
12.3500477814
 11
5.1437067295
 21
12.177990059
  0
LINE
  5
255
100
AcDbEntity
  8
0
100
AcDbLine
 62
7
  6
CONTINUOUS
 10
5.1437067295
 20
11.8659528687
 11
5.1437067295
 21
11.7187977814
  0
LINE
  5
256
100
AcDbEntity
  8
0
100
AcDbLine
 62
7
  6
CONTINUOUS
 10
6.9730374382
 20
11.6937977814
 11
5.1687067295
 21
11.6937977814
  0
LINE
  5
257
100
AcDbEntity
  8
0
100
AcDbLine
 62
7
  6
CONTINUOUS
 10
5.1287067295
 20
11.8657214638
 11
5.1437456989
 21
11.8657214638
  0
LINE
  5
258
100
AcDbEntity
  8
0
100
AcDbLine
 62
7
  6
CONTINUOUS
 10
6.104590198
 20
11.9488464638
 11
6.0201527211
 21
11.9488464638
  0
LINE
  5
259
100
AcDbEntity
  8
0
100
AcDbLine
 62
7
  6
CONTINUOUS
 10
6.0201527211
 20
12.0950964638
 11
6.104590198
 21
12.0950964638
  0
LINE
  5
25A
100
AcDbEntity
  8
0
100
AcDbLine
 62
7
  6
CONTINUOUS
 10
5.9438550246
 20
12.9669227814
 11
5.8168379654
 21
12.7469227814
  0
LINE
  5
25B
100
AcDbEntity
  8
0
100
AcDbLine
 62
7
  6
CONTINUOUS
 10
5.1187067295
 20
12.1682214638
 11
5.1287067295
 21
12.1782214638
  0
LINE
  5
25C
100
AcDbEntity
  8
0
100
AcDbLine
 62
7
  6
CONTINUOUS
 10
5.1287067295
 20
12.1782214638
 11
5.1437456989
 21
12.1782214638
  0
LINE
  5
25D
100
AcDbEntity
  8
0
100
AcDbLine
 62
7
  6
CONTINUOUS
 10
8.0421220839
 20
12.3500477814
 11
4.0996220839
 21
12.3500477814
  0
LINE
  5
25E
100
AcDbEntity
  8
0
100
AcDbLine
 62
7
  6
CONTINUOUS
 10
6.0201527211
 20
11.9488464638
 11
5.9779339827
 21
12.0219714638
  0
LINE
  5
25F
100
AcDbEntity
  8
0
100
AcDbLine
 62
7
  6
CONTINUOUS
 10
6.104590198
 20
12.0950964638
 11
6.1468089364
 21
12.0219714638
  0
LINE
  5
260
100
AcDbEntity
  8
0
100
AcDbLine
 62
7
  6
CONTINUOUS
 10
5.9438550246
 20
12.5269227814
 11
6.1978891431
 21
12.5269227814
  0
LINE
  5
261
100
AcDbEntity
  8
0
100
AcDbLine
 62
7
  6
CONTINUOUS
 10
5.8168379654
 20
12.7469227814
 11
5.9438550246
 21
12.5269227814
  0
LINE
  5
262
100
AcDbEntity
  8
0
100
AcDbLine
 62
7
  6
CONTINUOUS
 10
6.1978891431
 20
12.5269227814
 11
6.3249062023
 21
12.7469227814
  0
LINE
  5
263
100
AcDbEntity
  8
0
100
AcDbLine
 62
7
  6
CONTINUOUS
 10
5.9779339827
 20
12.0219714638
 11
6.0201527211
 21
12.0950964638
  0
LWPOLYLINE
  5
264
100
AcDbEntity
  8
0
100
AcDbPolyline
 62
7
  6
CONTINUOUS
 90
4
 70
0
 10
4.1751890705
 20
12.9437971503
 10
4.1793691505
 20
12.9435221938
 10
4.190745257
 20
12.9400519938
 10
4.1954545316
 20
12.9369668572
  0
LINE
  5
265
100
AcDbEntity
  8
0
100
AcDbLine
 62
7
  6
CONTINUOUS
 10
6.1468089364
 20
12.0219714638
 11
6.104590198
 21
11.9488464638
  0
LINE
  5
266
100
AcDbEntity
  8
03__ASM_ALL_CURVES
100
AcDbLine
 62
8
  6
PHANTOM
 10
8.8992992086
 20
12.9437977814
 11
8.6363985109
 21
12.9437977814
  0
LINE
  5
267
100
AcDbEntity
  8
0
100
AcDbLine
 62
7
  6
CONTINUOUS
 10
8.6358720839
 20
12.9437977814
 11
6.9533526313
 21
12.9437977814
  0
LINE
  5
268
100
AcDbEntity
  8
03__ASM_ALL_CURVES
100
AcDbLine
 62
8
  6
PHANTOM
 10
7.5089116714
 20
12.9437977814
 11
4.6328338582
 21
12.9437977814
  0
LINE
  5
269
100
AcDbEntity
  8
0
100
AcDbLine
 62
7
  6
CONTINUOUS
 10
5.1883915364
 20
12.9437977814
 11
3.5058720839
 21
12.9437977814
  0
LINE
  5
26A
100
AcDbEntity
  8
03__ASM_ALL_CURVES
100
AcDbLine
 62
8
  6
PHANTOM
 10
3.5053456578
 20
12.9437977814
 11
3.2424449591
 21
12.9437977814
  0
LINE
  5
26B
100
AcDbEntity
  8
0
100
AcDbLine
 62
7
  6
CONTINUOUS
 10
6.1978891431
 20
12.9669227814
 11
5.9438550246
 21
12.9669227814
  0
LINE
  5
26C
100
AcDbEntity
  8
0
100
AcDbLine
 62
7
  6
CONTINUOUS
 10
6.3249062023
 20
12.7469227814
 11
6.1978891431
 21
12.9669227814
  0
LINE
  5
26D
100
AcDbEntity
  8
0
100
AcDbLine
 62
7
  6
CONTINUOUS
 10
4.5218126091
 20
13.1437977814
 11
7.6199315587
 21
13.1437977814
  0
LINE
  5
26E
100
AcDbEntity
  8
0
100
AcDbLine
 62
7
  6
CONTINUOUS
 10
6.9980374382
 20
12.3500477814
 11
6.9980374382
 21
11.7187977814
  0
LINE
  5
26F
100
AcDbEntity
  8
03__ASM_ALL_CURVES
100
AcDbLine
 62
8
  6
PHANTOM
 10
9.4614970839
 20
13.5062977814
 11
2.6802470839
 21
13.5062977814
  0
LINE
  5
270
100
AcDbEntity
  8
0
100
AcDbLine
 62
7
  6
CONTINUOUS
 10
3.4458720839
 20
13.5062977814
 11
8.6958720839
 21
13.5062977814
  0
LWPOLYLINE
  5
271
100
AcDbEntity
  8
0
100
AcDbPolyline
 62
7
  6
CONTINUOUS
 90
6
 70
0
 10
7.9458136456
 20
12.9372813397
 10
7.9448128499
 20
12.9356162886
 10
7.9458927836
 20
12.9366271664
 10
7.9530248327
 20
12.9410085235
 10
7.9647522
 20
12.9437372071
 10
7.9666712584
 20
12.9437975988
  0
LINE
  5
272
100
AcDbEntity
  8
0
100
AcDbLine
 62
7
  6
CONTINUOUS
 10
8.1021220839
 20
12.9437977814
 11
8.1021220839
 21
12.4100477814
  0
LINE
  5
273
100
AcDbEntity
  8
0
100
AcDbLine
 62
7
  6
CONTINUOUS
 10
8.6958720839
 20
13.0037977814
 11
8.6958720839
 21
13.5062977814
  0
LINE
  5
274
100
AcDbEntity
  8
0
100
AcDbLine
 62
7
  6
CONTINUOUS
 10
15.9641052569
 20
2.8356247044
 11
16.4666052569
 21
2.8356247044
  0
LINE
  5
275
100
AcDbEntity
  8
0
100
AcDbLine
 62
7
  6
CONTINUOUS
 10
15.3703552569
 20
3.4293747044
 11
15.9041052569
 21
3.4293747044
  0
LWPOLYLINE
  5
276
100
AcDbEntity
  8
0
100
AcDbPolyline
 62
7
  6
CONTINUOUS
 90
6
 70
0
 10
15.8975888153
 20
3.5856831427
 10
15.8959237642
 20
3.5866839384
 10
15.896934642
 20
3.5856040047
 10
15.901315999
 20
3.5784719556
 10
15.9040446827
 20
3.5667445883
 10
15.9041050744
 20
3.5648255299
  0
LINE
  5
277
100
AcDbEntity
  8
0
100
AcDbLine
 62
7
  6
CONTINUOUS
 10
14.8360289394
 20
6.4127900588
 11
14.8260289394
 21
6.4027900588
  0
LINE
  5
278
100
AcDbEntity
  8
0
100
AcDbLine
 62
7
  6
CONTINUOUS
 10
14.6541052569
 20
6.3627900588
 11
14.6541052569
 21
4.5584593501
  0
LINE
  5
279
100
AcDbEntity
  8
0
100
AcDbLine
 62
7
  6
CONTINUOUS
 10
14.6791052569
 20
4.5334593501
 11
15.3103552569
 21
4.5334593501
  0
LINE
  5
27A
100
AcDbEntity
  8
0
100
AcDbLine
 62
7
  6
CONTINUOUS
 10
14.8260289394
 20
6.4027900588
 11
14.8260289394
 21
6.3877510894
  0
LINE
  5
27B
100
AcDbEntity
  8
0
100
AcDbLine
 62
7
  6
CONTINUOUS
 10
15.1385289394
 20
6.4027900588
 11
15.1385289394
 21
6.3877510894
  0
LINE
  5
27C
100
AcDbEntity
  8
0
100
AcDbLine
 62
7
  6
CONTINUOUS
 10
15.3103552569
 20
7.4318747044
 11
15.3103552569
 21
3.4893757964
  0
LINE
  5
27D
100
AcDbEntity
  8
0
100
AcDbLine
 62
7
  6
CONTINUOUS
 10
15.4872302569
 20
7.4928747044
 11
15.4872302569
 21
7.5553747044
  0
LINE
  5
27E
100
AcDbEntity
  8
0
100
AcDbLine
 62
7
  6
CONTINUOUS
 10
15.5072302569
 20
7.489832916
 11
15.5072302569
 21
7.4928747044
  0
LINE
  5
27F
100
AcDbEntity
  8
0
100
AcDbLine
 62
7
  6
CONTINUOUS
 10
15.5943346341
 20
7.6978747044
 11
15.5957253828
 21
7.6792802698
  0
LINE
  5
280
100
AcDbEntity
  8
0
100
AcDbLine
 62
7
  6
CONTINUOUS
 10
15.7072302569
 20
7.4928747044
 11
15.7072302569
 21
7.5553747044
  0
LWPOLYLINE
  5
281
100
AcDbEntity
  8
0
100
AcDbPolyline
 62
7
  6
CONTINUOUS
 90
4
 70
0
 10
15.9041046258
 20
7.3563077178
 10
15.9038296694
 20
7.3521276378
 10
15.9003594694
 20
7.3407515313
 10
15.8972743327
 20
7.3360422567
  0
LINE
  5
282
100
AcDbEntity
  8
0
100
AcDbLine
 62
7
  6
CONTINUOUS
 10
15.8201258798
 20
7.6978747044
 11
15.8187351311
 21
7.6792802698
  0
LINE
  5
283
100
AcDbEntity
  8
03__ASM_ALL_CURVES
100
AcDbLine
 62
8
  6
PHANTOM
 10
15.9041052569
 20
2.8954029413
 11
15.9041052569
 21
2.6322031549
  0
LINE
  5
284
100
AcDbEntity
  8
0
100
AcDbLine
 62
7
  6
CONTINUOUS
 10
15.9041052569
 20
2.8956404466
 11
15.9041052569
 21
4.578144157
  0
LINE
  5
285
100
AcDbEntity
  8
03__ASM_ALL_CURVES
100
AcDbLine
 62
8
  6
PHANTOM
 10
15.9041052569
 20
4.0221619086
 11
15.9041052569
 21
6.8990874984
  0
LINE
  5
286
100
AcDbEntity
  8
0
100
AcDbLine
 62
7
  6
CONTINUOUS
 10
15.9041052569
 20
6.3431052519
 11
15.9041052569
 21
8.0256093391
  0
LINE
  5
287
100
AcDbEntity
  8
03__ASM_ALL_CURVES
100
AcDbLine
 62
8
  6
PHANTOM
 10
15.9041052569
 20
8.0258628035
 11
15.9041052569
 21
8.2890463306
  0
LINE
  5
288
100
AcDbEntity
  8
0
100
AcDbLine
 62
7
  6
CONTINUOUS
 10
15.1285289394
 20
6.4127900588
 11
15.1385289394
 21
6.4027900588
  0
LINE
  5
289
100
AcDbEntity
  8
0
100
AcDbLine
 62
7
  6
CONTINUOUS
 10
16.1041052569
 20
7.0096841792
 11
16.1041052569
 21
3.9115652296
  0
LINE
  5
28A
100
AcDbEntity
  8
0
100
AcDbLine
 62
7
  6
CONTINUOUS
 10
16.4666052569
 20
8.0856247044
 11
16.4666052569
 21
2.8356247044
  0
LINE
  5
28B
100
AcDbEntity
  8
03__ASM_ALL_CURVES
100
AcDbLine
 62
8
  6
PHANTOM
 10
16.4666052569
 20
2.0700015945
 11
16.4666052569
 21
8.8512478144
  0
LINE
  5
28C
100
AcDbEntity
  8
0
100
AcDbLine
 62
7
  6
CONTINUOUS
 10
14.6791052569
 20
6.3877900588
 11
14.8262603447
 21
6.3877900588
  0
LINE
  5
28D
100
AcDbEntity
  8
0
100
AcDbLine
 62
7
  6
CONTINUOUS
 10
15.138297534
 20
6.3877900588
 11
15.3103552569
 21
6.3877900588
  0
LINE
  5
28E
100
AcDbEntity
  8
0
100
AcDbLine
 62
7
  6
CONTINUOUS
 10
14.8260289394
 20
6.4027900588
 11
15.1385289394
 21
6.4027900588
  0
LINE
  5
28F
100
AcDbEntity
  8
0
100
AcDbLine
 62
7
  6
CONTINUOUS
 10
14.8360484822
 20
6.4127900588
 11
15.1285093965
 21
6.4127900588
  0
LINE
  5
290
100
AcDbEntity
  8
0
100
AcDbLine
 62
7
  6
CONTINUOUS
 10
15.3703552569
 20
7.4918747044
 11
15.4872302569
 21
7.4918747044
  0
LINE
  5
291
100
AcDbEntity
  8
0
100
AcDbLine
 62
7
  6
CONTINUOUS
 10
15.9041052569
 20
7.4928747044
 11
15.4872302569
 21
7.4928747044
  0
LINE
  5
292
100
AcDbEntity
  8
0
100
AcDbLine
 62
7
  6
CONTINUOUS
 10
15.4872302569
 20
7.5553747044
 11
15.9041052569
 21
7.5553747044
  0
LINE
  5
293
100
AcDbEntity
  8
0
100
AcDbLine
 62
7
  6
CONTINUOUS
 10
15.4872302569
 20
7.4918671802
 11
15.5014568469
 21
7.4903836408
  0
LINE
  5
294
100
AcDbEntity
  8
0
100
AcDbLine
 62
7
  6
CONTINUOUS
 10
15.8201258798
 20
7.6978747044
 11
15.5943346341
 21
7.6978747044
  0
LINE
  5
295
100
AcDbEntity
  8
0
100
AcDbLine
 62
7
  6
CONTINUOUS
 10
15.6572491638
 20
7.8522497044
 11
15.7572113501
 21
7.8522497044
  0
LINE
  5
296
100
AcDbEntity
  8
0
100
AcDbLine
 62
7
  6
CONTINUOUS
 10
15.9641052569
 20
8.0856247044
 11
16.4666052569
 21
8.0856247044
  0
LINE
  5
297
100
AcDbEntity
  8
0
100
AcDbLine
 62
7
  6
CONTINUOUS
 10
12.341170588
 20
13.5410271964
 11
12.4628089155
 21
13.9346489685
  0
LINE
  5
298
100
AcDbEntity
  8
0
100
AcDbLine
 62
7
  6
CONTINUOUS
 10
13.4796133325
 20
11.2779487735
 11
12.6297478883
 21
13.0097924631
  0
LINE
  5
299
100
AcDbEntity
  8
0
100
AcDbLine
 62
7
  6
CONTINUOUS
 10
13.2650486715
 20
12.2973808832
 11
13.3797275923
 21
12.6684820066
  0
LINE
  5
29A
100
AcDbEntity
  8
0
100
AcDbLine
 62
7
  6
CONTINUOUS
 10
17.2376209446
 20
10.6649958258
 11
16.8039663762
 21
10.6649958258
  0
LWPOLYLINE
  5
29B
100
AcDbEntity
  8
0
100
AcDbPolyline
 62
7
  6
CONTINUOUS
 90
3
 70
0
 10
13.3553552618
 20
12.6219029081
 10
13.3600457742
 20
12.610793694
 10
13.3607971422
 20
12.6072230479
  0
LINE
  5
29C
100
AcDbEntity
  8
0
100
AcDbLine
 62
7
  6
CONTINUOUS
 10
13.4688385369
 20
11.243081522
 11
13.5027278221
 21
11.3527472894
  0
LINE
  5
29D
100
AcDbEntity
  8
0
100
AcDbLine
 62
7
  6
CONTINUOUS
 10
15.9246893749
 20
10.8838570775
 11
15.9239356475
 21
10.8836615845
  0
LINE
  5
29E
100
AcDbEntity
  8
0
100
AcDbLine
 62
7
  6
CONTINUOUS
 10
15.9269981283
 20
10.8814434907
 11
15.9262285478
 21
10.8812614959
  0
LINE
  5
29F
100
AcDbEntity
  8
0
100
AcDbLine
 62
7
  6
CONTINUOUS
 10
14.150313393
 20
11.4300374188
 11
14.1498048971
 21
11.4305951933
  0
LINE
  5
2A0
100
AcDbEntity
  8
0
100
AcDbLine
 62
7
  6
CONTINUOUS
 10
14.1534869651
 20
11.4307100482
 11
14.1530006471
 21
11.4312704815
  0
LINE
  5
2A1
100
AcDbEntity
  8
0
100
AcDbLine
 62
7
  6
CONTINUOUS
 10
14.4672963357
 20
13.3172800555
 11
14.4143259864
 21
13.2636603936
  0
LINE
  5
2A2
100
AcDbEntity
  8
0
100
AcDbLine
 62
7
  6
CONTINUOUS
 10
14.1407406364
 20
12.0181902883
 11
14.1528439526
 21
12.0573566338
  0
LINE
  5
2A3
100
AcDbEntity
  8
0
100
AcDbLine
 62
7
  6
CONTINUOUS
 10
14.1525858098
 20
11.4299280674
 11
14.3078108397
 21
11.9322364482
  0
LINE
  5
2A4
100
AcDbEntity
  8
0
100
AcDbLine
 62
7
  6
CONTINUOUS
 10
14.7120427717
 20
13.0913284735
 11
14.8822878217
 21
13.2636603936
  0
LINE
  5
2A5
100
AcDbEntity
  8
0
100
AcDbLine
 62
7
  6
CONTINUOUS
 10
14.9013529383
 20
13.2248097706
 11
14.7311078883
 21
13.0524778504
  0
LINE
  5
2A6
100
AcDbEntity
  8
0
100
AcDbLine
 62
7
  6
CONTINUOUS
 10
17.2764972193
 20
10.6452863212
 11
16.9684452398
 21
10.8014625992
  0
LINE
  5
2A7
100
AcDbEntity
  8
0
100
AcDbLine
 62
7
  6
CONTINUOUS
 10
13.3305241329
 20
12.6458168588
 11
12.7438836694
 21
12.9432319956
  0
LWPOLYLINE
  5
2A8
100
AcDbEntity
  8
0
100
AcDbPolyline
 62
7
  6
CONTINUOUS
 90
4
 70
0
 10
13.330512883
 20
12.6458235707
 10
13.3357553457
 20
12.6428176183
 10
13.3471758662
 20
12.6332273357
 10
13.3553552618
 20
12.6219029081
  0
LINE
  5
2A9
100
AcDbEntity
  8
0
100
AcDbLine
 62
7
  6
CONTINUOUS
 10
14.6763070113
 20
11.9104936151
 11
14.6840191353
 21
11.8947779587
  0
LINE
  5
2AA
100
AcDbEntity
  8
0
100
AcDbLine
 62
7
  6
CONTINUOUS
 10
14.7357550971
 20
11.985544513
 11
14.7510071905
 21
11.9544640146
  0
LINE
  5
2AB
100
AcDbEntity
  8
0
100
AcDbLine
 62
7
  6
CONTINUOUS
 10
14.7923422302
 20
12.0428252933
 11
14.8075943236
 21
12.0117447949
  0
LINE
  5
2AC
100
AcDbEntity
  8
0
100
AcDbLine
 62
7
  6
CONTINUOUS
 10
14.7569400304
 20
11.9282637327
 11
14.7357550971
 21
11.985544513
  0
LINE
  5
2AD
100
AcDbEntity
  8
0
100
AcDbLine
 62
7
  6
CONTINUOUS
 10
14.7510071905
 20
11.9544640146
 11
14.7606971985
 21
11.9282637327
  0
LINE
  5
2AE
100
AcDbEntity
  8
0
100
AcDbLine
 62
7
  6
CONTINUOUS
 10
15.5558337879
 20
13.4672468863
 11
15.8486858172
 21
13.7627567699
  0
LINE
  5
2AF
100
AcDbEntity
  8
0
100
AcDbLine
 62
7
  6
CONTINUOUS
 10
14.8347120968
 20
11.9282637327
 11
14.7569400304
 21
11.9282637327
  0
LINE
  5
2B0
100
AcDbEntity
  8
0
100
AcDbLine
 62
7
  6
CONTINUOUS
 10
14.8075943236
 20
12.0117447949
 11
14.8816092218
 21
12.0117447949
  0
LINE
  5
2B1
100
AcDbEntity
  8
0
100
AcDbLine
 62
7
  6
CONTINUOUS
 10
14.956848153
 20
12.0481632116
 11
14.9638304584
 21
12.0339347693
  0
LINE
  5
2B2
100
AcDbEntity
  8
0
100
AcDbLine
 62
7
  6
CONTINUOUS
 10
14.4971269707
 20
13.0524778504
 11
14.478061854
 21
13.0913284735
  0
LINE
  5
2B3
100
AcDbEntity
  8
0
100
AcDbLine
 62
7
  6
CONTINUOUS
 10
14.4143259864
 20
13.2636603936
 11
14.478061854
 21
13.0913284735
  0
LINE
  5
2B4
100
AcDbEntity
  8
0
100
AcDbLine
 62
7
  6
CONTINUOUS
 10
14.8701142966
 20
12.0428252933
 11
14.8912992299
 21
11.985544513
  0
LINE
  5
2B5
100
AcDbEntity
  8
0
100
AcDbLine
 62
7
  6
CONTINUOUS
 10
14.7923422302
 20
12.0428252933
 11
14.8701142966
 21
12.0428252933
  0
LINE
  5
2B6
100
AcDbEntity
  8
0
100
AcDbLine
 62
7
  6
CONTINUOUS
 10
14.7311078883
 20
13.0524778504
 11
14.7120427717
 21
13.0913284735
  0
LINE
  5
2B7
100
AcDbEntity
  8
0
100
AcDbLine
 62
7
  6
CONTINUOUS
 10
14.8822878217
 20
13.2636603936
 11
14.818551954
 21
13.4359923137
  0
LINE
  5
2B8
100
AcDbEntity
  8
0
100
AcDbLine
 62
7
  6
CONTINUOUS
 10
14.8376170706
 20
13.3971416907
 11
14.9013529383
 21
13.2248097706
  0
LINE
  5
2B9
100
AcDbEntity
  8
0
100
AcDbLine
 62
7
  6
CONTINUOUS
 10
14.7357550971
 20
11.985544513
 11
14.7923422302
 21
12.0428252933
  0
LINE
  5
2BA
100
AcDbEntity
  8
0
100
AcDbLine
 62
7
  6
CONTINUOUS
 10
14.8075943236
 20
12.0117447949
 11
14.7510071905
 21
11.9544640146
  0
LINE
  5
2BB
100
AcDbEntity
  8
0
100
AcDbLine
 62
7
  6
CONTINUOUS
 10
14.8912992299
 20
11.985544513
 11
14.8347120968
 21
11.9282637327
  0
LINE
  5
2BC
100
AcDbEntity
  8
0
100
AcDbLine
 62
7
  6
CONTINUOUS
 10
14.9013529383
 20
13.2248097706
 11
14.8822878217
 21
13.2636603936
  0
LINE
  5
2BD
100
AcDbEntity
  8
0
100
AcDbLine
 62
7
  6
CONTINUOUS
 10
14.8376170706
 20
13.3971416907
 11
14.818551954
 21
13.4359923137
  0
LINE
  5
2BE
100
AcDbEntity
  8
0
100
AcDbLine
 62
7
  6
CONTINUOUS
 10
13.4553445846
 20
13.7627567699
 11
14.0382269902
 21
13.4672468863
  0
LINE
  5
2BF
100
AcDbEntity
  8
0
100
AcDbLine
 62
7
  6
CONTINUOUS
 10
17.4050757289
 20
11.7603209792
 11
17.9879581345
 21
11.4648110956
  0
LINE
  5
2C0
100
AcDbEntity
  8
0
100
AcDbLine
 62
7
  6
CONTINUOUS
 10
14.4971269707
 20
13.0524778504
 11
14.7311078883
 21
13.0524778504
  0
LINE
  5
2C1
100
AcDbEntity
  8
0
100
AcDbLine
 62
7
  6
CONTINUOUS
 10
14.478061854
 20
13.0913284735
 11
14.7120427717
 21
13.0913284735
  0
LINE
  5
2C2
100
AcDbEntity
  8
0
100
AcDbLine
 62
7
  6
CONTINUOUS
 10
15.924252021
 20
10.8824417998
 11
16.0794770509
 21
11.3847501806
  0
LINE
  5
2C3
100
AcDbEntity
  8
0
100
AcDbLine
 62
7
  6
CONTINUOUS
 10
17.1520278915
 20
12.9545130544
 11
16.8499396853
 21
12.6496831685
  0
LINE
  5
2C4
100
AcDbEntity
  8
0
100
AcDbLine
 62
7
  6
CONTINUOUS
 10
14.818551954
 20
13.4359923137
 11
14.7178981432
 21
13.4359923137
  0
LINE
  5
2C5
100
AcDbEntity
  8
0
100
AcDbLine
 62
7
  6
CONTINUOUS
 10
16.26591256
 20
11.3614624933
 11
16.2780158762
 21
11.4006288387
  0
LINE
  5
2C6
100
AcDbEntity
  8
0
100
AcDbLine
 62
7
  6
CONTINUOUS
 10
17.2301097451
 20
13.0824385029
 11
17.2639990303
 21
13.1921042702
  0
LINE
  5
2C7
100
AcDbEntity
  8
0
100
AcDbLine
 62
7
  6
CONTINUOUS
 10
17.2733568821
 20
13.2353365908
 11
17.2639975953
 21
13.1921047136
  0
LINE
  5
2C8
100
AcDbEntity
  8
0
100
AcDbLine
 62
7
  6
CONTINUOUS
 10
12.9679047681
 20
14.1881079513
 11
16.3728503691
 21
14.1881079513
  0
LINE
  5
2C9
100
AcDbEntity
  8
0
100
AcDbLine
 62
7
  6
CONTINUOUS
 10
17.1464458513
 20
11.0979384365
 11
17.261124772
 21
11.46903956
  0
LINE
  5
2CA
100
AcDbEntity
  8
0
100
AcDbLine
 62
7
  6
CONTINUOUS
 10
17.3250636033
 20
13.7053546217
 11
18.4527315522
 21
11.4074089474
  0
LINE
  5
2CB
100
AcDbEntity
  8
0
100
AcDbLine
 62
7
  6
CONTINUOUS
 10
18.357777694
 20
10.7844928285
 11
18.4794160215
 21
11.1781146006
  0
ARC
  5
2CC
100
AcDbEntity
  8
0
100
AcDbCircle
 62
7
  6
CONTINUOUS
 10
4.2819850175
 20
3.6717376381
 40
0.7766177413
100
AcDbArc
 50
135.0
 51
315.0
  0
CIRCLE
  5
2CD
100
AcDbEntity
  8
0
100
AcDbCircle
 62
7
  6
CONTINUOUS
 10
4.1303672762
 20
3.5201198968
 40
0.25
  0
ARC
  5
2CE
100
AcDbEntity
  8
0
100
AcDbCircle
 62
7
  6
CONTINUOUS
 10
5.3666967946
 20
3.5732932589
 40
0.06
100
AcDbArc
 50
68.5816982274
 51
135.0
  0
ARC
  5
2CF
100
AcDbEntity
  8
0
100
AcDbCircle
 62
7
  6
CONTINUOUS
 10
4.1835406383
 20
4.7564494151
 40
0.06
100
AcDbArc
 50
315.0
 51
21.4183017726
  0
ARC
  5
2D0
100
AcDbEntity
  8
0
100
AcDbCircle
 62
7
  6
CONTINUOUS
 10
4.2819850175
 20
7.3685021554
 40
0.7766177413
100
AcDbArc
 50
45.0
 51
225.0
  0
CIRCLE
  5
2D1
100
AcDbEntity
  8
0
100
AcDbCircle
 62
7
  6
CONTINUOUS
 10
4.1303672762
 20
7.5201198968
 40
0.25
  0
ARC
  5
2D2
100
AcDbEntity
  8
0
100
AcDbCircle
 62
7
  6
CONTINUOUS
 10
5.893862402
 20
7.7387754621
 40
0.125
100
AcDbArc
 50
277.5874338549
 51
8.5548115243
  0
ARC
  5
2D3
100
AcDbEntity
  8
0
100
AcDbCircle
 62
7
  6
CONTINUOUS
 10
6.0803672762
 20
7.8217448968
 40
0.09
100
AcDbArc
 50
90.0
 51
225.6659686838
  0
ARC
  5
2D4
100
AcDbEntity
  8
0
100
AcDbCircle
 62
7
  6
CONTINUOUS
 10
5.3666967946
 20
7.4669465346
 40
0.06
100
AcDbArc
 50
225.0
 51
291.4183017726
  0
ARC
  5
2D5
100
AcDbEntity
  8
0
100
AcDbCircle
 62
7
  6
CONTINUOUS
 10
4.1835406383
 20
6.2837903784
 40
0.06
100
AcDbArc
 50
338.5816982274
 51
45.0
  0
ARC
  5
2D6
100
AcDbEntity
  8
0
100
AcDbCircle
 62
7
  6
CONTINUOUS
 10
6.8940377578
 20
3.5732932589
 40
0.06
100
AcDbArc
 50
45.0
 51
111.4183017726
  0
CIRCLE
  5
2D7
100
AcDbEntity
  8
03__ASM_ALL_CURVES
100
AcDbCircle
 62
8
  6
PHANTOM
 10
6.1303672762
 20
5.5201198968
 40
3.390625
  0
CIRCLE
  5
2D8
100
AcDbEntity
  8
03__ASM_ALL_CURVES
100
AcDbCircle
 62
8
  6
PHANTOM
 10
6.1303672762
 20
5.5201198968
 40
2.8284271247
  0
CIRCLE
  5
2D9
100
AcDbEntity
  8
0
100
AcDbCircle
 62
7
  6
CONTINUOUS
 10
6.1303672762
 20
5.5201198968
 40
2.03125
  0
CIRCLE
  5
2DA
100
AcDbEntity
  8
0
100
AcDbCircle
 62
7
  6
CONTINUOUS
 10
6.1303672762
 20
5.5201198968
 40
1.2971653543
  0
CIRCLE
  5
2DB
100
AcDbEntity
  8
0
100
AcDbCircle
 62
7
  6
CONTINUOUS
 10
6.1303672762
 20
5.5201198968
 40
1.1121653543
  0
CIRCLE
  5
2DC
100
AcDbEntity
  8
0
100
AcDbCircle
 62
7
  6
CONTINUOUS
 10
6.1303672762
 20
5.5201198968
 40
0.9771653543
  0
CIRCLE
  5
2DD
100
AcDbEntity
  8
0
100
AcDbCircle
 62
7
  6
CONTINUOUS
 10
6.1303672762
 20
5.5201198968
 40
0.9271653543
  0
CIRCLE
  5
2DE
100
AcDbEntity
  8
0
100
AcDbCircle
 62
7
  6
CONTINUOUS
 10
6.1303672762
 20
5.5201198968
 40
0.7874015748
  0
ARC
  5
2DF
100
AcDbEntity
  8
0
100
AcDbCircle
 62
7
  6
CONTINUOUS
 10
7.9787495349
 20
3.6717376381
 40
0.7766177413
100
AcDbArc
 50
225.0
 51
45.0
  0
CIRCLE
  5
2E0
100
AcDbEntity
  8
0
100
AcDbCircle
 62
7
  6
CONTINUOUS
 10
8.1303672762
 20
3.5201198968
 40
0.25
  0
ARC
  5
2E1
100
AcDbEntity
  8
0
100
AcDbCircle
 62
7
  6
CONTINUOUS
 10
8.0771939141
 20
4.7564494151
 40
0.06
100
AcDbArc
 50
158.5816982274
 51
225.0
  0
ARC
  5
2E2
100
AcDbEntity
  8
0
100
AcDbCircle
 62
7
  6
CONTINUOUS
 10
7.9787495349
 20
7.3685021554
 40
0.7766177413
100
AcDbArc
 50
315.0
 51
135.0
  0
CIRCLE
  5
2E3
100
AcDbEntity
  8
0
100
AcDbCircle
 62
7
  6
CONTINUOUS
 10
8.1303672762
 20
7.5201198968
 40
0.25
  0
ARC
  5
2E4
100
AcDbEntity
  8
0
100
AcDbCircle
 62
7
  6
CONTINUOUS
 10
6.3668721503
 20
7.7387754621
 40
0.125
100
AcDbArc
 50
171.4451884757
 51
262.4125661451
  0
ARC
  5
2E5
100
AcDbEntity
  8
0
100
AcDbCircle
 62
7
  6
CONTINUOUS
 10
6.1803672762
 20
7.8217448968
 40
0.09
100
AcDbArc
 50
314.3340313162
 51
90.0
  0
ARC
  5
2E6
100
AcDbEntity
  8
0
100
AcDbCircle
 62
7
  6
CONTINUOUS
 10
6.8940377578
 20
7.4669465346
 40
0.06
100
AcDbArc
 50
248.5816982274
 51
315.0
  0
ARC
  5
2E7
100
AcDbEntity
  8
0
100
AcDbCircle
 62
7
  6
CONTINUOUS
 10
8.0771939141
 20
6.2837903784
 40
0.06
100
AcDbArc
 50
135.0
 51
201.4183017726
  0
CIRCLE
  5
2E8
100
AcDbEntity
  8
0
100
AcDbCircle
 62
7
  6
CONTINUOUS
 10
6.0708720839
 20
12.7469227814
 40
0.22
  0
ARC
  5
2E9
100
AcDbEntity
  8
0
100
AcDbCircle
 62
7
  6
CONTINUOUS
 10
6.0623714595
 20
12.0219714638
 40
0.15625
100
AcDbArc
 50
0.0
 51
359.52
  0
CIRCLE
  5
2EA
100
AcDbEntity
  8
0
100
AcDbCircle
 62
7
  6
CONTINUOUS
 10
6.0623714595
 20
12.0219714638
 40
0.14625
  0
CIRCLE
  5
2EB
100
AcDbEntity
  8
0
100
AcDbCircle
 62
7
  6
CONTINUOUS
 10
6.0708720839
 20
12.7469227814
 40
0.14
  0
ARC
  5
2EC
100
AcDbEntity
  8
0
100
AcDbCircle
 62
7
  6
CONTINUOUS
 10
3.5058720839
 20
13.0037977814
 40
0.06
100
AcDbArc
 50
180.0
 51
270.0
  0
ARC
  5
2ED
100
AcDbEntity
  8
0
100
AcDbCircle
 62
7
  6
CONTINUOUS
 10
4.0996220839
 20
12.4100477814
 40
0.06
100
AcDbArc
 50
180.0
 51
270.0
  0
ARC
  5
2EE
100
AcDbEntity
  8
0
100
AcDbCircle
 62
7
  6
CONTINUOUS
 10
8.0421220839
 20
12.4100477814
 40
0.06
100
AcDbArc
 50
270.0
 51
360.0
  0
ARC
  5
2EF
100
AcDbEntity
  8
0
100
AcDbCircle
 62
7
  6
CONTINUOUS
 10
8.6358720839
 20
13.0037977814
 40
0.06
100
AcDbArc
 50
270.0
 51
360.0
  0
ARC
  5
2F0
100
AcDbEntity
  8
0
100
AcDbCircle
 62
7
  6
CONTINUOUS
 10
6.9730374382
 20
11.7187977814
 40
0.025
100
AcDbArc
 50
270.0
 51
360.0
  0
ARC
  5
2F1
100
AcDbEntity
  8
0
100
AcDbCircle
 62
7
  6
CONTINUOUS
 10
5.1687067295
 20
11.7187977814
 40
0.025
100
AcDbArc
 50
180.0
 51
270.0
  0
ARC
  5
2F2
100
AcDbEntity
  8
0
100
AcDbCircle
 62
7
  6
CONTINUOUS
 10
15.7172486523
 20
9.6181748704
 40
2.1387055945
100
AcDbArc
 50
264.209097824
 51
264.3295326299
  0
ARC
  5
2F3
100
AcDbEntity
  8
0
100
AcDbCircle
 62
7
  6
CONTINUOUS
 10
15.70770088
 20
9.5186574285
 40
2.0387317699
100
AcDbArc
 50
264.3202035486
 51
269.9867737805
  0
ARC
  5
2F4
100
AcDbEntity
  8
0
100
AcDbCircle
 62
7
  6
CONTINUOUS
 10
15.7070203763
 20
9.513338481
 40
2.033412779
100
AcDbArc
 50
270.0059138373
 51
275.5985499884
  0
ARC
  5
2F5
100
AcDbEntity
  8
0
100
AcDbCircle
 62
7
  6
CONTINUOUS
 10
15.7528257855
 20
4.401409042
 40
0.4308384942
100
AcDbArc
 50
43.3124698094
 51
47.4622534167
  0
ARC
  5
2F6
100
AcDbEntity
  8
0
100
AcDbCircle
 62
7
  6
CONTINUOUS
 10
15.7531237037
 20
6.519538393
 40
0.4304145752
100
AcDbArc
 50
312.5357021087
 51
316.6895746639
  0
ARC
  5
2F7
100
AcDbEntity
  8
0
100
AcDbCircle
 62
7
  6
CONTINUOUS
 10
15.4707253828
 20
7.6792802698
 40
0.125
100
AcDbArc
 50
277.5874338549
 51
360.0
  0
ARC
  5
2F8
100
AcDbEntity
  8
0
100
AcDbCircle
 62
7
  6
CONTINUOUS
 10
15.9437351311
 20
7.6792802698
 40
0.125
100
AcDbArc
 50
180.0
 51
251.3569985413
  0
ARC
  5
2F9
100
AcDbEntity
  8
0
100
AcDbCircle
 62
7
  6
CONTINUOUS
 10
15.7572302569
 20
7.7622497044
 40
0.09
100
AcDbArc
 50
314.3340313162
 51
90.0
  0
ARC
  5
2FA
100
AcDbEntity
  8
0
100
AcDbCircle
 62
7
  6
CONTINUOUS
 10
15.6572302569
 20
7.7622497044
 40
0.09
100
AcDbArc
 50
90.0
 51
225.6659686838
  0
ARC
  5
2FB
100
AcDbEntity
  8
0
100
AcDbCircle
 62
7
  6
CONTINUOUS
 10
15.9641052569
 20
2.8956247044
 40
0.06
100
AcDbArc
 50
180.0
 51
270.0
  0
ARC
  5
2FC
100
AcDbEntity
  8
0
100
AcDbCircle
 62
7
  6
CONTINUOUS
 10
15.9641052569
 20
8.0256247044
 40
0.06
100
AcDbArc
 50
90.0
 51
180.0
  0
ARC
  5
2FD
100
AcDbEntity
  8
0
100
AcDbCircle
 62
7
  6
CONTINUOUS
 10
15.3703552569
 20
3.4893747044
 40
0.06
100
AcDbArc
 50
180.0
 51
270.0
  0
ARC
  5
2FE
100
AcDbEntity
  8
0
100
AcDbCircle
 62
7
  6
CONTINUOUS
 10
15.3703552569
 20
7.4318747044
 40
0.06
100
AcDbArc
 50
90.0
 51
180.0
  0
ARC
  5
2FF
100
AcDbEntity
  8
0
100
AcDbCircle
 62
7
  6
CONTINUOUS
 10
14.6791052569
 20
4.5584593501
 40
0.025
100
AcDbArc
 50
180.0
 51
270.0
  0
ARC
  5
300
100
AcDbEntity
  8
0
100
AcDbCircle
 62
7
  6
CONTINUOUS
 10
14.6791052569
 20
6.3627900588
 40
0.025
100
AcDbArc
 50
90.0
 51
180.0
  0
ARC
  5
301
100
AcDbEntity
  8
0
100
AcDbCircle
 62
7
  6
CONTINUOUS
 10
14.4412711427
 20
12.2137293953
 40
1.2310151987
100
AcDbArc
 50
206.1482361298
 51
207.8538665598
  0
ARC
  5
302
100
AcDbEntity
  8
0
100
AcDbCircle
 62
7
  6
CONTINUOUS
 10
17.8224016337
 20
11.722069608
 40
1.2072588274
100
AcDbArc
 50
243.1160377269
 51
243.5334372262
  0
ARC
  5
303
100
AcDbEntity
  8
0
100
AcDbCircle
 62
7
  6
CONTINUOUS
 10
14.6868455011
 20
11.3915189524
 40
0.5590256147
100
AcDbArc
 50
206.1468395482
 51
207.7115915758
  0
ARC
  5
304
100
AcDbEntity
  8
0
100
AcDbCircle
 62
7
  6
CONTINUOUS
 10
16.0389732008
 20
11.4755603525
 40
0.4355610187
100
AcDbArc
 50
332.0364017776
 51
337.3128222443
  0
ARC
  5
305
100
AcDbEntity
  8
0
100
AcDbCircle
 62
7
  6
CONTINUOUS
 10
14.3908184039
 20
11.9846283244
 40
0.4338733745
100
AcDbArc
 50
168.3942973046
 51
173.6338260574
  0
ARC
  5
306
100
AcDbEntity
  8
0
100
AcDbCircle
 62
7
  6
CONTINUOUS
 10
14.4905926621
 20
11.9100141687
 40
0.3661942181
100
AcDbArc
 50
156.5046718742
 51
162.8181110335
  0
ARC
  5
307
100
AcDbEntity
  8
0
100
AcDbCircle
 62
7
  6
CONTINUOUS
 10
15.9167625671
 20
11.4693249144
 40
0.3654308591
100
AcDbArc
 50
342.8325849004
 51
349.1649260724
  0
ARC
  5
308
100
AcDbEntity
  8
0
100
AcDbCircle
 62
7
  6
CONTINUOUS
 10
13.7481251042
 20
11.2768379676
 40
0.2568685745
100
AcDbArc
 50
152.5072572605
 51
162.8114691636
  0
ARC
  5
309
100
AcDbEntity
  8
0
100
AcDbCircle
 62
7
  6
CONTINUOUS
 10
14.85612995
 20
11.898722868
 40
0.2022281353
100
AcDbArc
 50
110.0309981513
 51
118.4954710753
  0
ARC
  5
30A
100
AcDbEntity
  8
0
100
AcDbCircle
 62
7
  6
CONTINUOUS
 10
14.8553299371
 20
11.9001066839
 40
0.2006302891
100
AcDbArc
 50
118.4832221668
 51
121.7628788792
  0
ARC
  5
30B
100
AcDbEntity
  8
0
100
AcDbCircle
 62
7
  6
CONTINUOUS
 10
14.8542439481
 20
11.9038270591
 40
0.1967867018
100
AcDbArc
 50
107.2117641044
 51
110.0241320834
  0
ARC
  5
30C
100
AcDbEntity
  8
0
100
AcDbCircle
 62
7
  6
CONTINUOUS
 10
14.5654624566
 20
13.2281722091
 40
0.1307560259
100
AcDbArc
 50
229.0524268541
 51
232.6402910276
  0
ARC
  5
30D
100
AcDbEntity
  8
0
100
AcDbCircle
 62
7
  6
CONTINUOUS
 10
14.754983722
 20
13.2607096044
 40
0.1255299924
100
AcDbArc
 50
16.100933906
 51
26.1497714595
  0
ARC
  5
30E
100
AcDbEntity
  8
0
100
AcDbCircle
 62
7
  6
CONTINUOUS
 10
14.7903797243
 20
11.9428734247
 40
0.1232334186
100
AcDbArc
 50
159.0968649943
 51
162.793246995
  0
ARC
  5
30F
100
AcDbEntity
  8
0
100
AcDbCircle
 62
7
  6
CONTINUOUS
 10
14.7392183519
 20
13.3074860853
 40
0.1191389944
100
AcDbArc
 50
36.8708680532
 51
41.946789725
  0
ARC
  5
310
100
AcDbEntity
  8
0
100
AcDbCircle
 62
7
  6
CONTINUOUS
 10
14.7423891363
 20
13.3098260862
 40
0.115198371
100
AcDbArc
 50
20.3179494733
 51
36.8860559817
  0
ARC
  5
311
100
AcDbEntity
  8
0
100
AcDbCircle
 62
7
  6
CONTINUOUS
 10
14.7820762705
 20
11.9536217885
 40
0.1080763902
100
AcDbArc
 50
162.8201628837
 51
166.6609714477
  0
ARC
  5
312
100
AcDbEntity
  8
0
100
AcDbCircle
 62
7
  6
CONTINUOUS
 10
14.7524106834
 20
11.9558157632
 40
0.0782952514
100
AcDbArc
 50
210.069568359
 51
222.8438515263
  0
ARC
  5
313
100
AcDbEntity
  8
0
100
AcDbCircle
 62
7
  6
CONTINUOUS
 10
14.7505822515
 20
11.9546818294
 40
0.0761447632
100
AcDbArc
 50
204.1484758271
 51
210.0205167376
  0
ARC
  5
314
100
AcDbEntity
  8
0
100
AcDbCircle
 62
7
  6
CONTINUOUS
 10
14.8766952545
 20
12.0165178647
 40
0.0758958411
100
AcDbArc
 50
22.7760241004
 51
24.1411679947
  0
SPLINE
  5
315
100
AcDbEntity
  8
0
100
AcDbSpline
 62
7
  6
CONTINUOUS
 70
0
 71
3
 72
9
 73
5
 74
0
 42
0.0000001
 43
0.0000001
 44
0.0000000001
 40
0.0
 40
0.0
 40
0.0
 40
0.0
 40
0.4919925676
 40
1.0
 40
1.0
 40
1.0
 40
1.0
 10
5.2470358735
 20
13.1437977814
 30
0.0
 10
5.2500696573
 20
13.1437977814
 30
0.0
 10
5.2562613588
 20
13.1429779728
 30
0.0
 10
5.2620322242
 20
13.1406135618
 30
0.0
 10
5.2647751954
 20
13.1391006524
 30
0.0
  0
SPLINE
  5
316
100
AcDbEntity
  8
0
100
AcDbSpline
 62
7
  6
CONTINUOUS
 70
0
 71
3
 72
9
 73
5
 74
0
 42
0.0000001
 43
0.0000001
 44
0.0000000001
 40
0.0
 40
0.0
 40
0.0
 40
0.0
 40
0.5080074324
 40
1.0
 40
1.0
 40
1.0
 40
1.0
 10
6.8769689723
 20
13.1391006524
 30
0.0
 10
6.8797119435
 20
13.1406135618
 30
0.0
 10
6.8854828089
 20
13.1429779728
 30
0.0
 10
6.8916745104
 20
13.1437977814
 30
0.0
 10
6.8947082943
 20
13.1437977814
 30
0.0
  0
SPLINE
  5
317
100
AcDbEntity
  8
0
100
AcDbSpline
 62
7
  6
CONTINUOUS
 70
0
 71
3
 72
13
 73
9
 74
0
 42
0.0000001
 43
0.0000001
 44
0.0000000001
 40
0.0
 40
0.0
 40
0.0
 40
0.0
 40
0.2584667899
 40
0.5206910089
 40
0.6498613673
 40
0.7750901104
 40
0.8934685667
 40
1.0
 40
1.0
 40
1.0
 40
1.0
 10
6.8126321153
 20
13.0837977814
 30
0.0
 10
6.8175901536
 20
13.089201713
 30
0.0
 10
6.8278583036
 20
13.0998338363
 30
0.0
 10
6.8413339067
 20
13.1124356486
 30
0.0
 10
6.8525006768
 20
13.1219359265
 30
0.0
 10
6.8608105194
 20
13.1284857088
 30
0.0
 10
6.8688991459
 20
13.1342601519
 30
0.0
 10
6.8743221356
 20
13.1376407667
 30
0.0
 10
6.8769689723
 20
13.1391006524
 30
0.0
  0
SPLINE
  5
318
100
AcDbEntity
  8
0
100
AcDbSpline
 62
7
  6
CONTINUOUS
 70
0
 71
3
 72
13
 73
9
 74
0
 42
0.0000001
 43
0.0000001
 44
0.0000000001
 40
0.0
 40
0.0
 40
0.0
 40
0.0
 40
0.2584677994
 40
0.5206903492
 40
0.6498658532
 40
0.7750980082
 40
0.893471369
 40
1.0
 40
1.0
 40
1.0
 40
1.0
 10
5.3291120524
 20
13.0837977814
 30
0.0
 10
5.3241539779
 20
13.0892017524
 30
0.0
 10
5.3138854918
 20
13.0998336923
 30
0.0
 10
5.3004075025
 20
13.1124330967
 30
0.0
 10
5.2892433638
 20
13.1219367317
 30
0.0
 10
5.280936457
 20
13.1284905119
 30
0.0
 10
5.2728465117
 20
13.1342632263
 30
0.0
 10
5.2674219715
 20
13.1376408002
 30
0.0
 10
5.2647751954
 20
13.1391006524
 30
0.0
  0
SPLINE
  5
319
100
AcDbEntity
  8
0
100
AcDbSpline
 62
7
  6
CONTINUOUS
 70
0
 71
3
 72
23
 73
19
 74
0
 42
0.0000001
 43
0.0000001
 44
0.0000000001
 40
0.0
 40
0.0
 40
0.0
 40
0.0
 40
0.1882183709
 40
0.3698298198
 40
0.538153938
 40
0.615519424
 40
0.6874318601
 40
0.7532253032
 40
0.8123261834
 40
0.8641817506
 40
0.9082959973
 40
0.9442643259
 40
0.9590697628
 40
0.9716993114
 40
0.9821287005
 40
0.9903355864
 40
0.9962986242
 40
1.0
 40
1.0
 40
1.0
 40
1.0
 10
5.1555548076
 20
12.0219714638
 30
0.0
 10
5.1555548076
 20
12.0317962453
 30
0.0
 10
5.1552591657
 20
12.0511022337
 30
0.0
 10
5.1539958001
 20
12.0791684758
 30
0.0
 10
5.1523773977
 20
12.1014171156
 30
0.0
 10
5.15086404
 20
12.1179266407
 30
0.0
 10
5.1497174499
 20
12.129094629
 30
0.0
 10
5.1485680919
 20
12.1393033574
 30
0.0
 10
5.1474593518
 20
12.1484627219
 30
0.0
 10
5.1464339336
 20
12.1564920614
 30
0.0
 10
5.1455314237
 20
12.1633196982
 30
0.0
 10
5.1448713162
 20
12.168228566
 30
0.0
 10
5.1444364078
 20
12.1715094369
 30
0.0
 10
5.1441827652
 20
12.1734696015
 30
0.0
 10
5.1439819431
 20
12.1750891793
 30
0.0
 10
5.1438340268
 20
12.1763648906
 30
0.0
 10
5.1437433591
 20
12.1772930181
 30
0.0
 10
5.1437067295
 20
12.1777968515
 30
0.0
 10
5.1437067295
 20
12.177990059
 30
0.0
  0
SPLINE
  5
31A
100
AcDbEntity
  8
0
100
AcDbSpline
 62
7
  6
CONTINUOUS
 70
0
 71
3
 72
23
 73
19
 74
0
 42
0.0000001
 43
0.0000001
 44
0.0000000001
 40
0.0
 40
0.0
 40
0.0
 40
0.0
 40
0.0037013794
 40
0.0096644095
 40
0.0178712468
 40
0.0283005167
 40
0.0409298465
 40
0.0557349034
 40
0.0917020064
 40
0.1358153148
 40
0.1876708913
 40
0.2467718968
 40
0.3125655188
 40
0.3844778064
 40
0.4618428636
 40
0.630167345
 40
0.8117807441
 40
1.0
 40
1.0
 40
1.0
 40
1.0
 10
5.1437067295
 20
11.8659528687
 30
0.0
 10
5.1437067295
 20
11.8661460764
 30
0.0
 10
5.1437433582
 20
11.8666499096
 30
0.0
 10
5.1438340239
 20
11.8675780345
 30
0.0
 10
5.1439819376
 20
11.8688537369
 30
0.0
 10
5.1441827567
 20
11.8704732948
 30
0.0
 10
5.1444363967
 20
11.8724334219
 30
0.0
 10
5.1448712974
 20
11.8757141978
 30
0.0
 10
5.1455313752
 20
11.8806229356
 30
0.0
 10
5.1464338686
 20
11.8874504611
 30
0.0
 10
5.1474593068
 20
11.8954797557
 30
0.0
 10
5.1485680449
 20
11.904639137
 30
0.0
 10
5.1497173976
 20
11.9148478741
 30
0.0
 10
5.1508639977
 20
11.9260158404
 30
0.0
 10
5.152377371
 20
11.9425253529
 30
0.0
 10
5.1539957762
 20
11.9647740913
 30
0.0
 10
5.1552591468
 20
11.9928405
 30
0.0
 10
5.1555548076
 20
12.0121466361
 30
0.0
 10
5.1555548076
 20
12.0219714638
 30
0.0
  0
SPLINE
  5
31B
100
AcDbEntity
  8
0
100
AcDbSpline
 62
7
  6
CONTINUOUS
 70
0
 71
3
 72
16
 73
12
 74
0
 42
0.0000001
 43
0.0000001
 44
0.0000000001
 40
0.0
 40
0.0
 40
0.0
 40
0.0
 40
0.1194955388
 40
0.1801750629
 40
0.2413607231
 40
0.3650393371
 40
0.4274767409
 40
0.4902518552
 40
0.616664578
 40
0.7439802722
 40
1.0
 40
1.0
 40
1.0
 40
1.0
 10
7.6199315587
 20
13.1437977814
 30
0.0
 10
7.6321243451
 20
13.1437977814
 30
0.0
 10
7.6505151415
 20
13.1447430665
 30
0.0
 10
7.6750054617
 20
13.1473464144
 30
0.0
 10
7.6998331284
 20
13.1507349229
 30
0.0
 10
7.7246974641
 20
13.1550899657
 30
0.0
 10
7.7495814931
 20
13.1601648994
 30
0.0
 10
7.7746579441
 20
13.1656795802
 30
0.0
 10
7.8060594747
 20
13.1732344423
 30
0.0
 10
7.8563997765
 20
13.1863233142
 30
0.0
 10
7.8940854083
 20
13.1968019908
 30
0.0
 10
7.9192543426
 20
13.2037977814
 30
0.0
  0
SPLINE
  5
31C
100
AcDbEntity
  8
0
100
AcDbSpline
 62
7
  6
CONTINUOUS
 70
0
 71
3
 72
16
 73
12
 74
0
 42
0.0000001
 43
0.0000001
 44
0.0000000001
 40
0.0
 40
0.0
 40
0.0
 40
0.0
 40
0.2560197483
 40
0.3833354328
 40
0.5097481379
 40
0.5725232523
 40
0.6349606691
 40
0.7586393134
 40
0.8198249692
 40
0.8805044809
 40
1.0
 40
1.0
 40
1.0
 40
1.0
 10
4.2224898252
 20
13.2037977814
 30
0.0
 10
4.2476587614
 20
13.1968019903
 30
0.0
 10
4.285344411
 20
13.186323374
 30
0.0
 10
4.335684701
 20
13.1732344614
 30
0.0
 10
4.3670862164
 20
13.1656795475
 30
0.0
 10
4.3921626648
 20
13.1601648562
 30
0.0
 10
4.4170467008
 20
13.1550899342
 30
0.0
 10
4.4419110455
 20
13.1507349192
 30
0.0
 10
4.4667387159
 20
13.1473464284
 30
0.0
 10
4.4912290318
 20
13.1447430772
 30
0.0
 10
4.5096198246
 20
13.1437977814
 30
0.0
 10
4.5218126091
 20
13.1437977814
 30
0.0
  0
SPLINE
  5
31D
100
AcDbEntity
  8
0
100
AcDbSpline
 62
7
  6
CONTINUOUS
 70
0
 71
3
 72
16
 73
12
 74
0
 42
0.0000001
 43
0.0000001
 44
0.0000000001
 40
0.0
 40
0.0
 40
0.0
 40
0.0
 40
0.1194955388
 40
0.1801750629
 40
0.2413607231
 40
0.3650393371
 40
0.4274767409
 40
0.4902518552
 40
0.616664578
 40
0.7439802722
 40
1.0
 40
1.0
 40
1.0
 40
1.0
 10
16.1041052569
 20
3.9115652296
 30
0.0
 10
16.1041052569
 20
3.8993724432
 30
0.0
 10
16.105050542
 20
3.8809816468
 30
0.0
 10
16.1076538899
 20
3.8564913266
 30
0.0
 10
16.1110423984
 20
3.8316636599
 30
0.0
 10
16.1153974413
 20
3.8067993242
 30
0.0
 10
16.120472375
 20
3.7819152952
 30
0.0
 10
16.1259870558
 20
3.7568388442
 30
0.0
 10
16.1335419178
 20
3.7254373136
 30
0.0
 10
16.1466307898
 20
3.6750970118
 30
0.0
 10
16.1571094664
 20
3.63741138
 30
0.0
 10
16.1641052569
 20
3.6122424458
 30
0.0
  0
SPLINE
  5
31E
100
AcDbEntity
  8
0
100
AcDbSpline
 62
7
  6
CONTINUOUS
 70
0
 71
3
 72
16
 73
12
 74
0
 42
0.0000001
 43
0.0000001
 44
0.0000000001
 40
0.0
 40
0.0
 40
0.0
 40
0.0
 40
0.2560197483
 40
0.3833354328
 40
0.5097481379
 40
0.5725232523
 40
0.6349606691
 40
0.7586393134
 40
0.8198249692
 40
0.8805044809
 40
1.0
 40
1.0
 40
1.0
 40
1.0
 10
16.1641052569
 20
7.3090069631
 30
0.0
 10
16.1571094658
 20
7.2838380269
 30
0.0
 10
16.1466308496
 20
7.2461523773
 30
0.0
 10
16.133541937
 20
7.1958120873
 30
0.0
 10
16.1259870231
 20
7.1644105719
 30
0.0
 10
16.1204723318
 20
7.1393341235
 30
0.0
 10
16.1153974097
 20
7.1144500875
 30
0.0
 10
16.1110423948
 20
7.0895857428
 30
0.0
 10
16.107653904
 20
7.0647580724
 30
0.0
 10
16.1050505528
 20
7.0402677565
 30
0.0
 10
16.1041052569
 20
7.0218769637
 30
0.0
 10
16.1041052569
 20
7.0096841792
 30
0.0
  0
SPLINE
  5
31F
100
AcDbEntity
  8
0
100
AcDbSpline
 62
7
  6
CONTINUOUS
 70
0
 71
3
 72
12
 73
8
 74
0
 42
0.0000001
 43
0.0000001
 44
0.0000000001
 40
0.0
 40
0.0
 40
0.0
 40
0.0
 40
0.2675166036
 40
0.5297595837
 40
0.7783100082
 40
0.8937609603
 40
1.0
 40
1.0
 40
1.0
 40
1.0
 10
16.0663139898
 20
6.2242951861
 30
0.0
 10
16.0696102917
 20
6.2277959565
 30
0.0
 10
16.0760175673
 20
6.2348436635
 30
0.0
 10
16.0849931196
 20
6.2455796073
 30
0.0
 10
16.0917571289
 20
6.2545880948
 30
0.0
 10
16.0964398006
 20
6.2616270562
 30
0.0
 10
16.0984858678
 20
6.2650494947
 30
0.0
 10
16.099408128
 20
6.2667215929
 30
0.0
  0
SPLINE
  5
320
100
AcDbEntity
  8
0
100
AcDbSpline
 62
7
  6
CONTINUOUS
 70
0
 71
3
 72
23
 73
19
 74
0
 42
0.0000001
 43
0.0000001
 44
0.0000000001
 40
0.0
 40
0.0
 40
0.0
 40
0.0
 40
0.0037088742
 40
0.0096686749
 40
0.0178683691
 40
0.0282935751
 40
0.0409276288
 40
0.055736705
 40
0.0916973274
 40
0.1358086868
 40
0.1876697409
 40
0.2467663568
 40
0.3125629881
 40
0.384475604
 40
0.4618343536
 40
0.6301554652
 40
0.8117898622
 40
1.0
 40
1.0
 40
1.0
 40
1.0
 10
15.1382965714
 20
6.387789481
 30
0.0
 10
15.138102974
 20
6.3877891257
 30
0.0
 10
15.1375989426
 20
6.3877527402
 30
0.0
 10
15.1366709093
 20
6.3876624822
 30
0.0
 10
15.1353959119
 20
6.387515196
 30
0.0
 10
15.1337766743
 20
6.3873145822
 30
0.0
 10
15.1318164067
 20
6.3870602345
 30
0.0
 10
15.1285356102
 20
6.3866247578
 30
0.0
 10
15.1236270387
 20
6.3859654176
 30
0.0
 10
15.1167996789
 20
6.3850631989
 30
0.0
 10
15.1087705607
 20
6.3840371527
 30
0.0
 10
15.0996109936
 20
6.3829286551
 30
0.0
 10
15.0894023421
 20
6.3817796491
 30
0.0
 10
15.0782346314
 20
6.3806328071
 30
0.0
 10
15.0617257324
 20
6.3791192674
 30
0.0
 10
15.0394765347
 20
6.37750095
 30
0.0
 10
15.0114098452
 20
6.3762382055
 30
0.0
 10
14.9921032268
 20
6.3759419807
 30
0.0
 10
14.9822789394
 20
6.3759419807
 30
0.0
  0
SPLINE
  5
321
100
AcDbEntity
  8
0
100
AcDbSpline
 62
7
  6
CONTINUOUS
 70
0
 71
3
 72
9
 73
5
 74
0
 42
0.0000001
 43
0.0000001
 44
0.0000000001
 40
0.0
 40
0.0
 40
0.0
 40
0.0
 40
0.5080074324
 40
1.0
 40
1.0
 40
1.0
 40
1.0
 10
16.099408128
 20
4.654527816
 30
0.0
 10
16.1009210374
 20
4.6517848448
 30
0.0
 10
16.1032854484
 20
4.6460139794
 30
0.0
 10
16.1041052569
 20
4.6398222779
 30
0.0
 10
16.1041052569
 20
4.6367884941
 30
0.0
  0
SPLINE
  5
322
100
AcDbEntity
  8
0
100
AcDbSpline
 62
7
  6
CONTINUOUS
 70
0
 71
3
 72
12
 73
8
 74
0
 42
0.0000001
 43
0.0000001
 44
0.0000000001
 40
0.0
 40
0.0
 40
0.0
 40
0.0
 40
0.2675138731
 40
0.5297660721
 40
0.7783165654
 40
0.8937623911
 40
1.0
 40
1.0
 40
1.0
 40
1.0
 10
16.0663139898
 20
4.6969542228
 30
0.0
 10
16.0696102643
 20
4.6934534815
 30
0.0
 10
16.0760148076
 20
4.6864030854
 30
0.0
 10
16.0849923423
 20
4.6756688733
 30
0.0
 10
16.0917609992
 20
4.6666635631
 30
0.0
 10
16.0964409578
 20
4.6596228446
 30
0.0
 10
16.0984858785
 20
4.6561998948
 30
0.0
 10
16.099408128
 20
4.654527816
 30
0.0
  0
SPLINE
  5
323
100
AcDbEntity
  8
0
100
AcDbSpline
 62
7
  6
CONTINUOUS
 70
0
 71
3
 72
9
 73
5
 74
0
 42
0.0000001
 43
0.0000001
 44
0.0000000001
 40
0.0
 40
0.0
 40
0.0
 40
0.0
 40
0.4919925676
 40
1.0
 40
1.0
 40
1.0
 40
1.0
 10
16.1041052569
 20
6.2844609148
 30
0.0
 10
16.1041052569
 20
6.281427131
 30
0.0
 10
16.1032854484
 20
6.2752354295
 30
0.0
 10
16.1009210374
 20
6.2694645641
 30
0.0
 10
16.099408128
 20
6.2667215929
 30
0.0
  0
SPLINE
  5
324
100
AcDbEntity
  8
0
100
AcDbSpline
 62
7
  6
CONTINUOUS
 70
0
 71
3
 72
23
 73
19
 74
0
 42
0.0000001
 43
0.0000001
 44
0.0000000001
 40
0.0
 40
0.0
 40
0.0
 40
0.0
 40
0.1882101989
 40
0.3698446865
 40
0.5381657558
 40
0.6155244702
 40
0.6874370565
 40
0.7532336697
 40
0.8123302652
 40
0.8641913091
 40
0.9083026673
 40
0.9442632901
 40
0.9590723702
 40
0.9717064312
 40
0.9821316389
 40
0.9903313299
 40
0.9962911265
 40
1.0
 40
1.0
 40
1.0
 40
1.0
 10
14.9822789394
 20
6.3759419807
 30
0.0
 10
14.9724546489
 20
6.3759419807
 30
0.0
 10
14.9531480227
 20
6.376238208
 30
0.0
 10
14.9250813276
 20
6.3775009497
 30
0.0
 10
14.9028321295
 20
6.3791192687
 30
0.0
 10
14.8863232362
 20
6.3806328079
 30
0.0
 10
14.87515553
 20
6.3817796501
 30
0.0
 10
14.8649468822
 20
6.3829286555
 30
0.0
 10
14.8557873176
 20
6.3840371527
 30
0.0
 10
14.8477582011
 20
6.3850631988
 30
0.0
 10
14.840930842
 20
6.3859654174
 30
0.0
 10
14.8360222703
 20
6.3866247573
 30
0.0
 10
14.8327414732
 20
6.3870602341
 30
0.0
 10
14.830781205
 20
6.3873145824
 30
0.0
 10
14.8291619671
 20
6.3875151962
 30
0.0
 10
14.82788697
 20
6.387662482
 30
0.0
 10
14.8269589371
 20
6.3877527396
 30
0.0
 10
14.8264549059
 20
6.3877891249
 30
0.0
 10
14.8262613086
 20
6.3877894803
 30
0.0
  0
SPLINE
  5
325
100
AcDbEntity
  8
0
100
AcDbSpline
 62
7
  6
CONTINUOUS
 70
0
 71
3
 72
15
 73
11
 74
0
 42
0.0000001
 43
0.0000001
 44
0.0000000001
 40
0.0
 40
0.0
 40
0.0
 40
0.0
 40
0.116435393
 40
0.2337672347
 40
0.3528679341
 40
0.4745595101
 40
0.599584085
 40
0.7285728384
 40
0.8619480201
 40
1.0
 40
1.0
 40
1.0
 40
1.0
 10
15.7846646407
 20
10.9041242831
 30
0.0
 10
15.7874109666
 20
10.9130144712
 30
0.0
 10
15.7919617453
 20
10.9311769105
 30
0.0
 10
15.7958509813
 20
10.9591574277
 30
0.0
 10
15.7967928912
 20
10.9878124787
 30
0.0
 10
15.7947947961
 20
11.0170251085
 30
0.0
 10
15.7898672198
 20
11.0466863887
 30
0.0
 10
15.7820246565
 20
11.0766756477
 30
0.0
 10
15.7713231091
 20
11.1068679603
 30
0.0
 10
15.7624722746
 20
11.1266978366
 30
0.0
 10
15.7576121345
 20
11.1366017608
 30
0.0
  0
SPLINE
  5
326
100
AcDbEntity
  8
0
100
AcDbSpline
 62
7
  6
CONTINUOUS
 70
0
 71
3
 72
29
 73
25
 74
0
 42
0.0000001
 43
0.0000001
 44
0.0000000001
 40
0.0
 40
0.0
 40
0.0
 40
0.0
 40
0.0620489853
 40
0.093086491
 40
0.1241314808
 40
0.1551756047
 40
0.1862167951
 40
0.2482104885
 40
0.3102184179
 40
0.3412699403
 40
0.3723155078
 40
0.4343841933
 40
0.4966282938
 40
0.5279041201
 40
0.5592629486
 40
0.5907213972
 40
0.6222827624
 40
0.685597971
 40
0.7490438621
 40
0.7807533525
 40
0.8123903466
 40
0.8753021259
 40
0.9378220807
 40
1.0
 40
1.0
 40
1.0
 40
1.0
 10
14.7172422935
 20
13.3656836923
 30
0.0
 10
14.719796972
 20
13.3739506349
 30
0.0
 10
14.7223737773
 20
13.3867994891
 30
0.0
 10
14.7230387173
 20
13.4041208179
 30
0.0
 10
14.7221203553
 20
13.417102159
 30
0.0
 10
14.7197937295
 20
13.4299064779
 30
0.0
 10
14.7148170477
 20
13.4465094241
 30
0.0
 10
14.7051589424
 20
13.4660705682
 30
0.0
 10
14.6913802993
 20
13.4829780595
 30
0.0
 10
14.6783840928
 20
13.4944512039
 30
0.0
 10
14.6642076116
 20
13.5044447479
 30
0.0
 10
14.6445978984
 20
13.5140442167
 30
0.0
 10
14.6234368988
 20
13.5194686239
 30
0.0
 10
14.6061045451
 20
13.5213559002
 30
0.0
 10
14.5929655096
 20
13.5215553896
 30
0.0
 10
14.579823934
 20
13.5205671591
 30
0.0
 10
14.5624208132
 20
13.5177087304
 30
0.0
 10
14.5411682822
 20
13.511325084
 30
0.0
 10
14.5212563707
 20
13.5014936363
 30
0.0
 10
14.506491181
 20
13.491733015
 30
0.0
 10
14.4926594236
 20
13.4808112307
 30
0.0
 10
14.4772669307
 20
13.4650545286
 30
0.0
 10
14.4625705421
 20
13.443242148
 30
0.0
 10
14.4557204291
 20
13.42711234
 30
0.0
 10
14.4531604422
 20
13.4188282192
 30
0.0
  0
SPLINE
  5
327
100
AcDbEntity
  8
0
100
AcDbSpline
 62
7
  6
CONTINUOUS
 70
0
 71
3
 72
29
 73
25
 74
0
 42
0.0000001
 43
0.0000001
 44
0.0000000001
 40
0.0
 40
0.0
 40
0.0
 40
0.0
 40
0.0620489853
 40
0.093086491
 40
0.1241314808
 40
0.1551756047
 40
0.1862167951
 40
0.2482104885
 40
0.3102184179
 40
0.3412699403
 40
0.3723155078
 40
0.4343841933
 40
0.4966282938
 40
0.5279041201
 40
0.5592629486
 40
0.5907213972
 40
0.6222827624
 40
0.685597971
 40
0.7490438621
 40
0.7807533525
 40
0.8123903466
 40
0.8753021259
 40
0.9378220807
 40
1.0
 40
1.0
 40
1.0
 40
1.0
 10
14.4531604422
 20
13.4188282192
 30
0.0
 10
14.4506057637
 20
13.4105612766
 30
0.0
 10
14.4480289584
 20
13.3977124224
 30
0.0
 10
14.4473640184
 20
13.3803910936
 30
0.0
 10
14.4482823804
 20
13.3674097525
 30
0.0
 10
14.4506090062
 20
13.3546054336
 30
0.0
 10
14.455585688
 20
13.3380024874
 30
0.0
 10
14.4652437933
 20
13.3184413433
 30
0.0
 10
14.4790224364
 20
13.301533852
 30
0.0
 10
14.4920186429
 20
13.2900607076
 30
0.0
 10
14.5061951241
 20
13.2800671636
 30
0.0
 10
14.5258048373
 20
13.2704676948
 30
0.0
 10
14.5469658369
 20
13.2650432876
 30
0.0
 10
14.5642981906
 20
13.2631560113
 30
0.0
 10
14.5774372261
 20
13.2629565219
 30
0.0
 10
14.5905788017
 20
13.2639447525
 30
0.0
 10
14.6079819225
 20
13.2668031811
 30
0.0
 10
14.6292344535
 20
13.2731868275
 30
0.0
 10
14.649146365
 20
13.2830182752
 30
0.0
 10
14.6639115547
 20
13.2927788965
 30
0.0
 10
14.677743312
 20
13.3037006808
 30
0.0
 10
14.693135805
 20
13.319457383
 30
0.0
 10
14.7078321936
 20
13.3412697635
 30
0.0
 10
14.7146823066
 20
13.3573995715
 30
0.0
 10
14.7172422935
 20
13.3656836923
 30
0.0
  0
SPLINE
  5
328
100
AcDbEntity
  8
0
100
AcDbSpline
 62
7
  6
CONTINUOUS
 70
0
 71
3
 72
15
 73
11
 74
0
 42
0.0000001
 43
0.0000001
 44
0.0000000001
 40
0.0
 40
0.0
 40
0.0
 40
0.0
 40
0.1380797696
 40
0.2714577848
 40
0.4004239935
 40
0.5254310463
 40
0.6471192646
 40
0.7662259343
 40
0.8835648809
 40
1.0
 40
1.0
 40
1.0
 40
1.0
 10
16.3859916927
 20
11.6506600453
 30
0.0
 10
16.3939999096
 20
11.634341015
 30
0.0
 10
16.4085834178
 20
11.6016700691
 30
0.0
 10
16.4262159229
 20
11.5519308705
 30
0.0
 10
16.4391292758
 20
11.5025297633
 30
0.0
 10
16.4472446427
 20
11.4536714149
 30
0.0
 10
16.450539701
 20
11.4055484708
 30
0.0
 10
16.4489821589
 20
11.3583410131
 30
0.0
 10
16.4425808756
 20
11.3122437342
 30
0.0
 10
16.4350870891
 20
11.2823208489
 30
0.0
 10
16.4305617343
 20
11.2676754969
 30
0.0
  0
SPLINE
  5
329
100
AcDbEntity
  8
0
100
AcDbSpline
 62
7
  6
CONTINUOUS
 70
0
 71
3
 72
38
 73
34
 74
0
 42
0.0000001
 43
0.0000001
 44
0.0000000001
 40
0.0
 40
0.0
 40
0.0
 40
0.0
 40
0.0111742682
 40
0.0223741868
 40
0.033631694
 40
0.0449773416
 40
0.06803637
 40
0.0917774052
 40
0.1163725924
 40
0.141966704
 40
0.1686671579
 40
0.1965399305
 40
0.2256150423
 40
0.2558876106
 40
0.2873215881
 40
0.3198558507
 40
0.3534032143
 40
0.3878599944
 40
0.4589741149
 40
0.5321030648
 40
0.6059967616
 40
0.6428353761
 40
0.6793795931
 40
0.7154735895
 40
0.7509676316
 40
0.7857222764
 40
0.8196115934
 40
0.8525226804
 40
0.8843613438
 40
0.9150540921
 40
0.9445663127
 40
0.9728855037
 40
1.0
 40
1.0
 40
1.0
 40
1.0
 10
15.924252021
 20
10.8824417998
 30
0.0
 10
15.9220098174
 20
10.8751860264
 30
0.0
 10
15.9169998783
 20
10.8608128589
 30
0.0
 10
15.9079613521
 20
10.8397995414
 30
0.0
 10
15.8974213522
 20
10.8193648225
 30
0.0
 10
15.8813211002
 20
10.7928105977
 30
0.0
 10
15.8574156479
 20
10.7611864348
 30
0.0
 10
15.8234047152
 20
10.7264148082
 30
0.0
 10
15.7842056373
 20
10.6948105721
 30
0.0
 10
15.7401541476
 20
10.6665301511
 30
0.0
 10
15.691569948
 20
10.6416961923
 30
0.0
 10
15.6387833554
 20
10.6204068499
 30
0.0
 10
15.5821331052
 20
10.6027542939
 30
0.0
 10
15.5219776096
 20
10.5888139146
 30
0.0
 10
15.4586947085
 20
10.5786444788
 30
0.0
 10
15.392683972
 20
10.5722973337
 30
0.0
 10
15.3243626924
 20
10.5697896649
 30
0.0
 10
15.2297914605
 20
10.5716097335
 30
0.0
 10
15.1087088091
 20
10.5836771041
 30
0.0
 10
14.9631222369
 20
10.6127608027
 30
0.0
 10
14.8432346077
 20
10.6487036346
 30
0.0
 10
14.749596342
 20
10.6841518129
 30
0.0
 10
14.6813214098
 20
10.713797754
 30
0.0
 10
14.6153923453
 20
10.7463308165
 30
0.0
 10
14.5522385649
 20
10.7815387233
 30
0.0
 10
14.4922772679
 20
10.8192014451
 30
0.0
 10
14.4358953596
 20
10.8590737567
 30
0.0
 10
14.3834677779
 20
10.9009156042
 30
0.0
 10
14.3353270239
 20
10.9444554574
 30
0.0
 10
14.2917923219
 20
10.9894452514
 30
0.0
 10
14.2531397871
 20
11.0356253452
 30
0.0
 10
14.2196519211
 20
11.0827263056
 30
0.0
 10
14.2005088634
 20
11.115245755
 30
0.0
 10
14.1919403676
 20
11.1315602119
 30
0.0
  0
SPLINE
  5
32A
100
AcDbEntity
  8
0
100
AcDbSpline
 62
7
  6
CONTINUOUS
 70
0
 71
3
 72
15
 73
11
 74
0
 42
0.0000001
 43
0.0000001
 44
0.0000000001
 40
0.0
 40
0.0
 40
0.0
 40
0.0
 40
0.1360863136
 40
0.268101624
 40
0.3963614884
 40
0.5212984701
 40
0.6434567089
 40
0.7634810845
 40
0.8820800786
 40
1.0
 40
1.0
 40
1.0
 40
1.0
 10
14.185026306
 20
11.1451713659
 30
0.0
 10
14.1791595732
 20
11.1571265104
 30
0.0
 10
14.1684569214
 20
11.1811129979
 30
0.0
 10
14.1554978788
 20
11.2177155098
 30
0.0
 10
14.1459750768
 20
11.2542397628
 30
0.0
 10
14.1399729081
 20
11.2905316761
 30
0.0
 10
14.1375357688
 20
11.3264326443
 30
0.0
 10
14.1387215213
 20
11.3617816237
 30
0.0
 10
14.1435417576
 20
11.3964002054
 30
0.0
 10
14.1491788496
 20
11.4189031401
 30
0.0
 10
14.1525858098
 20
11.4299280674
 30
0.0
  0
SPLINE
  5
32B
100
AcDbEntity
  8
0
100
AcDbSpline
 62
7
  6
CONTINUOUS
 70
0
 71
3
 72
22
 73
18
 74
0
 42
0.0000001
 43
0.0000001
 44
0.0000000001
 40
0.0
 40
0.0
 40
0.0
 40
0.0
 40
0.0506010633
 40
0.1022833916
 40
0.1559638421
 40
0.2122905996
 40
0.2715807997
 40
0.333853675
 40
0.3988541088
 40
0.4661126947
 40
0.5350029051
 40
0.6047830959
 40
0.7436230898
 40
0.811345413
 40
0.8769386643
 40
0.9399407789
 40
1.0
 40
1.0
 40
1.0
 40
1.0
 10
14.9568463388
 20
12.048162321
 30
0.0
 10
14.9542717231
 20
12.0534058155
 30
0.0
 10
14.9478997762
 20
12.0634742411
 30
0.0
 10
14.9351873122
 20
12.0763959417
 30
0.0
 10
14.9196369589
 20
12.0869257373
 30
0.0
 10
14.9016495241
 20
12.0948130096
 30
0.0
 10
14.8816718085
 20
12.0999120823
 30
0.0
 10
14.8601764319
 20
12.1021187787
 30
0.0
 10
14.837668639
 20
12.1013930286
 30
0.0
 10
14.8146759802
 20
12.0977701303
 30
0.0
 10
14.7917353098
 20
12.0913246113
 30
0.0
 10
14.7620197454
 20
12.0792262986
 30
0.0
 10
14.7345872587
 20
12.062309478
 30
0.0
 10
14.7110584301
 20
12.0414017717
 30
0.0
 10
14.696040035
 20
12.0243426378
 30
0.0
 10
14.6838839235
 20
12.0061957109
 30
0.0
 10
14.677729413
 20
11.9933192715
 30
0.0
 10
14.6752569189
 20
11.986841767
 30
0.0
  0
SPLINE
  5
32C
100
AcDbEntity
  8
0
100
AcDbSpline
 62
7
  6
CONTINUOUS
 70
0
 71
3
 72
15
 73
11
 74
0
 42
0.0000001
 43
0.0000001
 44
0.0000000001
 40
0.0
 40
0.0
 40
0.0
 40
0.0
 40
0.1380672806
 40
0.2714450039
 40
0.4004227186
 40
0.5254370709
 40
0.6471257761
 40
0.766228577
 40
0.8835642053
 40
1.0
 40
1.0
 40
1.0
 40
1.0
 10
18.4527315522
 20
11.4074089474
 30
0.0
 10
18.4575256612
 20
11.3976395803
 30
0.0
 10
18.4662561425
 20
11.378080153
 30
0.0
 10
18.4768120145
 20
11.3483010413
 30
0.0
 10
18.4845452263
 20
11.318723475
 30
0.0
 10
18.4894041363
 20
11.2894702491
 30
0.0
 10
18.491375991
 20
11.2606586018
 30
0.0
 10
18.4904450695
 20
11.2323958056
 30
0.0
 10
18.4866103326
 20
11.2047979635
 30
0.0
 10
18.4821232912
 20
11.1868835105
 30
0.0
 10
18.4794145486
 20
11.1781150545
 30
0.0
  0
SPLINE
  5
32D
100
AcDbEntity
  8
0
100
AcDbSpline
 62
7
  6
CONTINUOUS
 70
0
 71
3
 72
23
 73
19
 74
0
 42
0.0000001
 43
0.0000001
 44
0.0000000001
 40
0.0
 40
0.0
 40
0.0
 40
0.0
 40
0.063959292
 40
0.129657095
 40
0.1966380675
 40
0.2645043291
 40
0.3328367929
 40
0.4011872538
 40
0.469113479
 40
0.5361828692
 40
0.601979858
 40
0.6661122912
 40
0.7282272553
 40
0.7880140784
 40
0.8452163319
 40
0.8996632619
 40
0.951271516
 40
1.0
 40
1.0
 40
1.0
 40
1.0
 10
16.3728503691
 20
14.1881079513
 30
0.0
 10
16.396606805
 20
14.1881079513
 30
0.0
 10
16.4447774673
 20
14.1864868022
 30
0.0
 10
16.5175224374
 20
14.1795010998
 30
0.0
 10
16.5911566537
 20
14.1679683735
 30
0.0
 10
16.6649589109
 20
14.1520112613
 30
0.0
 10
16.7382339623
 20
14.1317830625
 30
0.0
 10
16.8102807648
 20
14.1074718677
 30
0.0
 10
16.8804094576
 20
14.0793161685
 30
0.0
 10
16.9479462009
 20
14.0475775426
 30
0.0
 10
17.0122504471
 20
14.0125695458
 30
0.0
 10
17.0727031974
 20
13.9746157195
 30
0.0
 10
17.128731869
 20
13.9340847318
 30
0.0
 10
17.1797984515
 20
13.8913566934
 30
0.0
 10
17.2254209471
 20
13.8468387321
 30
0.0
 10
17.2651698671
 20
13.8009376288
 30
0.0
 10
17.2986413591
 20
13.7540890019
 30
0.0
 10
17.3170901114
 20
13.7216028899
 30
0.0
 10
17.3250636033
 20
13.7053546217
 30
0.0
  0
SPLINE
  5
32E
100
AcDbEntity
  8
0
100
AcDbSpline
 62
7
  6
CONTINUOUS
 70
0
 71
3
 72
15
 73
11
 74
0
 42
0.0000001
 43
0.0000001
 44
0.0000000001
 40
0.0
 40
0.0
 40
0.0
 40
0.0
 40
0.1164343816
 40
0.2337725613
 40
0.3528784968
 40
0.4745664177
 40
0.5995740646
 40
0.7285418292
 40
0.8619206129
 40
1.0
 40
1.0
 40
1.0
 40
1.0
 10
14.1407410376
 20
12.0181901652
 30
0.0
 10
14.1368611886
 20
12.0056335698
 30
0.0
 10
14.1304361771
 20
11.9799784347
 30
0.0
 10
14.1249475988
 20
11.940455774
 30
0.0
 10
14.1236122849
 20
11.8999811834
 30
0.0
 10
14.1264372309
 20
11.8587215201
 30
0.0
 10
14.1333951426
 20
11.8168310573
 30
0.0
 10
14.1444670929
 20
11.77447521
 30
0.0
 10
14.1595848096
 20
11.7318295082
 30
0.0
 10
14.1720883956
 20
11.7038179822
 30
0.0
 10
14.1789544715
 20
11.6898263908
 30
0.0
  0
SPLINE
  5
32F
100
AcDbEntity
  8
0
100
AcDbSpline
 62
7
  6
CONTINUOUS
 70
0
 71
3
 72
13
 73
9
 74
0
 42
0.0000001
 43
0.0000001
 44
0.0000000001
 40
0.0
 40
0.0
 40
0.0
 40
0.0
 40
0.2711944076
 40
0.5251952046
 40
0.6469931215
 40
0.7661621218
 40
0.8835348102
 40
1.0
 40
1.0
 40
1.0
 40
1.0
 10
13.1130096888
 20
13.3589803344
 30
0.0
 10
13.1160395409
 20
13.3528061449
 30
0.0
 10
13.1210628528
 20
13.3404043399
 30
0.0
 10
13.1245931004
 20
13.3242805202
 30
0.0
 10
13.125450091
 20
13.311738412
 30
0.0
 10
13.125149535
 20
13.30263916
 30
0.0
 10
13.1239164822
 20
13.2937560367
 30
0.0
 10
13.1224717269
 20
13.2879903921
 30
0.0
 10
13.1215990764
 20
13.2851686693
 30
0.0
  0
SPLINE
  5
330
100
AcDbEntity
  8
0
100
AcDbSpline
 62
7
  6
CONTINUOUS
 70
0
 71
3
 72
13
 73
9
 74
0
 42
0.0000001
 43
0.0000001
 44
0.0000000001
 40
0.0
 40
0.0
 40
0.0
 40
0.0
 40
0.1210463565
 40
0.2424893933
 40
0.3647162522
 40
0.4881042642
 40
0.739672843
 40
1.0
 40
1.0
 40
1.0
 40
1.0
 10
14.2600414134
 20
11.9469983246
 30
0.0
 10
14.2578325903
 20
11.939848042
 30
0.0
 10
14.2539090367
 20
11.9253636419
 30
0.0
 10
14.2495430935
 20
11.9032243619
 30
0.0
 10
14.246698568
 20
11.8806912603
 30
0.0
 10
14.2449330117
 20
11.8499831332
 30
0.0
 10
14.2466420498
 20
11.8106265774
 30
0.0
 10
14.2519867063
 20
11.7793441187
 30
0.0
 10
14.255599457
 20
11.7636601341
 30
0.0
  0
SPLINE
  5
331
100
AcDbEntity
  8
0
100
AcDbSpline
 62
7
  6
CONTINUOUS
 70
0
 71
3
 72
39
 73
35
 74
0
 42
0.0000001
 43
0.0000001
 44
0.0000000001
 40
0.0
 40
0.0
 40
0.0
 40
0.0
 40
0.0214497691
 40
0.043195294
 40
0.0655141321
 40
0.0886463988
 40
0.1127887747
 40
0.1380866901
 40
0.1646397173
 40
0.1924994785
 40
0.2216801479
 40
0.2521575938
 40
0.2838800517
 40
0.3167669473
 40
0.3507181676
 40
0.3856127387
 40
0.4213164119
 40
0.4576807747
 40
0.4945491555
 40
0.5317566547
 40
0.5691344065
 40
0.6065108443
 40
0.6437144131
 40
0.6805763607
 40
0.7169318196
 40
0.7526238711
 40
0.7875039778
 40
0.8214389736
 40
0.8543086974
 40
0.8860114874
 40
0.9164664005
 40
0.9456288274
 40
0.973476933
 40
1.0
 40
1.0
 40
1.0
 40
1.0
 10
14.1528442706
 20
12.0573565357
 30
0.0
 10
14.1580345124
 20
12.0741536574
 30
0.0
 10
14.1709705535
 20
12.1072657975
 30
0.0
 10
14.1975265223
 20
12.1541301638
 30
0.0
 10
14.231095134
 20
12.198002465
 30
0.0
 10
14.2713851295
 20
12.2385846685
 30
0.0
 10
14.3181103327
 20
12.2756000564
 30
0.0
 10
14.3709194659
 20
12.3088342197
 30
0.0
 10
14.4294565743
 20
12.3380622383
 30
0.0
 10
14.4933133047
 20
12.3631211679
 30
0.0
 10
14.5620645884
 20
12.3838337803
 30
0.0
 10
14.6352420303
 20
12.4000865047
 30
0.0
 10
14.7123553079
 20
12.4117562253
 30
0.0
 10
14.7928818421
 20
12.4187845146
 30
0.0
 10
14.8762775841
 20
12.4211085973
 30
0.0
 10
14.9619777595
 20
12.4187300555
 30
0.0
 10
15.049399817
 20
12.4116497058
 30
0.0
 10
15.1379517798
 20
12.3999312929
 30
0.0
 10
15.2270292744
 20
12.3836395698
 30
0.0
 10
15.3160294658
 20
12.3629000521
 30
0.0
 10
15.404343232
 20
12.3378393898
 30
0.0
 10
15.491373705
 20
12.308642401
 30
0.0
 10
15.5765240058
 20
12.2754936369
 30
0.0
 10
15.6592199839
 20
12.2386325465
 30
0.0
 10
15.7388929294
 20
12.1982958209
 30
0.0
 10
15.815007454
 20
12.1547722422
 30
0.0
 10
15.8870394342
 20
12.1083434282
 30
0.0
 10
15.9545080697
 20
12.0593362173
 30
0.0
 10
16.0169461314
 20
12.0080684294
 30
0.0
 10
16.0739409657
 20
11.9549020455
 30
0.0
 10
16.1250973639
 20
11.9001787201
 30
0.0
 10
16.1700804964
 20
11.8442647418
 30
0.0
 10
16.2085555957
 20
11.7875388496
 30
0.0
 10
16.2302251196
 20
11.7485084505
 30
0.0
 10
16.2398020411
 20
11.7289927362
 30
0.0
  0
SPLINE
  5
332
100
AcDbEntity
  8
0
100
AcDbSpline
 62
7
  6
CONTINUOUS
 70
0
 71
3
 72
10
 73
6
 74
0
 42
0.0000001
 43
0.0000001
 44
0.0000000001
 40
0.0
 40
0.0
 40
0.0
 40
0.0
 40
0.2610616286
 40
0.5156906459
 40
1.0
 40
1.0
 40
1.0
 40
1.0
 10
14.7810932086
 20
13.1024236986
 30
0.0
 10
14.789066775
 20
13.1076362371
 30
0.0
 10
14.8043271061
 20
13.1187231098
 30
0.0
 10
14.8314709148
 20
13.1431554026
 30
0.0
 10
14.8484576992
 20
13.1645577776
 30
0.0
 10
14.8574358352
 20
13.1797798648
 30
0.0
  0
SPLINE
  5
333
100
AcDbEntity
  8
0
100
AcDbSpline
 62
7
  6
CONTINUOUS
 70
0
 71
3
 72
13
 73
9
 74
0
 42
0.0000001
 43
0.0000001
 44
0.0000000001
 40
0.0
 40
0.0
 40
0.0
 40
0.0
 40
0.2711944076
 40
0.5251952046
 40
0.6469931215
 40
0.7661621218
 40
0.8835348102
 40
1.0
 40
1.0
 40
1.0
 40
1.0
 10
16.7972536648
 20
13.3589803344
 30
0.0
 10
16.8002835169
 20
13.3528061449
 30
0.0
 10
16.8053068288
 20
13.3404043399
 30
0.0
 10
16.8088370764
 20
13.3242805202
 30
0.0
 10
16.809694067
 20
13.311738412
 30
0.0
 10
16.809393511
 20
13.30263916
 30
0.0
 10
16.8081604582
 20
13.2937560367
 30
0.0
 10
16.806715703
 20
13.2879903921
 30
0.0
 10
16.8058430524
 20
13.2851686693
 30
0.0
  0
SPLINE
  5
334
100
AcDbEntity
  8
0
100
AcDbSpline
 62
7
  6
CONTINUOUS
 70
0
 71
3
 72
41
 73
37
 74
0
 42
0.0000001
 43
0.0000001
 44
0.0000000001
 40
0.0
 40
0.0
 40
0.0
 40
0.0
 40
0.0107128515
 40
0.0214630329
 40
0.0322873084
 40
0.0432213065
 40
0.0655396467
 40
0.0886713919
 40
0.1128131341
 40
0.1381103445
 40
0.1646626433
 40
0.1925216564
 40
0.2217015474
 40
0.2521781937
 40
0.2838998363
 40
0.3167858993
 40
0.3507362631
 40
0.385629954
 40
0.4213327158
 40
0.457696135
 40
0.494563528
 40
0.5317700124
 40
0.569146722
 40
0.6065220862
 40
0.6437245466
 40
0.6805854518
 40
0.7169400043
 40
0.7526311649
 40
0.7875102463
 40
0.8214441474
 40
0.8543128154
 40
0.8860146219
 40
0.9164686451
 40
0.9456302695
 40
0.9734776405
 40
1.0
 40
1.0
 40
1.0
 40
1.0
 10
13.9518848298
 20
12.0336445937
 30
0.0
 10
13.9549083157
 20
12.0434294652
 30
0.0
 10
13.9616793038
 20
12.0628209112
 30
0.0
 10
13.9739363472
 20
12.0911762981
 30
0.0
 10
13.988279506
 20
12.1187766976
 30
0.0
 10
14.0102942212
 20
12.1547391894
 30
0.0
 10
14.0431539744
 20
12.1976892832
 30
0.0
 10
14.0901439053
 20
12.2450179775
 30
0.0
 10
14.144642195
 20
12.2881918398
 30
0.0
 10
14.2062355995
 20
12.3269538072
 30
0.0
 10
14.2745099582
 20
12.3610437269
 30
0.0
 10
14.3489887738
 20
12.3902709565
 30
0.0
 10
14.4291763627
 20
12.4144289345
 30
0.0
 10
14.5145263973
 20
12.4333851394
 30
0.0
 10
14.6044670067
 20
12.44699599
 30
0.0
 10
14.6983886735
 20
12.4551933485
 30
0.0
 10
14.7956568376
 20
12.4579039597
 30
0.0
 10
14.8956127536
 20
12.4551296971
 30
0.0
 10
14.9975769476
 20
12.4468714912
 30
0.0
 10
15.1008589419
 20
12.43320372
 30
0.0
 10
15.2047538233
 20
12.4142019119
 30
0.0
 10
15.308558469
 20
12.3900124524
 30
0.0
 10
15.4115624403
 20
12.3607830885
 30
0.0
 10
15.5130695642
 20
12.3267293854
 30
0.0
 10
15.6123837711
 20
12.2880666256
 30
0.0
 10
15.7088354986
 20
12.2450739218
 30
0.0
 10
15.8017614697
 20
12.1980273436
 30
0.0
 10
15.8905371085
 20
12.1472638939
 30
0.0
 10
15.9745508888
 20
12.0931120582
 30
0.0
 10
16.0532420175
 20
12.0359530151
 30
0.0
 10
16.1260658201
 20
11.9761574991
 30
0.0
 10
16.1925410199
 20
11.914147485
 30
0.0
 10
16.2522067695
 20
11.8503215061
 30
0.0
 10
16.3046724651
 20
11.7851067078
 30
0.0
 10
16.3495476076
 20
11.7189448826
 30
0.0
 10
16.3748217191
 20
11.6734220583
 30
0.0
 10
16.3859916927
 20
11.6506600453
 30
0.0
  0
SPLINE
  5
335
100
AcDbEntity
  8
0
100
AcDbSpline
 62
7
  6
CONTINUOUS
 70
0
 71
3
 72
13
 73
9
 74
0
 42
0.0000001
 43
0.0000001
 44
0.0000000001
 40
0.0
 40
0.0
 40
0.0
 40
0.0
 40
0.2711944076
 40
0.5251952046
 40
0.6469931215
 40
0.7661621218
 40
0.8835348102
 40
1.0
 40
1.0
 40
1.0
 40
1.0
 10
18.0174211313
 20
10.8725404613
 30
0.0
 10
18.0204509835
 20
10.8663662718
 30
0.0
 10
18.0254742953
 20
10.8539644669
 30
0.0
 10
18.0290045429
 20
10.8378406471
 30
0.0
 10
18.0298615336
 20
10.8252985389
 30
0.0
 10
18.0295609776
 20
10.8161992869
 30
0.0
 10
18.0283279248
 20
10.8073161636
 30
0.0
 10
18.0268831695
 20
10.801550519
 30
0.0
 10
18.026010519
 20
10.7987287962
 30
0.0
  0
SPLINE
  5
336
100
AcDbEntity
  8
0
100
AcDbSpline
 62
7
  6
CONTINUOUS
 70
0
 71
3
 72
25
 73
21
 74
0
 42
0.0000001
 43
0.0000001
 44
0.0000000001
 40
0.0
 40
0.0
 40
0.0
 40
0.0
 40
0.071986856
 40
0.1448425294
 40
0.2178987216
 40
0.2905777119
 40
0.3622863911
 40
0.4324564387
 40
0.5005901572
 40
0.5662766669
 40
0.6292096321
 40
0.6892304477
 40
0.746333789
 40
0.8007010612
 40
0.8526903417
 40
0.9028265773
 40
0.927381659
 40
0.9516880962
 40
0.9758540904
 40
1.0
 40
1.0
 40
1.0
 40
1.0
 10
17.2843559972
 20
10.6413380181
 30
0.0
 10
17.3101939648
 20
10.62847426
 30
0.0
 10
17.3631175722
 20
10.6044303452
 30
0.0
 10
17.444984753
 20
10.5737460266
 30
0.0
 10
17.5289915415
 20
10.5485279918
 30
0.0
 10
17.6140507074
 20
10.5290990008
 30
0.0
 10
17.699097719
 20
10.5156992248
 30
0.0
 10
17.7830711604
 20
10.5085296733
 30
0.0
 10
17.8649388909
 20
10.5077030334
 30
0.0
 10
17.9437232874
 20
10.5132787128
 30
0.0
 10
18.0185109648
 20
10.5252757912
 30
0.0
 10
18.0884554703
 20
10.5436742779
 30
0.0
 10
18.152762651
 20
10.5684561996
 30
0.0
 10
18.2106593988
 20
10.5995898957
 30
0.0
 10
18.261302763
 20
10.6370322684
 30
0.0
 10
18.2969049003
 20
10.673642799
 30
0.0
 10
18.320527477
 20
10.7056013609
 30
0.0
 10
18.3356783793
 20
10.730710852
 30
0.0
 10
18.3482807661
 20
10.7570060796
 30
0.0
 10
18.3549193207
 20
10.7752431294
 30
0.0
 10
18.357777694
 20
10.7844928285
 30
0.0
  0
SPLINE
  5
337
100
AcDbEntity
  8
0
100
AcDbSpline
 62
7
  6
CONTINUOUS
 70
0
 71
3
 72
30
 73
26
 74
0
 42
0.0000001
 43
0.0000001
 44
0.0000000001
 40
0.0
 40
0.0
 40
0.0
 40
0.0
 40
0.0214553341
 40
0.0432083729
 40
0.0655330006
 40
0.0886722866
 40
0.1380505866
 40
0.1646117553
 40
0.1924788247
 40
0.2521129346
 40
0.3167064854
 40
0.3506678865
 40
0.3855716317
 40
0.4576368264
 40
0.5317120243
 40
0.6064679924
 40
0.680532499
 40
0.7525804194
 40
0.7874746335
 40
0.821421386
 40
0.8542962146
 40
0.8860073386
 40
0.9456303346
 40
0.9734895369
 40
1.0
 40
1.0
 40
1.0
 40
1.0
 10
17.5483012467
 20
10.9463521264
 30
0.0
 10
17.5494688069
 20
10.9501274419
 30
0.0
 10
17.5523786585
 20
10.9575698085
 30
0.0
 10
17.5583471287
 20
10.9681040108
 30
0.0
 10
17.5658901032
 20
10.9779694007
 30
0.0
 10
17.578229488
 20
10.9903902027
 30
0.0
 10
17.5933562278
 20
11.0009032901
 30
0.0
 10
17.6104770582
 20
11.0094469956
 30
0.0
 10
17.6300581662
 20
11.0171331275
 30
0.0
 10
17.6573119215
 20
11.0240858925
 30
0.0
 10
17.6863324125
 20
11.0274322984
 30
0.0
 10
17.7109144337
 20
11.0281171213
 30
0.0
 10
17.7368735321
 20
11.0273979752
 30
0.0
 10
17.7700880825
 20
11.0237999259
 30
0.0
 10
17.8099750117
 20
11.0154803903
 30
0.0
 10
17.8492537824
 20
11.0033277551
 30
0.0
 10
17.8868642091
 20
10.9876682676
 30
0.0
 10
17.9162990854
 20
10.9718788636
 30
0.0
 10
17.9381196664
 20
10.9578140213
 30
0.0
 10
17.9532871046
 20
10.9468000677
 30
0.0
 10
17.967323497
 20
10.9352758782
 30
0.0
 10
17.9840581486
 20
10.9196645791
 30
0.0
 10
17.9986001824
 20
10.9030857488
 30
0.0
 10
18.0103984784
 20
10.8856938929
 30
0.0
 10
18.0152700453
 20
10.8769239139
 30
0.0
 10
18.0174211313
 20
10.8725404613
 30
0.0
  0
SPLINE
  5
338
100
AcDbEntity
  8
0
100
AcDbSpline
 62
7
  6
CONTINUOUS
 70
0
 71
3
 72
30
 73
26
 74
0
 42
0.0000001
 43
0.0000001
 44
0.0000000001
 40
0.0
 40
0.0
 40
0.0
 40
0.0
 40
0.0214553341
 40
0.0432083729
 40
0.0655330006
 40
0.0886722866
 40
0.1380505866
 40
0.1646117553
 40
0.1924788247
 40
0.2521129346
 40
0.3167064854
 40
0.3506678865
 40
0.3855716317
 40
0.4576368264
 40
0.5317120243
 40
0.6064679924
 40
0.680532499
 40
0.7525804194
 40
0.7874746335
 40
0.821421386
 40
0.8542962146
 40
0.8860073386
 40
0.9456303346
 40
0.9734895369
 40
1.0
 40
1.0
 40
1.0
 40
1.0
 10
12.6438898042
 20
13.4327919995
 30
0.0
 10
12.6450573643
 20
13.436567315
 30
0.0
 10
12.6479672159
 20
13.4440096816
 30
0.0
 10
12.6539356861
 20
13.4545438839
 30
0.0
 10
12.6614786606
 20
13.4644092738
 30
0.0
 10
12.6738180455
 20
13.4768300758
 30
0.0
 10
12.6889447852
 20
13.4873431632
 30
0.0
 10
12.7060656157
 20
13.4958868687
 30
0.0
 10
12.7256467236
 20
13.5035730006
 30
0.0
 10
12.752900479
 20
13.5105257656
 30
0.0
 10
12.78192097
 20
13.5138721715
 30
0.0
 10
12.8065029912
 20
13.5145569943
 30
0.0
 10
12.8324620895
 20
13.5138378483
 30
0.0
 10
12.86567664
 20
13.510239799
 30
0.0
 10
12.9055635692
 20
13.5019202634
 30
0.0
 10
12.9448423398
 20
13.4897676282
 30
0.0
 10
12.9824527665
 20
13.4741081407
 30
0.0
 10
13.0118876429
 20
13.4583187367
 30
0.0
 10
13.0337082238
 20
13.4442538943
 30
0.0
 10
13.0488756621
 20
13.4332399408
 30
0.0
 10
13.0629120545
 20
13.4217157513
 30
0.0
 10
13.0796467061
 20
13.4061044522
 30
0.0
 10
13.0941887399
 20
13.3895256218
 30
0.0
 10
13.1059870359
 20
13.372133766
 30
0.0
 10
13.1108586027
 20
13.363363787
 30
0.0
 10
13.1130096888
 20
13.3589803344
 30
0.0
  0
SPLINE
  5
339
100
AcDbEntity
  8
0
100
AcDbSpline
 62
7
  6
CONTINUOUS
 70
0
 71
3
 72
30
 73
26
 74
0
 42
0.0000001
 43
0.0000001
 44
0.0000000001
 40
0.0
 40
0.0
 40
0.0
 40
0.0
 40
0.0214553341
 40
0.0432083729
 40
0.0655330006
 40
0.0886722866
 40
0.1380505866
 40
0.1646117553
 40
0.1924788247
 40
0.2521129346
 40
0.3167064854
 40
0.3506678865
 40
0.3855716317
 40
0.4576368264
 40
0.5317120243
 40
0.6064679924
 40
0.680532499
 40
0.7525804194
 40
0.7874746335
 40
0.821421386
 40
0.8542962146
 40
0.8860073386
 40
0.9456303346
 40
0.9734895369
 40
1.0
 40
1.0
 40
1.0
 40
1.0
 10
16.3281337802
 20
13.4327919995
 30
0.0
 10
16.3293013403
 20
13.436567315
 30
0.0
 10
16.332211192
 20
13.4440096816
 30
0.0
 10
16.3381796621
 20
13.4545438839
 30
0.0
 10
16.3457226367
 20
13.4644092738
 30
0.0
 10
16.3580620215
 20
13.4768300758
 30
0.0
 10
16.3731887612
 20
13.4873431632
 30
0.0
 10
16.3903095917
 20
13.4958868687
 30
0.0
 10
16.4098906997
 20
13.5035730006
 30
0.0
 10
16.437144455
 20
13.5105257656
 30
0.0
 10
16.466164946
 20
13.5138721715
 30
0.0
 10
16.4907469672
 20
13.5145569943
 30
0.0
 10
16.5167060655
 20
13.5138378483
 30
0.0
 10
16.549920616
 20
13.510239799
 30
0.0
 10
16.5898075452
 20
13.5019202634
 30
0.0
 10
16.6290863159
 20
13.4897676282
 30
0.0
 10
16.6666967425
 20
13.4741081407
 30
0.0
 10
16.6961316189
 20
13.4583187367
 30
0.0
 10
16.7179521999
 20
13.4442538943
 30
0.0
 10
16.7331196381
 20
13.4332399408
 30
0.0
 10
16.7471560305
 20
13.4217157513
 30
0.0
 10
16.7638906821
 20
13.4061044522
 30
0.0
 10
16.7784327159
 20
13.3895256218
 30
0.0
 10
16.7902310119
 20
13.372133766
 30
0.0
 10
16.7951025787
 20
13.363363787
 30
0.0
 10
16.7972536648
 20
13.3589803344
 30
0.0
  0
SPLINE
  5
33A
100
AcDbEntity
  8
0
100
AcDbSpline
 62
7
  6
CONTINUOUS
 70
0
 71
3
 72
11
 73
7
 74
0
 42
0.0000001
 43
0.0000001
 44
0.0000000001
 40
0.0
 40
0.0
 40
0.0
 40
0.0
 40
0.2546914705
 40
0.5053428007
 40
0.7532952941
 40
1.0
 40
1.0
 40
1.0
 40
1.0
 10
17.1520278915
 20
12.9545130544
 30
0.0
 10
17.161066682
 20
12.9636338788
 30
0.0
 10
17.1780404722
 20
12.9827192704
 30
0.0
 10
17.1998611426
 20
13.0139113831
 30
0.0
 10
17.2175525061
 20
13.0471675773
 30
0.0
 10
17.226437386
 20
13.0705547445
 30
0.0
 10
17.2301097451
 20
13.0824385029
 30
0.0
  0
SPLINE
  5
33B
100
AcDbEntity
  8
0
100
AcDbSpline
 62
7
  6
CONTINUOUS
 70
0
 71
3
 72
12
 73
8
 74
0
 42
0.0000001
 43
0.0000001
 44
0.0000000001
 40
0.0
 40
0.0
 40
0.0
 40
0.0
 40
0.259718938
 40
0.5112350836
 40
0.7570214532
 40
0.8786960918
 40
1.0
 40
1.0
 40
1.0
 40
1.0
 10
16.0322896905
 20
11.2206181684
 30
0.0
 10
16.0435049931
 20
11.2312950397
 30
0.0
 10
16.0644349709
 20
11.2535685898
 30
0.0
 10
16.0911569756
 20
11.2900814188
 30
0.0
 10
16.1089761002
 20
11.3225347056
 30
0.0
 10
16.1203644335
 20
11.3493769396
 30
0.0
 10
16.1251118492
 20
11.3630782019
 30
0.0
 10
16.1272464772
 20
11.3699883042
 30
0.0
  0
SPLINE
  5
33C
100
AcDbEntity
  8
0
100
AcDbSpline
 62
7
  6
CONTINUOUS
 70
0
 71
3
 72
9
 73
5
 74
0
 42
0.0000001
 43
0.0000001
 44
0.0000000001
 40
0.0
 40
0.0
 40
0.0
 40
0.0
 40
0.2452432718
 40
1.0
 40
1.0
 40
1.0
 40
1.0
 10
14.1789544715
 20
11.6898263908
 30
0.0
 10
14.1813709494
 20
11.6849021265
 30
0.0
 10
14.1914814554
 20
11.6649498081
 30
0.0
 10
14.2025913412
 20
11.64550732
 30
0.0
 10
14.2114553501
 20
11.6311404805
 30
0.0
  0
SPLINE
  5
33D
100
AcDbEntity
  8
0
100
AcDbSpline
 62
7
  6
CONTINUOUS
 70
0
 71
3
 72
15
 73
11
 74
0
 42
0.0000001
 43
0.0000001
 44
0.0000000001
 40
0.0
 40
0.0
 40
0.0
 40
0.0
 40
0.1415753201
 40
0.2772581035
 40
0.4074186367
 40
0.5325858978
 40
0.6534732918
 40
0.7709619785
 40
0.8860861648
 40
1.0
 40
1.0
 40
1.0
 40
1.0
 10
15.9891584121
 20
11.0817827878
 30
0.0
 10
16.0066501879
 20
11.0895638415
 30
0.0
 10
16.0403426963
 20
11.106120483
 30
0.0
 10
16.0875964004
 20
11.1345808138
 30
0.0
 10
16.130239507
 20
11.1659812912
 30
0.0
 10
16.1680318969
 20
11.2001761607
 30
0.0
 10
16.2007649806
 20
11.2369910572
 30
0.0
 10
16.2282540444
 20
11.2762380695
 30
0.0
 10
16.2503211604
 20
11.3177049853
 30
0.0
 10
16.261364667
 20
11.3467452872
 30
0.0
 10
16.2659121588
 20
11.3614626163
 30
0.0
  0
SPLINE
  5
33E
100
AcDbEntity
  8
0
100
AcDbSpline
 62
7
  6
CONTINUOUS
 70
0
 71
3
 72
15
 73
11
 74
0
 42
0.0000001
 43
0.0000001
 44
0.0000000001
 40
0.0
 40
0.0
 40
0.0
 40
0.0
 40
0.1380796947
 40
0.2714575929
 40
0.4004236471
 40
0.5254305881
 40
0.6471187788
 40
0.7662255349
 40
0.8835646603
 40
1.0
 40
1.0
 40
1.0
 40
1.0
 10
16.2398020411
 20
11.7289927362
 30
0.0
 10
16.2466681331
 20
11.715001112
 30
0.0
 10
16.259171754
 20
11.686989674
 30
0.0
 10
16.2742895295
 20
11.6443442533
 30
0.0
 10
16.285361187
 20
11.6019887089
 30
0.0
 10
16.2923191637
 20
11.5600985095
 30
0.0
 10
16.2951443022
 20
11.5188388024
 30
0.0
 10
16.2938088939
 20
11.4783639828
 30
0.0
 10
16.2883205569
 20
11.438840981
 30
0.0
 10
16.2818955194
 20
11.4131856122
 30
0.0
 10
16.2780155582
 20
11.4006289368
 30
0.0
  0
SPLINE
  5
33F
100
AcDbEntity
  8
0
100
AcDbSpline
 62
7
  6
CONTINUOUS
 70
0
 71
3
 72
17
 73
13
 74
0
 42
0.0000001
 43
0.0000001
 44
0.0000000001
 40
0.0
 40
0.0
 40
0.0
 40
0.0
 40
0.1190222324
 40
0.1786143373
 40
0.238396102
 40
0.3589011991
 40
0.4813128232
 40
0.5434224579
 40
0.6061877946
 40
0.733895248
 40
0.8650250821
 40
1.0
 40
1.0
 40
1.0
 40
1.0
 10
12.341170588
 20
13.5410271964
 30
0.0
 10
12.3376348734
 20
13.52958562
 30
0.0
 10
12.3333743837
 20
13.5120667601
 30
0.0
 10
12.3298326443
 20
13.488333445
 30
0.0
 10
12.3276923285
 20
13.4642797613
 30
0.0
 10
12.3276869966
 20
13.4337514255
 30
0.0
 10
12.3311286799
 20
13.403190851
 30
0.0
 10
12.3358515391
 20
13.3787529756
 30
0.0
 10
12.3419488539
 20
13.3540714871
 30
0.0
 10
12.3520603458
 20
13.32327596
 30
0.0
 10
12.3678488998
 20
13.286881831
 30
0.0
 10
12.3805657444
 20
13.263280605
 30
0.0
 10
12.3874638062
 20
13.251582441
 30
0.0
  0
SPLINE
  5
340
100
AcDbEntity
  8
0
100
AcDbSpline
 62
7
  6
CONTINUOUS
 70
0
 71
3
 72
14
 73
10
 74
0
 42
0.0000001
 43
0.0000001
 44
0.0000000001
 40
0.0
 40
0.0
 40
0.0
 40
0.0
 40
0.2250971705
 40
0.3443771228
 40
0.4680001734
 40
0.5957608544
 40
0.7273561253
 40
0.8623444184
 40
1.0
 40
1.0
 40
1.0
 40
1.0
 10
12.3874638062
 20
13.251582441
 30
0.0
 10
12.4056512644
 20
13.2207390136
 30
0.0
 10
12.438315017
 20
13.1762912464
 30
0.0
 10
12.4891965494
 20
13.1219061998
 30
0.0
 10
12.5325849954
 20
13.0818955935
 30
0.0
 10
12.5801152425
 20
13.0437216475
 30
0.0
 10
12.6314528515
 20
13.0076041118
 30
0.0
 10
12.6861960511
 20
12.9738037399
 30
0.0
 10
12.7243532216
 20
12.9531335474
 30
0.0
 10
12.7438836694
 20
12.9432319956
 30
0.0
  0
SPLINE
  5
341
100
AcDbEntity
  8
0
100
AcDbSpline
 62
7
  6
CONTINUOUS
 70
0
 71
3
 72
21
 73
17
 74
0
 42
0.0000001
 43
0.0000001
 44
0.0000000001
 40
0.0
 40
0.0
 40
0.0
 40
0.0
 40
0.0496592731
 40
0.0997735852
 40
0.1507776556
 40
0.2030715014
 40
0.2569996081
 40
0.3128503785
 40
0.3708525176
 40
0.4311694205
 40
0.4939138873
 40
0.5591357442
 40
0.696919345
 40
0.8442184805
 40
0.9211632914
 40
1.0
 40
1.0
 40
1.0
 40
1.0
 10
12.4628103884
 20
13.9346485145
 30
0.0
 10
12.4657548608
 20
13.9441800501
 30
0.0
 10
12.4728098738
 20
13.9629991276
 30
0.0
 10
12.4867062914
 20
13.9899845059
 30
0.0
 10
12.5038618803
 20
14.0156646664
 30
0.0
 10
12.5241979614
 20
14.039908587
 30
0.0
 10
12.5476037731
 20
14.062617886
 30
0.0
 10
12.5739718012
 20
14.0836899024
 30
0.0
 10
12.6031797925
 20
14.1030317126
 30
0.0
 10
12.6350893137
 20
14.1205696439
 30
0.0
 10
12.669562051
 20
14.1362188689
 30
0.0
 10
12.7196407096
 20
14.1548245497
 30
0.0
 10
12.7878980019
 20
14.1727181076
 30
0.0
 10
12.8600122959
 20
14.1831518705
 30
0.0
 10
12.9207664115
 20
14.1874038721
 30
0.0
 10
12.952067382
 20
14.1881079513
 30
0.0
 10
12.9679047681
 20
14.1881079513
 30
0.0
  0
SPLINE
  5
342
100
AcDbEntity
  8
0
100
AcDbSpline
 62
7
  6
CONTINUOUS
 70
0
 71
3
 72
12
 73
8
 74
0
 42
0.0000001
 43
0.0000001
 44
0.0000000001
 40
0.0
 40
0.0
 40
0.0
 40
0.0
 40
0.2641485548
 40
0.5169565401
 40
0.7607133267
 40
0.8806529627
 40
1.0
 40
1.0
 40
1.0
 40
1.0
 10
14.6726618019
 20
11.9793284133
 30
0.0
 10
14.6708279067
 20
11.9733939264
 30
0.0
 10
14.6681469699
 20
11.9614683119
 30
0.0
 10
14.6673244857
 20
11.9435039138
 30
0.0
 10
14.6694770784
 20
11.9290598254
 30
0.0
 10
14.6728515677
 20
11.9181972887
 30
0.0
 10
14.675071906
 20
11.9130136313
 30
0.0
 10
14.6763088255
 20
11.9104945056
 30
0.0
  0
SPLINE
  5
343
100
AcDbEntity
  8
0
100
AcDbSpline
 62
7
  6
CONTINUOUS
 70
0
 71
3
 72
14
 73
10
 74
0
 42
0.0000001
 43
0.0000001
 44
0.0000000001
 40
0.0
 40
0.0
 40
0.0
 40
0.0
 40
0.1122651679
 40
0.2259701691
 40
0.3424438751
 40
0.4628802162
 40
0.7189335486
 40
0.8562084059
 40
1.0
 40
1.0
 40
1.0
 40
1.0
 10
13.8640572707
 20
10.9463521264
 30
0.0
 10
13.8651784949
 20
10.9499776141
 30
0.0
 10
13.8679497431
 20
10.9571267422
 30
0.0
 10
13.8735869255
 20
10.9672749602
 30
0.0
 10
13.8806786782
 20
10.9768137204
 30
0.0
 10
13.8922391766
 20
10.9888643116
 30
0.0
 10
13.9064017797
 20
10.9991853736
 30
0.0
 10
13.9224543473
 20
11.0076952685
 30
0.0
 10
13.9312201603
 20
11.0113988846
 30
0.0
 10
13.935768306
 20
11.013113454
 30
0.0
  0
SPLINE
  5
344
100
AcDbEntity
  8
0
100
AcDbSpline
 62
7
  6
CONTINUOUS
 70
0
 71
3
 72
15
 73
11
 74
0
 42
0.0000001
 43
0.0000001
 44
0.0000000001
 40
0.0
 40
0.0
 40
0.0
 40
0.0
 40
0.119028163
 40
0.2383394258
 40
0.3588274506
 40
0.4812322013
 40
0.6060865081
 40
0.7338219189
 40
0.8649799801
 40
1.0
 40
1.0
 40
1.0
 40
1.0
 10
13.4688385369
 20
11.243081522
 30
0.0
 10
13.4652953454
 20
11.2316157502
 30
0.0
 10
13.4596029014
 20
11.2081971963
 30
0.0
 10
13.4553499259
 20
11.1721874942
 30
0.0
 10
13.4553642129
 20
11.1355865026
 30
0.0
 10
13.4595518324
 20
11.0986727684
 30
0.0
 10
13.467765704
 20
11.0616998419
 30
0.0
 10
13.4798905928
 20
11.0248951036
 30
0.0
 10
13.4957581215
 20
10.9884328178
 30
0.0
 10
13.5085341834
 20
10.9647926084
 30
0.0
 10
13.515463581
 20
10.9530751032
 30
0.0
  0
SPLINE
  5
345
100
AcDbEntity
  8
0
100
AcDbSpline
 62
7
  6
CONTINUOUS
 70
0
 71
3
 72
29
 73
25
 74
0
 42
0.0000001
 43
0.0000001
 44
0.0000000001
 40
0.0
 40
0.0
 40
0.0
 40
0.0
 40
0.053951165
 40
0.0820863538
 40
0.1109945235
 40
0.1710523805
 40
0.2021657399
 40
0.2339360619
 40
0.2992088062
 40
0.3663533169
 40
0.4004412259
 40
0.4347560147
 40
0.5037038388
 40
0.5724974152
 40
0.6066206636
 40
0.640443937
 40
0.7068518957
 40
0.7711443431
 40
0.8023484549
 40
0.8328557615
 40
0.8916184056
 40
0.9198583458
 40
0.9473267524
 40
1.0
 40
1.0
 40
1.0
 40
1.0
 10
13.515463581
 20
10.9530751032
 30
0.0
 10
13.5284408062
 20
10.9311308143
 30
0.0
 10
13.5506200716
 20
10.89913051
 30
0.0
 10
13.5842748594
 20
10.8588806054
 30
0.0
 10
13.6221584285
 20
10.8185082766
 30
0.0
 10
13.6643038031
 20
10.7803429339
 30
0.0
 10
13.7100327578
 20
10.7444883112
 30
0.0
 10
13.759358914
 20
10.7093205434
 30
0.0
 10
13.8254494108
 20
10.6684932878
 30
0.0
 10
13.895583171
 20
10.6326415443
 30
0.0
 10
13.9542110188
 20
10.6068125342
 30
0.0
 10
14.0145676595
 20
10.5829083081
 30
0.0
 10
14.0918007403
 20
10.5572487359
 30
0.0
 10
14.1706369422
 20
10.537408169
 30
0.0
 10
14.2341086561
 20
10.5252278649
 30
0.0
 10
14.2968863829
 20
10.5156650868
 30
0.0
 10
14.3743857516
 20
10.5084718965
 30
0.0
 10
14.4509931454
 20
10.5077513492
 30
0.0
 10
14.5104522859
 20
10.5112756771
 30
0.0
 10
14.567072068
 20
10.517344232
 30
0.0
 10
14.621816042
 20
10.5273635436
 30
0.0
 10
14.6740224776
 20
10.5416393526
 30
0.0
 10
14.7225336296
 20
10.5581155581
 30
0.0
 10
14.7572079279
 20
10.5737392312
 30
0.0
 10
14.779049329
 20
10.5856760401
 30
0.0
  0
SPLINE
  5
346
100
AcDbEntity
  8
0
100
AcDbSpline
 62
7
  6
CONTINUOUS
 70
0
 71
3
 72
38
 73
34
 74
0
 42
0.0000001
 43
0.0000001
 44
0.0000000001
 40
0.0
 40
0.0
 40
0.0
 40
0.0
 40
0.0265199595
 40
0.0543704679
 40
0.0835374393
 40
0.1139939639
 40
0.1456958619
 40
0.1785672234
 40
0.2125041113
 40
0.2473870884
 40
0.3194139597
 40
0.3934611921
 40
0.4681980556
 40
0.5054077071
 40
0.5422778522
 40
0.5786442277
 40
0.61434976
 40
0.649245984
 40
0.6831990381
 40
0.716087268
 40
0.7478112195
 40
0.77828991
 40
0.8074714849
 40
0.8353326171
 40
0.848773742
 40
0.8618932738
 40
0.8871926853
 40
0.911335075
 40
0.9344686662
 40
0.9567877331
 40
0.978534857
 40
0.9892860762
 40
1.0
 40
1.0
 40
1.0
 40
1.0
 10
15.7576121345
 20
11.1366017608
 30
0.0
 10
15.7508328719
 20
11.1504164455
 30
0.0
 10
15.7354905385
 20
11.178047176
 30
0.0
 10
15.7082515925
 20
11.2182091376
 30
0.0
 10
15.6764039738
 20
11.2577991908
 30
0.0
 10
15.6401846152
 20
11.2965425405
 30
0.0
 10
15.5998344929
 20
11.3341841012
 30
0.0
 10
15.5556275134
 20
11.3704771906
 30
0.0
 10
15.5078621806
 20
11.4051798237
 30
0.0
 10
15.4391344255
 20
11.4494694624
 30
0.0
 10
15.3464292782
 20
11.4992045244
 30
0.0
 10
15.2279742481
 20
11.5485212975
 30
0.0
 10
15.1247043967
 20
11.5804785431
 30
0.0
 10
15.0405803044
 20
11.6000858321
 30
0.0
 10
14.977512353
 20
11.6116193216
 30
0.0
 10
14.9148184164
 20
11.6199159062
 30
0.0
 10
14.8529240314
 20
11.6249295045
 30
0.0
 10
14.7922488102
 20
11.6266121435
 30
0.0
 10
14.7332053241
 20
11.6249678938
 30
0.0
 10
14.6761932381
 20
11.6199909107
 30
0.0
 10
14.6215982168
 20
11.6117286584
 30
0.0
 10
14.5697887031
 20
11.6002229875
 30
0.0
 10
14.5211166251
 20
11.5855562047
 30
0.0
 10
14.4829916164
 20
11.570599902
 30
0.0
 10
14.4544350926
 20
11.5570941998
 30
0.0
 10
14.4278566579
 20
11.5429640493
 30
0.0
 10
14.3970707165
 20
11.5235971058
 30
0.0
 10
14.3639974905
 20
11.4973844141
 30
0.0
 10
14.3354648335
 20
11.4686591173
 30
0.0
 10
14.3117077903
 20
11.4375971022
 30
0.0
 10
14.2959665945
 20
11.4098244442
 30
0.0
 10
14.2860128363
 20
11.3867916367
 30
0.0
 10
14.281904802
 20
11.3750191222
 30
0.0
 10
14.2800698739
 20
11.3690792385
 30
0.0
  0
SPLINE
  5
347
100
AcDbEntity
  8
0
100
AcDbSpline
 62
7
  6
CONTINUOUS
 70
0
 71
3
 72
43
 73
39
 74
0
 42
0.0000001
 43
0.0000001
 44
0.0000000001
 40
0.0
 40
0.0
 40
0.0
 40
0.0
 40
0.0112151774
 40
0.0224548706
 40
0.0337510586
 40
0.0451345016
 40
0.0566342598
 40
0.0682767351
 40
0.0800856212
 40
0.0920828303
 40
0.1167181752
 40
0.1423392748
 40
0.1690523552
 40
0.1969255819
 40
0.2259893575
 40
0.2562414338
 40
0.2876471385
 40
0.3201463062
 40
0.3536543905
 40
0.3880675819
 40
0.4232652747
 40
0.4591130165
 40
0.4954661125
 40
0.5321712093
 40
0.5690700669
 40
0.6060009831
 40
0.642802157
 40
0.679313421
 40
0.715379522
 40
0.7508515865
 40
0.7855912406
 40
0.8194713295
 40
0.8523822211
 40
0.8842306153
 40
0.9149443368
 40
0.9444797363
 40
0.9728311028
 40
1.0
 40
1.0
 40
1.0
 40
1.0
 10
17.1464458513
 20
11.0979384365
 30
0.0
 10
17.1415176923
 20
11.0819909082
 30
0.0
 10
17.1305107153
 20
11.0504006606
 30
0.0
 10
17.1106586316
 20
11.0042152288
 30
0.0
 10
17.0875138869
 20
10.9593047567
 30
0.0
 10
17.0611285906
 20
10.9157671225
 30
0.0
 10
17.0315736392
 20
10.8736862117
 30
0.0
 10
16.998935638
 20
10.8331357259
 30
0.0
 10
16.9632945051
 20
10.7941885533
 30
0.0
 10
16.9114275794
 20
10.7440579977
 30
0.0
 10
16.8391797613
 20
10.6857041382
 30
0.0
 10
16.7426695584
 20
10.6236311963
 30
0.0
 10
16.6362740493
 20
10.569115342
 30
0.0
 10
16.5207158236
 20
10.5223920937
 30
0.0
 10
16.3967387676
 20
10.4836328062
 30
0.0
 10
16.2651188185
 20
10.4530084429
 30
0.0
 10
16.126679072
 20
10.4306381518
 30
0.0
 10
15.9822863853
 20
10.4166251429
 30
0.0
 10
15.8328527868
 20
10.4110217986
 30
0.0
 10
15.6793302803
 20
10.4138392972
 30
0.0
 10
15.5227056014
 20
10.4250481862
 30
0.0
 10
15.3639911577
 20
10.4445541201
 30
0.0
 10
15.2042220286
 20
10.472234315
 30
0.0
 10
15.0444398411
 20
10.5078878988
 30
0.0
 10
14.8856958937
 20
10.5512916647
 30
0.0
 10
14.7290297724
 20
10.6021469519
 30
0.0
 10
14.5754745732
 20
10.6601287146
 30
0.0
 10
14.4260378781
 20
10.724853871
 30
0.0
 10
14.2817007365
 20
10.7959025574
 30
0.0
 10
14.1434106757
 20
10.8728222027
 30
0.0
 10
14.0120666869
 20
10.9551137667
 30
0.0
 10
13.8885287923
 20
11.0422702105
 30
0.0
 10
13.7735913849
 20
11.1337407841
 30
0.0
 10
13.668010102
 20
11.2289804272
 30
0.0
 10
13.5724590596
 20
11.3274057797
 30
0.0
 10
13.4875629689
 20
11.4284717147
 30
0.0
 10
13.413914665
 20
11.5315941963
 30
0.0
 10
13.3717690401
 20
11.6028249232
 30
0.0
 10
13.3528787656
 20
11.6385768477
 30
0.0
  0
SPLINE
  5
348
100
AcDbEntity
  8
0
100
AcDbSpline
 62
7
  6
CONTINUOUS
 70
0
 71
3
 72
17
 73
13
 74
0
 42
0.0000001
 43
0.0000001
 44
0.0000000001
 40
0.0
 40
0.0
 40
0.0
 40
0.0
 40
0.1359326121
 40
0.2678159123
 40
0.3959670975
 40
0.458803137
 40
0.5208951131
 40
0.6431101303
 40
0.7632365012
 40
0.8227391274
 40
0.8819762629
 40
1.0
 40
1.0
 40
1.0
 40
1.0
 10
13.3362418778
 20
11.6712270973
 30
0.0
 10
13.3233553489
 20
11.6974870824
 30
0.0
 10
13.2998442763
 20
11.7501781886
 30
0.0
 10
13.2713788421
 20
11.8305863492
 30
0.0
 10
13.2538352469
 20
11.8979171033
 30
0.0
 10
13.2437464116
 20
11.951452596
 30
0.0
 10
13.2363509852
 20
12.004135836
 30
0.0
 10
13.2319233339
 20
12.0696092342
 30
0.0
 10
13.2340973912
 20
12.134650003
 30
0.0
 10
13.2398641857
 20
12.1857499219
 30
0.0
 10
13.2482530611
 20
12.2360209009
 30
0.0
 10
13.2575500804
 20
12.2731154333
 30
0.0
 10
13.2650486715
 20
12.2973808832
 30
0.0
  0
SPLINE
  5
349
100
AcDbEntity
  8
0
100
AcDbSpline
 62
7
  6
CONTINUOUS
 70
0
 71
3
 72
14
 73
10
 74
0
 42
0.0000001
 43
0.0000001
 44
0.0000000001
 40
0.0
 40
0.0
 40
0.0
 40
0.0
 40
0.110296869
 40
0.1681427314
 40
0.2273803705
 40
0.349265497
 40
0.4748381345
 40
0.7339051046
 40
1.0
 40
1.0
 40
1.0
 40
1.0
 10
16.027709298
 20
13.8668553484
 30
0.0
 10
16.0376633985
 20
13.870111795
 30
0.0
 10
16.0527559921
 20
13.8753252067
 30
0.0
 10
16.0731085491
 20
13.8825313059
 30
0.0
 10
16.0944929523
 20
13.8901209018
 30
0.0
 10
16.1219697608
 20
13.8997723206
 30
0.0
 10
16.1675315375
 20
13.915185175
 30
0.0
 10
16.22658626
 20
13.933426372
 30
0.0
 10
16.2749499449
 20
13.9457156751
 30
0.0
 10
16.2996253062
 20
13.9511515611
 30
0.0
  0
SPLINE
  5
34A
100
AcDbEntity
  8
0
100
AcDbSpline
 62
7
  6
CONTINUOUS
 70
0
 71
3
 72
18
 73
14
 74
0
 42
0.0000001
 43
0.0000001
 44
0.0000000001
 40
0.0
 40
0.0
 40
0.0
 40
0.0
 40
0.1155023519
 40
0.2339024968
 40
0.3551465628
 40
0.4791621018
 40
0.5421827022
 40
0.605860052
 40
0.670174026
 40
0.7351050507
 40
0.8006343427
 40
0.8666995278
 40
1.0
 40
1.0
 40
1.0
 40
1.0
 10
12.8946797052
 20
13.9511515611
 30
0.0
 10
12.9055719065
 20
13.9483738582
 30
0.0
 10
12.9275472647
 20
13.942423583
 30
0.0
 10
12.9607010654
 20
13.9326476313
 30
0.0
 10
12.9944819457
 20
13.9220883366
 30
0.0
 10
13.0230316729
 20
13.9128661132
 30
0.0
 10
13.0462335983
 20
13.9053152907
 30
0.0
 10
13.0639118948
 20
13.8995666927
 30
0.0
 10
13.0817826731
 20
13.893808838
 30
0.0
 10
13.0998541013
 20
13.8880867731
 30
0.0
 10
13.1181287501
 20
13.8824425171
 30
0.0
 10
13.1428372563
 20
13.8750883823
 30
0.0
 10
13.161560208
 20
13.8699737151
 30
0.0
 10
13.1741527787
 20
13.8668553484
 30
0.0
  0
SPLINE
  5
34B
100
AcDbEntity
  8
0
100
AcDbSpline
 62
7
  6
CONTINUOUS
 70
0
 71
3
 72
15
 73
11
 74
0
 42
0.0000001
 43
0.0000001
 44
0.0000000001
 40
0.0
 40
0.0
 40
0.0
 40
0.0
 40
0.1164350273
 40
0.2337703705
 40
0.3528732213
 40
0.4745623633
 40
0.599577529
 40
0.7285560297
 40
0.861933628
 40
1.0
 40
1.0
 40
1.0
 40
1.0
 10
16.1272464772
 20
11.3699883042
 30
0.0
 10
16.1306546336
 20
11.3810210042
 30
0.0
 10
16.1363004127
 20
11.4035614251
 30
0.0
 10
16.1411255811
 20
11.4382858161
 30
0.0
 10
16.1422967078
 20
11.4738470177
 30
0.0
 10
16.1398156789
 20
11.5100988979
 30
0.0
 10
16.1337019255
 20
11.546906454
 30
0.0
 10
16.1239715438
 20
11.5841220084
 30
0.0
 10
16.1106898269
 20
11.6215910373
 30
0.0
 10
16.0997049025
 20
11.6462012589
 30
0.0
 10
16.0936728378
 20
11.6584933144
 30
0.0
  0
SPLINE
  5
34C
100
AcDbEntity
  8
0
100
AcDbSpline
 62
7
  6
CONTINUOUS
 70
0
 71
3
 72
9
 73
5
 74
0
 42
0.0000001
 43
0.0000001
 44
0.0000000001
 40
0.0
 40
0.0
 40
0.0
 40
0.0
 40
0.2472755572
 40
1.0
 40
1.0
 40
1.0
 40
1.0
 10
14.0382269902
 20
13.4672468863
 30
0.0
 10
14.0400924155
 20
13.4663011525
 30
0.0
 10
14.047486756
 20
13.4621874844
 30
0.0
 10
14.054257464
 20
13.4569600215
 30
0.0
 10
14.0588402068
 20
13.4525405595
 30
0.0
  0
SPLINE
  5
34D
100
AcDbEntity
  8
0
100
AcDbSpline
 62
7
  6
CONTINUOUS
 70
0
 71
3
 72
9
 73
5
 74
0
 42
0.0000001
 43
0.0000001
 44
0.0000000001
 40
0.0
 40
0.0
 40
0.0
 40
0.0
 40
0.5394613844
 40
1.0
 40
1.0
 40
1.0
 40
1.0
 10
15.5437690096
 20
13.4525405595
 30
0.0
 10
15.5457532999
 20
13.4553299883
 30
0.0
 10
15.5495781547
 20
13.4603985266
 30
0.0
 10
15.553776701
 20
13.4651711298
 30
0.0
 10
15.5558337879
 20
13.4672468863
 30
0.0
  0
SPLINE
  5
34E
100
AcDbEntity
  8
0
100
AcDbSpline
 62
7
  6
CONTINUOUS
 70
0
 71
3
 72
13
 73
9
 74
0
 42
0.0000001
 43
0.0000001
 44
0.0000000001
 40
0.0
 40
0.0
 40
0.0
 40
0.0
 40
0.2487835629
 40
0.5054687102
 40
0.6342952377
 40
0.7614329088
 40
0.8847007626
 40
1.0
 40
1.0
 40
1.0
 40
1.0
 10
15.4752205733
 20
13.400872144
 30
0.0
 10
15.4817268833
 20
13.4039141418
 30
0.0
 10
15.4946461194
 20
13.4107507743
 30
0.0
 10
15.5100073381
 20
13.4207738154
 30
0.0
 10
15.5217434036
 20
13.4298017094
 30
0.0
 10
15.5300106337
 20
13.4369926918
 30
0.0
 10
15.5374520305
 20
13.4444955674
 30
0.0
 10
15.54183952
 20
13.4498281671
 30
0.0
 10
15.5437690096
 20
13.4525405595
 30
0.0
  0
SPLINE
  5
34F
100
AcDbEntity
  8
0
100
AcDbSpline
 62
7
  6
CONTINUOUS
 70
0
 71
3
 72
11
 73
7
 74
0
 42
0.0000001
 43
0.0000001
 44
0.0000000001
 40
0.0
 40
0.0
 40
0.0
 40
0.0
 40
0.1885205498
 40
0.4214328334
 40
0.6951347566
 40
1.0
 40
1.0
 40
1.0
 40
1.0
 10
14.1088081095
 20
13.400872144
 30
0.0
 10
14.1058209463
 20
13.4042614592
 30
0.0
 10
14.0990280216
 20
13.4117366205
 30
0.0
 10
14.0875843749
 20
13.4238434653
 30
0.0
 10
14.0739837616
 20
13.4377445033
 30
0.0
 10
14.0640991356
 20
13.4474690037
 30
0.0
 10
14.0588402068
 20
13.4525405595
 30
0.0
  0
SPLINE
  5
350
100
AcDbEntity
  8
0
100
AcDbSpline
 62
7
  6
CONTINUOUS
 70
0
 71
3
 72
39
 73
35
 74
0
 42
0.0000001
 43
0.0000001
 44
0.0000000001
 40
0.0
 40
0.0
 40
0.0
 40
0.0
 40
0.0107135682
 40
0.0214644185
 40
0.0322893691
 40
0.0432238948
 40
0.05430191
 40
0.0655552779
 40
0.0886884916
 40
0.1128310765
 40
0.1381302431
 40
0.1646832771
 40
0.1925445171
 40
0.2217251536
 40
0.2522041704
 40
0.2839266643
 40
0.3168150941
 40
0.3507665297
 40
0.3856624921
 40
0.4577087507
 40
0.5317648044
 40
0.6064997998
 40
0.6437045611
 40
0.6805673293
 40
0.7169240272
 40
0.7526164896
 40
0.7874977259
 40
0.8214337773
 40
0.8543046349
 40
0.8860075054
 40
0.9164633859
 40
0.9456283597
 40
0.9734780765
 40
1.0
 40
1.0
 40
1.0
 40
1.0
 10
14.2697239044
 20
11.9783314492
 30
0.0
 10
14.27200101
 20
11.9857027357
 30
0.0
 10
14.2770999044
 20
12.0003112462
 30
0.0
 10
14.2863344501
 20
12.021671578
 30
0.0
 10
14.2971402146
 20
12.0424620546
 30
0.0
 10
14.309496658
 20
12.0626454906
 30
0.0
 10
14.3233844935
 20
12.0821874218
 30
0.0
 10
14.3440986704
 20
12.1075673974
 30
0.0
 10
14.3738784347
 20
12.1375617943
 30
0.0
 10
14.4149261024
 20
12.1700856382
 30
0.0
 10
14.4613290228
 20
12.1992806052
 30
0.0
 10
14.5127574096
 20
12.2249673988
 30
0.0
 10
14.568865406
 20
12.2469770148
 30
0.0
 10
14.629269322
 20
12.2651834509
 30
0.0
 10
14.693565377
 20
12.279455105
 30
0.0
 10
14.7613174618
 20
12.2897165927
 30
0.0
 10
14.8320691313
 20
12.2958835278
 30
0.0
 10
14.9053431915
 20
12.2979336295
 30
0.0
 10
15.0068064555
 20
12.2951064414
 30
0.0
 10
15.13663771
 20
12.2810541163
 30
0.0
 10
15.2925367545
 20
12.2485280549
 30
0.0
 10
15.4206994993
 20
12.208871962
 30
0.0
 10
15.5205879553
 20
12.1699930789
 30
0.0
 10
15.5932457593
 20
12.1376018342
 30
0.0
 10
15.6632485595
 20
12.102164873
 30
0.0
 10
15.7301227674
 20
12.0639222277
 30
0.0
 10
15.7934122072
 20
12.0231311337
 30
0.0
 10
15.852690295
 20
11.9800706648
 30
0.0
 10
15.9075499294
 20
11.935027242
 30
0.0
 10
15.9576265281
 20
11.8883148726
 30
0.0
 10
16.0025740074
 20
11.8402336375
 30
0.0
 10
16.0420975869
 20
11.7911047221
 30
0.0
 10
16.0759019231
 20
11.7412635645
 30
0.0
 10
16.0949416503
 20
11.7069719949
 30
0.0
 10
16.1033554908
 20
11.6898263908
 30
0.0
  0
SPLINE
  5
351
100
AcDbEntity
  8
0
100
AcDbSpline
 62
7
  6
CONTINUOUS
 70
0
 71
3
 72
11
 73
7
 74
0
 42
0.0000001
 43
0.0000001
 44
0.0000000001
 40
0.0
 40
0.0
 40
0.0
 40
0.0
 40
0.2611400816
 40
0.5157765365
 40
0.7624760249
 40
1.0
 40
1.0
 40
1.0
 40
1.0
 10
17.9879581345
 20
11.4648110956
 30
0.0
 10
18.0095917947
 20
11.4538432565
 30
0.0
 10
18.0516998172
 20
11.4309272889
 30
0.0
 10
18.1117467923
 20
11.3932928433
 30
0.0
 10
18.1674379963
 20
11.3531082664
 30
0.0
 10
18.202024409
 20
11.3242842469
 30
0.0
 10
18.2184128696
 20
11.3095149688
 30
0.0
  0
SPLINE
  5
352
100
AcDbEntity
  8
0
100
AcDbSpline
 62
7
  6
CONTINUOUS
 70
0
 71
3
 72
17
 73
13
 74
0
 42
0.0000001
 43
0.0000001
 44
0.0000000001
 40
0.0
 40
0.0
 40
0.0
 40
0.0
 40
0.1531587607
 40
0.2263374447
 40
0.2973030389
 40
0.3661119726
 40
0.4328393318
 40
0.5603462067
 40
0.6803496868
 40
0.7933055656
 40
0.8996897478
 40
1.0
 40
1.0
 40
1.0
 40
1.0
 10
18.2184128696
 20
11.3095149688
 30
0.0
 10
18.2264889649
 20
11.302236793
 30
0.0
 10
18.2386470762
 20
11.2917277971
 30
0.0
 10
18.2548861115
 20
11.2782499146
 30
0.0
 10
18.2665949657
 20
11.2686892187
 30
0.0
 10
18.2779905998
 20
11.2594694621
 30
0.0
 10
18.2925321993
 20
11.2477572648
 30
0.0
 10
18.3098870632
 20
11.2337443574
 30
0.0
 10
18.3295885464
 20
11.2174159793
 30
0.0
 10
18.3477833696
 20
11.2016256653
 30
0.0
 10
18.3644028526
 20
11.1861704143
 30
0.0
 10
18.3746802974
 20
11.1756877953
 30
0.0
 10
18.3795064893
 20
11.1704525572
 30
0.0
  0
SPLINE
  5
353
100
AcDbEntity
  8
0
100
AcDbSpline
 62
7
  6
CONTINUOUS
 70
0
 71
3
 72
14
 73
10
 74
0
 42
0.0000001
 43
0.0000001
 44
0.0000000001
 40
0.0
 40
0.0
 40
0.0
 40
0.0
 40
0.2755137579
 40
0.4091997998
 40
0.539246661
 40
0.6648314797
 40
0.7847591659
 40
0.8974385989
 40
1.0
 40
1.0
 40
1.0
 40
1.0
 10
17.2518385405
 20
13.4683982316
 30
0.0
 10
17.2577328297
 20
13.4475901491
 30
0.0
 10
17.2649979009
 20
13.4162338917
 30
0.0
 10
17.2715767056
 20
13.3744090596
 30
0.0
 10
17.2748967294
 20
13.3440172514
 30
0.0
 10
17.2766902376
 20
13.3145807544
 30
0.0
 10
17.2770259255
 20
13.2864536665
 30
0.0
 10
17.275971443
 20
13.2601540505
 30
0.0
 10
17.2743804009
 20
13.2433219541
 30
0.0
 10
17.2733568821
 20
13.2353365908
 30
0.0
  0
SPLINE
  5
354
100
AcDbEntity
  8
0
100
AcDbSpline
 62
7
  6
CONTINUOUS
 70
0
 71
3
 72
19
 73
15
 74
0
 42
0.0000001
 43
0.0000001
 44
0.0000000001
 40
0.0
 40
0.0
 40
0.0
 40
0.0
 40
0.0539529484
 40
0.1081610798
 40
0.1628741288
 40
0.218331945
 40
0.2747572084
 40
0.3323500084
 40
0.3912901991
 40
0.4517355386
 40
0.5775729093
 40
0.7106910534
 40
0.8514754156
 40
1.0
 40
1.0
 40
1.0
 40
1.0
 10
16.4305617343
 20
11.2676754969
 30
0.0
 10
16.4270368942
 20
11.256268099
 30
0.0
 10
16.418999241
 20
11.2336868023
 30
0.0
 10
16.4040921513
 20
11.2008270445
 30
0.0
 10
16.3863601296
 20
11.169017947
 30
0.0
 10
16.3658414394
 20
11.138341594
 30
0.0
 10
16.342588367
 20
11.1088687191
 30
0.0
 10
16.3166633908
 20
11.0806640233
 30
0.0
 10
16.2881249724
 20
11.0537932198
 30
0.0
 10
16.2461201971
 20
11.0193780744
 30
0.0
 10
16.1871201874
 20
10.9800928464
 30
0.0
 10
16.1081222243
 20
10.9399034767
 30
0.0
 10
16.0207196717
 20
10.9063314611
 30
0.0
 10
15.9589812762
 20
10.8890181686
 30
0.0
 10
15.9269981283
 20
10.8814434907
 30
0.0
  0
SPLINE
  5
355
100
AcDbEntity
  8
0
100
AcDbSpline
 62
7
  6
CONTINUOUS
 70
0
 71
3
 72
11
 73
7
 74
0
 42
0.0000001
 43
0.0000001
 44
0.0000000001
 40
0.0
 40
0.0
 40
0.0
 40
0.0
 40
0.2646567327
 40
0.5196026418
 40
0.7647313769
 40
1.0
 40
1.0
 40
1.0
 40
1.0
 10
14.1498048971
 20
11.4305951933
 30
0.0
 10
14.1338193489
 20
11.4481409856
 30
0.0
 10
14.1034445549
 20
11.4835290071
 30
0.0
 10
14.0622184142
 20
11.5384050869
 30
0.0
 10
14.0263706605
 20
11.5938267215
 30
0.0
 10
14.0057504118
 20
11.6317177255
 30
0.0
 10
13.9964548714
 20
11.6506600453
 30
0.0
  0
SPLINE
  5
356
100
AcDbEntity
  8
0
100
AcDbSpline
 62
7
  6
CONTINUOUS
 70
0
 71
3
 72
13
 73
9
 74
0
 42
0.0000001
 43
0.0000001
 44
0.0000000001
 40
0.0
 40
0.0
 40
0.0
 40
0.0
 40
0.2711944076
 40
0.5251952046
 40
0.6469931215
 40
0.7661621218
 40
0.8835348102
 40
1.0
 40
1.0
 40
1.0
 40
1.0
 10
16.3367231678
 20
13.3589803344
 30
0.0
 10
16.3336933157
 20
13.3651545239
 30
0.0
 10
16.3286700038
 20
13.3775563289
 30
0.0
 10
16.3251397562
 20
13.3936801486
 30
0.0
 10
16.3242827655
 20
13.4062222569
 30
0.0
 10
16.3245833216
 20
13.4153215088
 30
0.0
 10
16.3258163744
 20
13.4242046321
 30
0.0
 10
16.3272611296
 20
13.4299702767
 30
0.0
 10
16.3281337802
 20
13.4327919995
 30
0.0
  0
SPLINE
  5
357
100
AcDbEntity
  8
0
100
AcDbSpline
 62
7
  6
CONTINUOUS
 70
0
 71
3
 72
13
 73
9
 74
0
 42
0.0000001
 43
0.0000001
 44
0.0000000001
 40
0.0
 40
0.0
 40
0.0
 40
0.0
 40
0.1162511566
 40
0.2341982883
 40
0.3543115669
 40
0.4770209828
 40
0.7315458191
 40
1.0
 40
1.0
 40
1.0
 40
1.0
 10
13.9596204859
 20
12.0327371656
 30
0.0
 10
13.9582680349
 20
12.0206492575
 30
0.0
 10
13.956550919
 20
11.9961730823
 30
0.0
 10
13.9569409637
 20
11.959067014
 30
0.0
 10
13.9602731156
 20
11.9214290458
 30
0.0
 10
13.9687225698
 20
11.8700398214
 30
0.0
 10
13.9869095122
 20
11.8047425715
 30
0.0
 10
14.0082874081
 20
11.754208492
 30
0.0
 10
14.0206615037
 20
11.7289927362
 30
0.0
  0
SPLINE
  5
358
100
AcDbEntity
  8
0
100
AcDbSpline
 62
7
  6
CONTINUOUS
 70
0
 71
3
 72
13
 73
9
 74
0
 42
0.0000001
 43
0.0000001
 44
0.0000000001
 40
0.0
 40
0.0
 40
0.0
 40
0.0
 40
0.2711944076
 40
0.5251952046
 40
0.6469931215
 40
0.7661621218
 40
0.8835348102
 40
1.0
 40
1.0
 40
1.0
 40
1.0
 10
17.5568906343
 20
10.8725404613
 30
0.0
 10
17.5538607822
 20
10.8787146508
 30
0.0
 10
17.5488374703
 20
10.8911164558
 30
0.0
 10
17.5453072227
 20
10.9072402756
 30
0.0
 10
17.5444502321
 20
10.9197823838
 30
0.0
 10
17.5447507881
 20
10.9288816358
 30
0.0
 10
17.5459838409
 20
10.9377647591
 30
0.0
 10
17.5474285962
 20
10.9435304037
 30
0.0
 10
17.5483012467
 20
10.9463521264
 30
0.0
  0
SPLINE
  5
359
100
AcDbEntity
  8
0
100
AcDbSpline
 62
7
  6
CONTINUOUS
 70
0
 71
3
 72
30
 73
26
 74
0
 42
0.0000001
 43
0.0000001
 44
0.0000000001
 40
0.0
 40
0.0
 40
0.0
 40
0.0
 40
0.0214553341
 40
0.0432083729
 40
0.0655330006
 40
0.0886722866
 40
0.1380505866
 40
0.1646117553
 40
0.1924788247
 40
0.2521129346
 40
0.3167064854
 40
0.3506678865
 40
0.3855716317
 40
0.4576368264
 40
0.5317120243
 40
0.6064679924
 40
0.680532499
 40
0.7525804194
 40
0.7874746335
 40
0.821421386
 40
0.8542962146
 40
0.8860073386
 40
0.9456303346
 40
0.9734895369
 40
1.0
 40
1.0
 40
1.0
 40
1.0
 10
18.026010519
 20
10.7987287962
 30
0.0
 10
18.0248429588
 20
10.7949534807
 30
0.0
 10
18.0219331072
 20
10.7875111141
 30
0.0
 10
18.015964637
 20
10.7769769119
 30
0.0
 10
18.0084216625
 20
10.7671115219
 30
0.0
 10
17.9960822776
 20
10.75469072
 30
0.0
 10
17.9809555379
 20
10.7441776326
 30
0.0
 10
17.9638347074
 20
10.7356339271
 30
0.0
 10
17.9442535995
 20
10.7279477952
 30
0.0
 10
17.9169998441
 20
10.7209950301
 30
0.0
 10
17.8879793532
 20
10.7176486243
 30
0.0
 10
17.863397332
 20
10.7169638014
 30
0.0
 10
17.8374382336
 20
10.7176829475
 30
0.0
 10
17.8042236832
 20
10.7212809968
 30
0.0
 10
17.7643367539
 20
10.7296005324
 30
0.0
 10
17.7250579833
 20
10.7417531675
 30
0.0
 10
17.6874475566
 20
10.757412655
 30
0.0
 10
17.6580126802
 20
10.773202059
 30
0.0
 10
17.6361920993
 20
10.7872669014
 30
0.0
 10
17.621024661
 20
10.7982808549
 30
0.0
 10
17.6069882686
 20
10.8098050445
 30
0.0
 10
17.590253617
 20
10.8254163435
 30
0.0
 10
17.5757115832
 20
10.8419951739
 30
0.0
 10
17.5639132872
 20
10.8593870298
 30
0.0
 10
17.5590417204
 20
10.8681570088
 30
0.0
 10
17.5568906343
 20
10.8725404613
 30
0.0
  0
SPLINE
  5
35A
100
AcDbEntity
  8
0
100
AcDbSpline
 62
7
  6
CONTINUOUS
 70
0
 71
3
 72
9
 73
5
 74
0
 42
0.0000001
 43
0.0000001
 44
0.0000000001
 40
0.0
 40
0.0
 40
0.0
 40
0.0
 40
0.4908852027
 40
1.0
 40
1.0
 40
1.0
 40
1.0
 10
17.3821884788
 20
11.767668531
 30
0.0
 10
17.3860972843
 20
11.7671235611
 30
0.0
 10
17.3939684551
 20
11.7652740464
 30
0.0
 10
17.4014249322
 20
11.7621718611
 30
0.0
 10
17.4050757289
 20
11.7603209792
 30
0.0
  0
SPLINE
  5
35B
100
AcDbEntity
  8
0
100
AcDbSpline
 62
7
  6
CONTINUOUS
 70
0
 71
3
 72
30
 73
26
 74
0
 42
0.0000001
 43
0.0000001
 44
0.0000000001
 40
0.0
 40
0.0
 40
0.0
 40
0.0
 40
0.0214553341
 40
0.0432083729
 40
0.0655330006
 40
0.0886722866
 40
0.1380505866
 40
0.1646117553
 40
0.1924788247
 40
0.2521129346
 40
0.3167064854
 40
0.3506678865
 40
0.3855716317
 40
0.4576368264
 40
0.5317120243
 40
0.6064679924
 40
0.680532499
 40
0.7525804194
 40
0.7874746335
 40
0.821421386
 40
0.8542962146
 40
0.8860073386
 40
0.9456303346
 40
0.9734895369
 40
1.0
 40
1.0
 40
1.0
 40
1.0
 10
13.1215990764
 20
13.2851686693
 30
0.0
 10
13.1204315162
 20
13.2813933538
 30
0.0
 10
13.1175216646
 20
13.2739509872
 30
0.0
 10
13.1115531944
 20
13.2634167849
 30
0.0
 10
13.1040102199
 20
13.253551395
 30
0.0
 10
13.0916708351
 20
13.2411305931
 30
0.0
 10
13.0765440953
 20
13.2306175057
 30
0.0
 10
13.0594232649
 20
13.2220738002
 30
0.0
 10
13.0398421569
 20
13.2143876683
 30
0.0
 10
13.0125884016
 20
13.2074349032
 30
0.0
 10
12.9835679106
 20
13.2040884973
 30
0.0
 10
12.9589858894
 20
13.2034036745
 30
0.0
 10
12.9330267911
 20
13.2041228206
 30
0.0
 10
12.8998122406
 20
13.2077208699
 30
0.0
 10
12.8599253114
 20
13.2160404055
 30
0.0
 10
12.8206465407
 20
13.2281930406
 30
0.0
 10
12.7830361141
 20
13.2438525281
 30
0.0
 10
12.7536012377
 20
13.2596419321
 30
0.0
 10
12.7317806567
 20
13.2737067745
 30
0.0
 10
12.7166132185
 20
13.284720728
 30
0.0
 10
12.7025768261
 20
13.2962449176
 30
0.0
 10
12.6858421745
 20
13.3118562166
 30
0.0
 10
12.6713001407
 20
13.328435047
 30
0.0
 10
12.6595018447
 20
13.3458269028
 30
0.0
 10
12.6546302779
 20
13.3545968819
 30
0.0
 10
12.6524791918
 20
13.3589803344
 30
0.0
  0
SPLINE
  5
35C
100
AcDbEntity
  8
0
100
AcDbSpline
 62
7
  6
CONTINUOUS
 70
0
 71
3
 72
11
 73
7
 74
0
 42
0.0000001
 43
0.0000001
 44
0.0000000001
 40
0.0
 40
0.0
 40
0.0
 40
0.0
 40
0.23526724
 40
0.4803946599
 40
0.7353404098
 40
1.0
 40
1.0
 40
1.0
 40
1.0
 10
14.0206615037
 20
11.7289927362
 30
0.0
 10
14.0299591251
 20
11.7100461759
 30
0.0
 10
14.0505842723
 20
11.6721468079
 30
0.0
 10
14.086441405
 20
11.6167134517
 30
0.0
 10
14.1276792829
 20
11.5618262909
 30
0.0
 10
14.1580628046
 20
11.5264313118
 30
0.0
 10
14.1740530832
 20
11.5088821053
 30
0.0
  0
SPLINE
  5
35D
100
AcDbEntity
  8
0
100
AcDbSpline
 62
7
  6
CONTINUOUS
 70
0
 71
3
 72
16
 73
12
 74
0
 42
0.0000001
 43
0.0000001
 44
0.0000000001
 40
0.0
 40
0.0
 40
0.0
 40
0.0
 40
0.1458821313
 40
0.2852646741
 40
0.4181562196
 40
0.5447471898
 40
0.6654539876
 40
0.7809196519
 40
0.8920397296
 40
0.9463438173
 40
1.0
 40
1.0
 40
1.0
 40
1.0
 10
15.9511353527
 20
10.9597587909
 30
0.0
 10
15.9787198934
 20
10.966290037
 30
0.0
 10
16.0322355144
 20
10.9809721434
 30
0.0
 10
16.1087360294
 20
11.0086198451
 30
0.0
 10
16.1791737418
 20
11.0412141751
 30
0.0
 10
16.243057768
 20
11.0785613661
 30
0.0
 10
16.299954627
 20
11.1204196111
 30
0.0
 10
16.349446036
 20
11.1665304379
 30
0.0
 10
16.3844986866
 20
11.2085931184
 30
0.0
 10
16.4082960303
 20
11.2439238985
 30
0.0
 10
16.4187926468
 20
11.262111732
 30
0.0
 10
16.423680591
 20
11.2713212155
 30
0.0
  0
SPLINE
  5
35E
100
AcDbEntity
  8
0
100
AcDbSpline
 62
7
  6
CONTINUOUS
 70
0
 71
3
 72
30
 73
26
 74
0
 42
0.0000001
 43
0.0000001
 44
0.0000000001
 40
0.0
 40
0.0
 40
0.0
 40
0.0
 40
0.0214553341
 40
0.0432083729
 40
0.0655330006
 40
0.0886722866
 40
0.1380505866
 40
0.1646117553
 40
0.1924788247
 40
0.2521129346
 40
0.3167064854
 40
0.3506678865
 40
0.3855716317
 40
0.4576368264
 40
0.5317120243
 40
0.6064679924
 40
0.680532499
 40
0.7525804194
 40
0.7874746335
 40
0.821421386
 40
0.8542962146
 40
0.8860073386
 40
0.9456303346
 40
0.9734895369
 40
1.0
 40
1.0
 40
1.0
 40
1.0
 10
16.8058430524
 20
13.2851686693
 30
0.0
 10
16.8046754923
 20
13.2813933538
 30
0.0
 10
16.8017656406
 20
13.2739509872
 30
0.0
 10
16.7957971705
 20
13.2634167849
 30
0.0
 10
16.7882541959
 20
13.253551395
 30
0.0
 10
16.7759148111
 20
13.2411305931
 30
0.0
 10
16.7607880713
 20
13.2306175057
 30
0.0
 10
16.7436672409
 20
13.2220738002
 30
0.0
 10
16.7240861329
 20
13.2143876683
 30
0.0
 10
16.6968323776
 20
13.2074349032
 30
0.0
 10
16.6678118866
 20
13.2040884973
 30
0.0
 10
16.6432298654
 20
13.2034036745
 30
0.0
 10
16.6172707671
 20
13.2041228206
 30
0.0
 10
16.5840562166
 20
13.2077208699
 30
0.0
 10
16.5441692874
 20
13.2160404055
 30
0.0
 10
16.5048905167
 20
13.2281930406
 30
0.0
 10
16.4672800901
 20
13.2438525281
 30
0.0
 10
16.4378452137
 20
13.2596419321
 30
0.0
 10
16.4160246327
 20
13.2737067745
 30
0.0
 10
16.4008571945
 20
13.284720728
 30
0.0
 10
16.3868208021
 20
13.2962449176
 30
0.0
 10
16.3700861505
 20
13.3118562166
 30
0.0
 10
16.3555441167
 20
13.328435047
 30
0.0
 10
16.3437458207
 20
13.3458269028
 30
0.0
 10
16.3388742539
 20
13.3545968819
 30
0.0
 10
16.3367231678
 20
13.3589803344
 30
0.0
  0
SPLINE
  5
35F
100
AcDbEntity
  8
0
100
AcDbSpline
 62
7
  6
CONTINUOUS
 70
0
 71
3
 72
13
 73
9
 74
0
 42
0.0000001
 43
0.0000001
 44
0.0000000001
 40
0.0
 40
0.0
 40
0.0
 40
0.0
 40
0.0823217131
 40
0.1759019877
 40
0.2812473475
 40
0.398858977
 40
0.6732700105
 40
1.0
 40
1.0
 40
1.0
 40
1.0
 10
17.345049321
 20
11.7681176794
 30
0.0
 10
17.3460494367
 20
11.768335288
 30
0.0
 10
17.3482053382
 20
11.7687148837
 30
0.0
 10
17.3516814182
 20
11.7691094582
 30
0.0
 10
17.3556110189
 20
11.7693520203
 30
0.0
 10
17.3617956375
 20
11.7694597361
 30
0.0
 10
17.3707315568
 20
11.7690547309
 30
0.0
 10
17.3781651198
 20
11.7682294722
 30
0.0
 10
17.3821884788
 20
11.767668531
 30
0.0
  0
SPLINE
  5
360
100
AcDbEntity
  8
0
100
AcDbSpline
 62
7
  6
CONTINUOUS
 70
0
 71
3
 72
39
 73
35
 74
0
 42
0.0000001
 43
0.0000001
 44
0.0000000001
 40
0.0
 40
0.0
 40
0.0
 40
0.0
 40
0.0107136328
 40
0.0214646119
 40
0.0322897119
 40
0.0432243561
 40
0.0543024058
 40
0.0655556985
 40
0.0886885662
 40
0.1128307593
 40
0.1381295663
 40
0.1646823158
 40
0.1925432702
 40
0.2217237309
 40
0.252202639
 40
0.2839251382
 40
0.3168136753
 40
0.3507652938
 40
0.3856615319
 40
0.4577084615
 40
0.5317652099
 40
0.6065007493
 40
0.6437056387
 40
0.6805683311
 40
0.7169249126
 40
0.7526176421
 40
0.7874994606
 40
0.8214358849
 40
0.8543065839
 40
0.8860091568
 40
0.9164645872
 40
0.9456289814
 40
0.9734782413
 40
1.0
 40
1.0
 40
1.0
 40
1.0
 10
14.3078118445
 20
11.9322361388
 30
0.0
 10
14.3099724529
 20
11.9392302929
 30
0.0
 10
14.3148105392
 20
11.9530914266
 30
0.0
 10
14.3235727463
 20
11.973358975
 30
0.0
 10
14.3338257627
 20
11.9930858682
 30
0.0
 10
14.345550039
 20
12.0122367478
 30
0.0
 10
14.3587271966
 20
12.0307788714
 30
0.0
 10
14.3783812084
 20
12.0548600845
 30
0.0
 10
14.4066368402
 20
12.0833193237
 30
0.0
 10
14.4455836506
 20
12.1141784351
 30
0.0
 10
14.4896114323
 20
12.1418794956
 30
0.0
 10
14.5384077651
 20
12.1662516742
 30
0.0
 10
14.5916441878
 20
12.18713535
 30
0.0
 10
14.6489569943
 20
12.2044100908
 30
0.0
 10
14.7099628792
 20
12.2179518396
 30
0.0
 10
14.7742482244
 20
12.227688384
 30
0.0
 10
14.8413798601
 20
12.2335400067
 30
0.0
 10
14.9109050266
 20
12.2354853966
 30
0.0
 10
15.0071774058
 20
12.2328029473
 30
0.0
 10
15.1303666032
 20
12.2194696427
 30
0.0
 10
15.2782898992
 20
12.188607573
 30
0.0
 10
15.3998957047
 20
12.1509802349
 30
0.0
 10
15.4946733525
 20
12.1140902855
 30
0.0
 10
15.5636133927
 20
12.0833564991
 30
0.0
 10
15.6300342506
 20
12.0497325611
 30
0.0
 10
15.6934869976
 20
12.0134463067
 30
0.0
 10
15.7535385314
 20
11.9747416222
 30
0.0
 10
15.8097840395
 20
11.9338842977
 30
0.0
 10
15.861836242
 20
11.8911452672
 30
0.0
 10
15.9093498949
 20
11.8468233074
 30
0.0
 10
15.9519966585
 20
11.8012027376
 30
0.0
 10
15.9894972024
 20
11.7545883955
 30
0.0
 10
16.0215713299
 20
11.7072981437
 30
0.0
 10
16.0396365157
 20
11.6747615133
 30
0.0
 10
16.0476197881
 20
11.6584933144
 30
0.0
  0
SPLINE
  5
361
100
AcDbEntity
  8
0
100
AcDbSpline
 62
7
  6
CONTINUOUS
 70
0
 71
3
 72
11
 73
7
 74
0
 42
0.0000001
 43
0.0000001
 44
0.0000000001
 40
0.0
 40
0.0
 40
0.0
 40
0.0
 40
0.1894370079
 40
0.4152867564
 40
0.6839994935
 40
1.0
 40
1.0
 40
1.0
 40
1.0
 10
17.3368062816
 20
11.7643407356
 30
0.0
 10
17.3371931104
 20
11.76477338
 30
0.0
 10
17.3381828369
 20
11.7655956455
 30
0.0
 10
17.3400327232
 20
11.7665966703
 30
0.0
 10
17.3423658647
 20
11.7674647286
 30
0.0
 10
17.3441033539
 20
11.7679118527
 30
0.0
 10
17.345049321
 20
11.7681176794
 30
0.0
  0
SPLINE
  5
362
100
AcDbEntity
  8
0
100
AcDbSpline
 62
7
  6
CONTINUOUS
 70
0
 71
3
 72
12
 73
8
 74
0
 42
0.0000001
 43
0.0000001
 44
0.0000000001
 40
0.0
 40
0.0
 40
0.0
 40
0.0
 40
0.122839878
 40
0.2455948713
 40
0.4921008145
 40
0.7428540852
 40
1.0
 40
1.0
 40
1.0
 40
1.0
 10
14.963828791
 20
12.0339340766
 30
0.0
 10
14.9651485144
 20
12.0312460793
 30
0.0
 10
14.9675301855
 20
12.0257405593
 30
0.0
 10
14.9712040984
 20
12.0143056455
 30
0.0
 10
14.9737035929
 20
11.9992923774
 30
0.0
 10
14.9731696239
 20
11.9808064984
 30
0.0
 10
14.9705339093
 20
11.9686284387
 30
0.0
 10
14.9686831503
 20
11.9626393804
 30
0.0
  0
SPLINE
  5
363
100
AcDbEntity
  8
0
100
AcDbSpline
 62
7
  6
CONTINUOUS
 70
0
 71
3
 72
39
 73
35
 74
0
 42
0.0000001
 43
0.0000001
 44
0.0000000001
 40
0.0
 40
0.0
 40
0.0
 40
0.0
 40
0.0265217538
 40
0.0543709967
 40
0.0835354857
 40
0.1139911311
 40
0.1456939808
 40
0.1785648194
 40
0.2125009872
 40
0.2473824501
 40
0.2830753156
 40
0.3194325154
 40
0.3562958766
 40
0.393501292
 40
0.4682375612
 40
0.5422945692
 40
0.6143412644
 40
0.6492372569
 40
0.683188577
 40
0.7160767832
 40
0.747798965
 40
0.7782775603
 40
0.8074577631
 40
0.835318507
 40
0.8618710982
 40
0.8871698445
 40
0.9113120804
 40
0.9344450324
 40
0.9456982863
 40
0.9567762133
 40
0.967710683
 40
0.9785355971
 40
0.989286428
 40
1.0
 40
1.0
 40
1.0
 40
1.0
 10
16.0936728378
 20
11.6584933144
 30
0.0
 10
16.0852590512
 20
11.6756388089
 30
0.0
 10
16.0662196923
 20
11.7099300494
 30
0.0
 10
16.032415835
 20
11.7597705584
 30
0.0
 10
15.9928928015
 20
11.8088987996
 30
0.0
 10
15.9479459106
 20
11.8569798548
 30
0.0
 10
15.8978695222
 20
11.9036921574
 30
0.0
 10
15.8430101031
 20
11.9487359339
 30
0.0
 10
15.7837317639
 20
11.9917964566
 30
0.0
 10
15.7204420613
 20
12.0325881324
 30
0.0
 10
15.653567091
 20
12.0708310945
 30
0.0
 10
15.5835634038
 20
12.1062686887
 30
0.0
 10
15.5109044099
 20
12.1386603687
 30
0.0
 10
15.4110142183
 20
12.1775397984
 30
0.0
 10
15.2828493828
 20
12.2171961962
 30
0.0
 10
15.1269483368
 20
12.2497220964
 30
0.0
 10
14.9971159903
 20
12.2637739259
 30
0.0
 10
14.8956524585
 20
12.2666005543
 30
0.0
 10
14.8223786275
 20
12.2645500548
 30
0.0
 10
14.7516274812
 20
12.2583825718
 30
0.0
 10
14.6838761111
 20
12.2481209367
 30
0.0
 10
14.619581031
 20
12.2338487895
 30
0.0
 10
14.5591780899
 20
12.2156424908
 30
0.0
 10
14.5030712345
 20
12.193632671
 30
0.0
 10
14.4516438072
 20
12.1679461667
 30
0.0
 10
14.4052417872
 20
12.138751395
 30
0.0
 10
14.3641948869
 20
12.1062278004
 30
0.0
 10
14.3344154613
 20
12.0762338038
 30
0.0
 10
14.3137016097
 20
12.0508539895
 30
0.0
 10
14.299813977
 20
12.0313121459
 30
0.0
 10
14.2874575502
 20
12.0111288555
 30
0.0
 10
14.2766517658
 20
11.9903384787
 30
0.0
 10
14.2674172653
 20
11.9689781626
 30
0.0
 10
14.2623185094
 20
11.9543696168
 30
0.0
 10
14.2600414134
 20
11.9469983246
 30
0.0
  0
SPLINE
  5
364
100
AcDbEntity
  8
0
100
AcDbSpline
 62
7
  6
CONTINUOUS
 70
0
 71
3
 72
15
 73
11
 74
0
 42
0.0000001
 43
0.0000001
 44
0.0000000001
 40
0.0
 40
0.0
 40
0.0
 40
0.0
 40
0.1380672603
 40
0.2714446829
 40
0.4004219029
 40
0.5254360584
 40
0.6471248949
 40
0.7662279775
 40
0.883563913
 40
1.0
 40
1.0
 40
1.0
 40
1.0
 10
16.0476197881
 20
11.6584933144
 30
0.0
 10
16.0533432413
 20
11.6468301431
 30
0.0
 10
16.0637661551
 20
11.6234791347
 30
0.0
 10
16.0763683658
 20
11.5879274036
 30
0.0
 10
16.0856006853
 20
11.5526162829
 30
0.0
 10
16.0914015943
 20
11.5176923493
 30
0.0
 10
16.0937558734
 20
11.4832955134
 30
0.0
 10
16.0926445988
 20
11.4495538613
 30
0.0
 10
16.0880666486
 20
11.4166060339
 30
0.0
 10
16.0827098649
 20
11.395218758
 30
0.0
 10
16.079476046
 20
11.3847504899
 30
0.0
  0
SPLINE
  5
365
100
AcDbEntity
  8
0
100
AcDbSpline
 62
7
  6
CONTINUOUS
 70
0
 71
3
 72
39
 73
35
 74
0
 42
0.0000001
 43
0.0000001
 44
0.0000000001
 40
0.0
 40
0.0
 40
0.0
 40
0.0
 40
0.0263047336
 40
0.0538927079
 40
0.0827545191
 40
0.1128706055
 40
0.144201353
 40
0.1766732134
 40
0.210192312
 40
0.2446474792
 40
0.2799150973
 40
0.315857308
 40
0.352327232
 40
0.3891706905
 40
0.4262287598
 40
0.4633399471
 40
0.500341508
 40
0.5370728871
 40
0.5733761936
 40
0.6091002327
 40
0.6441008144
 40
0.6782450381
 40
0.7114120487
 40
0.7434973635
 40
0.7744146444
 40
0.8040999966
 40
0.8325152269
 40
0.8596521063
 40
0.8855371647
 40
0.9102354701
 40
0.9338556477
 40
0.9565508908
 40
0.9785196902
 40
1.0
 40
1.0
 40
1.0
 40
1.0
 10
16.227698725
 20
11.6898263908
 30
0.0
 10
16.218356274
 20
11.7088643042
 30
0.0
 10
16.1972779911
 20
11.7469403005
 30
0.0
 10
16.1599625638
 20
11.8023318212
 30
0.0
 10
16.1164319125
 20
11.856968973
 30
0.0
 10
16.0669954308
 20
11.910498007
 30
0.0
 10
16.0119611145
 20
11.9625770663
 30
0.0
 10
15.9516931208
 20
12.0128878647
 30
0.0
 10
15.8865707803
 20
12.0610922599
 30
0.0
 10
15.8170237818
 20
12.1068910692
 30
0.0
 10
15.7434947778
 20
12.1499783722
 30
0.0
 10
15.6664657574
 20
12.1900868803
 30
0.0
 10
15.5864306526
 20
12.2269456231
 30
0.0
 10
15.5039130978
 20
12.2603252166
 30
0.0
 10
15.4194446169
 20
12.2900006089
 30
0.0
 10
15.3335760083
 20
12.3157871419
 30
0.0
 10
15.246861857
 20
12.3375107789
 30
0.0
 10
15.1598663859
 20
12.3550364349
 30
0.0
 10
15.0731522257
 20
12.3682457303
 30
0.0
 10
14.9872823206
 20
12.3770568643
 30
0.0
 10
14.9028119997
 20
12.3814097801
 30
0.0
 10
14.8202882773
 20
12.3812779319
 30
0.0
 10
14.7402440602
 20
12.3766605908
 30
0.0
 10
14.6631962232
 20
12.3675864229
 30
0.0
 10
14.5896407606
 20
12.3541130328
 30
0.0
 10
14.5200514785
 20
12.3363218533
 30
0.0
 10
14.4548745945
 20
12.3143254216
 30
0.0
 10
14.3945309446
 20
12.2882530142
 30
0.0
 10
14.3394078493
 20
12.2582668377
 30
0.0
 10
14.2898692425
 20
12.2245383202
 30
0.0
 10
14.2462414953
 20
12.1872764262
 30
0.0
 10
14.2088335084
 20
12.1466943618
 30
0.0
 10
14.1779123716
 20
12.1030685327
 30
0.0
 10
14.1616611896
 20
12.071888547
 30
0.0
 10
14.1547586599
 20
12.056006389
 30
0.0
  0
SPLINE
  5
366
100
AcDbEntity
  8
0
100
AcDbSpline
 62
7
  6
CONTINUOUS
 70
0
 71
3
 72
15
 73
11
 74
0
 42
0.0000001
 43
0.0000001
 44
0.0000000001
 40
0.0
 40
0.0
 40
0.0
 40
0.0
 40
0.1380669109
 40
0.2714438113
 40
0.4004205941
 40
0.5254347891
 40
0.6471240292
 40
0.7662276286
 40
0.8835639765
 40
1.0
 40
1.0
 40
1.0
 40
1.0
 10
16.1033554908
 20
11.6898263908
 30
0.0
 10
16.1093875798
 20
11.6775342856
 30
0.0
 10
16.1203725535
 20
11.6529241035
 30
0.0
 10
16.13365435
 20
11.6154552882
 30
0.0
 10
16.1433844809
 20
11.5782400063
 30
0.0
 10
16.149498202
 20
11.5414327127
 30
0.0
 10
16.1519794597
 20
11.5051808492
 30
0.0
 10
16.1508082059
 20
11.4696194615
 30
0.0
 10
16.1459832089
 20
11.4348947775
 30
0.0
 10
16.1403374937
 20
11.4123541233
 30
0.0
 10
16.1369292921
 20
11.4013213323
 30
0.0
  0
SPLINE
  5
367
100
AcDbEntity
  8
0
100
AcDbSpline
 62
7
  6
CONTINUOUS
 70
0
 71
3
 72
13
 73
9
 74
0
 42
0.0000001
 43
0.0000001
 44
0.0000000001
 40
0.0
 40
0.0
 40
0.0
 40
0.0
 40
0.2711944076
 40
0.5251952046
 40
0.6469931215
 40
0.7661621218
 40
0.8835348102
 40
1.0
 40
1.0
 40
1.0
 40
1.0
 10
13.8726466583
 20
10.8725404613
 30
0.0
 10
13.8696168062
 20
10.8787146508
 30
0.0
 10
13.8645934943
 20
10.8911164558
 30
0.0
 10
13.8610632467
 20
10.9072402756
 30
0.0
 10
13.8602062561
 20
10.9197823838
 30
0.0
 10
13.8605068121
 20
10.9288816358
 30
0.0
 10
13.8617398649
 20
10.9377647591
 30
0.0
 10
13.8631846202
 20
10.9435304037
 30
0.0
 10
13.8640572707
 20
10.9463521264
 30
0.0
  0
SPLINE
  5
368
100
AcDbEntity
  8
0
100
AcDbSpline
 62
7
  6
CONTINUOUS
 70
0
 71
3
 72
22
 73
18
 74
0
 42
0.0000001
 43
0.0000001
 44
0.0000000001
 40
0.0
 40
0.0
 40
0.0
 40
0.0
 40
0.0507166785
 40
0.102569538
 40
0.1565138144
 40
0.2132109959
 40
0.2729668307
 40
0.3357655622
 40
0.4013076692
 40
0.4690655762
 40
0.5383562489
 40
0.6083821472
 40
0.7470590231
 40
0.814328586
 40
0.8471257232
 40
0.8792728757
 40
1.0
 40
1.0
 40
1.0
 40
1.0
 10
14.6763088255
 20
11.9104945056
 30
0.0
 10
14.6789474845
 20
11.90512058
 30
0.0
 10
14.6855123497
 20
11.8948096253
 30
0.0
 10
14.6986649758
 20
11.8816488418
 30
0.0
 10
14.7147775959
 20
11.8710185952
 30
0.0
 10
14.733412916
 20
11.8631795116
 30
0.0
 10
14.754088132
 20
11.8582856741
 30
0.0
 10
14.7762896808
 20
11.856434546
 30
0.0
 10
14.7994712927
 20
11.857664651
 30
0.0
 10
14.8230626961
 20
11.8619245661
 30
0.0
 10
14.8464868581
 20
11.8691179089
 30
0.0
 10
14.8765890411
 20
11.8823094842
 30
0.0
 10
14.9040874266
 20
11.900427585
 30
0.0
 10
14.9244926765
 20
11.9199546541
 30
0.0
 10
14.9346767884
 20
11.931801787
 30
0.0
 10
14.94782369
 20
11.9493258173
 30
0.0
 10
14.956285769
 20
11.9657126359
 30
0.0
 10
14.9604933625
 20
11.9793284133
 30
0.0
  0
SPLINE
  5
369
100
AcDbEntity
  8
0
100
AcDbSpline
 62
7
  6
CONTINUOUS
 70
0
 71
3
 72
26
 73
22
 74
0
 42
0.0000001
 43
0.0000001
 44
0.0000000001
 40
0.0
 40
0.0
 40
0.0
 40
0.0
 40
0.0598055943
 40
0.122241169
 40
0.1872947645
 40
0.254852335
 40
0.3244950558
 40
0.3955444609
 40
0.4671312854
 40
0.5382478877
 40
0.6078061902
 40
0.6747622627
 40
0.7382188962
 40
0.7975907748
 40
0.8256997923
 40
0.8527793253
 40
0.9040843645
 40
0.9286362067
 40
0.9526634494
 40
0.9763758521
 40
1.0
 40
1.0
 40
1.0
 40
1.0
 10
14.9686831503
 20
11.9626393804
 30
0.0
 10
14.9666386708
 20
11.9560234423
 30
0.0
 10
14.9611570081
 20
11.9428769591
 30
0.0
 10
14.949497489
 20
11.9244861275
 30
0.0
 10
14.9345529004
 20
11.9074441798
 30
0.0
 10
14.916778445
 20
11.892095055
 30
0.0
 10
14.8966643502
 20
11.8786938651
 30
0.0
 10
14.874742066
 20
11.8674695273
 30
0.0
 10
14.8515939153
 20
11.8585852588
 30
0.0
 10
14.8278221644
 20
11.8521770449
 30
0.0
 10
14.8040444853
 20
11.8483435622
 30
0.0
 10
14.7808725395
 20
11.8471393001
 30
0.0
 10
14.7588919754
 20
11.8485942363
 30
0.0
 10
14.7416959482
 20
11.8520732386
 30
0.0
 10
14.7290873316
 20
11.8562410759
 30
0.0
 10
14.71774026
 20
11.8610910204
 30
0.0
 10
14.7074406655
 20
11.8672750369
 30
0.0
 10
14.6986041583
 20
11.8747673321
 30
0.0
 10
14.6928587587
 20
11.880881426
 30
0.0
 10
14.6879392114
 20
11.8875432936
 30
0.0
 10
14.6852262477
 20
11.8923235273
 30
0.0
 10
14.6840206717
 20
11.8947788608
 30
0.0
  0
SPLINE
  5
36A
100
AcDbEntity
  8
0
100
AcDbSpline
 62
7
  6
CONTINUOUS
 70
0
 71
3
 72
11
 73
7
 74
0
 42
0.0000001
 43
0.0000001
 44
0.0000000001
 40
0.0
 40
0.0
 40
0.0
 40
0.0
 40
0.2636081415
 40
0.5167738824
 40
0.7610963903
 40
1.0
 40
1.0
 40
1.0
 40
1.0
 10
14.9482323339
 20
11.985544513
 30
0.0
 10
14.9498291878
 20
11.9907119343
 30
0.0
 10
14.9522194457
 20
12.0010925138
 30
0.0
 10
14.9532366892
 20
12.016748596
 30
0.0
 10
14.9515267713
 20
12.0318421244
 30
0.0
 10
14.9485707409
 20
12.0413799648
 30
0.0
 10
14.9466731348
 20
12.0458994058
 30
0.0
  0
SPLINE
  5
36B
100
AcDbEntity
  8
0
100
AcDbSpline
 62
7
  6
CONTINUOUS
 70
0
 71
3
 72
17
 73
13
 74
0
 42
0.0000001
 43
0.0000001
 44
0.0000000001
 40
0.0
 40
0.0
 40
0.0
 40
0.0
 40
0.0534917161
 40
0.1072496006
 40
0.1616170836
 40
0.2169186199
 40
0.331237321
 40
0.4519740769
 40
0.5797761951
 40
0.7144363081
 40
0.8550018009
 40
1.0
 40
1.0
 40
1.0
 40
1.0
 10
14.945953287
 20
12.0475582195
 30
0.0
 10
14.9447112477
 20
12.0503294371
 30
0.0
 10
14.9418832267
 20
12.0557411226
 30
0.0
 10
14.9366850626
 20
12.0633263177
 30
0.0
 10
14.9305674433
 20
12.070330723
 30
0.0
 10
14.9211425421
 20
12.0789024652
 30
0.0
 10
14.9071657074
 20
12.0878922261
 30
0.0
 10
14.8878689197
 20
12.095428627
 30
0.0
 10
14.8664329362
 20
12.0996945664
 30
0.0
 10
14.843482502
 20
12.1005708328
 30
0.0
 10
14.8196846454
 20
12.0980695205
 30
0.0
 10
14.8038771785
 20
12.0942368263
 30
0.0
 10
14.7960139397
 20
12.0918011854
 30
0.0
  0
SPLINE
  5
36C
100
AcDbEntity
  8
0
100
AcDbSpline
 62
7
  6
CONTINUOUS
 70
0
 71
3
 72
14
 73
10
 74
0
 42
0.0000001
 43
0.0000001
 44
0.0000000001
 40
0.0
 40
0.0
 40
0.0
 40
0.0
 40
0.2667699055
 40
0.3972089035
 40
0.5248602956
 40
0.6493042431
 40
0.7701964053
 40
0.8871960369
 40
1.0
 40
1.0
 40
1.0
 40
1.0
 10
14.7497171394
 20
12.0706893614
 30
0.0
 10
14.7411698258
 20
12.0653961799
 30
0.0
 10
14.7290041173
 20
12.0565374164
 30
0.0
 10
14.7145112099
 20
12.0430530818
 30
0.0
 10
14.7047962247
 20
12.0323769109
 30
0.0
 10
14.6962597672
 20
12.0211861953
 30
0.0
 10
14.6890071305
 20
12.0095914312
 30
0.0
 10
14.6831141037
 20
11.9977383595
 30
0.0
 10
14.6800771385
 20
11.9896061648
 30
0.0
 10
14.6788219931
 20
11.985544513
 30
0.0
  0
SPLINE
  5
36D
100
AcDbEntity
  8
0
100
AcDbSpline
 62
7
  6
CONTINUOUS
 70
0
 71
3
 72
11
 73
7
 74
0
 42
0.0000001
 43
0.0000001
 44
0.0000000001
 40
0.0
 40
0.0
 40
0.0
 40
0.0
 40
0.2618272561
 40
0.5143015532
 40
0.7592918617
 40
1.0
 40
1.0
 40
1.0
 40
1.0
 10
14.6769155713
 20
11.9785563725
 30
0.0
 10
14.6757872669
 20
11.9737892212
 30
0.0
 10
14.6742214542
 20
11.9642535121
 30
0.0
 10
14.6740952838
 20
11.9499875113
 30
0.0
 10
14.6762797888
 20
11.9362846147
 30
0.0
 10
14.6792590544
 20
11.9276406142
 30
0.0
 10
14.68110104
 20
11.9235308065
 30
0.0
  0
SPLINE
  5
36E
100
AcDbEntity
  8
0
100
AcDbSpline
 62
7
  6
CONTINUOUS
 70
0
 71
3
 72
23
 73
19
 74
0
 42
0.0000001
 43
0.0000001
 44
0.0000000001
 40
0.0
 40
0.0
 40
0.0
 40
0.0
 40
0.0514771666
 40
0.1050194742
 40
0.1611128952
 40
0.2199738841
 40
0.2815769814
 40
0.3456789697
 40
0.4118706929
 40
0.4796048672
 40
0.5482469799
 40
0.617114784
 40
0.6855110828
 40
0.7527598412
 40
0.8182434867
 40
0.8815062958
 40
0.9421996394
 40
1.0
 40
1.0
 40
1.0
 40
1.0
 10
14.6950038505
 20
11.9025747833
 30
0.0
 10
14.6986067853
 20
11.8986814853
 30
0.0
 10
14.7067663913
 20
11.8914565458
 30
0.0
 10
14.7210468407
 20
11.8828346874
 30
0.0
 10
14.7372624749
 20
11.8764232956
 30
0.0
 10
14.7550527046
 20
11.8723264539
 30
0.0
 10
14.7740509654
 20
11.8706323965
 30
0.0
 10
14.7938606617
 20
11.8713488602
 30
0.0
 10
14.8140705576
 20
11.8744742339
 30
0.0
 10
14.8342639683
 20
11.8799206046
 30
0.0
 10
14.854015711
 20
11.8875920178
 30
0.0
 10
14.8729214882
 20
11.8973098829
 30
0.0
 10
14.89057639
 20
11.9088906903
 30
0.0
 10
14.9066242151
 20
11.9220725201
 30
0.0
 10
14.9207186339
 20
11.9366008531
 30
0.0
 10
14.9325779865
 20
11.9521720063
 30
0.0
 10
14.9419214936
 20
11.9684657733
 30
0.0
 10
14.9464737804
 20
11.9798538319
 30
0.0
 10
14.9482323339
 20
11.985544513
 30
0.0
  0
SPLINE
  5
36F
100
AcDbEntity
  8
0
100
AcDbSpline
 62
7
  6
CONTINUOUS
 70
0
 71
3
 72
12
 73
8
 74
0
 42
0.0000001
 43
0.0000001
 44
0.0000000001
 40
0.0
 40
0.0
 40
0.0
 40
0.0
 40
0.2641485548
 40
0.5169565401
 40
0.7607133267
 40
0.8806529627
 40
1.0
 40
1.0
 40
1.0
 40
1.0
 10
14.9604933625
 20
11.9793284133
 30
0.0
 10
14.9623272577
 20
11.9852629003
 30
0.0
 10
14.9650081945
 20
11.9971885147
 30
0.0
 10
14.9658306786
 20
12.0151529129
 30
0.0
 10
14.963678086
 20
12.0295970012
 30
0.0
 10
14.9603035967
 20
12.040459538
 30
0.0
 10
14.9580832583
 20
12.0456431953
 30
0.0
 10
14.9568463388
 20
12.048162321
 30
0.0
  0
SPLINE
  5
370
100
AcDbEntity
  8
0
100
AcDbSpline
 62
7
  6
CONTINUOUS
 70
0
 71
3
 72
29
 73
25
 74
0
 42
0.0000001
 43
0.0000001
 44
0.0000000001
 40
0.0
 40
0.0
 40
0.0
 40
0.0
 40
0.0219208376
 40
0.044601826
 40
0.0682053445
 40
0.0928581539
 40
0.1186506792
 40
0.1456295126
 40
0.1738126527
 40
0.2031930025
 40
0.2653357247
 40
0.3315561443
 40
0.3659612821
 40
0.4010697397
 40
0.4728550405
 40
0.5458314983
 40
0.6188392882
 40
0.690721028
 40
0.7603730629
 40
0.8267990487
 40
0.8585477992
 40
0.8892112282
 40
0.9470349856
 40
1.0
 40
1.0
 40
1.0
 40
1.0
 10
14.3305236749
 20
10.7757036172
 30
0.0
 10
14.328338298
 20
10.7725339669
 30
0.0
 10
14.3234712033
 20
10.7663656001
 30
0.0
 10
14.3149617035
 20
10.7578989632
 30
0.0
 10
14.3051975362
 20
10.7501224161
 30
0.0
 10
14.2942373295
 20
10.7430834942
 30
0.0
 10
14.2821452185
 20
10.7368242069
 30
0.0
 10
14.2689973282
 20
10.7313719125
 30
0.0
 10
14.2548690484
 20
10.7267586556
 30
0.0
 10
14.2344531938
 20
10.7216753595
 30
0.0
 10
14.2069611298
 20
10.717678494
 30
0.0
 10
14.1783320416
 20
10.7167974887
 30
0.0
 10
14.1545080988
 20
10.7178518726
 30
0.0
 10
14.1297907997
 20
10.7201656879
 30
0.0
 10
14.0985764847
 20
10.7253339852
 30
0.0
 10
14.0615045806
 20
10.7349374945
 30
0.0
 10
14.0253980102
 20
10.7477543346
 30
0.0
 10
13.9911031811
 20
10.76349127
 30
0.0
 10
13.9594262262
 20
10.7817827989
 30
0.0
 10
13.9354592932
 20
10.7990478005
 30
0.0
 10
13.9182959276
 20
10.8138129863
 30
0.0
 10
13.9031411253
 20
10.8285350681
 30
0.0
 10
13.8870069546
 20
10.8475291835
 30
0.0
 10
13.8767447484
 20
10.8641894317
 30
0.0
 10
13.8726466583
 20
10.8725404613
 30
0.0
  0
SPLINE
  5
371
100
AcDbEntity
  8
0
100
AcDbSpline
 62
7
  6
CONTINUOUS
 70
0
 71
3
 72
15
 73
11
 74
0
 42
0.0000001
 43
0.0000001
 44
0.0000000001
 40
0.0
 40
0.0
 40
0.0
 40
0.0
 40
0.1380797696
 40
0.2714577848
 40
0.4004239935
 40
0.5254310463
 40
0.6471192646
 40
0.7662259343
 40
0.8835648809
 40
1.0
 40
1.0
 40
1.0
 40
1.0
 10
13.9964548714
 20
11.6506600453
 30
0.0
 10
13.9884466545
 20
11.6669790756
 30
0.0
 10
13.9738631462
 20
11.6996500215
 30
0.0
 10
13.9562306411
 20
11.7493892201
 30
0.0
 10
13.9433172883
 20
11.7987903272
 30
0.0
 10
13.9352019214
 20
11.8476486756
 30
0.0
 10
13.9319068631
 20
11.8957716198
 30
0.0
 10
13.9334644052
 20
11.9429790774
 30
0.0
 10
13.9398656885
 20
11.9890763563
 30
0.0
 10
13.9473594749
 20
12.0189992416
 30
0.0
 10
13.9518848298
 20
12.0336445937
 30
0.0
  0
SPLINE
  5
372
100
AcDbEntity
  8
0
100
AcDbSpline
 62
7
  6
CONTINUOUS
 70
0
 71
3
 72
15
 73
11
 74
0
 42
0.0000001
 43
0.0000001
 44
0.0000000001
 40
0.0
 40
0.0
 40
0.0
 40
0.0
 40
0.116435393
 40
0.2337672347
 40
0.3528679341
 40
0.4745595101
 40
0.599584085
 40
0.7285728384
 40
0.8619480201
 40
1.0
 40
1.0
 40
1.0
 40
1.0
 10
14.2800698739
 20
11.3690792385
 30
0.0
 10
14.277323548
 20
11.3601890505
 30
0.0
 10
14.2727727693
 20
11.3420266112
 30
0.0
 10
14.2688835333
 20
11.314046094
 30
0.0
 10
14.2679416234
 20
11.285391043
 30
0.0
 10
14.2699397185
 20
11.2561784132
 30
0.0
 10
14.2748672948
 20
11.226517133
 30
0.0
 10
14.2827098581
 20
11.196527874
 30
0.0
 10
14.2934114055
 20
11.1663355614
 30
0.0
 10
14.30226224
 20
11.1465056851
 30
0.0
 10
14.3071223801
 20
11.1366017608
 30
0.0
  0
SPLINE
  5
373
100
AcDbEntity
  8
0
100
AcDbSpline
 62
7
  6
CONTINUOUS
 70
0
 71
3
 72
38
 73
34
 74
0
 42
0.0000001
 43
0.0000001
 44
0.0000000001
 40
0.0
 40
0.0
 40
0.0
 40
0.0
 40
0.0265199595
 40
0.0543704679
 40
0.0835374393
 40
0.1139939639
 40
0.1456958619
 40
0.1785672234
 40
0.2125041113
 40
0.2473870884
 40
0.3194139597
 40
0.3934611921
 40
0.4681980556
 40
0.5054077071
 40
0.5422778522
 40
0.5786442277
 40
0.61434976
 40
0.649245984
 40
0.6831990381
 40
0.716087268
 40
0.7478112195
 40
0.77828991
 40
0.8074714849
 40
0.8353326171
 40
0.848773742
 40
0.8618932738
 40
0.8871926853
 40
0.911335075
 40
0.9344686662
 40
0.9567877331
 40
0.978534857
 40
0.9892860762
 40
1.0
 40
1.0
 40
1.0
 40
1.0
 10
14.3071223801
 20
11.1366017608
 30
0.0
 10
14.3139016427
 20
11.1227870761
 30
0.0
 10
14.3292439761
 20
11.0951563456
 30
0.0
 10
14.3564829221
 20
11.0549943841
 30
0.0
 10
14.3883305408
 20
11.0154043309
 30
0.0
 10
14.4245498994
 20
10.9766609812
 30
0.0
 10
14.4649000217
 20
10.9390194204
 30
0.0
 10
14.5091070012
 20
10.902726331
 30
0.0
 10
14.556872334
 20
10.868023698
 30
0.0
 10
14.6256000891
 20
10.8237340593
 30
0.0
 10
14.7183052364
 20
10.7739989973
 30
0.0
 10
14.8367602665
 20
10.7246822241
 30
0.0
 10
14.9400301179
 20
10.6927249785
 30
0.0
 10
15.0241542102
 20
10.6731176896
 30
0.0
 10
15.0872221616
 20
10.6615842
 30
0.0
 10
15.1499160982
 20
10.6532876155
 30
0.0
 10
15.2118104832
 20
10.6482740171
 30
0.0
 10
15.2724857044
 20
10.6465913782
 30
0.0
 10
15.3315291905
 20
10.6482356279
 30
0.0
 10
15.3885412765
 20
10.653212611
 30
0.0
 10
15.4431362978
 20
10.6614748633
 30
0.0
 10
15.4949458115
 20
10.6729805342
 30
0.0
 10
15.5436178895
 20
10.687647317
 30
0.0
 10
15.5817428982
 20
10.7026036197
 30
0.0
 10
15.610299422
 20
10.7161093219
 30
0.0
 10
15.6368778567
 20
10.7302394724
 30
0.0
 10
15.6676637981
 20
10.7496064159
 30
0.0
 10
15.7007370241
 20
10.7758191076
 30
0.0
 10
15.7292696811
 20
10.8045444044
 30
0.0
 10
15.7530267243
 20
10.8356064195
 30
0.0
 10
15.7687679201
 20
10.8633790775
 30
0.0
 10
15.7787216783
 20
10.886411885
 30
0.0
 10
15.7828297126
 20
10.8981843995
 30
0.0
 10
15.7846646407
 20
10.9041242831
 30
0.0
  0
SPLINE
  5
374
100
AcDbEntity
  8
0
100
AcDbSpline
 62
7
  6
CONTINUOUS
 70
0
 71
3
 72
14
 73
10
 74
0
 42
0.0000001
 43
0.0000001
 44
0.0000000001
 40
0.0
 40
0.0
 40
0.0
 40
0.0
 40
0.116131135
 40
0.233712998
 40
0.3533664362
 40
0.4756663867
 40
0.6011297286
 40
0.7301894523
 40
1.0
 40
1.0
 40
1.0
 40
1.0
 10
16.2756786564
 20
11.4006302743
 30
0.0
 10
16.2778515034
 20
11.4119685735
 30
0.0
 10
16.2811550581
 20
11.435005779
 30
0.0
 10
16.2829354652
 20
11.4701345323
 30
0.0
 10
16.2815553256
 20
11.5058957608
 30
0.0
 10
16.2770291755
 20
11.5421813117
 30
0.0
 10
16.2693683344
 20
11.5788922779
 30
0.0
 10
16.2547923571
 20
11.6289764507
 30
0.0
 10
16.2395149291
 20
11.6657474985
 30
0.0
 10
16.227698725
 20
11.6898263908
 30
0.0
  0
SPLINE
  5
375
100
AcDbEntity
  8
0
100
AcDbSpline
 62
7
  6
CONTINUOUS
 70
0
 71
3
 72
10
 73
6
 74
0
 42
0.0000001
 43
0.0000001
 44
0.0000000001
 40
0.0
 40
0.0
 40
0.0
 40
0.0
 40
0.4802727836
 40
0.7358074563
 40
1.0
 40
1.0
 40
1.0
 40
1.0
 10
14.8509403227
 20
13.2636603936
 30
0.0
 10
14.8461015169
 20
13.2480020124
 30
0.0
 10
14.8351392619
 20
13.2250070311
 30
0.0
 10
14.8153338176
 20
13.1971813294
 30
0.0
 10
14.8035011921
 20
13.1839079946
 30
0.0
 10
14.7971652967
 20
13.1774944335
 30
0.0
  0
SPLINE
  5
376
100
AcDbEntity
  8
0
100
AcDbSpline
 62
7
  6
CONTINUOUS
 70
0
 71
3
 72
11
 73
7
 74
0
 42
0.0000001
 43
0.0000001
 44
0.0000000001
 40
0.0
 40
0.0
 40
0.0
 40
0.0
 40
0.2389677579
 40
0.4835438887
 40
0.7365605668
 40
1.0
 40
1.0
 40
1.0
 40
1.0
 10
14.8504198878
 20
13.3498263536
 30
0.0
 10
14.8528414731
 20
13.3432787618
 30
0.0
 10
14.8565364894
 20
13.3295525135
 30
0.0
 10
14.8584246102
 20
13.3080173585
 30
0.0
 10
14.856681016
 20
13.2857610747
 30
0.0
 10
14.8532125311
 20
13.2710132626
 30
0.0
 10
14.8509403227
 20
13.2636603936
 30
0.0
  0
SPLINE
  5
377
100
AcDbEntity
  8
0
100
AcDbSpline
 62
7
  6
CONTINUOUS
 70
0
 71
3
 72
13
 73
9
 74
0
 42
0.0000001
 43
0.0000001
 44
0.0000000001
 40
0.0
 40
0.0
 40
0.0
 40
0.0
 40
0.2707240854
 40
0.5265992447
 40
0.6493531603
 40
0.7688966926
 40
0.8856007456
 40
1.0
 40
1.0
 40
1.0
 40
1.0
 10
14.7184998907
 20
13.435373646
 30
0.0
 10
14.7295110964
 20
13.4345600601
 30
0.0
 10
14.7508565475
 20
13.431386149
 30
0.0
 10
14.7761611744
 20
13.4230606176
 30
0.0
 10
14.7943664731
 20
13.4139741324
 30
0.0
 10
14.8067676116
 20
13.4061396629
 30
0.0
 10
14.8180000576
 20
13.3972454667
 30
0.0
 10
14.8247116022
 20
13.390593934
 30
0.0
 10
14.827829876
 20
13.3871233743
 30
0.0
  0
SPLINE
  5
378
100
AcDbEntity
  8
0
100
AcDbSpline
 62
7
  6
CONTINUOUS
 70
0
 71
3
 72
13
 73
9
 74
0
 42
0.0000001
 43
0.0000001
 44
0.0000000001
 40
0.0
 40
0.0
 40
0.0
 40
0.0
 40
0.2711944076
 40
0.5251952046
 40
0.6469931215
 40
0.7661621218
 40
0.8835348102
 40
1.0
 40
1.0
 40
1.0
 40
1.0
 10
12.6524791918
 20
13.3589803344
 30
0.0
 10
12.6494493397
 20
13.3651545239
 30
0.0
 10
12.6444260278
 20
13.3775563289
 30
0.0
 10
12.6408957802
 20
13.3936801486
 30
0.0
 10
12.6400387895
 20
13.4062222569
 30
0.0
 10
12.6403393456
 20
13.4153215088
 30
0.0
 10
12.6415723984
 20
13.4242046321
 30
0.0
 10
12.6430171536
 20
13.4299702767
 30
0.0
 10
12.6438898042
 20
13.4327919995
 30
0.0
  0
SPLINE
  5
379
100
AcDbEntity
  8
0
100
AcDbSpline
 62
7
  6
CONTINUOUS
 70
0
 71
3
 72
9
 73
5
 74
0
 42
0.0000001
 43
0.0000001
 44
0.0000000001
 40
0.0
 40
0.0
 40
0.0
 40
0.0
 40
0.4881034287
 40
1.0
 40
1.0
 40
1.0
 40
1.0
 10
14.4456734853
 20
13.2636603936
 30
0.0
 10
14.4483597907
 20
13.272353281
 30
0.0
 10
14.4553180285
 20
13.2897345132
 30
0.0
 10
14.4646810091
 20
13.3059263362
 30
0.0
 10
14.4699764007
 20
13.3138641391
 30
0.0
  0
SPLINE
  5
37A
100
AcDbEntity
  8
0
100
AcDbSpline
 62
7
  6
CONTINUOUS
 70
0
 71
3
 72
11
 73
7
 74
0
 42
0.0000001
 43
0.0000001
 44
0.0000000001
 40
0.0
 40
0.0
 40
0.0
 40
0.0
 40
0.2389677579
 40
0.4835438887
 40
0.7365605668
 40
1.0
 40
1.0
 40
1.0
 40
1.0
 10
14.4461939202
 20
13.1774944335
 30
0.0
 10
14.4437723349
 20
13.1840420254
 30
0.0
 10
14.4400773186
 20
13.1977682736
 30
0.0
 10
14.4381891978
 20
13.2193034286
 30
0.0
 10
14.439932792
 20
13.2415597124
 30
0.0
 10
14.443401277
 20
13.2563075246
 30
0.0
 10
14.4456734853
 20
13.2636603936
 30
0.0
  0
SPLINE
  5
37B
100
AcDbEntity
  8
0
100
AcDbSpline
 62
7
  6
CONTINUOUS
 70
0
 71
3
 72
11
 73
7
 74
0
 42
0.0000001
 43
0.0000001
 44
0.0000000001
 40
0.0
 40
0.0
 40
0.0
 40
0.0
 40
0.2689027024
 40
0.5252501363
 40
0.7685428925
 40
1.0
 40
1.0
 40
1.0
 40
1.0
 10
14.5950523129
 20
13.0913284735
 30
0.0
 10
14.5846825611
 20
13.0913284735
 30
0.0
 10
14.5643946438
 20
13.0926522642
 30
0.0
 10
14.5353003805
 20
13.0988706843
 30
0.0
 10
14.5089154048
 20
13.1091649515
 30
0.0
 10
14.493211519
 20
13.1188249589
 30
0.0
 10
14.4861174709
 20
13.1242418885
 30
0.0
  0
SPLINE
  5
37C
100
AcDbEntity
  8
0
100
AcDbSpline
 62
7
  6
CONTINUOUS
 70
0
 71
3
 72
11
 73
7
 74
0
 42
0.0000001
 43
0.0000001
 44
0.0000000001
 40
0.0
 40
0.0
 40
0.0
 40
0.0
 40
0.2542831664
 40
0.5045845412
 40
0.7526390527
 40
1.0
 40
1.0
 40
1.0
 40
1.0
 10
14.479769118
 20
13.1294109311
 30
0.0
 10
14.4759778661
 20
13.1327023244
 30
0.0
 10
14.4688306391
 20
13.1396839587
 30
0.0
 10
14.4595408205
 20
13.1513314238
 30
0.0
 10
14.4518740732
 20
13.1639466352
 30
0.0
 10
14.4478880709
 20
13.1729137123
 30
0.0
 10
14.4461939202
 20
13.1774944335
 30
0.0
  0
SPLINE
  5
37D
100
AcDbEntity
  8
0
100
AcDbSpline
 62
7
  6
CONTINUOUS
 70
0
 71
3
 72
11
 73
7
 74
0
 42
0.0000001
 43
0.0000001
 44
0.0000000001
 40
0.0
 40
0.0
 40
0.0
 40
0.0
 40
0.2515301231
 40
0.5031258136
 40
0.7531502864
 40
1.0
 40
1.0
 40
1.0
 40
1.0
 10
13.1741527787
 20
13.8668553484
 30
0.0
 10
13.1986038799
 20
13.8608003895
 30
0.0
 10
13.2471823123
 20
13.8473103849
 30
0.0
 10
13.3186593551
 20
13.8231108691
 30
0.0
 10
13.3882342309
 20
13.7951203866
 30
0.0
 10
13.4332954144
 20
13.7739352643
 30
0.0
 10
13.4553445846
 20
13.7627567699
 30
0.0
  0
SPLINE
  5
37E
100
AcDbEntity
  8
0
100
AcDbSpline
 62
7
  6
CONTINUOUS
 70
0
 71
3
 72
11
 73
7
 74
0
 42
0.0000001
 43
0.0000001
 44
0.0000000001
 40
0.0
 40
0.0
 40
0.0
 40
0.0
 40
0.2296240088
 40
0.4719962265
 40
0.7285583097
 40
1.0
 40
1.0
 40
1.0
 40
1.0
 10
15.8486858172
 20
13.7627567699
 30
0.0
 10
15.8599407145
 20
13.7741138139
 30
0.0
 10
15.8848476285
 20
13.7957500157
 30
0.0
 10
15.9272802833
 20
13.8237781344
 30
0.0
 10
15.9752935096
 20
13.8479426062
 30
0.0
 10
16.0097450976
 20
13.8609784278
 30
0.0
 10
16.027709298
 20
13.8668553484
 30
0.0
  0
SPLINE
  5
37F
100
AcDbEntity
  8
0
100
AcDbSpline
 62
7
  6
CONTINUOUS
 70
0
 71
3
 72
14
 73
10
 74
0
 42
0.0000001
 43
0.0000001
 44
0.0000000001
 40
0.0
 40
0.0
 40
0.0
 40
0.0
 40
0.1234153148
 40
0.2493750716
 40
0.5043049576
 40
0.6315569482
 40
0.7571928914
 40
0.8803371647
 40
1.0
 40
1.0
 40
1.0
 40
1.0
 10
14.7971652967
 20
13.1774944335
 30
0.0
 10
14.7906574857
 20
13.1709068496
 30
0.0
 10
14.776796205
 20
13.1582787973
 30
0.0
 10
14.7464221964
 20
13.1356430825
 30
0.0
 10
14.7126598876
 20
13.1173442678
 30
0.0
 10
14.6769079214
 20
13.1040497455
 30
0.0
 10
14.6495945243
 20
13.0967853926
 30
0.0
 10
14.6222617092
 20
13.0923611261
 30
0.0
 10
14.6040307737
 20
13.0913284735
 30
0.0
 10
14.5950523129
 20
13.0913284735
 30
0.0
  0
SPLINE
  5
380
100
AcDbEntity
  8
03__ASM_ALL_CURVES
100
AcDbSpline
 62
8
  6
PHANTOM
 70
0
 71
3
 72
231
 73
227
 74
0
 42
0.0000001
 43
0.0000001
 44
0.0000000001
 40
0.0
 40
0.0
 40
0.0
 40
0.0
 40
0.015625
 40
0.03125
 40
0.0390625
 40
0.046875
 40
0.0546875
 40
0.05859375
 40
0.0625
 40
0.06640625
 40
0.068359375
 40
0.0703125
 40
0.0708007812
 40
0.0712890625
 40
0.072265625
 40
0.0732421875
 40
0.07421875
 40
0.078125
 40
0.0859375
 40
0.09375
 40
0.1015625
 40
0.109375
 40
0.1171875
 40
0.125
 40
0.12890625
 40
0.1328125
 40
0.13671875
 40
0.138671875
 40
0.140625
 40
0.1416015625
 40
0.142578125
 40
0.14453125
 40
0.146484375
 40
0.1484375
 40
0.15234375
 40
0.15625
 40
0.171875
 40
0.1796875
 40
0.1875
 40
0.1953125
 40
0.203125
 40
0.20703125
 40
0.2109375
 40
0.212890625
 40
0.2138671875
 40
0.2143554688
 40
0.21484375
 40
0.2158203125
 40
0.216796875
 40
0.21875
 40
0.22265625
 40
0.2265625
 40
0.23046875
 40
0.234375
 40
0.2421875
 40
0.25
 40
0.2578125
 40
0.265625
 40
0.2734375
 40
0.27734375
 40
0.28125
 40
0.283203125
 40
0.2841796875
 40
0.28515625
 40
0.2856445312
 40
0.2861328125
 40
0.287109375
 40
0.2890625
 40
0.29296875
 40
0.296875
 40
0.3046875
 40
0.3125
 40
0.328125
 40
0.3359375
 40
0.34375
 40
0.34765625
 40
0.3515625
 40
0.353515625
 40
0.35546875
 40
0.357421875
 40
0.3583984375
 40
0.359375
 40
0.361328125
 40
0.36328125
 40
0.3671875
 40
0.37109375
 40
0.375
 40
0.3828125
 40
0.390625
 40
0.3984375
 40
0.40625
 40
0.4140625
 40
0.41796875
 40
0.421875
 40
0.42578125
 40
0.427734375
 40
0.4287109375
 40
0.4296875
 40
0.431640625
 40
0.43359375
 40
0.4375
 40
0.44140625
 40
0.4453125
 40
0.453125
 40
0.46875
 40
0.4765625
 40
0.484375
 40
0.48828125
 40
0.4921875
 40
0.49609375
 40
0.498046875
 40
0.4990234375
 40
0.5
 40
0.5009765625
 40
0.501953125
 40
0.50390625
 40
0.5078125
 40
0.51171875
 40
0.515625
 40
0.5234375
 40
0.53125
 40
0.546875
 40
0.5546875
 40
0.55859375
 40
0.5625
 40
0.56640625
 40
0.568359375
 40
0.5703125
 40
0.5712890625
 40
0.572265625
 40
0.57421875
 40
0.578125
 40
0.58203125
 40
0.5859375
 40
0.59375
 40
0.6015625
 40
0.609375
 40
0.6171875
 40
0.625
 40
0.62890625
 40
0.6328125
 40
0.63671875
 40
0.638671875
 40
0.640625
 40
0.6416015625
 40
0.642578125
 40
0.64453125
 40
0.646484375
 40
0.6484375
 40
0.65234375
 40
0.65625
 40
0.6640625
 40
0.671875
 40
0.6875
 40
0.6953125
 40
0.69921875
 40
0.703125
 40
0.70703125
 40
0.7109375
 40
0.712890625
 40
0.7138671875
 40
0.7143554688
 40
0.71484375
 40
0.7158203125
 40
0.716796875
 40
0.71875
 40
0.720703125
 40
0.72265625
 40
0.7265625
 40
0.734375
 40
0.7421875
 40
0.75
 40
0.7578125
 40
0.765625
 40
0.7734375
 40
0.77734375
 40
0.78125
 40
0.783203125
 40
0.7841796875
 40
0.78515625
 40
0.7856445312
 40
0.7861328125
 40
0.787109375
 40
0.7890625
 40
0.79296875
 40
0.796875
 40
0.80078125
 40
0.8046875
 40
0.8125
 40
0.828125
 40
0.8359375
 40
0.84375
 40
0.84765625
 40
0.8515625
 40
0.853515625
 40
0.85546875
 40
0.857421875
 40
0.8583984375
 40
0.859375
 40
0.861328125
 40
0.86328125
 40
0.8671875
 40
0.87109375
 40
0.875
 40
0.8828125
 40
0.890625
 40
0.8984375
 40
0.90625
 40
0.9140625
 40
0.921875
 40
0.92578125
 40
0.9267578125
 40
0.927734375
 40
0.9287109375
 40
0.9291992188
 40
0.9296875
 40
0.931640625
 40
0.93359375
 40
0.9375
 40
0.94140625
 40
0.9453125
 40
0.953125
 40
0.9609375
 40
0.96875
 40
0.984375
 40
1.0
 40
1.0
 40
1.0
 40
1.0
 10
18.5940849013
 20
12.5563817845
 30
0.0
 10
18.5779254413
 20
12.5825400131
 30
0.0
 10
18.5456065149
 20
12.6348564701
 30
0.0
 10
18.5052078897
 20
12.7002520426
 30
0.0
 10
18.4728889205
 20
12.7525684979
 30
0.0
 10
18.4486498811
 20
12.7918058466
 30
0.0
 10
18.4284500852
 20
12.8245036142
 30
0.0
 10
18.4122915862
 20
12.8506618799
 30
0.0
 10
18.4001690566
 20
12.870280438
 30
0.0
 10
18.3900785757
 20
12.8866296855
 30
0.0
 10
18.3819801137
 20
12.8997080764
 30
0.0
 10
18.3774781703
 20
12.9070667351
 30
0.0
 10
18.3743918802
 20
12.9119692252
 30
0.0
 10
18.3725372538
 20
12.9152453876
 30
0.0
 10
18.3687397154
 20
12.9192834645
 30
0.0
 10
18.3645277448
 20
12.924142483
 30
0.0
 10
18.3559264828
 20
12.9338536722
 30
0.0
 10
18.3373940505
 20
12.9548985842
 30
0.0
 10
18.3088125862
 20
12.9872726677
 30
0.0
 10
18.27454485
 20
13.0261227263
 30
0.0
 10
18.2402690779
 20
13.0649724778
 30
0.0
 10
18.2059954287
 20
13.1038222994
 30
0.0
 10
18.1717213234
 20
13.1426721477
 30
0.0
 10
18.1431593205
 20
13.175046874
 30
0.0
 10
18.1203105425
 20
13.2009469952
 30
0.0
 10
18.1031716352
 20
13.2203711538
 30
0.0
 10
18.088896615
 20
13.2365609186
 30
0.0
 10
18.0774599946
 20
13.2495060783
 30
0.0
 10
18.070349916
 20
13.2576119506
 30
0.0
 10
18.0645752623
 20
13.2640619575
 30
0.0
 10
18.0591167246
 20
13.2706386101
 30
0.0
 10
18.050030921
 20
13.277952947
 30
0.0
 10
18.0396569193
 20
13.2869420697
 30
0.0
 10
18.0256401759
 20
13.2988535539
 30
0.0
 10
18.0081823981
 20
13.3137682094
 30
0.0
 10
17.9662317017
 20
13.3495425379
 30
0.0
 10
17.9173068207
 20
13.3912863075
 30
0.0
 10
17.8613843643
 20
13.4389901358
 30
0.0
 10
17.8194433076
 20
13.474768345
 30
0.0
 10
17.7775032617
 20
13.510546871
 30
0.0
 10
17.7425491995
 20
13.5403609715
 30
0.0
 10
17.7145951019
 20
13.5642153042
 30
0.0
 10
17.6971029224
 20
13.5791173005
 30
0.0
 10
17.6849002185
 20
13.5895626496
 30
0.0
 10
17.6787416119
 20
13.5947662241
 30
0.0
 10
17.6753145845
 20
13.5977704451
 30
0.0
 10
17.6709620893
 20
13.6004659312
 30
0.0
 10
17.6658383082
 20
13.6039409856
 30
0.0
 10
17.6574634317
 20
13.6094420834
 30
0.0
 10
17.6428897854
 20
13.6190964889
 30
0.0
 10
17.6220272113
 20
13.6328741257
 30
0.0
 10
17.5970105892
 20
13.6494134502
 30
0.0
 10
17.5719890271
 20
13.6659511269
 30
0.0
 10
17.5386286687
 20
13.6880019368
 30
0.0
 10
17.4969276372
 20
13.7155652611
 30
0.0
 10
17.4468866135
 20
13.748641292
 30
0.0
 10
17.3968456673
 20
13.7817174567
 30
0.0
 10
17.3468041966
 20
13.8147930445
 30
0.0
 10
17.3051046549
 20
13.8423578461
 30
0.0
 10
17.2717412426
 20
13.8644056274
 30
0.0
 10
17.2508977152
 20
13.8781947348
 30
0.0
 10
17.2362900015
 20
13.8878285856
 30
0.0
 10
17.227969717
 20
13.893362626
 30
0.0
 10
17.2227061939
 20
13.8967533547
 30
0.0
 10
17.218640659
 20
13.8996220039
 30
0.0
 10
17.214044666
 20
13.9019208252
 30
0.0
 10
17.2060941369
 20
13.9060430835
 30
0.0
 10
17.1901274444
 20
13.9142170944
 30
0.0
 10
17.167352128
 20
13.9259310388
 30
0.0
 10
17.1308924862
 20
13.9446527936
 30
0.0
 10
17.085324474
 20
13.968062015
 30
0.0
 10
17.0124120693
 20
14.0055129036
 30
0.0
 10
16.9395002476
 20
14.0429644968
 30
0.0
 10
16.8665893657
 20
14.0804168754
 30
0.0
 10
16.8210172292
 20
14.1038220615
 30
0.0
 10
16.7845660897
 20
14.1225521351
 30
0.0
 10
16.761769121
 20
14.1342448948
 30
0.0
 10
16.7435659193
 20
14.1436301084
 30
0.0
 10
16.7298194022
 20
14.1505841228
 30
0.0
 10
16.7186633685
 20
14.1566492019
 30
0.0
 10
16.7085091071
 20
14.1603922708
 30
0.0
 10
16.6985695535
 20
14.164329014
 30
0.0
 10
16.6860715954
 20
14.1691836286
 30
0.0
 10
16.6661159507
 20
14.1769880753
 30
0.0
 10
16.6411572976
 20
14.1867309174
 30
0.0
 10
16.6112129479
 20
14.1984277706
 30
0.0
 10
16.5712850408
 20
14.2140216753
 30
0.0
 10
16.5213758781
 20
14.2335146962
 30
0.0
 10
16.4614845824
 20
14.2569060987
 30
0.0
 10
16.4015933346
 20
14.2802973676
 30
0.0
 10
16.341702196
 20
14.3036893931
 30
0.0
 10
16.2917925098
 20
14.3231803373
 30
0.0
 10
16.2518656759
 20
14.3387784991
 30
0.0
 10
16.2219180477
 20
14.3504623476
 30
0.0
 10
16.1969696521
 20
14.360245878
 30
0.0
 10
16.1794901517
 20
14.3670021335
 30
0.0
 10
16.1695262604
 20
14.3710068381
 30
0.0
 10
16.1593179383
 20
14.3735688137
 30
0.0
 10
16.1466412291
 20
14.3772652756
 30
0.0
 10
16.1263117181
 20
14.3829035219
 30
0.0
 10
16.100915878
 20
14.3900460552
 30
0.0
 10
16.0704340008
 20
14.3985765523
 30
0.0
 10
16.0297938955
 20
14.4099646962
 30
0.0
 10
15.9586725788
 20
14.4298872961
 30
0.0
 10
15.8773916459
 20
14.4526591518
 30
0.0
 10
15.7961102915
 20
14.4754290994
 30
0.0
 10
15.7453100221
 20
14.489662445
 30
0.0
 10
15.704668527
 20
14.5010444906
 30
0.0
 10
15.6741908981
 20
14.5095936404
 30
0.0
 10
15.6487817657
 20
14.5166778093
 30
0.0
 10
15.6310171727
 20
14.5217154657
 30
0.0
 10
15.6208319383
 20
14.5244711836
 30
0.0
 10
15.6132888991
 20
14.5268843043
 30
0.0
 10
15.6053793325
 20
14.5279735671
 30
0.0
 10
15.5949610925
 20
14.5298876941
 30
0.0
 10
15.5766696054
 20
14.533022266
 30
0.0
 10
15.5505700519
 20
14.537612709
 30
0.0
 10
15.5192372581
 20
14.5430730933
 30
0.0
 10
15.4774648538
 20
14.5503704271
 30
0.0
 10
15.4252477664
 20
14.5594863029
 30
0.0
 10
15.3417012435
 20
14.5740751262
 30
0.0
 10
15.2581548817
 20
14.5886619503
 30
0.0
 10
15.1850508559
 20
14.6014284238
 30
0.0
 10
15.1432786907
 20
14.608719404
 30
0.0
 10
15.1119451493
 20
14.6141992237
 30
0.0
 10
15.0858479384
 20
14.6187288531
 30
0.0
 10
15.0649386018
 20
14.6224352933
 30
0.0
 10
15.0519421492
 20
14.6245634202
 30
0.0
 10
15.0413803604
 20
14.6266973933
 30
0.0
 10
15.0314195725
 20
14.6272561988
 30
0.0
 10
15.0138832269
 20
14.6285092168
 30
0.0
 10
14.9888861825
 20
14.6301554126
 30
0.0
 10
14.9588662395
 20
14.6321924117
 30
0.0
 10
14.9188478541
 20
14.6348869055
 30
0.0
 10
14.8688220573
 20
14.6382624005
 30
0.0
 10
14.8087923059
 20
14.6423098388
 30
0.0
 10
14.7487622395
 20
14.6463580955
 30
0.0
 10
14.6887322279
 20
14.650406234
 30
0.0
 10
14.6387072982
 20
14.6537793948
 30
0.0
 10
14.5986871352
 20
14.6564786738
 30
0.0
 10
14.5686726227
 20
14.6585010546
 30
0.0
 10
14.543658588
 20
14.6601929873
 30
0.0
 10
14.5236517135
 20
14.6615316959
 30
0.0
 10
14.5111375042
 20
14.6624021748
 30
0.0
 10
14.501148839
 20
14.663021181
 30
0.0
 10
14.4910772952
 20
14.6639226662
 30
0.0
 10
14.479081077
 20
14.6630276512
 30
0.0
 10
14.4645469322
 20
14.6624263131
 30
0.0
 10
14.4452165115
 20
14.6614594318
 30
0.0
 10
14.4210369001
 20
14.6603073594
 30
0.0
 10
14.3823587912
 20
14.6584324515
 30
0.0
 10
14.3340079772
 20
14.6560996393
 30
0.0
 10
14.2566484745
 20
14.6523610586
 30
0.0
 10
14.179288343
 20
14.6486243329
 30
0.0
 10
14.1115986974
 20
14.6453538195
 30
0.0
 10
14.0729184095
 20
14.6434855329
 30
0.0
 10
14.0439095306
 20
14.6420828343
 30
0.0
 10
14.0148955488
 20
14.6406857815
 30
0.0
 10
13.9907331262
 20
14.6395039877
 30
0.0
 10
13.9737882823
 20
14.6387111865
 30
0.0
 10
13.9653584098
 20
14.6382677199
 30
0.0
 10
13.9604728475
 20
14.6380900729
 30
0.0
 10
13.9562749464
 20
14.6371517725
 30
0.0
 10
13.950792114
 20
14.6362393458
 30
0.0
 10
13.9421511786
 20
14.6346338981
 30
0.0
 10
13.9313048596
 20
14.6326770307
 30
0.0
 10
13.9183086006
 20
14.6303074149
 30
0.0
 10
13.9009735149
 20
14.6271553829
 30
0.0
 10
13.8706402551
 20
14.6216358536
 30
0.0
 10
13.8273053875
 20
14.6137526247
 30
0.0
 10
13.7753042377
 20
14.6042919868
 30
0.0
 10
13.7233029454
 20
14.5948315008
 30
0.0
 10
13.6713015319
 20
14.5853711706
 30
0.0
 10
13.6193007457
 20
14.5759100656
 30
0.0
 10
13.5759647673
 20
14.568028264
 30
0.0
 10
13.5413004466
 20
14.5617173239
 30
0.0
 10
13.519625086
 20
14.5577855071
 30
0.0
 10
13.5044726939
 20
14.5550081447
 30
0.0
 10
13.4957823287
 20
14.5534603367
 30
0.0
 10
13.4904256414
 20
14.5524007901
 30
0.0
 10
13.4859687571
 20
14.5517645386
 30
0.0
 10
13.4821381778
 20
14.5503564774
 30
0.0
 10
13.4753254982
 20
14.5480268978
 30
0.0
 10
13.4617776443
 20
14.543272227
 30
0.0
 10
13.4423830406
 20
14.536529782
 30
0.0
 10
13.4191268891
 20
14.5284174393
 30
0.0
 10
13.3958660883
 20
14.5203108248
 30
0.0
 10
13.3648533202
 20
14.5094999999
 30
0.0
 10
13.3105801016
 20
14.4905820653
 30
0.0
 10
13.2485546634
 20
14.4689606668
 30
0.0
 10
13.1865269326
 20
14.4473408206
 30
0.0
 10
13.1477644178
 20
14.4338252877
 30
0.0
 10
13.1167434184
 20
14.423019983
 30
0.0
 10
13.0973803543
 20
14.4162504279
 30
0.0
 10
13.0818325046
 20
14.4108719786
 30
0.0
 10
13.0703287765
 20
14.4067363011
 30
0.0
 10
13.0602423882
 20
14.4036138738
 30
0.0
 10
13.0542262476
 20
14.39978559
 30
0.0
 10
13.0478515771
 20
14.3961896365
 30
0.0
 10
13.0400060001
 20
14.3916151444
 30
0.0
 10
13.0273844657
 20
14.3843404177
 30
0.0
 10
13.0116310876
 20
14.3752317553
 30
0.0
 10
12.9927169588
 20
14.3643078891
 30
0.0
 10
12.9675016359
 20
14.3497404563
 30
0.0
 10
12.9359813032
 20
14.3315319277
 30
0.0
 10
12.8981572907
 20
14.3096814507
 30
0.0
 10
12.8603336174
 20
14.2878307245
 30
0.0
 10
12.8225082008
 20
14.2659812378
 30
0.0
 10
12.7846894183
 20
14.2441270422
 30
0.0
 10
12.7531531053
 20
14.225929876
 30
0.0
 10
12.7326920954
 20
14.2140750372
 30
0.0
 10
12.7232090491
 20
14.2086316092
 30
0.0
 10
12.718540749
 20
14.2058579279
 30
0.0
 10
12.7144130059
 20
14.2037150784
 30
0.0
 10
12.7120881632
 20
14.2013071605
 30
0.0
 10
12.7083495417
 20
14.1978736751
 30
0.0
 10
12.7028469026
 20
14.1926487191
 30
0.0
 10
12.6929859685
 20
14.1834155957
 30
0.0
 10
12.6806867216
 20
14.1718550854
 30
0.0
 10
12.6659161023
 20
14.1579906511
 30
0.0
 10
12.6462259685
 20
14.139501882
 30
0.0
 10
12.6216119201
 20
14.1163919008
 30
0.0
 10
12.5920756533
 20
14.0886595038
 30
0.0
 10
12.5526937575
 20
14.051683121
 30
0.0
 10
12.5034664592
 20
14.005462592
 30
0.0
 10
12.4640845988
 20
13.9684861841
 30
0.0
 10
12.4443936714
 20
13.9499979783
 30
0.0
  0
SPLINE
  5
381
100
AcDbEntity
  8
03__ASM_ALL_CURVES
100
AcDbSpline
 62
8
  6
PHANTOM
 70
0
 71
3
 72
88
 73
84
 74
0
 42
0.0000001
 43
0.0000001
 44
0.0000000001
 40
0.0
 40
0.0
 40
0.0
 40
0.0
 40
0.0625
 40
0.09375
 40
0.109375
 40
0.125
 40
0.140625
 40
0.15625
 40
0.16015625
 40
0.1640625
 40
0.166015625
 40
0.16796875
 40
0.171875
 40
0.1796875
 40
0.1875
 40
0.203125
 40
0.21875
 40
0.25
 40
0.28125
 40
0.296875
 40
0.3125
 40
0.3203125
 40
0.328125
 40
0.33203125
 40
0.333984375
 40
0.3359375
 40
0.33984375
 40
0.34375
 40
0.359375
 40
0.375
 40
0.390625
 40
0.40625
 40
0.421875
 40
0.4375
 40
0.453125
 40
0.46875
 40
0.4765625
 40
0.484375
 40
0.4921875
 40
0.49609375
 40
0.498046875
 40
0.5
 40
0.501953125
 40
0.50390625
 40
0.5078125
 40
0.515625
 40
0.5234375
 40
0.53125
 40
0.546875
 40
0.5625
 40
0.578125
 40
0.59375
 40
0.609375
 40
0.625
 40
0.640625
 40
0.6484375
 40
0.65625
 40
0.66015625
 40
0.6640625
 40
0.666015625
 40
0.66796875
 40
0.671875
 40
0.6796875
 40
0.6875
 40
0.703125
 40
0.71875
 40
0.75
 40
0.78125
 40
0.796875
 40
0.8125
 40
0.8203125
 40
0.828125
 40
0.83203125
 40
0.833984375
 40
0.8359375
 40
0.83984375
 40
0.84375
 40
0.859375
 40
0.875
 40
0.890625
 40
0.90625
 40
0.9375
 40
1.0
 40
1.0
 40
1.0
 40
1.0
 10
12.4443937169
 20
13.9499980342
 30
0.0
 10
12.4279764457
 20
13.9253709412
 30
0.0
 10
12.4033503042
 20
13.8884303906
 30
0.0
 10
12.3746206272
 20
13.8453327704
 30
0.0
 10
12.3582024953
 20
13.8207060035
 30
0.0
 10
12.3458921826
 20
13.8022346832
 30
0.0
 10
12.3335693119
 20
13.7837681212
 30
0.0
 10
12.3243623684
 20
13.7699048587
 30
0.0
 10
12.3181696478
 20
13.7606834317
 30
0.0
 10
12.3156708308
 20
13.7568102962
 30
0.0
 10
12.3134816933
 20
13.7537838113
 30
0.0
 10
12.311987705
 20
13.7504939317
 30
0.0
 10
12.3096962084
 20
13.7446142631
 30
0.0
 10
12.3062541253
 20
13.7362785881
 30
0.0
 10
12.3008409691
 20
13.7229058239
 30
0.0
 10
12.2940422636
 20
13.7062020934
 30
0.0
 10
12.2831824471
 20
13.6794692548
 30
0.0
 10
12.2696008754
 20
13.6460558314
 30
0.0
 10
12.2560238675
 20
13.6126404955
 30
0.0
 10
12.2451567489
 20
13.5859107168
 30
0.0
 10
12.2383762986
 20
13.5691993363
 30
0.0
 10
12.2329257193
 20
13.5558422546
 30
0.0
 10
12.2295789056
 20
13.5474666563
 30
0.0
 10
12.2271162948
 20
13.5416586941
 30
0.0
 10
12.2258965912
 20
13.538253874
 30
0.0
 10
12.2253831144
 20
13.5345251939
 30
0.0
 10
12.2244998771
 20
13.5299750405
 30
0.0
 10
12.2225787838
 20
13.5189635639
 30
0.0
 10
12.2196136966
 20
13.502484616
 30
0.0
 10
12.2157079469
 20
13.4804908112
 30
0.0
 10
12.2117894183
 20
13.4585028674
 30
0.0
 10
12.2078743052
 20
13.4365133538
 30
0.0
 10
12.2039583093
 20
13.4145242582
 30
0.0
 10
12.2000424288
 20
13.3925350606
 30
0.0
 10
12.1961269695
 20
13.3705458527
 30
0.0
 10
12.1928625866
 20
13.3522216323
 30
0.0
 10
12.1902544702
 20
13.3375619744
 30
0.0
 10
12.188289113
 20
13.3265680039
 30
0.0
 10
12.1866808027
 20
13.3174039028
 30
0.0
 10
12.1854971176
 20
13.3109938578
 30
0.0
 10
12.1849110819
 20
13.3073234399
 30
0.0
 10
12.1842170214
 20
13.3045918527
 30
0.0
 10
12.1844959181
 20
13.3017791282
 30
0.0
 10
12.1845284021
 20
13.2980571305
 30
0.0
 10
12.1847433717
 20
13.2915304484
 30
0.0
 10
12.1849678027
 20
13.2822135106
 30
0.0
 10
12.1852725049
 20
13.2710302344
 30
0.0
 10
12.1856664138
 20
13.2561202303
 30
0.0
 10
12.1861630426
 20
13.2374823711
 30
0.0
 10
12.1867571731
 20
13.2151170935
 30
0.0
 10
12.1873518119
 20
13.1927517689
 30
0.0
 10
12.1879462416
 20
13.1703864787
 30
0.0
 10
12.1885409992
 20
13.1480210979
 30
0.0
 10
12.1891346545
 20
13.1256560448
 30
0.0
 10
12.1896327684
 20
13.1070174839
 30
0.0
 10
12.1900236479
 20
13.0921089114
 30
0.0
 10
12.1902852759
 20
13.0827858714
 30
0.0
 10
12.1904548934
 20
13.0753393074
 30
0.0
 10
12.1906514523
 20
13.0706581261
 30
0.0
 10
12.1906013056
 20
13.0669752032
 30
0.0
 10
12.1913082959
 20
13.0630658548
 30
0.0
 10
12.1928972514
 20
13.0561193107
 30
0.0
 10
12.1949836764
 20
13.0462505562
 30
0.0
 10
12.1984245133
 20
13.0304298793
 30
0.0
 10
12.2026904288
 20
13.0106645358
 30
0.0
 10
12.2095356154
 20
12.9790341093
 30
0.0
 10
12.2180847083
 20
12.9394981424
 30
0.0
 10
12.2266387102
 20
12.8999612566
 30
0.0
 10
12.2334760424
 20
12.8683323004
 30
0.0
 10
12.2377615938
 20
12.8485632812
 30
0.0
 10
12.2411621771
 20
12.8327501394
 30
0.0
 10
12.243351077
 20
12.8228622027
 30
0.0
 10
12.2447559766
 20
12.8159501119
 30
0.0
 10
12.2457579963
 20
12.8119855371
 30
0.0
 10
12.2475103754
 20
12.8079651852
 30
0.0
 10
12.2494443733
 20
12.8029588103
 30
0.0
 10
12.2542970598
 20
12.7909278191
 30
0.0
 10
12.2614874287
 20
12.7728879229
 30
0.0
 10
12.2711252619
 20
12.7488309611
 30
0.0
 10
12.2807495396
 20
12.7247750069
 30
0.0
 10
12.2935866395
 20
12.6927000497
 30
0.0
 10
12.3160493473
 20
12.6365690395
 30
0.0
 10
12.335303857
 20
12.5884566885
 30
0.0
 10
12.3481400279
 20
12.5563818004
 30
0.0
  0
SPLINE
  5
382
100
AcDbEntity
  8
03__ASM_ALL_CURVES
100
AcDbSpline
 62
8
  6
PHANTOM
 70
0
 71
3
 72
69
 73
65
 74
0
 42
0.0000001
 43
0.0000001
 44
0.0000000001
 40
0.0
 40
0.0
 40
0.0
 40
0.0
 40
0.0625
 40
0.09375
 40
0.125
 40
0.140625
 40
0.15625
 40
0.1640625
 40
0.16796875
 40
0.171875
 40
0.1796875
 40
0.1875
 40
0.203125
 40
0.21875
 40
0.25
 40
0.28125
 40
0.296875
 40
0.3125
 40
0.3203125
 40
0.328125
 40
0.33203125
 40
0.3359375
 40
0.34375
 40
0.359375
 40
0.375
 40
0.390625
 40
0.40625
 40
0.4375
 40
0.453125
 40
0.46875
 40
0.484375
 40
0.4921875
 40
0.49609375
 40
0.5
 40
0.50390625
 40
0.5078125
 40
0.515625
 40
0.53125
 40
0.546875
 40
0.5625
 40
0.59375
 40
0.625
 40
0.640625
 40
0.65625
 40
0.6640625
 40
0.66796875
 40
0.671875
 40
0.6796875
 40
0.6875
 40
0.703125
 40
0.71875
 40
0.75
 40
0.78125
 40
0.8125
 40
0.8203125
 40
0.828125
 40
0.83203125
 40
0.8359375
 40
0.84375
 40
0.859375
 40
0.875
 40
0.90625
 40
0.9375
 40
1.0
 40
1.0
 40
1.0
 40
1.0
 10
12.3481400357
 20
12.5563817845
 30
0.0
 10
12.3620393421
 20
12.5315884048
 30
0.0
 10
12.3828899361
 20
12.4943984427
 30
0.0
 10
12.4106841905
 20
12.4448113961
 30
0.0
 10
12.4280692194
 20
12.413820389
 30
0.0
 10
12.4419461892
 20
12.3890255382
 30
0.0
 10
12.4506901187
 20
12.3735334207
 30
0.0
 10
12.4566689332
 20
12.3626795909
 30
0.0
 10
12.4603074708
 20
12.3564920275
 30
0.0
 10
12.4647825875
 20
12.3503595587
 30
0.0
 10
12.4700900396
 20
12.3426751086
 30
0.0
 10
12.478742045
 20
12.3303905301
 30
0.0
 10
12.4895022114
 20
12.3150312006
 30
0.0
 10
12.5067492917
 20
12.2904582714
 30
0.0
 10
12.5282963979
 20
12.25974155
 30
0.0
 10
12.5498519634
 20
12.2290245703
 30
0.0
 10
12.567085509
 20
12.2044520546
 30
0.0
 10
12.5778795122
 20
12.1890916913
 30
0.0
 10
12.5864621522
 20
12.176809232
 30
0.0
 10
12.5919461899
 20
12.169119387
 30
0.0
 10
12.5960588303
 20
12.1629979922
 30
0.0
 10
12.6011739196
 20
12.1567653193
 30
0.0
 10
12.6105910785
 20
12.1458064405
 30
0.0
 10
12.6238006243
 20
12.130177932
 30
0.0
 10
12.6397564858
 20
12.1114121394
 30
0.0
 10
12.6556843823
 20
12.0926494244
 30
0.0
 10
12.6769315157
 20
12.0676315
 30
0.0
 10
12.6981749505
 20
12.0426132472
 30
0.0
 10
12.7194220278
 20
12.0175967081
 30
0.0
 10
12.7353501067
 20
11.9988294908
 30
0.0
 10
12.748646085
 20
11.9832054721
 30
0.0
 10
12.7579090162
 20
11.9722385738
 30
0.0
 10
12.7632712093
 20
11.9660187507
 30
0.0
 10
12.7670982295
 20
11.9612215515
 30
0.0
 10
12.7716692034
 20
11.9569301919
 30
0.0
 10
12.7775043362
 20
11.9510319366
 30
0.0
 10
12.7878367209
 20
11.9407921976
 30
0.0
 10
12.8025340872
 20
11.9261210202
 30
0.0
 10
12.8201978581
 20
11.9085340023
 30
0.0
 10
12.8437407095
 20
11.8850782265
 30
0.0
 10
12.8731682692
 20
11.8557606597
 30
0.0
 10
12.9026109012
 20
11.826442504
 30
0.0
 10
12.926129637
 20
11.8029876706
 30
0.0
 10
12.940909735
 20
11.7883294662
 30
0.0
 10
12.9510936757
 20
11.778066551
 30
0.0
 10
12.9571667376
 20
11.7722054318
 30
0.0
 10
12.9641954012
 20
11.7663571366
 30
0.0
 10
12.972654036
 20
11.7590423773
 30
0.0
 10
12.9863706946
 20
11.7473412122
 30
0.0
 10
13.0034539744
 20
11.7327139441
 30
0.0
 10
13.030821814
 20
11.7093106106
 30
0.0
 10
13.0650223486
 20
11.6800574748
 30
0.0
 10
13.1060555742
 20
11.6449483192
 30
0.0
 10
13.1368638588
 20
11.6186313929
 30
0.0
 10
13.1573494237
 20
11.60106356
 30
0.0
 10
13.1659646267
 20
11.5937781718
 30
0.0
 10
13.1726711958
 20
11.5878692816
 30
0.0
 10
13.1800564974
 20
11.5822550762
 30
0.0
 10
13.1932961304
 20
11.5725671343
 30
0.0
 10
13.2120453551
 20
11.5586557804
 30
0.0
 10
13.2421360673
 20
11.5364375373
 30
0.0
 10
13.2797179593
 20
11.5086510579
 30
0.0
 10
13.3398666697
 20
11.4642003683
 30
0.0
 10
13.3849742238
 20
11.4308606237
 30
0.0
 10
13.4150468107
 20
11.4086345112
 30
0.0
  0
SPLINE
  5
383
100
AcDbEntity
  8
03__ASM_ALL_CURVES
100
AcDbSpline
 62
8
  6
PHANTOM
 70
0
 71
3
 72
50
 73
46
 74
0
 42
0.0000001
 43
0.0000001
 44
0.0000000001
 40
0.0
 40
0.0
 40
0.0
 40
0.0
 40
0.0625
 40
0.125
 40
0.140625
 40
0.15625
 40
0.1640625
 40
0.171875
 40
0.1875
 40
0.21875
 40
0.25
 40
0.28125
 40
0.3125
 40
0.328125
 40
0.3359375
 40
0.34375
 40
0.359375
 40
0.375
 40
0.4375
 40
0.46875
 40
0.484375
 40
0.4921875
 40
0.5
 40
0.5078125
 40
0.515625
 40
0.53125
 40
0.5625
 40
0.625
 40
0.640625
 40
0.65625
 40
0.6640625
 40
0.671875
 40
0.6875
 40
0.71875
 40
0.75
 40
0.78125
 40
0.8125
 40
0.828125
 40
0.8359375
 40
0.84375
 40
0.859375
 40
0.875
 40
0.90625
 40
0.9375
 40
1.0
 40
1.0
 40
1.0
 40
1.0
 10
16.2536074254
 20
10.4554189377
 30
0.0
 10
16.2798635993
 20
10.454606933
 30
0.0
 10
16.3323711577
 20
10.4529756002
 30
0.0
 10
16.3914637133
 20
10.4511733064
 30
0.0
 10
16.4308273199
 20
10.4499237168
 30
0.0
 10
16.44727522
 20
10.4494740007
 30
0.0
 10
16.4603253295
 20
10.4489487629
 30
0.0
 10
16.4737711632
 20
10.449028628
 30
0.0
 10
16.4974851836
 20
10.4494497194
 30
0.0
 10
16.531266826
 20
10.4499031535
 30
0.0
 10
16.5718431984
 20
10.45051524
 30
0.0
 10
16.612418812
 20
10.4510924642
 30
0.0
 10
16.6462023515
 20
10.4516330541
 30
0.0
 10
16.6699130519
 20
10.4519016229
 30
0.0
 10
16.6833641976
 20
10.4522255241
 30
0.0
 10
16.6964467279
 20
10.4531910211
 30
0.0
 10
16.7129259821
 20
10.4541784455
 30
0.0
 10
16.7523715612
 20
10.4567301663
 30
0.0
 10
16.7984352461
 20
10.459633153
 30
0.0
 10
16.8444589555
 20
10.4625990379
 30
0.0
 10
16.8675044679
 20
10.4640320456
 30
0.0
 10
16.8806213439
 20
10.4649275241
 30
0.0
 10
16.8906053491
 20
10.465383549
 30
0.0
 10
16.9000299557
 20
10.4666636016
 30
0.0
 10
16.9127912363
 20
10.4680828935
 30
0.0
 10
16.9350324189
 20
10.4707007273
 30
0.0
 10
16.9795830083
 20
10.4758366065
 30
0.0
 10
17.0240884866
 20
10.4810349244
 30
0.0
 10
17.0622839745
 20
10.4854281055
 30
0.0
 10
17.0781403507
 20
10.4873330649
 30
0.0
 10
17.0909608433
 20
10.4886845631
 30
0.0
 10
17.1032864975
 20
10.4906663646
 30
0.0
 10
17.1246263349
 20
10.4944275307
 30
0.0
 10
17.1552330075
 20
10.4996464274
 30
0.0
 10
17.1919051457
 20
10.5059795077
 30
0.0
 10
17.2286068543
 20
10.512277687
 30
0.0
 10
17.2591396008
 20
10.5175838363
 30
0.0
 10
17.2806088087
 20
10.5211923103
 30
0.0
 10
17.2927274702
 20
10.5234184193
 30
0.0
 10
17.3042834226
 20
10.5262624164
 30
0.0
 10
17.3189210341
 20
10.5296058486
 30
0.0
 10
17.3422335368
 20
10.5350735745
 30
0.0
 10
17.3714110492
 20
10.5418677308
 30
0.0
 10
17.4180743623
 20
10.5527611185
 30
0.0
 10
17.4530765061
 20
10.5609260433
 30
0.0
 10
17.4764102333
 20
10.5663704633
 30
0.0
  0
SPLINE
  5
384
100
AcDbEntity
  8
03__ASM_ALL_CURVES
100
AcDbSpline
 62
8
  6
PHANTOM
 70
0
 71
3
 72
32
 73
28
 74
0
 42
0.0000001
 43
0.0000001
 44
0.0000000001
 40
0.0
 40
0.0
 40
0.0
 40
0.0
 40
0.125
 40
0.25
 40
0.3125
 40
0.375
 40
0.4375
 40
0.46875
 40
0.484375
 40
0.5
 40
0.515625
 40
0.53125
 40
0.5625
 40
0.59375
 40
0.625
 40
0.65625
 40
0.671875
 40
0.6875
 40
0.71875
 40
0.75
 40
0.78125
 40
0.8125
 40
0.828125
 40
0.84375
 40
0.875
 40
0.9375
 40
1.0
 40
1.0
 40
1.0
 40
1.0
 10
18.4619328625
 20
11.1205936635
 30
0.0
 10
18.4631241071
 20
11.1219423229
 30
0.0
 10
18.4655120943
 20
11.1246374324
 30
0.0
 10
18.4684695884
 20
11.128017365
 30
0.0
 10
18.4708385621
 20
11.1307242587
 30
0.0
 10
18.472595476
 20
11.1327520303
 30
0.0
 10
18.4740786872
 20
11.134470311
 30
0.0
 10
18.4750734649
 20
11.1356200649
 30
0.0
 10
18.4757106947
 20
11.1363594559
 30
0.0
 10
18.4759946808
 20
11.1366819881
 30
0.0
 10
18.477020019
 20
11.1378913701
 30
0.0
 10
18.4781283545
 20
11.1391943015
 30
0.0
 10
18.4796012599
 20
11.1409276758
 30
0.0
 10
18.4813369865
 20
11.1429694841
 30
0.0
 10
18.4830597747
 20
11.1449967194
 30
0.0
 10
18.484565026
 20
11.1467665262
 30
0.0
 10
18.4856086697
 20
11.1479965926
 30
0.0
 10
18.4860658589
 20
11.1485480292
 30
0.0
 10
18.4868376689
 20
11.1494690574
 30
0.0
 10
18.4876819703
 20
11.1504799205
 30
0.0
 10
18.4885332363
 20
11.1514974944
 30
0.0
 10
18.4892876346
 20
11.1524017458
 30
0.0
 10
18.4897796472
 20
11.152986736
 30
0.0
 10
18.490681676
 20
11.1540803512
 30
0.0
 10
18.4924509524
 20
11.1562307583
 30
0.0
 10
18.494878108
 20
11.1591782523
 30
0.0
 10
18.4968504251
 20
11.1615741953
 30
0.0
 10
18.4978327596
 20
11.1627674234
 30
0.0
  0
SPLINE
  5
385
100
AcDbEntity
  8
03__ASM_ALL_CURVES
100
AcDbSpline
 62
8
  6
PHANTOM
 70
0
 71
3
 72
88
 73
84
 74
0
 42
0.0000001
 43
0.0000001
 44
0.0000000001
 40
0.0
 40
0.0
 40
0.0
 40
0.0
 40
0.0625
 40
0.09375
 40
0.109375
 40
0.125
 40
0.140625
 40
0.15625
 40
0.16015625
 40
0.1640625
 40
0.166015625
 40
0.16796875
 40
0.171875
 40
0.1796875
 40
0.1875
 40
0.203125
 40
0.21875
 40
0.25
 40
0.28125
 40
0.296875
 40
0.3125
 40
0.3203125
 40
0.328125
 40
0.33203125
 40
0.333984375
 40
0.3359375
 40
0.33984375
 40
0.34375
 40
0.359375
 40
0.375
 40
0.390625
 40
0.40625
 40
0.421875
 40
0.4375
 40
0.453125
 40
0.46875
 40
0.4765625
 40
0.484375
 40
0.4921875
 40
0.49609375
 40
0.498046875
 40
0.5
 40
0.501953125
 40
0.50390625
 40
0.5078125
 40
0.515625
 40
0.5234375
 40
0.53125
 40
0.546875
 40
0.5625
 40
0.578125
 40
0.59375
 40
0.609375
 40
0.625
 40
0.640625
 40
0.6484375
 40
0.65625
 40
0.66015625
 40
0.6640625
 40
0.666015625
 40
0.66796875
 40
0.671875
 40
0.6796875
 40
0.6875
 40
0.703125
 40
0.71875
 40
0.75
 40
0.78125
 40
0.796875
 40
0.8125
 40
0.8203125
 40
0.828125
 40
0.83203125
 40
0.833984375
 40
0.8359375
 40
0.83984375
 40
0.84375
 40
0.859375
 40
0.875
 40
0.890625
 40
0.90625
 40
0.9375
 40
1.0
 40
1.0
 40
1.0
 40
1.0
 10
18.4978327597
 20
11.1627674234
 30
0.0
 10
18.514249976
 20
11.1873945394
 30
0.0
 10
18.5388760353
 20
11.2243351244
 30
0.0
 10
18.5676056162
 20
11.2674327848
 30
0.0
 10
18.5840236933
 20
11.2920595747
 30
0.0
 10
18.5963339648
 20
11.3105309122
 30
0.0
 10
18.6086567944
 20
11.3289974915
 30
0.0
 10
18.6178637071
 20
11.3428607669
 30
0.0
 10
18.6240564071
 20
11.3520822025
 30
0.0
 10
18.6265552155
 20
11.3559553416
 30
0.0
 10
18.6287443462
 20
11.3589818294
 30
0.0
 10
18.6302383274
 20
11.3622717115
 30
0.0
 10
18.6325298116
 20
11.3681513843
 30
0.0
 10
18.635971877
 20
11.3764870654
 30
0.0
 10
18.6413850047
 20
11.3898598392
 30
0.0
 10
18.6481836748
 20
11.4065635818
 30
0.0
 10
18.6590434345
 20
11.4332964398
 30
0.0
 10
18.6726249351
 20
11.4667098874
 30
0.0
 10
18.686201872
 20
11.5001252474
 30
0.0
 10
18.6970689338
 20
11.5268550454
 30
0.0
 10
18.7038493486
 20
11.543566438
 30
0.0
 10
18.7092998996
 20
11.5569235294
 30
0.0
 10
18.7126466955
 20
11.5652991337
 30
0.0
 10
18.7151092939
 20
11.5711071002
 30
0.0
 10
18.7163289903
 20
11.5745119226
 30
0.0
 10
18.7168424596
 20
11.5782406046
 30
0.0
 10
18.7177256876
 20
11.5827907605
 30
0.0
 10
18.7196467585
 20
11.593802243
 30
0.0
 10
18.7226118122
 20
11.6102811998
 30
0.0
 10
18.7265175172
 20
11.6322750165
 30
0.0
 10
18.730436001
 20
11.6542629722
 30
0.0
 10
18.7343510695
 20
11.6762524976
 30
0.0
 10
18.7382670206
 20
11.6982416051
 30
0.0
 10
18.7421828563
 20
11.7202308145
 30
0.0
 10
18.7460982709
 20
11.7422200342
 30
0.0
 10
18.7493626166
 20
11.7605442645
 30
0.0
 10
18.7519707031
 20
11.7752039303
 30
0.0
 10
18.7539360379
 20
11.7861979068
 30
0.0
 10
18.7555443296
 20
11.7953620128
 30
0.0
 10
18.7567280017
 20
11.8017720613
 30
0.0
 10
18.7573140299
 20
11.8054424811
 30
0.0
 10
18.7580080848
 20
11.80817407
 30
0.0
 10
18.7577291826
 20
11.8109867953
 30
0.0
 10
18.7576966914
 20
11.8147087944
 30
0.0
 10
18.7574817091
 20
11.821235479
 30
0.0
 10
18.7572572598
 20
11.8305524203
 30
0.0
 10
18.7569525358
 20
11.8417357007
 30
0.0
 10
18.7565585978
 20
11.8566457103
 30
0.0
 10
18.7560619325
 20
11.8752835765
 30
0.0
 10
18.7554677583
 20
11.8976488625
 30
0.0
 10
18.7548730759
 20
11.9200141955
 30
0.0
 10
18.7542786024
 20
11.9423794941
 30
0.0
 10
18.7536838012
 20
11.9647448831
 30
0.0
 10
18.7530901022
 20
11.9871099446
 30
0.0
 10
18.7525919519
 20
12.0057485125
 30
0.0
 10
18.7522010432
 20
12.0206570906
 30
0.0
 10
18.7519393971
 20
12.029980134
 30
0.0
 10
18.751769765
 20
12.0374267009
 30
0.0
 10
18.751573197
 20
12.0421078839
 30
0.0
 10
18.7516233365
 20
12.0457908083
 30
0.0
 10
18.7509163387
 20
12.0497001577
 30
0.0
 10
18.7493273702
 20
12.0566467032
 30
0.0
 10
18.7472409266
 20
12.06651546
 30
0.0
 10
18.7438000601
 20
12.0823361403
 30
0.0
 10
18.7395341074
 20
12.1021014882
 30
0.0
 10
18.7326888614
 20
12.1337319217
 30
0.0
 10
18.7241396942
 20
12.1732678974
 30
0.0
 10
18.7155856181
 20
12.2128047918
 30
0.0
 10
18.7087482264
 20
12.2444337552
 30
0.0
 10
18.7044626381
 20
12.2642027783
 30
0.0
 10
18.7010620246
 20
12.2800159246
 30
0.0
 10
18.6988731075
 20
12.2899038608
 30
0.0
 10
18.6974681925
 20
12.296815958
 30
0.0
 10
18.6964661692
 20
12.3007805259
 30
0.0
 10
18.6947138059
 20
12.3048008309
 30
0.0
 10
18.6927798212
 20
12.309807161
 30
0.0
 10
18.6879271718
 20
12.3218380332
 30
0.0
 10
18.6807368563
 20
12.3398777557
 30
0.0
 10
18.6710990955
 20
12.3639344831
 30
0.0
 10
18.6614748899
 20
12.3879902037
 30
0.0
 10
18.6486378862
 20
12.4200648491
 30
0.0
 10
18.6261753467
 20
12.4761953138
 30
0.0
 10
18.6069209813
 20
12.5243071972
 30
0.0
 10
18.5940849066
 20
12.5563817736
 30
0.0
  0
SPLINE
  5
386
100
AcDbEntity
  8
03__ASM_ALL_CURVES
100
AcDbSpline
 62
8
  6
PHANTOM
 70
0
 71
3
 72
86
 73
82
 74
0
 42
0.0000001
 43
0.0000001
 44
0.0000000001
 40
0.0
 40
0.0
 40
0.0
 40
0.0
 40
0.0625
 40
0.09375
 40
0.109375
 40
0.125
 40
0.140625
 40
0.1484375
 40
0.15625
 40
0.16015625
 40
0.1640625
 40
0.166015625
 40
0.16796875
 40
0.171875
 40
0.1796875
 40
0.1875
 40
0.203125
 40
0.21875
 40
0.25
 40
0.28125
 40
0.296875
 40
0.3125
 40
0.3203125
 40
0.328125
 40
0.33203125
 40
0.333984375
 40
0.3359375
 40
0.33984375
 40
0.34375
 40
0.359375
 40
0.375
 40
0.390625
 40
0.40625
 40
0.4375
 40
0.453125
 40
0.46875
 40
0.4765625
 40
0.484375
 40
0.4921875
 40
0.49609375
 40
0.498046875
 40
0.5
 40
0.501953125
 40
0.50390625
 40
0.5078125
 40
0.515625
 40
0.5234375
 40
0.53125
 40
0.546875
 40
0.5625
 40
0.59375
 40
0.609375
 40
0.625
 40
0.640625
 40
0.65625
 40
0.66015625
 40
0.6640625
 40
0.666015625
 40
0.66796875
 40
0.671875
 40
0.6796875
 40
0.6875
 40
0.703125
 40
0.71875
 40
0.75
 40
0.78125
 40
0.796875
 40
0.8125
 40
0.8203125
 40
0.828125
 40
0.83203125
 40
0.833984375
 40
0.8359375
 40
0.83984375
 40
0.84375
 40
0.859375
 40
0.875
 40
0.890625
 40
0.90625
 40
0.9375
 40
1.0
 40
1.0
 40
1.0
 40
1.0
 10
17.9401040605
 20
12.1157603979
 30
0.0
 10
17.9213924202
 20
12.1471062884
 30
0.0
 10
17.8933248721
 20
12.1941251253
 30
0.0
 10
17.8605797058
 20
12.2489804309
 30
0.0
 10
17.8418677444
 20
12.2803263258
 30
0.0
 10
17.8278349992
 20
12.3038357303
 30
0.0
 10
17.8161371411
 20
12.3234269538
 30
0.0
 10
17.8067876108
 20
12.3390998135
 30
0.0
 10
17.8009242158
 20
12.3488956219
 30
0.0
 10
17.7962791634
 20
12.3567316479
 30
0.0
 10
17.7932718158
 20
12.3616305804
 30
0.0
 10
17.7911045774
 20
12.3655464824
 30
0.0
 10
17.7880661323
 20
12.3694742276
 30
0.0
 10
17.7823441409
 20
12.3763532834
 30
0.0
 10
17.7743810265
 20
12.3861776355
 30
0.0
 10
17.7615220357
 20
12.4018982026
 30
0.0
 10
17.7454887184
 20
12.4215483655
 30
0.0
 10
17.7198127311
 20
12.4529889123
 30
0.0
 10
17.6877261586
 20
12.492289634
 30
0.0
 10
17.6556342894
 20
12.5315898451
 30
0.0
 10
17.6299667767
 20
12.5630312087
 30
0.0
 10
17.6139122731
 20
12.5826793295
 30
0.0
 10
17.6010967141
 20
12.598404083
 30
0.0
 10
17.5930230342
 20
12.6082177775
 30
0.0
 10
17.5874996302
 20
12.6151159756
 30
0.0
 10
17.5841428627
 20
12.6190130369
 30
0.0
 10
17.5800307763
 20
12.6227414872
 30
0.0
 10
17.5751488394
 20
12.6274596819
 30
0.0
 10
17.5632197042
 20
12.6387359156
 30
0.0
 10
17.5454152486
 20
12.6556701891
 30
0.0
 10
17.5216249625
 20
12.6782378323
 30
0.0
 10
17.4978483303
 20
12.7008085258
 30
0.0
 10
17.466141349
 20
12.7309016997
 30
0.0
 10
17.4344358902
 20
12.7609952775
 30
0.0
 10
17.4027294675
 20
12.7910884565
 30
0.0
 10
17.3829140944
 20
12.8098973539
 30
0.0
 10
17.3670592985
 20
12.8249429863
 30
0.0
 10
17.355175009
 20
12.8362312708
 30
0.0
 10
17.3452497834
 20
12.8456252595
 30
0.0
 10
17.3383446144
 20
12.8522263969
 30
0.0
 10
17.3343324608
 20
12.8559589008
 30
0.0
 10
17.331510234
 20
12.8588697609
 30
0.0
 10
17.3279736252
 20
12.8613544798
 30
0.0
 10
17.3235073312
 20
12.8648160812
 30
0.0
 10
17.3155752171
 20
12.8708046281
 30
0.0
 10
17.3043043238
 20
12.8793959027
 30
0.0
 10
17.2907532708
 20
12.8896899341
 30
0.0
 10
17.2726942764
 20
12.9034207232
 30
0.0
 10
17.2501174132
 20
12.9205823513
 30
0.0
 10
17.2139962487
 20
12.9480420208
 30
0.0
 10
17.1778741699
 20
12.9755012493
 30
0.0
 10
17.1417534714
 20
13.0029610025
 30
0.0
 10
17.1146597207
 20
13.0235546845
 30
0.0
 10
17.0875781874
 20
13.0441526357
 30
0.0
 10
17.0672328054
 20
13.059589141
 30
0.0
 10
17.0537224528
 20
13.0698987406
 30
0.0
 10
17.0480139224
 20
13.0741667354
 30
0.0
 10
17.0436318949
 20
13.0776456837
 30
0.0
 10
17.0385740535
 20
13.0808885594
 30
0.0
 10
17.0294088321
 20
13.0864539071
 30
0.0
 10
17.0164794877
 20
13.094461632
 30
0.0
 10
16.9957009799
 20
13.1072420091
 30
0.0
 10
16.9697592044
 20
13.1232284387
 30
0.0
 10
16.928234778
 20
13.1488005584
 30
0.0
 10
16.8763356995
 20
13.1807681322
 30
0.0
 10
16.8244327853
 20
13.2127337191
 30
0.0
 10
16.7829144959
 20
13.2383090178
 30
0.0
 10
16.7569573782
 20
13.2542875
 30
0.0
 10
16.7362103218
 20
13.2670841691
 30
0.0
 10
16.7232009105
 20
13.2750504188
 30
0.0
 10
16.7141794978
 20
13.2806902605
 30
0.0
 10
16.7088911406
 20
13.2838137273
 30
0.0
 10
16.7031008445
 20
13.286563182
 30
0.0
 10
16.6960345392
 20
13.2901278392
 30
0.0
 10
16.6789342007
 20
13.2985777993
 30
0.0
 10
16.6533430011
 20
13.311296932
 30
0.0
 10
16.6191875037
 20
13.328230517
 30
0.0
 10
16.5850410739
 20
13.3451708587
 30
0.0
 10
16.5395093372
 20
13.3677556235
 30
0.0
 10
16.4598302808
 20
13.407280067
 30
0.0
 10
16.3915334384
 20
13.4411577825
 30
0.0
 10
16.3460023231
 20
13.4637430103
 30
0.0
  0
SPLINE
  5
387
100
AcDbEntity
  8
03__ASM_ALL_CURVES
100
AcDbSpline
 62
8
  6
PHANTOM
 70
0
 71
3
 72
114
 73
110
 74
0
 42
0.0000001
 43
0.0000001
 44
0.0000000001
 40
0.0
 40
0.0
 40
0.0
 40
0.0
 40
0.03125
 40
0.0625
 40
0.078125
 40
0.09375
 40
0.109375
 40
0.1171875
 40
0.125
 40
0.1328125
 40
0.13671875
 40
0.140625
 40
0.142578125
 40
0.14453125
 40
0.1484375
 40
0.15625
 40
0.1640625
 40
0.171875
 40
0.1875
 40
0.21875
 40
0.234375
 40
0.25
 40
0.2578125
 40
0.265625
 40
0.2734375
 40
0.27734375
 40
0.28125
 40
0.283203125
 40
0.28515625
 40
0.2890625
 40
0.29296875
 40
0.296875
 40
0.3046875
 40
0.3125
 40
0.328125
 40
0.34375
 40
0.375
 40
0.390625
 40
0.3984375
 40
0.40625
 40
0.4140625
 40
0.421875
 40
0.42578125
 40
0.427734375
 40
0.4287109375
 40
0.4296875
 40
0.431640625
 40
0.43359375
 40
0.4375
 40
0.4453125
 40
0.453125
 40
0.46875
 40
0.484375
 40
0.5
 40
0.515625
 40
0.53125
 40
0.546875
 40
0.5546875
 40
0.55859375
 40
0.5625
 40
0.56640625
 40
0.568359375
 40
0.5703125
 40
0.5712890625
 40
0.572265625
 40
0.57421875
 40
0.578125
 40
0.5859375
 40
0.59375
 40
0.6015625
 40
0.609375
 40
0.625
 40
0.65625
 40
0.671875
 40
0.6875
 40
0.6953125
 40
0.703125
 40
0.70703125
 40
0.7109375
 40
0.71484375
 40
0.716796875
 40
0.71875
 40
0.72265625
 40
0.7265625
 40
0.734375
 40
0.7421875
 40
0.75
 40
0.765625
 40
0.78125
 40
0.796875
 40
0.8125
 40
0.828125
 40
0.84375
 40
0.8515625
 40
0.853515625
 40
0.85546875
 40
0.857421875
 40
0.8583984375
 40
0.859375
 40
0.86328125
 40
0.8671875
 40
0.875
 40
0.8828125
 40
0.890625
 40
0.90625
 40
0.921875
 40
0.9375
 40
0.96875
 40
1.0
 40
1.0
 40
1.0
 40
1.0
 10
16.346002356
 20
13.4637429958
 30
0.0
 10
16.3077776075
 20
13.4780723374
 30
0.0
 10
16.2313281168
 20
13.5067310409
 30
0.0
 10
16.1357662217
 20
13.5425543194
 30
0.0
 10
16.0593167724
 20
13.5712131541
 30
0.0
 10
16.001979504
 20
13.5927067047
 30
0.0
 10
15.9541990239
 20
13.6106198269
 30
0.0
 10
15.9159733461
 20
13.6249462203
 30
0.0
 10
15.8873076227
 20
13.6357022303
 30
0.0
 10
15.8634082756
 20
13.6446298988
 30
0.0
 10
15.8443140167
 20
13.6518520419
 30
0.0
 10
15.8323226803
 20
13.6561836972
 30
0.0
 10
15.8228611254
 20
13.6600662612
 30
0.0
 10
15.8129194532
 20
13.6624256133
 30
0.0
 10
15.7956053809
 20
13.6668205133
 30
0.0
 10
15.7708271524
 20
13.6729598575
 30
0.0
 10
15.7411120413
 20
13.6803865981
 30
0.0
 10
15.7014853479
 20
13.6902681522
 30
0.0
 10
15.6321416897
 20
13.7075705751
 30
0.0
 10
15.5528904791
 20
13.7273405365
 30
0.0
 10
15.4736397233
 20
13.7471121173
 30
0.0
 10
15.4241079602
 20
13.759468837
 30
0.0
 10
15.3844825337
 20
13.7693550517
 30
0.0
 10
15.3547635365
 20
13.7767675071
 30
0.0
 10
15.3299974699
 20
13.7829515557
 30
0.0
 10
15.3101851456
 20
13.7878830915
 30
0.0
 10
15.2978012382
 20
13.7910010578
 30
0.0
 10
15.2878968714
 20
13.7934135414
 30
0.0
 10
15.277982432
 20
13.7961249774
 30
0.0
 10
15.2656614788
 20
13.7973744907
 30
0.0
 10
15.2508594801
 20
13.799374152
 30
0.0
 10
15.2311293688
 20
13.8018656419
 30
0.0
 10
15.2064647141
 20
13.80503983
 30
0.0
 10
15.1670023931
 20
13.8100850966
 30
0.0
 10
15.1176741046
 20
13.8164031341
 30
0.0
 10
15.0387490687
 20
13.8265055562
 30
0.0
 10
14.9598239179
 20
13.8366099518
 30
0.0
 10
14.8907645644
 20
13.8454503423
 30
0.0
 10
14.8513018712
 20
13.8505026456
 30
0.0
 10
14.8217054238
 20
13.8542901911
 30
0.0
 10
14.7921067891
 20
13.8580841389
 30
0.0
 10
14.7674480739
 20
13.8612258229
 30
0.0
 10
14.7501736215
 20
13.8634640728
 30
0.0
 10
14.7415546344
 20
13.8645298252
 30
0.0
 10
14.7366001393
 20
13.8652247408
 30
0.0
 10
14.731940416
 20
13.8650570702
 30
0.0
 10
14.7260148455
 20
13.8651427919
 30
0.0
 10
14.7165902536
 20
13.8651151358
 30
0.0
 10
14.7000709802
 20
13.8651435159
 30
0.0
 10
14.6764857078
 20
13.8651439995
 30
0.0
 10
14.6387416208
 20
13.8651671625
 30
0.0
 10
14.591564137
 20
13.8651884344
 30
0.0
 10
14.5349500337
 20
13.8652172498
 30
0.0
 10
14.4783362213
 20
13.8652451996
 30
0.0
 10
14.4217223684
 20
13.8652733225
 30
0.0
 10
14.3651083863
 20
13.8653016186
 30
0.0
 10
14.3179305322
 20
13.8653244772
 30
0.0
 10
14.2849051159
 20
13.8653419176
 30
0.0
 10
14.2660348846
 20
13.8653496325
 30
0.0
 10
14.2518781679
 20
13.8653617607
 30
0.0
 10
14.2400937835
 20
13.8653516651
 30
0.0
 10
14.2306373868
 20
13.8653889034
 30
0.0
 10
14.2247929221
 20
13.8653089917
 30
0.0
 10
14.2199666928
 20
13.8654813792
 30
0.0
 10
14.2156904672
 20
13.8647910478
 30
0.0
 10
14.2081112051
 20
13.8637333426
 30
0.0
 10
14.1930207446
 20
13.8615111695
 30
0.0
 10
14.1714273541
 20
13.8583924615
 30
0.0
 10
14.1455305422
 20
13.854626081
 30
0.0
 10
14.1196296473
 20
13.8508661039
 30
0.0
 10
14.085096554
 20
13.8458505579
 30
0.0
 10
14.0246628832
 20
13.8370744931
 30
0.0
 10
13.9555967255
 20
13.8270436122
 30
0.0
 10
13.8865287496
 20
13.8170147056
 30
0.0
 10
13.8433650647
 20
13.8107426135
 30
0.0
 10
13.8088254512
 20
13.8057341074
 30
0.0
 10
13.7872579566
 20
13.8025828851
 30
0.0
 10
13.7699586942
 20
13.8001097896
 30
0.0
 10
13.7571081893
 20
13.7981238646
 30
0.0
 10
13.7460051566
 20
13.7968859872
 30
0.0
 10
13.7387417823
 20
13.7941830842
 30
0.0
 10
13.7311956575
 20
13.7917792692
 30
0.0
 10
13.7218598157
 20
13.7886720923
 30
0.0
 10
13.7068683592
 20
13.7837578451
 30
0.0
 10
13.6881476032
 20
13.777595399
 30
0.0
 10
13.6656747505
 20
13.7702088684
 30
0.0
 10
13.6357137184
 20
13.7603572282
 30
0.0
 10
13.5982615049
 20
13.7480436618
 30
0.0
 10
13.5533191242
 20
13.7332670584
 30
0.0
 10
13.5083771188
 20
13.718490176
 30
0.0
 10
13.4634333367
 20
13.7037147334
 30
0.0
 10
13.4184962859
 20
13.6889338104
 30
0.0
 10
13.3810277868
 20
13.6766334427
 30
0.0
 10
13.3567113933
 20
13.6686071473
 30
0.0
 10
13.3454483747
 20
13.6649353372
 30
0.0
 10
13.3398911347
 20
13.6630389422
 30
0.0
 10
13.3350192149
 20
13.6616548073
 30
0.0
 10
13.3321129959
 20
13.6597401037
 30
0.0
 10
13.3274987183
 20
13.6570756961
 30
0.0
 10
13.3206840996
 20
13.6529921014
 30
0.0
 10
13.3084896361
 20
13.6457971975
 30
0.0
 10
13.2932738622
 20
13.6367813283
 30
0.0
 10
13.2750032459
 20
13.6259718044
 30
0.0
 10
13.2506465067
 20
13.6115557808
 30
0.0
 10
13.2201991821
 20
13.593536892
 30
0.0
 10
13.183662992
 20
13.5719137372
 30
0.0
 10
13.1349478625
 20
13.5430830348
 30
0.0
 10
13.074054023
 20
13.5070445978
 30
0.0
 10
13.0253389293
 20
13.4782138661
 30
0.0
 10
13.0009813852
 20
13.4637984981
 30
0.0
  0
SPLINE
  5
388
100
AcDbEntity
  8
03__ASM_ALL_CURVES
100
AcDbSpline
 62
8
  6
PHANTOM
 70
0
 71
3
 72
46
 73
42
 74
0
 42
0.0000001
 43
0.0000001
 44
0.0000000001
 40
0.0
 40
0.0
 40
0.0
 40
0.0
 40
0.0625
 40
0.125
 40
0.140625
 40
0.15625
 40
0.171875
 40
0.1875
 40
0.21875
 40
0.25
 40
0.28125
 40
0.3125
 40
0.328125
 40
0.3359375
 40
0.34375
 40
0.359375
 40
0.375
 40
0.4375
 40
0.46875
 40
0.484375
 40
0.5
 40
0.515625
 40
0.53125
 40
0.5625
 40
0.625
 40
0.640625
 40
0.65625
 40
0.6640625
 40
0.671875
 40
0.6875
 40
0.71875
 40
0.75
 40
0.78125
 40
0.8125
 40
0.828125
 40
0.8359375
 40
0.84375
 40
0.859375
 40
0.875
 40
0.9375
 40
1.0
 40
1.0
 40
1.0
 40
1.0
 10
13.0009814105
 20
13.4637985179
 30
0.0
 10
12.9913637074
 20
13.4556599972
 30
0.0
 10
12.9721302492
 20
13.4393781619
 30
0.0
 10
12.9504838429
 20
13.4210826703
 30
0.0
 10
12.9360656887
 20
13.408854215
 30
0.0
 10
12.928833967
 20
13.402795718
 30
0.0
 10
12.9216902672
 20
13.3965205907
 30
0.0
 10
12.9125846026
 20
13.3871227904
 30
0.0
 10
12.9010574253
 20
13.3757292754
 30
0.0
 10
12.8872923737
 20
13.3619055738
 30
0.0
 10
12.8734892319
 20
13.3481218301
 30
0.0
 10
12.8620572801
 20
13.3366284201
 30
0.0
 10
12.8539231789
 20
13.3285801612
 30
0.0
 10
12.8494797525
 20
13.3239881663
 30
0.0
 10
12.8458066315
 20
13.3194233342
 30
0.0
 10
12.8409520741
 20
13.3137077213
 30
0.0
 10
12.8295165198
 20
13.3000006609
 30
0.0
 10
12.8161183564
 20
13.283976979
 30
0.0
 10
12.8027017827
 20
13.268040522
 30
0.0
 10
12.7951055982
 20
13.2588064659
 30
0.0
 10
12.7892024328
 20
13.25223853
 30
0.0
 10
12.7840881611
 20
13.2443039244
 30
0.0
 10
12.7769942967
 20
13.2342010836
 30
0.0
 10
12.7647046779
 20
13.216299805
 30
0.0
 10
12.7523886394
 20
13.1984752072
 30
0.0
 10
12.7417996174
 20
13.1831907412
 30
0.0
 10
12.7374541351
 20
13.1767960978
 30
0.0
 10
12.7338211264
 20
13.1717436852
 30
0.0
 10
12.7307613208
 20
13.1664589569
 30
0.0
 10
12.7256731827
 20
13.1571026701
 30
0.0
 10
12.7182640467
 20
13.1437931578
 30
0.0
 10
12.7094376537
 20
13.127796892
 30
0.0
 10
12.7005775673
 20
13.1118094519
 30
0.0
 10
12.6932526649
 20
13.0984778751
 30
0.0
 10
12.688017118
 20
13.0891602013
 30
0.0
 10
12.6851931664
 20
13.0838136921
 30
0.0
 10
12.6830008276
 20
13.0783839734
 30
0.0
 10
12.6800445115
 20
13.071625267
 30
0.0
 10
12.6731270835
 20
13.0553809571
 30
0.0
 10
12.6626756926
 20
13.0310244056
 30
0.0
 10
12.6534161446
 20
13.0093701093
 30
0.0
 10
12.6487825485
 20
12.9985434647
 30
0.0
  0
SPLINE
  5
389
100
AcDbEntity
  8
03__ASM_ALL_CURVES
100
AcDbSpline
 62
8
  6
PHANTOM
 70
0
 71
3
 72
65
 73
61
 74
0
 42
0.0000001
 43
0.0000001
 44
0.0000000001
 40
0.0
 40
0.0
 40
0.0
 40
0.0
 40
0.0625
 40
0.09375
 40
0.125
 40
0.140625
 40
0.15625
 40
0.1640625
 40
0.16796875
 40
0.171875
 40
0.1796875
 40
0.1875
 40
0.21875
 40
0.25
 40
0.28125
 40
0.3125
 40
0.3203125
 40
0.328125
 40
0.33203125
 40
0.3359375
 40
0.34375
 40
0.359375
 40
0.375
 40
0.40625
 40
0.4375
 40
0.453125
 40
0.46875
 40
0.484375
 40
0.4921875
 40
0.49609375
 40
0.5
 40
0.50390625
 40
0.5078125
 40
0.515625
 40
0.53125
 40
0.546875
 40
0.5625
 40
0.59375
 40
0.625
 40
0.640625
 40
0.65625
 40
0.6640625
 40
0.66796875
 40
0.671875
 40
0.6796875
 40
0.6875
 40
0.71875
 40
0.75
 40
0.78125
 40
0.8125
 40
0.8203125
 40
0.828125
 40
0.83203125
 40
0.8359375
 40
0.84375
 40
0.859375
 40
0.875
 40
0.90625
 40
0.9375
 40
1.0
 40
1.0
 40
1.0
 40
1.0
 10
12.6487825458
 20
12.9985434573
 30
0.0
 10
12.6439386242
 20
12.9815586358
 30
0.0
 10
12.6366740098
 20
12.9560810559
 30
0.0
 10
12.6269827852
 20
12.9221123396
 30
0.0
 10
12.6209363366
 20
12.9008789956
 30
0.0
 10
12.6160750856
 20
12.883898924
 30
0.0
 10
12.6130917506
 20
12.8732713183
 30
0.0
 10
12.6108932978
 20
12.8658621779
 30
0.0
 10
12.6098093293
 20
12.8615811583
 30
0.0
 10
12.609374292
 20
12.8571222658
 30
0.0
 10
12.608608683
 20
12.8516094489
 30
0.0
 10
12.6069538258
 20
12.8383286388
 30
0.0
 10
12.6043942236
 20
12.8184285822
 30
0.0
 10
12.601028566
 20
12.7918824272
 30
0.0
 10
12.5976392687
 20
12.7653421185
 30
0.0
 10
12.5951328558
 20
12.7454289077
 30
0.0
 10
12.5934100345
 20
12.7321649057
 30
0.0
 10
12.5927687801
 20
12.7266213349
 30
0.0
 10
12.5920771538
 20
12.722225899
 30
0.0
 10
12.5920387484
 20
12.7176863028
 30
0.0
 10
12.5922750394
 20
12.7096750295
 30
0.0
 10
12.5924542517
 20
12.6982652995
 30
0.0
 10
12.5928294544
 20
12.6799902057
 30
0.0
 10
12.5932683705
 20
12.6571529971
 30
0.0
 10
12.593717057
 20
12.6343135609
 30
0.0
 10
12.5940766271
 20
12.6160420314
 30
0.0
 10
12.5943385795
 20
12.6023396623
 30
0.0
 10
12.5945823649
 20
12.5909167533
 30
0.0
 10
12.594702862
 20
12.5829291208
 30
0.0
 10
12.5948500461
 20
12.5783516334
 30
0.0
 10
12.5947397775
 20
12.5749554947
 30
0.0
 10
12.5954729711
 20
12.5714180114
 30
0.0
 10
12.5961563538
 20
12.5667506697
 30
0.0
 10
12.5974893487
 20
12.5585598509
 30
0.0
 10
12.59932198
 20
12.5468706886
 30
0.0
 10
12.6015517285
 20
12.5328385629
 30
0.0
 10
12.6045144223
 20
12.5141308109
 30
0.0
 10
12.6082185939
 20
12.4907458315
 30
0.0
 10
12.6119324282
 20
12.4673598234
 30
0.0
 10
12.6148796617
 20
12.4486537174
 30
0.0
 10
12.616776436
 20
12.4369561642
 30
0.0
 10
12.6179944097
 20
12.4287803839
 30
0.0
 10
12.618862143
 20
12.4240889401
 30
0.0
 10
12.6203767678
 20
12.419323788
 30
0.0
 10
12.6220489333
 20
12.413392543
 30
0.0
 10
12.6262441645
 20
12.3991368073
 30
0.0
 10
12.6324598887
 20
12.3777620799
 30
0.0
 10
12.6407947734
 20
12.3492565985
 30
0.0
 10
12.6491051767
 20
12.3207555608
 30
0.0
 10
12.6553759839
 20
12.2993708351
 30
0.0
 10
12.6595008313
 20
12.2851278749
 30
0.0
 10
12.6613017788
 20
12.2791732543
 30
0.0
 10
12.6625506792
 20
12.2744563347
 30
0.0
 10
12.6645012011
 20
12.2695683507
 30
0.0
 10
12.6682406037
 20
12.2609348981
 30
0.0
 10
12.6734125223
 20
12.2486428634
 30
0.0
 10
12.6817826456
 20
12.2289524326
 30
0.0
 10
12.6922127392
 20
12.2043473327
 30
0.0
 10
12.7089191686
 20
12.1649747162
 30
0.0
 10
12.7214448778
 20
12.1354462565
 30
0.0
 10
12.7297962645
 20
12.115760394
 30
0.0
  0
SPLINE
  5
38A
100
AcDbEntity
  8
03__ASM_ALL_CURVES
100
AcDbSpline
 62
8
  6
PHANTOM
 70
0
 71
3
 72
61
 73
57
 74
0
 42
0.0000001
 43
0.0000001
 44
0.0000000001
 40
0.0
 40
0.0
 40
0.0
 40
0.0
 40
0.0625
 40
0.09375
 40
0.125
 40
0.140625
 40
0.15625
 40
0.1640625
 40
0.171875
 40
0.1796875
 40
0.1875
 40
0.21875
 40
0.25
 40
0.28125
 40
0.3125
 40
0.3203125
 40
0.328125
 40
0.3359375
 40
0.34375
 40
0.359375
 40
0.375
 40
0.40625
 40
0.4375
 40
0.453125
 40
0.46875
 40
0.484375
 40
0.4921875
 40
0.49609375
 40
0.5
 40
0.50390625
 40
0.5078125
 40
0.515625
 40
0.53125
 40
0.546875
 40
0.5625
 40
0.59375
 40
0.625
 40
0.640625
 40
0.65625
 40
0.6640625
 40
0.671875
 40
0.6875
 40
0.71875
 40
0.75
 40
0.78125
 40
0.8125
 40
0.8203125
 40
0.828125
 40
0.83203125
 40
0.8359375
 40
0.84375
 40
0.859375
 40
0.875
 40
0.90625
 40
0.9375
 40
1.0
 40
1.0
 40
1.0
 40
1.0
 10
12.7297962626
 20
12.1157603979
 30
0.0
 10
12.7399628799
 20
12.0973703248
 30
0.0
 10
12.7552157866
 20
12.0697853889
 30
0.0
 10
12.7755410722
 20
12.0330047794
 30
0.0
 10
12.7882692163
 20
12.0100183465
 30
0.0
 10
12.798395095
 20
11.9916258986
 30
0.0
 10
12.8048529402
 20
11.9801381484
 30
0.0
 10
12.8097233652
 20
11.9709307023
 30
0.0
 10
12.8141862347
 20
11.9640723378
 30
0.0
 10
12.8188760999
 20
11.9572272057
 30
0.0
 10
12.8281390369
 20
11.9435301316
 30
0.0
 10
12.8420828758
 20
11.9229874264
 30
0.0
 10
12.8606446028
 20
11.8955952743
 30
0.0
 10
12.8792211044
 20
11.8682044369
 30
0.0
 10
12.8931317005
 20
11.8476587737
 30
0.0
 10
12.9024371144
 20
11.8339654793
 30
0.0
 10
12.907033715
 20
11.8271120485
 30
0.0
 10
12.9118484043
 20
11.820284989
 30
0.0
 10
12.919305675
 20
11.8113077222
 30
0.0
 10
12.9282719632
 20
11.8000431729
 30
0.0
 10
12.9428165748
 20
11.7820439164
 30
0.0
 10
12.9609294123
 20
11.7595365408
 30
0.0
 10
12.9790657696
 20
11.7370323572
 30
0.0
 10
12.9935727496
 20
11.7190279935
 30
0.0
 10
13.0044451899
 20
11.705525856
 30
0.0
 10
13.0135324168
 20
11.6942707144
 30
0.0
 10
13.0198404799
 20
11.6863986752
 30
0.0
 10
13.0235278792
 20
11.6818901297
 30
0.0
 10
13.0260601951
 20
11.6785375583
 30
0.0
 10
13.0294840491
 20
11.6750747546
 30
0.0
 10
13.0337382095
 20
11.6704961336
 30
0.0
 10
13.0413278778
 20
11.6624656289
 30
0.0
 10
13.0520945363
 20
11.6510028712
 30
0.0
 10
13.0650468343
 20
11.6372434365
 30
0.0
 10
13.0823058029
 20
11.6188994899
 30
0.0
 10
13.1038794592
 20
11.5959651229
 30
0.0
 10
13.125466786
 20
11.573046033
 30
0.0
 10
13.1427038817
 20
11.554677643
 30
0.0
 10
13.1535521457
 20
11.5432725559
 30
0.0
 10
13.1620587583
 20
11.5339763898
 30
0.0
 10
13.1711933021
 20
11.5253084841
 30
0.0
 10
13.1874705887
 20
11.5104315506
 30
0.0
 10
13.21057061
 20
11.489026131
 30
0.0
 10
13.238359162
 20
11.4634051799
 30
0.0
 10
13.2661188007
 20
11.4377662712
 30
0.0
 10
13.2869738746
 20
11.4185417979
 30
0.0
 10
13.3008273845
 20
11.4057232472
 30
0.0
 10
13.3066729835
 20
11.4003846019
 30
0.0
 10
13.3111785223
 20
11.3961081071
 30
0.0
 10
13.3163091801
 20
11.3918519924
 30
0.0
 10
13.3255782752
 20
11.3844132599
 30
0.0
 10
13.3386683004
 20
11.3737815591
 30
0.0
 10
13.3596970296
 20
11.3567735985
 30
0.0
 10
13.3859539311
 20
11.3355127022
 30
0.0
 10
13.4279812598
 20
11.3014957989
 30
0.0
 10
13.459498092
 20
11.275983002
 30
0.0
 10
13.4805101277
 20
11.2589744973
 30
0.0
  0
LINE
  5
38B
100
AcDbEntity
  8
03__ASM_ALL_CURVES
100
AcDbLine
 62
8
  6
PHANTOM
 10
13.4805101739
 20
11.2589744623
 11
13.5144809569
 21
11.2335071493
  0
SPLINE
  5
38C
100
AcDbEntity
  8
03__ASM_ALL_CURVES
100
AcDbSpline
 62
8
  6
PHANTOM
 70
0
 71
3
 72
30
 73
26
 74
0
 42
0.0000001
 43
0.0000001
 44
0.0000000001
 40
0.0
 40
0.0
 40
0.0
 40
0.0
 40
0.125
 40
0.1875
 40
0.25
 40
0.3125
 40
0.375
 40
0.4375
 40
0.5
 40
0.5625
 40
0.625
 40
0.640625
 40
0.65625
 40
0.6640625
 40
0.671875
 40
0.6875
 40
0.71875
 40
0.75
 40
0.78125
 40
0.8125
 40
0.828125
 40
0.84375
 40
0.875
 40
0.9375
 40
1.0
 40
1.0
 40
1.0
 40
1.0
 10
13.5144809565
 20
11.2335071496
 30
0.0
 10
13.5289931144
 20
11.222977364
 30
0.0
 10
13.550714202
 20
11.2071580943
 30
0.0
 10
13.5798642491
 20
11.1861640997
 30
0.0
 10
13.6022860041
 20
11.1707132898
 30
0.0
 10
13.6244380056
 20
11.15511575
 30
0.0
 10
13.6471098015
 20
11.1398104437
 30
0.0
 10
13.6699640928
 20
11.1246125516
 30
0.0
 10
13.6925645678
 20
11.1092575784
 30
0.0
 10
13.7159978126
 20
11.0944235155
 30
0.0
 10
13.7334257688
 20
11.0831773526
 30
0.0
 10
13.745029128
 20
11.0757181523
 30
0.0
 10
13.7499301519
 20
11.0725799205
 30
0.0
 10
13.7536934006
 20
11.070138067
 30
0.0
 10
13.7580338983
 20
11.067445471
 30
0.0
 10
13.7658978846
 20
11.0626171133
 30
0.0
 10
13.7769932498
 20
11.0557789907
 30
0.0
 10
13.7903615778
 20
11.0475533558
 30
0.0
 10
13.8037365881
 20
11.0393120221
 30
0.0
 10
13.8148152474
 20
11.0325131465
 30
0.0
 10
13.8238360721
 20
11.0269165293
 30
0.0
 10
13.8322790538
 20
11.0218948571
 30
0.0
 10
13.8467856064
 20
11.0133741785
 30
0.0
 10
13.8676506558
 20
11.0010611237
 30
0.0
 10
13.8842996011
 20
10.9912535467
 30
0.0
 10
13.8926294606
 20
10.9863443999
 30
0.0
  0
SPLINE
  5
38D
100
AcDbEntity
  8
03__ASM_ALL_CURVES
100
AcDbSpline
 62
8
  6
PHANTOM
 70
0
 71
3
 72
42
 73
38
 74
0
 42
0.0000001
 43
0.0000001
 44
0.0000000001
 40
0.0
 40
0.0
 40
0.0
 40
0.0
 40
0.125
 40
0.15625
 40
0.1875
 40
0.25
 40
0.28125
 40
0.3125
 40
0.328125
 40
0.3359375
 40
0.34375
 40
0.359375
 40
0.375
 40
0.40625
 40
0.4375
 40
0.46875
 40
0.484375
 40
0.5
 40
0.515625
 40
0.53125
 40
0.5625
 40
0.59375
 40
0.625
 40
0.640625
 40
0.65625
 40
0.6640625
 40
0.671875
 40
0.6875
 40
0.71875
 40
0.75
 40
0.78125
 40
0.8125
 40
0.828125
 40
0.84375
 40
0.875
 40
0.9375
 40
1.0
 40
1.0
 40
1.0
 40
1.0
 10
13.8926294771
 20
10.9863443903
 30
0.0
 10
13.9153015021
 20
10.9736211325
 30
0.0
 10
13.9437177861
 20
10.9577839087
 30
0.0
 10
13.9775885684
 20
10.9385786947
 30
0.0
 10
14.0006571082
 20
10.926203049
 30
0.0
 10
14.0238778406
 20
10.9139505993
 30
0.0
 10
14.0470231811
 20
10.9016601786
 30
0.0
 10
14.0615506714
 20
10.8939709298
 30
0.0
 10
14.0716069364
 20
10.8886130071
 30
0.0
 10
14.0775285546
 20
10.8855115695
 30
0.0
 10
14.0841096592
 20
10.8822599797
 30
0.0
 10
14.0921103077
 20
10.8782468338
 30
0.0
 10
14.1050370584
 20
10.8717975196
 30
0.0
 10
14.1211555768
 20
10.863742617
 30
0.0
 10
14.1405008456
 20
10.8540868022
 30
0.0
 10
14.1566649737
 20
10.8459977422
 30
0.0
 10
14.1694913831
 20
10.8396235743
 30
0.0
 10
14.1794000268
 20
10.8345772368
 30
0.0
 10
14.1882057705
 20
10.8305452057
 30
0.0
 10
14.2003318775
 20
10.8248148749
 30
0.0
 10
14.2153583952
 20
10.8177733656
 30
0.0
 10
14.2334418999
 20
10.8092722487
 30
0.0
 10
14.2485140305
 20
10.8021971313
 30
0.0
 10
14.2605397893
 20
10.7965407381
 30
0.0
 10
14.2681344811
 20
10.7929916674
 30
0.0
 10
14.2740295988
 20
10.7901846655
 30
0.0
 10
14.2805843855
 20
10.7872597048
 30
0.0
 10
14.2923616533
 20
10.7820863706
 30
0.0
 10
14.3090269284
 20
10.7747232815
 30
0.0
 10
14.3290900232
 20
10.7658810317
 30
0.0
 10
14.3491490881
 20
10.7570211322
 30
0.0
 10
14.3658244381
 20
10.7497021675
 30
0.0
 10
14.379264023
 20
10.7437015367
 30
0.0
 10
14.3923388179
 20
10.7382313143
 30
0.0
 10
14.4150500376
 20
10.7289049468
 30
0.0
 10
14.4475839378
 20
10.7154518164
 30
0.0
 10
14.4735838426
 20
10.7047288544
 30
0.0
 10
14.4865871969
 20
10.6993624306
 30
0.0
  0
SPLINE
  5
38E
100
AcDbEntity
  8
03__ASM_ALL_CURVES
100
AcDbSpline
 62
8
  6
PHANTOM
 70
0
 71
3
 72
89
 73
85
 74
0
 42
0.0000001
 43
0.0000001
 44
0.0000000001
 40
0.0
 40
0.0
 40
0.0
 40
0.0
 40
0.0625
 40
0.09375
 40
0.109375
 40
0.125
 40
0.140625
 40
0.15625
 40
0.16015625
 40
0.1640625
 40
0.166015625
 40
0.16796875
 40
0.171875
 40
0.1796875
 40
0.1875
 40
0.203125
 40
0.21875
 40
0.25
 40
0.28125
 40
0.296875
 40
0.3125
 40
0.3203125
 40
0.328125
 40
0.33203125
 40
0.333984375
 40
0.3359375
 40
0.33984375
 40
0.34375
 40
0.359375
 40
0.375
 40
0.390625
 40
0.40625
 40
0.421875
 40
0.4375
 40
0.453125
 40
0.46875
 40
0.4765625
 40
0.484375
 40
0.4921875
 40
0.49609375
 40
0.498046875
 40
0.5
 40
0.501953125
 40
0.50390625
 40
0.5078125
 40
0.515625
 40
0.5234375
 40
0.53125
 40
0.546875
 40
0.5625
 40
0.578125
 40
0.59375
 40
0.609375
 40
0.625
 40
0.640625
 40
0.6484375
 40
0.65625
 40
0.66015625
 40
0.6640625
 40
0.666015625
 40
0.66796875
 40
0.671875
 40
0.6796875
 40
0.6875
 40
0.703125
 40
0.71875
 40
0.75
 40
0.78125
 40
0.796875
 40
0.8125
 40
0.8203125
 40
0.828125
 40
0.83203125
 40
0.833984375
 40
0.8359375
 40
0.83984375
 40
0.84375
 40
0.8515625
 40
0.859375
 40
0.875
 40
0.890625
 40
0.90625
 40
0.9375
 40
1.0
 40
1.0
 40
1.0
 40
1.0
 10
15.1635703123
 20
10.4845103461
 30
0.0
 10
15.2150074516
 20
10.4745428178
 30
0.0
 10
15.2921631889
 20
10.459591322
 30
0.0
 10
15.3821781159
 20
10.4421486217
 30
0.0
 10
15.4336153598
 20
10.432180348
 30
0.0
 10
15.4721928932
 20
10.4247069885
 30
0.0
 10
15.5107719529
 20
10.4172227541
 30
0.0
 10
15.5397019687
 20
10.4116400687
 30
0.0
 10
15.5589953005
 20
10.4078708596
 30
0.0
 10
15.5670242863
 20
10.4063709176
 30
0.0
 10
15.5734705754
 20
10.4050063576
 30
0.0
 10
15.5798323844
 20
10.4042437735
 30
0.0
 10
15.5909262986
 20
10.4031889436
 30
0.0
 10
15.6067952269
 20
10.401536114
 30
0.0
 10
15.6321740671
 20
10.3989731408
 30
0.0
 10
15.663901538
 20
10.3957414877
 30
0.0
 10
15.7146632898
 20
10.3905865287
 30
0.0
 10
15.7781163086
 20
10.3841369307
 30
0.0
 10
15.8415687634
 20
10.3776913226
 30
0.0
 10
15.8923314177
 20
10.3725299797
 30
0.0
 10
15.9240566324
 20
10.3693142863
 30
0.0
 10
15.9494400976
 20
10.3667185956
 30
0.0
 10
15.9652972521
 20
10.3651490559
 30
0.0
 10
15.9764123134
 20
10.3639446285
 30
0.0
 10
15.9827402249
 20
10.3634218392
 30
0.0
 10
15.9889794278
 20
10.3635222345
 30
0.0
 10
15.9968087523
 20
10.3634347215
 30
0.0
 10
16.0155741757
 20
10.3634000049
 30
0.0
 10
16.0437327924
 20
10.3632742949
 30
0.0
 10
16.0812716236
 20
10.3631487728
 30
0.0
 10
16.1188120585
 20
10.3630119743
 30
0.0
 10
16.1563520696
 20
10.3628781901
 30
0.0
 10
16.1938921721
 20
10.3627436252
 30
0.0
 10
16.2314323328
 20
10.3626091689
 30
0.0
 10
16.2689721693
 20
10.3624750587
 30
0.0
 10
16.3002563988
 20
10.3623620559
 30
0.0
 10
16.3252814665
 20
10.362274467
 30
0.0
 10
16.3440565956
 20
10.3622010819
 30
0.0
 10
16.3596824071
 20
10.3621644002
 30
0.0
 10
16.3706599783
 20
10.3620906966
 30
0.0
 10
16.3768711953
 20
10.3621235694
 30
0.0
 10
16.3817033638
 20
10.3619369785
 30
0.0
 10
16.3858713498
 20
10.3625578749
 30
0.0
 10
16.3916603387
 20
10.3631040762
 30
0.0
 10
16.401683128
 20
10.3641911594
 30
0.0
 10
16.4160578315
 20
10.3656755263
 30
0.0
 10
16.4332833203
 20
10.3674861337
 30
0.0
 10
16.4562590767
 20
10.3698900184
 30
0.0
 10
16.4849758759
 20
10.3728983954
 30
0.0
 10
16.5194372801
 20
10.376506934
 30
0.0
 10
16.5538983378
 20
10.3801158939
 30
0.0
 10
16.5883595363
 20
10.3837246828
 30
0.0
 10
16.6228205183
 20
10.3873337341
 30
0.0
 10
16.6572822251
 20
10.3909419065
 30
0.0
 10
16.6859980787
 20
10.393951428
 30
0.0
 10
16.7089757641
 20
10.396352978
 30
0.0
 10
16.723325429
 20
10.397867759
 30
0.0
 10
16.7348312427
 20
10.3990479513
 30
0.0
 10
16.7419628659
 20
10.3998577465
 30
0.0
 10
16.7478044689
 20
10.4003402708
 30
0.0
 10
16.7531484623
 20
10.4014263026
 30
0.0
 10
16.76226929
 20
10.4036072131
 30
0.0
 10
16.775419652
 20
10.4065765242
 30
0.0
 10
16.7963928285
 20
10.4114091692
 30
0.0
 10
16.8226323874
 20
10.4174219725
 30
0.0
 10
16.8646027215
 20
10.4270581829
 30
0.0
 10
16.917070487
 20
10.4390975189
 30
0.0
 10
16.9695350616
 20
10.4511409063
 30
0.0
 10
17.011510501
 20
10.4607706344
 30
0.0
 10
17.0377372966
 20
10.4667996434
 30
0.0
 10
17.058736638
 20
10.4715990666
 30
0.0
 10
17.0718203912
 20
10.4746529515
 30
0.0
 10
17.0810608555
 20
10.4766819584
 30
0.0
 10
17.0862130793
 20
10.4780114816
 30
0.0
 10
17.0908829521
 20
10.4799817613
 30
0.0
 10
17.0968854491
 20
10.482225217
 30
0.0
 10
17.1063971475
 20
10.4859373538
 30
0.0
 10
17.1183183731
 20
10.4905355437
 30
0.0
 10
17.1373746713
 20
10.4979161108
 30
0.0
 10
17.1612011041
 20
10.5071337696
 30
0.0
 10
17.1897902297
 20
10.5181984057
 30
0.0
 10
17.2279099688
 20
10.5329500515
 30
0.0
 10
17.294619088
 20
10.5587659953
 30
0.0
 10
17.3517984785
 20
10.5808937539
 30
0.0
 10
17.3899180398
 20
10.5956456359
 30
0.0
  0
SPLINE
  5
38F
100
AcDbEntity
  8
03__ASM_ALL_CURVES
100
AcDbSpline
 62
8
  6
PHANTOM
 70
0
 71
3
 72
47
 73
43
 74
0
 42
0.0000001
 43
0.0000001
 44
0.0000000001
 40
0.0
 40
0.0
 40
0.0
 40
0.0
 40
0.0625
 40
0.125
 40
0.140625
 40
0.15625
 40
0.171875
 40
0.1875
 40
0.21875
 40
0.25
 40
0.28125
 40
0.3125
 40
0.328125
 40
0.3359375
 40
0.34375
 40
0.359375
 40
0.375
 40
0.4375
 40
0.46875
 40
0.484375
 40
0.5
 40
0.515625
 40
0.53125
 40
0.5625
 40
0.59375
 40
0.625
 40
0.640625
 40
0.65625
 40
0.6640625
 40
0.671875
 40
0.6875
 40
0.71875
 40
0.75
 40
0.78125
 40
0.8125
 40
0.828125
 40
0.8359375
 40
0.84375
 40
0.859375
 40
0.875
 40
0.9375
 40
1.0
 40
1.0
 40
1.0
 40
1.0
 10
17.3899179932
 20
10.5956456133
 30
0.0
 10
17.4022090749
 20
10.6021061662
 30
0.0
 10
17.4267905474
 20
10.61503195
 30
0.0
 10
17.4544478123
 20
10.6295524056
 30
0.0
 10
17.472881456
 20
10.639263409
 30
0.0
 10
17.4821063076
 20
10.6440645284
 30
0.0
 10
17.4912999466
 20
10.6490770372
 30
0.0
 10
17.5034092089
 20
10.6567664453
 30
0.0
 10
17.5185981766
 20
10.6660328717
 30
0.0
 10
17.5367968511
 20
10.6773010908
 30
0.0
 10
17.5550240489
 20
10.6885278142
 30
0.0
 10
17.5701417086
 20
10.6978979797
 30
0.0
 10
17.5808621021
 20
10.7044446683
 30
0.0
 10
17.5867729169
 20
10.7082025684
 30
0.0
 10
17.5918737106
 20
10.7120234995
 30
0.0
 10
17.5985265087
 20
10.716778403
 30
0.0
 10
17.6142659501
 20
10.7282051786
 30
0.0
 10
17.6326966413
 20
10.7415597642
 30
0.0
 10
17.6511221684
 20
10.754831176
 30
0.0
 10
17.6616132586
 20
10.7625414139
 30
0.0
 10
17.6695963988
 20
10.7679681343
 30
0.0
 10
17.6771391403
 20
10.7747554
 30
0.0
 10
17.6873501441
 20
10.7833298237
 30
0.0
 10
17.7000597817
 20
10.7942109688
 30
0.0
 10
17.7153400867
 20
10.8071982846
 30
0.0
 10
17.7280500308
 20
10.8180370883
 30
0.0
 10
17.7382603602
 20
10.8267046631
 30
0.0
 10
17.7445477024
 20
10.8321225475
 30
0.0
 10
17.7497928556
 20
10.8364561617
 30
0.0
 10
17.754252182
 20
10.8407920291
 30
0.0
 10
17.7616908601
 20
10.8483809669
 30
0.0
 10
17.7725087745
 20
10.8592206966
 30
0.0
 10
17.7854069741
 20
10.8722334258
 30
0.0
 10
17.798332394
 20
10.8852285169
 30
0.0
 10
17.8090822578
 20
10.896112342
 30
0.0
 10
17.8166400243
 20
10.903624113
 30
0.0
 10
17.8209088092
 20
10.9080834472
 30
0.0
 10
17.824989895
 20
10.9131712869
 30
0.0
 10
17.83015541
 20
10.9193162561
 30
0.0
 10
17.8424998289
 20
10.9342410383
 30
0.0
 10
17.8610388194
 20
10.956553333
 30
0.0
 10
17.8775088352
 20
10.9764169108
 30
0.0
 10
17.8857449789
 20
10.9863448963
 30
0.0
  0
SPLINE
  5
390
100
AcDbEntity
  8
03__ASM_ALL_CURVES
100
AcDbSpline
 62
8
  6
PHANTOM
 70
0
 71
3
 72
82
 73
78
 74
0
 42
0.0000001
 43
0.0000001
 44
0.0000000001
 40
0.0
 40
0.0
 40
0.0
 40
0.0
 40
0.0625
 40
0.09375
 40
0.109375
 40
0.125
 40
0.140625
 40
0.15625
 40
0.16015625
 40
0.1640625
 40
0.166015625
 40
0.16796875
 40
0.171875
 40
0.1796875
 40
0.1875
 40
0.203125
 40
0.21875
 40
0.25
 40
0.28125
 40
0.296875
 40
0.3125
 40
0.3203125
 40
0.328125
 40
0.33203125
 40
0.333984375
 40
0.3359375
 40
0.33984375
 40
0.34375
 40
0.359375
 40
0.375
 40
0.390625
 40
0.40625
 40
0.4375
 40
0.453125
 40
0.46875
 40
0.4765625
 40
0.484375
 40
0.4921875
 40
0.49609375
 40
0.5
 40
0.50390625
 40
0.5078125
 40
0.515625
 40
0.5234375
 40
0.53125
 40
0.546875
 40
0.5625
 40
0.59375
 40
0.609375
 40
0.625
 40
0.640625
 40
0.65625
 40
0.66015625
 40
0.6640625
 40
0.66796875
 40
0.671875
 40
0.6796875
 40
0.6875
 40
0.703125
 40
0.71875
 40
0.75
 40
0.78125
 40
0.796875
 40
0.8125
 40
0.8203125
 40
0.828125
 40
0.83203125
 40
0.833984375
 40
0.8359375
 40
0.83984375
 40
0.84375
 40
0.859375
 40
0.875
 40
0.890625
 40
0.90625
 40
0.9375
 40
1.0
 40
1.0
 40
1.0
 40
1.0
 10
17.8857449734
 20
10.9863448889
 30
0.0
 10
17.8981752164
 20
11.00663946
 30
0.0
 10
17.9168207665
 20
11.037081249
 30
0.0
 10
17.9385732587
 20
11.0725969066
 30
0.0
 10
17.9510041822
 20
11.0928912294
 30
0.0
 10
17.9603247767
 20
11.1081129196
 30
0.0
 10
17.9696552998
 20
11.1233309869
 30
0.0
 10
17.9766253549
 20
11.134754695
 30
0.0
 10
17.9813153509
 20
11.1423547032
 30
0.0
 10
17.9832050941
 20
11.1455448805
 30
0.0
 10
17.9848671717
 20
11.1480421847
 30
0.0
 10
17.9859796547
 20
11.1507400334
 30
0.0
 10
17.9876711455
 20
11.1555544464
 30
0.0
 10
17.9902207922
 20
11.1623835637
 30
0.0
 10
17.9942257694
 20
11.1733373204
 30
0.0
 10
17.9992574965
 20
11.1870202103
 30
0.0
 10
18.0072939394
 20
11.2089180545
 30
0.0
 10
18.017344874
 20
11.2362884314
 30
0.0
 10
18.0273921854
 20
11.2636599962
 30
0.0
 10
18.0354344254
 20
11.2855559398
 30
0.0
 10
18.04045166
 20
11.2992435813
 30
0.0
 10
18.0444863468
 20
11.3101875972
 30
0.0
 10
18.0469603609
 20
11.3170415121
 30
0.0
 10
18.0487876959
 20
11.321811386
 30
0.0
 10
18.0496824295
 20
11.3245806278
 30
0.0
 10
18.0500142312
 20
11.3275140872
 30
0.0
 10
18.0506213958
 20
11.3311247813
 30
0.0
 10
18.0519202267
 20
11.3398366447
 30
0.0
 10
18.0539349868
 20
11.3528850366
 30
0.0
 10
18.0565833214
 20
11.3702939809
 30
0.0
 10
18.0592418091
 20
11.3876999649
 30
0.0
 10
18.0627829921
 20
11.4109089473
 30
0.0
 10
18.0663246723
 20
11.434117828
 30
0.0
 10
18.0698674616
 20
11.4573262609
 30
0.0
 10
18.0720785177
 20
11.4718327358
 30
0.0
 10
18.0738547347
 20
11.4834351373
 30
0.0
 10
18.0751666932
 20
11.492144551
 30
0.0
 10
18.076324268
 20
11.499378178
 30
0.0
 10
18.0771061674
 20
11.5052193961
 30
0.0
 10
18.0780865075
 20
11.5094518907
 30
0.0
 10
18.0775632657
 20
11.5142509031
 30
0.0
 10
18.0773908307
 20
11.5204516943
 30
0.0
 10
18.0769950863
 20
11.528270579
 30
0.0
 10
18.0765973248
 20
11.5376241791
 30
0.0
 10
18.0760400345
 20
11.5501057965
 30
0.0
 10
18.0753526553
 20
11.5657043423
 30
0.0
 10
18.0742476358
 20
11.5906639608
 30
0.0
 10
18.0731443448
 20
11.6156230315
 30
0.0
 10
18.0720397781
 20
11.6405822865
 30
0.0
 10
18.0712134516
 20
11.6593017228
 30
0.0
 10
18.0703793689
 20
11.6780210865
 30
0.0
 10
18.0697755018
 20
11.692060831
 30
0.0
 10
18.0693391893
 20
11.7014203137
 30
0.0
 10
18.0691812702
 20
11.7061006752
 30
0.0
 10
18.0687891492
 20
11.7107786256
 30
0.0
 10
18.0671519455
 20
11.717004421
 30
0.0
 10
18.0654870012
 20
11.7247905931
 30
0.0
 10
18.062609855
 20
11.7372462738
 30
0.0
 10
18.0590864466
 20
11.7528166237
 30
0.0
 10
18.0534081076
 20
11.777728779
 30
0.0
 10
18.0463247284
 20
11.8088690114
 30
0.0
 10
18.0392342781
 20
11.8400095959
 30
0.0
 10
18.0335672528
 20
11.8649211879
 30
0.0
 10
18.03001556
 20
11.880492946
 30
0.0
 10
18.0271963969
 20
11.89294574
 30
0.0
 10
18.0253838431
 20
11.9007392607
 30
0.0
 10
18.0242164126
 20
11.9061736328
 30
0.0
 10
18.0233907274
 20
11.9093119894
 30
0.0
 10
18.0219677443
 20
11.9125746442
 30
0.0
 10
18.0203931744
 20
11.916610477
 30
0.0
 10
18.0164461745
 20
11.9263314434
 30
0.0
 10
18.01059625
 20
11.9408982061
 30
0.0
 10
18.0027560129
 20
11.9603289508
 30
0.0
 10
17.9949265661
 20
11.9797574501
 30
0.0
 10
17.9844835389
 20
12.0056628991
 30
0.0
 10
17.966210006
 20
12.0509970678
 30
0.0
 10
17.9505463728
 20
12.0898550526
 30
0.0
 10
17.9401040851
 20
12.1157603478
 30
0.0
  0
ENDSEC
  0
SECTION
  2
OBJECTS
  0
DICTIONARY
  5
C
100
AcDbDictionary
280
0
281
1
  3
ACAD_GROUP
350
D
  3
ACAD_MLINESTYLE
350
17
  3
ACAD_LAYOUT
350
1A
  3
ACAD_PLOTSETTINGS
350
19
  3
ACAD_PLOTSTYLENAME
350
E
  0
DICTIONARY
  5
D
102
{ACAD_REACTORS
330
C
102
}
100
AcDbDictionary
280
0
281
1
  0
ACDBDICTIONARYWDFLT
  5
E
102
{ACAD_REACTORS
330
C
102
}
100
AcDbDictionary
281
1
  3
Normal
350
F
100
AcDbDictionaryWithDefault
340
F
  0
DICTIONARY
  5
17
102
{ACAD_REACTORS
330
C
102
}
100
AcDbDictionary
280
0
281
1
  3
Standard
350
18
  0
DICTIONARY
  5
19
102
{ACAD_REACTORS
330
C
102
}
100
AcDbDictionary
281
1
  0
DICTIONARY
  5
1A
102
{ACAD_REACTORS
330
C
102
}
100
AcDbDictionary
281
1
  3
Model
350
391
  3
Layout1
350
392
  0
ACDBPLACEHOLDER
  5
F
102
{ACAD_REACTORS
330
E
102
}
  0
MLINESTYLE
  5
18
102
{ACAD_REACTORS
330
17
102
}
100
AcDbMlineStyle
  2
STANDARD
 70
0
  3

 62
256
 51
90.0
 52
90.0
 71
2
 49
0.5
 62
256
  6
BYLAYER
 49
-0.5
 62
256
  6
BYLAYER
  0
LAYOUT
  5
391
102
{ACAD_REACTORS
330
1A
102
}
100
AcDbPlotSettings
  1

  2
none_device
  4
ANSI_C_(22.00_x_17.00_Inches)
  6

 40
0.0
 41
0.0
 42
0.0
 43
0.0
 44
558.8
 45
431.8
 46
0.0
 47
0.0
 48
0.0
 49
0.0
140
0.0
141
0.0
142
1.0
143
1.0
 70
1024
 72
0
 73
0
 74
0
  7

 75
0
147
1.0
148
0.0
149
0.0
100
AcDbLayout
  1
Model
 70
0
 71
0
 10
0.0
 20
0.0
 11
22.0
 21
17.0
 12
0.0
 22
0.0
 32
0.0
 14
0.0
 24
0.0
 34
0.0
 15
0.0
 25
0.0
 35
0.0
146
0.0
 13
0.0
 23
0.0
 33
0.0
 16
1.0
 26
0.0
 36
0.0
 17
0.0
 27
1.0
 37
0.0
 76
0
330
225
345
0
346
0
  0
LAYOUT
  5
392
102
{ACAD_REACTORS
330
1A
102
}
100
AcDbPlotSettings
  1

  2
none_device
  4
ANSI_C_(22.00_x_17.00_Inches)
  6

 40
0.0
 41
0.0
 42
0.0
 43
0.0
 44
558.8
 45
431.8
 46
0.0
 47
0.0
 48
0.0
 49
0.0
140
0.0
141
0.0
142
1.0
143
1.0
 70
0
 72
0
 73
0
 74
0
  7

 75
0
147
1.0
148
0.0
149
0.0
100
AcDbLayout
  1
Layout1
 70
0
 71
1
 10
0.0
 20
0.0
 11
22.0
 21
17.0
 12
0.0
 22
0.0
 32
0.0
 14
0.0
 24
0.0
 34
0.0
 15
0.0
 25
0.0
 35
0.0
146
0.0
 13
0.0
 23
0.0
 33
0.0
 16
1.0
 26
0.0
 36
0.0
 17
0.0
 27
1.0
 37
0.0
 76
0
330
226
345
0
346
0
  0
ENDSEC
  0
EOF