999
DXF file: _cgs_temp_output.dxf
999
Pro/ENGINEER 2016360 by Parametric Technology Corporation
  0
SECTION
  2
HEADER
  9
$ACADVER
  1
AC1021
  9
$DWGCODEPAGE
  3
ANSI_1252
  9
$EXTMAX
 10
22.0
 20
17.0
 30
0.0
  9
$EXTMIN
 10
0.0
 20
0.0
 30
0.0
  9
$LIMMIN
 10
0.0
 20
0.0
  9
$LIMMAX
 10
22.0
 20
17.0
  9
$VIEWCTR
 10
11.0
 20
8.5
  9
$VIEWSIZE
 40
17.0
  9
$CLAYER
  8
0
  9
$LTSCALE
 40
1.21
  9
$CELTYPE
  6
BYLAYER
  9
$DIMSCALE
 40
1.0
  9
$DIMASZ
 40
0.1875
  9
$DIMEXO
 40
0.0625
  9
$DIMDLI
 40
0.836
  9
$DIMEXE
 40
0.125
  9
$DIMCEN
 40
0.198
  9
$DIMLFAC
 40
1.0
  9
$DIMBLK
  1
_CLOSED
  9
$DIMALT
 70
0
  9
$DIMALTF
 40
25.4
  9
$DIMTXT
 40
0.15625
  9
$DIMTOL
 70
0
  9
$DIMLIM
 70
0
  9
$DIMTFAC
 40
1.0
  9
$DIMGAP
 40
0.09
  9
$DIMDSEP
 70
46
  9
$AUNITS
 70
0
  9
$PDMODE
 70
3
  9
$PDSIZE
 40
0.3125
  9
$HANDSEED
  5
337
  9
$TILEMODE
 70
1
  9
$MEASUREMENT
 70
0
  9
$INSUNITS
 70
1
  0
ENDSEC
  0
SECTION
  2
CLASSES
  0
CLASS
  1
ACDBDICTIONARYWDFLT
  2
AcDbDictionaryWithDefault
  3
AutoCAD 2000
 90
0
 91
1
280
0
281
0
  0
CLASS
  1
ACDBPLACEHOLDER
  2
AcDbPlaceHolder
  3
AutoCAD 2000
 90
0
 91
1
280
0
281
0
  0
CLASS
  1
LAYOUT
  2
AcDbLayout
  3
AutoCAD 2000
 90
0
 91
0
280
0
281
0
  0
ENDSEC
  0
SECTION
  2
TABLES
  0
TABLE
  2
VPORT
  5
8
100
AcDbSymbolTable
 70
2
  0
VPORT
  5
1F4
100
AcDbSymbolTableRecord
100
AcDbViewportTableRecord
  2
*ACTIVE
 70
0
 10
0.0
 20
0.0
 11
1.0
 21
1.0
 12
11.0
 22
8.5
 13
0.0
 23
0.0
 14
1.0
 24
1.0
 15
0.0
 25
0.0
 16
0.0
 26
0.0
 36
1.0
 17
0.0
 27
0.0
 37
0.0
 40
17.0
 41
1.2941176471
 42
50.0
 43
0.0
 44
0.0
 50
0.0
 51
0.0
 71
0
 72
100
 73
1
 74
1
 75
0
 76
0
 77
0
 78
0
  0
ENDTAB
  0
TABLE
  2
LTYPE
  5
5
100
AcDbSymbolTable
 70
6
  0
LTYPE
  5
14
100
AcDbSymbolTableRecord
100
AcDbLinetypeTableRecord
  2
BYBLOCK
 70
0
  3

 72
65
 73
0
 40
0.0
  0
LTYPE
  5
15
100
AcDbSymbolTableRecord
100
AcDbLinetypeTableRecord
  2
BYLAYER
 70
0
  3

 72
65
 73
0
 40
0.0
  0
LTYPE
  5
16
100
AcDbSymbolTableRecord
100
AcDbLinetypeTableRecord
  2
CONTINUOUS
 70
64
  3
Solid line
 72
65
 73
0
 40
0.0
  0
LTYPE
  5
1F5
100
AcDbSymbolTableRecord
100
AcDbLinetypeTableRecord
  2
CENTER
 70
64
  3
____ _ ____ _ ____ _ ____ _ ____ _ ____ _ ____
 72
65
 73
4
 40
0.6
 49
0.375
 74
0
 49
-0.075
 74
0
 49
0.075
 74
0
 49
-0.075
 74
0
  0
LTYPE
  5
1F6
100
AcDbSymbolTableRecord
100
AcDbLinetypeTableRecord
  2
HIDDEN
 70
64
  3
- - - - - - - - - - - - - - - - - - - -
 72
65
 73
2
 40
0.2
 49
0.1
 74
0
 49
-0.1
 74
0
  0
LTYPE
  5
1F7
100
AcDbSymbolTableRecord
100
AcDbLinetypeTableRecord
  2
PHANTOM
 70
64
  3
_____ _ _ _____ _ _ _____ _ _ _____
 72
65
 73
6
 40
0.8
 49
0.45
 74
0
 49
-0.05
 74
0
 49
0.1
 74
0
 49
-0.05
 74
0
 49
0.1
 74
0
 49
-0.05
 74
0
  0
LTYPE
  5
1F8
100
AcDbSymbolTableRecord
100
AcDbLinetypeTableRecord
  2
DOT
 70
64
  3
. . . . . . . . . . . . . . . . . . . .
 72
65
 73
2
 40
0.2
 49
0.1
 74
0
 49
-0.1
 74
0
  0
LTYPE
  5
1F9
100
AcDbSymbolTableRecord
100
AcDbLinetypeTableRecord
  2
DASHED
 70
64
  3
- - - - - - - - - - - - - - - - - - - -
 72
65
 73
2
 40
0.2
 49
0.1
 74
0
 49
-0.1
 74
0
  0
ENDTAB
  0
TABLE
  2
LAYER
  5
2
100
AcDbSymbolTable
 70
36
  0
LAYER
  5
10
100
AcDbSymbolTableRecord
100
AcDbLayerTableRecord
  2
0
 70
0
 62
7
  6
CONTINUOUS
370
-3
390
F
  0
LAYER
  5
1FA
100
AcDbSymbolTableRecord
100
AcDbLayerTableRecord
  2
DEFAULT_1
 70
0
 62
7
  6
CENTER
370
-3
390
F
  0
LAYER
  5
1FB
100
AcDbSymbolTableRecord
100
AcDbLayerTableRecord
  2
DEFAULT_2
 70
0
 62
8
  6
HIDDEN
370
-3
390
F
  0
LAYER
  5
1FC
100
AcDbSymbolTableRecord
100
AcDbLayerTableRecord
  2
DEFAULT_3
 70
0
 62
7
  6
PHANTOM
370
-3
390
F
  0
LAYER
  5
1FD
100
AcDbSymbolTableRecord
100
AcDbLayerTableRecord
  2
01_ALL_DTM_PLN
 70
0
 62
7
  6
CONTINUOUS
370
-3
390
F
  0
LAYER
  5
1FE
100
AcDbSymbolTableRecord
100
AcDbLayerTableRecord
  2
01__ASM_ALL_DTM_PLN
 70
0
 62
7
  6
CONTINUOUS
370
-3
390
F
  0
LAYER
  5
1FF
100
AcDbSymbolTableRecord
100
AcDbLayerTableRecord
  2
01__ASM_DEF_DTM_PLN
 70
0
 62
7
  6
CONTINUOUS
370
-3
390
F
  0
LAYER
  5
200
100
AcDbSymbolTableRecord
100
AcDbLayerTableRecord
  2
01___PRT_ALL_DTM_PLN
 70
0
 62
7
  6
CONTINUOUS
370
-3
390
F
  0
LAYER
  5
201
100
AcDbSymbolTableRecord
100
AcDbLayerTableRecord
  2
01___PRT_DEF_DTM_PLN
 70
0
 62
7
  6
CONTINUOUS
370
-3
390
F
  0
LAYER
  5
202
100
AcDbSymbolTableRecord
100
AcDbLayerTableRecord
  2
02_ALL_AXES
 70
0
 62
7
  6
CONTINUOUS
370
-3
390
F
  0
LAYER
  5
203
100
AcDbSymbolTableRecord
100
AcDbLayerTableRecord
  2
02__ASM_ALL_AXES
 70
0
 62
7
  6
CONTINUOUS
370
-3
390
F
  0
LAYER
  5
204
100
AcDbSymbolTableRecord
100
AcDbLayerTableRecord
  2
02___PRT_ALL_AXES
 70
0
 62
7
  6
CONTINUOUS
370
-3
390
F
  0
LAYER
  5
205
100
AcDbSymbolTableRecord
100
AcDbLayerTableRecord
  2
03_ALL_CURVES
 70
0
 62
7
  6
CONTINUOUS
370
-3
390
F
  0
LAYER
  5
206
100
AcDbSymbolTableRecord
100
AcDbLayerTableRecord
  2
03__ASM_ALL_CURVES
 70
0
 62
7
  6
CONTINUOUS
370
-3
390
F
  0
LAYER
  5
207
100
AcDbSymbolTableRecord
100
AcDbLayerTableRecord
  2
03___PRT_ALL_CURVES
 70
0
 62
7
  6
CONTINUOUS
370
-3
390
F
  0
LAYER
  5
208
100
AcDbSymbolTableRecord
100
AcDbLayerTableRecord
  2
04_ALL_DTM_PNT
 70
0
 62
7
  6
CONTINUOUS
370
-3
390
F
  0
LAYER
  5
209
100
AcDbSymbolTableRecord
100
AcDbLayerTableRecord
  2
04__ASM_ALL_DTM_PNT
 70
0
 62
7
  6
CONTINUOUS
370
-3
390
F
  0
LAYER
  5
20A
100
AcDbSymbolTableRecord
100
AcDbLayerTableRecord
  2
04___PRT_ALL_DTM_PNT
 70
0
 62
7
  6
CONTINUOUS
370
-3
390
F
  0
LAYER
  5
20B
100
AcDbSymbolTableRecord
100
AcDbLayerTableRecord
  2
05_ALL_DTM_CSYS
 70
0
 62
7
  6
CONTINUOUS
370
-3
390
F
  0
LAYER
  5
20C
100
AcDbSymbolTableRecord
100
AcDbLayerTableRecord
  2
05__ASM_ALL_DTM_CSYS
 70
0
 62
7
  6
CONTINUOUS
370
-3
390
F
  0
LAYER
  5
20D
100
AcDbSymbolTableRecord
100
AcDbLayerTableRecord
  2
05__ASM_DEF_DTM_CSYS
 70
0
 62
7
  6
CONTINUOUS
370
-3
390
F
  0
LAYER
  5
20E
100
AcDbSymbolTableRecord
100
AcDbLayerTableRecord
  2
05___PRT_ALL_DTM_CSYS
 70
0
 62
7
  6
CONTINUOUS
370
-3
390
F
  0
LAYER
  5
20F
100
AcDbSymbolTableRecord
100
AcDbLayerTableRecord
  2
05___PRT_DEF_DTM_CSYS
 70
0
 62
7
  6
CONTINUOUS
370
-3
390
F
  0
LAYER
  5
210
100
AcDbSymbolTableRecord
100
AcDbLayerTableRecord
  2
06_ALL_SURFS
 70
0
 62
7
  6
CONTINUOUS
370
-3
390
F
  0
LAYER
  5
211
100
AcDbSymbolTableRecord
100
AcDbLayerTableRecord
  2
06__ASM_ALL_SURFS
 70
0
 62
7
  6
CONTINUOUS
370
-3
390
F
  0
LAYER
  5
212
100
AcDbSymbolTableRecord
100
AcDbLayerTableRecord
  2
06___PRT_ALL_SURFS
 70
0
 62
7
  6
CONTINUOUS
370
-3
390
F
  0
LAYER
  5
213
100
AcDbSymbolTableRecord
100
AcDbLayerTableRecord
  2
07__ASM_ALL_SKELETONS
 70
0
 62
7
  6
CONTINUOUS
370
-3
390
F
  0
LAYER
  5
214
100
AcDbSymbolTableRecord
100
AcDbLayerTableRecord
  2
NONE
 70
0
 62
7
  6
CONTINUOUS
370
-3
390
F
  0
LAYER
  5
215
100
AcDbSymbolTableRecord
100
AcDbLayerTableRecord
  2
SHELL
 70
0
 62
7
  6
CONTINUOUS
370
-3
390
F
  0
LAYER
  5
216
100
AcDbSymbolTableRecord
100
AcDbLayerTableRecord
  2
_9812
 70
0
 62
7
  6
CONTINUOUS
370
-3
390
F
  0
ENDTAB
  0
TABLE
  2
STYLE
  5
3
100
AcDbSymbolTable
 70
1
  0
STYLE
  5
11
100
AcDbSymbolTableRecord
100
AcDbTextStyleTableRecord
  2
STANDARD
 70
0
 40
0.0
 41
0.8
 50
0.0
 71
0
 42
0.2
  3
txt
  4

  0
STYLE
  5
217
100
AcDbSymbolTableRecord
100
AcDbTextStyleTableRecord
  2
TEXTSTYLE_1
 70
0
 40
0.0
 41
0.8
 50
0.0
 71
0
 42
0.2
  3
gdt
  4

  0
ENDTAB
  0
TABLE
  2
VIEW
  5
6
100
AcDbSymbolTable
 70
0
  0
ENDTAB
  0
TABLE
  2
UCS
  5
7
100
AcDbSymbolTable
 70
0
  0
ENDTAB
  0
TABLE
  2
APPID
  5
9
100
AcDbSymbolTable
 70
1
  0
APPID
  5
218
100
AcDbSymbolTableRecord
100
AcDbRegAppTableRecord
  2
ACAD
 70
0
  0
ENDTAB
  0
TABLE
  2
BLOCK_RECORD
  5
1
100
AcDbSymbolTable
 70
0
  0
BLOCK_RECORD
  5
219
100
AcDbSymbolTableRecord
100
AcDbBlockTableRecord
  2
*Model_Space
  0
BLOCK_RECORD
  5
21A
100
AcDbSymbolTableRecord
100
AcDbBlockTableRecord
  2
*Paper_Space
  0
ENDTAB
  0
TABLE
  2
DIMSTYLE
  5
A
100
AcDbSymbolTable
 70
1
100
AcDbDimStyleTable
 71
0
  0
DIMSTYLE
105
21B
100
AcDbSymbolTableRecord
100
AcDbDimStyleTableRecord
  2
STANDARD
 70
0
  3

  4

 40
1.0
 41
0.1875
 42
0.0625
 43
0.38
 44
0.125
 45
0.0
 46
0.0
 47
0.0001
 48
0.0001
140
0.15625
141
0.09
142
0.0
143
25.4
144
1.0
145
0.0
146
1.0
147
0.09
 71
0.0
 72
0.0
 73
1
 74
1
 75
0
 76
0
 77
0
 78
4
 79
1
170
0
171
3
172
0
173
0
174
0
175
0
176
0
177
0
178
0
270
2
179
4
271
4
272
4
273
2
274
2
275
0
280
0
281
0
282
0
283
1
284
4
285
0
286
0
287
3
288
0
340
11
278
46
  0
ENDTAB
  0
ENDSEC
  0
SECTION
  2
BLOCKS
  0
BLOCK
  5
20
100
AcDbEntity
  8
0
100
AcDbBlockBegin
  2
*Model_Space
 70
0
 10
0.0
 20
0.0
 30
0.0
  3
*Model_Space
  1

  0
ENDBLK
  5
21
100
AcDbEntity
  8
0
100
AcDbBlockEnd
  0
BLOCK
  5
1C
100
AcDbEntity
  8
0
100
AcDbBlockBegin
  2
*Paper_Space
 70
0
 10
0.0
 20
0.0
 30
0.0
  3
*Paper_Space
  1

  0
ENDBLK
  5
1D
100
AcDbEntity
  8
0
100
AcDbBlockEnd
  0
ENDSEC
  0
SECTION
  2
ENTITIES
  0
MTEXT
  5
21C
100
AcDbEntity
  8
0
100
AcDbMText
 62
7
  6
CONTINUOUS
  7
STANDARD
 71
1
 72
1
 10
15.9560215477
 20
0.9479130325
 30
0.0
 11
1.0
 21
0.0
 31
0.0
 44
0.9
  1
SCALE: 1:1.000
 40
0.3
 41
3.36
  0
LINE
  5
21D
100
AcDbEntity
  8
0
100
AcDbLine
 62
7
  6
CONTINUOUS
 10
0.0
 20
0.0
 11
0.0
 21
17.0
  0
LINE
  5
21E
100
AcDbEntity
  8
0
100
AcDbLine
 62
7
  6
CONTINUOUS
 10
0.0
 20
0.0
 11
22.0
 21
0.0
  0
LINE
  5
21F
100
AcDbEntity
  8
0
100
AcDbLine
 62
7
  6
CONTINUOUS
 10
0.0
 20
17.0
 11
22.0
 21
17.0
  0
LINE
  5
220
100
AcDbEntity
  8
0
100
AcDbLine
 62
7
  6
CONTINUOUS
 10
22.0
 20
0.0
 11
22.0
 21
17.0
  0
LINE
  5
221
100
AcDbEntity
  8
0
100
AcDbLine
 62
7
  6
CONTINUOUS
 10
4.6303672762
 20
4.4639014632
 11
4.6303672762
 21
6.5763383303
  0
LINE
  5
222
100
AcDbEntity
  8
0
100
AcDbLine
 62
7
  6
CONTINUOUS
 10
5.0741488426
 20
4.0201198968
 11
7.1865857097
 21
4.0201198968
  0
LINE
  5
223
100
AcDbEntity
  8
0
100
AcDbLine
 62
7
  6
CONTINUOUS
 10
5.928294682
 20
6.786205593
 11
6.0162553951
 21
6.8915309744
  0
LINE
  5
224
100
AcDbEntity
  8
0
100
AcDbLine
 62
7
  6
CONTINUOUS
 10
6.2314035733
 20
6.6652233255
 11
6.3324398704
 21
6.786205593
  0
LINE
  5
225
100
AcDbEntity
  8
0
100
AcDbLine
 62
7
  6
CONTINUOUS
 10
6.3324398704
 20
6.7284022495
 11
6.2314035733
 21
6.607419982
  0
LINE
  5
226
100
AcDbEntity
  8
0
100
AcDbLine
 62
7
  6
CONTINUOUS
 10
6.8727847547
 20
6.8901392853
 11
6.5845023682
 21
6.6018568988
  0
LINE
  5
227
100
AcDbEntity
  8
0
100
AcDbLine
 62
7
  6
CONTINUOUS
 10
5.0486302741
 20
5.0659848047
 11
4.7603478876
 21
4.7777024182
  0
LINE
  5
228
100
AcDbEntity
  8
0
100
AcDbLine
 62
7
  6
CONTINUOUS
 10
4.7603478876
 20
6.2625373753
 11
5.0486302741
 21
5.9742549888
  0
LINE
  5
229
100
AcDbEntity
  8
0
100
AcDbLine
 62
7
  6
CONTINUOUS
 10
6.5845023682
 20
4.4383828947
 11
6.8727847547
 21
4.1501005082
  0
LINE
  5
22A
100
AcDbEntity
  8
0
100
AcDbLine
 62
7
  6
CONTINUOUS
 10
5.8803672762
 20
6.5606275853
 11
5.8803672762
 21
6.8789931575
  0
LINE
  5
22B
100
AcDbEntity
  8
0
100
AcDbLine
 62
7
  6
CONTINUOUS
 10
5.928294682
 20
6.786205593
 11
5.928294682
 21
6.7284022495
  0
LINE
  5
22C
100
AcDbEntity
  8
0
100
AcDbLine
 62
7
  6
CONTINUOUS
 10
6.0293309791
 20
6.607419982
 11
6.0293309791
 21
6.6652233255
  0
LINE
  5
22D
100
AcDbEntity
  8
0
100
AcDbLine
 62
7
  6
CONTINUOUS
 10
6.2314035733
 20
6.6652233255
 11
6.2314035733
 21
6.607419982
  0
LINE
  5
22E
100
AcDbEntity
  8
0
100
AcDbLine
 62
7
  6
CONTINUOUS
 10
6.3324398704
 20
6.786205593
 11
6.3324398704
 21
6.7284022495
  0
LINE
  5
22F
100
AcDbEntity
  8
0
100
AcDbLine
 62
7
  6
CONTINUOUS
 10
6.3803672762
 20
6.8789931575
 11
6.3803672762
 21
6.5606275853
  0
LINE
  5
230
100
AcDbEntity
  8
0
100
AcDbLine
 62
7
  6
CONTINUOUS
 10
5.3879497976
 20
4.1501005082
 11
5.6762321841
 21
4.4383828947
  0
LINE
  5
231
100
AcDbEntity
  8
0
100
AcDbLine
 62
7
  6
CONTINUOUS
 10
7.2121042782
 20
5.9742549888
 11
7.5003866647
 21
6.2625373753
  0
LINE
  5
232
100
AcDbEntity
  8
0
100
AcDbLine
 62
7
  6
CONTINUOUS
 10
7.5003866647
 20
4.7777024182
 11
7.2121042782
 21
5.0659848047
  0
LINE
  5
233
100
AcDbEntity
  8
0
100
AcDbLine
 62
7
  6
CONTINUOUS
 10
5.6762321841
 20
6.6018568988
 11
5.3879497976
 21
6.8901392853
  0
LINE
  5
234
100
AcDbEntity
  8
0
100
AcDbLine
 62
7
  6
CONTINUOUS
 10
5.928294682
 20
6.7284022495
 11
6.0293309791
 21
6.607419982
  0
LINE
  5
235
100
AcDbEntity
  8
0
100
AcDbLine
 62
7
  6
CONTINUOUS
 10
6.0293309791
 20
6.6652233255
 11
5.928294682
 21
6.786205593
  0
LINE
  5
236
100
AcDbEntity
  8
0
100
AcDbLine
 62
7
  6
CONTINUOUS
 10
6.0293309791
 20
6.607419982
 11
6.2314035733
 21
6.607419982
  0
LINE
  5
237
100
AcDbEntity
  8
0
100
AcDbLine
 62
7
  6
CONTINUOUS
 10
6.2445372665
 20
6.8914613935
 11
6.3324398704
 21
6.786205593
  0
LINE
  5
238
100
AcDbEntity
  8
0
100
AcDbLine
 62
7
  6
CONTINUOUS
 10
6.0293309791
 20
6.6652233255
 11
6.2314035733
 21
6.6652233255
  0
LINE
  5
239
100
AcDbEntity
  8
0
100
AcDbLine
 62
7
  6
CONTINUOUS
 10
7.6303672762
 20
4.4639014632
 11
7.6303672762
 21
6.5763383303
  0
LINE
  5
23A
100
AcDbEntity
  8
0
100
AcDbLine
 62
7
  6
CONTINUOUS
 10
7.1865857097
 20
7.0201198968
 11
5.0741488426
 21
7.0201198968
  0
LINE
  5
23B
100
AcDbEntity
  8
0
100
AcDbLine
 62
7
  6
CONTINUOUS
 10
4.5708720839
 20
13.0106727814
 11
4.5708720839
 21
13.4519652814
  0
LINE
  5
23C
100
AcDbEntity
  8
0
100
AcDbLine
 62
7
  6
CONTINUOUS
 10
5.0083720839
 20
12.5293802814
 11
5.0083720839
 21
12.9906727814
  0
LINE
  5
23D
100
AcDbEntity
  8
0
100
AcDbLine
 62
7
  6
CONTINUOUS
 10
5.1583720839
 20
11.8294227814
 11
5.1583720839
 21
12.4906727814
  0
LINE
  5
23E
100
AcDbEntity
  8
0
100
AcDbLine
 62
7
  6
CONTINUOUS
 10
6.8633720839
 20
11.7094227814
 11
5.2783720839
 21
11.7094227814
  0
LINE
  5
23F
100
AcDbEntity
  8
0
100
AcDbLine
 62
7
  6
CONTINUOUS
 10
5.9698357868
 20
13.0186412748
 11
5.8687994896
 21
12.8921964609
  0
LINE
  5
240
100
AcDbEntity
  8
0
100
AcDbLine
 62
7
  6
CONTINUOUS
 10
5.8687994896
 20
12.8368902815
 11
5.9698357868
 21
12.9633350954
  0
LINE
  5
241
100
AcDbEntity
  8
03__ASM_ALL_CURVES
100
AcDbLine
 62
8
  6
PHANTOM
 10
8.0083720839
 20
12.2406727814
 11
4.1333720839
 21
12.2406727814
  0
LINE
  5
242
100
AcDbEntity
  8
0
100
AcDbLine
 62
7
  6
CONTINUOUS
 10
5.8208720839
 20
12.7313114273
 11
5.8208720839
 21
13.0640517233
  0
LINE
  5
243
100
AcDbEntity
  8
0
100
AcDbLine
 62
7
  6
CONTINUOUS
 10
5.8687994896
 20
12.8368902815
 11
5.8687994896
 21
12.8921964609
  0
LINE
  5
244
100
AcDbEntity
  8
0
100
AcDbLine
 62
7
  6
CONTINUOUS
 10
5.9698357868
 20
12.9633350954
 11
5.9698357868
 21
13.0186412748
  0
LINE
  5
245
100
AcDbEntity
  8
0
100
AcDbLine
 62
7
  6
CONTINUOUS
 10
6.1846118039
 20
12.7263435359
 11
6.2729446781
 21
12.8368902815
  0
LINE
  5
246
100
AcDbEntity
  8
0
100
AcDbLine
 62
7
  6
CONTINUOUS
 10
7.0946645839
 20
12.4906727814
 11
5.0470795839
 21
12.4906727814
  0
LINE
  5
247
100
AcDbEntity
  8
0
100
AcDbLine
 62
7
  6
CONTINUOUS
 10
5.9567668514
 20
12.7268009671
 11
5.8687994896
 21
12.8368902815
  0
LINE
  5
248
100
AcDbEntity
  8
0
100
AcDbLine
 62
7
  6
CONTINUOUS
 10
6.171908381
 20
13.0186412748
 11
6.171908381
 21
12.9633350954
  0
LINE
  5
249
100
AcDbEntity
  8
0
100
AcDbLine
 62
7
  6
CONTINUOUS
 10
6.2729446781
 20
12.8368902815
 11
6.2729446781
 21
12.8921964609
  0
LINE
  5
24A
100
AcDbEntity
  8
0
100
AcDbLine
 62
7
  6
CONTINUOUS
 10
6.3208720839
 20
13.0640517233
 11
6.3208720839
 21
12.7313114273
  0
LINE
  5
24B
100
AcDbEntity
  8
0
100
AcDbLine
 62
7
  6
CONTINUOUS
 10
5.9698357868
 20
12.9633350954
 11
6.171908381
 21
12.9633350954
  0
LINE
  5
24C
100
AcDbEntity
  8
0
100
AcDbLine
 62
7
  6
CONTINUOUS
 10
7.5508652245
 20
12.9906727814
 11
6.4146183312
 21
12.9906727814
  0
LINE
  5
24D
100
AcDbEntity
  8
0
100
AcDbLine
 62
7
  6
CONTINUOUS
 10
5.7271258365
 20
12.9906727814
 11
4.5908789432
 21
12.9906727814
  0
LINE
  5
24E
100
AcDbEntity
  8
0
100
AcDbLine
 62
7
  6
CONTINUOUS
 10
5.9698357868
 20
13.0186412748
 11
6.171908381
 21
13.0186412748
  0
LINE
  5
24F
100
AcDbEntity
  8
0
100
AcDbLine
 62
7
  6
CONTINUOUS
 10
6.171908381
 20
12.9633350954
 11
6.2729446781
 21
12.8368902815
  0
LINE
  5
250
100
AcDbEntity
  8
0
100
AcDbLine
 62
7
  6
CONTINUOUS
 10
6.171908381
 20
13.0186412748
 11
6.2729446781
 21
12.8921964609
  0
LINE
  5
251
100
AcDbEntity
  8
0
100
AcDbLine
 62
7
  6
CONTINUOUS
 10
6.9833720839
 20
11.8294227814
 11
6.9833720839
 21
12.4906727814
  0
LINE
  5
252
100
AcDbEntity
  8
0
100
AcDbLine
 62
7
  6
CONTINUOUS
 10
4.6095795839
 20
13.4906727814
 11
7.5321645839
 21
13.4906727814
  0
LINE
  5
253
100
AcDbEntity
  8
0
100
AcDbLine
 62
7
  6
CONTINUOUS
 10
7.1333720839
 20
12.9906727814
 11
7.1333720839
 21
12.5293802814
  0
LINE
  5
254
100
AcDbEntity
  8
0
100
AcDbLine
 62
7
  6
CONTINUOUS
 10
7.5708720839
 20
13.0106727814
 11
7.5708720839
 21
13.4519652814
  0
LINE
  5
255
100
AcDbEntity
  8
0
100
AcDbLine
 62
7
  6
CONTINUOUS
 10
15.9709802569
 20
3.9606247044
 11
16.4122727569
 21
3.9606247044
  0
LINE
  5
256
100
AcDbEntity
  8
0
100
AcDbLine
 62
7
  6
CONTINUOUS
 10
15.6164999087
 20
6.8938696564
 11
15.6381761625
 21
6.9146094737
  0
LINE
  5
257
100
AcDbEntity
  8
0
100
AcDbLine
 62
7
  6
CONTINUOUS
 10
15.9509802569
 20
4.3981247044
 11
15.4896877569
 21
4.3981247044
  0
LINE
  5
258
100
AcDbEntity
  8
0
100
AcDbLine
 62
7
  6
CONTINUOUS
 10
14.6697302569
 20
4.668125143
 11
14.6697302569
 21
6.2531242659
  0
LINE
  5
259
100
AcDbEntity
  8
0
100
AcDbLine
 62
7
  6
CONTINUOUS
 10
15.4509802569
 20
4.5481247044
 11
14.7897302569
 21
4.5481247044
  0
LINE
  5
25A
100
AcDbEntity
  8
0
100
AcDbLine
 62
7
  6
CONTINUOUS
 10
15.6707529432
 20
6.6057281331
 11
15.9236425709
 21
6.8476926682
  0
LINE
  5
25B
100
AcDbEntity
  8
0
100
AcDbLine
 62
7
  6
CONTINUOUS
 10
15.9509802569
 20
6.763129099
 11
15.6700241556
 21
6.494310591
  0
LINE
  5
25C
100
AcDbEntity
  8
03__ASM_ALL_CURVES
100
AcDbLine
 62
8
  6
PHANTOM
 10
15.2009802569
 20
3.5246820301
 11
15.2009802569
 21
7.3969325443
  0
LINE
  5
25D
100
AcDbEntity
  8
0
100
AcDbLine
 62
7
  6
CONTINUOUS
 10
15.4509802569
 20
6.4844172044
 11
15.4509802569
 21
4.4368322044
  0
LINE
  5
25E
100
AcDbEntity
  8
0
100
AcDbLine
 62
7
  6
CONTINUOUS
 10
15.9509802569
 20
3.9806253471
 11
15.9509802569
 21
5.1168784571
  0
LINE
  5
25F
100
AcDbEntity
  8
0
100
AcDbLine
 62
7
  6
CONTINUOUS
 10
15.9509802569
 20
5.8043709518
 11
15.9509802569
 21
6.9406178038
  0
LINE
  5
260
100
AcDbEntity
  8
0
100
AcDbLine
 62
7
  6
CONTINUOUS
 10
15.6707529432
 20
6.6057281331
 11
15.7260591227
 21
6.5479247897
  0
LINE
  5
261
100
AcDbEntity
  8
0
100
AcDbLine
 62
7
  6
CONTINUOUS
 10
16.4509802569
 20
3.9993322044
 11
16.4509802569
 21
6.9219172044
  0
LINE
  5
262
100
AcDbEntity
  8
0
100
AcDbLine
 62
7
  6
CONTINUOUS
 10
15.4509802569
 20
6.3731247044
 11
14.7897302569
 21
6.3731247044
  0
LINE
  5
263
100
AcDbEntity
  8
0
100
AcDbLine
 62
7
  6
CONTINUOUS
 10
15.7001392732
 20
6.5231247044
 11
15.4896877569
 21
6.5231247044
  0
LINE
  5
264
100
AcDbEntity
  8
0
100
AcDbLine
 62
7
  6
CONTINUOUS
 10
15.7971977571
 20
6.7267104007
 11
15.8525039365
 21
6.6689070572
  0
LINE
  5
265
100
AcDbEntity
  8
0
100
AcDbLine
 62
7
  6
CONTINUOUS
 10
15.9509802569
 20
6.8191206411
 11
15.9236425709
 21
6.8476926682
  0
LINE
  5
266
100
AcDbEntity
  8
0
100
AcDbLine
 62
7
  6
CONTINUOUS
 10
15.9709802569
 20
6.9606247044
 11
16.4122727569
 21
6.9606247044
  0
LINE
  5
267
100
AcDbEntity
  8
0
100
AcDbLine
 62
7
  6
CONTINUOUS
 10
13.8684219704
 20
13.5558003284
 11
13.9752440235
 21
13.9014766187
  0
LINE
  5
268
100
AcDbEntity
  8
0
100
AcDbLine
 62
7
  6
CONTINUOUS
 10
14.5674765987
 20
13.0662528744
 11
14.4558132192
 21
12.704910046
  0
LWPOLYLINE
  5
269
100
AcDbEntity
  8
0
100
AcDbPolyline
 62
7
  6
CONTINUOUS
 90
4
 70
0
 10
14.021423208
 20
13.2675476234
 10
14.1423060909
 20
13.0079499423
 10
14.316739511
 20
12.6525749025
 10
14.4915684271
 20
12.3147979415
  0
LINE
  5
26A
100
AcDbEntity
  8
0
100
AcDbLine
 62
7
  6
CONTINUOUS
 10
14.5897565636
 20
12.6303023139
 11
14.4296902072
 21
12.1123273949
  0
LINE
  5
26B
100
AcDbEntity
  8
0
100
AcDbLine
 62
7
  6
CONTINUOUS
 10
14.9730553527
 20
13.4191020613
 11
15.0598193195
 21
13.5933534701
  0
LINE
  5
26C
100
AcDbEntity
  8
0
100
AcDbLine
 62
7
  6
CONTINUOUS
 10
14.4915524496
 20
12.3148014049
 11
14.4914432949
 21
12.3150074227
  0
LINE
  5
26D
100
AcDbEntity
  8
0
100
AcDbLine
 62
7
  6
CONTINUOUS
 10
14.4914432949
 20
12.3150074227
 11
14.4919667289
 21
12.313854293
  0
LWPOLYLINE
  5
26E
100
AcDbEntity
  8
0
100
AcDbPolyline
 62
7
  6
CONTINUOUS
 90
3
 70
0
 10
14.9713820158
 20
13.1958167785
 10
14.9710317991
 20
13.1895742496
 10
14.9701105437
 20
13.18547476
  0
LINE
  5
26F
100
AcDbEntity
  8
0
100
AcDbLine
 62
7
  6
CONTINUOUS
 10
15.258533755
 20
13.2448506526
 11
15.3452977217
 21
13.4191020613
  0
LINE
  5
270
100
AcDbEntity
  8
0
100
AcDbLine
 62
7
  6
CONTINUOUS
 10
15.376317925
 20
13.4264937454
 11
15.2895539583
 21
13.2522423367
  0
LINE
  5
271
100
AcDbEntity
  8
0
100
AcDbLine
 62
7
  6
CONTINUOUS
 10
16.371554288
 20
11.9017314482
 11
16.6888224636
 21
11.9086236058
  0
LINE
  5
272
100
AcDbEntity
  8
0
100
AcDbLine
 62
7
  6
CONTINUOUS
 10
14.9713820725
 20
13.1958166483
 11
14.9545026101
 21
13.6629351247
  0
LINE
  5
273
100
AcDbEntity
  8
0
100
AcDbLine
 62
7
  6
CONTINUOUS
 10
14.0987808177
 20
13.2206656187
 11
14.4522446765
 21
13.0414664136
  0
LINE
  5
274
100
AcDbEntity
  8
0
100
AcDbLine
 62
7
  6
CONTINUOUS
 10
16.461206895
 20
12.022962191
 11
16.6888457034
 21
11.9075538048
  0
LINE
  5
275
100
AcDbEntity
  8
0
100
AcDbLine
 62
7
  6
CONTINUOUS
 10
15.0305063987
 20
13.318345157
 11
15.0724125705
 21
13.2448506526
  0
LINE
  5
276
100
AcDbEntity
  8
0
100
AcDbLine
 62
7
  6
CONTINUOUS
 10
14.9912422672
 20
13.3872060851
 11
14.9730553527
 21
13.4191020613
  0
LINE
  5
277
100
AcDbEntity
  8
0
100
AcDbLine
 62
7
  6
CONTINUOUS
 10
16.6197217416
 20
13.2244259716
 11
16.4421342775
 21
13.0452267665
  0
LINE
  5
278
100
AcDbEntity
  8
0
100
AcDbLine
 62
7
  6
CONTINUOUS
 10
15.245940504
 20
13.5933534701
 11
15.3452977217
 21
13.4191020613
  0
LINE
  5
279
100
AcDbEntity
  8
0
100
AcDbLine
 62
7
  6
CONTINUOUS
 10
15.2769607073
 20
13.6007451542
 11
15.376317925
 21
13.4264937454
  0
LINE
  5
27A
100
AcDbEntity
  8
0
100
AcDbLine
 62
7
  6
CONTINUOUS
 10
15.258533755
 20
13.2448506526
 11
15.2895539583
 21
13.2522423367
  0
LINE
  5
27B
100
AcDbEntity
  8
0
100
AcDbLine
 62
7
  6
CONTINUOUS
 10
15.0724125705
 20
13.2448506526
 11
15.258533755
 21
13.2448506526
  0
LINE
  5
27C
100
AcDbEntity
  8
0
100
AcDbLine
 62
7
  6
CONTINUOUS
 10
16.6621014888
 20
13.2937496464
 11
16.6758576835
 21
13.3382720621
  0
LINE
  5
27D
100
AcDbEntity
  8
0
100
AcDbLine
 62
7
  6
CONTINUOUS
 10
16.3333996044
 20
12.091475861
 11
16.173333248
 21
11.573500942
  0
LINE
  5
27E
100
AcDbEntity
  8
0
100
AcDbLine
 62
7
  6
CONTINUOUS
 10
15.3452977217
 20
13.4191020613
 11
15.376317925
 21
13.4264937454
  0
LINE
  5
27F
100
AcDbEntity
  8
0
100
AcDbLine
 62
7
  6
CONTINUOUS
 10
16.6134643086
 20
12.5388764483
 11
16.5977443239
 21
12.438852695
  0
LINE
  5
280
100
AcDbEntity
  8
0
100
AcDbLine
 62
7
  6
CONTINUOUS
 10
16.5977458927
 20
12.43885221
 11
16.4860825132
 21
12.0775093816
  0
LINE
  5
281
100
AcDbEntity
  8
0
100
AcDbLine
 62
7
  6
CONTINUOUS
 10
15.2769607073
 20
13.6007451542
 11
15.245940504
 21
13.5933534701
  0
LINE
  5
282
100
AcDbEntity
  8
0
100
AcDbLine
 62
7
  6
CONTINUOUS
 10
15.0598193195
 20
13.5933534701
 11
15.0908395228
 21
13.6007451542
  0
LINE
  5
283
100
AcDbEntity
  8
0
100
AcDbLine
 62
7
  6
CONTINUOUS
 10
15.0598193195
 20
13.5933534701
 11
15.245940504
 21
13.5933534701
  0
LINE
  5
284
100
AcDbEntity
  8
0
100
AcDbLine
 62
7
  6
CONTINUOUS
 10
15.0908395228
 20
13.6007451542
 11
15.2769607073
 21
13.6007451542
  0
LINE
  5
285
100
AcDbEntity
  8
0
100
AcDbLine
 62
7
  6
CONTINUOUS
 10
16.2213608335
 20
14.0609568553
 11
14.275677633
 21
14.0609568553
  0
LINE
  5
286
100
AcDbEntity
  8
0
100
AcDbLine
 62
7
  6
CONTINUOUS
 10
17.3971539383
 20
12.4743917706
 11
16.7527722532
 21
13.7875035846
  0
LINE
  5
287
100
AcDbEntity
  8
0
100
AcDbLine
 62
7
  6
CONTINUOUS
 10
17.3064831739
 20
11.9806378325
 11
17.4133052269
 21
12.3263141227
  0
ARC
  5
288
100
AcDbEntity
  8
0
100
AcDbCircle
 62
7
  6
CONTINUOUS
 10
5.0741488426
 20
4.4639014632
 40
0.4437815665
100
AcDbArc
 50
135.0
 51
315.0
  0
CIRCLE
  5
289
100
AcDbEntity
  8
0
100
AcDbCircle
 62
7
  6
CONTINUOUS
 10
5.0678672762
 20
4.4576198968
 40
0.2075
  0
ARC
  5
28A
100
AcDbEntity
  8
0
100
AcDbCircle
 62
7
  6
CONTINUOUS
 10
5.8176535404
 20
4.2969615385
 40
0.2
100
AcDbArc
 50
75.6589003153
 51
135.0
  0
ARC
  5
28B
100
AcDbEntity
  8
0
100
AcDbCircle
 62
7
  6
CONTINUOUS
 10
4.9072089179
 20
5.207406161
 40
0.2
100
AcDbArc
 50
315.0
 51
14.3410996847
  0
CIRCLE
  5
28C
100
AcDbEntity
  8
0
100
AcDbCircle
 62
7
  6
CONTINUOUS
 10
5.0678672762
 20
4.4576198968
 40
0.1875
  0
ARC
  5
28D
100
AcDbEntity
  8
0
100
AcDbCircle
 62
7
  6
CONTINUOUS
 10
5.0741488426
 20
6.5763383303
 40
0.4437815665
100
AcDbArc
 50
45.0
 51
225.0
  0
CIRCLE
  5
28E
100
AcDbEntity
  8
0
100
AcDbCircle
 62
7
  6
CONTINUOUS
 10
5.0678672762
 20
6.5826198968
 40
0.2075
  0
CIRCLE
  5
28F
100
AcDbEntity
  8
03__ASM_ALL_CURVES
100
AcDbCircle
 62
8
  6
PHANTOM
 10
5.0678672762
 20
6.5826198968
 40
0.2075
  0
ARC
  5
290
100
AcDbEntity
  8
0
100
AcDbCircle
 62
7
  6
CONTINUOUS
 10
5.8176535404
 20
6.743278255
 40
0.2
100
AcDbArc
 50
225.0
 51
284.3410996847
  0
ARC
  5
291
100
AcDbEntity
  8
0
100
AcDbCircle
 62
7
  6
CONTINUOUS
 10
4.9072089179
 20
5.8328336325
 40
0.2
100
AcDbArc
 50
345.6589003153
 51
45.0
  0
CIRCLE
  5
292
100
AcDbEntity
  8
0
100
AcDbCircle
 62
7
  6
CONTINUOUS
 10
5.0678672762
 20
6.5826198968
 40
0.1875
  0
ARC
  5
293
100
AcDbEntity
  8
0
100
AcDbCircle
 62
7
  6
CONTINUOUS
 10
5.8703672762
 20
6.5606275853
 40
0.01
100
AcDbArc
 50
284.0296654013
 51
360.0
  0
ARC
  5
294
100
AcDbEntity
  8
0
100
AcDbCircle
 62
7
  6
CONTINUOUS
 10
7.1865857097
 20
4.4639014632
 40
0.4437815665
100
AcDbArc
 50
225.0
 51
45.0
  0
CIRCLE
  5
295
100
AcDbEntity
  8
0
100
AcDbCircle
 62
7
  6
CONTINUOUS
 10
7.1928672762
 20
4.4576198968
 40
0.2075
  0
ARC
  5
296
100
AcDbEntity
  8
0
100
AcDbCircle
 62
7
  6
CONTINUOUS
 10
6.443081012
 20
4.2969615385
 40
0.2
100
AcDbArc
 50
45.0
 51
104.3410996847
  0
ARC
  5
297
100
AcDbEntity
  8
0
100
AcDbCircle
 62
7
  6
CONTINUOUS
 10
7.3535256345
 20
5.207406161
 40
0.2
100
AcDbArc
 50
165.6589003153
 51
225.0
  0
CIRCLE
  5
298
100
AcDbEntity
  8
0
100
AcDbCircle
 62
7
  6
CONTINUOUS
 10
7.1928672762
 20
4.4576198968
 40
0.1875
  0
CIRCLE
  5
299
100
AcDbEntity
  8
03__ASM_ALL_CURVES
100
AcDbCircle
 62
8
  6
PHANTOM
 10
6.1303672762
 20
5.5201198968
 40
1.9375
  0
CIRCLE
  5
29A
100
AcDbEntity
  8
03__ASM_ALL_CURVES
100
AcDbCircle
 62
8
  6
PHANTOM
 10
6.1303672762
 20
5.5201198968
 40
1.50260191
  0
CIRCLE
  5
29B
100
AcDbEntity
  8
0
100
AcDbCircle
 62
7
  6
CONTINUOUS
 10
6.1303672762
 20
5.5201198968
 40
1.0625
  0
CIRCLE
  5
29C
100
AcDbEntity
  8
0
100
AcDbCircle
 62
7
  6
CONTINUOUS
 10
6.1303672762
 20
5.5201198968
 40
0.9125
  0
ARC
  5
29D
100
AcDbEntity
  8
0
100
AcDbCircle
 62
7
  6
CONTINUOUS
 10
6.443081012
 20
6.743278255
 40
0.2
100
AcDbArc
 50
255.6589003153
 51
315.0
  0
ARC
  5
29E
100
AcDbEntity
  8
0
100
AcDbCircle
 62
7
  6
CONTINUOUS
 10
6.3903672762
 20
6.5606275853
 40
0.01
100
AcDbArc
 50
180.0
 51
255.9703345987
  0
ARC
  5
29F
100
AcDbEntity
  8
0
100
AcDbCircle
 62
7
  6
CONTINUOUS
 10
7.3535256345
 20
5.8328336325
 40
0.2
100
AcDbArc
 50
135.0
 51
194.3410996847
  0
ARC
  5
2A0
100
AcDbEntity
  8
0
100
AcDbCircle
 62
7
  6
CONTINUOUS
 10
7.1865857097
 20
6.5763383303
 40
0.4437815665
100
AcDbArc
 50
315.0
 51
135.0
  0
CIRCLE
  5
2A1
100
AcDbEntity
  8
0
100
AcDbCircle
 62
7
  6
CONTINUOUS
 10
7.1928672762
 20
6.5826198968
 40
0.2075
  0
CIRCLE
  5
2A2
100
AcDbEntity
  8
0
100
AcDbCircle
 62
7
  6
CONTINUOUS
 10
7.1928672762
 20
6.5826198968
 40
0.1875
  0
ARC
  5
2A3
100
AcDbEntity
  8
0
100
AcDbCircle
 62
7
  6
CONTINUOUS
 10
5.2783720839
 20
11.8294227814
 40
0.12
100
AcDbArc
 50
180.0
 51
270.0
  0
ARC
  5
2A4
100
AcDbEntity
  8
0
100
AcDbCircle
 62
7
  6
CONTINUOUS
 10
6.8633720839
 20
11.8294227814
 40
0.12
100
AcDbArc
 50
270.0
 51
360.0
  0
ARC
  5
2A5
100
AcDbEntity
  8
0
100
AcDbCircle
 62
7
  6
CONTINUOUS
 10
4.6095795839
 20
13.4519652814
 40
0.0387075
100
AcDbArc
 50
90.0
 51
180.0
  0
ARC
  5
2A6
100
AcDbEntity
  8
0
100
AcDbCircle
 62
7
  6
CONTINUOUS
 10
7.5321645839
 20
13.4519652814
 40
0.0387075
100
AcDbArc
 50
0.0
 51
90.0
  0
ARC
  5
2A7
100
AcDbEntity
  8
0
100
AcDbCircle
 62
7
  6
CONTINUOUS
 10
7.0946645839
 20
12.5293802814
 40
0.0387075
100
AcDbArc
 50
270.0
 51
360.0
  0
ARC
  5
2A8
100
AcDbEntity
  8
0
100
AcDbCircle
 62
7
  6
CONTINUOUS
 10
5.0470795839
 20
12.5293802814
 40
0.0387075
100
AcDbArc
 50
180.0
 51
270.0
  0
ARC
  5
2A9
100
AcDbEntity
  8
0
100
AcDbCircle
 62
7
  6
CONTINUOUS
 10
4.5908720839
 20
13.0106727814
 40
0.02
100
AcDbArc
 50
180.0
 51
270.0
  0
ARC
  5
2AA
100
AcDbEntity
  8
0
100
AcDbCircle
 62
7
  6
CONTINUOUS
 10
7.5508720839
 20
13.0106727814
 40
0.02
100
AcDbArc
 50
270.0
 51
360.0
  0
ARC
  5
2AB
100
AcDbEntity
  8
0
100
AcDbCircle
 62
7
  6
CONTINUOUS
 10
5.8108859449
 20
13.0427144003
 40
0.009987011
100
AcDbArc
 50
0.075017677
 51
89.085421451
  0
ARC
  5
2AC
100
AcDbEntity
  8
0
100
AcDbCircle
 62
7
  6
CONTINUOUS
 10
6.3308582228
 20
13.0427144002
 40
0.009987011
100
AcDbArc
 50
90.914578209
 51
179.9249821233
  0
ARC
  5
2AD
100
AcDbEntity
  8
0
100
AcDbCircle
 62
7
  6
CONTINUOUS
 10
5.8108861508
 20
13.0640382841
 40
0.0099868301
100
AcDbArc
 50
0.0760708498
 51
89.2972309341
  0
ARC
  5
2AE
100
AcDbEntity
  8
0
100
AcDbCircle
 62
7
  6
CONTINUOUS
 10
14.7897302569
 20
6.2531247044
 40
0.12
100
AcDbArc
 50
90.0
 51
180.0
  0
ARC
  5
2AF
100
AcDbEntity
  8
0
100
AcDbCircle
 62
7
  6
CONTINUOUS
 10
14.7897302569
 20
4.6681247044
 40
0.12
100
AcDbArc
 50
180.0
 51
270.0
  0
ARC
  5
2B0
100
AcDbEntity
  8
0
100
AcDbCircle
 62
7
  6
CONTINUOUS
 10
15.882498525
 20
6.9388363322
 40
0.1
100
AcDbArc
 50
208.8426068761
 51
294.2953543387
  0
ARC
  5
2B1
100
AcDbEntity
  8
0
100
AcDbCircle
 62
7
  6
CONTINUOUS
 10
15.5815139068
 20
6.6508545598
 40
0.1
100
AcDbArc
 50
333.1751730314
 51
58.627920494
  0
ARC
  5
2B2
100
AcDbEntity
  8
0
100
AcDbCircle
 62
7
  6
CONTINUOUS
 10
15.7073088868
 20
6.8423552944
 40
0.1
100
AcDbArc
 50
28.8426068761
 51
133.7352636851
  0
ARC
  5
2B3
100
AcDbEntity
  8
0
100
AcDbCircle
 62
7
  6
CONTINUOUS
 10
15.685632633
 20
6.8216154771
 40
0.1
100
AcDbArc
 50
133.7352636851
 51
238.627920494
  0
ARC
  5
2B4
100
AcDbEntity
  8
0
100
AcDbCircle
 62
7
  6
CONTINUOUS
 10
15.4896877569
 20
4.4368322044
 40
0.0387075
100
AcDbArc
 50
180.0
 51
270.0
  0
ARC
  5
2B5
100
AcDbEntity
  8
0
100
AcDbCircle
 62
7
  6
CONTINUOUS
 10
15.4896877569
 20
6.4844172044
 40
0.0387075
100
AcDbArc
 50
90.0
 51
180.0
  0
ARC
  5
2B6
100
AcDbEntity
  8
0
100
AcDbCircle
 62
7
  6
CONTINUOUS
 10
16.4122727569
 20
3.9993322044
 40
0.0387075
100
AcDbArc
 50
270.0
 51
360.0
  0
ARC
  5
2B7
100
AcDbEntity
  8
0
100
AcDbCircle
 62
7
  6
CONTINUOUS
 10
16.4122727569
 20
6.9219172044
 40
0.0387075
100
AcDbArc
 50
0.0
 51
90.0
  0
ARC
  5
2B8
100
AcDbEntity
  8
0
100
AcDbCircle
 62
7
  6
CONTINUOUS
 10
15.9709802569
 20
6.9406247044
 40
0.02
100
AcDbArc
 50
90.0
 51
180.0
  0
ARC
  5
2B9
100
AcDbEntity
  8
0
100
AcDbCircle
 62
7
  6
CONTINUOUS
 10
15.9709802569
 20
3.9806247044
 40
0.02
100
AcDbArc
 50
180.0
 51
270.0
  0
ARC
  5
2BA
100
AcDbEntity
  8
0
100
AcDbCircle
 62
7
  6
CONTINUOUS
 10
17.0043288981
 20
12.529835528
 40
0.6976848782
100
AcDbArc
 50
243.1159906796
 51
243.3562143788
  0
ARC
  5
2BB
100
AcDbEntity
  8
0
100
AcDbCircle
 62
7
  6
CONTINUOUS
 10
15.0754467088
 20
12.6600217319
 40
0.6486155899
100
AcDbArc
 50
206.150464927
 51
208.0471529623
  0
ARC
  5
2BC
100
AcDbEntity
  8
0
100
AcDbCircle
 62
7
  6
CONTINUOUS
 10
14.3032819482
 20
12.7476402917
 40
0.3294293313
100
AcDbArc
 50
62.6689069105
 51
63.1160954668
  0
ARC
  5
2BD
100
AcDbEntity
  8
0
100
AcDbCircle
 62
7
  6
CONTINUOUS
 10
17.1622299744
 20
12.3589279335
 40
0.2617654799
100
AcDbArc
 50
22.5134280277
 51
26.1738631295
  0
ARC
  5
2BE
100
AcDbEntity
  8
0
100
AcDbCircle
 62
7
  6
CONTINUOUS
 10
16.5097716786
 20
13.3408389523
 40
0.1594420704
100
AcDbArc
 50
337.4016336975
 51
342.8221921605
  0
ARC
  5
2BF
100
AcDbEntity
  8
0
100
AcDbCircle
 62
7
  6
CONTINUOUS
 10
16.2803182516
 20
13.3573449175
 40
0.1523800995
100
AcDbArc
 50
36.3097485017
 51
39.3245312973
  0
ARC
  5
2C0
100
AcDbEntity
  8
0
100
AcDbCircle
 62
7
  6
CONTINUOUS
 10
16.9285322182
 20
12.036423735
 40
0.1523800995
100
AcDbArc
 50
36.3097485017
 51
39.3245312974
  0
ARC
  5
2C1
100
AcDbEntity
  8
0
100
AcDbCircle
 62
7
  6
CONTINUOUS
 10
14.3230636393
 20
13.3573449175
 40
0.1523800995
100
AcDbArc
 50
36.3097485017
 51
39.3245312974
  0
ARC
  5
2C2
100
AcDbEntity
  8
0
100
AcDbCircle
 62
7
  6
CONTINUOUS
 10
16.1692752348
 20
13.3938078919
 40
0.1498615227
100
AcDbArc
 50
106.283934805
 51
109.3106622362
  0
ARC
  5
2C3
100
AcDbEntity
  8
0
100
AcDbCircle
 62
7
  6
CONTINUOUS
 10
16.8174892014
 20
12.0728867093
 40
0.1498615227
100
AcDbArc
 50
106.283934805
 51
109.3106622361
  0
ARC
  5
2C4
100
AcDbEntity
  8
0
100
AcDbCircle
 62
7
  6
CONTINUOUS
 10
14.2120206226
 20
13.3938078919
 40
0.1498615227
100
AcDbArc
 50
106.2839348049
 51
109.3106622363
  0
ARC
  5
2C5
100
AcDbEntity
  8
0
100
AcDbCircle
 62
7
  6
CONTINUOUS
 10
14.4181600517
 20
12.884690317
 40
0.1491571462
100
AcDbArc
 50
36.0591634186
 51
36.827909645
  0
ARC
  5
2C6
100
AcDbEntity
  8
0
100
AcDbCircle
 62
7
  6
CONTINUOUS
 10
15.1020994944
 20
13.4073052123
 40
0.1132705044
100
AcDbArc
 50
63.2280195826
 51
89.9790381989
  0
ARC
  5
2C7
100
AcDbEntity
  8
0
100
AcDbCircle
 62
7
  6
CONTINUOUS
 10
15.1031619944
 20
13.4035851992
 40
0.112883951
100
AcDbArc
 50
270.0296230615
 51
323.6276869135
  0
ARC
  5
2C8
100
AcDbEntity
  8
0
100
AcDbCircle
 62
7
  6
CONTINUOUS
 10
16.4782862898
 20
13.0059306334
 40
0.0530872842
100
AcDbArc
 50
152.7053170548
 51
162.7711206483
  0
SPLINE
  5
2C9
100
AcDbEntity
  8
0
100
AcDbSpline
 62
7
  6
CONTINUOUS
 70
0
 71
3
 72
21
 73
17
 74
0
 42
0.0000001
 43
0.0000001
 44
0.0000000001
 40
0.0
 40
0.0
 40
0.0
 40
0.0
 40
0.1247431195
 40
0.2495038436
 40
0.312000779
 40
0.374510328
 40
0.4370154328
 40
0.4995202026
 40
0.5620228993
 40
0.6245228212
 40
0.6870345508
 40
0.7495477217
 40
0.8121042112
 40
0.8747419608
 40
0.9374223423
 40
1.0
 40
1.0
 40
1.0
 40
1.0
 10
6.0224010245
 20
6.8532718077
 30
0.0
 10
6.0192063408
 20
6.8616657943
 30
0.0
 10
6.0149057424
 20
6.8793329668
 30
0.0
 10
6.0152229626
 20
6.9020440951
 30
0.0
 10
6.0188559602
 20
6.9196974862
 30
0.0
 10
6.0232177475
 20
6.9325127354
 30
0.0
 10
6.0291437185
 20
6.9446827479
 30
0.0
 10
6.0365350097
 20
6.9560214803
 30
0.0
 10
6.0452559497
 20
6.9663713916
 30
0.0
 10
6.055176535
 20
6.975577163
 30
0.0
 10
6.0661211862
 20
6.9835373689
 30
0.0
 10
6.0779333515
 20
6.9901493509
 30
0.0
 10
6.0904392753
 20
6.9953508211
 30
0.0
 10
6.1034686724
 20
6.9990937464
 30
0.0
 10
6.1168355044
 20
7.0013450713
 30
0.0
 10
6.1258617521
 20
7.0018504867
 30
0.0
 10
6.1303672762
 20
7.0018504867
 30
0.0
  0
SPLINE
  5
2CA
100
AcDbEntity
  8
0
100
AcDbSpline
 62
7
  6
CONTINUOUS
 70
0
 71
3
 72
15
 73
11
 74
0
 42
0.0000001
 43
0.0000001
 44
0.0000000001
 40
0.0
 40
0.0
 40
0.0
 40
0.0
 40
0.1252751059
 40
0.2503971562
 40
0.3753522689
 40
0.5002455098
 40
0.6251418872
 40
0.7500735588
 40
0.8750345777
 40
1.0
 40
1.0
 40
1.0
 40
1.0
 10
6.1303672762
 20
7.0018504867
 30
0.0
 10
6.1393749608
 20
7.0018504867
 30
0.0
 10
6.1574443348
 20
6.9998393437
 30
0.0
 10
6.1831357581
 20
6.9908640366
 30
0.0
 10
6.2060737066
 20
6.9762155136
 30
0.0
 10
6.2248654231
 20
6.9565331442
 30
0.0
 10
6.2382972161
 20
6.9328555719
 30
0.0
 10
6.2454504003
 20
6.9065748023
 30
0.0
 10
6.2458302736
 20
6.8793489491
 30
0.0
 10
6.2415296511
 20
6.8616695766
 30
0.0
 10
6.2383335279
 20
6.8532718077
 30
0.0
  0
SPLINE
  5
2CB
100
AcDbEntity
  8
0
100
AcDbSpline
 62
7
  6
CONTINUOUS
 70
0
 71
3
 72
9
 73
5
 74
0
 42
0.0000001
 43
0.0000001
 44
0.0000000001
 40
0.0
 40
0.0
 40
0.0
 40
0.0
 40
0.4843671672
 40
1.0
 40
1.0
 40
1.0
 40
1.0
 10
5.9788128305
 20
6.8466967267
 30
0.0
 10
5.9838706187
 20
6.8527529927
 30
0.0
 10
5.9955615644
 20
6.8642426551
 30
0.0
 10
6.0089835897
 20
6.873602213
 30
0.0
 10
6.0162020047
 20
6.8778976908
 30
0.0
  0
SPLINE
  5
2CC
100
AcDbEntity
  8
0
100
AcDbSpline
 62
7
  6
CONTINUOUS
 70
0
 71
3
 72
9
 73
5
 74
0
 42
0.0000001
 43
0.0000001
 44
0.0000000001
 40
0.0
 40
0.0
 40
0.0
 40
0.0
 40
0.5155798859
 40
1.0
 40
1.0
 40
1.0
 40
1.0
 10
6.2447007801
 20
6.8777974519
 30
0.0
 10
6.2518847933
 20
6.8735114665
 30
0.0
 10
6.2652441624
 20
6.864177099
 30
0.0
 10
6.2768835863
 20
6.8527294602
 30
0.0
 10
6.2819217218
 20
6.8466967267
 30
0.0
  0
SPLINE
  5
2CD
100
AcDbEntity
  8
0
100
AcDbSpline
 62
7
  6
CONTINUOUS
 70
0
 71
3
 72
21
 73
17
 74
0
 42
0.0000001
 43
0.0000001
 44
0.0000000001
 40
0.0
 40
0.0
 40
0.0
 40
0.0
 40
0.1316455664
 40
0.195415745
 40
0.2579316558
 40
0.3193947288
 40
0.3800495525
 40
0.4401602546
 40
0.5
 40
0.5598397454
 40
0.6199504475
 40
0.6806052712
 40
0.7420683442
 40
0.804584255
 40
0.8683544336
 40
1.0
 40
1.0
 40
1.0
 40
1.0
 10
6.2819217218
 20
6.8466967267
 30
0.0
 10
6.2856453731
 20
6.8422379748
 30
0.0
 10
6.2907029995
 20
6.8351963665
 30
0.0
 10
6.29616135
 20
6.8251975394
 30
0.0
 10
6.2995011402
 20
6.8176035839
 30
0.0
 10
6.3021128775
 20
6.8098748391
 30
0.0
 10
6.3039878186
 20
6.8020435107
 30
0.0
 10
6.3051148695
 20
6.7941421552
 30
0.0
 10
6.305490228
 20
6.786205593
 30
0.0
 10
6.3051148695
 20
6.7782690308
 30
0.0
 10
6.3039878186
 20
6.7703676752
 30
0.0
 10
6.3021128775
 20
6.7625363468
 30
0.0
 10
6.2995011402
 20
6.754807602
 30
0.0
 10
6.29616135
 20
6.7472136466
 30
0.0
 10
6.2907029995
 20
6.7372148195
 30
0.0
 10
6.2856453731
 20
6.7301732111
 30
0.0
 10
6.2819217218
 20
6.7257144592
 30
0.0
  0
SPLINE
  5
2CE
100
AcDbEntity
  8
0
100
AcDbSpline
 62
7
  6
CONTINUOUS
 70
0
 71
3
 72
15
 73
11
 74
0
 42
0.0000001
 43
0.0000001
 44
0.0000000001
 40
0.0
 40
0.0
 40
0.0
 40
0.0
 40
0.2228062312
 40
0.2820692094
 40
0.3426358415
 40
0.4674181131
 40
0.5965094852
 40
0.729014633
 40
0.8639607111
 40
1.0
 40
1.0
 40
1.0
 40
1.0
 10
6.2819217218
 20
6.7257144592
 30
0.0
 10
6.2739230299
 20
6.7161367143
 30
0.0
 10
6.2618519849
 20
6.7055375769
 30
0.0
 10
6.2457406815
 20
6.6951248337
 30
0.0
 10
6.2338130587
 20
6.6883661561
 30
0.0
 10
6.2177766474
 20
6.6810013291
 30
0.0
 10
6.1972516275
 20
6.6740355468
 30
0.0
 10
6.1755914935
 20
6.6689761248
 30
0.0
 10
6.1531720087
 20
6.6659104669
 30
0.0
 10
6.1379862843
 20
6.6652233255
 30
0.0
 10
6.1303672762
 20
6.6652233255
 30
0.0
  0
SPLINE
  5
2CF
100
AcDbEntity
  8
0
100
AcDbSpline
 62
7
  6
CONTINUOUS
 70
0
 71
3
 72
15
 73
11
 74
0
 42
0.0000001
 43
0.0000001
 44
0.0000000001
 40
0.0
 40
0.0
 40
0.0
 40
0.0
 40
0.1360392889
 40
0.270985367
 40
0.4034905148
 40
0.5325818869
 40
0.6573641585
 40
0.7179307906
 40
0.7771937688
 40
1.0
 40
1.0
 40
1.0
 40
1.0
 10
6.1303672762
 20
6.6652233255
 30
0.0
 10
6.122748268
 20
6.6652233255
 30
0.0
 10
6.1075625436
 20
6.6659104669
 30
0.0
 10
6.0851430589
 20
6.6689761248
 30
0.0
 10
6.0634829248
 20
6.6740355468
 30
0.0
 10
6.042957905
 20
6.6810013291
 30
0.0
 10
6.0269214937
 20
6.6883661561
 30
0.0
 10
6.0149938708
 20
6.6951248337
 30
0.0
 10
5.9988825675
 20
6.7055375769
 30
0.0
 10
5.9868115224
 20
6.7161367143
 30
0.0
 10
5.9788128305
 20
6.7257144592
 30
0.0
  0
SPLINE
  5
2D0
100
AcDbEntity
  8
0
100
AcDbSpline
 62
7
  6
CONTINUOUS
 70
0
 71
3
 72
21
 73
17
 74
0
 42
0.0000001
 43
0.0000001
 44
0.0000000001
 40
0.0
 40
0.0
 40
0.0
 40
0.0
 40
0.1316455664
 40
0.195415745
 40
0.2579316558
 40
0.3193947288
 40
0.3800495525
 40
0.4401602546
 40
0.5
 40
0.5598397454
 40
0.6199504475
 40
0.6806052712
 40
0.7420683442
 40
0.804584255
 40
0.8683544336
 40
1.0
 40
1.0
 40
1.0
 40
1.0
 10
5.9788128305
 20
6.7257144592
 30
0.0
 10
5.9750891792
 20
6.7301732111
 30
0.0
 10
5.9700315529
 20
6.7372148195
 30
0.0
 10
5.9645732023
 20
6.7472136466
 30
0.0
 10
5.9612334121
 20
6.754807602
 30
0.0
 10
5.9586216749
 20
6.7625363468
 30
0.0
 10
5.9567467338
 20
6.7703676752
 30
0.0
 10
5.9556196829
 20
6.7782690308
 30
0.0
 10
5.9552443244
 20
6.786205593
 30
0.0
 10
5.9556196829
 20
6.7941421552
 30
0.0
 10
5.9567467338
 20
6.8020435107
 30
0.0
 10
5.9586216749
 20
6.8098748391
 30
0.0
 10
5.9612334121
 20
6.8176035839
 30
0.0
 10
5.9645732023
 20
6.8251975394
 30
0.0
 10
5.9700315529
 20
6.8351963665
 30
0.0
 10
5.9750891792
 20
6.8422379748
 30
0.0
 10
5.9788128305
 20
6.8466967267
 30
0.0
  0
SPLINE
  5
2D1
100
AcDbEntity
  8
0
100
AcDbSpline
 62
7
  6
CONTINUOUS
 70
0
 71
3
 72
19
 73
15
 74
0
 42
0.0000001
 43
0.0000001
 44
0.0000000001
 40
0.0
 40
0.0
 40
0.0
 40
0.0
 40
0.0076039672
 40
0.0137526941
 40
0.0218530853
 40
0.044469683
 40
0.0763006314
 40
0.1178243006
 40
0.1689015884
 40
0.2977727458
 40
0.4561996709
 40
0.6337895172
 40
0.8185548717
 40
1.0
 40
1.0
 40
1.0
 40
1.0
 10
5.8803672762
 20
6.8789931704
 30
0.0
 10
5.88036728
 20
6.8789679506
 30
0.0
 10
5.8803310824
 20
6.8789282357
 30
0.0
 10
5.8802700526
 20
6.8788929736
 30
0.0
 10
5.8801568122
 20
6.8788437108
 30
0.0
 10
5.8799571662
 20
6.8787876271
 30
0.0
 10
5.8796450432
 20
6.8787234794
 30
0.0
 10
5.8792370735
 20
6.8786608593
 30
0.0
 10
5.8785077639
 20
6.8785723788
 30
0.0
 10
5.8773891522
 20
6.8784781823
 30
0.0
 10
5.875849697
 20
6.8783901623
 30
0.0
 10
5.8741235084
 20
6.8783263703
 30
0.0
 10
5.8723202422
 20
6.8782886786
 30
0.0
 10
5.8711056383
 20
6.878279542
 30
0.0
 10
5.8705038458
 20
6.8782789531
 30
0.0
  0
SPLINE
  5
2D2
100
AcDbEntity
  8
0
100
AcDbSpline
 62
7
  6
CONTINUOUS
 70
0
 71
3
 72
19
 73
15
 74
0
 42
0.0000001
 43
0.0000001
 44
0.0000000001
 40
0.0
 40
0.0
 40
0.0
 40
0.0
 40
0.1814454807
 40
0.3662102933
 40
0.543800387
 40
0.7022272799
 40
0.8310984935
 40
0.8821757859
 40
0.9236994321
 40
0.9555302673
 40
0.9781467745
 40
0.9862471553
 40
0.992395906
 40
1.0
 40
1.0
 40
1.0
 40
1.0
 10
6.3902307065
 20
6.8782789531
 30
0.0
 10
6.3896289129
 20
6.8782795426
 30
0.0
 10
6.3884143097
 20
6.8782886784
 30
0.0
 10
6.3866110435
 20
6.8783263702
 30
0.0
 10
6.3848848562
 20
6.8783901623
 30
0.0
 10
6.3833454002
 20
6.8784781823
 30
0.0
 10
6.3822267884
 20
6.8785723788
 30
0.0
 10
6.3814974788
 20
6.8786608593
 30
0.0
 10
6.3810895096
 20
6.8787234793
 30
0.0
 10
6.3807773873
 20
6.878787627
 30
0.0
 10
6.3805777421
 20
6.8788437108
 30
0.0
 10
6.380464502
 20
6.8788929734
 30
0.0
 10
6.3804034717
 20
6.878928236
 30
0.0
 10
6.3803672737
 20
6.8789679502
 30
0.0
 10
6.3803672762
 20
6.8789931704
 30
0.0
  0
SPLINE
  5
2D3
100
AcDbEntity
  8
0
100
AcDbSpline
 62
7
  6
CONTINUOUS
 70
0
 71
3
 72
19
 73
15
 74
0
 42
0.0000001
 43
0.0000001
 44
0.0000000001
 40
0.0
 40
0.0
 40
0.0
 40
0.0
 40
0.1815581233
 40
0.3665826277
 40
0.5441605237
 40
0.7025040857
 40
0.831274544
 40
0.8822847763
 40
0.9237954998
 40
0.955703344
 40
0.9783538722
 40
0.9864108293
 40
0.9924926058
 40
1.0
 40
1.0
 40
1.0
 40
1.0
 10
6.3901939914
 20
6.5790271417
 30
0.0
 10
6.3895941263
 20
6.5790278761
 30
0.0
 10
6.3883829366
 20
6.5790369944
 30
0.0
 10
6.3865853795
 20
6.5790747907
 30
0.0
 10
6.3848652381
 20
6.5791379891
 30
0.0
 10
6.3833322844
 20
6.5792250575
 30
0.0
 10
6.3822187154
 20
6.5793180656
 30
0.0
 10
6.3814927062
 20
6.5794054283
 30
0.0
 10
6.3810862209
 20
6.5794672847
 30
0.0
 10
6.3807748695
 20
6.5795306083
 30
0.0
 10
6.3805755311
 20
6.579585773
 30
0.0
 10
6.380462868
 20
6.5796344751
 30
0.0
 10
6.3804025473
 20
6.5796692447
 30
0.0
 10
6.3803672762
 20
6.5797085484
 30
0.0
 10
6.3803672762
 20
6.5797333527
 30
0.0
  0
SPLINE
  5
2D4
100
AcDbEntity
  8
0
100
AcDbSpline
 62
7
  6
CONTINUOUS
 70
0
 71
3
 72
18
 73
14
 74
0
 42
0.0000001
 43
0.0000001
 44
0.0000000001
 40
0.0
 40
0.0
 40
0.0
 40
0.0
 40
0.0075545189
 40
0.0136868017
 40
0.0217735315
 40
0.0443656385
 40
0.0761697919
 40
0.1686825222
 40
0.2974596484
 40
0.4558113791
 40
0.6333984458
 40
0.8184325025
 40
1.0
 40
1.0
 40
1.0
 40
1.0
 10
5.8803672762
 20
6.5797333527
 30
0.0
 10
5.8803672762
 20
6.579708394
 30
0.0
 10
5.8803310805
 20
6.5796691854
 30
0.0
 10
5.8802704071
 20
6.5796344619
 30
0.0
 10
5.8801575895
 20
6.5795858386
 30
0.0
 10
5.8799588198
 20
6.5795304742
 30
0.0
 10
5.8794826433
 20
6.5794339396
 30
0.0
 10
5.8786522045
 20
6.5793307667
 30
0.0
 10
5.8774023821
 20
6.5792245682
 30
0.0
 10
5.8758692765
 20
6.5791381505
 30
0.0
 10
5.874149184
 20
6.579074743
 30
0.0
 10
5.8723516125
 20
6.579037008
 30
0.0
 10
5.871140426
 20
6.5790278761
 30
0.0
 10
5.8705405609
 20
6.5790271417
 30
0.0
  0
SPLINE
  5
2D5
100
AcDbEntity
  8
0
100
AcDbSpline
 62
7
  6
CONTINUOUS
 70
0
 71
3
 72
15
 73
11
 74
0
 42
0.0000001
 43
0.0000001
 44
0.0000000001
 40
0.0
 40
0.0
 40
0.0
 40
0.0
 40
0.1252595499
 40
0.2503880812
 40
0.3753636224
 40
0.5002720908
 40
0.6251736326
 40
0.7500988293
 40
0.8750462448
 40
1.0
 40
1.0
 40
1.0
 40
1.0
 10
6.0708720839
 20
12.6253251574
 30
0.0
 10
6.0617639969
 20
12.6253251574
 30
0.0
 10
6.0434892733
 20
12.6273989385
 30
0.0
 10
6.0175564074
 20
12.6366351251
 30
0.0
 10
5.9944863327
 20
12.6516605832
 30
0.0
 10
5.975699678
 20
12.6717793639
 30
0.0
 10
5.9624202426
 20
12.6958987446
 30
0.0
 10
5.9555632634
 20
12.7225776235
 30
0.0
 10
5.9556054909
 20
12.7501134987
 30
0.0
 10
5.9602525568
 20
12.7679172507
 30
0.0
 10
5.9636303277
 20
12.7763519031
 30
0.0
  0
SPLINE
  5
2D6
100
AcDbEntity
  8
0
100
AcDbSpline
 62
7
  6
CONTINUOUS
 70
0
 71
3
 72
22
 73
18
 74
0
 42
0.0000001
 43
0.0000001
 44
0.0000000001
 40
0.0
 40
0.0
 40
0.0
 40
0.0
 40
0.1247004262
 40
0.1871940528
 40
0.2496657008
 40
0.312140607
 40
0.3746303392
 40
0.4371177876
 40
0.4996069077
 40
0.5620973596
 40
0.6245886478
 40
0.6870941134
 40
0.7496038323
 40
0.8121552371
 40
0.8747823658
 40
0.9374462472
 40
1.0
 40
1.0
 40
1.0
 40
1.0
 10
6.17811384
 20
12.7763519031
 30
0.0
 10
6.1814901859
 20
12.767920809
 30
0.0
 10
6.18497771
 20
12.7545430746
 30
0.0
 10
6.1861590279
 20
12.7363649347
 30
0.0
 10
6.1853204045
 20
12.7226996234
 30
0.0
 10
6.1827570158
 20
12.7092549445
 30
0.0
 10
6.1785252242
 20
12.6962370954
 30
0.0
 10
6.1726943477
 20
12.6838516609
 30
0.0
 10
6.1653609542
 20
12.6722932836
 30
0.0
 10
6.1566617022
 20
12.6617246679
 30
0.0
 10
6.1467266317
 20
12.6523078778
 30
0.0
 10
6.1357330813
 20
12.6441513463
 30
0.0
 10
6.1238402797
 20
12.6373649259
 30
0.0
 10
6.1112264192
 20
12.6320178169
 30
0.0
 10
6.0980671588
 20
12.6281652865
 30
0.0
 10
6.0845557693
 20
12.6258463761
 30
0.0
 10
6.075427917
 20
12.6253251574
 30
0.0
 10
6.0708720839
 20
12.6253251574
 30
0.0
  0
SPLINE
  5
2D7
100
AcDbEntity
  8
0
100
AcDbSpline
 62
7
  6
CONTINUOUS
 70
0
 71
3
 72
14
 73
10
 74
0
 42
0.0000001
 43
0.0000001
 44
0.0000000001
 40
0.0
 40
0.0
 40
0.0
 40
0.0
 40
0.1349398117
 40
0.2688970753
 40
0.5289481162
 40
0.6537106951
 40
0.7739748568
 40
0.8894656953
 40
1.0
 40
1.0
 40
1.0
 40
1.0
 10
6.0708720839
 20
12.9633350954
 30
0.0
 10
6.0784918142
 20
12.9633350954
 30
0.0
 10
6.0936882363
 20
12.9626157105
 30
0.0
 10
6.1232833212
 20
12.9583856486
 30
0.0
 10
6.1516205432
 20
12.950047034
 30
0.0
 10
6.1773720978
 20
12.9376779089
 30
0.0
 10
6.1946372527
 20
12.9267953785
 30
0.0
 10
6.2097999521
 20
12.9143683774
 30
0.0
 10
6.2185302389
 20
12.9049888147
 30
0.0
 10
6.2224265295
 20
12.9001126884
 30
0.0
  0
SPLINE
  5
2D8
100
AcDbEntity
  8
0
100
AcDbSpline
 62
7
  6
CONTINUOUS
 70
0
 71
3
 72
21
 73
17
 74
0
 42
0.0000001
 43
0.0000001
 44
0.0000000001
 40
0.0
 40
0.0
 40
0.0
 40
0.0
 40
0.1306437373
 40
0.1942262927
 40
0.2567388535
 40
0.3183548341
 40
0.3792852708
 40
0.439756465
 40
0.5
 40
0.560243535
 40
0.6207147292
 40
0.6816451659
 40
0.7432611465
 40
0.8057737073
 40
0.8693562627
 40
1.0
 40
1.0
 40
1.0
 40
1.0
 10
6.2224265295
 20
12.9001126884
 30
0.0
 10
6.2261621804
 20
12.8954375995
 30
0.0
 10
6.2312237828
 20
12.8880645125
 30
0.0
 10
6.2366715012
 20
12.8776313717
 30
0.0
 10
6.2400097064
 20
12.8696957317
 30
0.0
 10
6.2426199485
 20
12.8616198592
 30
0.0
 10
6.2444936629
 20
12.853437326
 30
0.0
 10
6.245619897
 20
12.8451820873
 30
0.0
 10
6.2459949726
 20
12.8368902815
 30
0.0
 10
6.245619897
 20
12.8285984758
 30
0.0
 10
6.2444936629
 20
12.820343237
 30
0.0
 10
6.2426199485
 20
12.8121607038
 30
0.0
 10
6.2400097064
 20
12.8040848313
 30
0.0
 10
6.2366715012
 20
12.7961491913
 30
0.0
 10
6.2312237828
 20
12.7857160505
 30
0.0
 10
6.2261621804
 20
12.7783429635
 30
0.0
 10
6.2224265295
 20
12.7736678746
 30
0.0
  0
SPLINE
  5
2D9
100
AcDbEntity
  8
0
100
AcDbSpline
 62
7
  6
CONTINUOUS
 70
0
 71
3
 72
9
 73
5
 74
0
 42
0.0000001
 43
0.0000001
 44
0.0000000001
 40
0.0
 40
0.0
 40
0.0
 40
0.0
 40
0.4863900925
 40
1.0
 40
1.0
 40
1.0
 40
1.0
 10
6.2224265295
 20
12.7736678746
 30
0.0
 10
6.2174666628
 20
12.7674607051
 30
0.0
 10
6.206028553
 20
12.7556605891
 30
0.0
 10
6.1928089709
 20
12.7459389804
 30
0.0
 10
6.1857048175
 20
12.7414753786
 30
0.0
  0
SPLINE
  5
2DA
100
AcDbEntity
  8
0
100
AcDbSpline
 62
7
  6
CONTINUOUS
 70
0
 71
3
 72
9
 73
5
 74
0
 42
0.0000001
 43
0.0000001
 44
0.0000000001
 40
0.0
 40
0.0
 40
0.0
 40
0.0
 40
0.5136278292
 40
1.0
 40
1.0
 40
1.0
 40
1.0
 10
5.9561028235
 20
12.7414355171
 30
0.0
 10
5.9489856385
 20
12.7459029712
 30
0.0
 10
5.9357422828
 20
12.7556347761
 30
0.0
 10
5.9242848837
 20
12.7674514707
 30
0.0
 10
5.9193176382
 20
12.7736678746
 30
0.0
  0
SPLINE
  5
2DB
100
AcDbEntity
  8
0
100
AcDbSpline
 62
7
  6
CONTINUOUS
 70
0
 71
3
 72
21
 73
17
 74
0
 42
0.0000001
 43
0.0000001
 44
0.0000000001
 40
0.0
 40
0.0
 40
0.0
 40
0.0
 40
0.1306437373
 40
0.1942262927
 40
0.2567388535
 40
0.3183548341
 40
0.3792852708
 40
0.439756465
 40
0.5
 40
0.560243535
 40
0.6207147292
 40
0.6816451659
 40
0.7432611465
 40
0.8057737073
 40
0.8693562627
 40
1.0
 40
1.0
 40
1.0
 40
1.0
 10
5.9193176382
 20
12.7736678746
 30
0.0
 10
5.9155819874
 20
12.7783429635
 30
0.0
 10
5.9105203849
 20
12.7857160505
 30
0.0
 10
5.9050726665
 20
12.7961491913
 30
0.0
 10
5.9017344613
 20
12.8040848313
 30
0.0
 10
5.8991242192
 20
12.8121607038
 30
0.0
 10
5.8972505048
 20
12.820343237
 30
0.0
 10
5.8961242707
 20
12.8285984758
 30
0.0
 10
5.8957491951
 20
12.8368902815
 30
0.0
 10
5.8961242707
 20
12.8451820873
 30
0.0
 10
5.8972505048
 20
12.853437326
 30
0.0
 10
5.8991242192
 20
12.8616198592
 30
0.0
 10
5.9017344613
 20
12.8696957317
 30
0.0
 10
5.9050726665
 20
12.8776313717
 30
0.0
 10
5.9105203849
 20
12.8880645125
 30
0.0
 10
5.9155819874
 20
12.8954375995
 30
0.0
 10
5.9193176382
 20
12.9001126884
 30
0.0
  0
SPLINE
  5
2DC
100
AcDbEntity
  8
0
100
AcDbSpline
 62
7
  6
CONTINUOUS
 70
0
 71
3
 72
15
 73
11
 74
0
 42
0.0000001
 43
0.0000001
 44
0.0000000001
 40
0.0
 40
0.0
 40
0.0
 40
0.0
 40
0.1233082738
 40
0.2473808664
 40
0.3096313011
 40
0.3719371775
 40
0.4967849849
 40
0.6220413934
 40
0.7476850261
 40
1.0
 40
1.0
 40
1.0
 40
1.0
 10
5.7271258365
 20
12.9906727814
 30
0.0
 10
5.7305537656
 20
12.9906727814
 30
0.0
 10
5.7374339608
 20
12.9910643863
 30
0.0
 10
5.7459582236
 20
12.9923132494
 30
0.0
 10
5.7527412384
 20
12.9936449915
 30
0.0
 10
5.7595068174
 20
12.9951644874
 30
0.0
 10
5.7679085635
 20
12.9973758028
 30
0.0
 10
5.7779073453
 20
13.0004034346
 30
0.0
 10
5.7911923801
 20
13.0047890382
 30
0.0
 10
5.8010887068
 20
13.0083215271
 30
0.0
 10
5.8076971577
 20
13.0106727814
 30
0.0
  0
SPLINE
  5
2DD
100
AcDbEntity
  8
0
100
AcDbSpline
 62
7
  6
CONTINUOUS
 70
0
 71
3
 72
14
 73
10
 74
0
 42
0.0000001
 43
0.0000001
 44
0.0000000001
 40
0.0
 40
0.0
 40
0.0
 40
0.0
 40
0.1105343047
 40
0.2260251432
 40
0.3462893049
 40
0.4710518838
 40
0.7311029247
 40
0.8650601883
 40
1.0
 40
1.0
 40
1.0
 40
1.0
 10
5.9193176382
 20
12.9001126884
 30
0.0
 10
5.9232139288
 20
12.9049888147
 30
0.0
 10
5.9319442156
 20
12.9143683774
 30
0.0
 10
5.947106915
 20
12.9267953785
 30
0.0
 10
5.9643720699
 20
12.9376779089
 30
0.0
 10
5.9901236245
 20
12.950047034
 30
0.0
 10
6.0184608465
 20
12.9583856486
 30
0.0
 10
6.0480559314
 20
12.9626157105
 30
0.0
 10
6.0632523536
 20
12.9633350954
 30
0.0
 10
6.0708720839
 20
12.9633350954
 30
0.0
  0
SPLINE
  5
2DE
100
AcDbEntity
  8
0
100
AcDbSpline
 62
7
  6
CONTINUOUS
 70
0
 71
3
 72
11
 73
7
 74
0
 42
0.0000001
 43
0.0000001
 44
0.0000000001
 40
0.0
 40
0.0
 40
0.0
 40
0.0
 40
0.2405691092
 40
0.5004156463
 40
0.759999735
 40
1.0
 40
1.0
 40
1.0
 40
1.0
 10
6.3307355142
 20
13.0740252509
 30
0.0
 10
6.3294964549
 20
13.0740083027
 30
0.0
 10
6.3269011309
 20
13.0734850667
 30
0.0
 10
6.32355808
 20
13.0712509854
 30
0.0
 10
6.3213620408
 20
13.0678858789
 30
0.0
 10
6.3208720752
 20
13.0652877874
 30
0.0
 10
6.3208720839
 20
13.0640515423
 30
0.0
  0
SPLINE
  5
2DF
100
AcDbEntity
  8
0
100
AcDbSpline
 62
7
  6
CONTINUOUS
 70
0
 71
3
 72
11
 73
7
 74
0
 42
0.0000001
 43
0.0000001
 44
0.0000000001
 40
0.0
 40
0.0
 40
0.0
 40
0.0
 40
0.250331988
 40
0.5002647953
 40
0.7499383402
 40
1.0
 40
1.0
 40
1.0
 40
1.0
 10
5.8132963263
 20
12.7110319251
 30
0.0
 10
5.8141719487
 20
12.7105196274
 30
0.0
 10
5.8160642122
 20
12.7097321273
 30
0.0
 10
5.8190634849
 20
12.7091485003
 30
0.0
 10
5.8221182101
 20
12.7091317976
 30
0.0
 10
5.8241251039
 20
12.7094719975
 30
0.0
 10
5.8251085023
 20
12.70971668
 30
0.0
  0
SPLINE
  5
2E0
100
AcDbEntity
  8
0
100
AcDbSpline
 62
7
  6
CONTINUOUS
 70
0
 71
3
 72
15
 73
11
 74
0
 42
0.0000001
 43
0.0000001
 44
0.0000000001
 40
0.0
 40
0.0
 40
0.0
 40
0.0
 40
0.2523149221
 40
0.3779585667
 40
0.5032150125
 40
0.6280628231
 40
0.6903686861
 40
0.7526191083
 40
0.8766917022
 40
1.0
 40
1.0
 40
1.0
 40
1.0
 10
6.33404701
 20
13.0106727814
 30
0.0
 10
6.3406554588
 20
13.0083215279
 30
0.0
 10
6.3505518179
 20
13.0047891361
 30
0.0
 10
6.3638368694
 20
13.0004035906
 30
0.0
 10
6.373835635
 20
12.997375907
 30
0.0
 10
6.3822373632
 20
12.995164524
 30
0.0
 10
6.3890029321
 20
12.9936449888
 30
0.0
 10
6.3957859422
 20
12.9923132291
 30
0.0
 10
6.4043102065
 20
12.9910643747
 30
0.0
 10
6.4111904018
 20
12.9906727814
 30
0.0
 10
6.4146183312
 20
12.9906727814
 30
0.0
  0
SPLINE
  5
2E1
100
AcDbEntity
  8
0
100
AcDbSpline
 62
7
  6
CONTINUOUS
 70
0
 71
3
 72
11
 73
7
 74
0
 42
0.0000001
 43
0.0000001
 44
0.0000000001
 40
0.0
 40
0.0
 40
0.0
 40
0.0
 40
0.2500640705
 40
0.4997336743
 40
0.7496699139
 40
1.0
 40
1.0
 40
1.0
 40
1.0
 10
6.3166356654
 20
12.70971668
 30
0.0
 10
6.3176190691
 20
12.7094719962
 30
0.0
 10
6.3196259033
 20
12.7091315279
 30
0.0
 10
6.3226806756
 20
12.7091485461
 30
0.0
 10
6.3256797715
 20
12.7097326118
 30
0.0
 10
6.3275722297
 20
12.7105196332
 30
0.0
 10
6.3284478414
 20
12.7110319251
 30
0.0
  0
SPLINE
  5
2E2
100
AcDbEntity
  8
0
100
AcDbSpline
 62
7
  6
CONTINUOUS
 70
0
 71
3
 72
14
 73
10
 74
0
 42
0.0000001
 43
0.0000001
 44
0.0000000001
 40
0.0
 40
0.0
 40
0.0
 40
0.0
 40
0.123311707
 40
0.2473841734
 40
0.3719222346
 40
0.4967716368
 40
0.6220336694
 40
0.7476809565
 40
1.0
 40
1.0
 40
1.0
 40
1.0
 10
15.9509802569
 20
5.1168784571
 30
0.0
 10
15.9509802569
 20
5.1203064486
 30
0.0
 10
15.9513712539
 20
5.1271868348
 30
0.0
 10
15.9528720959
 20
5.1374252489
 30
0.0
 10
15.9550308807
 20
5.147585713
 30
0.0
 10
15.9576822067
 20
5.1576607287
 30
0.0
 10
15.9607115277
 20
5.1676593795
 30
0.0
 10
15.9650970005
 20
5.180944632
 30
0.0
 10
15.9686289874
 20
5.1908412845
 30
0.0
 10
15.9709802569
 20
5.1974497783
 30
0.0
  0
SPLINE
  5
2E3
100
AcDbEntity
  8
0
100
AcDbSpline
 62
7
  6
CONTINUOUS
 70
0
 71
3
 72
14
 73
10
 74
0
 42
0.0000001
 43
0.0000001
 44
0.0000000001
 40
0.0
 40
0.0
 40
0.0
 40
0.0
 40
0.1233117218
 40
0.2473841803
 40
0.3719221831
 40
0.4967715805
 40
0.6220336306
 40
0.7476809287
 40
1.0
 40
1.0
 40
1.0
 40
1.0
 10
15.9509802569
 20
5.8043709518
 30
0.0
 10
15.9509802569
 20
5.8009429598
 30
0.0
 10
15.9513712558
 20
5.7940625735
 30
0.0
 10
15.952872099
 20
5.7838241613
 30
0.0
 10
15.9550308778
 20
5.7736636979
 30
0.0
 10
15.9576822064
 20
5.7635886841
 30
0.0
 10
15.9607115278
 20
5.7535900329
 30
0.0
 10
15.9650969981
 20
5.740304778
 30
0.0
 10
15.9686289872
 20
5.7304081251
 30
0.0
 10
15.9709802569
 20
5.7237996306
 30
0.0
  0
SPLINE
  5
2E4
100
AcDbEntity
  8
0
100
AcDbSpline
 62
7
  6
CONTINUOUS
 70
0
 71
3
 72
15
 73
11
 74
0
 42
0.0000001
 43
0.0000001
 44
0.0000000001
 40
0.0
 40
0.0
 40
0.0
 40
0.0
 40
0.1188130962
 40
0.2217917409
 40
0.3154708714
 40
0.4106872893
 40
0.5190824315
 40
0.6493143267
 40
0.807676206
 40
1.0
 40
1.0
 40
1.0
 40
1.0
 10
15.6700241556
 20
6.494310591
 30
0.0
 10
15.6699106302
 20
6.4942021112
 30
0.0
 10
15.6697130975
 20
6.4939828023
 30
0.0
 10
15.6695103762
 20
6.4936124404
 30
0.0
 10
15.6694442056
 20
6.493223148
 30
0.0
 10
15.6695361013
 20
6.4928314458
 30
0.0
 10
15.6697767095
 20
6.4924545811
 30
0.0
 10
15.6701575732
 20
6.4920888361
 30
0.0
 10
15.6706876077
 20
6.4917336819
 30
0.0
 10
15.6711056714
 20
6.4915305616
 30
0.0
 10
15.6713394007
 20
6.4914306896
 30
0.0
  0
SPLINE
  5
2E5
100
AcDbEntity
  8
0
100
AcDbSpline
 62
7
  6
CONTINUOUS
 70
0
 71
3
 72
15
 73
11
 74
0
 42
0.0000001
 43
0.0000001
 44
0.0000000001
 40
0.0
 40
0.0
 40
0.0
 40
0.0
 40
0.138113529
 40
0.2714885036
 40
0.4004245805
 40
0.5254200435
 40
0.6471124713
 40
0.7662285172
 40
0.883568089
 40
1.0
 40
1.0
 40
1.0
 40
1.0
 10
16.302046241
 20
12.3608890874
 30
0.0
 10
16.3076810641
 20
12.3494065252
 30
0.0
 10
16.3179420781
 20
12.3264217771
 30
0.0
 10
16.330347009
 20
12.2914324955
 30
0.0
 10
16.3394249373
 20
12.2566836772
 30
0.0
 10
16.3451358743
 20
12.2223177853
 30
0.0
 10
16.3474510956
 20
12.1884648823
 30
0.0
 10
16.3463583072
 20
12.1552552185
 30
0.0
 10
16.3418578509
 20
12.1228264168
 30
0.0
 10
16.3365823084
 20
12.1017781573
 30
0.0
 10
16.3333989172
 20
12.0914760733
 30
0.0
  0
SPLINE
  5
2E6
100
AcDbEntity
  8
0
100
AcDbSpline
 62
7
  6
CONTINUOUS
 70
0
 71
3
 72
15
 73
11
 74
0
 42
0.0000001
 43
0.0000001
 44
0.0000000001
 40
0.0
 40
0.0
 40
0.0
 40
0.0
 40
0.1220841898
 40
0.2441904692
 40
0.3669156133
 40
0.490526488
 40
0.6152571827
 40
0.74149743
 40
0.8696066483
 40
1.0
 40
1.0
 40
1.0
 40
1.0
 10
14.4296902072
 20
12.1123273949
 30
0.0
 10
14.4257016082
 20
12.0994202836
 30
0.0
 10
14.4190977308
 20
12.0731560584
 30
0.0
 10
14.4134158831
 20
12.0328819558
 30
0.0
 10
14.4119432024
 20
11.9920662423
 30
0.0
 10
14.4145758604
 20
11.9510235954
 30
0.0
 10
14.421222271
 20
11.9100481834
 30
0.0
 10
14.4316977966
 20
11.8693726287
 30
0.0
 10
14.4458378696
 20
11.8291650025
 30
0.0
 10
14.4574865866
 20
11.8030022384
 30
0.0
 10
14.4638430915
 20
11.7900490434
 30
0.0
  0
SPLINE
  5
2E7
100
AcDbEntity
  8
0
100
AcDbSpline
 62
7
  6
CONTINUOUS
 70
0
 71
3
 72
43
 73
39
 74
0
 42
0.0000001
 43
0.0000001
 44
0.0000000001
 40
0.0
 40
0.0
 40
0.0
 40
0.0
 40
0.0565261715
 40
0.0860572707
 40
0.116473279
 40
0.1477833679
 40
0.1799603198
 40
0.2129512324
 40
0.2466825082
 40
0.281057625
 40
0.3159646151
 40
0.3512773042
 40
0.3868602692
 40
0.4225716897
 40
0.4582666148
 40
0.4938005653
 40
0.5290327806
 40
0.5638298755
 40
0.5980681483
 40
0.6316393909
 40
0.6644514475
 40
0.6964348472
 40
0.7275432746
 40
0.7577590037
 40
0.7870938708
 40
0.8155913797
 40
0.8433236742
 40
0.8703901167
 40
0.8837140245
 40
0.8969179753
 40
0.9100163069
 40
0.9230261389
 40
0.9359656622
 40
0.9488433368
 40
0.9616668836
 40
0.974449445
 40
0.9872169933
 40
1.0
 40
1.0
 40
1.0
 40
1.0
 10
14.4638430915
 20
11.7900490434
 30
0.0
 10
14.4807628208
 20
11.7555702601
 30
0.0
 10
14.5117953947
 20
11.7055395209
 30
0.0
 10
14.5612714591
 20
11.6437286718
 30
0.0
 10
14.6035559032
 20
11.5982944553
 30
0.0
 10
14.6501623041
 20
11.5546573968
 30
0.0
 10
14.7008142875
 20
11.5129803455
 30
0.0
 10
14.7551982411
 20
11.4734473585
 30
0.0
 10
14.8129853597
 20
11.4362478734
 30
0.0
 10
14.8738212089
 20
11.4015715205
 30
0.0
 10
14.9373292193
 20
11.3696094083
 30
0.0
 10
15.003111202
 20
11.3405446848
 30
0.0
 10
15.0707501818
 20
11.3145485196
 30
0.0
 10
15.1398170797
 20
11.2917834771
 30
0.0
 10
15.2098706706
 20
11.272389128
 30
0.0
 10
15.2804670769
 20
11.2564946155
 30
0.0
 10
15.3511611127
 20
11.244204499
 30
0.0
 10
15.4215131719
 20
11.2356070284
 30
0.0
 10
15.4910941894
 20
11.2307727805
 30
0.0
 10
15.5594891065
 20
11.2297519055
 30
0.0
 10
15.6263027066
 20
11.2325859624
 30
0.0
 10
15.6911605326
 20
11.2393002363
 30
0.0
 10
15.753710844
 20
11.2499205911
 30
0.0
 10
15.8136225446
 20
11.2644679199
 30
0.0
 10
15.8705777052
 20
11.2829739867
 30
0.0
 10
15.9242633985
 20
11.3054735153
 30
0.0
 10
15.9743428238
 20
11.3320119903
 30
0.0
 10
16.0129789797
 20
11.357664683
 30
0.0
 10
16.0415953016
 20
11.3802097265
 30
0.0
 10
16.0617891222
 20
11.3980400584
 30
0.0
 10
16.0807608739
 20
11.4168642952
 30
0.0
 10
16.0984436073
 20
11.4366657521
 30
0.0
 10
16.11476198
 20
11.4574164707
 30
0.0
 10
16.1296519074
 20
11.479062214
 30
0.0
 10
16.1430429636
 20
11.5015428569
 30
0.0
 10
16.1548647548
 20
11.5248041546
 30
0.0
 10
16.165072173
 20
11.5487867527
 30
0.0
 10
16.1707689123
 20
11.5652027486
 30
0.0
 10
16.173333248
 20
11.573500942
 30
0.0
  0
SPLINE
  5
2E8
100
AcDbEntity
  8
0
100
AcDbSpline
 62
7
  6
CONTINUOUS
 70
0
 71
3
 72
49
 73
45
 74
0
 42
0.0000001
 43
0.0000001
 44
0.0000000001
 40
0.0
 40
0.0
 40
0.0
 40
0.0
 40
0.0107120888
 40
0.0214616447
 40
0.0322854651
 40
0.0432189409
 40
0.0542958773
 40
0.0655478319
 40
0.0770034705
 40
0.0886888705
 40
0.100627259
 40
0.1128382397
 40
0.1253385443
 40
0.1381422612
 40
0.1512599729
 40
0.1646994416
 40
0.1925568952
 40
0.2217342232
 40
0.2368148362
 40
0.2522142083
 40
0.2839334747
 40
0.300237921
 40
0.3168216383
 40
0.3507698041
 40
0.3856615815
 40
0.4213621747
 40
0.4577236719
 40
0.4945888999
 40
0.5317933686
 40
0.5691678459
 40
0.6065409842
 40
0.6437412399
 40
0.6805997105
 40
0.7169517752
 40
0.7526405615
 40
0.7875184523
 40
0.8214502106
 40
0.8543168677
 40
0.8860171992
 40
0.9164711522
 40
0.9312156743
 40
0.9456327307
 40
0.9734747368
 40
1.0
 40
1.0
 40
1.0
 40
1.0
 10
14.5897572507
 20
12.6303021016
 30
0.0
 10
14.5918841813
 20
12.6371852701
 30
0.0
 10
14.5966457032
 20
12.6508267926
 30
0.0
 10
14.6052680247
 20
12.6707740035
 30
0.0
 10
14.6153587934
 20
12.6901888413
 30
0.0
 10
14.626898045
 20
12.7090369629
 30
0.0
 10
14.6398674423
 20
12.7272848618
 30
0.0
 10
14.6542438059
 20
12.7449007383
 30
0.0
 10
14.6699994953
 20
12.7618563588
 30
0.0
 10
14.6871079171
 20
12.77812231
 30
0.0
 10
14.7055404418
 20
12.7936696316
 30
0.0
 10
14.7252630044
 20
12.8084744508
 30
0.0
 10
14.7462418239
 20
12.8225120307
 30
0.0
 10
14.7684422142
 20
12.8357565846
 30
0.0
 10
14.7918252701
 20
12.8481879299
 30
0.0
 10
14.8249187197
 20
12.8638378286
 30
0.0
 10
14.869100218
 20
12.8811704023
 30
0.0
 10
14.9155851782
 20
12.8951803679
 30
0.0
 10
14.9545870061
 20
12.9046252185
 30
0.0
 10
14.9955752094
 20
12.9130188729
 30
0.0
 10
15.0377854254
 20
12.9194093222
 30
0.0
 10
15.0810100689
 20
12.9238864624
 30
0.0
 10
15.1258479566
 20
12.9271491407
 30
0.0
 10
15.183310918
 20
12.928751905
 30
0.0
 10
15.2536247627
 20
12.9267985733
 30
0.0
 10
15.3253532549
 20
12.920991814
 30
0.0
 10
15.3980076627
 20
12.9113740918
 30
0.0
 10
15.4710946041
 20
12.898010857
 30
0.0
 10
15.5441162428
 20
12.880990584
 30
0.0
 10
15.6165766355
 20
12.860432772
 30
0.0
 10
15.6879817561
 20
12.8364740629
 30
0.0
 10
15.757846163
 20
12.8092789962
 30
0.0
 10
15.8256948802
 20
12.7790335311
 30
0.0
 10
15.8910651469
 20
12.745940443
 30
0.0
 10
15.9535141834
 20
12.7102281557
 30
0.0
 10
16.0126162648
 20
12.6721364228
 30
0.0
 10
16.0679704903
 20
12.6319243677
 30
0.0
 10
16.1192031974
 20
12.5898644294
 30
0.0
 10
16.1659613308
 20
12.5462385206
 30
0.0
 10
16.2013144167
 20
12.5084249748
 30
0.0
 10
16.2270067907
 20
12.4776332508
 30
0.0
 10
16.2504097925
 20
12.4472576315
 30
0.0
 10
16.2764106449
 20
12.4089285305
 30
0.0
 10
16.2941872835
 20
12.376903959
 30
0.0
 10
16.302046241
 20
12.3608890874
 30
0.0
  0
SPLINE
  5
2E9
100
AcDbEntity
  8
0
100
AcDbSpline
 62
7
  6
CONTINUOUS
 70
0
 71
3
 72
12
 73
8
 74
0
 42
0.0000001
 43
0.0000001
 44
0.0000000001
 40
0.0
 40
0.0
 40
0.0
 40
0.0
 40
0.2747289038
 40
0.5355476516
 40
0.7783189497
 40
0.8919849935
 40
1.0
 40
1.0
 40
1.0
 40
1.0
 10
14.4545334033
 20
13.0402948349
 30
0.0
 10
14.4632384368
 20
13.0357958081
 30
0.0
 10
14.479832146
 20
13.0262669921
 30
0.0
 10
14.5024845927
 20
13.0101437088
 30
0.0
 10
14.5189794074
 20
12.9954762465
 30
0.0
 10
14.5302592197
 20
12.9833305668
 30
0.0
 10
14.5352420361
 20
12.9771809659
 30
0.0
 10
14.5375513206
 20
12.9740971354
 30
0.0
  0
SPLINE
  5
2EA
100
AcDbEntity
  8
0
100
AcDbSpline
 62
7
  6
CONTINUOUS
 70
0
 71
3
 72
9
 73
5
 74
0
 42
0.0000001
 43
0.0000001
 44
0.0000000001
 40
0.0
 40
0.0
 40
0.0
 40
0.0
 40
0.2583034534
 40
1.0
 40
1.0
 40
1.0
 40
1.0
 10
14.4574172191
 20
13.4286796717
 30
0.0
 10
14.4581572028
 20
13.4271717435
 30
0.0
 10
14.460884895
 20
13.4212685548
 30
0.0
 10
14.4630452004
 20
13.4150961987
 30
0.0
 10
14.4642410896
 20
13.4104236662
 30
0.0
  0
SPLINE
  5
2EB
100
AcDbEntity
  8
0
100
AcDbSpline
 62
7
  6
CONTINUOUS
 70
0
 71
3
 72
11
 73
7
 74
0
 42
0.0000001
 43
0.0000001
 44
0.0000000001
 40
0.0
 40
0.0
 40
0.0
 40
0.0
 40
0.2615276897
 40
0.5133844969
 40
0.7584380815
 40
1.0
 40
1.0
 40
1.0
 40
1.0
 10
14.4642410896
 20
13.4104236662
 30
0.0
 10
14.4650528494
 20
13.4072519895
 30
0.0
 10
14.466283122
 20
13.4009239381
 30
0.0
 10
14.4668572526
 20
13.3914181592
 30
0.0
 10
14.4661209446
 20
13.3821726641
 30
0.0
 10
14.4647529038
 20
13.3762098322
 30
0.0
 10
14.46385948
 20
13.3733208548
 30
0.0
  0
SPLINE
  5
2EC
100
AcDbEntity
  8
0
100
AcDbSpline
 62
7
  6
CONTINUOUS
 70
0
 71
3
 72
24
 73
20
 74
0
 42
0.0000001
 43
0.0000001
 44
0.0000000001
 40
0.0
 40
0.0
 40
0.0
 40
0.0
 40
0.0773325086
 40
0.1532981947
 40
0.227541046
 40
0.2998130718
 40
0.3699415327
 40
0.4377855208
 40
0.5032429387
 40
0.5662614393
 40
0.6268668939
 40
0.6851518529
 40
0.7412801682
 40
0.7954998288
 40
0.8481064776
 40
0.8994279022
 40
0.9247494805
 40
0.9499144654
 40
1.0
 40
1.0
 40
1.0
 40
1.0
 10
14.0987808177
 20
13.2206656187
 30
0.0
 10
14.0886859453
 20
13.2257835199
 30
0.0
 10
14.0689180075
 20
13.2364182307
 30
0.0
 10
14.0404109167
 20
13.2536609977
 30
0.0
 10
14.0134667007
 20
13.2719724698
 30
0.0
 10
13.9882629045
 20
13.2912392628
 30
0.0
 10
13.9649502284
 20
13.3113522402
 30
0.0
 10
13.9436694563
 20
13.3322052463
 30
0.0
 10
13.9245499707
 20
13.3536855606
 30
0.0
 10
13.9077199465
 20
13.3756876328
 30
0.0
 10
13.8932896086
 20
13.398099015
 30
0.0
 10
13.8813686996
 20
13.4208126879
 30
0.0
 10
13.8720593289
 20
13.4437160775
 30
0.0
 10
13.8654705015
 20
13.4666890355
 30
0.0
 10
13.8616947735
 20
13.4895797097
 30
0.0
 10
13.8609541559
 20
13.5085387381
 30
0.0
 10
13.8618591961
 20
13.5234219105
 30
0.0
 10
13.8637356023
 20
13.5380289481
 30
0.0
 10
13.8662577089
 20
13.5487967755
 30
0.0
 10
13.8684219704
 20
13.5558003284
 30
0.0
  0
SPLINE
  5
2ED
100
AcDbEntity
  8
0
100
AcDbSpline
 62
7
  6
CONTINUOUS
 70
0
 71
3
 72
21
 73
17
 74
0
 42
0.0000001
 43
0.0000001
 44
0.0000000001
 40
0.0
 40
0.0
 40
0.0
 40
0.0
 40
0.0745063486
 40
0.1474931976
 40
0.2881430238
 40
0.3556979714
 40
0.4213884313
 40
0.5472643257
 40
0.6077048492
 40
0.6666322585
 40
0.7242395657
 40
0.7807547995
 40
0.8363435244
 40
0.891207941
 40
0.9456399636
 40
1.0
 40
1.0
 40
1.0
 40
1.0
 10
14.275677633
 20
14.0609568553
 30
0.0
 10
14.2666495349
 20
14.0609568553
 30
0.0
 10
14.2487733829
 20
14.0605458815
 30
0.0
 10
14.2139390987
 20
14.0580571514
 30
0.0
 10
14.1801533175
 20
14.0530662109
 30
0.0
 10
14.1478526974
 20
14.0453587476
 30
0.0
 10
14.1178067217
 20
14.0361984869
 30
0.0
 10
14.0894909693
 20
14.0244379221
 30
0.0
 10
14.0635371362
 20
14.0099086023
 30
0.0
 10
14.045735257
 20
13.9979031013
 30
0.0
 10
14.0294449585
 20
13.9846525927
 30
0.0
 10
14.0147860393
 20
13.9701825465
 30
0.0
 10
14.0018736063
 20
13.9545596762
 30
0.0
 10
13.9908434362
 20
13.9378520161
 30
0.0
 10
13.9818138391
 20
13.9201512577
 30
0.0
 10
13.9771887958
 20
13.9077699043
 30
0.0
 10
13.9752440235
 20
13.9014766187
 30
0.0
  0
SPLINE
  5
2EE
100
AcDbEntity
  8
0
100
AcDbSpline
 62
7
  6
CONTINUOUS
 70
0
 71
3
 72
15
 73
11
 74
0
 42
0.0000001
 43
0.0000001
 44
0.0000000001
 40
0.0
 40
0.0
 40
0.0
 40
0.0
 40
0.1177737463
 40
0.236205212
 40
0.3561129701
 40
0.4782244731
 40
0.6031448856
 40
0.7314287779
 40
0.8635829528
 40
1.0
 40
1.0
 40
1.0
 40
1.0
 10
16.4860825132
 20
12.0775093816
 30
0.0
 10
16.4818994832
 20
12.0639730914
 30
0.0
 10
16.4719515268
 20
12.0372796077
 30
0.0
 10
16.4525364955
 20
11.9989973308
 30
0.0
 10
16.4287418029
 20
11.9626454928
 30
0.0
 10
16.4007604268
 20
11.9284050985
 30
0.0
 10
16.3687865869
 20
11.896426974
 30
0.0
 10
16.33301453
 20
11.8668399694
 30
0.0
 10
16.2936545168
 20
11.8397254267
 30
0.0
 10
16.2656066578
 20
11.8236109277
 30
0.0
 10
16.2510831576
 20
11.8159704745
 30
0.0
  0
SPLINE
  5
2EF
100
AcDbEntity
  8
0
100
AcDbSpline
 62
7
  6
CONTINUOUS
 70
0
 71
3
 72
16
 73
12
 74
0
 42
0.0000001
 43
0.0000001
 44
0.0000000001
 40
0.0
 40
0.0
 40
0.0
 40
0.0
 40
0.1354706801
 40
0.2670419885
 40
0.3950346565
 40
0.4578465878
 40
0.5199495938
 40
0.6422846657
 40
0.7626335648
 40
0.8816246486
 40
1.0
 40
1.0
 40
1.0
 40
1.0
 10
14.4932235805
 20
12.3741574069
 30
0.0
 10
14.4864403949
 20
12.3879800858
 30
0.0
 10
14.474059723
 20
12.4157303473
 30
0.0
 10
14.4590654056
 20
12.4581015729
 30
0.0
 10
14.44981902
 20
12.4936108076
 30
0.0
 10
14.4444983631
 20
12.5218684947
 30
0.0
 10
14.4405951557
 20
12.5497068842
 30
0.0
 10
14.4382610577
 20
12.5843300679
 30
0.0
 10
14.4396418724
 20
12.6254866779
 30
0.0
 10
14.4452651
 20
12.6658270197
 30
0.0
 10
14.4518408675
 20
12.6920555112
 30
0.0
 10
14.4558132192
 20
12.704910046
 30
0.0
  0
SPLINE
  5
2F0
100
AcDbEntity
  8
0
100
AcDbSpline
 62
7
  6
CONTINUOUS
 70
0
 71
3
 72
14
 73
10
 74
0
 42
0.0000001
 43
0.0000001
 44
0.0000000001
 40
0.0
 40
0.0
 40
0.0
 40
0.0
 40
0.1115543151
 40
0.2246438456
 40
0.3406824829
 40
0.4609260455
 40
0.7174144156
 40
0.8553298763
 40
1.0
 40
1.0
 40
1.0
 40
1.0
 10
16.0628316977
 20
13.4840384886
 30
0.0
 10
16.0637034715
 20
13.4868574585
 30
0.0
 10
16.0658741186
 20
13.4924147692
 30
0.0
 10
16.070322431
 20
13.5002834033
 30
0.0
 10
16.075941709
 20
13.5076555349
 30
0.0
 10
16.0851307433
 20
13.516940845
 30
0.0
 10
16.0963950135
 20
13.5248111014
 30
0.0
 10
16.1091450247
 20
13.5312166252
 30
0.0
 10
16.1161064265
 20
13.5339720026
 30
0.0
 10
16.1197175249
 20
13.5352381199
 30
0.0
  0
SPLINE
  5
2F1
100
AcDbEntity
  8
0
100
AcDbSpline
 62
7
  6
CONTINUOUS
 70
0
 71
3
 72
20
 73
16
 74
0
 42
0.0000001
 43
0.0000001
 44
0.0000000001
 40
0.0
 40
0.0
 40
0.0
 40
0.0
 40
0.0555837583
 40
0.1137679397
 40
0.2368141601
 40
0.3666043565
 40
0.4999110892
 40
0.566815117
 40
0.6332718382
 40
0.6988451757
 40
0.7631200319
 40
0.8257029572
 40
0.8862400084
 40
0.9444147666
 40
1.0
 40
1.0
 40
1.0
 40
1.0
 10
16.1197237367
 20
13.5361277929
 30
0.0
 10
16.1252946365
 20
13.5374382921
 30
0.0
 10
16.1368211306
 20
13.539614304
 30
0.0
 10
16.1610817577
 20
13.5422362301
 30
0.0
 10
16.1932141078
 20
13.5421723195
 30
0.0
 10
16.2327370538
 20
13.5371116118
 30
0.0
 10
16.2657937756
 20
13.5289094588
 30
0.0
 10
16.2917957975
 20
13.5200552988
 30
0.0
 10
16.3107868074
 20
13.5123502911
 30
0.0
 10
16.3290489931
 20
13.5036623432
 30
0.0
 10
16.346406556
 20
13.4940826697
 30
0.0
 10
16.3626839808
 20
13.4836980027
 30
0.0
 10
16.3777257906
 20
13.4726188552
 30
0.0
 10
16.3913796707
 20
13.4609486856
 30
0.0
 10
16.3996688099
 20
13.4526507224
 30
0.0
 10
16.4035295738
 20
13.4484259654
 30
0.0
  0
SPLINE
  5
2F2
100
AcDbEntity
  8
0
100
AcDbSpline
 62
7
  6
CONTINUOUS
 70
0
 71
3
 72
9
 73
5
 74
0
 42
0.0000001
 43
0.0000001
 44
0.0000000001
 40
0.0
 40
0.0
 40
0.0
 40
0.0
 40
0.2592786458
 40
1.0
 40
1.0
 40
1.0
 40
1.0
 10
16.4031103328
 20
13.4475768382
 30
0.0
 10
16.4042440054
 20
13.4460322274
 30
0.0
 10
16.4084972771
 20
13.4399894015
 30
0.0
 10
16.4122604246
 20
13.4335936019
 30
0.0
 10
16.4146718313
 20
13.4286796717
 30
0.0
  0
SPLINE
  5
2F3
100
AcDbEntity
  8
0
100
AcDbSpline
 62
7
  6
CONTINUOUS
 70
0
 71
3
 72
9
 73
5
 74
0
 42
0.0000001
 43
0.0000001
 44
0.0000000001
 40
0.0
 40
0.0
 40
0.0
 40
0.0
 40
0.2583034534
 40
1.0
 40
1.0
 40
1.0
 40
1.0
 10
17.0628857979
 20
12.1077584891
 30
0.0
 10
17.0636257816
 20
12.106250561
 30
0.0
 10
17.0663534739
 20
12.1003473722
 30
0.0
 10
17.0685137793
 20
12.0941750161
 30
0.0
 10
17.0697096685
 20
12.0895024836
 30
0.0
  0
SPLINE
  5
2F4
100
AcDbEntity
  8
0
100
AcDbSpline
 62
7
  6
CONTINUOUS
 70
0
 71
3
 72
11
 73
7
 74
0
 42
0.0000001
 43
0.0000001
 44
0.0000000001
 40
0.0
 40
0.0
 40
0.0
 40
0.0
 40
0.2615276897
 40
0.5133844969
 40
0.7584380815
 40
1.0
 40
1.0
 40
1.0
 40
1.0
 10
17.0697096685
 20
12.0895024836
 30
0.0
 10
17.0705214282
 20
12.086330807
 30
0.0
 10
17.0717517008
 20
12.0800027555
 30
0.0
 10
17.0723258315
 20
12.0704969766
 30
0.0
 10
17.0715895235
 20
12.0612514815
 30
0.0
 10
17.0702214827
 20
12.0552886496
 30
0.0
 10
17.0693280588
 20
12.0523996722
 30
0.0
  0
SPLINE
  5
2F5
100
AcDbEntity
  8
0
100
AcDbSpline
 62
7
  6
CONTINUOUS
 70
0
 71
3
 72
9
 73
5
 74
0
 42
0.0000001
 43
0.0000001
 44
0.0000000001
 40
0.0
 40
0.0
 40
0.0
 40
0.0
 40
0.2569599563
 40
1.0
 40
1.0
 40
1.0
 40
1.0
 10
16.4421342775
 20
13.0452267665
 30
0.0
 10
16.4415688626
 20
13.0446562201
 30
0.0
 10
16.4394064218
 20
13.0423986907
 30
0.0
 10
16.4373991254
 20
13.0399914675
 30
0.0
 10
16.4360156784
 20
13.0381256773
 30
0.0
  0
SPLINE
  5
2F6
100
AcDbEntity
  8
0
100
AcDbSpline
 62
7
  6
CONTINUOUS
 70
0
 71
3
 72
9
 73
5
 74
0
 42
0.0000001
 43
0.0000001
 44
0.0000000001
 40
0.0
 40
0.0
 40
0.0
 40
0.0
 40
0.2555480293
 40
1.0
 40
1.0
 40
1.0
 40
1.0
 10
16.4360156784
 20
13.0381256773
 30
0.0
 10
16.4355456911
 20
13.0374918274
 30
0.0
 10
16.4337546938
 20
13.0349762448
 30
0.0
 10
16.4321629541
 20
13.0323179764
 30
0.0
 10
16.4311097549
 20
13.0302747147
 30
0.0
  0
SPLINE
  5
2F7
100
AcDbEntity
  8
0
100
AcDbSpline
 62
7
  6
CONTINUOUS
 70
0
 71
3
 72
11
 73
7
 74
0
 42
0.0000001
 43
0.0000001
 44
0.0000000001
 40
0.0
 40
0.0
 40
0.0
 40
0.0
 40
0.2556231978
 40
0.5067600054
 40
0.754534109
 40
1.0
 40
1.0
 40
1.0
 40
1.0
 10
16.6197217416
 20
13.2244259716
 30
0.0
 10
16.6237366594
 20
13.2284773278
 30
0.0
 10
16.6313491335
 20
13.2368631001
 30
0.0
 10
16.641468695
 20
13.2503496472
 30
0.0
 10
16.6501124854
 20
13.2645631993
 30
0.0
 10
16.6548675001
 20
13.2745136114
 30
0.0
 10
16.656971974
 20
13.2795703076
 30
0.0
  0
SPLINE
  5
2F8
100
AcDbEntity
  8
0
100
AcDbSpline
 62
7
  6
CONTINUOUS
 70
0
 71
3
 72
23
 73
19
 74
0
 42
0.0000001
 43
0.0000001
 44
0.0000000001
 40
0.0
 40
0.0
 40
0.0
 40
0.0
 40
0.0512853606
 40
0.1047605443
 40
0.1604144058
 40
0.2182643182
 40
0.2782698816
 40
0.3402633018
 40
0.4040120758
 40
0.469225653
 40
0.535578338
 40
0.6027055065
 40
0.6702232778
 40
0.7377289241
 40
0.8048238208
 40
0.8711495488
 40
0.9363482398
 40
1.0
 40
1.0
 40
1.0
 40
1.0
 10
16.7527722532
 20
13.7875035846
 30
0.0
 10
16.748070311
 20
13.7970851354
 30
0.0
 10
16.7373093809
 20
13.8161054472
 30
0.0
 10
16.7179519833
 20
13.8433646372
 30
0.0
 10
16.6952646177
 20
13.8697476642
 30
0.0
 10
16.6694804905
 20
13.8950818258
 30
0.0
 10
16.6408293885
 20
13.9192174451
 30
0.0
 10
16.6095596884
 20
13.9419951533
 30
0.0
 10
16.5759391355
 20
13.9632341448
 30
0.0
 10
16.5402682623
 20
13.9827747116
 30
0.0
 10
16.5028593393
 20
14.0004491778
 30
0.0
 10
16.4640493023
 20
14.0161154504
 30
0.0
 10
16.4241845164
 20
14.0296267171
 30
0.0
 10
16.3836294684
 20
14.0408729638
 30
0.0
 10
16.3427430076
 20
14.0497441313
 30
0.0
 10
16.3018848486
 20
14.0561624159
 30
0.0
 10
16.2614295077
 20
14.0600537057
 30
0.0
 10
16.23460749
 20
14.0609568553
 30
0.0
 10
16.2213608335
 20
14.0609568553
 30
0.0
  0
SPLINE
  5
2F9
100
AcDbEntity
  8
0
100
AcDbSpline
 62
7
  6
CONTINUOUS
 70
0
 71
3
 72
25
 73
21
 74
0
 42
0.0000001
 43
0.0000001
 44
0.0000000001
 40
0.0
 40
0.0
 40
0.0
 40
0.0
 40
0.0231210137
 40
0.0463175343
 40
0.0697129686
 40
0.093421524
 40
0.1421233193
 40
0.193111923
 40
0.2469055538
 40
0.3038232226
 40
0.363982786
 40
0.4273139686
 40
0.493594159
 40
0.5624619644
 40
0.6334588101
 40
0.7060461875
 40
0.7796207864
 40
0.8535584141
 40
0.927252435
 40
1.0
 40
1.0
 40
1.0
 40
1.0
 10
17.3064831739
 20
11.9806378325
 30
0.0
 10
17.3049206876
 20
11.975581625
 30
0.0
 10
17.3012792678
 20
11.9656028162
 30
0.0
 10
17.2943406319
 20
11.9512070828
 30
0.0
 10
17.2859664033
 20
11.9374366467
 30
0.0
 10
17.2728343688
 20
11.9198402813
 30
0.0
 10
17.2529017616
 20
11.8996103153
 30
0.0
 10
17.2243957354
 20
11.8788525713
 30
0.0
 10
17.1915731336
 20
11.8615096452
 30
0.0
 10
17.1548979306
 20
11.8476706388
 30
0.0
 10
17.1148247672
 20
11.8374060123
 30
0.0
 10
17.0718362866
 20
11.8307679695
 30
0.0
 10
17.0264506661
 20
11.8277984819
 30
0.0
 10
16.9792249732
 20
11.8285015365
 30
0.0
 10
16.930749509
 20
11.8328530147
 30
0.0
 10
16.8816420275
 20
11.8407902262
 30
0.0
 10
16.8325333322
 20
11.8521967518
 30
0.0
 10
16.7840530774
 20
11.8669302554
 30
0.0
 10
16.7368433782
 20
11.8847983692
 30
0.0
 10
16.7063404024
 20
11.8987694904
 30
0.0
 10
16.6914575058
 20
11.9062365534
 30
0.0
  0
SPLINE
  5
2FA
100
AcDbEntity
  8
0
100
AcDbSpline
 62
7
  6
CONTINUOUS
 70
0
 71
3
 72
13
 73
9
 74
0
 42
0.0000001
 43
0.0000001
 44
0.0000000001
 40
0.0
 40
0.0
 40
0.0
 40
0.0
 40
0.1216405086
 40
0.2433106196
 40
0.3655934713
 40
0.4889992069
 40
0.7403467028
 40
1.0
 40
1.0
 40
1.0
 40
1.0
 10
17.4133052269
 20
12.3263141227
 30
0.0
 10
17.4149311392
 20
12.3315755771
 30
0.0
 10
17.4176767977
 20
12.3422639712
 30
0.0
 10
17.4202476044
 20
12.3586381094
 30
0.0
 10
17.4212733947
 20
12.3752627282
 30
0.0
 10
17.4205949363
 20
12.3977812599
 30
0.0
 10
17.4159266207
 20
12.4262681278
 30
0.0
 10
17.4085450355
 20
12.4482977355
 30
0.0
 10
17.40404626
 20
12.4591579214
 30
0.0
  0
SPLINE
  5
2FB
100
AcDbEntity
  8
0
100
AcDbSpline
 62
7
  6
CONTINUOUS
 70
0
 71
3
 72
14
 73
10
 74
0
 42
0.0000001
 43
0.0000001
 44
0.0000000001
 40
0.0
 40
0.0
 40
0.0
 40
0.0
 40
0.1115543151
 40
0.2246438456
 40
0.3406824829
 40
0.4609260455
 40
0.7174144156
 40
0.8553298763
 40
1.0
 40
1.0
 40
1.0
 40
1.0
 10
16.7110456643
 20
12.1631173061
 30
0.0
 10
16.7119174381
 20
12.1659362759
 30
0.0
 10
16.7140880852
 20
12.1714935866
 30
0.0
 10
16.7185363976
 20
12.1793622207
 30
0.0
 10
16.7241556756
 20
12.1867343523
 30
0.0
 10
16.7333447099
 20
12.1960196624
 30
0.0
 10
16.7446089801
 20
12.2038899188
 30
0.0
 10
16.7573589913
 20
12.2102954427
 30
0.0
 10
16.7643203931
 20
12.2130508201
 30
0.0
 10
16.7679314915
 20
12.2143169373
 30
0.0
  0
SPLINE
  5
2FC
100
AcDbEntity
  8
0
100
AcDbSpline
 62
7
  6
CONTINUOUS
 70
0
 71
3
 72
20
 73
16
 74
0
 42
0.0000001
 43
0.0000001
 44
0.0000000001
 40
0.0
 40
0.0
 40
0.0
 40
0.0
 40
0.0555837583
 40
0.1137679397
 40
0.2368141601
 40
0.3666043565
 40
0.4999110892
 40
0.566815117
 40
0.6332718382
 40
0.6988451757
 40
0.7631200319
 40
0.8257029572
 40
0.8862400084
 40
0.9444147666
 40
1.0
 40
1.0
 40
1.0
 40
1.0
 10
16.7679377033
 20
12.2152066103
 30
0.0
 10
16.7735086031
 20
12.2165171096
 30
0.0
 10
16.7850350972
 20
12.2186931215
 30
0.0
 10
16.8092957243
 20
12.2213150475
 30
0.0
 10
16.8414280744
 20
12.2212511369
 30
0.0
 10
16.8809510204
 20
12.2161904292
 30
0.0
 10
16.9140077422
 20
12.2079882762
 30
0.0
 10
16.9400097641
 20
12.1991341163
 30
0.0
 10
16.959000774
 20
12.1914291086
 30
0.0
 10
16.9772629597
 20
12.1827411606
 30
0.0
 10
16.9946205226
 20
12.1731614872
 30
0.0
 10
17.0108979474
 20
12.1627768202
 30
0.0
 10
17.0259397572
 20
12.1516976726
 30
0.0
 10
17.0395936373
 20
12.140027503
 30
0.0
 10
17.0478827765
 20
12.1317295398
 30
0.0
 10
17.0517435404
 20
12.1275047828
 30
0.0
  0
SPLINE
  5
2FD
100
AcDbEntity
  8
0
100
AcDbSpline
 62
7
  6
CONTINUOUS
 70
0
 71
3
 72
9
 73
5
 74
0
 42
0.0000001
 43
0.0000001
 44
0.0000000001
 40
0.0
 40
0.0
 40
0.0
 40
0.0
 40
0.2583034534
 40
1.0
 40
1.0
 40
1.0
 40
1.0
 10
16.4146718313
 20
13.4286796717
 30
0.0
 10
16.415411815
 20
13.4271717435
 30
0.0
 10
16.4181395073
 20
13.4212685548
 30
0.0
 10
16.4202998127
 20
13.4150961987
 30
0.0
 10
16.4214957019
 20
13.4104236662
 30
0.0
  0
SPLINE
  5
2FE
100
AcDbEntity
  8
0
100
AcDbSpline
 62
7
  6
CONTINUOUS
 70
0
 71
3
 72
11
 73
7
 74
0
 42
0.0000001
 43
0.0000001
 44
0.0000000001
 40
0.0
 40
0.0
 40
0.0
 40
0.0
 40
0.2615276897
 40
0.5133844969
 40
0.7584380815
 40
1.0
 40
1.0
 40
1.0
 40
1.0
 10
16.4214957019
 20
13.4104236662
 30
0.0
 10
16.4223074616
 20
13.4072519895
 30
0.0
 10
16.4235377342
 20
13.4009239381
 30
0.0
 10
16.4241118649
 20
13.3914181592
 30
0.0
 10
16.4233755569
 20
13.3821726641
 30
0.0
 10
16.4220075161
 20
13.3762098322
 30
0.0
 10
16.4211140923
 20
13.3733208548
 30
0.0
  0
SPLINE
  5
2FF
100
AcDbEntity
  8
0
100
AcDbSpline
 62
7
  6
CONTINUOUS
 70
0
 71
3
 72
9
 73
5
 74
0
 42
0.0000001
 43
0.0000001
 44
0.0000000001
 40
0.0
 40
0.0
 40
0.0
 40
0.0
 40
0.2592786458
 40
1.0
 40
1.0
 40
1.0
 40
1.0
 10
17.0513242994
 20
12.1266556556
 30
0.0
 10
17.052457972
 20
12.1251110448
 30
0.0
 10
17.0567112437
 20
12.1190682189
 30
0.0
 10
17.0604743912
 20
12.1126724194
 30
0.0
 10
17.0628857979
 20
12.1077584891
 30
0.0
  0
SPLINE
  5
300
100
AcDbEntity
  8
0
100
AcDbSpline
 62
7
  6
CONTINUOUS
 70
0
 71
3
 72
14
 73
10
 74
0
 42
0.0000001
 43
0.0000001
 44
0.0000000001
 40
0.0
 40
0.0
 40
0.0
 40
0.0
 40
0.1115543151
 40
0.2246438456
 40
0.3406824829
 40
0.4609260455
 40
0.7174144156
 40
0.8553298763
 40
1.0
 40
1.0
 40
1.0
 40
1.0
 10
14.1055770854
 20
13.4840384886
 30
0.0
 10
14.1064488592
 20
13.4868574585
 30
0.0
 10
14.1086195063
 20
13.4924147692
 30
0.0
 10
14.1130678188
 20
13.5002834033
 30
0.0
 10
14.1186870967
 20
13.5076555349
 30
0.0
 10
14.1278761311
 20
13.516940845
 30
0.0
 10
14.1391404012
 20
13.5248111014
 30
0.0
 10
14.1518904124
 20
13.5312166252
 30
0.0
 10
14.1588518142
 20
13.5339720026
 30
0.0
 10
14.1624629126
 20
13.5352381199
 30
0.0
  0
SPLINE
  5
301
100
AcDbEntity
  8
0
100
AcDbSpline
 62
7
  6
CONTINUOUS
 70
0
 71
3
 72
20
 73
16
 74
0
 42
0.0000001
 43
0.0000001
 44
0.0000000001
 40
0.0
 40
0.0
 40
0.0
 40
0.0
 40
0.0555837583
 40
0.1137679397
 40
0.2368141601
 40
0.3666043565
 40
0.4999110892
 40
0.566815117
 40
0.6332718382
 40
0.6988451757
 40
0.7631200319
 40
0.8257029572
 40
0.8862400084
 40
0.9444147666
 40
1.0
 40
1.0
 40
1.0
 40
1.0
 10
14.1624691245
 20
13.5361277929
 30
0.0
 10
14.1680400242
 20
13.5374382921
 30
0.0
 10
14.1795665184
 20
13.539614304
 30
0.0
 10
14.2038271454
 20
13.5422362301
 30
0.0
 10
14.2359594956
 20
13.5421723195
 30
0.0
 10
14.2754824416
 20
13.5371116118
 30
0.0
 10
14.3085391634
 20
13.5289094588
 30
0.0
 10
14.3345411853
 20
13.5200552988
 30
0.0
 10
14.3535321951
 20
13.5123502911
 30
0.0
 10
14.3717943809
 20
13.5036623432
 30
0.0
 10
14.3891519437
 20
13.4940826697
 30
0.0
 10
14.4054293685
 20
13.4836980027
 30
0.0
 10
14.4204711783
 20
13.4726188552
 30
0.0
 10
14.4341250584
 20
13.4609486856
 30
0.0
 10
14.4424141976
 20
13.4526507224
 30
0.0
 10
14.4462749616
 20
13.4484259654
 30
0.0
  0
SPLINE
  5
302
100
AcDbEntity
  8
0
100
AcDbSpline
 62
7
  6
CONTINUOUS
 70
0
 71
3
 72
9
 73
5
 74
0
 42
0.0000001
 43
0.0000001
 44
0.0000000001
 40
0.0
 40
0.0
 40
0.0
 40
0.0
 40
0.2592786458
 40
1.0
 40
1.0
 40
1.0
 40
1.0
 10
14.4458557205
 20
13.4475768382
 30
0.0
 10
14.4469893932
 20
13.4460322274
 30
0.0
 10
14.4512426648
 20
13.4399894015
 30
0.0
 10
14.4550058124
 20
13.4335936019
 30
0.0
 10
14.4574172191
 20
13.4286796717
 30
0.0
  0
SPLINE
  5
303
100
AcDbEntity
  8
0
100
AcDbSpline
 62
7
  6
CONTINUOUS
 70
0
 71
3
 72
35
 73
31
 74
0
 42
0.0000001
 43
0.0000001
 44
0.0000000001
 40
0.0
 40
0.0
 40
0.0
 40
0.0
 40
0.0623991008
 40
0.0936711592
 40
0.1249285707
 40
0.1561808863
 40
0.18743667
 40
0.2498962238
 40
0.2811692835
 40
0.3124466347
 40
0.3437254864
 40
0.3750051837
 40
0.406285883
 40
0.4375657855
 40
0.4688454569
 40
0.5001229544
 40
0.5313973718
 40
0.5626686434
 40
0.5939342912
 40
0.6251954551
 40
0.6564523302
 40
0.6877055718
 40
0.7189575301
 40
0.7502062427
 40
0.8126204374
 40
0.8438588365
 40
0.8750957291
 40
0.9063413012
 40
0.937605528
 40
1.0
 40
1.0
 40
1.0
 40
1.0
 10
15.1032203562
 20
13.290704039
 30
0.0
 10
15.095751284
 20
13.290704039
 30
0.0
 10
15.0844982802
 20
13.2918325004
 30
0.0
 10
15.0699863335
 20
13.2955084725
 30
0.0
 10
15.059413433
 20
13.2993383545
 30
0.0
 10
15.0492705385
 20
13.3041875824
 30
0.0
 10
15.0364603247
 20
13.3119466389
 30
0.0
 10
15.0248477626
 20
13.3215598137
 30
0.0
 10
15.0148290437
 20
13.3326983092
 30
0.0
 10
15.0081507819
 20
13.3417515383
 30
0.0
 10
15.0023794231
 20
13.3514076415
 30
0.0
 10
14.9975726634
 20
13.3615790935
 30
0.0
 10
14.9937660664
 20
13.3721653892
 30
0.0
 10
14.9909990096
 20
13.3830699365
 30
0.0
 10
14.9892990267
 20
13.3941902931
 30
0.0
 10
14.988675098
 20
13.4054219527
 30
0.0
 10
14.9891431986
 20
13.4166603769
 30
0.0
 10
14.9906955419
 20
13.4277992829
 30
0.0
 10
14.9933178567
 20
13.4387345472
 30
0.0
 10
14.9969956504
 20
13.4493596151
 30
0.0
 10
15.0016879835
 20
13.4595757029
 30
0.0
 10
15.0073582086
 20
13.4692818704
 30
0.0
 10
15.01395604
 20
13.4783834092
 30
0.0
 10
15.0238869832
 20
13.4895856441
 30
0.0
 10
15.0354454005
 20
13.4992523062
 30
0.0
 10
15.0482221007
 20
13.5070491353
 30
0.0
 10
15.0583496182
 20
13.511918999
 30
0.0
 10
15.0689136029
 20
13.5157619126
 30
0.0
 10
15.0834204194
 20
13.5194474394
 30
0.0
 10
15.0946724166
 20
13.5205757091
 30
0.0
 10
15.1021409347
 20
13.5205757091
 30
0.0
  0
SPLINE
  5
304
100
AcDbEntity
  8
0
100
AcDbSpline
 62
7
  6
CONTINUOUS
 70
0
 71
3
 72
9
 73
5
 74
0
 42
0.0000001
 43
0.0000001
 44
0.0000000001
 40
0.0
 40
0.0
 40
0.0
 40
0.0
 40
0.4863731184
 40
1.0
 40
1.0
 40
1.0
 40
1.0
 10
14.9548293069
 20
13.6598517444
 30
0.0
 10
14.9545005943
 20
13.6602363449
 30
0.0
 10
14.9536993285
 20
13.6609245364
 30
0.0
 10
14.9527534486
 20
13.6613816813
 30
0.0
 10
14.9522509015
 20
13.6615630812
 30
0.0
  0
SPLINE
  5
305
100
AcDbEntity
  8
0
100
AcDbSpline
 62
7
  6
CONTINUOUS
 70
0
 71
3
 72
9
 73
5
 74
0
 42
0.0000001
 43
0.0000001
 44
0.0000000001
 40
0.0
 40
0.0
 40
0.0
 40
0.0
 40
0.2475535531
 40
1.0
 40
1.0
 40
1.0
 40
1.0
 10
14.9522509015
 20
13.6615630812
 30
0.0
 10
14.9520055362
 20
13.6616516485
 30
0.0
 10
14.9509960131
 20
13.6619580556
 30
0.0
 10
14.9499354743
 20
13.6620812579
 30
0.0
 10
14.9491426283
 20
13.6620899827
 30
0.0
  0
SPLINE
  5
306
100
AcDbEntity
  8
0
100
AcDbSpline
 62
7
  6
CONTINUOUS
 70
0
 71
3
 72
31
 73
27
 74
0
 42
0.0000001
 43
0.0000001
 44
0.0000000001
 40
0.0
 40
0.0
 40
0.0
 40
0.0
 40
0.021454811
 40
0.0432074377
 40
0.0655320598
 40
0.0886718501
 40
0.1380510966
 40
0.1646123263
 40
0.1924792994
 40
0.2521128924
 40
0.3167063908
 40
0.3506680895
 40
0.3855722133
 40
0.4576376974
 40
0.5317125364
 40
0.5691013725
 40
0.6064885288
 40
0.6805522092
 40
0.7525974444
 40
0.7874890719
 40
0.8214332479
 40
0.854305635
 40
0.8860140699
 40
0.9456325003
 40
0.9734903337
 40
1.0
 40
1.0
 40
1.0
 40
1.0
 10
16.4211140923
 20
13.3733208548
 30
0.0
 10
16.4202384467
 20
13.3704893652
 30
0.0
 10
16.4180561433
 20
13.3649075518
 30
0.0
 10
16.4135798523
 20
13.357006769
 30
0.0
 10
16.4079224209
 20
13.3496075858
 30
0.0
 10
16.3986674063
 20
13.3402917637
 30
0.0
 10
16.3873220161
 20
13.332406514
 30
0.0
 10
16.3744808941
 20
13.3259986934
 30
0.0
 10
16.3597947028
 20
13.3202342403
 30
0.0
 10
16.3393539816
 20
13.3150197281
 30
0.0
 10
16.3175881111
 20
13.3125100249
 30
0.0
 10
16.2991511071
 20
13.3119967148
 30
0.0
 10
16.2796810842
 20
13.3125363314
 30
0.0
 10
16.2547706264
 20
13.3152354259
 30
0.0
 10
16.2299117616
 20
13.3204193525
 30
0.0
 10
16.2101241063
 20
13.3260351036
 30
0.0
 10
16.1906242745
 20
13.3325758624
 30
0.0
 10
16.1671863972
 20
13.3423364389
 30
0.0
 10
16.1451112461
 20
13.3541776961
 30
0.0
 10
16.1287465707
 20
13.364726576
 30
0.0
 10
16.1173718284
 20
13.3729868992
 30
0.0
 10
16.1068451617
 20
13.3816296286
 30
0.0
 10
16.0942951006
 20
13.3933377056
 30
0.0
 10
16.0833891286
 20
13.4057712151
 30
0.0
 10
16.0745408378
 20
13.4188147153
 30
0.0
 10
16.0708872616
 20
13.4253921059
 30
0.0
 10
16.0692739586
 20
13.4286796717
 30
0.0
  0
SPLINE
  5
307
100
AcDbEntity
  8
0
100
AcDbSpline
 62
7
  6
CONTINUOUS
 70
0
 71
3
 72
15
 73
11
 74
0
 42
0.0000001
 43
0.0000001
 44
0.0000000001
 40
0.0
 40
0.0
 40
0.0
 40
0.0
 40
0.1285749479
 40
0.2558174902
 40
0.3816457994
 40
0.5063311373
 40
0.630147127
 40
0.753430169
 40
0.8766395435
 40
1.0
 40
1.0
 40
1.0
 40
1.0
 10
15.0164373361
 20
13.5062277657
 30
0.0
 10
15.0196939776
 20
13.5127682039
 30
0.0
 10
15.0270232186
 20
13.525378859
 30
0.0
 10
15.0403307843
 20
13.5425815544
 30
0.0
 10
15.0556877481
 20
13.5576776621
 30
0.0
 10
15.0728227907
 20
13.570397474
 30
0.0
 10
15.091440228
 20
13.580531782
 30
0.0
 10
15.1112299146
 20
13.5878965714
 30
0.0
 10
15.1318379319
 20
13.5923576148
 30
0.0
 10
15.145869859
 20
13.5933534701
 30
0.0
 10
15.1528799117
 20
13.5933534701
 30
0.0
  0
SPLINE
  5
308
100
AcDbEntity
  8
0
100
AcDbSpline
 62
7
  6
CONTINUOUS
 70
0
 71
3
 72
9
 73
5
 74
0
 42
0.0000001
 43
0.0000001
 44
0.0000000001
 40
0.0
 40
0.0
 40
0.0
 40
0.0
 40
0.2573433783
 40
1.0
 40
1.0
 40
1.0
 40
1.0
 10
16.4035295738
 20
13.4484259654
 30
0.0
 10
16.4048750842
 20
13.4469536002
 30
0.0
 10
16.410014005
 20
13.4411515262
 30
0.0
 10
16.4147825013
 20
13.435017371
 30
0.0
 10
16.4180541192
 20
13.4302815329
 30
0.0
  0
SPLINE
  5
309
100
AcDbEntity
  8
0
100
AcDbSpline
 62
7
  6
CONTINUOUS
 70
0
 71
3
 72
9
 73
5
 74
0
 42
0.0000001
 43
0.0000001
 44
0.0000000001
 40
0.0
 40
0.0
 40
0.0
 40
0.0
 40
0.2576829498
 40
1.0
 40
1.0
 40
1.0
 40
1.0
 10
16.4180541192
 20
13.4302815329
 30
0.0
 10
16.4190336973
 20
13.4288635424
 30
0.0
 10
16.4227415325
 20
13.4232971209
 30
0.0
 10
16.4260645183
 20
13.4174701917
 30
0.0
 10
16.4282517248
 20
13.4130131335
 30
0.0
  0
SPLINE
  5
30A
100
AcDbEntity
  8
0
100
AcDbSpline
 62
7
  6
CONTINUOUS
 70
0
 71
3
 72
23
 73
19
 74
0
 42
0.0000001
 43
0.0000001
 44
0.0000000001
 40
0.0
 40
0.0
 40
0.0
 40
0.0
 40
0.0654982901
 40
0.1282161009
 40
0.1884155768
 40
0.2464993213
 40
0.303046474
 40
0.3587186755
 40
0.4142243962
 40
0.4702669276
 40
0.5275185908
 40
0.5865870621
 40
0.6479771477
 40
0.7120954874
 40
0.7792267469
 40
0.849544319
 40
0.9231394864
 40
1.0
 40
1.0
 40
1.0
 40
1.0
 10
16.6942253788
 20
12.092091951
 30
0.0
 10
16.6925936848
 20
12.0954169939
 30
0.0
 10
16.6896998284
 20
12.1020799997
 30
0.0
 10
16.6864796398
 20
12.1122571203
 30
0.0
 10
16.6845052721
 20
12.1223246747
 30
0.0
 10
16.683806154
 20
12.1322128998
 30
0.0
 10
16.6843831557
 20
12.1418546679
 30
0.0
 10
16.6862380574
 20
12.1511870306
 30
0.0
 10
16.6893613552
 20
12.1601445721
 30
0.0
 10
16.6937238631
 20
12.1686678142
 30
0.0
 10
16.6992995504
 20
12.1766962569
 30
0.0
 10
16.7060466246
 20
12.1841773586
 30
0.0
 10
16.7139138651
 20
12.1910702967
 30
0.0
 10
16.7228533915
 20
12.1973296329
 30
0.0
 10
16.7328046456
 20
12.2029221645
 30
0.0
 10
16.7437046394
 20
12.2078180468
 30
0.0
 10
16.7554870589
 20
12.211982608
 30
0.0
 10
16.7637068471
 20
12.2142113432
 30
0.0
 10
16.7679377033
 20
12.2152066103
 30
0.0
  0
SPLINE
  5
30B
100
AcDbEntity
  8
0
100
AcDbSpline
 62
7
  6
CONTINUOUS
 70
0
 71
3
 72
36
 73
32
 74
0
 42
0.0000001
 43
0.0000001
 44
0.0000000001
 40
0.0
 40
0.0
 40
0.0
 40
0.0
 40
0.0262371859
 40
0.0511150082
 40
0.074823459
 40
0.0976788144
 40
0.1200827943
 40
0.14247227
 40
0.1652767859
 40
0.1888921291
 40
0.2136441691
 40
0.2397809593
 40
0.2674587201
 40
0.2967586803
 40
0.3276903283
 40
0.3602024377
 40
0.3941982812
 40
0.4295338256
 40
0.4660385091
 40
0.5035089599
 40
0.5417250392
 40
0.5804501018
 40
0.6584034326
 40
0.7353926645
 40
0.8094907773
 40
0.8449326956
 40
0.8790411402
 40
0.9116797764
 40
0.9427569076
 40
0.9722091849
 40
1.0
 40
1.0
 40
1.0
 40
1.0
 10
17.0764656914
 20
12.092091951
 30
0.0
 10
17.0784761288
 20
12.0879951101
 30
0.0
 10
17.0819403653
 20
12.0797784627
 30
0.0
 10
17.0854043561
 20
12.067192141
 30
0.0
 10
17.0869277392
 20
12.0548103734
 30
0.0
 10
17.0864809778
 20
12.0427685493
 30
0.0
 10
17.0840595037
 20
12.0311946119
 30
0.0
 10
17.0796856186
 20
12.0202185347
 30
0.0
 10
17.073417603
 20
12.0099585443
 30
0.0
 10
17.0653229537
 20
12.0005278975
 30
0.0
 10
17.0555050112
 20
11.9920055246
 30
0.0
 10
17.0440599046
 20
11.9844736093
 30
0.0
 10
17.0311074581
 20
11.9779864746
 30
0.0
 10
17.0167681102
 20
11.9726057101
 30
0.0
 10
17.0011796186
 20
11.9683744951
 30
0.0
 10
16.9844886365
 20
11.9653293231
 30
0.0
 10
16.9668529645
 20
11.9635017858
 30
0.0
 10
16.9484399289
 20
11.9629012105
 30
0.0
 10
16.9294247882
 20
11.9635416439
 30
0.0
 10
16.90998843
 20
11.9654078813
 30
0.0
 10
16.8903163421
 20
11.9684895615
 30
0.0
 10
16.8639715324
 20
11.9741845582
 30
0.0
 10
16.8316910304
 20
11.9840804918
 30
0.0
 10
16.7950691631
 20
11.9999649434
 30
0.0
 10
16.7669438882
 20
12.0163244058
 30
0.0
 10
16.7466851848
 20
12.0309770261
 30
0.0
 10
16.7330400612
 20
12.0423925709
 30
0.0
 10
16.7208492337
 20
12.054288011
 30
0.0
 10
16.7102275374
 20
12.0665554659
 30
0.0
 10
16.7012853821
 20
12.0790745552
 30
0.0
 10
16.6963548639
 20
12.0877525166
 30
0.0
 10
16.6942253788
 20
12.092091951
 30
0.0
  0
SPLINE
  5
30C
100
AcDbEntity
  8
0
100
AcDbSpline
 62
7
  6
CONTINUOUS
 70
0
 71
3
 72
13
 73
9
 74
0
 42
0.0000001
 43
0.0000001
 44
0.0000000001
 40
0.0
 40
0.0
 40
0.0
 40
0.0
 40
0.2711952982
 40
0.5251947347
 40
0.6469921354
 40
0.7661612324
 40
0.8835343107
 40
1.0
 40
1.0
 40
1.0
 40
1.0
 10
16.7174879252
 20
12.1077584891
 30
0.0
 10
16.7152155257
 20
12.1123891525
 30
0.0
 10
16.7114479847
 20
12.1216904858
 30
0.0
 10
16.7088002839
 20
12.1337833493
 30
0.0
 10
16.7081575481
 20
12.1431899079
 30
0.0
 10
16.7083829164
 20
12.1500143551
 30
0.0
 10
16.7093076455
 20
12.1566767343
 30
0.0
 10
16.7103911901
 20
12.1610009968
 30
0.0
 10
16.7110456643
 20
12.1631173061
 30
0.0
  0
SPLINE
  5
30D
100
AcDbEntity
  8
0
100
AcDbSpline
 62
7
  6
CONTINUOUS
 70
0
 71
3
 72
16
 73
12
 74
0
 42
0.0000001
 43
0.0000001
 44
0.0000000001
 40
0.0
 40
0.0
 40
0.0
 40
0.0
 40
0.1207315657
 40
0.242496281
 40
0.3653773505
 40
0.489610629
 40
0.6152546885
 40
0.6786261564
 40
0.7423401265
 40
0.8706948692
 40
1.0
 40
1.0
 40
1.0
 40
1.0
 10
15.1528799117
 20
13.5933534701
 30
0.0
 10
15.1599258078
 20
13.5933534701
 30
0.0
 10
15.1740971764
 20
13.592342693
 30
0.0
 10
15.195012636
 20
13.5878706891
 30
0.0
 10
15.2153123115
 20
13.5805017741
 30
0.0
 10
15.2346350164
 20
13.5703727789
 30
0.0
 10
15.2496232945
 20
13.5598088301
 30
0.0
 10
15.2608120318
 20
13.5501858354
 30
0.0
 10
15.2714822065
 20
13.5397621992
 30
0.0
 10
15.2836287913
 20
13.5254050726
 30
0.0
 10
15.2918812242
 20
13.5127832267
 30
0.0
 10
15.2956191129
 20
13.5062277657
 30
0.0
  0
SPLINE
  5
30E
100
AcDbEntity
  8
0
100
AcDbSpline
 62
7
  6
CONTINUOUS
 70
0
 71
3
 72
13
 73
9
 74
0
 42
0.0000001
 43
0.0000001
 44
0.0000000001
 40
0.0
 40
0.0
 40
0.0
 40
0.0
 40
0.1034963357
 40
0.2177170994
 40
0.3392477205
 40
0.4658761936
 40
0.7294129111
 40
1.0
 40
1.0
 40
1.0
 40
1.0
 10
16.6134643086
 20
12.5388764483
 30
0.0
 10
16.6135003894
 20
12.5411460437
 30
0.0
 10
16.6136362627
 20
12.5459194118
 30
0.0
 10
16.6139377218
 20
12.5533536962
 30
0.0
 10
16.6142951273
 20
12.5612933891
 30
0.0
 10
16.6148045182
 20
12.5725043279
 30
0.0
 10
16.6154153312
 20
12.5869831757
 30
0.0
 10
16.615754401
 20
12.5986934096
 30
0.0
 10
16.615863562
 20
12.6046269229
 30
0.0
  0
SPLINE
  5
30F
100
AcDbEntity
  8
0
100
AcDbSpline
 62
7
  6
CONTINUOUS
 70
0
 71
3
 72
14
 73
10
 74
0
 42
0.0000001
 43
0.0000001
 44
0.0000000001
 40
0.0
 40
0.0
 40
0.0
 40
0.0
 40
0.1410801896
 40
0.2756873799
 40
0.404862539
 40
0.5295415097
 40
0.6506766502
 40
0.7690623422
 40
1.0
 40
1.0
 40
1.0
 40
1.0
 10
16.4037503147
 20
12.9662286361
 30
0.0
 10
16.4058164646
 20
12.9641570066
 30
0.0
 10
16.4100241873
 20
12.9602751439
 30
0.0
 10
16.4166017182
 20
12.9550476497
 30
0.0
 10
16.4231839413
 20
12.9503966934
 30
0.0
 10
16.4297285682
 20
12.9461920806
 30
0.0
 10
16.4362229711
 20
12.9423335824
 30
0.0
 10
16.4447226491
 20
12.9375418646
 30
0.0
 10
16.4511033245
 20
12.9341103288
 30
0.0
 10
16.4553048205
 20
12.9318112379
 30
0.0
  0
SPLINE
  5
310
100
AcDbEntity
  8
0
100
AcDbSpline
 62
7
  6
CONTINUOUS
 70
0
 71
3
 72
15
 73
11
 74
0
 42
0.0000001
 43
0.0000001
 44
0.0000000001
 40
0.0
 40
0.0
 40
0.0
 40
0.0
 40
0.1256204123
 40
0.2518019568
 40
0.3780364433
 40
0.5040575575
 40
0.6295311046
 40
0.7541544152
 40
0.8777581699
 40
1.0
 40
1.0
 40
1.0
 40
1.0
 10
15.2956191129
 20
13.5062277657
 30
0.0
 10
15.299379862
 20
13.4996322122
 30
0.0
 10
15.3061146919
 20
13.4859357819
 30
0.0
 10
15.3136833331
 20
13.4643222282
 30
0.0
 10
15.318612639
 20
13.4419300229
 30
0.0
 10
15.3208176214
 20
13.4191519373
 30
0.0
 10
15.3202708075
 20
13.3963706117
 30
0.0
 10
15.3169699407
 20
13.3739681268
 30
0.0
 10
15.3109696626
 20
13.3523386199
 30
0.0
 10
15.3052088547
 20
13.338590049
 30
0.0
 10
15.3019157384
 20
13.331976357
 30
0.0
  0
SPLINE
  5
311
100
AcDbEntity
  8
0
100
AcDbSpline
 62
7
  6
CONTINUOUS
 70
0
 71
3
 72
15
 73
11
 74
0
 42
0.0000001
 43
0.0000001
 44
0.0000000001
 40
0.0
 40
0.0
 40
0.0
 40
0.0
 40
0.1285749479
 40
0.2558174902
 40
0.3816457994
 40
0.5063311373
 40
0.630147127
 40
0.753430169
 40
0.8766395435
 40
1.0
 40
1.0
 40
1.0
 40
1.0
 10
15.3019157384
 20
13.331976357
 30
0.0
 10
15.2986590969
 20
13.3254359187
 30
0.0
 10
15.2913298559
 20
13.3128252637
 30
0.0
 10
15.2780222901
 20
13.2956225683
 30
0.0
 10
15.2626653264
 20
13.2805264605
 30
0.0
 10
15.2455302838
 20
13.2678066487
 30
0.0
 10
15.2269128465
 20
13.2576723406
 30
0.0
 10
15.2071231598
 20
13.2503075512
 30
0.0
 10
15.1865151426
 20
13.2458465078
 30
0.0
 10
15.1724832155
 20
13.2448506526
 30
0.0
 10
15.1654731627
 20
13.2448506526
 30
0.0
  0
SPLINE
  5
312
100
AcDbEntity
  8
0
100
AcDbSpline
 62
7
  6
CONTINUOUS
 70
0
 71
3
 72
15
 73
11
 74
0
 42
0.0000001
 43
0.0000001
 44
0.0000000001
 40
0.0
 40
0.0
 40
0.0
 40
0.0
 40
0.1212284902
 40
0.2433805383
 40
0.366476858
 40
0.490713064
 40
0.6162061203
 40
0.7429368637
 40
0.8708869702
 40
1.0
 40
1.0
 40
1.0
 40
1.0
 10
15.1654731627
 20
13.2448506526
 30
0.0
 10
15.1592407718
 20
13.2448506526
 30
0.0
 10
15.1467152041
 20
13.2456414605
 30
0.0
 10
15.1281567371
 20
13.2491424154
 30
0.0
 10
15.1100151396
 20
13.254930488
 30
0.0
 10
15.0925419781
 20
13.2629171305
 30
0.0
 10
15.0759668466
 20
13.2729932842
 30
0.0
 10
15.060508706
 20
13.2850233494
 30
0.0
 10
15.0463741769
 20
13.2988467076
 30
0.0
 10
15.0379898407
 20
13.3091030049
 30
0.0
 10
15.0340733765
 20
13.31446219
 30
0.0
  0
SPLINE
  5
313
100
AcDbEntity
  8
0
100
AcDbSpline
 62
7
  6
CONTINUOUS
 70
0
 71
3
 72
19
 73
15
 74
0
 42
0.0000001
 43
0.0000001
 44
0.0000000001
 40
0.0
 40
0.0
 40
0.0
 40
0.0
 40
0.054338418
 40
0.1089108959
 40
0.1639586874
 40
0.2197126306
 40
0.2763831278
 40
0.3341622589
 40
0.4536520066
 40
0.5793675686
 40
0.6448405736
 40
0.712135487
 40
0.8523276463
 40
1.0
 40
1.0
 40
1.0
 40
1.0
 10
14.5674764692
 20
13.0662529142
 30
0.0
 10
14.5702707533
 20
13.0752958061
 30
0.0
 10
14.5766154848
 20
13.0932000262
 30
0.0
 10
14.5883198816
 20
13.1192823704
 30
0.0
 10
14.6021942578
 20
13.1445611247
 30
0.0
 10
14.6182092463
 20
13.1689769038
 30
0.0
 10
14.6363247841
 20
13.1924805008
 30
0.0
 10
14.6635207035
 20
13.2228670102
 30
0.0
 10
14.7028491546
 20
13.2583201887
 30
0.0
 10
14.7474504077
 20
13.2892049291
 30
0.0
 10
14.7865273802
 20
13.3116044519
 30
0.0
 10
14.8290209142
 20
13.332978768
 30
0.0
 10
14.8863922059
 20
13.3564001271
 30
0.0
 10
14.9344308289
 20
13.371015515
 30
0.0
 10
14.9593236955
 20
13.377493115
 30
0.0
  0
SPLINE
  5
314
100
AcDbEntity
  8
0
100
AcDbSpline
 62
7
  6
CONTINUOUS
 70
0
 71
3
 72
31
 73
27
 74
0
 42
0.0000001
 43
0.0000001
 44
0.0000000001
 40
0.0
 40
0.0
 40
0.0
 40
0.0
 40
0.021454811
 40
0.0432074377
 40
0.0655320598
 40
0.0886718501
 40
0.1380510966
 40
0.1646123263
 40
0.1924792994
 40
0.2521128924
 40
0.3167063908
 40
0.3506680895
 40
0.3855722133
 40
0.4576376974
 40
0.5317125364
 40
0.5691013725
 40
0.6064885288
 40
0.6805522092
 40
0.7525974444
 40
0.7874890719
 40
0.8214332479
 40
0.854305635
 40
0.8860140699
 40
0.9456325003
 40
0.9734903337
 40
1.0
 40
1.0
 40
1.0
 40
1.0
 10
17.0693280588
 20
12.0523996722
 30
0.0
 10
17.0684524133
 20
12.0495681826
 30
0.0
 10
17.0662701099
 20
12.0439863692
 30
0.0
 10
17.0617938189
 20
12.0360855864
 30
0.0
 10
17.0561363875
 20
12.0286864032
 30
0.0
 10
17.0468813729
 20
12.0193705811
 30
0.0
 10
17.0355359827
 20
12.0114853314
 30
0.0
 10
17.0226948607
 20
12.0050775108
 30
0.0
 10
17.0080086694
 20
11.9993130577
 30
0.0
 10
16.9875679482
 20
11.9940985455
 30
0.0
 10
16.9658020777
 20
11.9915888424
 30
0.0
 10
16.9473650737
 20
11.9910755322
 30
0.0
 10
16.9278950508
 20
11.9916151488
 30
0.0
 10
16.902984593
 20
11.9943142433
 30
0.0
 10
16.8781257282
 20
11.99949817
 30
0.0
 10
16.8583380729
 20
12.005113921
 30
0.0
 10
16.8388382411
 20
12.0116546798
 30
0.0
 10
16.8154003638
 20
12.0214152564
 30
0.0
 10
16.7933252127
 20
12.0332565135
 30
0.0
 10
16.7769605373
 20
12.0438053934
 30
0.0
 10
16.765585795
 20
12.0520657166
 30
0.0
 10
16.7550591283
 20
12.0607084461
 30
0.0
 10
16.7425090672
 20
12.072416523
 30
0.0
 10
16.7316030952
 20
12.0848500325
 30
0.0
 10
16.7227548044
 20
12.0978935327
 30
0.0
 10
16.7191012282
 20
12.1044709233
 30
0.0
 10
16.7174879252
 20
12.1077584891
 30
0.0
  0
SPLINE
  5
315
100
AcDbEntity
  8
0
100
AcDbSpline
 62
7
  6
CONTINUOUS
 70
0
 71
3
 72
9
 73
5
 74
0
 42
0.0000001
 43
0.0000001
 44
0.0000000001
 40
0.0
 40
0.0
 40
0.0
 40
0.0
 40
0.503056408
 40
1.0
 40
1.0
 40
1.0
 40
1.0
 10
15.0004737981
 20
13.4569642652
 30
0.0
 10
15.0019310468
 20
13.4655485295
 30
0.0
 10
15.0060563779
 20
13.4824279973
 30
0.0
 10
15.0126035224
 20
13.4985281704
 30
0.0
 10
15.0164373361
 20
13.5062277657
 30
0.0
  0
SPLINE
  5
316
100
AcDbEntity
  8
0
100
AcDbSpline
 62
7
  6
CONTINUOUS
 70
0
 71
3
 72
23
 73
19
 74
0
 42
0.0000001
 43
0.0000001
 44
0.0000000001
 40
0.0
 40
0.0
 40
0.0
 40
0.0
 40
0.0654982901
 40
0.1282161009
 40
0.1884155768
 40
0.2464993213
 40
0.303046474
 40
0.3587186755
 40
0.4142243962
 40
0.4702669276
 40
0.5275185908
 40
0.5865870621
 40
0.6479771477
 40
0.7120954874
 40
0.7792267469
 40
0.849544319
 40
0.9231394864
 40
1.0
 40
1.0
 40
1.0
 40
1.0
 10
16.0460114122
 20
13.4130131335
 30
0.0
 10
16.0443797182
 20
13.4163381765
 30
0.0
 10
16.0414858618
 20
13.4230011823
 30
0.0
 10
16.0382656732
 20
13.4331783028
 30
0.0
 10
16.0362913055
 20
13.4432458573
 30
0.0
 10
16.0355921874
 20
13.4531340824
 30
0.0
 10
16.0361691891
 20
13.4627758505
 30
0.0
 10
16.0380240909
 20
13.4721082132
 30
0.0
 10
16.0411473886
 20
13.4810657547
 30
0.0
 10
16.0455098965
 20
13.4895889968
 30
0.0
 10
16.0510855838
 20
13.4976174394
 30
0.0
 10
16.057832658
 20
13.5050985412
 30
0.0
 10
16.0656998985
 20
13.5119914793
 30
0.0
 10
16.0746394249
 20
13.5182508155
 30
0.0
 10
16.084590679
 20
13.5238433471
 30
0.0
 10
16.0954906728
 20
13.5287392294
 30
0.0
 10
16.1072730923
 20
13.5329037906
 30
0.0
 10
16.1154928805
 20
13.5351325257
 30
0.0
 10
16.1197237367
 20
13.5361277929
 30
0.0
  0
SPLINE
  5
317
100
AcDbEntity
  8
0
100
AcDbSpline
 62
7
  6
CONTINUOUS
 70
0
 71
3
 72
36
 73
32
 74
0
 42
0.0000001
 43
0.0000001
 44
0.0000000001
 40
0.0
 40
0.0
 40
0.0
 40
0.0
 40
0.0262371859
 40
0.0511150082
 40
0.074823459
 40
0.0976788144
 40
0.1200827943
 40
0.14247227
 40
0.1652767859
 40
0.1888921291
 40
0.2136441691
 40
0.2397809593
 40
0.2674587201
 40
0.2967586803
 40
0.3276903283
 40
0.3602024377
 40
0.3941982812
 40
0.4295338256
 40
0.4660385091
 40
0.5035089599
 40
0.5417250392
 40
0.5804501018
 40
0.6584034326
 40
0.7353926645
 40
0.8094907773
 40
0.8449326956
 40
0.8790411402
 40
0.9116797764
 40
0.9427569076
 40
0.9722091849
 40
1.0
 40
1.0
 40
1.0
 40
1.0
 10
16.4282517248
 20
13.4130131335
 30
0.0
 10
16.4302621622
 20
13.4089162927
 30
0.0
 10
16.4337263987
 20
13.4006996453
 30
0.0
 10
16.4371903895
 20
13.3881133236
 30
0.0
 10
16.4387137726
 20
13.3757315559
 30
0.0
 10
16.4382670112
 20
13.3636897318
 30
0.0
 10
16.4358455371
 20
13.3521157945
 30
0.0
 10
16.431471652
 20
13.3411397173
 30
0.0
 10
16.4252036364
 20
13.3308797269
 30
0.0
 10
16.4171089871
 20
13.3214490801
 30
0.0
 10
16.4072910446
 20
13.3129267072
 30
0.0
 10
16.395845938
 20
13.3053947919
 30
0.0
 10
16.3828934916
 20
13.2989076571
 30
0.0
 10
16.3685541436
 20
13.2935268926
 30
0.0
 10
16.352965652
 20
13.2892956777
 30
0.0
 10
16.3362746699
 20
13.2862505057
 30
0.0
 10
16.3186389979
 20
13.2844229684
 30
0.0
 10
16.3002259623
 20
13.2838223931
 30
0.0
 10
16.2812108216
 20
13.2844628264
 30
0.0
 10
16.2617744634
 20
13.2863290639
 30
0.0
 10
16.2421023755
 20
13.2894107441
 30
0.0
 10
16.2157575658
 20
13.2951057408
 30
0.0
 10
16.1834770638
 20
13.3050016744
 30
0.0
 10
16.1468551965
 20
13.320886126
 30
0.0
 10
16.1187299216
 20
13.3372455884
 30
0.0
 10
16.0984712182
 20
13.3518982086
 30
0.0
 10
16.0848260946
 20
13.3633137534
 30
0.0
 10
16.0726352671
 20
13.3752091935
 30
0.0
 10
16.0620135708
 20
13.3874766484
 30
0.0
 10
16.0530714156
 20
13.3999957378
 30
0.0
 10
16.0481408973
 20
13.4086736992
 30
0.0
 10
16.0460114122
 20
13.4130131335
 30
0.0
  0
SPLINE
  5
318
100
AcDbEntity
  8
0
100
AcDbSpline
 62
7
  6
CONTINUOUS
 70
0
 71
3
 72
19
 73
15
 74
0
 42
0.0000001
 43
0.0000001
 44
0.0000000001
 40
0.0
 40
0.0
 40
0.0
 40
0.0
 40
0.0652610881
 40
0.1308366428
 40
0.2622077992
 40
0.392921278
 40
0.457702463
 40
0.521908763
 40
0.5854040103
 40
0.6480590811
 40
0.7703380775
 40
0.8879085033
 40
0.9446954581
 40
1.0
 40
1.0
 40
1.0
 40
1.0
 10
15.592546216
 20
13.377493115
 30
0.0
 10
15.6121756974
 20
13.3734242996
 30
0.0
 10
15.6513963018
 20
13.364608796
 30
0.0
 10
15.7293697831
 20
13.3443763975
 30
0.0
 10
15.8255121056
 20
13.3143367806
 30
0.0
 10
15.9192659872
 20
13.2781830477
 30
0.0
 10
15.9921816206
 20
13.2457904441
 30
0.0
 10
16.0453850799
 20
13.2199696974
 30
0.0
 10
16.0970876018
 20
13.1926305222
 30
0.0
 10
16.1632585353
 20
13.1545923126
 30
0.0
 10
16.2412765434
 20
13.1039508848
 30
0.0
 10
16.3137077302
 20
13.0484822528
 30
0.0
 10
16.3668499526
 20
13.0020560293
 30
0.0
 10
16.391753682
 20
12.9782570851
 30
0.0
 10
16.4037503147
 20
12.9662286361
 30
0.0
  0
SPLINE
  5
319
100
AcDbEntity
  8
0
100
AcDbSpline
 62
7
  6
CONTINUOUS
 70
0
 71
3
 72
13
 73
9
 74
0
 42
0.0000001
 43
0.0000001
 44
0.0000000001
 40
0.0
 40
0.0
 40
0.0
 40
0.0
 40
0.2711952982
 40
0.5251947347
 40
0.6469921354
 40
0.7661612324
 40
0.8835343107
 40
1.0
 40
1.0
 40
1.0
 40
1.0
 10
16.0692739586
 20
13.4286796717
 30
0.0
 10
16.0670015591
 20
13.433310335
 30
0.0
 10
16.0632340181
 20
13.4426116684
 30
0.0
 10
16.0605863173
 20
13.4547045319
 30
0.0
 10
16.0599435815
 20
13.4641110905
 30
0.0
 10
16.0601689498
 20
13.4709355377
 30
0.0
 10
16.0610936789
 20
13.4775979169
 30
0.0
 10
16.0621772235
 20
13.4819221794
 30
0.0
 10
16.0628316977
 20
13.4840384886
 30
0.0
  0
SPLINE
  5
31A
100
AcDbEntity
  8
0
100
AcDbSpline
 62
7
  6
CONTINUOUS
 70
0
 71
3
 72
14
 73
10
 74
0
 42
0.0000001
 43
0.0000001
 44
0.0000000001
 40
0.0
 40
0.0
 40
0.0
 40
0.0
 40
0.2440497179
 40
0.3671076125
 40
0.4910976785
 40
0.6162347379
 40
0.7428087639
 40
0.8708126577
 40
1.0
 40
1.0
 40
1.0
 40
1.0
 10
15.5158454713
 20
13.4080985993
 30
0.0
 10
15.5219181549
 20
13.4051875526
 30
0.0
 10
15.5310304264
 20
13.4007616006
 30
0.0
 10
15.5433062714
 20
13.395020863
 30
0.0
 10
15.5526835483
 20
13.3908304251
 30
0.0
 10
15.5622607309
 20
13.3868568337
 30
0.0
 10
15.572076715
 20
13.3831833371
 30
0.0
 10
15.5821634747
 20
13.3799425883
 30
0.0
 10
15.5890555894
 20
13.3782166551
 30
0.0
 10
15.592546216
 20
13.377493115
 30
0.0
  0
SPLINE
  5
31B
100
AcDbEntity
  8
0
100
AcDbSpline
 62
7
  6
CONTINUOUS
 70
0
 71
3
 72
12
 73
8
 74
0
 42
0.0000001
 43
0.0000001
 44
0.0000000001
 40
0.0
 40
0.0
 40
0.0
 40
0.0
 40
0.2466823172
 40
0.5222742828
 40
0.6580592324
 40
0.7850980253
 40
1.0
 40
1.0
 40
1.0
 40
1.0
 10
15.513931399
 20
13.4593682156
 30
0.0
 10
15.5127358745
 20
13.4593517069
 30
0.0
 10
15.5102037723
 20
13.4589325968
 30
0.0
 10
15.5072595749
 20
13.4576047719
 30
0.0
 10
15.505147381
 20
13.4560555194
 30
0.0
 10
15.5035030749
 20
13.4544201701
 30
0.0
 10
15.5026006049
 20
13.4529757498
 30
0.0
 10
15.502250716
 20
13.4519946714
 30
0.0
  0
SPLINE
  5
31C
100
AcDbEntity
  8
0
100
AcDbSpline
 62
7
  6
CONTINUOUS
 70
0
 71
3
 72
11
 73
7
 74
0
 42
0.0000001
 43
0.0000001
 44
0.0000000001
 40
0.0
 40
0.0
 40
0.0
 40
0.0
 40
0.2429223822
 40
0.4921128352
 40
0.7457023513
 40
1.0
 40
1.0
 40
1.0
 40
1.0
 10
15.4256470116
 20
13.1750215188
 30
0.0
 10
15.4265796495
 20
13.17467909
 30
0.0
 10
15.4285179935
 20
13.1741108364
 30
0.0
 10
15.4315465709
 20
13.1736710958
 30
0.0
 10
15.4346524975
 20
13.1736736866
 30
0.0
 10
15.4367185125
 20
13.1739943079
 30
0.0
 10
15.4377236132
 20
13.1742616103
 30
0.0
  0
SPLINE
  5
31D
100
AcDbEntity
  8
0
100
AcDbSpline
 62
7
  6
CONTINUOUS
 70
0
 71
3
 72
9
 73
5
 74
0
 42
0.0000001
 43
0.0000001
 44
0.0000000001
 40
0.0
 40
0.0
 40
0.0
 40
0.0
 40
0.2573433783
 40
1.0
 40
1.0
 40
1.0
 40
1.0
 10
17.0517435404
 20
12.1275047828
 30
0.0
 10
17.0530890508
 20
12.1260324176
 30
0.0
 10
17.0582279716
 20
12.1202303437
 30
0.0
 10
17.0629964679
 20
12.1140961884
 30
0.0
 10
17.0662680858
 20
12.1093603504
 30
0.0
  0
SPLINE
  5
31E
100
AcDbEntity
  8
0
100
AcDbSpline
 62
7
  6
CONTINUOUS
 70
0
 71
3
 72
9
 73
5
 74
0
 42
0.0000001
 43
0.0000001
 44
0.0000000001
 40
0.0
 40
0.0
 40
0.0
 40
0.0
 40
0.2576829498
 40
1.0
 40
1.0
 40
1.0
 40
1.0
 10
17.0662680858
 20
12.1093603504
 30
0.0
 10
17.0672476639
 20
12.1079423598
 30
0.0
 10
17.0709554991
 20
12.1023759384
 30
0.0
 10
17.0742784849
 20
12.0965490091
 30
0.0
 10
17.0764656914
 20
12.092091951
 30
0.0
  0
SPLINE
  5
31F
100
AcDbEntity
  8
0
100
AcDbSpline
 62
7
  6
CONTINUOUS
 70
0
 71
3
 72
11
 73
7
 74
0
 42
0.0000001
 43
0.0000001
 44
0.0000000001
 40
0.0
 40
0.0
 40
0.0
 40
0.0
 40
0.2154164699
 40
0.4555986372
 40
0.7182683878
 40
1.0
 40
1.0
 40
1.0
 40
1.0
 10
14.9632376466
 20
13.1742616103
 30
0.0
 10
14.9638911611
 20
13.1739801048
 30
0.0
 10
14.9653895036
 20
13.1736609295
 30
0.0
 10
14.9677714305
 20
13.1736842176
 30
0.0
 10
14.970332971
 20
13.1741432155
 30
0.0
 10
14.97204975
 20
13.1746931562
 30
0.0
 10
14.9729205141
 20
13.1750215188
 30
0.0
  0
SPLINE
  5
320
100
AcDbEntity
  8
0
100
AcDbSpline
 62
7
  6
CONTINUOUS
 70
0
 71
3
 72
14
 73
10
 74
0
 42
0.0000001
 43
0.0000001
 44
0.0000000001
 40
0.0
 40
0.0
 40
0.0
 40
0.0
 40
0.1177816301
 40
0.246738277
 40
0.5220403343
 40
0.6577112609
 40
0.784617787
 40
0.8990516128
 40
1.0
 40
1.0
 40
1.0
 40
1.0
 10
15.4278427672
 20
13.6620899825
 30
0.0
 10
15.4272698623
 20
13.6620837213
 30
0.0
 10
15.426069292
 20
13.6619805531
 30
0.0
 10
15.4235853021
 20
13.6614291638
 30
0.0
 10
15.4211520699
 20
13.6603366572
 30
0.0
 10
15.4190341652
 20
13.6587885905
 30
0.0
 10
15.4177262697
 20
13.6574911802
 30
0.0
 10
15.4167487912
 20
13.6561341911
 30
0.0
 10
15.4162909642
 20
13.6551837117
 30
0.0
 10
15.4161257812
 20
13.6547212728
 30
0.0
  0
LINE
  5
321
100
AcDbEntity
  8
0
100
AcDbLine
 62
7
  6
CONTINUOUS
 10
14.9593236955
 20
13.377493115
 11
14.9646144863
 21
13.3790097413
  0
SPLINE
  5
322
100
AcDbEntity
  8
0
100
AcDbSpline
 62
7
  6
CONTINUOUS
 70
0
 71
3
 72
23
 73
19
 74
0
 42
0.0000001
 43
0.0000001
 44
0.0000000001
 40
0.0
 40
0.0
 40
0.0
 40
0.0
 40
0.0654982901
 40
0.1282161009
 40
0.1884155768
 40
0.2464993213
 40
0.303046474
 40
0.3587186755
 40
0.4142243962
 40
0.4702669276
 40
0.5275185908
 40
0.5865870621
 40
0.6479771477
 40
0.7120954874
 40
0.7792267469
 40
0.849544319
 40
0.9231394864
 40
1.0
 40
1.0
 40
1.0
 40
1.0
 10
14.0887568
 20
13.4130131335
 30
0.0
 10
14.0871251059
 20
13.4163381765
 30
0.0
 10
14.0842312495
 20
13.4230011823
 30
0.0
 10
14.0810110609
 20
13.4331783028
 30
0.0
 10
14.0790366932
 20
13.4432458573
 30
0.0
 10
14.0783375752
 20
13.4531340824
 30
0.0
 10
14.0789145768
 20
13.4627758505
 30
0.0
 10
14.0807694786
 20
13.4721082132
 30
0.0
 10
14.0838927763
 20
13.4810657547
 30
0.0
 10
14.0882552843
 20
13.4895889968
 30
0.0
 10
14.0938309715
 20
13.4976174394
 30
0.0
 10
14.1005780458
 20
13.5050985412
 30
0.0
 10
14.1084452863
 20
13.5119914793
 30
0.0
 10
14.1173848126
 20
13.5182508155
 30
0.0
 10
14.1273360668
 20
13.5238433471
 30
0.0
 10
14.1382360606
 20
13.5287392294
 30
0.0
 10
14.1500184801
 20
13.5329037906
 30
0.0
 10
14.1582382683
 20
13.5351325257
 30
0.0
 10
14.1624691245
 20
13.5361277929
 30
0.0
  0
SPLINE
  5
323
100
AcDbEntity
  8
0
100
AcDbSpline
 62
7
  6
CONTINUOUS
 70
0
 71
3
 72
36
 73
32
 74
0
 42
0.0000001
 43
0.0000001
 44
0.0000000001
 40
0.0
 40
0.0
 40
0.0
 40
0.0
 40
0.0262371859
 40
0.0511150082
 40
0.074823459
 40
0.0976788144
 40
0.1200827943
 40
0.14247227
 40
0.1652767859
 40
0.1888921291
 40
0.2136441691
 40
0.2397809593
 40
0.2674587201
 40
0.2967586803
 40
0.3276903283
 40
0.3602024377
 40
0.3941982812
 40
0.4295338256
 40
0.4660385091
 40
0.5035089599
 40
0.5417250392
 40
0.5804501018
 40
0.6584034326
 40
0.7353926645
 40
0.8094907773
 40
0.8449326956
 40
0.8790411402
 40
0.9116797764
 40
0.9427569076
 40
0.9722091849
 40
1.0
 40
1.0
 40
1.0
 40
1.0
 10
14.4709971125
 20
13.4130131335
 30
0.0
 10
14.47300755
 20
13.4089162927
 30
0.0
 10
14.4764717864
 20
13.4006996453
 30
0.0
 10
14.4799357772
 20
13.3881133236
 30
0.0
 10
14.4814591603
 20
13.3757315559
 30
0.0
 10
14.4810123989
 20
13.3636897318
 30
0.0
 10
14.4785909249
 20
13.3521157945
 30
0.0
 10
14.4742170397
 20
13.3411397173
 30
0.0
 10
14.4679490241
 20
13.3308797269
 30
0.0
 10
14.4598543749
 20
13.3214490801
 30
0.0
 10
14.4500364324
 20
13.3129267072
 30
0.0
 10
14.4385913257
 20
13.3053947919
 30
0.0
 10
14.4256388793
 20
13.2989076571
 30
0.0
 10
14.4112995313
 20
13.2935268926
 30
0.0
 10
14.3957110398
 20
13.2892956777
 30
0.0
 10
14.3790200576
 20
13.2862505057
 30
0.0
 10
14.3613843857
 20
13.2844229684
 30
0.0
 10
14.34297135
 20
13.2838223931
 30
0.0
 10
14.3239562094
 20
13.2844628264
 30
0.0
 10
14.3045198511
 20
13.2863290639
 30
0.0
 10
14.2848477632
 20
13.2894107441
 30
0.0
 10
14.2585029536
 20
13.2951057408
 30
0.0
 10
14.2262224516
 20
13.3050016744
 30
0.0
 10
14.1896005843
 20
13.320886126
 30
0.0
 10
14.1614753094
 20
13.3372455884
 30
0.0
 10
14.1412166059
 20
13.3518982086
 30
0.0
 10
14.1275714823
 20
13.3633137534
 30
0.0
 10
14.1153806548
 20
13.3752091935
 30
0.0
 10
14.1047589585
 20
13.3874766484
 30
0.0
 10
14.0958168033
 20
13.3999957378
 30
0.0
 10
14.0908862851
 20
13.4086736992
 30
0.0
 10
14.0887568
 20
13.4130131335
 30
0.0
  0
SPLINE
  5
324
100
AcDbEntity
  8
0
100
AcDbSpline
 62
7
  6
CONTINUOUS
 70
0
 71
3
 72
31
 73
27
 74
0
 42
0.0000001
 43
0.0000001
 44
0.0000000001
 40
0.0
 40
0.0
 40
0.0
 40
0.0
 40
0.021454811
 40
0.0432074377
 40
0.0655320598
 40
0.0886718501
 40
0.1380510966
 40
0.1646123263
 40
0.1924792994
 40
0.2521128924
 40
0.3167063908
 40
0.3506680895
 40
0.3855722133
 40
0.4576376974
 40
0.5317125364
 40
0.5691013725
 40
0.6064885288
 40
0.6805522092
 40
0.7525974444
 40
0.7874890719
 40
0.8214332479
 40
0.854305635
 40
0.8860140699
 40
0.9456325003
 40
0.9734903337
 40
1.0
 40
1.0
 40
1.0
 40
1.0
 10
14.46385948
 20
13.3733208548
 30
0.0
 10
14.4629838344
 20
13.3704893652
 30
0.0
 10
14.4608015311
 20
13.3649075518
 30
0.0
 10
14.45632524
 20
13.357006769
 30
0.0
 10
14.4506678087
 20
13.3496075858
 30
0.0
 10
14.4414127941
 20
13.3402917637
 30
0.0
 10
14.4300674039
 20
13.332406514
 30
0.0
 10
14.4172262818
 20
13.3259986934
 30
0.0
 10
14.4025400906
 20
13.3202342403
 30
0.0
 10
14.3820993693
 20
13.3150197281
 30
0.0
 10
14.3603334989
 20
13.3125100249
 30
0.0
 10
14.3418964948
 20
13.3119967148
 30
0.0
 10
14.322426472
 20
13.3125363314
 30
0.0
 10
14.2975160141
 20
13.3152354259
 30
0.0
 10
14.2726571493
 20
13.3204193525
 30
0.0
 10
14.2528694941
 20
13.3260351036
 30
0.0
 10
14.2333696623
 20
13.3325758624
 30
0.0
 10
14.2099317849
 20
13.3423364389
 30
0.0
 10
14.1878566339
 20
13.3541776961
 30
0.0
 10
14.1714919584
 20
13.364726576
 30
0.0
 10
14.1601172162
 20
13.3729868992
 30
0.0
 10
14.1495905494
 20
13.3816296286
 30
0.0
 10
14.1370404883
 20
13.3933377056
 30
0.0
 10
14.1261345164
 20
13.4057712151
 30
0.0
 10
14.1172862256
 20
13.4188147153
 30
0.0
 10
14.1136326493
 20
13.4253921059
 30
0.0
 10
14.1120193463
 20
13.4286796717
 30
0.0
  0
SPLINE
  5
325
100
AcDbEntity
  8
0
100
AcDbSpline
 62
7
  6
CONTINUOUS
 70
0
 71
3
 72
13
 73
9
 74
0
 42
0.0000001
 43
0.0000001
 44
0.0000000001
 40
0.0
 40
0.0
 40
0.0
 40
0.0
 40
0.2711952982
 40
0.5251947347
 40
0.6469921354
 40
0.7661612324
 40
0.8835343107
 40
1.0
 40
1.0
 40
1.0
 40
1.0
 10
14.1120193463
 20
13.4286796717
 30
0.0
 10
14.1097469468
 20
13.433310335
 30
0.0
 10
14.1059794058
 20
13.4426116684
 30
0.0
 10
14.103331705
 20
13.4547045319
 30
0.0
 10
14.1026889693
 20
13.4641110905
 30
0.0
 10
14.1029143375
 20
13.4709355377
 30
0.0
 10
14.1038390666
 20
13.4775979169
 30
0.0
 10
14.1049226113
 20
13.4819221794
 30
0.0
 10
14.1055770854
 20
13.4840384886
 30
0.0
  0
SPLINE
  5
326
100
AcDbEntity
  8
0
100
AcDbSpline
 62
7
  6
CONTINUOUS
 70
0
 71
3
 72
9
 73
5
 74
0
 42
0.0000001
 43
0.0000001
 44
0.0000000001
 40
0.0
 40
0.0
 40
0.0
 40
0.0
 40
0.2573433783
 40
1.0
 40
1.0
 40
1.0
 40
1.0
 10
14.4462749616
 20
13.4484259654
 30
0.0
 10
14.447620472
 20
13.4469536002
 30
0.0
 10
14.4527593927
 20
13.4411515262
 30
0.0
 10
14.4575278891
 20
13.435017371
 30
0.0
 10
14.4607995069
 20
13.4302815329
 30
0.0
  0
SPLINE
  5
327
100
AcDbEntity
  8
0
100
AcDbSpline
 62
7
  6
CONTINUOUS
 70
0
 71
3
 72
9
 73
5
 74
0
 42
0.0000001
 43
0.0000001
 44
0.0000000001
 40
0.0
 40
0.0
 40
0.0
 40
0.0
 40
0.2576829498
 40
1.0
 40
1.0
 40
1.0
 40
1.0
 10
14.4607995069
 20
13.4302815329
 30
0.0
 10
14.461779085
 20
13.4288635424
 30
0.0
 10
14.4654869203
 20
13.4232971209
 30
0.0
 10
14.468809906
 20
13.4174701917
 30
0.0
 10
14.4709971125
 20
13.4130131335
 30
0.0
  0
SPLINE
  5
328
100
AcDbEntity
  8
03__ASM_ALL_CURVES
100
AcDbSpline
 62
8
  6
PHANTOM
 70
0
 71
3
 72
399
 73
395
 74
0
 42
0.0000001
 43
0.0000001
 44
0.0000000001
 40
0.0
 40
0.0
 40
0.0
 40
0.0
 40
0.015625
 40
0.0234375
 40
0.03125
 40
0.0390625
 40
0.04296875
 40
0.046875
 40
0.05078125
 40
0.0546875
 40
0.056640625
 40
0.05859375
 40
0.0595703125
 40
0.060546875
 40
0.0615234375
 40
0.0620117188
 40
0.0622558594
 40
0.0625
 40
0.0627441406
 40
0.0629882812
 40
0.0634765625
 40
0.064453125
 40
0.0654296875
 40
0.06640625
 40
0.068359375
 40
0.0703125
 40
0.07421875
 40
0.078125
 40
0.08203125
 40
0.0859375
 40
0.09375
 40
0.1015625
 40
0.10546875
 40
0.109375
 40
0.11328125
 40
0.1171875
 40
0.119140625
 40
0.12109375
 40
0.1220703125
 40
0.123046875
 40
0.1240234375
 40
0.1245117188
 40
0.1247558594
 40
0.125
 40
0.1252441406
 40
0.1254882812
 40
0.1259765625
 40
0.126953125
 40
0.1279296875
 40
0.12890625
 40
0.130859375
 40
0.1328125
 40
0.13671875
 40
0.140625
 40
0.14453125
 40
0.1484375
 40
0.15625
 40
0.1640625
 40
0.16796875
 40
0.171875
 40
0.17578125
 40
0.1796875
 40
0.181640625
 40
0.18359375
 40
0.1845703125
 40
0.185546875
 40
0.1865234375
 40
0.1870117188
 40
0.1872558594
 40
0.1875
 40
0.1877441406
 40
0.1879882812
 40
0.1884765625
 40
0.189453125
 40
0.1904296875
 40
0.19140625
 40
0.193359375
 40
0.1953125
 40
0.19921875
 40
0.203125
 40
0.20703125
 40
0.2109375
 40
0.21875
 40
0.2265625
 40
0.23046875
 40
0.234375
 40
0.23828125
 40
0.2421875
 40
0.244140625
 40
0.24609375
 40
0.2470703125
 40
0.248046875
 40
0.2490234375
 40
0.2495117188
 40
0.2497558594
 40
0.25
 40
0.2502441406
 40
0.2504882812
 40
0.2509765625
 40
0.251953125
 40
0.2529296875
 40
0.25390625
 40
0.255859375
 40
0.2578125
 40
0.26171875
 40
0.265625
 40
0.26953125
 40
0.2734375
 40
0.28125
 40
0.2890625
 40
0.29296875
 40
0.296875
 40
0.30078125
 40
0.3046875
 40
0.306640625
 40
0.30859375
 40
0.3095703125
 40
0.310546875
 40
0.3115234375
 40
0.3120117188
 40
0.3125
 40
0.3129882812
 40
0.3134765625
 40
0.314453125
 40
0.3154296875
 40
0.31640625
 40
0.318359375
 40
0.3203125
 40
0.32421875
 40
0.328125
 40
0.33203125
 40
0.3359375
 40
0.34375
 40
0.3515625
 40
0.35546875
 40
0.359375
 40
0.36328125
 40
0.3671875
 40
0.369140625
 40
0.37109375
 40
0.3720703125
 40
0.373046875
 40
0.3740234375
 40
0.3745117188
 40
0.375
 40
0.3754882812
 40
0.3759765625
 40
0.376953125
 40
0.3779296875
 40
0.37890625
 40
0.380859375
 40
0.3828125
 40
0.38671875
 40
0.390625
 40
0.39453125
 40
0.3984375
 40
0.40625
 40
0.4140625
 40
0.41796875
 40
0.421875
 40
0.42578125
 40
0.4296875
 40
0.431640625
 40
0.43359375
 40
0.4345703125
 40
0.435546875
 40
0.4365234375
 40
0.4370117188
 40
0.4372558594
 40
0.4375
 40
0.4377441406
 40
0.4379882812
 40
0.4384765625
 40
0.439453125
 40
0.4404296875
 40
0.44140625
 40
0.443359375
 40
0.4453125
 40
0.44921875
 40
0.453125
 40
0.45703125
 40
0.4609375
 40
0.46875
 40
0.4765625
 40
0.48046875
 40
0.484375
 40
0.48828125
 40
0.4921875
 40
0.494140625
 40
0.49609375
 40
0.4970703125
 40
0.498046875
 40
0.4990234375
 40
0.4995117188
 40
0.4997558594
 40
0.5
 40
0.5002441406
 40
0.5004882812
 40
0.5009765625
 40
0.501953125
 40
0.5029296875
 40
0.50390625
 40
0.505859375
 40
0.5078125
 40
0.51171875
 40
0.515625
 40
0.51953125
 40
0.5234375
 40
0.53125
 40
0.5390625
 40
0.54296875
 40
0.546875
 40
0.55078125
 40
0.5546875
 40
0.556640625
 40
0.55859375
 40
0.5595703125
 40
0.560546875
 40
0.5615234375
 40
0.5620117188
 40
0.5622558594
 40
0.5625
 40
0.5627441406
 40
0.5629882812
 40
0.5634765625
 40
0.564453125
 40
0.5654296875
 40
0.56640625
 40
0.568359375
 40
0.5703125
 40
0.57421875
 40
0.578125
 40
0.58203125
 40
0.5859375
 40
0.59375
 40
0.6015625
 40
0.60546875
 40
0.609375
 40
0.61328125
 40
0.6171875
 40
0.619140625
 40
0.62109375
 40
0.6220703125
 40
0.623046875
 40
0.6240234375
 40
0.6245117188
 40
0.6247558594
 40
0.625
 40
0.6252441406
 40
0.6254882812
 40
0.6259765625
 40
0.626953125
 40
0.6279296875
 40
0.62890625
 40
0.630859375
 40
0.6328125
 40
0.63671875
 40
0.640625
 40
0.64453125
 40
0.6484375
 40
0.65625
 40
0.6640625
 40
0.66796875
 40
0.671875
 40
0.67578125
 40
0.6796875
 40
0.681640625
 40
0.68359375
 40
0.6845703125
 40
0.685546875
 40
0.6865234375
 40
0.6870117188
 40
0.6872558594
 40
0.6875
 40
0.6877441406
 40
0.6879882812
 40
0.6884765625
 40
0.689453125
 40
0.6904296875
 40
0.69140625
 40
0.693359375
 40
0.6953125
 40
0.69921875
 40
0.703125
 40
0.70703125
 40
0.7109375
 40
0.71875
 40
0.7265625
 40
0.73046875
 40
0.734375
 40
0.73828125
 40
0.7421875
 40
0.744140625
 40
0.74609375
 40
0.7470703125
 40
0.748046875
 40
0.7490234375
 40
0.7495117188
 40
0.7497558594
 40
0.75
 40
0.7502441406
 40
0.7504882812
 40
0.7509765625
 40
0.751953125
 40
0.7529296875
 40
0.75390625
 40
0.755859375
 40
0.7578125
 40
0.76171875
 40
0.765625
 40
0.76953125
 40
0.7734375
 40
0.78125
 40
0.7890625
 40
0.79296875
 40
0.796875
 40
0.80078125
 40
0.8046875
 40
0.806640625
 40
0.80859375
 40
0.8095703125
 40
0.810546875
 40
0.8115234375
 40
0.8120117188
 40
0.8122558594
 40
0.8125
 40
0.8127441406
 40
0.8129882812
 40
0.8134765625
 40
0.814453125
 40
0.8154296875
 40
0.81640625
 40
0.818359375
 40
0.8203125
 40
0.82421875
 40
0.828125
 40
0.83203125
 40
0.8359375
 40
0.84375
 40
0.8515625
 40
0.85546875
 40
0.859375
 40
0.86328125
 40
0.8671875
 40
0.869140625
 40
0.87109375
 40
0.8720703125
 40
0.873046875
 40
0.8740234375
 40
0.8745117188
 40
0.8747558594
 40
0.875
 40
0.8752441406
 40
0.8754882812
 40
0.8759765625
 40
0.876953125
 40
0.8779296875
 40
0.87890625
 40
0.880859375
 40
0.8828125
 40
0.88671875
 40
0.890625
 40
0.89453125
 40
0.8984375
 40
0.90625
 40
0.9140625
 40
0.91796875
 40
0.921875
 40
0.92578125
 40
0.9296875
 40
0.931640625
 40
0.93359375
 40
0.9345703125
 40
0.935546875
 40
0.9365234375
 40
0.9370117188
 40
0.9372558594
 40
0.9375
 40
0.9377441406
 40
0.9379882812
 40
0.9384765625
 40
0.939453125
 40
0.9404296875
 40
0.94140625
 40
0.943359375
 40
0.9453125
 40
0.94921875
 40
0.953125
 40
0.95703125
 40
0.9609375
 40
0.96875
 40
0.9765625
 40
0.984375
 40
1.0
 40
1.0
 40
1.0
 40
1.0
 10
17.185617179
 20
12.16505736
 30
0.0
 10
17.1732186204
 20
12.1845515177
 30
0.0
 10
17.1546207825
 20
12.2137927542
 30
0.0
 10
17.1298236654
 20
12.2527810696
 30
0.0
 10
17.1112258271
 20
12.2820223061
 30
0.0
 10
17.0957276302
 20
12.3063900034
 30
0.0
 10
17.0833290688
 20
12.3258841607
 30
0.0
 10
17.0740301583
 20
12.3405047802
 30
0.0
 10
17.0647312076
 20
12.3551253939
 30
0.0
 10
17.0569822072
 20
12.3673092566
 30
0.0
 10
17.0507827266
 20
12.3770563066
 30
0.0
 10
17.0469086894
 20
12.3831483042
 30
0.0
 10
17.0438079981
 20
12.3880216932
 30
0.0
 10
17.0414864812
 20
12.3916773072
 30
0.0
 10
17.0395391544
 20
12.3947218318
 30
0.0
 10
17.0382010065
 20
12.3968565715
 30
0.0
 10
17.037397345
 20
12.3980708447
 30
0.0
 10
17.0369044782
 20
12.3989972632
 30
0.0
 10
17.035991597
 20
12.399863616
 30
0.0
 10
17.0349209278
 20
12.4010397047
 30
0.0
 10
17.032978997
 20
12.4030880982
 30
0.0
 10
17.0302404971
 20
12.4060194781
 30
0.0
 10
17.026939022
 20
12.4095349495
 30
0.0
 10
17.0225423905
 20
12.4142230077
 30
0.0
 10
17.0170447744
 20
12.4200828192
 30
0.0
 10
17.0082496095
 20
12.4294586636
 30
0.0
 10
16.9972553031
 20
12.4411784191
 30
0.0
 10
16.9840622857
 20
12.4552421471
 30
0.0
 10
16.970869228
 20
12.4693058693
 30
0.0
 10
16.9532784985
 20
12.488057501
 30
0.0
 10
16.9312900814
 20
12.5114970398
 30
0.0
 10
16.9093016677
 20
12.5349365793
 30
0.0
 10
16.8917109329
 20
12.5536882098
 30
0.0
 10
16.8785178911
 20
12.5677519356
 30
0.0
 10
16.8653248142
 20
12.5818156502
 30
0.0
 10
16.8543306925
 20
12.5935354474
 30
0.0
 10
16.845535151
 20
12.6029112066
 30
0.0
 10
16.8400384934
 20
12.6087712351
 30
0.0
 10
16.8356398944
 20
12.6134588479
 30
0.0
 10
16.8323444303
 20
12.6169756802
 30
0.0
 10
16.8295871235
 20
12.6199028023
 30
0.0
 10
16.827678766
 20
12.6219587966
 30
0.0
 10
16.826554304
 20
12.6231227067
 30
0.0
 10
16.8258066573
 20
12.6240264682
 30
0.0
 10
16.8246931971
 20
12.6248123861
 30
0.0
 10
16.8233361834
 20
12.6259013817
 30
0.0
 10
16.8209019583
 20
12.6277879725
 30
0.0
 10
16.8174555755
 20
12.6304931148
 30
0.0
 10
16.8133066123
 20
12.6337349998
 30
0.0
 10
16.807779308
 20
12.6380590101
 30
0.0
 10
16.8008685867
 20
12.6434635105
 30
0.0
 10
16.7898123218
 20
12.6521109975
 30
0.0
 10
16.7759916855
 20
12.6629202579
 30
0.0
 10
16.7594070528
 20
12.6758914126
 30
0.0
 10
16.7428223851
 20
12.6888625561
 30
0.0
 10
16.7207095071
 20
12.7061574179
 30
0.0
 10
16.693068405
 20
12.7277759937
 30
0.0
 10
16.6654273059
 20
12.7493945706
 30
0.0
 10
16.6433144232
 20
12.7666894307
 30
0.0
 10
16.6267297697
 20
12.7796605795
 30
0.0
 10
16.6101450838
 20
12.7926317139
 30
0.0
 10
16.5963246128
 20
12.8034410376
 30
0.0
 10
16.585268011
 20
12.8120883957
 30
0.0
 10
16.5783581471
 20
12.817493224
 30
0.0
 10
16.5728290828
 20
12.8218165611
 30
0.0
 10
16.5686854968
 20
12.825060503
 30
0.0
 10
16.5652222899
 20
12.8277592099
 30
0.0
 10
16.5628180987
 20
12.829657289
 30
0.0
 10
16.5614129631
 20
12.8307278773
 30
0.0
 10
16.5604473181
 20
12.8315703367
 30
0.0
 10
16.559144502
 20
12.8322617376
 30
0.0
 10
16.5575250229
 20
12.8332362964
 30
0.0
 10
16.5546361382
 20
12.8349172247
 30
0.0
 10
16.5505378081
 20
12.8373313855
 30
0.0
 10
16.5456075498
 20
12.8402228849
 30
0.0
 10
16.539038155
 20
12.8440801362
 30
0.0
 10
16.530824945
 20
12.8489010433
 30
0.0
 10
16.5176846286
 20
12.8566148619
 30
0.0
 10
16.5012589519
 20
12.8662570091
 30
0.0
 10
16.4815482604
 20
12.8778276398
 30
0.0
 10
16.4618375366
 20
12.889398256
 30
0.0
 10
16.4355565829
 20
12.9048257494
 30
0.0
 10
16.4027053867
 20
12.9241101141
 30
0.0
 10
16.3698541926
 20
12.9433944805
 30
0.0
 10
16.3435732354
 20
12.9588219713
 30
0.0
 10
16.3238625221
 20
12.9703925954
 30
0.0
 10
16.3041517914
 20
12.9819631964
 30
0.0
 10
16.2877262367
 20
12.9916054361
 30
0.0
 10
16.2745856715
 20
12.9993190661
 30
0.0
 10
16.2663730946
 20
13.004140453
 30
0.0
 10
16.2598024003
 20
13.0079967196
 30
0.0
 10
16.254876112
 20
13.0108912274
 30
0.0
 10
16.2507653609
 20
13.0132959755
 30
0.0
 10
16.2478986499
 20
13.0149937071
 30
0.0
 10
16.246243643
 20
13.0159413427
 30
0.0
 10
16.2450499567
 20
13.016715443
 30
0.0
 10
16.2436744383
 20
13.0172472974
 30
0.0
 10
16.2419038388
 20
13.0180409346
 30
0.0
 10
16.2387757388
 20
13.0193904306
 30
0.0
 10
16.2343224741
 20
13.0213388647
 30
0.0
 10
16.2289719435
 20
13.0236681756
 30
0.0
 10
16.2218402125
 20
13.0267770005
 30
0.0
 10
16.2129247578
 20
13.0306619781
 30
0.0
 10
16.1986604724
 20
13.0368785312
 30
0.0
 10
16.180829964
 20
13.0446490204
 30
0.0
 10
16.1594334188
 20
13.0539736941
 30
0.0
 10
16.1380368563
 20
13.0632983446
 30
0.0
 10
16.1095081124
 20
13.0757312199
 30
0.0
 10
16.0738471807
 20
13.0912723122
 30
0.0
 10
16.0381862483
 20
13.1068134023
 30
0.0
 10
16.0096575055
 20
13.1192462809
 30
0.0
 10
15.9882609394
 20
13.1285709217
 30
0.0
 10
15.966864408
 20
13.1378956319
 30
0.0
 10
15.9490338569
 20
13.1456660076
 30
0.0
 10
15.9347696585
 20
13.1518827921
 30
0.0
 10
15.9258539823
 20
13.1557671807
 30
0.0
 10
15.918722706
 20
13.1588772146
 30
0.0
 10
15.9133707863
 20
13.161202832
 30
0.0
 10
15.9089218676
 20
13.1631628221
 30
0.0
 10
15.9053380295
 20
13.1646815267
 30
0.0
 10
15.9027176518
 20
13.1659552323
 30
0.0
 10
15.8998396219
 20
13.1667148732
 30
0.0
 10
15.8960922499
 20
13.1679072972
 30
0.0
 10
15.8913771559
 20
13.1693362178
 30
0.0
 10
15.8857322603
 20
13.1710772934
 30
0.0
 10
15.8782011164
 20
13.1733895167
 30
0.0
 10
15.8687887671
 20
13.1762829496
 30
0.0
 10
15.8537281249
 20
13.1809106796
 30
0.0
 10
15.8349026253
 20
13.1866959469
 30
0.0
 10
15.8123118958
 20
13.1936380084
 30
0.0
 10
15.7897212011
 20
13.2005801393
 30
0.0
 10
15.7596002626
 20
13.2098362895
 30
0.0
 10
15.7219490938
 20
13.2214064864
 30
0.0
 10
15.684297923
 20
13.2329766769
 30
0.0
 10
15.6541769877
 20
13.2422328374
 30
0.0
 10
15.6315862836
 20
13.2491749374
 30
0.0
 10
15.6089955892
 20
13.2561171146
 30
0.0
 10
15.5901699803
 20
13.2619020222
 30
0.0
 10
15.575109561
 20
13.2665304858
 30
0.0
 10
15.5656966446
 20
13.2694220516
 30
0.0
 10
15.5581666648
 20
13.2717381074
 30
0.0
 10
15.5525182125
 20
13.2734674744
 30
0.0
 10
15.5478142466
 20
13.2749330282
 30
0.0
 10
15.5440441712
 20
13.2760507136
 30
0.0
 10
15.541235476
 20
13.2770386017
 30
0.0
 10
15.5383547869
 20
13.2774553724
 30
0.0
 10
15.5345390166
 20
13.2782105654
 30
0.0
 10
15.5297606753
 20
13.2790861096
 30
0.0
 10
15.524030359
 20
13.2801660602
 30
0.0
 10
15.5163886472
 20
13.2815957613
 30
0.0
 10
15.5068369493
 20
13.2833863914
 30
0.0
 10
15.4915539856
 20
13.2862494414
 30
0.0
 10
15.4724503658
 20
13.2898289259
 30
0.0
 10
15.4495259857
 20
13.2941240192
 30
0.0
 10
15.4266016153
 20
13.2984191895
 30
0.0
 10
15.3960357848
 20
13.3041460564
 30
0.0
 10
15.3578284977
 20
13.311304649
 30
0.0
 10
15.3196212102
 20
13.3184632394
 30
0.0
 10
15.2890553804
 20
13.3241901097
 30
0.0
 10
15.2661310077
 20
13.3284852699
 30
0.0
 10
15.2432066365
 20
13.3327804012
 30
0.0
 10
15.224102989
 20
13.3363597675
 30
0.0
 10
15.2088200818
 20
13.3392230584
 30
0.0
 10
15.1992682402
 20
13.3410130756
 30
0.0
 10
15.1916268233
 20
13.3424440348
 30
0.0
 10
15.1858956064
 20
13.3435201418
 30
0.0
 10
15.1811200826
 20
13.3444077118
 30
0.0
 10
15.1777762539
 20
13.3450470376
 30
0.0
 10
15.1758669967
 20
13.3453842192
 30
0.0
 10
15.1744308226
 20
13.3457163972
 30
0.0
 10
15.1730108226
 20
13.345745482
 30
0.0
 10
15.1711118475
 20
13.345889984
 30
0.0
 10
15.1677912697
 20
13.3460936045
 30
0.0
 10
15.163046213
 20
13.3464102436
 30
0.0
 10
15.1573527331
 20
13.3467791875
 30
0.0
 10
15.1497612211
 20
13.3472749629
 30
0.0
 10
15.1402719014
 20
13.3478933638
 30
0.0
 10
15.1250889507
 20
13.3488835421
 30
0.0
 10
15.1061102758
 20
13.3501210121
 30
0.0
 10
15.0833358601
 20
13.3516060845
 30
0.0
 10
15.0605614459
 20
13.3530911279
 30
0.0
 10
15.0301955598
 20
13.3550711959
 30
0.0
 10
14.9922382026
 20
13.3575462771
 30
0.0
 10
14.9542808444
 20
13.3600213609
 30
0.0
 10
14.9239149598
 20
13.3620014248
 30
0.0
 10
14.9011405413
 20
13.3634864806
 30
0.0
 10
14.8783661416
 20
13.3649715063
 30
0.0
 10
14.8593874169
 20
13.3662091215
 30
0.0
 10
14.8442045677
 20
13.3671990037
 30
0.0
 10
14.8347149897
 20
13.3678181582
 30
0.0
 10
14.8271240081
 20
13.3683123866
 30
0.0
 10
14.8214289078
 20
13.3686860569
 30
0.0
 10
14.8166889207
 20
13.3689879083
 30
0.0
 10
14.8133592927
 20
13.3692179273
 30
0.0
 10
14.8114748184
 20
13.3693201324
 30
0.0
 10
14.8100102768
 20
13.3694791397
 30
0.0
 10
14.8087413934
 20
13.3693233502
 30
0.0
 10
14.8069813012
 20
13.3692254356
 30
0.0
 10
14.8039329376
 20
13.3690029249
 30
0.0
 10
14.7995615082
 20
13.3687117996
 30
0.0
 10
14.7943229086
 20
13.3683510006
 30
0.0
 10
14.7873356238
 20
13.367873934
 30
0.0
 10
14.7786023688
 20
13.3672762317
 30
0.0
 10
14.7646286852
 20
13.3663206731
 30
0.0
 10
14.7471617439
 20
13.3651259623
 30
0.0
 10
14.7262013444
 20
13.3636924219
 30
0.0
 10
14.7052409635
 20
13.3622588514
 30
0.0
 10
14.6772937825
 20
13.3603474347
 30
0.0
 10
14.6423598088
 20
13.3579581598
 30
0.0
 10
14.6074258332
 20
13.3555688875
 30
0.0
 10
14.5794786551
 20
13.3536574666
 30
0.0
 10
14.5585182656
 20
13.3522239085
 30
0.0
 10
14.5375578988
 20
13.3507903215
 30
0.0
 10
14.5200908556
 20
13.349595756
 30
0.0
 10
14.5061173798
 20
13.3486399011
 30
0.0
 10
14.497383596
 20
13.3480429527
 30
0.0
 10
14.4903973966
 20
13.3475643385
 30
0.0
 10
14.4851554809
 20
13.3472082679
 30
0.0
 10
14.4807944268
 20
13.3469023487
 30
0.0
 10
14.4777275416
 20
13.3467062476
 30
0.0
 10
14.4759971257
 20
13.3465660182
 30
0.0
 10
14.474637086
 20
13.3465402061
 30
0.0
 10
14.4735149124
 20
13.3462110399
 30
0.0
 10
14.4719357105
 20
13.3458779649
 30
0.0
 10
14.4692107648
 20
13.3452457833
 30
0.0
 10
14.4652977745
 20
13.3443684416
 30
0.0
 10
14.460610837
 20
13.3433045991
 30
0.0
 10
14.4543585655
 20
13.3418899958
 30
0.0
 10
14.4465442606
 20
13.3401204222
 30
0.0
 10
14.4340407946
 20
13.337289842
 30
0.0
 10
14.4184116605
 20
13.3337513636
 30
0.0
 10
14.3996566145
 20
13.3295052981
 30
0.0
 10
14.3809015913
 20
13.3252592035
 30
0.0
 10
14.3558948857
 20
13.3195977543
 30
0.0
 10
14.3246365068
 20
13.312520939
 30
0.0
 10
14.2933781255
 20
13.3054441261
 30
0.0
 10
14.2683714236
 20
13.2997826729
 30
0.0
 10
14.2496163893
 20
13.2955365902
 30
0.0
 10
14.2308613851
 20
13.2912904802
 30
0.0
 10
14.2152321211
 20
13.2877521403
 30
0.0
 10
14.20272892
 20
13.2849212776
 30
0.0
 10
14.1949139409
 20
13.2831524229
 30
0.0
 10
14.1886630534
 20
13.2817363442
 30
0.0
 10
14.1839718875
 20
13.2806770091
 30
0.0
 10
14.1800721267
 20
13.2797855648
 30
0.0
 10
14.1773235641
 20
13.2791785586
 30
0.0
 10
14.1757822024
 20
13.2788051463
 30
0.0
 10
14.1745437961
 20
13.2785998835
 30
0.0
 10
14.173620307
 20
13.2781087107
 30
0.0
 10
14.1722791416
 20
13.2775535423
 30
0.0
 10
14.1699832816
 20
13.2765355322
 30
0.0
 10
14.1666767245
 20
13.2751055246
 30
0.0
 10
14.1627203088
 20
13.2733791174
 30
0.0
 10
14.1574410877
 20
13.2710808731
 30
0.0
 10
14.1508434309
 20
13.2682068241
 30
0.0
 10
14.1402864146
 20
13.2636090408
 30
0.0
 10
14.1270904069
 20
13.2578615731
 30
0.0
 10
14.1112550851
 20
13.2509647142
 30
0.0
 10
14.0954197934
 20
13.2440678279
 30
0.0
 10
14.0743060605
 20
13.234871989
 30
0.0
 10
14.0479138985
 20
13.2233771869
 30
0.0
 10
14.0215217336
 20
13.2118823871
 30
0.0
 10
14.0004080053
 20
13.2026865445
 30
0.0
 10
13.9845727
 20
13.1957896696
 30
0.0
 10
13.9687374291
 20
13.188892768
 30
0.0
 10
13.9555412628
 20
13.1831454328
 30
0.0
 10
13.94498457
 20
13.1785473794
 30
0.0
 10
13.93838609
 20
13.1756740178
 30
0.0
 10
13.9331085587
 20
13.1733743626
 30
0.0
 10
13.9291469802
 20
13.1716522657
 30
0.0
 10
13.9258565765
 20
13.1702087724
 30
0.0
 10
13.9235318798
 20
13.1692148365
 30
0.0
 10
13.9222369181
 20
13.1686210951
 30
0.0
 10
13.921171506
 20
13.1682484063
 30
0.0
 10
13.9204661389
 20
13.1675981374
 30
0.0
 10
13.9194000617
 20
13.1668279353
 30
0.0
 10
13.9175929403
 20
13.16543497
 30
0.0
 10
13.9149807467
 20
13.1634686044
 30
0.0
 10
13.9118592086
 20
13.1610988706
 30
0.0
 10
13.9076925841
 20
13.1579427515
 30
0.0
 10
13.9024858696
 20
13.1539963954
 30
0.0
 10
13.8941542511
 20
13.1476829003
 30
0.0
 10
13.8837400284
 20
13.1397908
 30
0.0
 10
13.8712428323
 20
13.1303203788
 30
0.0
 10
13.8587456707
 20
13.120849931
 30
0.0
 10
13.8420827765
 20
13.1082226767
 30
0.0
 10
13.8212541633
 20
13.0924386054
 30
0.0
 10
13.8004255467
 20
13.0766545361
 30
0.0
 10
13.7837626579
 20
13.0640272785
 30
0.0
 10
13.7712654798
 20
13.0545568405
 30
0.0
 10
13.7587683456
 20
13.045086383
 30
0.0
 10
13.7483539305
 20
13.0371943956
 30
0.0
 10
13.7400227043
 20
13.0308806702
 30
0.0
 10
13.7348149913
 20
13.0269349002
 30
0.0
 10
13.7306504164
 20
13.023777578
 30
0.0
 10
13.7275226168
 20
13.0214115199
 30
0.0
 10
13.7249300138
 20
13.0194336541
 30
0.0
 10
13.7230879198
 20
13.0180612185
 30
0.0
 10
13.7220778775
 20
13.0172581227
 30
0.0
 10
13.7212003893
 20
13.0167088927
 30
0.0
 10
13.7207814356
 20
13.0159567187
 30
0.0
 10
13.7200628887
 20
13.0150246092
 30
0.0
 10
13.7188799516
 20
13.0133604356
 30
0.0
 10
13.7171510816
 20
13.0110002882
 30
0.0
 10
13.7150931136
 20
13.0081607305
 30
0.0
 10
13.7123433317
 20
13.0043772315
 30
0.0
 10
13.7089080987
 20
12.9996469751
 30
0.0
 10
13.7034106112
 20
12.9920790582
 30
0.0
 10
13.6965391344
 20
12.9826189928
 30
0.0
 10
13.6882931982
 20
12.9712669869
 30
0.0
 10
13.6800473058
 20
12.9599149615
 30
0.0
 10
13.6690527674
 20
12.9447789346
 30
0.0
 10
13.6553096
 20
12.9258588983
 30
0.0
 10
13.6415664288
 20
12.9069388636
 30
0.0
 10
13.6305718965
 20
12.8918028341
 30
0.0
 10
13.6223259856
 20
12.8804508163
 30
0.0
 10
13.6140801192
 20
12.8690987821
 30
0.0
 10
13.6072084252
 20
12.8596388048
 30
0.0
 10
13.6017113805
 20
12.8520707082
 30
0.0
 10
13.5982750208
 20
12.8473409092
 30
0.0
 10
13.5955275516
 20
12.8435564714
 30
0.0
 10
13.5934625179
 20
12.8407197819
 30
0.0
 10
13.5917557549
 20
12.8383506604
 30
0.0
 10
13.590533353
 20
12.8367025071
 30
0.0
 10
13.5898780387
 20
12.8357447291
 30
0.0
 10
13.5892648549
 20
12.8350714004
 30
0.0
 10
13.5891168628
 20
12.8342260408
 30
0.0
 10
13.5887572759
 20
12.8331589009
 30
0.0
 10
13.5882036007
 20
12.8312634481
 30
0.0
 10
13.5873731107
 20
12.8285702752
 30
0.0
 10
13.5863934408
 20
12.8253322113
 30
0.0
 10
13.5850813051
 20
12.821016978
 30
0.0
 10
13.5834431588
 20
12.8156221881
 30
0.0
 10
13.5808209939
 20
12.8069909424
 30
0.0
 10
13.5775436758
 20
12.7962017418
 30
0.0
 10
13.5736107277
 20
12.7832547627
 30
0.0
 10
13.5696778242
 20
12.770307767
 30
0.0
 10
13.5644339372
 20
12.753045112
 30
0.0
 10
13.5578790843
 20
12.731466791
 30
0.0
 10
13.5513242274
 20
12.7098884713
 30
0.0
 10
13.5460803468
 20
12.6926258143
 30
0.0
 10
13.5421474242
 20
12.6796788245
 30
0.0
 10
13.5382145476
 20
12.6667318234
 30
0.0
 10
13.534937007
 20
12.6559426912
 30
0.0
 10
13.5323152958
 20
12.6473113061
 30
0.0
 10
13.530675995
 20
12.641916871
 30
0.0
 10
13.5293662292
 20
12.6376009094
 30
0.0
 10
13.528379319
 20
12.6343650704
 30
0.0
 10
13.527571482
 20
12.6316649362
 30
0.0
 10
13.5269773673
 20
12.6297819105
 30
0.0
 10
13.5266825747
 20
12.6286948593
 30
0.0
 10
13.5263355553
 20
12.6279106608
 30
0.0
 10
13.5264698851
 20
12.6270076213
 30
0.0
 10
13.5264810915
 20
12.6258450218
 30
0.0
 10
13.5265789305
 20
12.6237911588
 30
0.0
 10
13.5266778021
 20
12.6208671662
 30
0.0
 10
13.5268139538
 20
12.6173540531
 30
0.0
 10
13.5269893751
 20
12.612671412
 30
0.0
 10
13.5272107452
 20
12.6068175936
 30
0.0
 10
13.5275637672
 20
12.5974517731
 30
0.0
 10
13.5280054463
 20
12.5857443984
 30
0.0
 10
13.5285352891
 20
12.5716955912
 30
0.0
 10
13.529065178
 20
12.5576467727
 30
0.0
 10
13.5297716803
 20
12.5389150186
 30
0.0
 10
13.5306548142
 20
12.5155003245
 30
0.0
 10
13.5315379441
 20
12.4920856313
 30
0.0
 10
13.532244453
 20
12.4733538758
 30
0.0
 10
13.5327743222
 20
12.4593050614
 30
0.0
 10
13.5333042386
 20
12.4452562385
 30
0.0
 10
13.5337456887
 20
12.4335489127
 30
0.0
 10
13.5340991777
 20
12.4241829924
 30
0.0
 10
13.5343193594
 20
12.4183294281
 30
0.0
 10
13.5344972201
 20
12.4136462654
 30
0.0
 10
13.5346259188
 20
12.4101347457
 30
0.0
 10
13.5347481092
 20
12.4072057679
 30
0.0
 10
13.5348043202
 20
12.4051608045
 30
0.0
 10
13.534882225
 20
12.4039839456
 30
0.0
 10
13.5348116789
 20
12.4031247062
 30
0.0
 10
13.5352341395
 20
12.4021760018
 30
0.0
 10
13.535625454
 20
12.4009422691
 30
0.0
 10
13.5363903766
 20
12.3987686971
 30
0.0
 10
13.5374412344
 20
12.3956711958
 30
0.0
 10
13.5387201935
 20
12.3919509405
 30
0.0
 10
13.5404192098
 20
12.3869917365
 30
0.0
 10
13.5425451245
 20
12.3807923425
 30
0.0
 10
13.5459453895
 20
12.3708735295
 30
0.0
 10
13.5501961321
 20
12.3584749387
 30
0.0
 10
13.5552968469
 20
12.3435966616
 30
0.0
 10
13.5603976088
 20
12.328718376
 30
0.0
 10
13.5671986082
 20
12.3088806649
 30
0.0
 10
13.5756998632
 20
12.284083525
 30
0.0
 10
13.5859013667
 20
12.2543269575
 30
0.0
 10
13.5995033723
 20
12.214651534
 30
0.0
 10
13.6097048762
 20
12.1848949665
 30
0.0
 10
13.6165058789
 20
12.1650572547
 30
0.0
  0
SPLINE
  5
329
100
AcDbEntity
  8
03__ASM_ALL_CURVES
100
AcDbSpline
 62
8
  6
PHANTOM
 70
0
 71
3
 72
399
 73
395
 74
0
 42
0.0000001
 43
0.0000001
 44
0.0000000001
 40
0.0
 40
0.0
 40
0.0
 40
0.0
 40
0.015625
 40
0.0234375
 40
0.03125
 40
0.0390625
 40
0.04296875
 40
0.046875
 40
0.05078125
 40
0.0546875
 40
0.056640625
 40
0.05859375
 40
0.0595703125
 40
0.060546875
 40
0.0615234375
 40
0.0620117188
 40
0.0622558594
 40
0.0625
 40
0.0627441406
 40
0.0629882812
 40
0.0634765625
 40
0.064453125
 40
0.0654296875
 40
0.06640625
 40
0.068359375
 40
0.0703125
 40
0.07421875
 40
0.078125
 40
0.08203125
 40
0.0859375
 40
0.09375
 40
0.1015625
 40
0.10546875
 40
0.109375
 40
0.11328125
 40
0.1171875
 40
0.119140625
 40
0.12109375
 40
0.1220703125
 40
0.123046875
 40
0.1240234375
 40
0.1245117188
 40
0.1247558594
 40
0.125
 40
0.1252441406
 40
0.1254882812
 40
0.1259765625
 40
0.126953125
 40
0.1279296875
 40
0.12890625
 40
0.130859375
 40
0.1328125
 40
0.13671875
 40
0.140625
 40
0.14453125
 40
0.1484375
 40
0.15625
 40
0.1640625
 40
0.16796875
 40
0.171875
 40
0.17578125
 40
0.1796875
 40
0.181640625
 40
0.18359375
 40
0.1845703125
 40
0.185546875
 40
0.1865234375
 40
0.1870117188
 40
0.1872558594
 40
0.1875
 40
0.1877441406
 40
0.1879882812
 40
0.1884765625
 40
0.189453125
 40
0.1904296875
 40
0.19140625
 40
0.193359375
 40
0.1953125
 40
0.19921875
 40
0.203125
 40
0.20703125
 40
0.2109375
 40
0.21875
 40
0.2265625
 40
0.23046875
 40
0.234375
 40
0.23828125
 40
0.2421875
 40
0.244140625
 40
0.24609375
 40
0.2470703125
 40
0.248046875
 40
0.2490234375
 40
0.2495117188
 40
0.2497558594
 40
0.25
 40
0.2502441406
 40
0.2504882812
 40
0.2509765625
 40
0.251953125
 40
0.2529296875
 40
0.25390625
 40
0.255859375
 40
0.2578125
 40
0.26171875
 40
0.265625
 40
0.26953125
 40
0.2734375
 40
0.28125
 40
0.2890625
 40
0.29296875
 40
0.296875
 40
0.30078125
 40
0.3046875
 40
0.306640625
 40
0.30859375
 40
0.3095703125
 40
0.310546875
 40
0.3115234375
 40
0.3120117188
 40
0.3125
 40
0.3129882812
 40
0.3134765625
 40
0.314453125
 40
0.3154296875
 40
0.31640625
 40
0.318359375
 40
0.3203125
 40
0.32421875
 40
0.328125
 40
0.33203125
 40
0.3359375
 40
0.34375
 40
0.3515625
 40
0.35546875
 40
0.359375
 40
0.36328125
 40
0.3671875
 40
0.369140625
 40
0.37109375
 40
0.3720703125
 40
0.373046875
 40
0.3740234375
 40
0.3745117188
 40
0.375
 40
0.3754882812
 40
0.3759765625
 40
0.376953125
 40
0.3779296875
 40
0.37890625
 40
0.380859375
 40
0.3828125
 40
0.38671875
 40
0.390625
 40
0.39453125
 40
0.3984375
 40
0.40625
 40
0.4140625
 40
0.41796875
 40
0.421875
 40
0.42578125
 40
0.4296875
 40
0.431640625
 40
0.43359375
 40
0.4345703125
 40
0.435546875
 40
0.4365234375
 40
0.4370117188
 40
0.4372558594
 40
0.4375
 40
0.4377441406
 40
0.4379882812
 40
0.4384765625
 40
0.439453125
 40
0.4404296875
 40
0.44140625
 40
0.443359375
 40
0.4453125
 40
0.44921875
 40
0.453125
 40
0.45703125
 40
0.4609375
 40
0.46875
 40
0.4765625
 40
0.48046875
 40
0.484375
 40
0.48828125
 40
0.4921875
 40
0.494140625
 40
0.49609375
 40
0.4970703125
 40
0.498046875
 40
0.4990234375
 40
0.4995117188
 40
0.4997558594
 40
0.5
 40
0.5002441406
 40
0.5004882812
 40
0.5009765625
 40
0.501953125
 40
0.5029296875
 40
0.50390625
 40
0.505859375
 40
0.5078125
 40
0.51171875
 40
0.515625
 40
0.51953125
 40
0.5234375
 40
0.53125
 40
0.5390625
 40
0.54296875
 40
0.546875
 40
0.55078125
 40
0.5546875
 40
0.556640625
 40
0.55859375
 40
0.5595703125
 40
0.560546875
 40
0.5615234375
 40
0.5620117188
 40
0.5622558594
 40
0.5625
 40
0.5627441406
 40
0.5629882812
 40
0.5634765625
 40
0.564453125
 40
0.5654296875
 40
0.56640625
 40
0.568359375
 40
0.5703125
 40
0.57421875
 40
0.578125
 40
0.58203125
 40
0.5859375
 40
0.59375
 40
0.6015625
 40
0.60546875
 40
0.609375
 40
0.61328125
 40
0.6171875
 40
0.619140625
 40
0.62109375
 40
0.6220703125
 40
0.623046875
 40
0.6240234375
 40
0.6245117188
 40
0.6247558594
 40
0.625
 40
0.6252441406
 40
0.6254882812
 40
0.6259765625
 40
0.626953125
 40
0.6279296875
 40
0.62890625
 40
0.630859375
 40
0.6328125
 40
0.63671875
 40
0.640625
 40
0.64453125
 40
0.6484375
 40
0.65625
 40
0.6640625
 40
0.66796875
 40
0.671875
 40
0.67578125
 40
0.6796875
 40
0.681640625
 40
0.68359375
 40
0.6845703125
 40
0.685546875
 40
0.6865234375
 40
0.6870117188
 40
0.6872558594
 40
0.6875
 40
0.6877441406
 40
0.6879882812
 40
0.6884765625
 40
0.689453125
 40
0.6904296875
 40
0.69140625
 40
0.693359375
 40
0.6953125
 40
0.69921875
 40
0.703125
 40
0.70703125
 40
0.7109375
 40
0.71875
 40
0.7265625
 40
0.73046875
 40
0.734375
 40
0.73828125
 40
0.7421875
 40
0.744140625
 40
0.74609375
 40
0.7470703125
 40
0.748046875
 40
0.7490234375
 40
0.7495117188
 40
0.7497558594
 40
0.75
 40
0.7502441406
 40
0.7504882812
 40
0.7509765625
 40
0.751953125
 40
0.7529296875
 40
0.75390625
 40
0.755859375
 40
0.7578125
 40
0.76171875
 40
0.765625
 40
0.76953125
 40
0.7734375
 40
0.78125
 40
0.7890625
 40
0.79296875
 40
0.796875
 40
0.80078125
 40
0.8046875
 40
0.806640625
 40
0.80859375
 40
0.8095703125
 40
0.810546875
 40
0.8115234375
 40
0.8120117188
 40
0.8122558594
 40
0.8125
 40
0.8127441406
 40
0.8129882812
 40
0.8134765625
 40
0.814453125
 40
0.8154296875
 40
0.81640625
 40
0.818359375
 40
0.8203125
 40
0.82421875
 40
0.828125
 40
0.83203125
 40
0.8359375
 40
0.84375
 40
0.8515625
 40
0.85546875
 40
0.859375
 40
0.86328125
 40
0.8671875
 40
0.869140625
 40
0.87109375
 40
0.8720703125
 40
0.873046875
 40
0.8740234375
 40
0.8745117188
 40
0.8747558594
 40
0.875
 40
0.8752441406
 40
0.8754882812
 40
0.8759765625
 40
0.876953125
 40
0.8779296875
 40
0.87890625
 40
0.880859375
 40
0.8828125
 40
0.88671875
 40
0.890625
 40
0.89453125
 40
0.8984375
 40
0.90625
 40
0.9140625
 40
0.91796875
 40
0.921875
 40
0.92578125
 40
0.9296875
 40
0.931640625
 40
0.93359375
 40
0.9345703125
 40
0.935546875
 40
0.9365234375
 40
0.9370117188
 40
0.9372558594
 40
0.9375
 40
0.9377441406
 40
0.9379882812
 40
0.9384765625
 40
0.939453125
 40
0.9404296875
 40
0.94140625
 40
0.943359375
 40
0.9453125
 40
0.94921875
 40
0.953125
 40
0.95703125
 40
0.9609375
 40
0.96875
 40
0.9765625
 40
0.984375
 40
1.0
 40
1.0
 40
1.0
 40
1.0
 10
13.6165058272
 20
12.16505736
 30
0.0
 10
13.6289043858
 20
12.1455632023
 30
0.0
 10
13.6475022238
 20
12.1163219658
 30
0.0
 10
13.6722993408
 20
12.0773336504
 30
0.0
 10
13.6908971792
 20
12.0480924139
 30
0.0
 10
13.7063953761
 20
12.0237247166
 30
0.0
 10
13.7187939374
 20
12.0042305594
 30
0.0
 10
13.7280928479
 20
11.9896099399
 30
0.0
 10
13.7373917986
 20
11.9749893262
 30
0.0
 10
13.745140799
 20
11.9628054635
 30
0.0
 10
13.7513402796
 20
11.9530584134
 30
0.0
 10
13.7552143169
 20
11.9469664159
 30
0.0
 10
13.7583150081
 20
11.9420930269
 30
0.0
 10
13.7606365251
 20
11.9384374128
 30
0.0
 10
13.7625838518
 20
11.9353928882
 30
0.0
 10
13.7639219997
 20
11.9332581485
 30
0.0
 10
13.7647256612
 20
11.9320438754
 30
0.0
 10
13.765218528
 20
11.9311174568
 30
0.0
 10
13.7661314092
 20
11.930251104
 30
0.0
 10
13.7672020784
 20
11.9290750153
 30
0.0
 10
13.7691440092
 20
11.9270266219
 30
0.0
 10
13.7718825092
 20
11.924095242
 30
0.0
 10
13.7751839842
 20
11.9205797706
 30
0.0
 10
13.7795806157
 20
11.9158917124
 30
0.0
 10
13.7850782319
 20
11.9100319008
 30
0.0
 10
13.7938733967
 20
11.9006560564
 30
0.0
 10
13.8048677031
 20
11.888936301
 30
0.0
 10
13.8180607206
 20
11.874872573
 30
0.0
 10
13.8312537783
 20
11.8608088507
 30
0.0
 10
13.8488445077
 20
11.8420572191
 30
0.0
 10
13.8708329248
 20
11.8186176803
 30
0.0
 10
13.8928213386
 20
11.7951781407
 30
0.0
 10
13.9104120733
 20
11.7764265102
 30
0.0
 10
13.9236051152
 20
11.7623627844
 30
0.0
 10
13.936798192
 20
11.7482990698
 30
0.0
 10
13.9477923137
 20
11.7365792726
 30
0.0
 10
13.9565878552
 20
11.7272035134
 30
0.0
 10
13.9620845129
 20
11.7213434849
 30
0.0
 10
13.9664831118
 20
11.7166558722
 30
0.0
 10
13.9697785759
 20
11.7131390399
 30
0.0
 10
13.9725358827
 20
11.7102119178
 30
0.0
 10
13.9744442402
 20
11.7081559234
 30
0.0
 10
13.9755687023
 20
11.7069920133
 30
0.0
 10
13.976316349
 20
11.7060882519
 30
0.0
 10
13.9774298091
 20
11.705302334
 30
0.0
 10
13.9787868228
 20
11.7042133383
 30
0.0
 10
13.981221048
 20
11.7023267476
 30
0.0
 10
13.9846674307
 20
11.6996216053
 30
0.0
 10
13.988816394
 20
11.6963797202
 30
0.0
 10
13.9943436982
 20
11.6920557099
 30
0.0
 10
14.0012544195
 20
11.6866512096
 30
0.0
 10
14.0123106844
 20
11.6780037226
 30
0.0
 10
14.0261313207
 20
11.6671944621
 30
0.0
 10
14.0427159534
 20
11.6542233074
 30
0.0
 10
14.0593006211
 20
11.641252164
 30
0.0
 10
14.0814134991
 20
11.6239573021
 30
0.0
 10
14.1090546012
 20
11.6023387263
 30
0.0
 10
14.1366957003
 20
11.5807201494
 30
0.0
 10
14.158808583
 20
11.5634252894
 30
0.0
 10
14.1753932366
 20
11.5504541405
 30
0.0
 10
14.1919779224
 20
11.5374830061
 30
0.0
 10
14.2057983934
 20
11.5266736825
 30
0.0
 10
14.2168549953
 20
11.5180263243
 30
0.0
 10
14.2237648591
 20
11.512621496
 30
0.0
 10
14.2292939234
 20
11.5082981589
 30
0.0
 10
14.2334375094
 20
11.505054217
 30
0.0
 10
14.2369007163
 20
11.5023555102
 30
0.0
 10
14.2393049075
 20
11.500457431
 30
0.0
 10
14.2407100432
 20
11.4993868427
 30
0.0
 10
14.2416756881
 20
11.4985443833
 30
0.0
 10
14.2429785043
 20
11.4978529824
 30
0.0
 10
14.2445979834
 20
11.4968784236
 30
0.0
 10
14.2474868681
 20
11.4951974954
 30
0.0
 10
14.2515851981
 20
11.4927833345
 30
0.0
 10
14.2565154564
 20
11.4898918351
 30
0.0
 10
14.2630848512
 20
11.4860345838
 30
0.0
 10
14.2712980612
 20
11.4812136767
 30
0.0
 10
14.2844383776
 20
11.4734998582
 30
0.0
 10
14.3008640543
 20
11.4638577109
 30
0.0
 10
14.3205747458
 20
11.4522870802
 30
0.0
 10
14.3402854696
 20
11.440716464
 30
0.0
 10
14.3665664233
 20
11.4252889706
 30
0.0
 10
14.3994176195
 20
11.4060046059
 30
0.0
 10
14.4322688136
 20
11.3867202395
 30
0.0
 10
14.4585497708
 20
11.3712927488
 30
0.0
 10
14.4782604841
 20
11.3597221246
 30
0.0
 10
14.4979712148
 20
11.3481515236
 30
0.0
 10
14.5143967696
 20
11.338509284
 30
0.0
 10
14.5275373347
 20
11.3307956539
 30
0.0
 10
14.5357499116
 20
11.3259742671
 30
0.0
 10
14.5423206059
 20
11.3221180005
 30
0.0
 10
14.5472468943
 20
11.3192234927
 30
0.0
 10
14.5513576453
 20
11.3168187445
 30
0.0
 10
14.5542243564
 20
11.315121013
 30
0.0
 10
14.5558793632
 20
11.3141733773
 30
0.0
 10
14.5570730496
 20
11.3133992771
 30
0.0
 10
14.558448568
 20
11.3128674227
 30
0.0
 10
14.5602191674
 20
11.3120737854
 30
0.0
 10
14.5633472674
 20
11.3107242894
 30
0.0
 10
14.5678005322
 20
11.3087758553
 30
0.0
 10
14.5731510628
 20
11.3064465445
 30
0.0
 10
14.5802827938
 20
11.3033377195
 30
0.0
 10
14.5891982484
 20
11.2994527419
 30
0.0
 10
14.6034625338
 20
11.2932361889
 30
0.0
 10
14.6212930423
 20
11.2854656997
 30
0.0
 10
14.6426895874
 20
11.276141026
 30
0.0
 10
14.6640861499
 20
11.2668163754
 30
0.0
 10
14.6926148939
 20
11.2543835001
 30
0.0
 10
14.7282758255
 20
11.2388424079
 30
0.0
 10
14.763936758
 20
11.2233013177
 30
0.0
 10
14.7924655007
 20
11.2108684391
 30
0.0
 10
14.8138620669
 20
11.2015437983
 30
0.0
 10
14.8352585983
 20
11.1922190882
 30
0.0
 10
14.8530891494
 20
11.1844487124
 30
0.0
 10
14.8673533478
 20
11.178231928
 30
0.0
 10
14.8762690239
 20
11.1743475393
 30
0.0
 10
14.8834003003
 20
11.1712375054
 30
0.0
 10
14.8887522199
 20
11.168911888
 30
0.0
 10
14.8932011386
 20
11.1669518979
 30
0.0
 10
14.8967849768
 20
11.1654331933
 30
0.0
 10
14.8994053544
 20
11.1641594878
 30
0.0
 10
14.9022833844
 20
11.1633998469
 30
0.0
 10
14.9060307564
 20
11.1622074228
 30
0.0
 10
14.9107458503
 20
11.1607785022
 30
0.0
 10
14.9163907459
 20
11.1590374267
 30
0.0
 10
14.9239218899
 20
11.1567252033
 30
0.0
 10
14.9333342391
 20
11.1538317704
 30
0.0
 10
14.9483948813
 20
11.1492040405
 30
0.0
 10
14.9672203809
 20
11.1434187731
 30
0.0
 10
14.9898111104
 20
11.1364767116
 30
0.0
 10
15.0124018052
 20
11.1295345807
 30
0.0
 10
15.0425227436
 20
11.1202784306
 30
0.0
 10
15.0801739124
 20
11.1087082336
 30
0.0
 10
15.1178250832
 20
11.0971380431
 30
0.0
 10
15.1479460185
 20
11.0878818827
 30
0.0
 10
15.1705367226
 20
11.0809397826
 30
0.0
 10
15.193127417
 20
11.0739976055
 30
0.0
 10
15.2119530259
 20
11.0682126979
 30
0.0
 10
15.2270134453
 20
11.0635842342
 30
0.0
 10
15.2364263617
 20
11.0606926684
 30
0.0
 10
15.2439563414
 20
11.0583766127
 30
0.0
 10
15.2496047937
 20
11.0566472457
 30
0.0
 10
15.2543087596
 20
11.0551816919
 30
0.0
 10
15.258078835
 20
11.0540640065
 30
0.0
 10
15.2608875302
 20
11.0530761184
 30
0.0
 10
15.2637682193
 20
11.0526593477
 30
0.0
 10
15.2675839897
 20
11.0519041547
 30
0.0
 10
15.2723623309
 20
11.0510286104
 30
0.0
 10
15.2780926473
 20
11.0499486599
 30
0.0
 10
15.285734359
 20
11.0485189588
 30
0.0
 10
15.295286057
 20
11.0467283286
 30
0.0
 10
15.3105690206
 20
11.0438652786
 30
0.0
 10
15.3296726404
 20
11.0402857942
 30
0.0
 10
15.3525970205
 20
11.0359907009
 30
0.0
 10
15.3755213909
 20
11.0316955305
 30
0.0
 10
15.4060872215
 20
11.0259686636
 30
0.0
 10
15.4442945085
 20
11.0188100711
 30
0.0
 10
15.482501796
 20
11.0116514806
 30
0.0
 10
15.5130676258
 20
11.0059246103
 30
0.0
 10
15.5359919985
 20
11.0016294501
 30
0.0
 10
15.5589163697
 20
10.9973343189
 30
0.0
 10
15.5780200172
 20
10.9937549525
 30
0.0
 10
15.5933029244
 20
10.9908916617
 30
0.0
 10
15.602854766
 20
10.9891016444
 30
0.0
 10
15.610496183
 20
10.9876706852
 30
0.0
 10
15.6162273998
 20
10.9865945783
 30
0.0
 10
15.6210029236
 20
10.9857070083
 30
0.0
 10
15.6243467523
 20
10.9850676824
 30
0.0
 10
15.6262560095
 20
10.9847305008
 30
0.0
 10
15.6276921837
 20
10.9843983228
 30
0.0
 10
15.6291121837
 20
10.9843692381
 30
0.0
 10
15.6310111587
 20
10.9842247361
 30
0.0
 10
15.6343317365
 20
10.9840211156
 30
0.0
 10
15.6390767933
 20
10.9837044765
 30
0.0
 10
15.6447702732
 20
10.9833355325
 30
0.0
 10
15.6523617852
 20
10.9828397572
 30
0.0
 10
15.6618511048
 20
10.9822213562
 30
0.0
 10
15.6770340555
 20
10.981231178
 30
0.0
 10
15.6960127305
 20
10.979993708
 30
0.0
 10
15.7187871462
 20
10.9785086356
 30
0.0
 10
15.7415615603
 20
10.9770235922
 30
0.0
 10
15.7719274464
 20
10.9750435242
 30
0.0
 10
15.8098848037
 20
10.972568443
 30
0.0
 10
15.8478421618
 20
10.9700933592
 30
0.0
 10
15.8782080465
 20
10.9681132953
 30
0.0
 10
15.9009824649
 20
10.9666282394
 30
0.0
 10
15.9237568646
 20
10.9651432137
 30
0.0
 10
15.9427355893
 20
10.9639055985
 30
0.0
 10
15.9579184385
 20
10.9629157164
 30
0.0
 10
15.9674080166
 20
10.9622965618
 30
0.0
 10
15.9749989982
 20
10.9618023335
 30
0.0
 10
15.9806940984
 20
10.9614286631
 30
0.0
 10
15.9854340855
 20
10.9611268117
 30
0.0
 10
15.9887637135
 20
10.9608967928
 30
0.0
 10
15.9906481878
 20
10.9607945877
 30
0.0
 10
15.9921127294
 20
10.9606355804
 30
0.0
 10
15.9933816128
 20
10.9607913698
 30
0.0
 10
15.9951417051
 20
10.9608892845
 30
0.0
 10
15.9981900686
 20
10.9611117951
 30
0.0
 10
16.0025614981
 20
10.9614029205
 30
0.0
 10
16.0078000976
 20
10.9617637195
 30
0.0
 10
16.0147873824
 20
10.962240786
 30
0.0
 10
16.0235206374
 20
10.9628384884
 30
0.0
 10
16.037494321
 20
10.9637940469
 30
0.0
 10
16.0549612623
 20
10.9649887577
 30
0.0
 10
16.0759216619
 20
10.9664222981
 30
0.0
 10
16.0968820427
 20
10.9678558686
 30
0.0
 10
16.1248292237
 20
10.9697672854
 30
0.0
 10
16.1597631974
 20
10.9721565603
 30
0.0
 10
16.194697173
 20
10.9745458326
 30
0.0
 10
16.2226443511
 20
10.9764572535
 30
0.0
 10
16.2436047406
 20
10.9778908115
 30
0.0
 10
16.2645651074
 20
10.9793243986
 30
0.0
 10
16.2820321506
 20
10.9805189641
 30
0.0
 10
16.2960056265
 20
10.9814748189
 30
0.0
 10
16.3047394103
 20
10.9820717673
 30
0.0
 10
16.3117256096
 20
10.9825503815
 30
0.0
 10
16.3169675253
 20
10.9829064522
 30
0.0
 10
16.3213285794
 20
10.9832123714
 30
0.0
 10
16.3243954647
 20
10.9834084725
 30
0.0
 10
16.3261258806
 20
10.9835487019
 30
0.0
 10
16.3274859202
 20
10.9835745139
 30
0.0
 10
16.3286080939
 20
10.9839036802
 30
0.0
 10
16.3301872957
 20
10.9842367551
 30
0.0
 10
16.3329122415
 20
10.9848689367
 30
0.0
 10
16.3368252317
 20
10.9857462785
 30
0.0
 10
16.3415121692
 20
10.986810121
 30
0.0
 10
16.3477644408
 20
10.9882247243
 30
0.0
 10
16.3555787456
 20
10.9899942978
 30
0.0
 10
16.3680822116
 20
10.9928248781
 30
0.0
 10
16.3837113457
 20
10.9963633564
 30
0.0
 10
16.4024663917
 20
11.0006094219
 30
0.0
 10
16.4212214149
 20
11.0048555165
 30
0.0
 10
16.4462281205
 20
11.0105169657
 30
0.0
 10
16.4774864994
 20
11.0175937811
 30
0.0
 10
16.5087448807
 20
11.0246705939
 30
0.0
 10
16.5337515826
 20
11.0303320471
 30
0.0
 10
16.5525066169
 20
11.0345781298
 30
0.0
 10
16.5712616211
 20
11.0388242399
 30
0.0
 10
16.5868908852
 20
11.0423625797
 30
0.0
 10
16.5993940862
 20
11.0451934424
 30
0.0
 10
16.6072090653
 20
11.0469622972
 30
0.0
 10
16.6134599529
 20
11.0483783758
 30
0.0
 10
16.6181511187
 20
11.049437711
 30
0.0
 10
16.6220508795
 20
11.0503291553
 30
0.0
 10
16.6247994421
 20
11.0509361614
 30
0.0
 10
16.6263408038
 20
11.0513095737
 30
0.0
 10
16.6275792101
 20
11.0515148365
 30
0.0
 10
16.6285026992
 20
11.0520060093
 30
0.0
 10
16.6298438647
 20
11.0525611777
 30
0.0
 10
16.6321397246
 20
11.0535791879
 30
0.0
 10
16.6354462818
 20
11.0550091955
 30
0.0
 10
16.6394026974
 20
11.0567356026
 30
0.0
 10
16.6446819186
 20
11.0590338469
 30
0.0
 10
16.6512795753
 20
11.0619078959
 30
0.0
 10
16.6618365916
 20
11.0665056792
 30
0.0
 10
16.6750325993
 20
11.0722531469
 30
0.0
 10
16.6908679211
 20
11.0791500059
 30
0.0
 10
16.7067032128
 20
11.0860468922
 30
0.0
 10
16.7278169457
 20
11.095242731
 30
0.0
 10
16.7542091078
 20
11.1067375331
 30
0.0
 10
16.7806012726
 20
11.1182323329
 30
0.0
 10
16.801715001
 20
11.1274281755
 30
0.0
 10
16.8175503063
 20
11.1343250505
 30
0.0
 10
16.8333855771
 20
11.141221952
 30
0.0
 10
16.8465817434
 20
11.1469692872
 30
0.0
 10
16.8571384362
 20
11.1515673406
 30
0.0
 10
16.8637369163
 20
11.1544407023
 30
0.0
 10
16.8690144475
 20
11.1567403575
 30
0.0
 10
16.8729760261
 20
11.1584624543
 30
0.0
 10
16.8762664297
 20
11.1599059476
 30
0.0
 10
16.8785911264
 20
11.1608998835
 30
0.0
 10
16.8798860881
 20
11.161493625
 30
0.0
 10
16.8809515002
 20
11.1618663138
 30
0.0
 10
16.8816568673
 20
11.1625165826
 30
0.0
 10
16.8827229445
 20
11.1632867847
 30
0.0
 10
16.8845300659
 20
11.1646797501
 30
0.0
 10
16.8871422595
 20
11.1666461157
 30
0.0
 10
16.8902637977
 20
11.1690158495
 30
0.0
 10
16.8944304221
 20
11.1721719685
 30
0.0
 10
16.8996371366
 20
11.1761183247
 30
0.0
 10
16.9079687551
 20
11.1824318197
 30
0.0
 10
16.9183829779
 20
11.1903239201
 30
0.0
 10
16.9308801739
 20
11.1997943413
 30
0.0
 10
16.9433773355
 20
11.209264789
 30
0.0
 10
16.9600402298
 20
11.2218920433
 30
0.0
 10
16.9808688429
 20
11.2376761147
 30
0.0
 10
17.0016974596
 20
11.253460184
 30
0.0
 10
17.0183603483
 20
11.2660874415
 30
0.0
 10
17.0308575264
 20
11.2755578796
 30
0.0
 10
17.0433546606
 20
11.285028337
 30
0.0
 10
17.0537690758
 20
11.2929203245
 30
0.0
 10
17.0621003019
 20
11.2992340498
 30
0.0
 10
17.0673080149
 20
11.3031798198
 30
0.0
 10
17.0714725898
 20
11.306337142
 30
0.0
 10
17.0746003895
 20
11.3087032002
 30
0.0
 10
17.0771929924
 20
11.3106810659
 30
0.0
 10
17.0790350864
 20
11.3120535016
 30
0.0
 10
17.0800451287
 20
11.3128565974
 30
0.0
 10
17.080922617
 20
11.3134058274
 30
0.0
 10
17.0813415706
 20
11.3141580013
 30
0.0
 10
17.0820601175
 20
11.3150901108
 30
0.0
 10
17.0832430546
 20
11.3167542844
 30
0.0
 10
17.0849719247
 20
11.3191144319
 30
0.0
 10
17.0870298926
 20
11.3219539896
 30
0.0
 10
17.0897796745
 20
11.3257374885
 30
0.0
 10
17.0932149075
 20
11.3304677449
 30
0.0
 10
17.098712395
 20
11.3380356618
 30
0.0
 10
17.1055838719
 20
11.3474957272
 30
0.0
 10
17.1138298081
 20
11.3588477332
 30
0.0
 10
17.1220757004
 20
11.3701997585
 30
0.0
 10
17.1330702389
 20
11.3853357855
 30
0.0
 10
17.1468134062
 20
11.4042558217
 30
0.0
 10
17.1605565774
 20
11.4231758564
 30
0.0
 10
17.1715511097
 20
11.4383118859
 30
0.0
 10
17.1797970206
 20
11.4496639037
 30
0.0
 10
17.188042887
 20
11.4610159379
 30
0.0
 10
17.194914581
 20
11.4704759152
 30
0.0
 10
17.2004116257
 20
11.4780440119
 30
0.0
 10
17.2038479855
 20
11.4827738109
 30
0.0
 10
17.2065954546
 20
11.4865582487
 30
0.0
 10
17.2086604883
 20
11.4893949381
 30
0.0
 10
17.2103672513
 20
11.4917640596
 30
0.0
 10
17.2115896532
 20
11.493412213
 30
0.0
 10
17.2122449676
 20
11.4943699909
 30
0.0
 10
17.2128581514
 20
11.4950433196
 30
0.0
 10
17.2130061435
 20
11.4958886793
 30
0.0
 10
17.2133657303
 20
11.4969558191
 30
0.0
 10
17.2139194055
 20
11.4988512719
 30
0.0
 10
17.2147498956
 20
11.5015444448
 30
0.0
 10
17.2157295655
 20
11.5047825087
 30
0.0
 10
17.2170417011
 20
11.5090977421
 30
0.0
 10
17.2186798474
 20
11.514492532
 30
0.0
 10
17.2213020124
 20
11.5231237776
 30
0.0
 10
17.2245793304
 20
11.5339129782
 30
0.0
 10
17.2285122785
 20
11.5468599574
 30
0.0
 10
17.232445182
 20
11.559806953
 30
0.0
 10
17.2376890691
 20
11.5770696081
 30
0.0
 10
17.2442439219
 20
11.598647929
 30
0.0
 10
17.2507987788
 20
11.6202262487
 30
0.0
 10
17.2560426595
 20
11.6374889058
 30
0.0
 10
17.2599755821
 20
11.6504358955
 30
0.0
 10
17.2639084586
 20
11.6633828967
 30
0.0
 10
17.2671859992
 20
11.6741720289
 30
0.0
 10
17.2698077104
 20
11.6828034139
 30
0.0
 10
17.2714470113
 20
11.6881978491
 30
0.0
 10
17.2727567771
 20
11.6925138107
 30
0.0
 10
17.2737436872
 20
11.6957496497
 30
0.0
 10
17.2745515242
 20
11.6984497838
 30
0.0
 10
17.2751456389
 20
11.7003328096
 30
0.0
 10
17.2754404315
 20
11.7014198607
 30
0.0
 10
17.2757874509
 20
11.7022040593
 30
0.0
 10
17.2756531211
 20
11.7031070987
 30
0.0
 10
17.2756419147
 20
11.7042696983
 30
0.0
 10
17.2755440757
 20
11.7063235613
 30
0.0
 10
17.2754452041
 20
11.7092475538
 30
0.0
 10
17.2753090524
 20
11.7127606669
 30
0.0
 10
17.2751336312
 20
11.7174433081
 30
0.0
 10
17.2749122611
 20
11.7232971264
 30
0.0
 10
17.274559239
 20
11.7326629469
 30
0.0
 10
17.2741175599
 20
11.7443703216
 30
0.0
 10
17.2735877171
 20
11.7584191288
 30
0.0
 10
17.2730578283
 20
11.7724679474
 30
0.0
 10
17.272351326
 20
11.7911997015
 30
0.0
 10
17.271468192
 20
11.8146143956
 30
0.0
 10
17.2705850621
 20
11.8380290888
 30
0.0
 10
17.2698785533
 20
11.8567608442
 30
0.0
 10
17.2693486841
 20
11.8708096586
 30
0.0
 10
17.2688187677
 20
11.8848584815
 30
0.0
 10
17.2683773176
 20
11.8965658073
 30
0.0
 10
17.2680238285
 20
11.9059317276
 30
0.0
 10
17.2678036469
 20
11.9117852919
 30
0.0
 10
17.2676257861
 20
11.9164684546
 30
0.0
 10
17.2674970874
 20
11.9199799743
 30
0.0
 10
17.2673748971
 20
11.9229089521
 30
0.0
 10
17.267318686
 20
11.9249539156
 30
0.0
 10
17.2672407812
 20
11.9261307745
 30
0.0
 10
17.2673113273
 20
11.9269900138
 30
0.0
 10
17.2668888668
 20
11.9279387182
 30
0.0
 10
17.2664975523
 20
11.929172451
 30
0.0
 10
17.2657326296
 20
11.931346023
 30
0.0
 10
17.2646817718
 20
11.9344435243
 30
0.0
 10
17.2634028127
 20
11.9381637796
 30
0.0
 10
17.2617037964
 20
11.9431229835
 30
0.0
 10
17.2595778817
 20
11.9493223775
 30
0.0
 10
17.2561776167
 20
11.9592411905
 30
0.0
 10
17.2519268741
 20
11.9716397814
 30
0.0
 10
17.2468261594
 20
11.9865180584
 30
0.0
 10
17.2417253974
 20
12.001396344
 30
0.0
 10
17.234924398
 20
12.0212340551
 30
0.0
 10
17.226423143
 20
12.0460311951
 30
0.0
 10
17.2162216395
 20
12.0757877626
 30
0.0
 10
17.202619634
 20
12.115463186
 30
0.0
 10
17.19241813
 20
12.1452197536
 30
0.0
 10
17.1856171273
 20
12.1650574653
 30
0.0
  0
SPLINE
  5
32A
100
AcDbEntity
  8
03__ASM_ALL_CURVES
100
AcDbSpline
 62
8
  6
PHANTOM
 70
0
 71
3
 72
166
 73
162
 74
0
 42
0.0000001
 43
0.0000001
 44
0.0000000001
 40
0.0
 40
0.0
 40
0.0
 40
0.0
 40
0.015625
 40
0.03125
 40
0.0390625
 40
0.046875
 40
0.0546875
 40
0.05859375
 40
0.060546875
 40
0.0625
 40
0.064453125
 40
0.06640625
 40
0.0703125
 40
0.078125
 40
0.0859375
 40
0.09375
 40
0.109375
 40
0.1171875
 40
0.12109375
 40
0.123046875
 40
0.125
 40
0.126953125
 40
0.12890625
 40
0.1328125
 40
0.140625
 40
0.15625
 40
0.171875
 40
0.1796875
 40
0.18359375
 40
0.185546875
 40
0.1875
 40
0.189453125
 40
0.19140625
 40
0.1953125
 40
0.203125
 40
0.21875
 40
0.234375
 40
0.2421875
 40
0.24609375
 40
0.25
 40
0.25390625
 40
0.2578125
 40
0.265625
 40
0.28125
 40
0.296875
 40
0.3046875
 40
0.30859375
 40
0.3125
 40
0.31640625
 40
0.3203125
 40
0.328125
 40
0.34375
 40
0.359375
 40
0.3671875
 40
0.37109375
 40
0.375
 40
0.37890625
 40
0.3828125
 40
0.390625
 40
0.40625
 40
0.421875
 40
0.4296875
 40
0.43359375
 40
0.4375
 40
0.44140625
 40
0.4453125
 40
0.453125
 40
0.46875
 40
0.484375
 40
0.4921875
 40
0.49609375
 40
0.498046875
 40
0.5
 40
0.501953125
 40
0.50390625
 40
0.5078125
 40
0.515625
 40
0.53125
 40
0.546875
 40
0.5546875
 40
0.55859375
 40
0.560546875
 40
0.5625
 40
0.564453125
 40
0.56640625
 40
0.5703125
 40
0.578125
 40
0.59375
 40
0.6015625
 40
0.609375
 40
0.6171875
 40
0.62109375
 40
0.623046875
 40
0.625
 40
0.626953125
 40
0.62890625
 40
0.6328125
 40
0.640625
 40
0.65625
 40
0.6640625
 40
0.671875
 40
0.6796875
 40
0.68359375
 40
0.685546875
 40
0.6875
 40
0.689453125
 40
0.69140625
 40
0.6953125
 40
0.703125
 40
0.7109375
 40
0.71875
 40
0.7265625
 40
0.734375
 40
0.7421875
 40
0.74609375
 40
0.748046875
 40
0.75
 40
0.751953125
 40
0.75390625
 40
0.7578125
 40
0.765625
 40
0.7734375
 40
0.78125
 40
0.7890625
 40
0.796875
 40
0.8046875
 40
0.80859375
 40
0.810546875
 40
0.8125
 40
0.814453125
 40
0.81640625
 40
0.8203125
 40
0.828125
 40
0.8359375
 40
0.84375
 40
0.8515625
 40
0.859375
 40
0.8671875
 40
0.87109375
 40
0.873046875
 40
0.875
 40
0.876953125
 40
0.87890625
 40
0.8828125
 40
0.890625
 40
0.8984375
 40
0.90625
 40
0.9140625
 40
0.921875
 40
0.9296875
 40
0.93359375
 40
0.935546875
 40
0.9375
 40
0.939453125
 40
0.94140625
 40
0.9453125
 40
0.953125
 40
0.9609375
 40
0.96875
 40
0.984375
 40
1.0
 40
1.0
 40
1.0
 40
1.0
 10
13.9072070574
 20
12.8255179513
 30
0.0
 10
13.9085349031
 20
12.8234301899
 30
0.0
 10
13.9111907147
 20
12.8192546843
 30
0.0
 10
13.9145098774
 20
12.8140352163
 30
0.0
 10
13.9171664713
 20
12.8098598225
 30
0.0
 10
13.9191554868
 20
12.8067277867
 30
0.0
 10
13.9208239062
 20
12.8041193166
 30
0.0
 10
13.9219703968
 20
12.8022903267
 30
0.0
 10
13.9226589532
 20
12.8012499688
 30
0.0
 10
13.9230812288
 20
12.8004562373
 30
0.0
 10
13.9238633617
 20
12.7997139686
 30
0.0
 10
13.9247806839
 20
12.7987063263
 30
0.0
 10
13.9264444755
 20
12.7969513141
 30
0.0
 10
13.9287907889
 20
12.7944397956
 30
0.0
 10
13.9316192538
 20
12.7914277806
 30
0.0
 10
13.9353869345
 20
12.7874114194
 30
0.0
 10
13.9391504728
 20
12.7833934913
 30
0.0
 10
13.9424568087
 20
12.7798821413
 30
0.0
 10
13.9440919292
 20
12.7781206461
 30
0.0
 10
13.9450553308
 20
12.7771234353
 30
0.0
 10
13.9456958973
 20
12.7763491165
 30
0.0
 10
13.9466498794
 20
12.7756757618
 30
0.0
 10
13.9478125407
 20
12.7747427405
 30
0.0
 10
13.9498980487
 20
12.7731263366
 30
0.0
 10
13.9540327595
 20
12.769881807
 30
0.0
 10
13.9599601013
 20
12.765253618
 30
0.0
 10
13.9658741475
 20
12.7606203432
 30
0.0
 10
13.9700274722
 20
12.7573829337
 30
0.0
 10
13.9720873861
 20
12.7557567397
 30
0.0
 10
13.9732912639
 20
12.7548394843
 30
0.0
 10
13.9741186053
 20
12.7541176878
 30
0.0
 10
13.9752348222
 20
12.7535253118
 30
0.0
 10
13.9766223601
 20
12.7526903415
 30
0.0
 10
13.979097376
 20
12.7512500969
 30
0.0
 10
13.9840144581
 20
12.7483551282
 30
0.0
 10
13.9910537185
 20
12.7442238346
 30
0.0
 10
13.9980963104
 20
12.7401026174
 30
0.0
 10
14.0030087285
 20
12.7371935416
 30
0.0
 10
14.0058446472
 20
12.7355697162
 30
0.0
 10
14.0078900887
 20
12.7342432572
 30
0.0
 10
14.0102471089
 20
12.733331906
 30
0.0
 10
14.0132810984
 20
12.7319719336
 30
0.0
 10
14.0186414478
 20
12.7296598987
 30
0.0
 10
14.0262707215
 20
12.7263179877
 30
0.0
 10
14.0339165774
 20
12.7230027269
 30
0.0
 10
14.0392537116
 20
12.7206533818
 30
0.0
 10
14.042324182
 20
12.7193520397
 30
0.0
 10
14.0445692724
 20
12.7182608001
 30
0.0
 10
14.0470350728
 20
12.7176099218
 30
0.0
 10
14.050245814
 20
12.716588433
 30
0.0
 10
14.0559005486
 20
12.7148728985
 30
0.0
 10
14.0639594285
 20
12.7123805757
 30
0.0
 10
14.0720271054
 20
12.7099172122
 30
0.0
 10
14.0776695242
 20
12.7081611347
 30
0.0
 10
14.0808996188
 20
12.7072033564
 30
0.0
 10
14.0833060396
 20
12.7063570026
 30
0.0
 10
14.0857741335
 20
12.705999882
 30
0.0
 10
14.0890434156
 20
12.70535302
 30
0.0
 10
14.094774656
 20
12.7043010567
 30
0.0
 10
14.1029571175
 20
12.7027522801
 30
0.0
 10
14.111140637
 20
12.7012349242
 30
0.0
 10
14.1168703963
 20
12.700138972
 30
0.0
 10
14.1201420059
 20
12.6995612356
 30
0.0
 10
14.1226029584
 20
12.6989920251
 30
0.0
 10
14.1250361993
 20
12.6989421863
 30
0.0
 10
14.1282901753
 20
12.6986945888
 30
0.0
 10
14.1339802484
 20
12.6983455221
 30
0.0
 10
14.1421103031
 20
12.6978041893
 30
0.0
 10
14.1502431945
 20
12.697273085
 30
0.0
 10
14.1559292962
 20
12.6969096983
 30
0.0
 10
14.1587819858
 20
12.6967127405
 30
0.0
 10
14.1603965595
 20
12.6966251628
 30
0.0
 10
14.1616513398
 20
12.696488932
 30
0.0
 10
14.1627384873
 20
12.6966224066
 30
0.0
 10
14.1642464854
 20
12.6967063034
 30
0.0
 10
14.1668582812
 20
12.6968968823
 30
0.0
 10
14.1721013266
 20
12.69724679
 30
0.0
 10
14.1795800779
 20
12.6977644619
 30
0.0
 10
14.1870670285
 20
12.6982704427
 30
0.0
 10
14.1922985949
 20
12.6986367179
 30
0.0
 10
14.1949261743
 20
12.6988047914
 30
0.0
 10
14.1964087546
 20
12.6989249307
 30
0.0
 10
14.1975740003
 20
12.6989470473
 30
0.0
 10
14.1985354511
 20
12.6992290667
 30
0.0
 10
14.1998884649
 20
12.6995144437
 30
0.0
 10
14.2022231865
 20
12.7000560076
 30
0.0
 10
14.206916093
 20
12.7011091926
 30
0.0
 10
14.2122696216
 20
12.7023254487
 30
0.0
 10
14.2176257144
 20
12.7035380769
 30
0.0
 10
14.2216448844
 20
12.7044458157
 30
0.0
 10
14.2249861231
 20
12.7052095511
 30
0.0
 10
14.2273410175
 20
12.7057296222
 30
0.0
 10
14.2286616169
 20
12.7060495518
 30
0.0
 10
14.229722651
 20
12.706225416
 30
0.0
 10
14.2305138741
 20
12.7066462389
 30
0.0
 10
14.2316629429
 20
12.7071218993
 30
0.0
 10
14.233630053
 20
12.7079940353
 30
0.0
 10
14.2375953465
 20
12.7097100876
 30
0.0
 10
14.2421140829
 20
12.711683172
 30
0.0
 10
14.24663639
 20
12.7136528622
 30
0.0
 10
14.2500304359
 20
12.7151284307
 30
0.0
 10
14.252849601
 20
12.7163651493
 30
0.0
 10
14.2548413371
 20
12.7172167315
 30
0.0
 10
14.2559508273
 20
12.7177254336
 30
0.0
 10
14.2568636448
 20
12.7180447438
 30
0.0
 10
14.2574679851
 20
12.7186018774
 30
0.0
 10
14.2583813727
 20
12.7192617666
 30
0.0
 10
14.2599296655
 20
12.7204552244
 30
0.0
 10
14.2621677435
 20
12.7221399466
 30
0.0
 10
14.2648421229
 20
12.7241703111
 30
0.0
 10
14.2675197895
 20
12.7261982319
 30
0.0
 10
14.2701956214
 20
12.7282272298
 30
0.0
 10
14.272875505
 20
12.7302543632
 30
0.0
 10
14.2750967644
 20
12.7319489583
 30
0.0
 10
14.2766750249
 20
12.7331248244
 30
0.0
 10
14.2775404029
 20
12.7338128963
 30
0.0
 10
14.2782922123
 20
12.7342834623
 30
0.0
 10
14.2786511609
 20
12.7349279056
 30
0.0
 10
14.2792667936
 20
12.7357265129
 30
0.0
 10
14.2802803012
 20
12.7371523348
 30
0.0
 10
14.2817615716
 20
12.7391744408
 30
0.0
 10
14.2835247064
 20
12.7416073312
 30
0.0
 10
14.2852919562
 20
12.7440384206
 30
0.0
 10
14.2870571356
 20
12.7464703506
 30
0.0
 10
14.2888264817
 20
12.7489007196
 30
0.0
 10
14.2902887731
 20
12.7509305299
 30
0.0
 10
14.2913360979
 20
12.7523426241
 30
0.0
 10
14.2918975541
 20
12.7531632236
 30
0.0
 10
14.2924229142
 20
12.7537401143
 30
0.0
 10
14.2925497099
 20
12.7544643966
 30
0.0
 10
14.2928577949
 20
12.7553786944
 30
0.0
 10
14.2933321671
 20
12.7570026701
 30
0.0
 10
14.2940437293
 20
12.7593101057
 30
0.0
 10
14.2948830038
 20
12.7620844179
 30
0.0
 10
14.2957264587
 20
12.7648572197
 30
0.0
 10
14.296567792
 20
12.7676306735
 30
0.0
 10
14.2974134312
 20
12.7704030297
 30
0.0
 10
14.2981055456
 20
12.7727164416
 30
0.0
 10
14.2986145702
 20
12.7743297686
 30
0.0
 10
14.2988671406
 20
12.7752611261
 30
0.0
 10
14.299164458
 20
12.7759330071
 30
0.0
 10
14.2990493676
 20
12.7767067081
 30
0.0
 10
14.2990397665
 20
12.7777027933
 30
0.0
 10
14.2989559381
 20
12.7794624906
 30
0.0
 10
14.2988712477
 20
12.781967688
 30
0.0
 10
14.2987545129
 20
12.7849776491
 30
0.0
 10
14.2986421006
 20
12.7879865624
 30
0.0
 10
14.2985275044
 20
12.7909959427
 30
0.0
 10
14.2984173213
 20
12.7940045031
 30
0.0
 10
14.2983126117
 20
12.7965139803
 30
0.0
 10
14.2982644539
 20
12.7982660517
 30
0.0
 10
14.2981977069
 20
12.7992743541
 30
0.0
 10
14.298258149
 20
12.8000105282
 30
0.0
 10
14.2978961957
 20
12.8008233536
 30
0.0
 10
14.2975609276
 20
12.801880384
 30
0.0
 10
14.2969055616
 20
12.8037426444
 30
0.0
 10
14.2960052138
 20
12.8063965036
 30
0.0
 10
14.2949094343
 20
12.8095839224
 30
0.0
 10
14.2934537629
 20
12.81383284
 30
0.0
 10
14.2916323195
 20
12.8191443234
 30
0.0
 10
14.2901757299
 20
12.8233934077
 30
0.0
 10
14.2894473644
 20
12.8255179626
 30
0.0
  0
SPLINE
  5
32B
100
AcDbEntity
  8
03__ASM_ALL_CURVES
100
AcDbSpline
 62
8
  6
PHANTOM
 70
0
 71
3
 72
166
 73
162
 74
0
 42
0.0000001
 43
0.0000001
 44
0.0000000001
 40
0.0
 40
0.0
 40
0.0
 40
0.0
 40
0.015625
 40
0.03125
 40
0.0390625
 40
0.046875
 40
0.0546875
 40
0.05859375
 40
0.060546875
 40
0.0625
 40
0.064453125
 40
0.06640625
 40
0.0703125
 40
0.078125
 40
0.0859375
 40
0.09375
 40
0.109375
 40
0.1171875
 40
0.12109375
 40
0.123046875
 40
0.125
 40
0.126953125
 40
0.12890625
 40
0.1328125
 40
0.140625
 40
0.15625
 40
0.171875
 40
0.1796875
 40
0.18359375
 40
0.185546875
 40
0.1875
 40
0.189453125
 40
0.19140625
 40
0.1953125
 40
0.203125
 40
0.21875
 40
0.234375
 40
0.2421875
 40
0.24609375
 40
0.25
 40
0.25390625
 40
0.2578125
 40
0.265625
 40
0.28125
 40
0.296875
 40
0.3046875
 40
0.30859375
 40
0.3125
 40
0.31640625
 40
0.3203125
 40
0.328125
 40
0.34375
 40
0.359375
 40
0.3671875
 40
0.37109375
 40
0.375
 40
0.37890625
 40
0.3828125
 40
0.390625
 40
0.40625
 40
0.421875
 40
0.4296875
 40
0.43359375
 40
0.4375
 40
0.44140625
 40
0.4453125
 40
0.453125
 40
0.46875
 40
0.484375
 40
0.4921875
 40
0.49609375
 40
0.498046875
 40
0.5
 40
0.501953125
 40
0.50390625
 40
0.5078125
 40
0.515625
 40
0.53125
 40
0.546875
 40
0.5546875
 40
0.55859375
 40
0.560546875
 40
0.5625
 40
0.564453125
 40
0.56640625
 40
0.5703125
 40
0.578125
 40
0.59375
 40
0.6015625
 40
0.609375
 40
0.6171875
 40
0.62109375
 40
0.623046875
 40
0.625
 40
0.626953125
 40
0.62890625
 40
0.6328125
 40
0.640625
 40
0.65625
 40
0.6640625
 40
0.671875
 40
0.6796875
 40
0.68359375
 40
0.685546875
 40
0.6875
 40
0.689453125
 40
0.69140625
 40
0.6953125
 40
0.703125
 40
0.7109375
 40
0.71875
 40
0.7265625
 40
0.734375
 40
0.7421875
 40
0.74609375
 40
0.748046875
 40
0.75
 40
0.751953125
 40
0.75390625
 40
0.7578125
 40
0.765625
 40
0.7734375
 40
0.78125
 40
0.7890625
 40
0.796875
 40
0.8046875
 40
0.80859375
 40
0.810546875
 40
0.8125
 40
0.814453125
 40
0.81640625
 40
0.8203125
 40
0.828125
 40
0.8359375
 40
0.84375
 40
0.8515625
 40
0.859375
 40
0.8671875
 40
0.87109375
 40
0.873046875
 40
0.875
 40
0.876953125
 40
0.87890625
 40
0.8828125
 40
0.890625
 40
0.8984375
 40
0.90625
 40
0.9140625
 40
0.921875
 40
0.9296875
 40
0.93359375
 40
0.935546875
 40
0.9375
 40
0.939453125
 40
0.94140625
 40
0.9453125
 40
0.953125
 40
0.9609375
 40
0.96875
 40
0.984375
 40
1.0
 40
1.0
 40
1.0
 40
1.0
 10
14.2894473699
 20
12.8255179513
 30
0.0
 10
14.2881195243
 20
12.8276057127
 30
0.0
 10
14.2854637127
 20
12.8317812183
 30
0.0
 10
14.2821445499
 20
12.8370006864
 30
0.0
 10
14.2794879561
 20
12.8411760801
 30
0.0
 10
14.2774989406
 20
12.8443081159
 30
0.0
 10
14.2758305212
 20
12.846916586
 30
0.0
 10
14.2746840306
 20
12.8487455759
 30
0.0
 10
14.2739954742
 20
12.8497859338
 30
0.0
 10
14.2735731986
 20
12.8505796653
 30
0.0
 10
14.2727910657
 20
12.851321934
 30
0.0
 10
14.2718737435
 20
12.8523295763
 30
0.0
 10
14.2702099519
 20
12.8540845885
 30
0.0
 10
14.2678636385
 20
12.856596107
 30
0.0
 10
14.2650351736
 20
12.859608122
 30
0.0
 10
14.2612674929
 20
12.8636244832
 30
0.0
 10
14.2575039546
 20
12.8676424114
 30
0.0
 10
14.2541976187
 20
12.8711537613
 30
0.0
 10
14.2525624982
 20
12.8729152565
 30
0.0
 10
14.2515990965
 20
12.8739124673
 30
0.0
 10
14.2509585301
 20
12.8746867862
 30
0.0
 10
14.250004548
 20
12.8753601409
 30
0.0
 10
14.2488418867
 20
12.8762931622
 30
0.0
 10
14.2467563787
 20
12.877909566
 30
0.0
 10
14.2426216679
 20
12.8811540956
 30
0.0
 10
14.2366943261
 20
12.8857822846
 30
0.0
 10
14.2307802799
 20
12.8904155594
 30
0.0
 10
14.2266269552
 20
12.8936529689
 30
0.0
 10
14.2245670413
 20
12.8952791629
 30
0.0
 10
14.2233631635
 20
12.8961964183
 30
0.0
 10
14.2225358221
 20
12.8969182149
 30
0.0
 10
14.2214196052
 20
12.8975105908
 30
0.0
 10
14.2200320673
 20
12.8983455611
 30
0.0
 10
14.2175570514
 20
12.8997858057
 30
0.0
 10
14.2126399693
 20
12.9026807744
 30
0.0
 10
14.2056007088
 20
12.9068120681
 30
0.0
 10
14.198558117
 20
12.9109332852
 30
0.0
 10
14.1936456989
 20
12.913842361
 30
0.0
 10
14.1908097802
 20
12.9154661864
 30
0.0
 10
14.1887643387
 20
12.9167926454
 30
0.0
 10
14.1864073185
 20
12.9177039966
 30
0.0
 10
14.1833733289
 20
12.919063969
 30
0.0
 10
14.1780129796
 20
12.9213760039
 30
0.0
 10
14.1703837059
 20
12.9247179149
 30
0.0
 10
14.16273785
 20
12.9280331757
 30
0.0
 10
14.1574007158
 20
12.9303825208
 30
0.0
 10
14.1543302454
 20
12.931683863
 30
0.0
 10
14.152085155
 20
12.9327751025
 30
0.0
 10
14.1496193546
 20
12.9334259808
 30
0.0
 10
14.1464086134
 20
12.9344474696
 30
0.0
 10
14.1407538788
 20
12.9361630041
 30
0.0
 10
14.1326949989
 20
12.9386553269
 30
0.0
 10
14.124627322
 20
12.9411186904
 30
0.0
 10
14.1189849032
 20
12.9428747679
 30
0.0
 10
14.1157548086
 20
12.9438325462
 30
0.0
 10
14.1133483878
 20
12.9446789
 30
0.0
 10
14.1108802939
 20
12.9450360206
 30
0.0
 10
14.1076110118
 20
12.9456828826
 30
0.0
 10
14.1018797714
 20
12.9467348459
 30
0.0
 10
14.0936973099
 20
12.9482836225
 30
0.0
 10
14.0855137904
 20
12.9498009784
 30
0.0
 10
14.0797840311
 20
12.9508969307
 30
0.0
 10
14.0765124214
 20
12.9514746671
 30
0.0
 10
14.074051469
 20
12.9520438775
 30
0.0
 10
14.0716182281
 20
12.9520937164
 30
0.0
 10
14.0683642521
 20
12.9523413139
 30
0.0
 10
14.062674179
 20
12.9526903805
 30
0.0
 10
14.0545441243
 20
12.9532317134
 30
0.0
 10
14.0464112329
 20
12.9537628176
 30
0.0
 10
14.0407251312
 20
12.9541262043
 30
0.0
 10
14.0378724416
 20
12.9543231621
 30
0.0
 10
14.0362578679
 20
12.9544107398
 30
0.0
 10
14.0350030876
 20
12.9545469706
 30
0.0
 10
14.0339159401
 20
12.954413496
 30
0.0
 10
14.032407942
 20
12.9543295992
 30
0.0
 10
14.0297961462
 20
12.9541390203
 30
0.0
 10
14.0245531008
 20
12.9537891126
 30
0.0
 10
14.0170743495
 20
12.9532714407
 30
0.0
 10
14.0095873989
 20
12.9527654599
 30
0.0
 10
14.0043558325
 20
12.9523991847
 30
0.0
 10
14.0017282531
 20
12.9522311112
 30
0.0
 10
14.0002456727
 20
12.9521109719
 30
0.0
 10
13.999080427
 20
12.9520888553
 30
0.0
 10
13.9981189763
 20
12.9518068359
 30
0.0
 10
13.9967659625
 20
12.9515214589
 30
0.0
 10
13.9944312408
 20
12.9509798951
 30
0.0
 10
13.9897383344
 20
12.94992671
 30
0.0
 10
13.9843848058
 20
12.9487104539
 30
0.0
 10
13.9790287129
 20
12.9474978257
 30
0.0
 10
13.9750095429
 20
12.946590087
 30
0.0
 10
13.9716683043
 20
12.9458263515
 30
0.0
 10
13.9693134098
 20
12.9453062804
 30
0.0
 10
13.9679928105
 20
12.9449863509
 30
0.0
 10
13.9669317764
 20
12.9448104866
 30
0.0
 10
13.9661405533
 20
12.9443896637
 30
0.0
 10
13.9649914845
 20
12.9439140033
 30
0.0
 10
13.9630243744
 20
12.9430418674
 30
0.0
 10
13.9590590809
 20
12.941325815
 30
0.0
 10
13.9545403445
 20
12.9393527306
 30
0.0
 10
13.9500180374
 20
12.9373830404
 30
0.0
 10
13.9466239915
 20
12.9359074719
 30
0.0
 10
13.9438048264
 20
12.9346707533
 30
0.0
 10
13.9418130903
 20
12.9338191711
 30
0.0
 10
13.9407036001
 20
12.9333104691
 30
0.0
 10
13.9397907826
 20
12.9329911588
 30
0.0
 10
13.9391864423
 20
12.9324340253
 30
0.0
 10
13.9382730547
 20
12.9317741361
 30
0.0
 10
13.9367247619
 20
12.9305806782
 30
0.0
 10
13.9344866838
 20
12.9288959561
 30
0.0
 10
13.9318123045
 20
12.9268655915
 30
0.0
 10
13.9291346379
 20
12.9248376707
 30
0.0
 10
13.926458806
 20
12.9228086728
 30
0.0
 10
13.9237789224
 20
12.9207815394
 30
0.0
 10
13.921557663
 20
12.9190869444
 30
0.0
 10
13.9199794024
 20
12.9179110782
 30
0.0
 10
13.9191140244
 20
12.9172230063
 30
0.0
 10
13.9183622151
 20
12.9167524403
 30
0.0
 10
13.9180032665
 20
12.916107997
 30
0.0
 10
13.9173876338
 20
12.9153093898
 30
0.0
 10
13.9163741262
 20
12.9138835679
 30
0.0
 10
13.9148928558
 20
12.9118614619
 30
0.0
 10
13.913129721
 20
12.9094285715
 30
0.0
 10
13.9113624712
 20
12.906997482
 30
0.0
 10
13.9095972918
 20
12.904565552
 30
0.0
 10
13.9078279457
 20
12.902135183
 30
0.0
 10
13.9063656543
 20
12.9001053727
 30
0.0
 10
13.9053183295
 20
12.8986932785
 30
0.0
 10
13.9047568733
 20
12.897872679
 30
0.0
 10
13.9042315132
 20
12.8972957883
 30
0.0
 10
13.9041047174
 20
12.896571506
 30
0.0
 10
13.9037966325
 20
12.8956572082
 30
0.0
 10
13.9033222603
 20
12.8940332325
 30
0.0
 10
13.9026106981
 20
12.8917257969
 30
0.0
 10
13.9017714236
 20
12.8889514847
 30
0.0
 10
13.9009279687
 20
12.8861786829
 30
0.0
 10
13.9000866354
 20
12.8834052292
 30
0.0
 10
13.8992409962
 20
12.8806328729
 30
0.0
 10
13.8985488817
 20
12.878319461
 30
0.0
 10
13.8980398572
 20
12.876706134
 30
0.0
 10
13.8977872867
 20
12.8757747765
 30
0.0
 10
13.8974899694
 20
12.8751028955
 30
0.0
 10
13.8976050598
 20
12.8743291946
 30
0.0
 10
13.8976146609
 20
12.8733331093
 30
0.0
 10
13.8976984893
 20
12.871573412
 30
0.0
 10
13.8977831797
 20
12.8690682147
 30
0.0
 10
13.8978999145
 20
12.8660582535
 30
0.0
 10
13.8980123268
 20
12.8630493402
 30
0.0
 10
13.898126923
 20
12.8600399599
 30
0.0
 10
13.8982371061
 20
12.8570313995
 30
0.0
 10
13.8983418157
 20
12.8545219223
 30
0.0
 10
13.8983899735
 20
12.8527698509
 30
0.0
 10
13.8984567205
 20
12.8517615486
 30
0.0
 10
13.8983962783
 20
12.8510253744
 30
0.0
 10
13.8987582317
 20
12.850212549
 30
0.0
 10
13.8990934998
 20
12.8491555186
 30
0.0
 10
13.8997488658
 20
12.8472932582
 30
0.0
 10
13.9006492136
 20
12.8446393991
 30
0.0
 10
13.9017449931
 20
12.8414519803
 30
0.0
 10
13.9032006645
 20
12.8372030627
 30
0.0
 10
13.9050221079
 20
12.8318915792
 30
0.0
 10
13.9064786975
 20
12.827642495
 30
0.0
 10
13.907207063
 20
12.82551794
 30
0.0
  0
SPLINE
  5
32C
100
AcDbEntity
  8
03__ASM_ALL_CURVES
100
AcDbSpline
 62
8
  6
PHANTOM
 70
0
 71
3
 72
49
 73
45
 74
0
 42
0.0000001
 43
0.0000001
 44
0.0000000001
 40
0.0
 40
0.0
 40
0.0
 40
0.0
 40
0.0625
 40
0.09375
 40
0.125
 40
0.140625
 40
0.15625
 40
0.1640625
 40
0.171875
 40
0.1796875
 40
0.1875
 40
0.21875
 40
0.25
 40
0.28125
 40
0.3125
 40
0.328125
 40
0.34375
 40
0.359375
 40
0.375
 40
0.4375
 40
0.46875
 40
0.484375
 40
0.5
 40
0.515625
 40
0.53125
 40
0.5625
 40
0.625
 40
0.640625
 40
0.65625
 40
0.671875
 40
0.6875
 40
0.71875
 40
0.75
 40
0.78125
 40
0.8125
 40
0.8203125
 40
0.828125
 40
0.8359375
 40
0.84375
 40
0.859375
 40
0.875
 40
0.90625
 40
0.9375
 40
1.0
 40
1.0
 40
1.0
 40
1.0
 10
16.785049512
 20
12.16505736
 30
0.0
 10
16.7822723696
 20
12.1703536722
 30
0.0
 10
16.7781058405
 20
12.1782986724
 30
0.0
 10
16.7725537304
 20
12.1888898781
 30
0.0
 10
16.7690768657
 20
12.1955138148
 30
0.0
 10
16.7663108685
 20
12.2008028568
 30
0.0
 10
16.7645467818
 20
12.2041315597
 30
0.0
 10
16.7632164511
 20
12.2067417249
 30
0.0
 10
16.76199709
 20
12.2088439092
 30
0.0
 10
16.7607156372
 20
12.2109866027
 30
0.0
 10
16.7581846168
 20
12.2152511479
 30
0.0
 10
16.7543754944
 20
12.2216567725
 30
0.0
 10
16.7493000507
 20
12.2301923195
 30
0.0
 10
16.7442379249
 20
12.2387302219
 30
0.0
 10
16.739972272
 20
12.2458416939
 30
0.0
 10
16.736666406
 20
12.2515379658
 30
0.0
 10
16.7338953663
 20
12.2557909549
 30
0.0
 10
16.7310424634
 20
12.2600385505
 30
0.0
 10
16.7253797473
 20
12.2685366143
 30
0.0
 10
16.7187480682
 20
12.2784489699
 30
0.0
 10
16.7121542167
 20
12.2883649683
 30
0.0
 10
16.7083387184
 20
12.2940264155
 30
0.0
 10
16.7056090363
 20
12.2982859728
 30
0.0
 10
16.7023753795
 20
12.3024940612
 30
0.0
 10
16.6982397543
 20
12.308122815
 30
0.0
 10
16.6909191902
 20
12.317964597
 30
0.0
 10
16.6836361643
 20
12.3278104326
 30
0.0
 10
16.6773725744
 20
12.3362471319
 30
0.0
 10
16.6742613216
 20
12.340468342
 30
0.0
 10
16.6710720997
 20
12.3446786277
 30
0.0
 10
16.6664494888
 20
12.3502404057
 30
0.0
 10
16.6607981593
 20
12.3572105129
 30
0.0
 10
16.6539627525
 20
12.3655666996
 30
0.0
 10
16.6471394967
 20
12.3739260385
 30
0.0
 10
16.6420259603
 20
12.3801920423
 30
0.0
 10
16.6386066298
 20
12.3843742271
 30
0.0
 10
16.6369162751
 20
12.3864567885
 30
0.0
 10
16.6351507394
 20
12.388572504
 30
0.0
 10
16.632438928
 20
12.3915512052
 30
0.0
 10
16.6291716616
 20
12.3952205693
 30
0.0
 10
16.6238755764
 20
12.4011217372
 30
0.0
 10
16.6172789204
 20
12.4084878571
 30
0.0
 10
16.6067111056
 20
12.4202794538
 30
0.0
 10
16.5987882067
 20
12.4291218453
 30
0.0
 10
16.5935056158
 20
12.4350170631
 30
0.0
  0
SPLINE
  5
32D
100
AcDbEntity
  8
03__ASM_ALL_CURVES
100
AcDbSpline
 62
8
  6
PHANTOM
 70
0
 71
3
 72
139
 73
135
 74
0
 42
0.0000001
 43
0.0000001
 44
0.0000000001
 40
0.0
 40
0.0
 40
0.0
 40
0.0
 40
0.03125
 40
0.0625
 40
0.078125
 40
0.09375
 40
0.1015625
 40
0.109375
 40
0.1171875
 40
0.125
 40
0.12890625
 40
0.1328125
 40
0.13671875
 40
0.138671875
 40
0.140625
 40
0.1416015625
 40
0.142578125
 40
0.14453125
 40
0.146484375
 40
0.1484375
 40
0.15234375
 40
0.15625
 40
0.1640625
 40
0.171875
 40
0.1875
 40
0.203125
 40
0.21875
 40
0.234375
 40
0.25
 40
0.2578125
 40
0.265625
 40
0.2734375
 40
0.27734375
 40
0.28125
 40
0.283203125
 40
0.2841796875
 40
0.28515625
 40
0.2856445312
 40
0.2861328125
 40
0.287109375
 40
0.2890625
 40
0.29296875
 40
0.296875
 40
0.3046875
 40
0.3125
 40
0.328125
 40
0.34375
 40
0.375
 40
0.390625
 40
0.3984375
 40
0.40625
 40
0.4140625
 40
0.41796875
 40
0.421875
 40
0.42578125
 40
0.427734375
 40
0.4287109375
 40
0.4296875
 40
0.431640625
 40
0.43359375
 40
0.4375
 40
0.44140625
 40
0.4453125
 40
0.453125
 40
0.4609375
 40
0.46875
 40
0.484375
 40
0.5
 40
0.515625
 40
0.53125
 40
0.5390625
 40
0.546875
 40
0.5546875
 40
0.55859375
 40
0.5625
 40
0.56640625
 40
0.568359375
 40
0.5703125
 40
0.5712890625
 40
0.572265625
 40
0.57421875
 40
0.578125
 40
0.58203125
 40
0.5859375
 40
0.59375
 40
0.6015625
 40
0.609375
 40
0.625
 40
0.65625
 40
0.671875
 40
0.6875
 40
0.6953125
 40
0.703125
 40
0.70703125
 40
0.7109375
 40
0.712890625
 40
0.7138671875
 40
0.7143554688
 40
0.71484375
 40
0.7158203125
 40
0.716796875
 40
0.71875
 40
0.72265625
 40
0.7265625
 40
0.734375
 40
0.7421875
 40
0.75
 40
0.765625
 40
0.78125
 40
0.796875
 40
0.8125
 40
0.828125
 40
0.8359375
 40
0.84375
 40
0.84765625
 40
0.8515625
 40
0.853515625
 40
0.85546875
 40
0.857421875
 40
0.8583984375
 40
0.859375
 40
0.861328125
 40
0.86328125
 40
0.8671875
 40
0.87109375
 40
0.875
 40
0.8828125
 40
0.890625
 40
0.8984375
 40
0.90625
 40
0.921875
 40
0.9375
 40
0.96875
 40
1.0
 40
1.0
 40
1.0
 40
1.0
 10
16.5935056251
 20
12.4350170533
 30
0.0
 10
16.5777943763
 20
12.4489728016
 30
0.0
 10
16.5463718789
 20
12.4768842982
 30
0.0
 10
16.5070937568
 20
12.5117736688
 30
0.0
 10
16.4756712599
 20
12.5396851657
 30
0.0
 10
16.4560321975
 20
12.5571298504
 30
0.0
 10
16.4403209517
 20
12.5710856001
 30
0.0
 10
16.4285375062
 20
12.5815524071
 30
0.0
 10
16.4167541031
 20
12.5920192341
 30
0.0
 10
16.4069344687
 20
12.6007415277
 30
0.0
 10
16.3990790563
 20
12.6077195019
 30
0.0
 10
16.3931866908
 20
12.6129526019
 30
0.0
 10
16.3882789504
 20
12.6173147294
 30
0.0
 10
16.3843470072
 20
12.6208017157
 30
0.0
 10
16.3819026379
 20
12.6229872661
 30
0.0
 10
16.3799171516
 20
12.6247215439
 30
0.0
 10
16.3780411526
 20
12.6265075244
 30
0.0
 10
16.3749124874
 20
12.6283699327
 30
0.0
 10
16.3713412973
 20
12.6306913383
 30
0.0
 10
16.3665157197
 20
12.6337563276
 30
0.0
 10
16.360505658
 20
12.6375979109
 30
0.0
 10
16.3508773149
 20
12.6437386619
 30
0.0
 10
16.3388460784
 20
12.6514165806
 30
0.0
 10
16.319593757
 20
12.6637001439
 30
0.0
 10
16.295529159
 20
12.6790549776
 30
0.0
 10
16.2666512976
 20
12.697480616
 30
0.0
 10
16.2377735254
 20
12.7159062953
 30
0.0
 10
16.2088957401
 20
12.7343319731
 30
0.0
 10
16.1848308885
 20
12.7496866754
 30
0.0
 10
16.165579087
 20
12.7619705082
 30
0.0
 10
16.1511400149
 20
12.7711831875
 30
0.0
 10
16.1391081581
 20
12.7788610415
 30
0.0
 10
16.1294810953
 20
12.7850019313
 30
0.0
 10
16.1234677728
 20
12.7888431604
 30
0.0
 10
16.1192512494
 20
12.7915256624
 30
0.0
 10
16.1168530687
 20
12.7930684688
 30
0.0
 10
16.1153277663
 20
12.7940093663
 30
0.0
 10
16.1141681639
 20
12.7948156529
 30
0.0
 10
16.1127871552
 20
12.7954263505
 30
0.0
 10
16.1104089811
 20
12.7965291624
 30
0.0
 10
16.1056252381
 20
12.7987105857
 30
0.0
 10
16.0988056127
 20
12.8018395313
 30
0.0
 10
16.0878862243
 20
12.8068387879
 30
0.0
 10
16.0742397238
 20
12.8130902747
 30
0.0
 10
16.0524037946
 20
12.8230913036
 30
0.0
 10
16.0251094062
 20
12.8355930513
 30
0.0
 10
15.981438094
 20
12.855595593
 30
0.0
 10
15.9377668523
 20
12.8755981847
 30
0.0
 10
15.8995545216
 20
12.8931004884
 30
0.0
 10
15.8777188588
 20
12.9031017182
 30
0.0
 10
15.861342246
 20
12.9106028901
 30
0.0
 10
15.8476946397
 20
12.9168530709
 30
0.0
 10
15.8367775171
 20
12.9218550007
 30
0.0
 10
15.8285870453
 20
12.9256015701
 30
0.0
 10
15.8217700171
 20
12.9287392272
 30
0.0
 10
15.8169816815
 20
12.9309051377
 30
0.0
 10
15.8142711217
 20
12.9321903453
 30
0.0
 10
15.811303733
 20
12.9329991644
 30
0.0
 10
15.8076824356
 20
12.9341733043
 30
0.0
 10
15.8018392108
 20
12.9359607624
 30
0.0
 10
15.7945520426
 20
12.9382263636
 30
0.0
 10
15.7858002229
 20
12.9409316968
 30
0.0
 10
15.7741336512
 20
12.9445434843
 30
0.0
 10
15.7595495716
 20
12.9490566142
 30
0.0
 10
15.7420490463
 20
12.9544730569
 30
0.0
 10
15.7187148833
 20
12.9616947406
 30
0.0
 10
15.689547224
 20
12.970721928
 30
0.0
 10
15.6545460135
 20
12.9815545148
 30
0.0
 10
15.6195448092
 20
12.9923871217
 30
0.0
 10
15.5903771342
 20
13.0014142587
 30
0.0
 10
15.5670430025
 20
13.0086360432
 30
0.0
 10
15.5495423817
 20
13.0140521783
 30
0.0
 10
15.5349586009
 20
13.0185662705
 30
0.0
 10
15.5232914197
 20
13.0221760948
 30
0.0
 10
15.5145414614
 20
13.0248874235
 30
0.0
 10
15.5072484696
 20
13.0271342665
 30
0.0
 10
15.501417126
 20
13.028959995
 30
0.0
 10
15.4977655917
 20
13.0300367389
 30
0.0
 10
15.4948602687
 20
13.0310454777
 30
0.0
 10
15.4918968835
 20
13.0315163112
 30
0.0
 10
15.4867211002
 20
13.0324342167
 30
0.0
 10
15.4793218224
 20
13.0336963938
 30
0.0
 10
15.4704449584
 20
13.0352320298
 30
0.0
 10
15.4586083469
 20
13.0372722008
 30
0.0
 10
15.4438128546
 20
13.039824934
 30
0.0
 10
15.4260581473
 20
13.0428871357
 30
0.0
 10
15.4023852451
 20
13.0469704468
 30
0.0
 10
15.3609576458
 20
13.0541160714
 30
0.0
 10
15.3136118358
 20
13.0622825373
 30
0.0
 10
15.2662659959
 20
13.0704490841
 30
0.0
 10
15.2366749057
 20
13.0755529421
 30
0.0
 10
15.2130018977
 20
13.0796365693
 30
0.0
 10
15.1982065775
 20
13.082187601
 30
0.0
 10
15.1863696118
 20
13.084231256
 30
0.0
 10
15.1789731271
 20
13.085502084
 30
0.0
 10
15.1737923435
 20
13.0864046029
 30
0.0
 10
15.1712063932
 20
13.0868381483
 30
0.0
 10
15.1697215568
 20
13.087114407
 30
0.0
 10
15.1683085126
 20
13.0871043343
 30
0.0
 10
15.166517629
 20
13.0871897701
 30
0.0
 10
15.1636659323
 20
13.0872717591
 30
0.0
 10
15.1586690728
 20
13.0874407263
 30
0.0
 10
15.1515340363
 20
13.0876688103
 30
0.0
 10
15.1401161145
 20
13.0880411768
 30
0.0
 10
15.1258443515
 20
13.088504085
 30
0.0
 10
15.1087179623
 20
13.0890606663
 30
0.0
 10
15.0858828722
 20
13.0898023936
 30
0.0
 10
15.0573389775
 20
13.0907296821
 30
0.0
 10
15.0230863144
 20
13.0918423788
 30
0.0
 10
14.9888336604
 20
13.0929550666
 30
0.0
 10
14.9545809597
 20
13.0940678394
 30
0.0
 10
14.9260371905
 20
13.0949948742
 30
0.0
 10
14.9032018431
 20
13.0957371215
 30
0.0
 10
14.888930507
 20
13.0961996155
 30
0.0
 10
14.8775117067
 20
13.0965728413
 30
0.0
 10
14.870378907
 20
13.0967987361
 30
0.0
 10
14.8646636189
 20
13.0969963353
 30
0.0
 10
14.8604019277
 20
13.0970983076
 30
0.0
 10
14.8567717055
 20
13.0973303401
 30
0.0
 10
14.8541911622
 20
13.0969121024
 30
0.0
 10
14.8515540996
 20
13.0965993231
 30
0.0
 10
14.8482771236
 20
13.09617224
 30
0.0
 10
14.843023146
 20
13.0955090884
 30
0.0
 10
14.8364593849
 20
13.0946732247
 30
0.0
 10
14.8285812832
 20
13.093673152
 30
0.0
 10
14.8180777024
 20
13.0923386865
 30
0.0
 10
14.8049480361
 20
13.0906709599
 30
0.0
 10
14.7891925181
 20
13.0886695357
 30
0.0
 10
14.7734369783
 20
13.0866681522
 30
0.0
 10
14.7524295995
 20
13.0839996267
 30
0.0
 10
14.7261703733
 20
13.0806639746
 30
0.0
 10
14.684155613
 20
13.0753269287
 30
0.0
 10
14.6316371621
 20
13.0686556221
 30
0.0
 10
14.5896224015
 20
13.0633185766
 30
0.0
 10
14.5686150212
 20
13.0606500539
 30
0.0
  0
SPLINE
  5
32E
100
AcDbEntity
  8
03__ASM_ALL_CURVES
100
AcDbSpline
 62
8
  6
PHANTOM
 70
0
 71
3
 72
40
 73
36
 74
0
 42
0.0000001
 43
0.0000001
 44
0.0000000001
 40
0.0
 40
0.0
 40
0.0
 40
0.0
 40
0.0625
 40
0.125
 40
0.140625
 40
0.15625
 40
0.1640625
 40
0.171875
 40
0.1875
 40
0.21875
 40
0.25
 40
0.3125
 40
0.375
 40
0.40625
 40
0.4375
 40
0.46875
 40
0.484375
 40
0.4921875
 40
0.5
 40
0.5078125
 40
0.515625
 40
0.53125
 40
0.5625
 40
0.59375
 40
0.625
 40
0.640625
 40
0.65625
 40
0.6640625
 40
0.671875
 40
0.6875
 40
0.71875
 40
0.75
 40
0.8125
 40
0.875
 40
1.0
 40
1.0
 40
1.0
 40
1.0
 10
14.5686149818
 20
13.0606500451
 30
0.0
 10
14.5665362251
 20
13.0601762895
 30
0.0
 10
14.5623816841
 20
13.059229681
 30
0.0
 10
14.5576944492
 20
13.0581606842
 30
0.0
 10
14.5545891331
 20
13.0574539437
 30
0.0
 10
14.5532664551
 20
13.0571507234
 30
0.0
 10
14.552275473
 20
13.0569285429
 30
0.0
 10
14.5510388866
 20
13.0566317757
 30
0.0
 10
14.5487608136
 20
13.0560777098
 30
0.0
 10
14.5455654392
 20
13.0553048075
 30
0.0
 10
14.5404227118
 20
13.0540548167
 30
0.0
 10
14.5339842024
 20
13.0525179506
 30
0.0
 10
14.527623754
 20
13.0508952784
 30
0.0
 10
14.5225548024
 20
13.0495799766
 30
0.0
 10
14.5187473675
 20
13.0485951756
 30
0.0
 10
14.5155854898
 20
13.0477760753
 30
0.0
 10
14.5133516104
 20
13.0471986811
 30
0.0
 10
14.5121070668
 20
13.0468751697
 30
0.0
 10
14.5110836579
 20
13.0466144013
 30
0.0
 10
14.5104042743
 20
13.0464229583
 30
0.0
 10
14.5093784248
 20
13.0461435179
 30
0.0
 10
14.5076391485
 20
13.0456657813
 30
0.0
 10
14.5051248252
 20
13.0449772649
 30
0.0
 10
14.5021220138
 20
13.0441542237
 30
0.0
 10
14.4996112728
 20
13.0434658086
 30
0.0
 10
14.4976156474
 20
13.042919601
 30
0.0
 10
14.4963401621
 20
13.0425681837
 30
0.0
 10
14.4953842586
 20
13.042310009
 30
0.0
 10
14.4941929919
 20
13.0419680276
 30
0.0
 10
14.4919989449
 20
13.0413305361
 30
0.0
 10
14.488921609
 20
13.0404408749
 30
0.0
 10
14.4839661597
 20
13.0390016853
 30
0.0
 10
14.47778162
 20
13.037236522
 30
0.0
 10
14.4678872396
 20
13.0342272526
 30
0.0
 10
14.460469281
 20
13.0319330682
 30
0.0
 10
14.4555233471
 20
13.0304118857
 30
0.0
  0
SPLINE
  5
32F
100
AcDbEntity
  8
03__ASM_ALL_CURVES
100
AcDbSpline
 62
8
  6
PHANTOM
 70
0
 71
3
 72
132
 73
128
 74
0
 42
0.0000001
 43
0.0000001
 44
0.0000000001
 40
0.0
 40
0.0
 40
0.0
 40
0.0
 40
0.03125
 40
0.0625
 40
0.078125
 40
0.09375
 40
0.109375
 40
0.125
 40
0.140625
 40
0.1484375
 40
0.15234375
 40
0.15625
 40
0.16015625
 40
0.1640625
 40
0.1650390625
 40
0.166015625
 40
0.1665039062
 40
0.1669921875
 40
0.16796875
 40
0.169921875
 40
0.171875
 40
0.17578125
 40
0.1796875
 40
0.1875
 40
0.1953125
 40
0.203125
 40
0.21875
 40
0.25
 40
0.265625
 40
0.28125
 40
0.296875
 40
0.3046875
 40
0.3125
 40
0.3203125
 40
0.32421875
 40
0.328125
 40
0.330078125
 40
0.33203125
 40
0.3330078125
 40
0.3334960938
 40
0.333984375
 40
0.3349609375
 40
0.3359375
 40
0.33984375
 40
0.34375
 40
0.34765625
 40
0.3515625
 40
0.359375
 40
0.375
 40
0.390625
 40
0.40625
 40
0.421875
 40
0.4375
 40
0.453125
 40
0.4609375
 40
0.46875
 40
0.4765625
 40
0.484375
 40
0.48828125
 40
0.4921875
 40
0.494140625
 40
0.49609375
 40
0.498046875
 40
0.4990234375
 40
0.5
 40
0.5009765625
 40
0.501953125
 40
0.50390625
 40
0.505859375
 40
0.5078125
 40
0.51171875
 40
0.515625
 40
0.5234375
 40
0.53125
 40
0.5390625
 40
0.546875
 40
0.5625
 40
0.578125
 40
0.59375
 40
0.609375
 40
0.625
 40
0.640625
 40
0.6484375
 40
0.65234375
 40
0.65625
 40
0.66015625
 40
0.6640625
 40
0.6650390625
 40
0.666015625
 40
0.6665039062
 40
0.6669921875
 40
0.66796875
 40
0.669921875
 40
0.671875
 40
0.67578125
 40
0.6796875
 40
0.6875
 40
0.6953125
 40
0.703125
 40
0.71875
 40
0.75
 40
0.78125
 40
0.796875
 40
0.8046875
 40
0.8125
 40
0.8203125
 40
0.82421875
 40
0.828125
 40
0.830078125
 40
0.83203125
 40
0.8330078125
 40
0.8334960938
 40
0.833984375
 40
0.8349609375
 40
0.8359375
 40
0.83984375
 40
0.84375
 40
0.84765625
 40
0.8515625
 40
0.859375
 40
0.875
 40
0.890625
 40
0.90625
 40
0.921875
 40
0.9375
 40
0.96875
 40
1.0
 40
1.0
 40
1.0
 40
1.0
 10
14.4555233512
 20
13.030411887
 30
0.0
 10
14.4431772593
 20
13.0251143238
 30
0.0
 10
14.4184850755
 20
13.0145191975
 30
0.0
 10
14.3876198461
 20
13.0012752893
 30
0.0
 10
14.3629276618
 20
12.9906801633
 30
0.0
 10
14.3444085256
 20
12.9827338172
 30
0.0
 10
14.3258893818
 20
12.9747874771
 30
0.0
 10
14.3073702664
 20
12.9668411149
 30
0.0
 10
14.2919375818
 20
12.960219215
 30
0.0
 10
14.2811348758
 20
12.9555837506
 30
0.0
 10
14.2749616305
 20
12.9529351239
 30
0.0
 10
14.2703324585
 20
12.9509480619
 30
0.0
 10
14.2657003737
 20
12.9489632626
 30
0.0
 10
14.2622344771
 20
12.9474683191
 30
0.0
 10
14.2599111779
 20
12.9464815564
 30
0.0
 10
14.2589620371
 20
12.9460557236
 30
0.0
 10
14.2581586334
 20
12.9457493068
 30
0.0
 10
14.2575164733
 20
12.9453176374
 30
0.0
 10
14.2564676105
 20
12.9445040208
 30
0.0
 10
14.254930147
 20
12.9433720747
 30
0.0
 10
14.2524920497
 20
12.9415439924
 30
0.0
 10
14.2494369485
 20
12.9392646995
 30
0.0
 10
14.2445529669
 20
12.9356145838
 30
0.0
 10
14.2384465556
 20
12.9310530531
 30
0.0
 10
14.231119476
 20
12.9255787396
 30
0.0
 10
14.2213498224
 20
12.9182798212
 30
0.0
 10
14.2042530282
 20
12.9055066364
 30
0.0
 10
14.1847137933
 20
12.8909087438
 30
0.0
 10
14.1651745694
 20
12.8763108412
 30
0.0
 10
14.15052016
 20
12.8653624112
 30
0.0
 10
14.1383081191
 20
12.8562387341
 30
0.0
 10
14.1285385615
 20
12.848939759
 30
0.0
 10
14.1212111878
 20
12.8434656192
 30
0.0
 10
14.1151056965
 20
12.8389035446
 30
0.0
 10
14.1102198381
 20
12.8352545387
 30
0.0
 10
14.1071695132
 20
12.8329724213
 30
0.0
 10
14.1047216118
 20
12.8311501369
 30
0.0
 10
14.1032091088
 20
12.8300034298
 30
0.0
 10
14.1021154141
 20
12.8292163255
 30
0.0
 10
14.1015451166
 20
12.8287421586
 30
0.0
 10
14.101180737
 20
12.8281761156
 30
0.0
 10
14.1006548789
 20
12.8274999655
 30
0.0
 10
14.0994507483
 20
12.8258513586
 30
0.0
 10
14.0976202217
 20
12.8233893041
 30
0.0
 10
14.0951934259
 20
12.8201003601
 30
0.0
 10
14.0927629103
 20
12.8168130758
 30
0.0
 10
14.0895235203
 20
12.8124294511
 30
0.0
 10
14.0838539832
 20
12.8047583777
 30
0.0
 10
14.0757549606
 20
12.7937995603
 30
0.0
 10
14.0660359981
 20
12.78064904
 30
0.0
 10
14.0563170717
 20
12.7674985034
 30
0.0
 10
14.0465981359
 20
12.7543479711
 30
0.0
 10
14.0368792017
 20
12.7411974381
 30
0.0
 10
14.0287800924
 20
12.7302386595
 30
0.0
 10
14.0223007982
 20
12.7214716395
 30
0.0
 10
14.0174413464
 20
12.7148963664
 30
0.0
 10
14.0125818223
 20
12.7083211245
 30
0.0
 10
14.0085324443
 20
12.7028416588
 30
0.0
 10
14.0052924369
 20
12.6984583046
 30
0.0
 10
14.0032685821
 20
12.6957182109
 30
0.0
 10
14.0016468651
 20
12.693527275
 30
0.0
 10
14.0004377869
 20
12.6918809543
 30
0.0
 10
13.999407287
 20
12.6905189418
 30
0.0
 10
13.9986343256
 20
12.6894070798
 30
0.0
 10
13.9979140499
 20
12.6886339863
 30
0.0
 10
13.9977302732
 20
12.6876288068
 30
0.0
 10
13.9972978316
 20
12.6863696381
 30
0.0
 10
13.9968215776
 20
12.6847678623
 30
0.0
 10
13.9962225512
 20
12.682857637
 30
0.0
 10
13.995433462
 20
12.6803065116
 30
0.0
 10
13.9944438092
 20
12.6771190286
 30
0.0
 10
13.9928622042
 20
12.6720182601
 30
0.0
 10
13.9908845667
 20
12.6656425725
 30
0.0
 10
13.9885116724
 20
12.6579916303
 30
0.0
 10
13.9861387056
 20
12.6503407194
 30
0.0
 10
13.9829747752
 20
12.640139494
 30
0.0
 10
13.9790198537
 20
12.627387966
 30
0.0
 10
13.9742739508
 20
12.6120861309
 30
0.0
 10
13.9695280497
 20
12.5967842956
 30
0.0
 10
13.9647821385
 20
12.5814824623
 30
0.0
 10
13.9600362662
 20
12.5661806214
 30
0.0
 10
13.956081251
 20
12.553429111
 30
0.0
 10
13.9533129789
 20
12.5445030074
 30
0.0
 10
13.9517307367
 20
12.5394024491
 30
0.0
 10
13.950545104
 20
12.5355768266
 30
0.0
 10
13.9493554618
 20
12.5317519829
 30
0.0
 10
13.9484744721
 20
12.5288811666
 30
0.0
 10
13.947869662
 20
12.5269706849
 30
0.0
 10
13.9476436743
 20
12.5261695977
 30
0.0
 10
13.9474021928
 20
12.5255405158
 30
0.0
 10
13.9473826637
 20
12.5248683254
 30
0.0
 10
13.9474516118
 20
12.5236719629
 30
0.0
 10
13.9474963042
 20
12.5219733239
 30
0.0
 10
13.9475978808
 20
12.5192496614
 30
0.0
 10
13.9477145559
 20
12.515847083
 30
0.0
 10
13.9479069902
 20
12.5104018398
 30
0.0
 10
13.948145559
 20
12.5035956694
 30
0.0
 10
13.9484326864
 20
12.4954281007
 30
0.0
 10
13.9488152282
 20
12.4845380664
 30
0.0
 10
13.9494848146
 20
12.4654804796
 30
0.0
 10
13.9504412875
 20
12.4382553709
 30
0.0
 10
13.9513978133
 20
12.4110302517
 30
0.0
 10
13.9520673255
 20
12.3919726796
 30
0.0
 10
13.9524499838
 20
12.381082622
 30
0.0
 10
13.9527367537
 20
12.3729151249
 30
0.0
 10
13.9529764415
 20
12.3661087305
 30
0.0
 10
13.9531665928
 20
12.3606639444
 30
0.0
 10
13.9532890784
 20
12.3572602028
 30
0.0
 10
13.953378728
 20
12.3545389278
 30
0.0
 10
13.9534537856
 20
12.3528342106
 30
0.0
 10
13.9534681942
 20
12.3516487652
 30
0.0
 10
13.9535360883
 20
12.3509590754
 30
0.0
 10
13.9538286933
 20
12.3502230862
 30
0.0
 10
13.9541176424
 20
12.349318925
 30
0.0
 10
13.954874336
 20
12.3471359131
 30
0.0
 10
13.955982825
 20
12.343866866
 30
0.0
 10
13.957475986
 20
12.3395050096
 30
0.0
 10
13.9589650876
 20
12.3351439897
 30
0.0
 10
13.9609519723
 20
12.3293290047
 30
0.0
 10
13.9644283609
 20
12.3191529169
 30
0.0
 10
13.9693949753
 20
12.3046155776
 30
0.0
 10
13.9753547646
 20
12.2871708008
 30
0.0
 10
13.9813145936
 20
12.2697260159
 30
0.0
 10
13.9872744119
 20
12.2522812332
 30
0.0
 10
13.9952208401
 20
12.2290215221
 30
0.0
 10
14.0051538741
 20
12.1999468835
 30
0.0
 10
14.0131003016
 20
12.1766871726
 30
0.0
 10
14.0170735153
 20
12.1650573171
 30
0.0
  0
SPLINE
  5
330
100
AcDbEntity
  8
03__ASM_ALL_CURVES
100
AcDbSpline
 62
8
  6
PHANTOM
 70
0
 71
3
 72
89
 73
85
 74
0
 42
0.0000001
 43
0.0000001
 44
0.0000000001
 40
0.0
 40
0.0
 40
0.0
 40
0.0
 40
0.0625
 40
0.09375
 40
0.109375
 40
0.125
 40
0.140625
 40
0.1484375
 40
0.15625
 40
0.16015625
 40
0.1640625
 40
0.166015625
 40
0.16796875
 40
0.171875
 40
0.1796875
 40
0.1875
 40
0.203125
 40
0.21875
 40
0.25
 40
0.28125
 40
0.296875
 40
0.3125
 40
0.3203125
 40
0.328125
 40
0.33203125
 40
0.333984375
 40
0.3359375
 40
0.33984375
 40
0.34375
 40
0.3515625
 40
0.359375
 40
0.375
 40
0.390625
 40
0.40625
 40
0.421875
 40
0.4375
 40
0.453125
 40
0.46875
 40
0.4765625
 40
0.484375
 40
0.4921875
 40
0.49609375
 40
0.498046875
 40
0.5
 40
0.501953125
 40
0.50390625
 40
0.5078125
 40
0.515625
 40
0.5234375
 40
0.53125
 40
0.546875
 40
0.5625
 40
0.578125
 40
0.59375
 40
0.609375
 40
0.625
 40
0.640625
 40
0.65625
 40
0.66015625
 40
0.6640625
 40
0.666015625
 40
0.66796875
 40
0.671875
 40
0.6796875
 40
0.6875
 40
0.703125
 40
0.71875
 40
0.75
 40
0.78125
 40
0.796875
 40
0.8125
 40
0.8203125
 40
0.828125
 40
0.83203125
 40
0.833984375
 40
0.8359375
 40
0.83984375
 40
0.84375
 40
0.859375
 40
0.875
 40
0.890625
 40
0.90625
 40
0.9375
 40
1.0
 40
1.0
 40
1.0
 40
1.0
 10
14.0170734943
 20
12.16505736
 30
0.0
 10
14.0248052695
 20
12.1516379833
 30
0.0
 10
14.0364029642
 20
12.1315089154
 30
0.0
 10
14.0499334967
 20
12.1080250125
 30
0.0
 10
14.0576653884
 20
12.0946056257
 30
0.0
 10
14.0634638626
 20
12.0845411241
 30
0.0
 10
14.0682973402
 20
12.0761539167
 30
0.0
 10
14.0721609467
 20
12.069444426
 30
0.0
 10
14.0745829318
 20
12.0652503677
 30
0.0
 10
14.0765039593
 20
12.0618965562
 30
0.0
 10
14.0777423874
 20
12.0597971493
 30
0.0
 10
14.0786465839
 20
12.0581251244
 30
0.0
 10
14.0798667357
 20
12.056425717
 30
0.0
 10
14.082148776
 20
12.0534390337
 30
0.0
 10
14.0853322538
 20
12.04917898
 30
0.0
 10
14.0904686155
 20
12.0423591854
 30
0.0
 10
14.0968744083
 20
12.0338357111
 30
0.0
 10
14.1071319017
 20
12.0201974483
 30
0.0
 10
14.1199507188
 20
12.0031498232
 30
0.0
 10
14.1327714535
 20
11.9861022642
 30
0.0
 10
14.1430258786
 20
11.9724638957
 30
0.0
 10
14.1494393421
 20
11.9639406854
 30
0.0
 10
14.1545599789
 20
11.9571203496
 30
0.0
 10
14.157783488
 20
11.9528616737
 30
0.0
 10
14.1599936279
 20
11.9498725159
 30
0.0
 10
14.1613290313
 20
11.9481770749
 30
0.0
 10
14.1629374254
 20
11.946529285
 30
0.0
 10
14.1648544466
 20
11.9444532321
 30
0.0
 10
14.1679739168
 20
11.9411406653
 30
0.0
 10
14.1718553686
 20
11.9369968348
 30
0.0
 10
14.1780756881
 20
11.9303684509
 30
0.0
 10
14.1858476571
 20
11.9220823723
 30
0.0
 10
14.1951754912
 20
11.9121393349
 30
0.0
 10
14.2045029283
 20
11.9021962278
 30
0.0
 10
14.2138304825
 20
11.8922531424
 30
0.0
 10
14.2231579649
 20
11.8823100398
 30
0.0
 10
14.2324856174
 20
11.8723669844
 30
0.0
 10
14.2402581541
 20
11.8640809618
 30
0.0
 10
14.2464773155
 20
11.8574524637
 30
0.0
 10
14.2511385944
 20
11.8524802158
 30
0.0
 10
14.2550328289
 20
11.848339457
 30
0.0
 10
14.2577394915
 20
11.8454354681
 30
0.0
 10
14.2593162937
 20
11.8437845677
 30
0.0
 10
14.2604139967
 20
11.8425223861
 30
0.0
 10
14.261836225
 20
11.8413519689
 30
0.0
 10
14.2636193314
 20
11.8397594041
 30
0.0
 10
14.2667925086
 20
11.836987329
 30
0.0
 10
14.2712980452
 20
11.833019425
 30
0.0
 10
14.2767164917
 20
11.8282612774
 30
0.0
 10
14.2839369643
 20
11.821915915
 30
0.0
 10
14.2929639686
 20
11.8139846114
 30
0.0
 10
14.303795773
 20
11.8044668781
 30
0.0
 10
14.3146277188
 20
11.7949491819
 30
0.0
 10
14.3254596997
 20
11.785431506
 30
0.0
 10
14.336291399
 20
11.775913712
 30
0.0
 10
14.3471241894
 20
11.7663963699
 30
0.0
 10
14.357952897
 20
11.7568773386
 30
0.0
 10
14.3660858576
 20
11.7497427935
 30
0.0
 10
14.3714900575
 20
11.7449790774
 30
0.0
 10
14.3737682555
 20
11.7430051368
 30
0.0
 10
14.3755291159
 20
11.7414004611
 30
0.0
 10
14.3775156102
 20
11.7398891252
 30
0.0
 10
14.38109681
 20
11.7372876552
 30
0.0
 10
14.3861581121
 20
11.7335486423
 30
0.0
 10
14.3942867637
 20
11.7275788671
 30
0.0
 10
14.4044371071
 20
11.7201123163
 30
0.0
 10
14.4206835354
 20
11.7081682673
 30
0.0
 10
14.4409893631
 20
11.6932372919
 30
0.0
 10
14.4612966731
 20
11.6783069328
 30
0.0
 10
14.4775407297
 20
11.6663618976
 30
0.0
 10
14.4876970024
 20
11.6588978124
 30
0.0
 10
14.4958134989
 20
11.6529229827
 30
0.0
 10
14.5009057446
 20
11.6491968371
 30
0.0
 10
14.5044313663
 20
11.6465722561
 30
0.0
 10
14.5065069487
 20
11.6450979657
 30
0.0
 10
14.5088120663
 20
11.6437196081
 30
0.0
 10
14.5116150072
 20
11.6419638709
 30
0.0
 10
14.5184066383
 20
11.6377770895
 30
0.0
 10
14.5285669636
 20
11.6314855822
 30
0.0
 10
14.5421295654
 20
11.6231033844
 30
0.0
 10
14.5556880205
 20
11.6147194537
 30
0.0
 10
14.5737674075
 20
11.603541484
 30
0.0
 10
14.6054056566
 20
11.5839797536
 30
0.0
 10
14.6325243883
 20
11.5672126532
 30
0.0
 10
14.6506034911
 20
11.5560345648
 30
0.0
  0
SPLINE
  5
331
100
AcDbEntity
  8
03__ASM_ALL_CURVES
100
AcDbSpline
 62
8
  6
PHANTOM
 70
0
 71
3
 72
195
 73
191
 74
0
 42
0.0000001
 43
0.0000001
 44
0.0000000001
 40
0.0
 40
0.0
 40
0.0
 40
0.0
 40
0.03125
 40
0.046875
 40
0.0625
 40
0.078125
 40
0.0859375
 40
0.09375
 40
0.1015625
 40
0.109375
 40
0.11328125
 40
0.1171875
 40
0.119140625
 40
0.12109375
 40
0.123046875
 40
0.1240234375
 40
0.1245117188
 40
0.125
 40
0.1254882812
 40
0.1259765625
 40
0.126953125
 40
0.12890625
 40
0.130859375
 40
0.1328125
 40
0.13671875
 40
0.140625
 40
0.1484375
 40
0.15625
 40
0.1640625
 40
0.171875
 40
0.1875
 40
0.203125
 40
0.2109375
 40
0.21875
 40
0.2265625
 40
0.234375
 40
0.23828125
 40
0.2421875
 40
0.244140625
 40
0.24609375
 40
0.248046875
 40
0.2490234375
 40
0.2495117188
 40
0.25
 40
0.2504882812
 40
0.2509765625
 40
0.251953125
 40
0.25390625
 40
0.255859375
 40
0.2578125
 40
0.26171875
 40
0.265625
 40
0.2734375
 40
0.28125
 40
0.2890625
 40
0.296875
 40
0.3125
 40
0.328125
 40
0.3359375
 40
0.34375
 40
0.3515625
 40
0.359375
 40
0.36328125
 40
0.3671875
 40
0.369140625
 40
0.37109375
 40
0.373046875
 40
0.3740234375
 40
0.3745117188
 40
0.375
 40
0.3754882812
 40
0.3759765625
 40
0.376953125
 40
0.37890625
 40
0.380859375
 40
0.3828125
 40
0.38671875
 40
0.390625
 40
0.3984375
 40
0.40625
 40
0.4140625
 40
0.421875
 40
0.4375
 40
0.453125
 40
0.4609375
 40
0.46875
 40
0.4765625
 40
0.484375
 40
0.48828125
 40
0.4921875
 40
0.494140625
 40
0.49609375
 40
0.498046875
 40
0.4990234375
 40
0.4995117188
 40
0.5
 40
0.5004882812
 40
0.5009765625
 40
0.501953125
 40
0.50390625
 40
0.505859375
 40
0.5078125
 40
0.51171875
 40
0.515625
 40
0.5234375
 40
0.53125
 40
0.5390625
 40
0.546875
 40
0.5625
 40
0.578125
 40
0.5859375
 40
0.59375
 40
0.6015625
 40
0.609375
 40
0.61328125
 40
0.6171875
 40
0.619140625
 40
0.62109375
 40
0.623046875
 40
0.6240234375
 40
0.6245117188
 40
0.625
 40
0.6254882812
 40
0.6259765625
 40
0.626953125
 40
0.62890625
 40
0.630859375
 40
0.6328125
 40
0.63671875
 40
0.640625
 40
0.6484375
 40
0.65625
 40
0.6640625
 40
0.671875
 40
0.6875
 40
0.703125
 40
0.7109375
 40
0.71875
 40
0.7265625
 40
0.734375
 40
0.73828125
 40
0.7421875
 40
0.744140625
 40
0.74609375
 40
0.748046875
 40
0.7490234375
 40
0.7495117188
 40
0.75
 40
0.7504882812
 40
0.7509765625
 40
0.751953125
 40
0.75390625
 40
0.755859375
 40
0.7578125
 40
0.76171875
 40
0.765625
 40
0.7734375
 40
0.78125
 40
0.7890625
 40
0.796875
 40
0.8125
 40
0.828125
 40
0.8359375
 40
0.84375
 40
0.8515625
 40
0.859375
 40
0.86328125
 40
0.8671875
 40
0.869140625
 40
0.87109375
 40
0.873046875
 40
0.8740234375
 40
0.8745117188
 40
0.875
 40
0.8754882812
 40
0.8759765625
 40
0.876953125
 40
0.87890625
 40
0.880859375
 40
0.8828125
 40
0.88671875
 40
0.890625
 40
0.8984375
 40
0.90625
 40
0.9140625
 40
0.921875
 40
0.9375
 40
0.953125
 40
0.96875
 40
1.0
 40
1.0
 40
1.0
 40
1.0
 10
15.678861194
 20
11.238677849
 30
0.0
 10
15.7031522905
 20
11.2382974726
 30
0.0
 10
15.7395889352
 20
11.2377269081
 30
0.0
 10
15.7881711282
 20
11.2369661553
 30
0.0
 10
15.8246077727
 20
11.236395591
 30
0.0
 10
15.8549716438
 20
11.2359201196
 30
0.0
 10
15.8792627394
 20
11.2355397451
 30
0.0
 10
15.8974810645
 20
11.2352544572
 30
0.0
 10
15.9156993763
 20
11.2349691961
 30
0.0
 10
15.9308813444
 20
11.2347313949
 30
0.0
 10
15.9430268258
 20
11.2345413413
 30
0.0
 10
15.9506179637
 20
11.2344221314
 30
0.0
 10
15.9566903882
 20
11.2343277398
 30
0.0
 10
15.961246037
 20
11.2342542728
 30
0.0
 10
15.9650381786
 20
11.2342015548
 30
0.0
 10
15.9677009837
 20
11.2341479623
 30
0.0
 10
15.9692096175
 20
11.2341433978
 30
0.0
 10
15.9703776271
 20
11.2340665637
 30
0.0
 10
15.9714059843
 20
11.2342703427
 30
0.0
 10
15.9728258396
 20
11.2344441671
 30
0.0
 10
15.9752878903
 20
11.2347939643
 30
0.0
 10
15.9788169713
 20
11.235269832
 30
0.0
 10
15.9830467897
 20
11.2358510786
 30
0.0
 10
15.9886883214
 20
11.2366225096
 30
0.0
 10
15.9957396286
 20
11.2375880188
 30
0.0
 10
16.0070220597
 20
11.2391321514
 30
0.0
 10
16.0211249821
 20
11.2410625512
 30
0.0
 10
16.0380485389
 20
11.2433789306
 30
0.0
 10
16.0549720823
 20
11.2456953369
 30
0.0
 10
16.0775368116
 20
11.2487838692
 30
0.0
 10
16.1057427212
 20
11.2526445381
 30
0.0
 10
16.1339486326
 20
11.2565052046
 30
0.0
 10
16.1565133592
 20
11.2595937406
 30
0.0
 10
16.1734369106
 20
11.2619101358
 30
0.0
 10
16.1903604375
 20
11.264226557
 30
0.0
 10
16.2044634528
 20
11.2661568268
 30
0.0
 10
16.2157456944
 20
11.2677012244
 30
0.0
 10
16.222797484
 20
11.2686660593
 30
0.0
 10
16.2284380256
 20
11.2694388743
 30
0.0
 10
16.2326708688
 20
11.2700158926
 30
0.0
 10
16.2361904859
 20
11.2705049898
 30
0.0
 10
16.2386694312
 20
11.27083117
 30
0.0
 10
16.240062217
 20
11.2710428347
 30
0.0
 10
16.2411737229
 20
11.2711303803
 30
0.0
 10
16.2420294399
 20
11.2714900998
 30
0.0
 10
16.2432596178
 20
11.2718747885
 30
0.0
 10
16.245370859
 20
11.2725922267
 30
0.0
 10
16.2484086512
 20
11.273594013
 30
0.0
 10
16.2520446993
 20
11.274806055
 30
0.0
 10
16.2568960126
 20
11.2764186536
 30
0.0
 10
16.2629590417
 20
11.2784355857
 30
0.0
 10
16.2726605101
 20
11.2816620154
 30
0.0
 10
16.2847871322
 20
11.2856952796
 30
0.0
 10
16.2993391703
 20
11.2905350993
 30
0.0
 10
16.3138911838
 20
11.295374945
 30
0.0
 10
16.3332938771
 20
11.3018280635
 30
0.0
 10
16.3575472404
 20
11.309894465
 30
0.0
 10
16.3818006062
 20
11.3179608644
 30
0.0
 10
16.4012032956
 20
11.3244139864
 30
0.0
 10
16.4157553209
 20
11.3292538216
 30
0.0
 10
16.4303073149
 20
11.3340936806
 30
0.0
 10
16.4424340739
 20
11.3381268224
 30
0.0
 10
16.4521352631
 20
11.3413535017
 30
0.0
 10
16.4581990027
 20
11.3433697986
 30
0.0
 10
16.4630488576
 20
11.3449837011
 30
0.0
 10
16.4666893612
 20
11.3461917596
 30
0.0
 10
16.4697132134
 20
11.3472060092
 30
0.0
 10
16.4718493398
 20
11.3479011983
 30
0.0
 10
16.4730396454
 20
11.3483215356
 30
0.0
 10
16.4740178376
 20
11.348571754
 30
0.0
 10
16.4746693467
 20
11.3490705677
 30
0.0
 10
16.4756519763
 20
11.3496489398
 30
0.0
 10
16.4773184862
 20
11.3507014922
 30
0.0
 10
16.4797269718
 20
11.3521840162
 30
0.0
 10
16.4826052735
 20
11.353972086
 30
0.0
 10
16.4864471589
 20
11.3563530212
 30
0.0
 10
16.4912480948
 20
11.3593302715
 30
0.0
 10
16.4989303864
 20
11.3640932676
 30
0.0
 10
16.5085329783
 20
11.3700472202
 30
0.0
 10
16.5200562055
 20
11.3771918743
 30
0.0
 10
16.5315794014
 20
11.3843365523
 30
0.0
 10
16.5469436736
 20
11.3938627812
 30
0.0
 10
16.5661490096
 20
11.4057705704
 30
0.0
 10
16.5853543486
 20
11.4176783577
 30
0.0
 10
16.600718616
 20
11.4272045897
 30
0.0
 10
16.6122418262
 20
11.4343492584
 30
0.0
 10
16.6237649998
 20
11.4414939475
 30
0.0
 10
16.6333677585
 20
11.4474477913
 30
0.0
 10
16.64104971
 20
11.4522110091
 30
0.0
 10
16.6458515113
 20
11.4551876954
 30
0.0
 10
16.6496916203
 20
11.4575697883
 30
0.0
 10
16.6525753492
 20
11.4593543212
 30
0.0
 10
16.6549668545
 20
11.4608479112
 30
0.0
 10
16.656663677
 20
11.4618807089
 30
0.0
 10
16.6575977383
 20
11.4624907329
 30
0.0
 10
16.6583984336
 20
11.4628923222
 30
0.0
 10
16.6588163075
 20
11.4635076996
 30
0.0
 10
16.659507005
 20
11.4642536311
 30
0.0
 10
16.6606535105
 20
11.4655937556
 30
0.0
 10
16.6623239024
 20
11.4674900544
 30
0.0
 10
16.66431445
 20
11.4697733881
 30
0.0
 10
16.6669733765
 20
11.4728151174
 30
0.0
 10
16.6702953694
 20
11.4766182088
 30
0.0
 10
16.6756114888
 20
11.4827026353
 30
0.0
 10
16.6822563187
 20
11.4903083469
 30
0.0
 10
16.6902302514
 20
11.4994351242
 30
0.0
 10
16.6982041476
 20
11.5085619221
 30
0.0
 10
16.7088360219
 20
11.5207309787
 30
0.0
 10
16.72212586
 20
11.5359423021
 30
0.0
 10
16.7354157014
 20
11.5511536239
 30
0.0
 10
16.7460475704
 20
11.5633226831
 30
0.0
 10
16.7540214827
 20
11.5724494732
 30
0.0
 10
16.7619953547
 20
11.5815762795
 30
0.0
 10
16.7686403736
 20
11.589181901
 30
0.0
 10
16.7739561074
 20
11.5952665111
 30
0.0
 10
16.7772790817
 20
11.5990691352
 30
0.0
 10
16.7799359939
 20
11.6021118237
 30
0.0
 10
16.7819326952
 20
11.6043922269
 30
0.0
 10
16.7835838336
 20
11.6062976946
 30
0.0
 10
16.7847647098
 20
11.6076214511
 30
0.0
 10
16.7854003369
 20
11.6083936082
 30
0.0
 10
16.7859873693
 20
11.6089284292
 30
0.0
 10
16.7861527333
 20
11.6096325748
 30
0.0
 10
16.7865203013
 20
11.6105123734
 30
0.0
 10
16.7870950167
 20
11.612079539
 30
0.0
 10
16.7879518663
 20
11.6143039602
 30
0.0
 10
16.7889647504
 20
11.6169794237
 30
0.0
 10
16.7903206189
 20
11.6205445575
 30
0.0
 10
16.7920136204
 20
11.6250017112
 30
0.0
 10
16.794723448
 20
11.6321327455
 30
0.0
 10
16.7981103807
 20
11.6410466796
 30
0.0
 10
16.8021748508
 20
11.65174334
 30
0.0
 10
16.8062392805
 20
11.6624400166
 30
0.0
 10
16.8116585343
 20
11.6767022464
 30
0.0
 10
16.8184325962
 20
11.6945300357
 30
0.0
 10
16.8252066617
 20
11.7123578238
 30
0.0
 10
16.8306259097
 20
11.7266200554
 30
0.0
 10
16.8346903567
 20
11.7373167266
 30
0.0
 10
16.8387547618
 20
11.7480134071
 30
0.0
 10
16.8421418965
 20
11.7569272789
 30
0.0
 10
16.8448513122
 20
11.7640584402
 30
0.0
 10
16.8465453621
 20
11.7685152706
 30
0.0
 10
16.8478990786
 20
11.772081068
 30
0.0
 10
16.8489185373
 20
11.774754504
 30
0.0
 10
16.8497548168
 20
11.7769852688
 30
0.0
 10
16.8503662531
 20
11.7785411102
 30
0.0
 10
16.850674985
 20
11.7794390529
 30
0.0
 10
16.8510210747
 20
11.7800874653
 30
0.0
 10
16.8509293313
 20
11.7808316113
 30
0.0
 10
16.850959728
 20
11.7817904131
 30
0.0
 10
16.8509417665
 20
11.7834838745
 30
0.0
 10
16.8509533082
 20
11.785894971
 30
0.0
 10
16.850951235
 20
11.7887917685
 30
0.0
 10
16.8509540324
 20
11.7926529491
 30
0.0
 10
16.8509556248
 20
11.7974798413
 30
0.0
 10
16.850959237
 20
11.805202636
 30
0.0
 10
16.8509633871
 20
11.8148562092
 30
0.0
 10
16.8509685238
 20
11.8264404628
 30
0.0
 10
16.8509736185
 20
11.8380247256
 30
0.0
 10
16.8509804262
 20
11.8534704061
 30
0.0
 10
16.8509889303
 20
11.872777508
 30
0.0
 10
16.8509974381
 20
11.892084609
 30
0.0
 10
16.8510042399
 20
11.9075302908
 30
0.0
 10
16.8510093525
 20
11.9191145497
 30
0.0
 10
16.8510144224
 20
11.9306988178
 30
0.0
 10
16.85101878
 20
11.940352346
 30
0.0
 10
16.851021969
 20
11.9480752326
 30
0.0
 10
16.8510246386
 20
11.9529018907
 30
0.0
 10
16.8510252248
 20
11.9567635517
 30
0.0
 10
16.8510299072
 20
11.9596588817
 30
0.0
 10
16.8510203125
 20
11.9620745696
 30
0.0
 10
16.8510400829
 20
11.9637598347
 30
0.0
 10
16.8510100235
 20
11.964731769
 30
0.0
 10
16.8511039818
 20
11.9654355759
 30
0.0
 10
16.8507526071
 20
11.9662354955
 30
0.0
 10
16.8504394446
 20
11.9672685297
 30
0.0
 10
16.8498190358
 20
11.9690919597
 30
0.0
 10
16.8489705757
 20
11.9716886933
 30
0.0
 10
16.8479362277
 20
11.974808269
 30
0.0
 10
16.8465627539
 20
11.9789664825
 30
0.0
 10
16.8448439747
 20
11.9841646673
 30
0.0
 10
16.8420950105
 20
11.9924815295
 30
0.0
 10
16.8386584338
 20
12.0028776873
 30
0.0
 10
16.834534701
 20
12.0153530423
 30
0.0
 10
16.8304109256
 20
12.0278284066
 30
0.0
 10
16.8249125732
 20
12.0444622223
 30
0.0
 10
16.8180396277
 20
12.0652544931
 30
0.0
 10
16.8097920953
 20
12.0902052176
 30
0.0
 10
16.7987953847
 20
12.1234728504
 30
0.0
 10
16.7905478518
 20
12.148423575
 30
0.0
 10
16.7850494966
 20
12.1650573913
 30
0.0
  0
ELLIPSE
  5
332
100
AcDbEntity
  8
0
100
AcDbEllipse
 62
7
  6
CONTINUOUS
 10
6.0708720839
 20
11.6293581929
 30
0.0
 11
0.0
 21
1.1104736047
 31
0.0
 40
0.9567989689
 41
0.1120754423
 42
0.2334207991
  0
ELLIPSE
  5
333
100
AcDbEntity
  8
0
100
AcDbEllipse
 62
7
  6
CONTINUOUS
 10
6.0708720839
 20
11.6293581929
 30
0.0
 11
-0.0
 21
1.1104736047
 31
0.0
 40
0.9567989689
 41
-0.2334207991
 42
-0.1120754423
  0
ELLIPSE
  5
334
100
AcDbEntity
  8
0
100
AcDbEllipse
 62
7
  6
CONTINUOUS
 10
15.2530828282
 20
11.6861981926
 30
0.0
 11
-0.093346706
 21
1.5291648627
 31
0.0
 40
0.6380825661
 41
-0.272352383
 42
0.1944892152
  0
ENDSEC
  0
SECTION
  2
OBJECTS
  0
DICTIONARY
  5
C
100
AcDbDictionary
280
0
281
1
  3
ACAD_GROUP
350
D
  3
ACAD_MLINESTYLE
350
17
  3
ACAD_LAYOUT
350
1A
  3
ACAD_PLOTSETTINGS
350
19
  3
ACAD_PLOTSTYLENAME
350
E
  0
DICTIONARY
  5
D
102
{ACAD_REACTORS
330
C
102
}
100
AcDbDictionary
280
0
281
1
  0
ACDBDICTIONARYWDFLT
  5
E
102
{ACAD_REACTORS
330
C
102
}
100
AcDbDictionary
281
1
  3
Normal
350
F
100
AcDbDictionaryWithDefault
340
F
  0
DICTIONARY
  5
17
102
{ACAD_REACTORS
330
C
102
}
100
AcDbDictionary
280
0
281
1
  3
Standard
350
18
  0
DICTIONARY
  5
19
102
{ACAD_REACTORS
330
C
102
}
100
AcDbDictionary
281
1
  0
DICTIONARY
  5
1A
102
{ACAD_REACTORS
330
C
102
}
100
AcDbDictionary
281
1
  3
Model
350
335
  3
Layout1
350
336
  0
ACDBPLACEHOLDER
  5
F
102
{ACAD_REACTORS
330
E
102
}
  0
MLINESTYLE
  5
18
102
{ACAD_REACTORS
330
17
102
}
100
AcDbMlineStyle
  2
STANDARD
 70
0
  3

 62
256
 51
90.0
 52
90.0
 71
2
 49
0.5
 62
256
  6
BYLAYER
 49
-0.5
 62
256
  6
BYLAYER
  0
LAYOUT
  5
335
102
{ACAD_REACTORS
330
1A
102
}
100
AcDbPlotSettings
  1

  2
none_device
  4
ANSI_C_(22.00_x_17.00_Inches)
  6

 40
0.0
 41
0.0
 42
0.0
 43
0.0
 44
558.8
 45
431.8
 46
0.0
 47
0.0
 48
0.0
 49
0.0
140
0.0
141
0.0
142
1.0
143
1.0
 70
1024
 72
0
 73
0
 74
0
  7

 75
0
147
1.0
148
0.0
149
0.0
100
AcDbLayout
  1
Model
 70
0
 71
0
 10
0.0
 20
0.0
 11
22.0
 21
17.0
 12
0.0
 22
0.0
 32
0.0
 14
0.0
 24
0.0
 34
0.0
 15
0.0
 25
0.0
 35
0.0
146
0.0
 13
0.0
 23
0.0
 33
0.0
 16
1.0
 26
0.0
 36
0.0
 17
0.0
 27
1.0
 37
0.0
 76
0
330
219
345
0
346
0
  0
LAYOUT
  5
336
102
{ACAD_REACTORS
330
1A
102
}
100
AcDbPlotSettings
  1

  2
none_device
  4
ANSI_C_(22.00_x_17.00_Inches)
  6

 40
0.0
 41
0.0
 42
0.0
 43
0.0
 44
558.8
 45
431.8
 46
0.0
 47
0.0
 48
0.0
 49
0.0
140
0.0
141
0.0
142
1.0
143
1.0
 70
0
 72
0
 73
0
 74
0
  7

 75
0
147
1.0
148
0.0
149
0.0
100
AcDbLayout
  1
Layout1
 70
0
 71
1
 10
0.0
 20
0.0
 11
22.0
 21
17.0
 12
0.0
 22
0.0
 32
0.0
 14
0.0
 24
0.0
 34
0.0
 15
0.0
 25
0.0
 35
0.0
146
0.0
 13
0.0
 23
0.0
 33
0.0
 16
1.0
 26
0.0
 36
0.0
 17
0.0
 27
1.0
 37
0.0
 76
0
330
21A
345
0
346
0
  0
ENDSEC
  0
EOF