999
DXF file: _cgs_temp_output.dxf
999
Pro/ENGINEER 2016360 by Parametric Technology Corporation
  0
SECTION
  2
HEADER
  9
$ACADVER
  1
AC1021
  9
$DWGCODEPAGE
  3
ANSI_1252
  9
$EXTMAX
 10
22.0
 20
17.0
 30
0.0
  9
$EXTMIN
 10
0.0
 20
0.0
 30
0.0
  9
$LIMMIN
 10
0.0
 20
0.0
  9
$LIMMAX
 10
22.0
 20
17.0
  9
$VIEWCTR
 10
11.0
 20
8.5
  9
$VIEWSIZE
 40
17.0
  9
$CLAYER
  8
0
  9
$LTSCALE
 40
1.21
  9
$CELTYPE
  6
BYLAYER
  9
$DIMSCALE
 40
1.0
  9
$DIMASZ
 40
0.1875
  9
$DIMEXO
 40
0.0625
  9
$DIMDLI
 40
0.836
  9
$DIMEXE
 40
0.125
  9
$DIMCEN
 40
0.198
  9
$DIMLFAC
 40
1.0
  9
$DIMBLK
  1
_CLOSED
  9
$DIMALT
 70
0
  9
$DIMALTF
 40
25.4
  9
$DIMTXT
 40
0.15625
  9
$DIMTOL
 70
0
  9
$DIMLIM
 70
0
  9
$DIMTFAC
 40
1.0
  9
$DIMGAP
 40
0.09
  9
$DIMDSEP
 70
46
  9
$AUNITS
 70
0
  9
$PDMODE
 70
3
  9
$PDSIZE
 40
0.3125
  9
$HANDSEED
  5
353
  9
$TILEMODE
 70
1
  9
$MEASUREMENT
 70
0
  9
$INSUNITS
 70
1
  0
ENDSEC
  0
SECTION
  2
CLASSES
  0
CLASS
  1
ACDBDICTIONARYWDFLT
  2
AcDbDictionaryWithDefault
  3
AutoCAD 2000
 90
0
 91
1
280
0
281
0
  0
CLASS
  1
ACDBPLACEHOLDER
  2
AcDbPlaceHolder
  3
AutoCAD 2000
 90
0
 91
1
280
0
281
0
  0
CLASS
  1
LAYOUT
  2
AcDbLayout
  3
AutoCAD 2000
 90
0
 91
0
280
0
281
0
  0
ENDSEC
  0
SECTION
  2
TABLES
  0
TABLE
  2
VPORT
  5
8
100
AcDbSymbolTable
 70
2
  0
VPORT
  5
1F4
100
AcDbSymbolTableRecord
100
AcDbViewportTableRecord
  2
*ACTIVE
 70
0
 10
0.0
 20
0.0
 11
1.0
 21
1.0
 12
11.0
 22
8.5
 13
0.0
 23
0.0
 14
1.0
 24
1.0
 15
0.0
 25
0.0
 16
0.0
 26
0.0
 36
1.0
 17
0.0
 27
0.0
 37
0.0
 40
17.0
 41
1.2941176471
 42
50.0
 43
0.0
 44
0.0
 50
0.0
 51
0.0
 71
0
 72
100
 73
1
 74
1
 75
0
 76
0
 77
0
 78
0
  0
ENDTAB
  0
TABLE
  2
LTYPE
  5
5
100
AcDbSymbolTable
 70
6
  0
LTYPE
  5
14
100
AcDbSymbolTableRecord
100
AcDbLinetypeTableRecord
  2
BYBLOCK
 70
0
  3

 72
65
 73
0
 40
0.0
  0
LTYPE
  5
15
100
AcDbSymbolTableRecord
100
AcDbLinetypeTableRecord
  2
BYLAYER
 70
0
  3

 72
65
 73
0
 40
0.0
  0
LTYPE
  5
16
100
AcDbSymbolTableRecord
100
AcDbLinetypeTableRecord
  2
CONTINUOUS
 70
64
  3
Solid line
 72
65
 73
0
 40
0.0
  0
LTYPE
  5
1F5
100
AcDbSymbolTableRecord
100
AcDbLinetypeTableRecord
  2
CENTER
 70
64
  3
____ _ ____ _ ____ _ ____ _ ____ _ ____ _ ____
 72
65
 73
4
 40
0.6
 49
0.375
 74
0
 49
-0.075
 74
0
 49
0.075
 74
0
 49
-0.075
 74
0
  0
LTYPE
  5
1F6
100
AcDbSymbolTableRecord
100
AcDbLinetypeTableRecord
  2
HIDDEN
 70
64
  3
- - - - - - - - - - - - - - - - - - - -
 72
65
 73
2
 40
0.2
 49
0.1
 74
0
 49
-0.1
 74
0
  0
LTYPE
  5
1F7
100
AcDbSymbolTableRecord
100
AcDbLinetypeTableRecord
  2
PHANTOM
 70
64
  3
_____ _ _ _____ _ _ _____ _ _ _____
 72
65
 73
6
 40
0.8
 49
0.45
 74
0
 49
-0.05
 74
0
 49
0.1
 74
0
 49
-0.05
 74
0
 49
0.1
 74
0
 49
-0.05
 74
0
  0
LTYPE
  5
1F8
100
AcDbSymbolTableRecord
100
AcDbLinetypeTableRecord
  2
DOT
 70
64
  3
. . . . . . . . . . . . . . . . . . . .
 72
65
 73
2
 40
0.2
 49
0.1
 74
0
 49
-0.1
 74
0
  0
LTYPE
  5
1F9
100
AcDbSymbolTableRecord
100
AcDbLinetypeTableRecord
  2
DASHED
 70
64
  3
- - - - - - - - - - - - - - - - - - - -
 72
65
 73
2
 40
0.2
 49
0.1
 74
0
 49
-0.1
 74
0
  0
ENDTAB
  0
TABLE
  2
LAYER
  5
2
100
AcDbSymbolTable
 70
36
  0
LAYER
  5
10
100
AcDbSymbolTableRecord
100
AcDbLayerTableRecord
  2
0
 70
0
 62
7
  6
CONTINUOUS
370
-3
390
F
  0
LAYER
  5
1FA
100
AcDbSymbolTableRecord
100
AcDbLayerTableRecord
  2
DEFAULT_1
 70
0
 62
7
  6
CENTER
370
-3
390
F
  0
LAYER
  5
1FB
100
AcDbSymbolTableRecord
100
AcDbLayerTableRecord
  2
DEFAULT_2
 70
0
 62
8
  6
HIDDEN
370
-3
390
F
  0
LAYER
  5
1FC
100
AcDbSymbolTableRecord
100
AcDbLayerTableRecord
  2
DEFAULT_3
 70
0
 62
7
  6
PHANTOM
370
-3
390
F
  0
LAYER
  5
1FD
100
AcDbSymbolTableRecord
100
AcDbLayerTableRecord
  2
01_ALL_DTM_PLN
 70
0
 62
7
  6
CONTINUOUS
370
-3
390
F
  0
LAYER
  5
1FE
100
AcDbSymbolTableRecord
100
AcDbLayerTableRecord
  2
01__ASM_ALL_DTM_PLN
 70
0
 62
7
  6
CONTINUOUS
370
-3
390
F
  0
LAYER
  5
1FF
100
AcDbSymbolTableRecord
100
AcDbLayerTableRecord
  2
01__ASM_DEF_DTM_PLN
 70
0
 62
7
  6
CONTINUOUS
370
-3
390
F
  0
LAYER
  5
200
100
AcDbSymbolTableRecord
100
AcDbLayerTableRecord
  2
01___PRT_ALL_DTM_PLN
 70
0
 62
7
  6
CONTINUOUS
370
-3
390
F
  0
LAYER
  5
201
100
AcDbSymbolTableRecord
100
AcDbLayerTableRecord
  2
01___PRT_DEF_DTM_PLN
 70
0
 62
7
  6
CONTINUOUS
370
-3
390
F
  0
LAYER
  5
202
100
AcDbSymbolTableRecord
100
AcDbLayerTableRecord
  2
02_ALL_AXES
 70
0
 62
7
  6
CONTINUOUS
370
-3
390
F
  0
LAYER
  5
203
100
AcDbSymbolTableRecord
100
AcDbLayerTableRecord
  2
02__ASM_ALL_AXES
 70
0
 62
7
  6
CONTINUOUS
370
-3
390
F
  0
LAYER
  5
204
100
AcDbSymbolTableRecord
100
AcDbLayerTableRecord
  2
02___PRT_ALL_AXES
 70
0
 62
7
  6
CONTINUOUS
370
-3
390
F
  0
LAYER
  5
205
100
AcDbSymbolTableRecord
100
AcDbLayerTableRecord
  2
03_ALL_CURVES
 70
0
 62
7
  6
CONTINUOUS
370
-3
390
F
  0
LAYER
  5
206
100
AcDbSymbolTableRecord
100
AcDbLayerTableRecord
  2
03__ASM_ALL_CURVES
 70
0
 62
7
  6
CONTINUOUS
370
-3
390
F
  0
LAYER
  5
207
100
AcDbSymbolTableRecord
100
AcDbLayerTableRecord
  2
03___PRT_ALL_CURVES
 70
0
 62
7
  6
CONTINUOUS
370
-3
390
F
  0
LAYER
  5
208
100
AcDbSymbolTableRecord
100
AcDbLayerTableRecord
  2
04_ALL_DTM_PNT
 70
0
 62
7
  6
CONTINUOUS
370
-3
390
F
  0
LAYER
  5
209
100
AcDbSymbolTableRecord
100
AcDbLayerTableRecord
  2
04__ASM_ALL_DTM_PNT
 70
0
 62
7
  6
CONTINUOUS
370
-3
390
F
  0
LAYER
  5
20A
100
AcDbSymbolTableRecord
100
AcDbLayerTableRecord
  2
04___PRT_ALL_DTM_PNT
 70
0
 62
7
  6
CONTINUOUS
370
-3
390
F
  0
LAYER
  5
20B
100
AcDbSymbolTableRecord
100
AcDbLayerTableRecord
  2
05_ALL_DTM_CSYS
 70
0
 62
7
  6
CONTINUOUS
370
-3
390
F
  0
LAYER
  5
20C
100
AcDbSymbolTableRecord
100
AcDbLayerTableRecord
  2
05__ASM_ALL_DTM_CSYS
 70
0
 62
7
  6
CONTINUOUS
370
-3
390
F
  0
LAYER
  5
20D
100
AcDbSymbolTableRecord
100
AcDbLayerTableRecord
  2
05__ASM_DEF_DTM_CSYS
 70
0
 62
7
  6
CONTINUOUS
370
-3
390
F
  0
LAYER
  5
20E
100
AcDbSymbolTableRecord
100
AcDbLayerTableRecord
  2
05___PRT_ALL_DTM_CSYS
 70
0
 62
7
  6
CONTINUOUS
370
-3
390
F
  0
LAYER
  5
20F
100
AcDbSymbolTableRecord
100
AcDbLayerTableRecord
  2
05___PRT_DEF_DTM_CSYS
 70
0
 62
7
  6
CONTINUOUS
370
-3
390
F
  0
LAYER
  5
210
100
AcDbSymbolTableRecord
100
AcDbLayerTableRecord
  2
06_ALL_SURFS
 70
0
 62
7
  6
CONTINUOUS
370
-3
390
F
  0
LAYER
  5
211
100
AcDbSymbolTableRecord
100
AcDbLayerTableRecord
  2
06__ASM_ALL_SURFS
 70
0
 62
7
  6
CONTINUOUS
370
-3
390
F
  0
LAYER
  5
212
100
AcDbSymbolTableRecord
100
AcDbLayerTableRecord
  2
06___PRT_ALL_SURFS
 70
0
 62
7
  6
CONTINUOUS
370
-3
390
F
  0
LAYER
  5
213
100
AcDbSymbolTableRecord
100
AcDbLayerTableRecord
  2
07__ASM_ALL_SKELETONS
 70
0
 62
7
  6
CONTINUOUS
370
-3
390
F
  0
LAYER
  5
214
100
AcDbSymbolTableRecord
100
AcDbLayerTableRecord
  2
NONE
 70
0
 62
7
  6
CONTINUOUS
370
-3
390
F
  0
LAYER
  5
215
100
AcDbSymbolTableRecord
100
AcDbLayerTableRecord
  2
SHELL
 70
0
 62
7
  6
CONTINUOUS
370
-3
390
F
  0
LAYER
  5
216
100
AcDbSymbolTableRecord
100
AcDbLayerTableRecord
  2
_12007
 70
0
 62
7
  6
CONTINUOUS
370
-3
390
F
  0
ENDTAB
  0
TABLE
  2
STYLE
  5
3
100
AcDbSymbolTable
 70
1
  0
STYLE
  5
11
100
AcDbSymbolTableRecord
100
AcDbTextStyleTableRecord
  2
STANDARD
 70
0
 40
0.0
 41
0.8
 50
0.0
 71
0
 42
0.2
  3
txt
  4

  0
STYLE
  5
217
100
AcDbSymbolTableRecord
100
AcDbTextStyleTableRecord
  2
TEXTSTYLE_1
 70
0
 40
0.0
 41
0.8
 50
0.0
 71
0
 42
0.2
  3
gdt
  4

  0
ENDTAB
  0
TABLE
  2
VIEW
  5
6
100
AcDbSymbolTable
 70
0
  0
ENDTAB
  0
TABLE
  2
UCS
  5
7
100
AcDbSymbolTable
 70
0
  0
ENDTAB
  0
TABLE
  2
APPID
  5
9
100
AcDbSymbolTable
 70
1
  0
APPID
  5
218
100
AcDbSymbolTableRecord
100
AcDbRegAppTableRecord
  2
ACAD
 70
0
  0
ENDTAB
  0
TABLE
  2
BLOCK_RECORD
  5
1
100
AcDbSymbolTable
 70
0
  0
BLOCK_RECORD
  5
219
100
AcDbSymbolTableRecord
100
AcDbBlockTableRecord
  2
*Model_Space
  0
BLOCK_RECORD
  5
21A
100
AcDbSymbolTableRecord
100
AcDbBlockTableRecord
  2
*Paper_Space
  0
ENDTAB
  0
TABLE
  2
DIMSTYLE
  5
A
100
AcDbSymbolTable
 70
1
100
AcDbDimStyleTable
 71
0
  0
DIMSTYLE
105
21B
100
AcDbSymbolTableRecord
100
AcDbDimStyleTableRecord
  2
STANDARD
 70
0
  3

  4

 40
1.0
 41
0.1875
 42
0.0625
 43
0.38
 44
0.125
 45
0.0
 46
0.0
 47
0.0001
 48
0.0001
140
0.15625
141
0.09
142
0.0
143
25.4
144
1.0
145
0.0
146
1.0
147
0.09
 71
0.0
 72
0.0
 73
1
 74
1
 75
0
 76
0
 77
0
 78
4
 79
1
170
0
171
3
172
0
173
0
174
0
175
0
176
0
177
0
178
0
270
2
179
4
271
4
272
4
273
2
274
2
275
0
280
0
281
0
282
0
283
1
284
4
285
0
286
0
287
3
288
0
340
11
278
46
  0
ENDTAB
  0
ENDSEC
  0
SECTION
  2
BLOCKS
  0
BLOCK
  5
20
100
AcDbEntity
  8
0
100
AcDbBlockBegin
  2
*Model_Space
 70
0
 10
0.0
 20
0.0
 30
0.0
  3
*Model_Space
  1

  0
ENDBLK
  5
21
100
AcDbEntity
  8
0
100
AcDbBlockEnd
  0
BLOCK
  5
1C
100
AcDbEntity
  8
0
100
AcDbBlockBegin
  2
*Paper_Space
 70
0
 10
0.0
 20
0.0
 30
0.0
  3
*Paper_Space
  1

  0
ENDBLK
  5
1D
100
AcDbEntity
  8
0
100
AcDbBlockEnd
  0
ENDSEC
  0
SECTION
  2
ENTITIES
  0
MTEXT
  5
21C
100
AcDbEntity
  8
0
100
AcDbMText
 62
7
  6
CONTINUOUS
  7
STANDARD
 71
1
 72
1
 10
15.9560215477
 20
0.9479130325
 30
0.0
 11
1.0
 21
0.0
 31
0.0
 44
0.9
  1
SCALE: 1:0.500
 40
0.3
 41
3.36
  0
LINE
  5
21D
100
AcDbEntity
  8
0
100
AcDbLine
 62
7
  6
CONTINUOUS
 10
0.0
 20
0.0
 11
0.0
 21
17.0
  0
LINE
  5
21E
100
AcDbEntity
  8
0
100
AcDbLine
 62
7
  6
CONTINUOUS
 10
0.0
 20
0.0
 11
22.0
 21
0.0
  0
LINE
  5
21F
100
AcDbEntity
  8
0
100
AcDbLine
 62
7
  6
CONTINUOUS
 10
0.0
 20
17.0
 11
22.0
 21
17.0
  0
LINE
  5
220
100
AcDbEntity
  8
0
100
AcDbLine
 62
7
  6
CONTINUOUS
 10
22.0
 20
0.0
 11
22.0
 21
17.0
  0
LINE
  5
221
100
AcDbEntity
  8
0
100
AcDbLine
 62
7
  6
CONTINUOUS
 10
4.5366172762
 20
4.2375689417
 11
4.5366172762
 21
6.8026708518
  0
LINE
  5
222
100
AcDbEntity
  8
0
100
AcDbLine
 62
7
  6
CONTINUOUS
 10
7.4129182312
 20
3.9263698968
 11
4.8478163212
 21
3.9263698968
  0
LINE
  5
223
100
AcDbEntity
  8
0
100
AcDbLine
 62
7
  6
CONTINUOUS
 10
5.9860297089
 20
6.9276116192
 11
6.0581984925
 21
6.996320162
  0
LINE
  5
224
100
AcDbEntity
  8
0
100
AcDbLine
 62
7
  6
CONTINUOUS
 10
6.2747048435
 20
6.9276116192
 11
6.2025360598
 21
6.8589030764
  0
LINE
  5
225
100
AcDbEntity
  8
0
100
AcDbLine
 62
7
  6
CONTINUOUS
 10
6.2747048435
 20
6.9015059013
 11
6.2025360598
 21
6.8327973584
  0
LINE
  5
226
100
AcDbEntity
  8
0
100
AcDbLine
 62
7
  6
CONTINUOUS
 10
7.1928672762
 20
7.0227218068
 11
6.8820222367
 21
6.7118767673
  0
LINE
  5
227
100
AcDbEntity
  8
0
100
AcDbLine
 62
7
  6
CONTINUOUS
 10
4.9386104056
 20
4.7684649362
 11
4.6277653661
 21
4.4576198968
  0
LINE
  5
228
100
AcDbEntity
  8
0
100
AcDbLine
 62
7
  6
CONTINUOUS
 10
4.6277653661
 20
6.5826198968
 11
4.9386104056
 21
6.2717748573
  0
LINE
  5
229
100
AcDbEntity
  8
0
100
AcDbLine
 62
7
  6
CONTINUOUS
 10
6.8820222367
 20
4.3283630262
 11
7.1928672762
 21
4.0175179867
  0
LINE
  5
22A
100
AcDbEntity
  8
0
100
AcDbLine
 62
7
  6
CONTINUOUS
 10
5.9753672762
 20
6.7491237172
 11
5.9753672762
 21
7.0485637789
  0
LINE
  5
22B
100
AcDbEntity
  8
0
100
AcDbLine
 62
7
  6
CONTINUOUS
 10
5.9860297089
 20
6.9276116192
 11
5.9860297089
 21
6.9015059013
  0
LINE
  5
22C
100
AcDbEntity
  8
0
100
AcDbLine
 62
7
  6
CONTINUOUS
 10
6.0581984925
 20
6.8327973584
 11
6.0581984925
 21
6.8589030764
  0
LINE
  5
22D
100
AcDbEntity
  8
0
100
AcDbLine
 62
7
  6
CONTINUOUS
 10
6.2025360598
 20
6.8589030764
 11
6.2025360598
 21
6.8327973584
  0
LINE
  5
22E
100
AcDbEntity
  8
0
100
AcDbLine
 62
7
  6
CONTINUOUS
 10
6.2747048435
 20
6.9276116192
 11
6.2747048435
 21
6.9015059013
  0
LINE
  5
22F
100
AcDbEntity
  8
0
100
AcDbLine
 62
7
  6
CONTINUOUS
 10
6.2853672762
 20
7.0485637789
 11
6.2853672762
 21
6.7491237172
  0
LINE
  5
230
100
AcDbEntity
  8
0
100
AcDbLine
 62
7
  6
CONTINUOUS
 10
5.0678672762
 20
4.0175179867
 11
5.3787123157
 21
4.3283630262
  0
LINE
  5
231
100
AcDbEntity
  8
0
100
AcDbLine
 62
7
  6
CONTINUOUS
 10
7.3221241467
 20
6.2717748573
 11
7.6329691862
 21
6.5826198968
  0
LINE
  5
232
100
AcDbEntity
  8
0
100
AcDbLine
 62
7
  6
CONTINUOUS
 10
7.6329691862
 20
4.4576198968
 11
7.3221241467
 21
4.7684649362
  0
LINE
  5
233
100
AcDbEntity
  8
0
100
AcDbLine
 62
7
  6
CONTINUOUS
 10
5.3787123157
 20
6.7118767673
 11
5.0678672762
 21
7.0227218068
  0
LINE
  5
234
100
AcDbEntity
  8
0
100
AcDbLine
 62
7
  6
CONTINUOUS
 10
6.0581984925
 20
6.8327973584
 11
5.9860297089
 21
6.9015059013
  0
LINE
  5
235
100
AcDbEntity
  8
0
100
AcDbLine
 62
7
  6
CONTINUOUS
 10
6.0581984925
 20
6.8589030764
 11
5.9860297089
 21
6.9276116192
  0
LINE
  5
236
100
AcDbEntity
  8
0
100
AcDbLine
 62
7
  6
CONTINUOUS
 10
6.2025360598
 20
6.996320162
 11
6.2747048435
 21
6.9276116192
  0
LINE
  5
237
100
AcDbEntity
  8
0
100
AcDbLine
 62
7
  6
CONTINUOUS
 10
6.0581984925
 20
6.8327973584
 11
6.2025360598
 21
6.8327973584
  0
LINE
  5
238
100
AcDbEntity
  8
0
100
AcDbLine
 62
7
  6
CONTINUOUS
 10
6.2025360598
 20
6.8589030764
 11
6.0581984925
 21
6.8589030764
  0
LINE
  5
239
100
AcDbEntity
  8
0
100
AcDbLine
 62
7
  6
CONTINUOUS
 10
7.7241172762
 20
4.2375689417
 11
7.7241172762
 21
6.8026708518
  0
LINE
  5
23A
100
AcDbEntity
  8
0
100
AcDbLine
 62
7
  6
CONTINUOUS
 10
6.0581984925
 20
6.996320162
 11
6.0730187307
 21
6.996320162
  0
LINE
  5
23B
100
AcDbEntity
  8
0
100
AcDbLine
 62
7
  6
CONTINUOUS
 10
6.1876413224
 20
6.996320162
 11
6.2025360598
 21
6.996320162
  0
LINE
  5
23C
100
AcDbEntity
  8
0
100
AcDbLine
 62
7
  6
CONTINUOUS
 10
4.8478163212
 20
7.1138698968
 11
7.4129182312
 21
7.1138698968
  0
LINE
  5
23D
100
AcDbEntity
  8
0
100
AcDbLine
 62
7
  6
CONTINUOUS
 10
4.4771220839
 20
12.9537977814
 11
4.4771220839
 21
13.3775690314
  0
LINE
  5
23E
100
AcDbEntity
  8
0
100
AcDbLine
 62
7
  6
CONTINUOUS
 10
4.8364970839
 20
12.9437977814
 11
4.8364970839
 21
12.4475265314
  0
LINE
  5
23F
100
AcDbEntity
  8
0
100
AcDbLine
 62
7
  6
CONTINUOUS
 10
4.9864970839
 20
11.8631727814
 11
4.9864970839
 21
12.4281727814
  0
LINE
  5
240
100
AcDbEntity
  8
0
100
AcDbLine
 62
7
  6
CONTINUOUS
 10
7.0952470839
 20
11.8031727814
 11
5.0464970839
 21
11.8031727814
  0
LINE
  5
241
100
AcDbEntity
  8
03__ASM_ALL_CURVES
100
AcDbLine
 62
8
  6
PHANTOM
 10
8.1958720839
 20
12.1156727814
 11
3.9458720839
 21
12.1156727814
  0
LINE
  5
242
100
AcDbEntity
  8
0
100
AcDbLine
 62
7
  6
CONTINUOUS
 10
5.9158720839
 20
12.556058809
 11
5.9158720839
 21
13.0111461951
  0
LINE
  5
243
100
AcDbEntity
  8
0
100
AcDbLine
 62
7
  6
CONTINUOUS
 10
5.9265345166
 20
12.7613748981
 11
5.9265345166
 21
12.7785520338
  0
LINE
  5
244
100
AcDbEntity
  8
0
100
AcDbLine
 62
7
  6
CONTINUOUS
 10
5.9265345166
 20
12.7785520338
 11
5.9987033002
 21
12.8829749055
  0
LINE
  5
245
100
AcDbEntity
  8
0
100
AcDbLine
 62
7
  6
CONTINUOUS
 10
5.9265345166
 20
12.7613748981
 11
5.9987033002
 21
12.8657977698
  0
LINE
  5
246
100
AcDbEntity
  8
0
100
AcDbLine
 62
7
  6
CONTINUOUS
 10
7.2858933339
 20
12.4281727814
 11
4.8558508339
 21
12.4281727814
  0
LINE
  5
247
100
AcDbEntity
  8
0
100
AcDbLine
 62
7
  6
CONTINUOUS
 10
5.9987033002
 20
12.8657977698
 11
5.9987033002
 21
12.8829749055
  0
LINE
  5
248
100
AcDbEntity
  8
0
100
AcDbLine
 62
7
  6
CONTINUOUS
 10
5.9987033002
 20
12.6569520263
 11
5.9265345166
 21
12.7613748981
  0
LINE
  5
249
100
AcDbEntity
  8
0
100
AcDbLine
 62
7
  6
CONTINUOUS
 10
6.1430408675
 20
12.8829749055
 11
6.1430408675
 21
12.8657977698
  0
LINE
  5
24A
100
AcDbEntity
  8
0
100
AcDbLine
 62
7
  6
CONTINUOUS
 10
6.2152096512
 20
12.7613748981
 11
6.2152096512
 21
12.7785520338
  0
LINE
  5
24B
100
AcDbEntity
  8
0
100
AcDbLine
 62
7
  6
CONTINUOUS
 10
6.2258720839
 20
13.0111461951
 11
6.2258720839
 21
12.556058809
  0
LINE
  5
24C
100
AcDbEntity
  8
0
100
AcDbLine
 62
7
  6
CONTINUOUS
 10
6.2152096512
 20
12.7613748981
 11
6.1430408675
 21
12.6569520263
  0
LINE
  5
24D
100
AcDbEntity
  8
0
100
AcDbLine
 62
7
  6
CONTINUOUS
 10
6.1430408675
 20
12.6569520263
 11
5.9987033002
 21
12.6569520263
  0
LINE
  5
24E
100
AcDbEntity
  8
0
100
AcDbLine
 62
7
  6
CONTINUOUS
 10
5.9987033002
 20
12.8657977698
 11
6.1430408675
 21
12.8657977698
  0
LINE
  5
24F
100
AcDbEntity
  8
0
100
AcDbLine
 62
7
  6
CONTINUOUS
 10
5.9987033002
 20
12.8829749055
 11
6.1430408675
 21
12.8829749055
  0
LINE
  5
250
100
AcDbEntity
  8
0
100
AcDbLine
 62
7
  6
CONTINUOUS
 10
6.1430408675
 20
12.8657977698
 11
6.2152096512
 21
12.7613748981
  0
LINE
  5
251
100
AcDbEntity
  8
0
100
AcDbLine
 62
7
  6
CONTINUOUS
 10
6.1430408675
 20
12.8829749055
 11
6.2152096512
 21
12.7785520338
  0
LINE
  5
252
100
AcDbEntity
  8
0
100
AcDbLine
 62
7
  6
CONTINUOUS
 10
7.6546191663
 20
12.9437977814
 11
6.6082836374
 21
12.9437977814
  0
LINE
  5
253
100
AcDbEntity
  8
0
100
AcDbLine
 62
7
  6
CONTINUOUS
 10
5.5334605303
 20
12.9437977814
 11
4.4871250007
 21
12.9437977814
  0
LINE
  5
254
100
AcDbEntity
  8
0
100
AcDbLine
 62
7
  6
CONTINUOUS
 10
4.4964758339
 20
13.3969227814
 11
7.6452683339
 21
13.3969227814
  0
LINE
  5
255
100
AcDbEntity
  8
0
100
AcDbLine
 62
7
  6
CONTINUOUS
 10
7.1552470839
 20
11.8631727814
 11
7.1552470839
 21
12.4281727814
  0
LINE
  5
256
100
AcDbEntity
  8
0
100
AcDbLine
 62
7
  6
CONTINUOUS
 10
7.3052470839
 20
12.4475265314
 11
7.3052470839
 21
12.9437977814
  0
LINE
  5
257
100
AcDbEntity
  8
0
100
AcDbLine
 62
7
  6
CONTINUOUS
 10
7.6646220839
 20
12.9537977814
 11
7.6646220839
 21
13.3775690314
  0
LINE
  5
258
100
AcDbEntity
  8
0
100
AcDbLine
 62
7
  6
CONTINUOUS
 10
15.9141052569
 20
3.8668747044
 11
16.3378765069
 21
3.8668747044
  0
LINE
  5
259
100
AcDbEntity
  8
0
100
AcDbLine
 62
7
  6
CONTINUOUS
 10
15.6437588403
 20
6.9638032056
 11
15.6646434146
 21
6.9775449141
  0
LINE
  5
25A
100
AcDbEntity
  8
0
100
AcDbLine
 62
7
  6
CONTINUOUS
 10
15.9041052569
 20
4.2262497044
 11
15.4078340069
 21
4.2262497044
  0
LINE
  5
25B
100
AcDbEntity
  8
0
100
AcDbLine
 62
7
  6
CONTINUOUS
 10
15.8261052454
 20
6.9368249697
 11
15.6172595019
 21
6.7994078841
  0
LINE
  5
25C
100
AcDbEntity
  8
0
100
AcDbLine
 62
7
  6
CONTINUOUS
 10
15.5006189282
 20
6.6852523006
 11
15.9041052569
 21
6.9507397099
  0
LINE
  5
25D
100
AcDbEntity
  8
0
100
AcDbLine
 62
7
  6
CONTINUOUS
 10
15.3884802569
 20
4.3762497044
 11
14.8234802569
 21
4.3762497044
  0
LINE
  5
25E
100
AcDbEntity
  8
0
100
AcDbLine
 62
7
  6
CONTINUOUS
 10
14.7634802569
 20
4.4362586269
 11
14.7634802569
 21
6.484990782
  0
LINE
  5
25F
100
AcDbEntity
  8
03__ASM_ALL_CURVES
100
AcDbLine
 62
8
  6
PHANTOM
 10
15.0759802569
 20
3.3360080714
 11
15.0759802569
 21
7.5851607245
  0
LINE
  5
260
100
AcDbEntity
  8
0
100
AcDbLine
 62
7
  6
CONTINUOUS
 10
15.3884802569
 20
6.6756459544
 11
15.3884802569
 21
4.2456034544
  0
LINE
  5
261
100
AcDbEntity
  8
0
100
AcDbLine
 62
7
  6
CONTINUOUS
 10
15.9041052569
 20
3.8768803184
 11
15.9041052569
 21
4.9232131509
  0
LINE
  5
262
100
AcDbEntity
  8
0
100
AcDbLine
 62
7
  6
CONTINUOUS
 10
15.9041052569
 20
5.998036258
 11
15.9041052569
 21
7.0443718068
  0
LINE
  5
263
100
AcDbEntity
  8
0
100
AcDbLine
 62
7
  6
CONTINUOUS
 10
16.3572302569
 20
3.8862284544
 11
16.3572302569
 21
7.0350209544
  0
LINE
  5
264
100
AcDbEntity
  8
0
100
AcDbLine
 62
7
  6
CONTINUOUS
 10
15.6172595019
 20
6.7994078841
 11
15.6344366376
 21
6.7733021661
  0
LINE
  5
265
100
AcDbEntity
  8
0
100
AcDbLine
 62
7
  6
CONTINUOUS
 10
15.7216823736
 20
6.8681164269
 11
15.7388595093
 21
6.842010709
  0
LINE
  5
266
100
AcDbEntity
  8
0
100
AcDbLine
 62
7
  6
CONTINUOUS
 10
15.8432823811
 20
6.9107192518
 11
15.8261052454
 21
6.9368249697
  0
LINE
  5
267
100
AcDbEntity
  8
0
100
AcDbLine
 62
7
  6
CONTINUOUS
 10
15.3884802569
 20
6.5449997044
 11
14.8234802569
 21
6.5449997044
  0
LINE
  5
268
100
AcDbEntity
  8
0
100
AcDbLine
 62
7
  6
CONTINUOUS
 10
15.5154329799
 20
6.6949997044
 11
15.4078340069
 21
6.6949997044
  0
LINE
  5
269
100
AcDbEntity
  8
0
100
AcDbLine
 62
7
  6
CONTINUOUS
 10
15.9141052569
 20
7.0543747044
 11
16.3378765069
 21
7.0543747044
  0
LINE
  5
26A
100
AcDbEntity
  8
0
100
AcDbLine
 62
7
  6
CONTINUOUS
 10
13.7447690629
 20
13.7236816164
 11
13.8473498114
 21
14.0556330401
  0
LINE
  5
26B
100
AcDbEntity
  8
0
100
AcDbLine
 62
7
  6
CONTINUOUS
 10
14.4328662442
 20
13.191167163
 11
14.3127356873
 21
12.8024245384
  0
LINE
  5
26C
100
AcDbEntity
  8
0
100
AcDbLine
 62
7
  6
CONTINUOUS
 10
14.4513639229
 20
12.7429771195
 11
14.3145964501
 21
12.3003974155
  0
LINE
  5
26D
100
AcDbEntity
  8
0
100
AcDbLine
 62
7
  6
CONTINUOUS
 10
15.0057678067
 20
13.5587353203
 11
15.0765579368
 21
13.6832424809
  0
LWPOLYLINE
  5
26E
100
AcDbEntity
  8
0
100
AcDbPolyline
 62
7
  6
CONTINUOUS
 90
4
 70
0
 10
13.8751931215
 20
13.508316395
 10
14.0481247762
 20
13.1326382806
 10
14.2852313162
 20
12.649541976
 10
14.298031791
 20
12.6251000473
  0
LINE
  5
26F
100
AcDbEntity
  8
0
100
AcDbLine
 62
7
  6
CONTINUOUS
 10
15.0003015152
 20
13.2871292658
 11
14.999845054
 21
13.2828561729
  0
LINE
  5
270
100
AcDbEntity
  8
0
100
AcDbLine
 62
7
  6
CONTINUOUS
 10
14.999845054
 20
13.2828561729
 11
14.9991278691
 21
13.2798665039
  0
LINE
  5
271
100
AcDbEntity
  8
0
100
AcDbLine
 62
7
  6
CONTINUOUS
 10
15.2716552131
 20
13.5587353203
 11
15.200865083
 21
13.4342281598
  0
LINE
  5
272
100
AcDbEntity
  8
0
100
AcDbLine
 62
7
  6
CONTINUOUS
 10
15.2837765561
 20
13.5559630585
 11
15.212986426
 21
13.4314558979
  0
LINE
  5
273
100
AcDbEntity
  8
0
100
AcDbLine
 62
7
  6
CONTINUOUS
 10
16.5705755249
 20
11.904704857
 11
17.0112670454
 21
11.9163715052
  0
LINE
  5
274
100
AcDbEntity
  8
0
100
AcDbLine
 62
7
  6
CONTINUOUS
 10
15.0003015374
 20
13.2871291543
 11
15.0094647893
 21
13.5513294579
  0
LINE
  5
275
100
AcDbEntity
  8
0
100
AcDbLine
 62
7
  6
CONTINUOUS
 10
15.009978504
 20
13.5661411827
 11
15.0192245547
 21
13.8327287876
  0
LINE
  5
276
100
AcDbEntity
  8
0
100
AcDbLine
 62
7
  6
CONTINUOUS
 10
16.6729486192
 20
13.4923714422
 11
16.4814621292
 21
13.299147067
  0
LINE
  5
277
100
AcDbEntity
  8
0
100
AcDbLine
 62
7
  6
CONTINUOUS
 10
13.9063735594
 20
13.4904912657
 11
14.2875015515
 21
13.2972668906
  0
LINE
  5
278
100
AcDbEntity
  8
0
100
AcDbLine
 62
7
  6
CONTINUOUS
 10
16.675472899
 20
12.0866125147
 11
17.0514523491
 21
11.8959983488
  0
LINE
  5
279
100
AcDbEntity
  8
0
100
AcDbLine
 62
7
  6
CONTINUOUS
 10
15.0679213798
 20
13.4342281598
 11
15.0057678067
 21
13.5587353203
  0
LINE
  5
27A
100
AcDbEntity
  8
0
100
AcDbLine
 62
7
  6
CONTINUOUS
 10
15.20950164
 20
13.6832424809
 11
15.2716552131
 21
13.5587353203
  0
LINE
  5
27B
100
AcDbEntity
  8
0
100
AcDbLine
 62
7
  6
CONTINUOUS
 10
15.221622983
 20
13.680470219
 11
15.2837765561
 21
13.5559630585
  0
LINE
  5
27C
100
AcDbEntity
  8
0
100
AcDbLine
 62
7
  6
CONTINUOUS
 10
16.7020364865
 20
13.5399202163
 11
16.7205507738
 21
13.5998333844
  0
LINE
  5
27D
100
AcDbEntity
  8
0
100
AcDbLine
 62
7
  6
CONTINUOUS
 10
15.0800427228
 20
13.4314558979
 11
15.0679213798
 21
13.4342281598
  0
LINE
  5
27E
100
AcDbEntity
  8
0
100
AcDbLine
 62
7
  6
CONTINUOUS
 10
15.200865083
 20
13.4342281598
 11
15.212986426
 21
13.4314558979
  0
LINE
  5
27F
100
AcDbEntity
  8
0
100
AcDbLine
 62
7
  6
CONTINUOUS
 10
15.0800427228
 20
13.4314558979
 11
15.212986426
 21
13.4314558979
  0
LINE
  5
280
100
AcDbEntity
  8
0
100
AcDbLine
 62
7
  6
CONTINUOUS
 10
15.200865083
 20
13.4342281598
 11
15.0679213798
 21
13.4342281598
  0
LINE
  5
281
100
AcDbEntity
  8
0
100
AcDbLine
 62
7
  6
CONTINUOUS
 10
15.2716552131
 20
13.5587353203
 11
15.2837765561
 21
13.5559630585
  0
LINE
  5
282
100
AcDbEntity
  8
0
100
AcDbLine
 62
7
  6
CONTINUOUS
 10
15.221622983
 20
13.680470219
 11
15.20950164
 21
13.6832424809
  0
LINE
  5
283
100
AcDbEntity
  8
0
100
AcDbLine
 62
7
  6
CONTINUOUS
 10
16.5234328788
 20
12.1026593826
 11
16.3866654061
 21
11.6600796787
  0
LINE
  5
284
100
AcDbEntity
  8
0
100
AcDbLine
 62
7
  6
CONTINUOUS
 10
16.7915614535
 20
12.4622752147
 11
16.6714308966
 21
12.0735325901
  0
LINE
  5
285
100
AcDbEntity
  8
0
100
AcDbLine
 62
7
  6
CONTINUOUS
 10
15.0765579368
 20
13.6832424809
 11
15.20950164
 21
13.6832424809
  0
LINE
  5
286
100
AcDbEntity
  8
0
100
AcDbLine
 62
7
  6
CONTINUOUS
 10
16.799673374
 20
12.4926608101
 11
16.7915562124
 21
12.4622768341
  0
LINE
  5
287
100
AcDbEntity
  8
0
100
AcDbLine
 62
7
  6
CONTINUOUS
 10
16.4182661471
 20
14.1645200346
 11
14.0556508321
 21
14.1645200346
  0
LINE
  5
288
100
AcDbEntity
  8
0
100
AcDbLine
 62
7
  6
CONTINUOUS
 10
17.5759364469
 20
12.3777855766
 11
16.7934729721
 21
13.9722784935
  0
LINE
  5
289
100
AcDbEntity
  8
0
100
AcDbLine
 62
7
  6
CONTINUOUS
 10
17.4844999612
 20
11.9454272994
 11
17.5870807097
 21
12.2773787231
  0
ARC
  5
28A
100
AcDbEntity
  8
0
100
AcDbCircle
 62
7
  6
CONTINUOUS
 10
4.8478163212
 20
4.2375689417
 40
0.311199045
100
AcDbArc
 50
135.0
 51
315.0
  0
ARC
  5
28B
100
AcDbEntity
  8
0
100
AcDbCircle
 62
7
  6
CONTINUOUS
 10
4.7618337103
 20
4.9452416315
 40
0.25
100
AcDbArc
 50
315.0
 51
22.7857569498
  0
ARC
  5
28C
100
AcDbEntity
  8
0
100
AcDbCircle
 62
7
  6
CONTINUOUS
 10
5.5554890109
 20
4.1515863309
 40
0.25
100
AcDbArc
 50
67.2142430502
 51
135.0
  0
CIRCLE
  5
28D
100
AcDbEntity
  8
0
100
AcDbCircle
 62
7
  6
CONTINUOUS
 10
4.8491172762
 20
4.2388698968
 40
0.16625
  0
CIRCLE
  5
28E
100
AcDbEntity
  8
0
100
AcDbCircle
 62
7
  6
CONTINUOUS
 10
4.8491172762
 20
4.2388698968
 40
0.15625
  0
ARC
  5
28F
100
AcDbEntity
  8
0
100
AcDbCircle
 62
7
  6
CONTINUOUS
 10
4.8478163212
 20
6.8026708518
 40
0.311199045
100
AcDbArc
 50
45.0
 51
225.0
  0
ARC
  5
290
100
AcDbEntity
  8
0
100
AcDbCircle
 62
7
  6
CONTINUOUS
 10
4.7618337103
 20
6.094998162
 40
0.25
100
AcDbArc
 50
337.2142430502
 51
45.0
  0
ARC
  5
291
100
AcDbEntity
  8
0
100
AcDbCircle
 62
7
  6
CONTINUOUS
 10
5.5554890109
 20
6.8886534626
 40
0.25
100
AcDbArc
 50
225.0
 51
292.7857569498
  0
CIRCLE
  5
292
100
AcDbEntity
  8
0
100
AcDbCircle
 62
7
  6
CONTINUOUS
 10
4.8491172762
 20
6.8013698968
 40
0.16625
  0
CIRCLE
  5
293
100
AcDbEntity
  8
03__ASM_ALL_CURVES
100
AcDbCircle
 62
8
  6
PHANTOM
 10
4.8491172762
 20
6.8013698968
 40
0.16625
  0
CIRCLE
  5
294
100
AcDbEntity
  8
0
100
AcDbCircle
 62
7
  6
CONTINUOUS
 10
4.8491172762
 20
6.8013698968
 40
0.15625
  0
ARC
  5
295
100
AcDbEntity
  8
0
100
AcDbCircle
 62
7
  6
CONTINUOUS
 10
6.1206283411
 20
6.83438214
 40
0.1541157126
100
AcDbArc
 50
107.472675828
 51
107.7510619029
  0
ARC
  5
296
100
AcDbEntity
  8
0
100
AcDbCircle
 62
7
  6
CONTINUOUS
 10
6.1203501832
 20
6.8352521791
 40
0.1532022906
100
AcDbArc
 50
107.7511906554
 51
107.8984463307
  0
ARC
  5
297
100
AcDbEntity
  8
0
100
AcDbCircle
 62
7
  6
CONTINUOUS
 10
6.0478595073
 20
6.9795931246
 40
0.0261411481
100
AcDbArc
 50
359.9515992527
 51
9.9584898904
  0
ARC
  5
298
100
AcDbEntity
  8
0
100
AcDbCircle
 62
7
  6
CONTINUOUS
 10
5.9703672762
 20
6.7491237172
 40
0.005
100
AcDbArc
 50
277.4174334381
 51
360.0
  0
ARC
  5
299
100
AcDbEntity
  8
0
100
AcDbCircle
 62
7
  6
CONTINUOUS
 10
6.7052455414
 20
4.1515863309
 40
0.25
100
AcDbArc
 50
45.0
 51
112.7857569498
  0
CIRCLE
  5
29A
100
AcDbEntity
  8
03__ASM_ALL_CURVES
100
AcDbCircle
 62
8
  6
PHANTOM
 10
6.1303672762
 20
5.5201198968
 40
2.125
  0
CIRCLE
  5
29B
100
AcDbEntity
  8
03__ASM_ALL_CURVES
100
AcDbCircle
 62
8
  6
PHANTOM
 10
6.1303672762
 20
5.5201198968
 40
1.8119611268
  0
CIRCLE
  5
29C
100
AcDbEntity
  8
0
100
AcDbCircle
 62
7
  6
CONTINUOUS
 10
6.1303672762
 20
5.5201198968
 40
1.234375
  0
CIRCLE
  5
29D
100
AcDbEntity
  8
0
100
AcDbCircle
 62
7
  6
CONTINUOUS
 10
6.1303672762
 20
5.5201198968
 40
1.084375
  0
ARC
  5
29E
100
AcDbEntity
  8
0
100
AcDbCircle
 62
7
  6
CONTINUOUS
 10
7.4129182312
 20
4.2375689417
 40
0.311199045
100
AcDbArc
 50
225.0
 51
45.0
  0
CIRCLE
  5
29F
100
AcDbEntity
  8
0
100
AcDbCircle
 62
7
  6
CONTINUOUS
 10
7.4116172762
 20
4.2388698968
 40
0.16625
  0
CIRCLE
  5
2A0
100
AcDbEntity
  8
0
100
AcDbCircle
 62
7
  6
CONTINUOUS
 10
7.4116172762
 20
4.2388698968
 40
0.15625
  0
ARC
  5
2A1
100
AcDbEntity
  8
0
100
AcDbCircle
 62
7
  6
CONTINUOUS
 10
7.498900842
 20
4.9452416315
 40
0.25
100
AcDbArc
 50
157.2142430502
 51
225.0
  0
ARC
  5
2A2
100
AcDbEntity
  8
0
100
AcDbCircle
 62
7
  6
CONTINUOUS
 10
7.4129182312
 20
6.8026708518
 40
0.311199045
100
AcDbArc
 50
315.0
 51
135.0
  0
ARC
  5
2A3
100
AcDbEntity
  8
0
100
AcDbCircle
 62
7
  6
CONTINUOUS
 10
7.498900842
 20
6.094998162
 40
0.25
100
AcDbArc
 50
135.0
 51
202.7857569498
  0
ARC
  5
2A4
100
AcDbEntity
  8
0
100
AcDbCircle
 62
7
  6
CONTINUOUS
 10
6.7052455414
 20
6.8886534626
 40
0.25
100
AcDbArc
 50
247.2142430502
 51
315.0
  0
CIRCLE
  5
2A5
100
AcDbEntity
  8
0
100
AcDbCircle
 62
7
  6
CONTINUOUS
 10
7.4116172762
 20
6.8013698968
 40
0.16625
  0
CIRCLE
  5
2A6
100
AcDbEntity
  8
0
100
AcDbCircle
 62
7
  6
CONTINUOUS
 10
7.4116172762
 20
6.8013698968
 40
0.15625
  0
ARC
  5
2A7
100
AcDbEntity
  8
0
100
AcDbCircle
 62
7
  6
CONTINUOUS
 10
6.1401050477
 20
6.8343756099
 40
0.1541223009
100
AcDbArc
 50
72.2485445183
 51
72.5242166256
  0
ARC
  5
2A8
100
AcDbEntity
  8
0
100
AcDbCircle
 62
7
  6
CONTINUOUS
 10
6.1403814138
 20
6.8352400133
 40
0.1532147926
100
AcDbArc
 50
72.102639298
 51
72.248417797
  0
ARC
  5
2A9
100
AcDbEntity
  8
0
100
AcDbCircle
 62
7
  6
CONTINUOUS
 10
6.2130672051
 20
6.9795764647
 40
0.0263332993
100
AcDbArc
 50
170.0781117777
 51
180.0117990792
  0
ARC
  5
2AA
100
AcDbEntity
  8
0
100
AcDbCircle
 62
7
  6
CONTINUOUS
 10
6.2903672762
 20
6.7491237172
 40
0.005
100
AcDbArc
 50
180.0
 51
262.582566562
  0
ARC
  5
2AB
100
AcDbEntity
  8
0
100
AcDbCircle
 62
7
  6
CONTINUOUS
 10
5.0464970839
 20
11.8631727814
 40
0.06
100
AcDbArc
 50
180.0
 51
270.0
  0
ARC
  5
2AC
100
AcDbEntity
  8
0
100
AcDbCircle
 62
7
  6
CONTINUOUS
 10
7.0952470839
 20
11.8631727814
 40
0.06
100
AcDbArc
 50
270.0
 51
360.0
  0
ARC
  5
2AD
100
AcDbEntity
  8
0
100
AcDbCircle
 62
7
  6
CONTINUOUS
 10
6.0708720111
 20
12.7226291665
 40
0.0594427264
100
AcDbArc
 50
269.5668977443
 51
270.4858384252
  0
ARC
  5
2AE
100
AcDbEntity
  8
0
100
AcDbCircle
 62
7
  6
CONTINUOUS
 10
4.4964758339
 20
13.3775690314
 40
0.01935375
100
AcDbArc
 50
90.0
 51
180.0
  0
ARC
  5
2AF
100
AcDbEntity
  8
0
100
AcDbCircle
 62
7
  6
CONTINUOUS
 10
7.6452683339
 20
13.3775690314
 40
0.01935375
100
AcDbArc
 50
0.0
 51
90.0
  0
ARC
  5
2B0
100
AcDbEntity
  8
0
100
AcDbCircle
 62
7
  6
CONTINUOUS
 10
7.2858933339
 20
12.4475265314
 40
0.01935375
100
AcDbArc
 50
270.0
 51
360.0
  0
ARC
  5
2B1
100
AcDbEntity
  8
0
100
AcDbCircle
 62
7
  6
CONTINUOUS
 10
4.8558508339
 20
12.4475265314
 40
0.01935375
100
AcDbArc
 50
180.0
 51
270.0
  0
ARC
  5
2B2
100
AcDbEntity
  8
0
100
AcDbCircle
 62
7
  6
CONTINUOUS
 10
7.6546220839
 20
12.9537977814
 40
0.01
100
AcDbArc
 50
270.0
 51
360.0
  0
ARC
  5
2B3
100
AcDbEntity
  8
0
100
AcDbCircle
 62
7
  6
CONTINUOUS
 10
4.4871220839
 20
12.9537977814
 40
0.01
100
AcDbArc
 50
180.0
 51
270.0
  0
ARC
  5
2B4
100
AcDbEntity
  8
0
100
AcDbCircle
 62
7
  6
CONTINUOUS
 10
6.230864978
 20
12.9901307349
 40
0.0049933559
100
AcDbArc
 50
90.4530047164
 51
179.9208958741
  0
ARC
  5
2B5
100
AcDbEntity
  8
0
100
AcDbCircle
 62
7
  6
CONTINUOUS
 10
5.9108791897
 20
12.9901307349
 40
0.0049933559
100
AcDbArc
 50
0.0795161251
 51
89.546633634
  0
ARC
  5
2B6
100
AcDbEntity
  8
0
100
AcDbCircle
 62
7
  6
CONTINUOUS
 10
15.7867930818
 20
6.9854130731
 40
0.0625
100
AcDbArc
 50
205.0170142233
 51
297.7125395872
  0
ARC
  5
2B7
100
AcDbEntity
  8
0
100
AcDbCircle
 62
7
  6
CONTINUOUS
 10
15.5881947638
 20
6.854738626
 40
0.0625
100
AcDbArc
 50
308.9759861395
 51
41.6715115034
  0
ARC
  5
2B8
100
AcDbEntity
  8
0
100
AcDbCircle
 62
7
  6
CONTINUOUS
 10
14.8234802569
 20
6.4849997044
 40
0.06
100
AcDbArc
 50
90.0
 51
180.0
  0
ARC
  5
2B9
100
AcDbEntity
  8
0
100
AcDbCircle
 62
7
  6
CONTINUOUS
 10
14.8234802569
 20
4.4362497044
 40
0.06
100
AcDbArc
 50
180.0
 51
270.0
  0
ARC
  5
2BA
100
AcDbEntity
  8
0
100
AcDbCircle
 62
7
  6
CONTINUOUS
 10
15.68937849
 20
6.9399526803
 40
0.045
100
AcDbArc
 50
25.0170142233
 51
123.3442628634
  0
ARC
  5
2BB
100
AcDbEntity
  8
0
100
AcDbCircle
 62
7
  6
CONTINUOUS
 10
15.6684939157
 20
6.9262109717
 40
0.045
100
AcDbArc
 50
123.3442628634
 51
221.6715115034
  0
ARC
  5
2BC
100
AcDbEntity
  8
0
100
AcDbCircle
 62
7
  6
CONTINUOUS
 10
15.4078340069
 20
4.2456034544
 40
0.01935375
100
AcDbArc
 50
180.0
 51
270.0
  0
ARC
  5
2BD
100
AcDbEntity
  8
0
100
AcDbCircle
 62
7
  6
CONTINUOUS
 10
15.4078340069
 20
6.6756459544
 40
0.01935375
100
AcDbArc
 50
90.0
 51
180.0
  0
ARC
  5
2BE
100
AcDbEntity
  8
0
100
AcDbCircle
 62
7
  6
CONTINUOUS
 10
16.3378765069
 20
3.8862284544
 40
0.01935375
100
AcDbArc
 50
270.0
 51
360.0
  0
ARC
  5
2BF
100
AcDbEntity
  8
0
100
AcDbCircle
 62
7
  6
CONTINUOUS
 10
16.3378765069
 20
7.0350209544
 40
0.01935375
100
AcDbArc
 50
0.0
 51
90.0
  0
ARC
  5
2C0
100
AcDbEntity
  8
0
100
AcDbCircle
 62
7
  6
CONTINUOUS
 10
15.9141052569
 20
7.0443747044
 40
0.01
100
AcDbArc
 50
90.0
 51
180.0
  0
ARC
  5
2C1
100
AcDbEntity
  8
0
100
AcDbCircle
 62
7
  6
CONTINUOUS
 10
15.9141052569
 20
3.8768747044
 40
0.01
100
AcDbArc
 50
180.0
 51
270.0
  0
ARC
  5
2C2
100
AcDbEntity
  8
0
100
AcDbCircle
 62
7
  6
CONTINUOUS
 10
17.2738152048
 20
12.3346018645
 40
0.4917502248
100
AcDbArc
 50
243.1159401321
 51
243.2854635967
  0
ARC
  5
2C3
100
AcDbEntity
  8
0
100
AcDbCircle
 62
7
  6
CONTINUOUS
 10
14.0556456869
 20
13.7518163318
 40
0.4127037028
100
AcDbArc
 50
89.9992856792
 51
90.8920732053
  0
ARC
  5
2C4
100
AcDbEntity
  8
0
100
AcDbCircle
 62
7
  6
CONTINUOUS
 10
14.1045382387
 20
12.9363778997
 40
0.4046188794
100
AcDbArc
 50
62.9313925179
 51
63.1159269882
  0
ARC
  5
2C5
100
AcDbEntity
  8
0
100
AcDbCircle
 62
7
  6
CONTINUOUS
 10
17.4123661204
 20
12.2974529391
 40
0.1822322264
100
AcDbArc
 50
23.560389115
 51
26.1565719661
  0
ARC
  5
2C6
100
AcDbEntity
  8
0
100
AcDbCircle
 62
7
  6
CONTINUOUS
 10
16.3436892963
 20
13.567506971
 40
0.1584977679
100
AcDbArc
 50
101.1841188233
 51
103.2281442541
  0
ARC
  5
2C7
100
AcDbEntity
  8
0
100
AcDbCircle
 62
7
  6
CONTINUOUS
 10
17.1253590796
 20
11.9746314273
 40
0.1584977679
100
AcDbArc
 50
101.1841188233
 51
103.2281442541
  0
ARC
  5
2C8
100
AcDbEntity
  8
0
100
AcDbCircle
 62
7
  6
CONTINUOUS
 10
13.9834704992
 20
13.567506971
 40
0.1584977679
100
AcDbArc
 50
101.1841188232
 51
103.2281442542
  0
ARC
  5
2C9
100
AcDbEntity
  8
0
100
AcDbCircle
 62
7
  6
CONTINUOUS
 10
14.0584394796
 20
13.5453732921
 40
0.1573536809
100
AcDbArc
 50
42.4269287992
 51
43.5333348238
  0
ARC
  5
2CA
100
AcDbEntity
  8
0
100
AcDbCircle
 62
7
  6
CONTINUOUS
 10
16.4186582767
 20
13.5453732922
 40
0.1573536809
100
AcDbArc
 50
42.4269287989
 51
43.533334824
  0
ARC
  5
2CB
100
AcDbEntity
  8
0
100
AcDbCircle
 62
7
  6
CONTINUOUS
 10
17.20032806
 20
11.9524977485
 40
0.1573536809
100
AcDbArc
 50
42.426928799
 51
43.533334824
  0
ARC
  5
2CC
100
AcDbEntity
  8
0
100
AcDbCircle
 62
7
  6
CONTINUOUS
 10
14.2930176556
 20
13.1301139258
 40
0.1296365558
100
AcDbArc
 50
22.6455519158
 51
23.5002562139
  0
ARC
  5
2CD
100
AcDbEntity
  8
0
100
AcDbCircle
 62
7
  6
CONTINUOUS
 10
16.5486300538
 20
13.2325554619
 40
0.0945831484
100
AcDbArc
 50
135.2468644138
 51
139.4225954853
  0
ARC
  5
2CE
100
AcDbEntity
  8
0
100
AcDbCircle
 62
7
  6
CONTINUOUS
 10
15.1081068484
 20
13.5640046493
 40
0.0558211317
100
AcDbArc
 50
270.0084768154
 51
278.4592398412
  0
ARC
  5
2CF
100
AcDbEntity
  8
0
100
AcDbCircle
 62
7
  6
CONTINUOUS
 10
15.1089785736
 20
13.5675153419
 40
0.0555695601
100
AcDbArc
 50
55.7488710542
 51
89.9998050024
  0
ARC
  5
2D0
100
AcDbEntity
  8
0
100
AcDbCircle
 62
7
  6
CONTINUOUS
 10
16.6994052041
 20
13.5382039897
 40
0.0179600479
100
AcDbArc
 50
63.6976989417
 51
66.4237296565
  0
SPLINE
  5
2D1
100
AcDbEntity
  8
0
100
AcDbSpline
 62
7
  6
CONTINUOUS
 70
0
 71
3
 72
16
 73
12
 74
0
 42
0.0000001
 43
0.0000001
 44
0.0000000001
 40
0.0
 40
0.0
 40
0.0
 40
0.0
 40
0.1250293273
 40
0.2500427272
 40
0.3749622875
 40
0.4996859475
 40
0.5620637305
 40
0.6243951195
 40
0.7489784639
 40
0.8741663835
 40
1.0
 40
1.0
 40
1.0
 40
1.0
 10
6.0736067945
 20
6.984113835
 30
0.0
 10
6.0729235995
 20
6.9879949353
 30
0.0
 10
6.0724997883
 20
6.995956576
 30
0.0
 10
6.074756337
 20
7.0076711795
 30
0.0
 10
6.0797375029
 20
7.018501989
 30
0.0
 10
6.0858852215
 20
7.0262994813
 30
0.0
 10
6.0917358997
 20
7.0315714569
 30
0.0
 10
6.0981281468
 20
7.036164529
 30
0.0
 10
6.1069918605
 20
7.0406031593
 30
0.0
 10
6.1184708244
 20
7.0437522393
 30
0.0
 10
6.1264011525
 20
7.0444478726
 30
0.0
 10
6.1303672762
 20
7.0444478726
 30
0.0
  0
SPLINE
  5
2D2
100
AcDbEntity
  8
0
100
AcDbSpline
 62
7
  6
CONTINUOUS
 70
0
 71
3
 72
15
 73
11
 74
0
 42
0.0000001
 43
0.0000001
 44
0.0000000001
 40
0.0
 40
0.0
 40
0.0
 40
0.0
 40
0.1259040624
 40
0.2511129759
 40
0.3757109908
 40
0.5002394695
 40
0.6249493362
 40
0.7498660861
 40
0.8749117462
 40
1.0
 40
1.0
 40
1.0
 40
1.0
 10
6.1303672762
 20
7.0444478726
 30
0.0
 10
6.1343348829
 20
7.0444478726
 30
0.0
 10
6.142266487
 20
7.0437529565
 30
0.0
 10
6.153747146
 20
7.0405989582
 30
0.0
 10
6.1643718946
 20
7.035285269
 30
0.0
 10
6.1736318272
 20
7.027848742
 30
0.0
 10
6.1809948591
 20
7.0185040659
 30
0.0
 10
6.1859774178
 20
7.0076739137
 30
0.0
 10
6.1882347638
 20
6.995959257
 30
0.0
 10
6.1878111479
 20
6.9879960431
 30
0.0
 10
6.1871277578
 20
6.984113835
 30
0.0
  0
SPLINE
  5
2D3
100
AcDbEntity
  8
0
100
AcDbSpline
 62
7
  6
CONTINUOUS
 70
0
 71
3
 72
33
 73
29
 74
0
 42
0.0000001
 43
0.0000001
 44
0.0000000001
 40
0.0
 40
0.0
 40
0.0
 40
0.0
 40
0.0154075206
 40
0.0216580895
 40
0.0269440739
 40
0.0312682329
 40
0.034632958
 40
0.0370402736
 40
0.0384918432
 40
0.0389890465
 40
0.0394449976
 40
0.0408417251
 40
0.0431609634
 40
0.0504946581
 40
0.0613053314
 40
0.0754584633
 40
0.0928263118
 40
0.1132884429
 40
0.1367322833
 40
0.1630531822
 40
0.1921198513
 40
0.2577462292
 40
0.3321378557
 40
0.4138689908
 40
0.5015960247
 40
0.5942015784
 40
0.7912186226
 40
1.0
 40
1.0
 40
1.0
 40
1.0
 10
6.1900601625
 20
6.9671158481
 30
0.0
 10
6.1901137336
 20
6.9670668607
 30
0.0
 10
6.1901883501
 20
6.9669972967
 30
0.0
 10
6.1902797313
 20
6.9669090474
 30
0.0
 10
6.1903327871
 20
6.9668566976
 30
0.0
 10
6.1903761999
 20
6.9668128939
 30
0.0
 10
6.1904084039
 20
6.9667797927
 30
0.0
 10
6.1904340053
 20
6.9667528333
 30
0.0
 10
6.1904442794
 20
6.9667419465
 30
0.0
 10
6.1904568783
 20
6.96672835
 30
0.0
 10
6.1904455808
 20
6.9667417153
 30
0.0
 10
6.1904360803
 20
6.9667530005
 30
0.0
 10
6.1904002728
 20
6.9667961309
 30
0.0
 10
6.1903420786
 20
6.9668688338
 30
0.0
 10
6.1902483739
 20
6.9669908763
 30
0.0
 10
6.190131155
 20
6.9671514275
 30
0.0
 10
6.1899914375
 20
6.9673529139
 30
0.0
 10
6.1898331797
 20
6.9675943004
 30
0.0
 10
6.1896592237
 20
6.9678758351
 30
0.0
 10
6.1894729754
 20
6.9681972242
 30
0.0
 10
6.1892010604
 20
6.9686984362
 30
0.0
 10
6.1888493609
 20
6.9694136473
 30
0.0
 10
6.1884344661
 20
6.9703729419
 30
0.0
 10
6.1880314962
 20
6.9714493862
 30
0.0
 10
6.1876608136
 20
6.9726278427
 30
0.0
 10
6.1872258235
 20
6.9743525621
 30
0.0
 10
6.186841953
 20
6.9766739631
 30
0.0
 10
6.1867339063
 20
6.978587373
 30
0.0
 10
6.1867339063
 20
6.9795710419
 30
0.0
  0
SPLINE
  5
2D4
100
AcDbEntity
  8
0
100
AcDbSpline
 62
7
  6
CONTINUOUS
 70
0
 71
3
 72
14
 73
10
 74
0
 42
0.0000001
 43
0.0000001
 44
0.0000000001
 40
0.0
 40
0.0
 40
0.0
 40
0.0
 40
0.3485785354
 40
0.5088707364
 40
0.655769713
 40
0.7844221012
 40
0.8885670273
 40
0.9618911909
 40
1.0
 40
1.0
 40
1.0
 40
1.0
 10
6.074000646
 20
6.9795710419
 30
0.0
 10
6.074000646
 20
6.9780005304
 30
0.0
 10
6.073795236
 20
6.975700759
 30
0.0
 10
6.073146762
 20
6.9728154875
 30
0.0
 10
6.0725396316
 20
6.9709448631
 30
0.0
 10
6.0718748338
 20
6.9693668563
 30
0.0
 10
6.0712451453
 20
6.9681379523
 30
0.0
 10
6.070728224
 20
6.9673142931
 30
0.0
 10
6.0704287032
 20
6.96691065
 30
0.0
 10
6.0703192969
 20
6.9667783225
 30
0.0
  0
SPLINE
  5
2D5
100
AcDbEntity
  8
0
100
AcDbSpline
 62
7
  6
CONTINUOUS
 70
0
 71
3
 72
19
 73
15
 74
0
 42
0.0000001
 43
0.0000001
 44
0.0000000001
 40
0.0
 40
0.0
 40
0.0
 40
0.0
 40
0.181686374
 40
0.3665305801
 40
0.5440524609
 40
0.7024679016
 40
0.8309547683
 40
0.8821033336
 40
0.9237886451
 40
0.9556825463
 40
0.9782698278
 40
0.9863381723
 40
0.9924521151
 40
1.0
 40
1.0
 40
1.0
 40
1.0
 10
5.3898911524
 20
4.3186850246
 30
0.0
 10
5.3892533503
 20
4.3193213121
 30
0.0
 10
5.3879584046
 20
4.3205966988
 30
0.0
 10
5.3860113233
 20
4.3224641263
 30
0.0
 10
5.3841186788
 20
4.3242211926
 30
0.0
 10
5.3824011126
 20
4.3257554825
 30
0.0
 10
5.3811201614
 20
4.3268373811
 30
0.0
 10
5.3802569122
 20
4.3275152663
 30
0.0
 10
5.3797589911
 20
4.3278822514
 30
0.0
 10
5.3793609766
 20
4.3281458093
 30
0.0
 10
5.379090943
 20
4.3282981709
 30
0.0
 10
5.3789197138
 20
4.3283659261
 30
0.0
 10
5.3788185258
 20
4.3283931717
 30
0.0
 10
5.3787387978
 20
4.3283894967
 30
0.0
 10
5.3787123269
 20
4.3283630375
 30
0.0
  0
SPLINE
  5
2D6
100
AcDbEntity
  8
0
100
AcDbSpline
 62
7
  6
CONTINUOUS
 70
0
 71
3
 72
18
 73
14
 74
0
 42
0.0000001
 43
0.0000001
 44
0.0000000001
 40
0.0
 40
0.0
 40
0.0
 40
0.0
 40
0.1813016817
 40
0.3659178949
 40
0.5433675464
 40
0.701832333
 40
0.8304416921
 40
0.9234261465
 40
0.955408355
 40
0.9780850277
 40
0.986199666
 40
0.9923612693
 40
1.0
 40
1.0
 40
1.0
 40
1.0
 10
5.0790962108
 20
4.0078072346
 30
0.0
 10
5.0784573559
 20
4.0084449113
 30
0.0
 10
5.0771595677
 20
4.0097235302
 30
0.0
 10
5.0752071764
 20
4.0115962824
 30
0.0
 10
5.0733073474
 20
4.0133590267
 30
0.0
 10
5.0715825115
 20
4.0149001737
 30
0.0
 10
5.0701343224
 20
4.0161181466
 30
0.0
 10
5.0691371997
 20
4.0168940984
 30
0.0
 10
5.0685236065
 20
4.0173001935
 30
0.0
 10
5.0682511759
 20
4.0174531931
 30
0.0
 10
5.0680783425
 20
4.0175213172
 30
0.0
 10
5.0679757435
 20
4.0175487134
 30
0.0
 10
5.0678951875
 20
4.0175452048
 30
0.0
 10
5.0678679555
 20
4.0175186574
 30
0.0
  0
SPLINE
  5
2D7
100
AcDbEntity
  8
0
100
AcDbSpline
 62
7
  6
CONTINUOUS
 70
0
 71
3
 72
27
 73
23
 74
0
 42
0.0000001
 43
0.0000001
 44
0.0000000001
 40
0.0
 40
0.0
 40
0.0
 40
0.0
 40
0.0825154551
 40
0.1635638543
 40
0.2416068152
 40
0.3154241714
 40
0.383979561
 40
0.4466330741
 40
0.4757156336
 40
0.5033328879
 40
0.5545258613
 40
0.5785515423
 40
0.6018361188
 40
0.6246914531
 40
0.6474573222
 40
0.6704814515
 40
0.6940913811
 40
0.7440898913
 40
0.7992456995
 40
0.8603472673
 40
0.927438788
 40
1.0
 40
1.0
 40
1.0
 40
1.0
 10
6.1303672762
 20
6.8656457149
 30
0.0
 10
6.124258971
 20
6.8656457149
 30
0.0
 10
6.1121438576
 20
6.8661862086
 30
0.0
 10
6.0943970957
 20
6.8685971712
 30
0.0
 10
6.0775855042
 20
6.8725501089
 30
0.0
 10
6.0621478778
 20
6.8779380299
 30
0.0
 10
6.0484803708
 20
6.8846275863
 30
0.0
 10
6.0386138639
 20
6.891315046
 30
0.0
 10
6.0320045087
 20
6.8971979465
 30
0.0
 10
6.026565859
 20
6.9030565304
 30
0.0
 10
6.0222648828
 20
6.9094388898
 30
0.0
 10
6.0194403892
 20
6.9161825888
 30
0.0
 10
6.0181095264
 20
6.9212217954
 30
0.0
 10
6.0175325844
 20
6.926308555
 30
0.0
 10
6.0177198381
 20
6.9314055876
 30
0.0
 10
6.0186667667
 20
6.9364736701
 30
0.0
 10
6.0209698454
 20
6.9432685518
 30
0.0
 10
6.0258580145
 20
6.9515775225
 30
0.0
 10
6.0343459328
 20
6.9605961909
 30
0.0
 10
6.045312237
 20
6.9686956643
 30
0.0
 10
6.0584713081
 20
6.9756935937
 30
0.0
 10
6.0681549321
 20
6.9793890877
 30
0.0
 10
6.0732663985
 20
6.9810398983
 30
0.0
  0
SPLINE
  5
2D8
100
AcDbEntity
  8
0
100
AcDbSpline
 62
7
  6
CONTINUOUS
 70
0
 71
3
 72
27
 73
23
 74
0
 42
0.0000001
 43
0.0000001
 44
0.0000000001
 40
0.0
 40
0.0
 40
0.0
 40
0.0
 40
0.0725595271
 40
0.1396504761
 40
0.2007524919
 40
0.2559091299
 40
0.3059085515
 40
0.3295187002
 40
0.3525429209
 40
0.3753086676
 40
0.3981637457
 40
0.4214478388
 40
0.445473012
 40
0.4966643165
 40
0.5242809423
 40
0.5533626149
 40
0.6160153931
 40
0.6845710467
 40
0.7583892128
 40
0.836433662
 40
0.9174841946
 40
1.0
 40
1.0
 40
1.0
 40
1.0
 10
6.1874662781
 20
6.9810405216
 30
0.0
 10
6.1925777022
 20
6.9793898317
 30
0.0
 10
6.2022612833
 20
6.9756944436
 30
0.0
 10
6.2154205313
 20
6.9686968729
 30
0.0
 10
6.2263871701
 20
6.9605975409
 30
0.0
 10
6.2348754453
 20
6.9515788669
 30
0.0
 10
6.2397641351
 20
6.9432699204
 30
0.0
 10
6.2420673954
 20
6.9364749439
 30
0.0
 10
6.243014658
 20
6.9314068614
 30
0.0
 10
6.2432019583
 20
6.9263098007
 30
0.0
 10
6.2426252419
 20
6.9212230464
 30
0.0
 10
6.2412946457
 20
6.9161838072
 30
0.0
 10
6.2384702472
 20
6.9094402164
 30
0.0
 10
6.2341697295
 20
6.9030577239
 30
0.0
 10
6.2287312066
 20
6.8971992408
 30
0.0
 10
6.222122195
 20
6.8913160956
 30
0.0
 10
6.2122557043
 20
6.8846285648
 30
0.0
 10
6.198588185
 20
6.8779387041
 30
0.0
 10
6.1831503163
 20
6.8725504348
 30
0.0
 10
6.1663382692
 20
6.8685973184
 30
0.0
 10
6.1485910645
 20
6.8661862561
 30
0.0
 10
6.1364756612
 20
6.8656457149
 30
0.0
 10
6.1303672762
 20
6.8656457149
 30
0.0
  0
SPLINE
  5
2D9
100
AcDbEntity
  8
0
100
AcDbSpline
 62
7
  6
CONTINUOUS
 70
0
 71
3
 72
19
 73
15
 74
0
 42
0.0000001
 43
0.0000001
 44
0.0000000001
 40
0.0
 40
0.0
 40
0.0
 40
0.0
 40
0.0075982744
 40
0.0137284182
 40
0.0218100567
 40
0.044422149
 40
0.0763469287
 40
0.1180712323
 40
0.1692633499
 40
0.2978464896
 40
0.4563443195
 40
0.6338717575
 40
0.8185908251
 40
1.0
 40
1.0
 40
1.0
 40
1.0
 10
7.6329691879
 20
6.5826198983
 30
0.0
 10
7.632942445
 20
6.5825931401
 30
0.0
 10
7.6329382174
 20
6.5825128678
 30
0.0
 10
7.6329652583
 20
6.5824107012
 30
0.0
 10
7.6330327835
 20
6.5822383125
 30
0.0
 10
7.6331852876
 20
6.5819664646
 30
0.0
 10
7.6334494804
 20
6.5815659801
 30
0.0
 10
7.6338176488
 20
6.58106508
 30
0.0
 10
7.6344979627
 20
6.5801969072
 30
0.0
 10
7.6355841316
 20
6.5789091351
 30
0.0
 10
7.6371246411
 20
6.577183278
 30
0.0
 10
7.6388884148
 20
6.5752827144
 30
0.0
 10
7.6407621255
 20
6.5733291244
 30
0.0
 10
7.6420415439
 20
6.5720305388
 30
0.0
 10
7.6426796243
 20
6.5713912768
 30
0.0
  0
SPLINE
  5
2DA
100
AcDbEntity
  8
0
100
AcDbSpline
 62
7
  6
CONTINUOUS
 70
0
 71
3
 72
19
 73
15
 74
0
 42
0.0000001
 43
0.0000001
 44
0.0000000001
 40
0.0
 40
0.0
 40
0.0
 40
0.0
 40
0.1816881609
 40
0.3665343597
 40
0.5440579614
 40
0.7024743071
 40
0.8309609402
 40
0.8821089334
 40
0.9237933316
 40
0.9556860592
 40
0.9782720334
 40
0.9863397024
 40
0.9924529903
 40
1.0
 40
1.0
 40
1.0
 40
1.0
 10
7.3318022012
 20
6.2605959674
 30
0.0
 10
7.3311659033
 20
6.2612337796
 30
0.0
 10
7.3298904951
 20
6.2625287465
 30
0.0
 10
7.3280230369
 20
6.2644758596
 30
0.0
 10
7.3262659443
 20
6.2663685332
 30
0.0
 10
7.324731638
 20
6.2680861201
 30
0.0
 10
7.3236497341
 20
6.2693670813
 30
0.0
 10
7.3229718526
 20
6.2702303313
 30
0.0
 10
7.3226048754
 20
6.2707282468
 30
0.0
 10
7.3223413293
 20
6.2711262524
 30
0.0
 10
7.3221889779
 20
6.2713962764
 30
0.0
 10
7.3221212345
 20
6.2715674975
 30
0.0
 10
7.3220939959
 20
6.2716686768
 30
0.0
 10
7.322097686
 20
6.2717483996
 30
0.0
 10
7.3221241497
 20
6.2717748603
 30
0.0
  0
SPLINE
  5
2DB
100
AcDbEntity
  8
0
100
AcDbSpline
 62
7
  6
CONTINUOUS
 70
0
 71
3
 72
19
 73
15
 74
0
 42
0.0000001
 43
0.0000001
 44
0.0000000001
 40
0.0
 40
0.0
 40
0.0
 40
0.0
 40
0.181686972
 40
0.3665310181
 40
0.5440517535
 40
0.7024687627
 40
0.8309537338
 40
0.8821008942
 40
0.9237879646
 40
0.9556839011
 40
0.9782704304
 40
0.9863381204
 40
0.9924516207
 40
1.0
 40
1.0
 40
1.0
 40
1.0
 10
4.928932404
 20
6.2605960205
 30
0.0
 10
4.9295686934
 20
6.2612338247
 30
0.0
 10
4.9308440808
 20
6.2625287723
 30
0.0
 10
4.9327115074
 20
6.264475849
 30
0.0
 10
4.934468571
 20
6.2663684972
 30
0.0
 10
4.9360028573
 20
6.2680860561
 30
0.0
 10
4.9370847531
 20
6.2693669983
 30
0.0
 10
4.937762627
 20
6.2702302463
 30
0.0
 10
4.9381296201
 20
6.2707281763
 30
0.0
 10
4.9383931949
 20
6.2711261968
 30
0.0
 10
4.9385455581
 20
6.2713962349
 30
0.0
 10
4.9386133053
 20
6.2715674554
 30
0.0
 10
4.9386405447
 20
6.2716686464
 30
0.0
 10
4.9386368672
 20
6.2717483628
 30
0.0
 10
4.9386104167
 20
6.2717748459
 30
0.0
  0
SPLINE
  5
2DC
100
AcDbEntity
  8
0
100
AcDbSpline
 62
7
  6
CONTINUOUS
 70
0
 71
3
 72
19
 73
15
 74
0
 42
0.0000001
 43
0.0000001
 44
0.0000000001
 40
0.0
 40
0.0
 40
0.0
 40
0.0
 40
0.0075972142
 40
0.013727317
 40
0.0218091366
 40
0.0444213864
 40
0.0763444862
 40
0.1180677421
 40
0.1692617153
 40
0.2978486956
 40
0.4563477458
 40
0.6338772517
 40
0.8185953749
 40
1.0
 40
1.0
 40
1.0
 40
1.0
 10
4.627765354
 20
6.5826199089
 30
0.0
 10
4.6277921086
 20
6.5825931666
 30
0.0
 10
4.6277963433
 20
6.5825128835
 30
0.0
 10
4.6277692991
 20
6.5824107199
 30
0.0
 10
4.6277017685
 20
6.5822383181
 30
0.0
 10
4.6275492583
 20
6.5819664615
 30
0.0
 10
4.6272850633
 20
6.581565959
 30
0.0
 10
4.6269168748
 20
6.5810650333
 30
0.0
 10
4.6262364979
 20
6.580196797
 30
0.0
 10
4.6251502396
 20
6.5789089246
 30
0.0
 10
4.6236096098
 20
6.5771829427
 30
0.0
 10
4.6218457138
 20
6.5752822665
 30
0.0
 10
4.6199718976
 20
6.5733285785
 30
0.0
 10
4.6186924167
 20
6.5720299406
 30
0.0
 10
4.6180543117
 20
6.5713906593
 30
0.0
  0
SPLINE
  5
2DD
100
AcDbEntity
  8
0
100
AcDbSpline
 62
7
  6
CONTINUOUS
 70
0
 71
3
 72
19
 73
15
 74
0
 42
0.0000001
 43
0.0000001
 44
0.0000000001
 40
0.0
 40
0.0
 40
0.0
 40
0.0
 40
0.0075982745
 40
0.013728419
 40
0.0218100587
 40
0.0444221546
 40
0.0763469397
 40
0.1180712499
 40
0.1692633747
 40
0.2978465295
 40
0.4563443703
 40
0.633871807
 40
0.8185908584
 40
1.0
 40
1.0
 40
1.0
 40
1.0
 10
4.6277653644
 20
4.4576198952
 30
0.0
 10
4.6277921074
 20
4.4576466534
 30
0.0
 10
4.6277963349
 20
4.4577269258
 30
0.0
 10
4.627769294
 20
4.4578290924
 30
0.0
 10
4.6277017688
 20
4.4580014812
 30
0.0
 10
4.6275492646
 20
4.4582733292
 30
0.0
 10
4.6272850716
 20
4.4586738138
 30
0.0
 10
4.6269169031
 20
4.4591747142
 30
0.0
 10
4.6262365888
 20
4.4600428874
 30
0.0
 10
4.6251504194
 20
4.46133066
 30
0.0
 10
4.6236099092
 20
4.4630565178
 30
0.0
 10
4.6218461349
 20
4.4649570819
 30
0.0
 10
4.6199724238
 20
4.4669106723
 30
0.0
 10
4.618693005
 20
4.4682092581
 30
0.0
 10
4.6180549246
 20
4.4688485203
 30
0.0
  0
SPLINE
  5
2DE
100
AcDbEntity
  8
0
100
AcDbSpline
 62
7
  6
CONTINUOUS
 70
0
 71
3
 72
19
 73
15
 74
0
 42
0.0000001
 43
0.0000001
 44
0.0000000001
 40
0.0
 40
0.0
 40
0.0
 40
0.0
 40
0.0075982732
 40
0.013728416
 40
0.0218100534
 40
0.044422143
 40
0.0763469188
 40
0.1180712185
 40
0.169263333
 40
0.297846467
 40
0.4563442937
 40
0.6338717344
 40
0.8185908105
 40
1.0
 40
1.0
 40
1.0
 40
1.0
 10
7.1928672777
 20
4.017517985
 30
0.0
 10
7.1928405196
 20
4.017544728
 30
0.0
 10
7.1927602473
 20
4.0175489555
 30
0.0
 10
7.1926580807
 20
4.0175219146
 30
0.0
 10
7.1924856921
 20
4.0174543895
 30
0.0
 10
7.1922138442
 20
4.0173018854
 30
0.0
 10
7.1918133598
 20
4.0170376927
 30
0.0
 10
7.1913124598
 20
4.0166695244
 30
0.0
 10
7.1904442871
 20
4.0159892106
 30
0.0
 10
7.1891565152
 20
4.0149030419
 30
0.0
 10
7.1874306583
 20
4.0133625326
 30
0.0
 10
7.1855300949
 20
4.0115987591
 30
0.0
 10
7.183576505
 20
4.0097250486
 30
0.0
 10
7.1822779195
 20
4.0084456302
 30
0.0
 10
7.1816386574
 20
4.0078075499
 30
0.0
  0
SPLINE
  5
2DF
100
AcDbEntity
  8
0
100
AcDbSpline
 62
7
  6
CONTINUOUS
 70
0
 71
3
 72
19
 73
15
 74
0
 42
0.0000001
 43
0.0000001
 44
0.0000000001
 40
0.0
 40
0.0
 40
0.0
 40
0.0
 40
0.0075478833
 40
0.0136618274
 40
0.0217301741
 40
0.044317458
 40
0.0762113528
 40
0.1178966586
 40
0.1690452283
 40
0.2975321011
 40
0.4559475368
 40
0.6334694212
 40
0.8183136279
 40
1.0
 40
1.0
 40
1.0
 40
1.0
 10
6.8820222254
 20
4.3283630375
 30
0.0
 10
6.8819957546
 20
4.3283894968
 30
0.0
 10
6.8819160265
 20
4.3283931717
 30
0.0
 10
6.8818148385
 20
4.3283659261
 30
0.0
 10
6.8816436093
 20
4.3282981709
 30
0.0
 10
6.8813735758
 20
4.3281458093
 30
0.0
 10
6.8809755613
 20
4.3278822515
 30
0.0
 10
6.8804776401
 20
4.3275152664
 30
0.0
 10
6.879614391
 20
4.3268373811
 30
0.0
 10
6.8783334398
 20
4.3257554825
 30
0.0
 10
6.8766158736
 20
4.3242211926
 30
0.0
 10
6.874723229
 20
4.3224641263
 30
0.0
 10
6.8727761478
 20
4.3205966988
 30
0.0
 10
6.8714812021
 20
4.319321312
 30
0.0
 10
6.8708433999
 20
4.3186850246
 30
0.0
  0
SPLINE
  5
2E0
100
AcDbEntity
  8
0
100
AcDbSpline
 62
7
  6
CONTINUOUS
 70
0
 71
3
 72
19
 73
15
 74
0
 42
0.0000001
 43
0.0000001
 44
0.0000000001
 40
0.0
 40
0.0
 40
0.0
 40
0.0
 40
0.1816863802
 40
0.3665305846
 40
0.5440524535
 40
0.7024679105
 40
0.8309547573
 40
0.8821033081
 40
0.9237886381
 40
0.9556825603
 40
0.9782698338
 40
0.9863381716
 40
0.9924521098
 40
1.0
 40
1.0
 40
1.0
 40
1.0
 10
7.3318021483
 20
4.779643773
 30
0.0
 10
7.3311658608
 20
4.7790059708
 30
0.0
 10
7.3298904741
 20
4.7777110251
 30
0.0
 10
7.3280230466
 20
4.7757639439
 30
0.0
 10
7.3262659804
 20
4.7738712993
 30
0.0
 10
7.3247316905
 20
4.7721537332
 30
0.0
 10
7.3236497919
 20
4.7708727821
 30
0.0
 10
7.3229719068
 20
4.770009533
 30
0.0
 10
7.3226049216
 20
4.7695116117
 30
0.0
 10
7.3223413636
 20
4.7691135971
 30
0.0
 10
7.3221890019
 20
4.7688435636
 30
0.0
 10
7.3221212469
 20
4.7686723344
 30
0.0
 10
7.3220940013
 20
4.7685711464
 30
0.0
 10
7.3220976763
 20
4.7684914185
 30
0.0
 10
7.3221241355
 20
4.7684649475
 30
0.0
  0
SPLINE
  5
2E1
100
AcDbEntity
  8
0
100
AcDbSpline
 62
7
  6
CONTINUOUS
 70
0
 71
3
 72
19
 73
15
 74
0
 42
0.0000001
 43
0.0000001
 44
0.0000000001
 40
0.0
 40
0.0
 40
0.0
 40
0.0
 40
0.0075972142
 40
0.013727317
 40
0.0218091366
 40
0.0444213864
 40
0.0763444862
 40
0.1180677421
 40
0.1692617153
 40
0.2978486956
 40
0.4563477458
 40
0.6338772517
 40
0.8185953749
 40
1.0
 40
1.0
 40
1.0
 40
1.0
 10
7.6329691983
 20
4.4576198846
 30
0.0
 10
7.6329424438
 20
4.4576466269
 30
0.0
 10
7.632938209
 20
4.45772691
 30
0.0
 10
7.6329652532
 20
4.4578290736
 30
0.0
 10
7.6330327838
 20
4.4580014754
 30
0.0
 10
7.6331852941
 20
4.458273332
 30
0.0
 10
7.633449489
 20
4.4586738345
 30
0.0
 10
7.6338176775
 20
4.4591747602
 30
0.0
 10
7.6344980544
 20
4.4600429965
 30
0.0
 10
7.6355843128
 20
4.4613308689
 30
0.0
 10
7.6371249425
 20
4.4630568508
 30
0.0
 10
7.6388888385
 20
4.464957527
 30
0.0
 10
7.6407626547
 20
4.466911215
 30
0.0
 10
7.6420421356
 20
4.4682098529
 30
0.0
 10
7.6426802406
 20
4.4688491342
 30
0.0
  0
SPLINE
  5
2E2
100
AcDbEntity
  8
0
100
AcDbSpline
 62
7
  6
CONTINUOUS
 70
0
 71
3
 72
16
 73
12
 74
0
 42
0.0000001
 43
0.0000001
 44
0.0000000001
 40
0.0
 40
0.0
 40
0.0
 40
0.0
 40
0.1811537519
 40
0.3658020854
 40
0.5434193567
 40
0.7019590911
 40
0.8309605441
 40
0.9236502892
 40
0.9781103628
 40
0.9923539711
 40
1.0
 40
1.0
 40
1.0
 40
1.0
 10
6.2903206875
 20
6.7581136367
 30
0.0
 10
6.2900189504
 20
6.7581138395
 30
0.0
 10
6.2894096445
 20
6.7581182945
 30
0.0
 10
6.2885046972
 20
6.7581371098
 30
0.0
 10
6.287637668
 20
6.7581693105
 30
0.0
 10
6.2868644008
 20
6.758213441
 30
0.0
 10
6.2862323662
 20
6.7582677192
 30
0.0
 10
6.2857779633
 20
6.7583255115
 30
0.0
 10
6.2855110819
 20
6.7583832221
 30
0.0
 10
6.2853957469
 20
6.758430466
 30
0.0
 10
6.2853672763
 20
6.7584614839
 30
0.0
 10
6.2853672762
 20
6.7584742194
 30
0.0
  0
SPLINE
  5
2E3
100
AcDbEntity
  8
0
100
AcDbSpline
 62
7
  6
CONTINUOUS
 70
0
 71
3
 72
19
 73
15
 74
0
 42
0.0000001
 43
0.0000001
 44
0.0000000001
 40
0.0
 40
0.0
 40
0.0
 40
0.0
 40
0.0075478897
 40
0.0136618283
 40
0.0217301667
 40
0.044317441
 40
0.0762113613
 40
0.1178966896
 40
0.1690452417
 40
0.2975320903
 40
0.4559475458
 40
0.6334694158
 40
0.8183136204
 40
1.0
 40
1.0
 40
1.0
 40
1.0
 10
4.9386104169
 20
4.7684649475
 30
0.0
 10
4.9386368761
 20
4.7684914185
 30
0.0
 10
4.938640551
 20
4.7685711464
 30
0.0
 10
4.9386133055
 20
4.7686723344
 30
0.0
 10
4.9385455504
 20
4.7688435636
 30
0.0
 10
4.9383931888
 20
4.7691135971
 30
0.0
 10
4.9381296308
 20
4.7695116117
 30
0.0
 10
4.9377626456
 20
4.770009533
 30
0.0
 10
4.9370847604
 20
4.7708727821
 30
0.0
 10
4.9360028619
 20
4.7721537332
 30
0.0
 10
4.934468572
 20
4.7738712993
 30
0.0
 10
4.9327115057
 20
4.7757639439
 30
0.0
 10
4.9308440782
 20
4.7777110251
 30
0.0
 10
4.9295686915
 20
4.7790059708
 30
0.0
 10
4.928932404
 20
4.779643773
 30
0.0
  0
SPLINE
  5
2E4
100
AcDbEntity
  8
0
100
AcDbSpline
 62
7
  6
CONTINUOUS
 70
0
 71
3
 72
19
 73
15
 74
0
 42
0.0000001
 43
0.0000001
 44
0.0000000001
 40
0.0
 40
0.0
 40
0.0
 40
0.0
 40
0.1816880058
 40
0.3665340541
 40
0.5440575399
 40
0.7024738336
 40
0.8309605003
 40
0.8821085411
 40
0.9237930054
 40
0.955685815
 40
0.978271882
 40
0.9863395984
 40
0.9924529319
 40
1.0
 40
1.0
 40
1.0
 40
1.0
 10
5.3898912055
 20
6.7215548218
 30
0.0
 10
5.3892533939
 20
6.7209185245
 30
0.0
 10
5.3879584282
 20
6.7196431174
 30
0.0
 10
5.3860113168
 20
6.7177756608
 30
0.0
 10
5.3841186446
 20
6.7160185694
 30
0.0
 10
5.3824010585
 20
6.7144842635
 30
0.0
 10
5.3811200974
 20
6.7134023595
 30
0.0
 10
5.3802568471
 20
6.7127244774
 30
0.0
 10
5.3797589309
 20
6.7123574994
 30
0.0
 10
5.3793609246
 20
6.7120939524
 30
0.0
 10
5.3790908998
 20
6.7119416002
 30
0.0
 10
5.3789196781
 20
6.711873856
 30
0.0
 10
5.3788184982
 20
6.7118466169
 30
0.0
 10
5.378738775
 20
6.7118503059
 30
0.0
 10
5.3787123136
 20
6.7118767693
 30
0.0
  0
SPLINE
  5
2E5
100
AcDbEntity
  8
0
100
AcDbSpline
 62
7
  6
CONTINUOUS
 70
0
 71
3
 72
19
 73
15
 74
0
 42
0.0000001
 43
0.0000001
 44
0.0000000001
 40
0.0
 40
0.0
 40
0.0
 40
0.0
 40
0.1814051005
 40
0.3661230849
 40
0.5436516666
 40
0.7021519783
 40
0.830737427
 40
0.8819302738
 40
0.9236549508
 40
0.9555796877
 40
0.9781913388
 40
0.986272636
 40
0.9924023868
 40
1.0
 40
1.0
 40
1.0
 40
1.0
 10
5.0790965136
 20
7.0324328612
 30
0.0
 10
5.0784572307
 20
7.0317947546
 30
0.0
 10
5.0771585913
 20
7.0305152733
 30
0.0
 10
5.0752049071
 20
7.0286414579
 30
0.0
 10
5.0733042279
 20
7.0268775641
 30
0.0
 10
5.071578252
 20
7.0253369373
 30
0.0
 10
5.0702903868
 20
7.0242506812
 30
0.0
 10
5.0694221514
 20
7.0235703135
 30
0.0
 10
5.0689212186
 20
7.0232021185
 30
0.0
 10
5.0685207112
 20
7.0229379097
 30
0.0
 10
5.0682488509
 20
7.0227853982
 30
0.0
 10
5.0680764561
 20
7.0227178739
 30
0.0
 10
5.0679742901
 20
7.0226908348
 30
0.0
 10
5.0678940163
 20
7.0226950715
 30
0.0
 10
5.0678672641
 20
7.022721819
 30
0.0
  0
SPLINE
  5
2E6
100
AcDbEntity
  8
0
100
AcDbSpline
 62
7
  6
CONTINUOUS
 70
0
 71
3
 72
16
 73
12
 74
0
 42
0.0000001
 43
0.0000001
 44
0.0000000001
 40
0.0
 40
0.0
 40
0.0
 40
0.0
 40
0.181153516
 40
0.3658013057
 40
0.5434179339
 40
0.7019571748
 40
0.8309585162
 40
0.9236486495
 40
0.9781095444
 40
0.9923536387
 40
1.0
 40
1.0
 40
1.0
 40
1.0
 10
5.9704138963
 20
6.7581136367
 30
0.0
 10
5.9707156311
 20
6.7581138397
 30
0.0
 10
5.9713249315
 20
6.7581182949
 30
0.0
 10
5.9722298703
 20
6.7581371102
 30
0.0
 10
5.9730968908
 20
6.7581693109
 30
0.0
 10
5.9738701507
 20
6.7582134411
 30
0.0
 10
5.9745021807
 20
6.7582677185
 30
0.0
 10
5.974956582
 20
6.7583255109
 30
0.0
 10
5.9752234651
 20
6.75838322
 30
0.0
 10
5.9753388016
 20
6.7584304644
 30
0.0
 10
5.9753672748
 20
6.7584614808
 30
0.0
 10
5.9753672762
 20
6.7584742168
 30
0.0
  0
SPLINE
  5
2E7
100
AcDbEntity
  8
0
100
AcDbSpline
 62
7
  6
CONTINUOUS
 70
0
 71
3
 72
16
 73
12
 74
0
 42
0.0000001
 43
0.0000001
 44
0.0000000001
 40
0.0
 40
0.0
 40
0.0
 40
0.0
 40
0.1810359048
 40
0.3656278814
 40
0.5432548532
 40
0.7018356165
 40
0.8308860246
 40
0.9236116999
 40
0.9780904228
 40
0.9923424252
 40
1.0
 40
1.0
 40
1.0
 40
1.0
 10
5.9704051305
 20
7.0482021748
 30
0.0
 10
5.9707072113
 20
7.0482023428
 30
0.0
 10
5.9713173179
 20
7.0482067403
 30
0.0
 10
5.9722236124
 20
7.0482255338
 30
0.0
 10
5.9730921846
 20
7.0482577848
 30
0.0
 10
5.9738670021
 20
7.0483020378
 30
0.0
 10
5.9745003689
 20
7.0483564952
 30
0.0
 10
5.9749557541
 20
7.0484145105
 30
0.0
 10
5.9752231849
 20
7.0484724281
 30
0.0
 10
5.9753387702
 20
7.048519878
 30
0.0
 10
5.975367273
 20
7.0485510013
 30
0.0
 10
5.9753672761
 20
7.0485637789
 30
0.0
  0
SPLINE
  5
2E8
100
AcDbEntity
  8
0
100
AcDbSpline
 62
7
  6
CONTINUOUS
 70
0
 71
3
 72
16
 73
12
 74
0
 42
0.0000001
 43
0.0000001
 44
0.0000000001
 40
0.0
 40
0.0
 40
0.0
 40
0.0
 40
0.1808844038
 40
0.3656307003
 40
0.5432561433
 40
0.701837842
 40
0.8308881249
 40
0.9236135521
 40
0.9780917396
 40
0.9923428789
 40
1.0
 40
1.0
 40
1.0
 40
1.0
 10
6.2903294561
 20
7.0482021748
 30
0.0
 10
6.2900276258
 20
7.0482023402
 30
0.0
 10
6.2894175089
 20
7.0482066417
 30
0.0
 10
6.2885112074
 20
7.0482255495
 30
0.0
 10
6.2876423717
 20
7.0482577785
 30
0.0
 10
6.2868675495
 20
7.0483020391
 30
0.0
 10
6.2862341772
 20
7.0483564954
 30
0.0
 10
6.2857787896
 20
7.048414512
 30
0.0
 10
6.2855113605
 20
7.0484724294
 30
0.0
 10
6.2853957763
 20
7.0485198799
 30
0.0
 10
6.2853672781
 20
7.0485510047
 30
0.0
 10
6.2853672762
 20
7.0485637817
 30
0.0
  0
SPLINE
  5
2E9
100
AcDbEntity
  8
0
100
AcDbSpline
 62
7
  6
CONTINUOUS
 70
0
 71
3
 72
19
 73
15
 74
0
 42
0.0000001
 43
0.0000001
 44
0.0000000001
 40
0.0
 40
0.0
 40
0.0
 40
0.0
 40
0.181686374
 40
0.3665305801
 40
0.5440524609
 40
0.7024679016
 40
0.8309547683
 40
0.8821033336
 40
0.9237886451
 40
0.9556825463
 40
0.9782698278
 40
0.9863381723
 40
0.9924521151
 40
1.0
 40
1.0
 40
1.0
 40
1.0
 10
6.8708433999
 20
6.7215547689
 30
0.0
 10
6.8714812021
 20
6.7209184815
 30
0.0
 10
6.8727761478
 20
6.7196430947
 30
0.0
 10
6.874723229
 20
6.7177756672
 30
0.0
 10
6.8766158736
 20
6.7160186009
 30
0.0
 10
6.8783334398
 20
6.714484311
 30
0.0
 10
6.8796143909
 20
6.7134024124
 30
0.0
 10
6.8804776401
 20
6.7127245272
 30
0.0
 10
6.8809755613
 20
6.7123575421
 30
0.0
 10
6.8813735758
 20
6.7120939842
 30
0.0
 10
6.8816436093
 20
6.7119416226
 30
0.0
 10
6.8818148385
 20
6.7118738674
 30
0.0
 10
6.8819160265
 20
6.7118466218
 30
0.0
 10
6.8819957545
 20
6.7118502968
 30
0.0
 10
6.8820222254
 20
6.711876756
 30
0.0
  0
SPLINE
  5
2EA
100
AcDbEntity
  8
0
100
AcDbSpline
 62
7
  6
CONTINUOUS
 70
0
 71
3
 72
19
 73
15
 74
0
 42
0.0000001
 43
0.0000001
 44
0.0000000001
 40
0.0
 40
0.0
 40
0.0
 40
0.0
 40
0.0075972142
 40
0.013727317
 40
0.0218091366
 40
0.0444213864
 40
0.0763444862
 40
0.1180677421
 40
0.1692617153
 40
0.2978486956
 40
0.4563477458
 40
0.6338772517
 40
0.8185953749
 40
1.0
 40
1.0
 40
1.0
 40
1.0
 10
7.1928672883
 20
7.0227218189
 30
0.0
 10
7.192840546
 20
7.0226950644
 30
0.0
 10
7.1927602629
 20
7.0226908296
 30
0.0
 10
7.1926580993
 20
7.0227178738
 30
0.0
 10
7.1924856975
 20
7.0227854044
 30
0.0
 10
7.192213841
 20
7.0229379146
 30
0.0
 10
7.1918133384
 20
7.0232021096
 30
0.0
 10
7.1913124127
 20
7.0235702981
 30
0.0
 10
7.1904441765
 20
7.024250675
 30
0.0
 10
7.189156304
 20
7.0253369334
 30
0.0
 10
7.1874303221
 20
7.0268775631
 30
0.0
 10
7.1855296459
 20
7.0286414591
 30
0.0
 10
7.1835759579
 20
7.0305152753
 30
0.0
 10
7.18227732
 20
7.0317947562
 30
0.0
 10
7.1816380387
 20
7.0324328612
 30
0.0
  0
SPLINE
  5
2EB
100
AcDbEntity
  8
0
100
AcDbSpline
 62
7
  6
CONTINUOUS
 70
0
 71
3
 72
15
 73
11
 74
0
 42
0.0000001
 43
0.0000001
 44
0.0000000001
 40
0.0
 40
0.0
 40
0.0
 40
0.0
 40
0.1254852902
 40
0.2508172566
 40
0.375940559
 40
0.5008850959
 40
0.6257127613
 40
0.7504840696
 40
0.8752373608
 40
1.0
 40
1.0
 40
1.0
 40
1.0
 10
6.0704220681
 20
12.6631881412
 30
0.0
 10
6.0661382834
 20
12.6632205195
 30
0.0
 10
6.0575542426
 20
12.6642081879
 30
0.0
 10
6.045324375
 20
12.6684095917
 30
0.0
 10
6.0343129161
 20
12.6751738125
 30
0.0
 10
6.0251026924
 20
12.6842201598
 30
0.0
 10
6.0182099949
 20
12.6951274487
 30
0.0
 10
6.0140500163
 20
12.7073394993
 30
0.0
 10
6.0128815657
 20
12.7201803876
 30
0.0
 10
6.0141531492
 20
12.7286995158
 30
0.0
 10
6.0152753742
 20
12.7328082514
 30
0.0
  0
SPLINE
  5
2EC
100
AcDbEntity
  8
0
100
AcDbSpline
 62
7
  6
CONTINUOUS
 70
0
 71
3
 72
15
 73
11
 74
0
 42
0.0000001
 43
0.0000001
 44
0.0000000001
 40
0.0
 40
0.0
 40
0.0
 40
0.0
 40
0.1247396045
 40
0.2494907874
 40
0.3742570555
 40
0.4990965186
 40
0.6240596478
 40
0.7491841265
 40
0.8745382149
 40
1.0
 40
1.0
 40
1.0
 40
1.0
 10
6.1264687935
 20
12.7328082514
 30
0.0
 10
6.1275902165
 20
12.7287024522
 30
0.0
 10
6.1288612071
 20
12.7201889226
 30
0.0
 10
6.1276972361
 20
12.7073556007
 30
0.0
 10
6.1235426895
 20
12.6951489169
 30
0.0
 10
6.1166590271
 20
12.6842430719
 30
0.0
 10
6.1074572678
 20
12.6751965364
 30
0.0
 10
6.0964559433
 20
12.6684263306
 30
0.0
 10
6.084235058
 20
12.6642197448
 30
0.0
 10
6.0756567287
 20
12.6632248709
 30
0.0
 10
6.0713760485
 20
12.6631885771
 30
0.0
  0
SPLINE
  5
2ED
100
AcDbEntity
  8
0
100
AcDbSpline
 62
7
  6
CONTINUOUS
 70
0
 71
3
 72
12
 73
8
 74
0
 42
0.0000001
 43
0.0000001
 44
0.0000000001
 40
0.0
 40
0.0
 40
0.0
 40
0.0
 40
0.2471960753
 40
0.3716374825
 40
0.4964750181
 40
0.7474429286
 40
1.0
 40
1.0
 40
1.0
 40
1.0
 10
5.5334605303
 20
12.9437977814
 30
0.0
 10
5.5384301202
 20
12.9437977814
 30
0.0
 10
5.5459026396
 20
12.9443925704
 30
0.0
 10
5.5557781867
 20
12.9458317831
 30
0.0
 10
5.5656809644
 20
12.9475978987
 30
0.0
 10
5.5780298663
 20
12.9502723906
 30
0.0
 10
5.5878758932
 20
12.9526227434
 30
0.0
 10
5.5928154212
 20
12.9537977814
 30
0.0
  0
SPLINE
  5
2EE
100
AcDbEntity
  8
0
100
AcDbSpline
 62
7
  6
CONTINUOUS
 70
0
 71
3
 72
26
 73
22
 74
0
 42
0.0000001
 43
0.0000001
 44
0.0000000001
 40
0.0
 40
0.0
 40
0.0
 40
0.0
 40
0.0672826536
 40
0.1331130484
 40
0.1971014939
 40
0.2590692389
 40
0.3191008022
 40
0.3775441218
 40
0.4349900259
 40
0.4636127469
 40
0.4922752641
 40
0.5210757633
 40
0.5501080388
 40
0.5794554457
 40
0.6091884416
 40
0.6699495854
 40
0.7327122964
 40
0.7974583325
 40
0.8639085859
 40
0.9316387131
 40
1.0
 40
1.0
 40
1.0
 40
1.0
 10
6.0428465344
 20
12.6701558377
 30
0.0
 10
6.0363316528
 20
12.6715525627
 30
0.0
 10
6.0236292077
 20
12.6753048052
 30
0.0
 10
6.0059465363
 20
12.6837623404
 30
0.0
 10
5.9903360155
 20
12.6947460881
 30
0.0
 10
5.9773147278
 20
12.7079182595
 30
0.0
 10
5.9673173342
 20
12.7228684548
 30
0.0
 10
5.9606947471
 20
12.7391146109
 30
0.0
 10
5.958190128
 20
12.7533270404
 30
0.0
 10
5.9580561066
 20
12.764706524
 30
0.0
 10
5.9588789799
 20
12.7732089935
 30
0.0
 10
5.9606151977
 20
12.7816132475
 30
0.0
 10
5.9632556093
 20
12.7898496028
 30
0.0
 10
5.9667729901
 20
12.7978522812
 30
0.0
 10
5.9726346302
 20
12.808191224
 30
0.0
 10
5.9820633193
 20
12.82021463
 30
0.0
 10
5.9961512841
 20
12.8325744959
 30
0.0
 10
6.0126373322
 20
12.8426070153
 30
0.0
 10
6.0309859566
 20
12.8500051873
 30
0.0
 10
6.0506031537
 20
12.8545333553
 30
0.0
 10
6.0641023465
 20
12.8555503443
 30
0.0
 10
6.0708720839
 20
12.8555503443
 30
0.0
  0
SPLINE
  5
2EF
100
AcDbEntity
  8
0
100
AcDbSpline
 62
7
  6
CONTINUOUS
 70
0
 71
3
 72
26
 73
22
 74
0
 42
0.0000001
 43
0.0000001
 44
0.0000000001
 40
0.0
 40
0.0
 40
0.0
 40
0.0
 40
0.0683743734
 40
0.1361193218
 40
0.2025898584
 40
0.2673625012
 40
0.3301581077
 40
0.3909561008
 40
0.4207072308
 40
0.4500717703
 40
0.4791192849
 40
0.5079323438
 40
0.5366040436
 40
0.5652319813
 40
0.6226752382
 40
0.6810976181
 40
0.7410930145
 40
0.8030153706
 40
0.866956534
 40
0.9327459538
 40
1.0
 40
1.0
 40
1.0
 40
1.0
 10
6.0708720839
 20
12.8555503443
 30
0.0
 10
6.0776262754
 20
12.8555503443
 30
0.0
 10
6.0910945513
 20
12.8545380366
 30
0.0
 10
6.1106696348
 20
12.8500304614
 30
0.0
 10
6.1289846548
 20
12.842665347
 30
0.0
 10
6.1454495432
 20
12.8326761633
 30
0.0
 10
6.1595320491
 20
12.8203671979
 30
0.0
 10
6.1689714362
 20
12.8083902249
 30
0.0
 10
6.1748516886
 20
12.7980877966
 30
0.0
 10
6.1783879133
 20
12.7901118481
 30
0.0
 10
6.1810519689
 20
12.781901146
 30
0.0
 10
6.1828166051
 20
12.7735209787
 30
0.0
 10
6.1836725161
 20
12.7650405295
 30
0.0
 10
6.1835883813
 20
12.7536878064
 30
0.0
 10
6.1811573998
 20
12.7395013286
 30
0.0
 10
6.1746354347
 20
12.7232682434
 30
0.0
 10
6.164746657
 20
12.7083119665
 30
0.0
 10
6.1518367448
 20
12.695112943
 30
0.0
 10
6.1363349763
 20
12.6840807859
 30
0.0
 10
6.1187528628
 20
12.6755536962
 30
0.0
 10
6.1061096895
 20
12.6717426843
 30
0.0
 10
6.099621771
 20
12.6703132407
 30
0.0
  0
SPLINE
  5
2F0
100
AcDbEntity
  8
0
100
AcDbSpline
 62
7
  6
CONTINUOUS
 70
0
 71
3
 72
12
 73
8
 74
0
 42
0.0000001
 43
0.0000001
 44
0.0000000001
 40
0.0
 40
0.0
 40
0.0
 40
0.0
 40
0.2525570508
 40
0.5035249605
 40
0.628362501
 40
0.7528039161
 40
1.0
 40
1.0
 40
1.0
 40
1.0
 10
6.5489287465
 20
12.9537977814
 30
0.0
 10
6.5538682737
 20
12.9526227436
 30
0.0
 10
6.56371431
 20
12.9502724355
 30
0.0
 10
6.5760632132
 20
12.9475979602
 30
0.0
 10
6.5859659859
 20
12.9458318205
 30
0.0
 10
6.5958415288
 20
12.9443925829
 30
0.0
 10
6.6033140477
 20
12.9437977814
 30
0.0
 10
6.6082836374
 20
12.9437977814
 30
0.0
  0
SPLINE
  5
2F1
100
AcDbEntity
  8
0
100
AcDbSpline
 62
7
  6
CONTINUOUS
 70
0
 71
3
 72
10
 73
6
 74
0
 42
0.0000001
 43
0.0000001
 44
0.0000000001
 40
0.0
 40
0.0
 40
0.0
 40
0.0
 40
0.498980439
 40
0.7495132221
 40
1.0
 40
1.0
 40
1.0
 40
1.0
 10
6.2256909826
 20
12.5403114527
 30
0.0
 10
6.2264558088
 20
12.5401630002
 30
0.0
 10
6.2276512401
 20
12.5400949578
 30
0.0
 10
6.2291824431
 20
12.5404358934
 30
0.0
 10
6.2299012924
 20
12.5407709213
 30
0.0
 10
6.2302265972
 20
12.5409880406
 30
0.0
  0
SPLINE
  5
2F2
100
AcDbEntity
  8
0
100
AcDbSpline
 62
7
  6
CONTINUOUS
 70
0
 71
3
 72
10
 73
6
 74
0
 42
0.0000001
 43
0.0000001
 44
0.0000000001
 40
0.0
 40
0.0
 40
0.0
 40
0.0
 40
0.2504837276
 40
0.5010264289
 40
1.0
 40
1.0
 40
1.0
 40
1.0
 10
5.9115175705
 20
12.5409880406
 30
0.0
 10
5.9118428366
 20
12.5407709471
 30
0.0
 10
5.9125621339
 20
12.5404369024
 30
0.0
 10
5.9140930422
 20
12.5400964143
 30
0.0
 10
5.9152884512
 20
12.5401630181
 30
0.0
 10
5.9160531851
 20
12.5403114527
 30
0.0
  0
SPLINE
  5
2F3
100
AcDbEntity
  8
0
100
AcDbSpline
 62
7
  6
CONTINUOUS
 70
0
 71
3
 72
15
 73
11
 74
0
 42
0.0000001
 43
0.0000001
 44
0.0000000001
 40
0.0
 40
0.0
 40
0.0
 40
0.0
 40
0.0957476372
 40
0.201537341
 40
0.3192673621
 40
0.4480147234
 40
0.5853696674
 40
0.7266797219
 40
0.8663772079
 40
1.0
 40
1.0
 40
1.0
 40
1.0
 10
5.3303960132
 20
13.0070092684
 30
0.0
 10
5.3297469453
 20
13.0069939074
 30
0.0
 10
5.3283803023
 20
13.0067802865
 30
0.0
 10
5.3263687765
 20
13.0059255263
 30
0.0
 10
5.3244356115
 20
13.0044896164
 30
0.0
 10
5.3226836968
 20
13.0025432073
 30
0.0
 10
5.3212442951
 20
13.0001691832
 30
0.0
 10
5.3201577279
 20
12.9975373307
 30
0.0
 10
5.3194755483
 20
12.9948006833
 30
0.0
 10
5.3192625118
 20
12.9929538746
 30
0.0
 10
5.3192171213
 20
12.9920489372
 30
0.0
  0
SPLINE
  5
2F4
100
AcDbEntity
  8
0
100
AcDbSpline
 62
7
  6
CONTINUOUS
 70
0
 71
3
 72
15
 73
11
 74
0
 42
0.0000001
 43
0.0000001
 44
0.0000000001
 40
0.0
 40
0.0
 40
0.0
 40
0.0
 40
0.0956926776
 40
0.2014251659
 40
0.319125196
 40
0.4478803396
 40
0.5852781563
 40
0.7266464786
 40
0.866379704
 40
1.0
 40
1.0
 40
1.0
 40
1.0
 10
5.0196013213
 20
13.0383976978
 30
0.0
 10
5.0189511228
 20
13.0383859084
 30
0.0
 10
5.017581039
 20
13.0381790167
 30
0.0
 10
5.0155621965
 20
13.0373312549
 30
0.0
 10
5.0136204842
 20
13.0358986268
 30
0.0
 10
5.0118596931
 20
13.0339521157
 30
0.0
 10
5.0104124538
 20
13.0315747203
 30
0.0
 10
5.009319504
 20
13.0289376612
 30
0.0
 10
5.0086329039
 20
13.0261950269
 30
0.0
 10
5.0084180916
 20
13.0243440532
 30
0.0
 10
5.0083720718
 20
13.0234371673
 30
0.0
  0
SPLINE
  5
2F5
100
AcDbEntity
  8
0
100
AcDbSpline
 62
7
  6
CONTINUOUS
 70
0
 71
3
 72
11
 73
7
 74
0
 42
0.0000001
 43
0.0000001
 44
0.0000000001
 40
0.0
 40
0.0
 40
0.0
 40
0.0
 40
0.240497141
 40
0.5004265787
 40
0.7600851845
 40
1.0
 40
1.0
 40
1.0
 40
1.0
 10
5.9109099382
 20
13.0161329575
 30
0.0
 10
5.9115316879
 20
13.0161281897
 30
0.0
 10
5.9128359823
 20
13.0158726669
 30
0.0
 10
5.9145188567
 20
13.0147575615
 30
0.0
 10
5.9156252208
 20
13.0130705193
 30
0.0
 10
5.9158720728
 20
13.0117664576
 30
0.0
 10
5.9158720838
 20
13.0111461951
 30
0.0
  0
SPLINE
  5
2F6
100
AcDbEntity
  8
0
100
AcDbSpline
 62
7
  6
CONTINUOUS
 70
0
 71
3
 72
11
 73
7
 74
0
 42
0.0000001
 43
0.0000001
 44
0.0000000001
 40
0.0
 40
0.0
 40
0.0
 40
0.0
 40
0.2404985452
 40
0.5004266629
 40
0.7600854896
 40
1.0
 40
1.0
 40
1.0
 40
1.0
 10
6.2308342638
 20
13.0161329587
 30
0.0
 10
6.2302125043
 20
13.0161282599
 30
0.0
 10
6.2289081995
 20
13.0158726309
 30
0.0
 10
6.2272253027
 20
13.0147575689
 30
0.0
 10
6.2261189355
 20
13.0130704961
 30
0.0
 10
6.2258720905
 20
13.0117664237
 30
0.0
 10
6.2258720839
 20
13.0111461565
 30
0.0
  0
SPLINE
  5
2F7
100
AcDbEntity
  8
0
100
AcDbSpline
 62
7
  6
CONTINUOUS
 70
0
 71
3
 72
15
 73
11
 74
0
 42
0.0000001
 43
0.0000001
 44
0.0000000001
 40
0.0
 40
0.0
 40
0.0
 40
0.0
 40
0.0957477739
 40
0.2015374649
 40
0.3192672817
 40
0.4480142941
 40
0.5853688646
 40
0.7266787889
 40
0.8663764946
 40
1.0
 40
1.0
 40
1.0
 40
1.0
 10
6.8113482076
 20
13.0070092671
 30
0.0
 10
6.8119972662
 20
13.0069939016
 30
0.0
 10
6.8133638872
 20
13.0067802774
 30
0.0
 10
6.8153753798
 20
13.0059255296
 30
0.0
 10
6.8173085151
 20
13.0044896501
 30
0.0
 10
6.8190604092
 20
13.0025432865
 30
0.0
 10
6.8204998035
 20
13.0001693156
 30
0.0
 10
6.8215863767
 20
12.997537516
 30
0.0
 10
6.8222685765
 20
12.9948009135
 30
0.0
 10
6.8224816314
 20
12.9929541298
 30
0.0
 10
6.8225270331
 20
12.9920492023
 30
0.0
  0
SPLINE
  5
2F8
100
AcDbEntity
  8
0
100
AcDbSpline
 62
7
  6
CONTINUOUS
 70
0
 71
3
 72
15
 73
11
 74
0
 42
0.0000001
 43
0.0000001
 44
0.0000000001
 40
0.0
 40
0.0
 40
0.0
 40
0.0
 40
0.1336197547
 40
0.2733539609
 40
0.4147211014
 40
0.5521201695
 40
0.680875008
 40
0.79857491
 40
0.9043076169
 40
1.0
 40
1.0
 40
1.0
 40
1.0
 10
7.133372096
 20
13.0234371669
 30
0.0
 10
7.1333260909
 20
13.0243440501
 30
0.0
 10
7.1331112432
 20
13.0261950237
 30
0.0
 10
7.1324246845
 20
13.0289376616
 30
0.0
 10
7.1313317161
 20
13.0315747251
 30
0.0
 10
7.1298844692
 20
13.0339521103
 30
0.0
 10
7.128123697
 20
13.0358986506
 30
0.0
 10
7.126181961
 20
13.037331244
 30
0.0
 10
7.1241631293
 20
13.0381790254
 30
0.0
 10
7.1227930431
 20
13.0383859084
 30
0.0
 10
7.1221428464
 20
13.0383976978
 30
0.0
  0
SPLINE
  5
2F9
100
AcDbEntity
  8
0
100
AcDbSpline
 62
7
  6
CONTINUOUS
 70
0
 71
3
 72
12
 73
8
 74
0
 42
0.0000001
 43
0.0000001
 44
0.0000000001
 40
0.0
 40
0.0
 40
0.0
 40
0.0
 40
0.2471960753
 40
0.3716374825
 40
0.4964750181
 40
0.7474429286
 40
1.0
 40
1.0
 40
1.0
 40
1.0
 10
15.9041052569
 20
5.998036258
 30
0.0
 10
15.9041052569
 20
5.9930666681
 30
0.0
 10
15.9047000459
 20
5.9855941487
 30
0.0
 10
15.9061392586
 20
5.9757186016
 30
0.0
 10
15.9079053743
 20
5.9658158239
 30
0.0
 10
15.9105798662
 20
5.953466922
 30
0.0
 10
15.912930219
 20
5.9436208951
 30
0.0
 10
15.9141052569
 20
5.9386813671
 30
0.0
  0
SPLINE
  5
2FA
100
AcDbEntity
  8
0
100
AcDbSpline
 62
7
  6
CONTINUOUS
 70
0
 71
3
 72
15
 73
11
 74
0
 42
0.0000001
 43
0.0000001
 44
0.0000000001
 40
0.0
 40
0.0
 40
0.0
 40
0.0
 40
0.0977486285
 40
0.1719530173
 40
0.234328472
 40
0.3083117539
 40
0.4132496935
 40
0.5591593142
 40
0.7526500495
 40
1.0
 40
1.0
 40
1.0
 40
1.0
 10
15.5006189282
 20
6.6852523006
 30
0.0
 10
15.5005861299
 20
6.6852309383
 30
0.0
 10
15.5005310659
 20
6.685189443
 30
0.0
 10
15.5004716744
 20
6.6851125752
 30
0.0
 10
15.5004673912
 20
6.6850220307
 30
0.0
 10
15.5005286986
 20
6.6849408977
 30
0.0
 10
15.5006373259
 20
6.6848686981
 30
0.0
 10
15.5008010673
 20
6.6847970164
 30
0.0
 10
15.5010258188
 20
6.6847277833
 30
0.0
 10
15.5011983058
 20
6.6846893509
 30
0.0
 10
15.5012955162
 20
6.6846703652
 30
0.0
  0
SPLINE
  5
2FB
100
AcDbEntity
  8
0
100
AcDbSpline
 62
7
  6
CONTINUOUS
 70
0
 71
3
 72
12
 73
8
 74
0
 42
0.0000001
 43
0.0000001
 44
0.0000000001
 40
0.0
 40
0.0
 40
0.0
 40
0.0
 40
0.2525570508
 40
0.5035249605
 40
0.628362501
 40
0.7528039161
 40
1.0
 40
1.0
 40
1.0
 40
1.0
 10
15.9141052569
 20
4.9825680418
 30
0.0
 10
15.9129302192
 20
4.9776285146
 30
0.0
 10
15.9105799111
 20
4.9677824783
 30
0.0
 10
15.9079054358
 20
4.9554335751
 30
0.0
 10
15.9061392961
 20
4.9455308024
 30
0.0
 10
15.9047000585
 20
4.9356552595
 30
0.0
 10
15.9041052569
 20
4.9281827406
 30
0.0
 10
15.9041052569
 20
4.9232131509
 30
0.0
  0
SPLINE
  5
2FC
100
AcDbEntity
  8
0
100
AcDbSpline
 62
7
  6
CONTINUOUS
 70
0
 71
3
 72
15
 73
11
 74
0
 42
0.0000001
 43
0.0000001
 44
0.0000000001
 40
0.0
 40
0.0
 40
0.0
 40
0.0
 40
0.1336193024
 40
0.2733510234
 40
0.4147178784
 40
0.5521148986
 40
0.6808701767
 40
0.7985713824
 40
0.9043055595
 40
1.0
 40
1.0
 40
1.0
 40
1.0
 10
15.9837448495
 20
6.523124706
 30
0.0
 10
15.9846516917
 20
6.5230786794
 30
0.0
 10
15.9865025722
 20
6.5228638656
 30
0.0
 10
15.989245069
 20
6.5221772992
 30
0.0
 10
15.9918820049
 20
6.5210844222
 30
0.0
 10
15.994259315
 20
6.5196372893
 30
0.0
 10
15.9962057997
 20
6.5178766244
 30
0.0
 10
15.9976384639
 20
6.5159350378
 30
0.0
 10
15.9984863292
 20
6.5139163027
 30
0.0
 10
15.9986933184
 20
6.5125462678
 30
0.0
 10
15.9987051621
 20
6.5118960845
 30
0.0
  0
SPLINE
  5
2FD
100
AcDbEntity
  8
0
100
AcDbSpline
 62
7
  6
CONTINUOUS
 70
0
 71
3
 72
15
 73
11
 74
0
 42
0.0000001
 43
0.0000001
 44
0.0000000001
 40
0.0
 40
0.0
 40
0.0
 40
0.0
 40
0.0957476389
 40
0.2015373547
 40
0.3192673998
 40
0.4480147896
 40
0.5853697553
 40
0.7266798121
 40
0.8663772692
 40
1.0
 40
1.0
 40
1.0
 40
1.0
 10
15.967316744
 20
6.2011007751
 30
0.0
 10
15.9673013829
 20
6.2017498436
 30
0.0
 10
15.9670877616
 20
6.2031164881
 30
0.0
 10
15.9662329999
 20
6.2051280157
 30
0.0
 10
15.9647970872
 20
6.2070611821
 30
0.0
 10
15.9628506748
 20
6.2088130976
 30
0.0
 10
15.9604766472
 20
6.2102524992
 30
0.0
 10
15.9578447913
 20
6.2113390654
 30
0.0
 10
15.9551081414
 20
6.2120212432
 30
0.0
 10
15.9532613314
 20
6.2122342783
 30
0.0
 10
15.9523563935
 20
6.212279668
 30
0.0
  0
SPLINE
  5
2FE
100
AcDbEntity
  8
0
100
AcDbSpline
 62
7
  6
CONTINUOUS
 70
0
 71
3
 72
15
 73
11
 74
0
 42
0.0000001
 43
0.0000001
 44
0.0000000001
 40
0.0
 40
0.0
 40
0.0
 40
0.0
 40
0.1336197547
 40
0.2733539609
 40
0.4147211014
 40
0.5521201695
 40
0.680875008
 40
0.79857491
 40
0.9043076169
 40
1.0
 40
1.0
 40
1.0
 40
1.0
 10
15.9837446425
 20
4.3981246923
 30
0.0
 10
15.9846515256
 20
4.3981706974
 30
0.0
 10
15.9865024992
 20
4.3983855451
 30
0.0
 10
15.9892451372
 20
4.3990721038
 30
0.0
 10
15.9918822007
 20
4.4001650722
 30
0.0
 10
15.9942595858
 20
4.4016123191
 30
0.0
 10
15.9962061262
 20
4.4033730913
 30
0.0
 10
15.9976387196
 20
4.4053148273
 30
0.0
 10
15.998486501
 20
4.407333659
 30
0.0
 10
15.998693384
 20
4.4087037452
 30
0.0
 10
15.9987051734
 20
4.4093539419
 30
0.0
  0
SPLINE
  5
2FF
100
AcDbEntity
  8
0
100
AcDbSpline
 62
7
  6
CONTINUOUS
 70
0
 71
3
 72
15
 73
11
 74
0
 42
0.0000001
 43
0.0000001
 44
0.0000000001
 40
0.0
 40
0.0
 40
0.0
 40
0.0
 40
0.0957477777
 40
0.2015374658
 40
0.3192672843
 40
0.4480143006
 40
0.585368855
 40
0.7266787945
 40
0.8663764875
 40
1.0
 40
1.0
 40
1.0
 40
1.0
 10
15.9673167427
 20
4.7201485807
 30
0.0
 10
15.9673013772
 20
4.7194995221
 30
0.0
 10
15.9670877528
 20
4.7181329012
 30
0.0
 10
15.9662330053
 20
4.7161214083
 30
0.0
 10
15.9647971253
 20
4.7141882734
 30
0.0
 10
15.9628507621
 20
4.712436379
 30
0.0
 10
15.9604767911
 20
4.7109969848
 30
0.0
 10
15.9578449915
 20
4.7099104118
 30
0.0
 10
15.9551083891
 20
4.7092282115
 30
0.0
 10
15.9532616054
 20
4.7090151571
 30
0.0
 10
15.9523566778
 20
4.7089697552
 30
0.0
  0
SPLINE
  5
300
100
AcDbEntity
  8
0
100
AcDbSpline
 62
7
  6
CONTINUOUS
 70
0
 71
3
 72
15
 73
11
 74
0
 42
0.0000001
 43
0.0000001
 44
0.0000000001
 40
0.0
 40
0.0
 40
0.0
 40
0.0
 40
0.1381135573
 40
0.2714885786
 40
0.4004246847
 40
0.5254201361
 40
0.6471125338
 40
0.7662285463
 40
0.8835680941
 40
1.0
 40
1.0
 40
1.0
 40
1.0
 10
16.4861739162
 20
12.422818251
 30
0.0
 10
16.4928700944
 20
12.4091728747
 30
0.0
 10
16.5050638351
 20
12.3818587991
 30
0.0
 10
16.5198053135
 20
12.3402790593
 30
0.0
 10
16.5305931285
 20
12.2989850802
 30
0.0
 10
16.5373797498
 20
12.2581461611
 30
0.0
 10
16.5401310561
 20
12.2179168635
 30
0.0
 10
16.5388324343
 20
12.1784519643
 30
0.0
 10
16.5334842864
 20
12.1399150054
 30
0.0
 10
16.5272150654
 20
12.1149021792
 30
0.0
 10
16.5234320634
 20
12.1026596346
 30
0.0
  0
SPLINE
  5
301
100
AcDbEntity
  8
0
100
AcDbSpline
 62
7
  6
CONTINUOUS
 70
0
 71
3
 72
14
 73
10
 74
0
 42
0.0000001
 43
0.0000001
 44
0.0000000001
 40
0.0
 40
0.0
 40
0.0
 40
0.0
 40
0.1192964274
 40
0.2390594034
 40
0.3600003075
 40
0.4826634583
 40
0.6075298188
 40
0.7351319044
 40
1.0
 40
1.0
 40
1.0
 40
1.0
 10
14.3145964501
 20
12.3003974155
 30
0.0
 10
14.3104032314
 20
12.2868281546
 30
0.0
 10
14.303462962
 20
12.2591601094
 30
0.0
 10
14.2975234513
 20
12.216637935
 30
0.0
 10
14.2960524131
 20
12.1733259978
 30
0.0
 10
14.2989816901
 20
12.129486802
 30
0.0
 10
14.306253326
 20
12.0853529559
 30
0.0
 10
14.3217606113
 20
12.0256829972
 30
0.0
 10
14.339363591
 20
11.9821140527
 30
0.0
 10
14.3532551732
 20
11.9538059846
 30
0.0
  0
SPLINE
  5
302
100
AcDbEntity
  8
0
100
AcDbSpline
 62
7
  6
CONTINUOUS
 70
0
 71
3
 72
42
 73
38
 74
0
 42
0.0000001
 43
0.0000001
 44
0.0000000001
 40
0.0
 40
0.0
 40
0.0
 40
0.0
 40
0.0271242287
 40
0.0553364515
 40
0.0846476079
 40
0.1150729399
 40
0.1465897585
 40
0.1791415809
 40
0.212648703
 40
0.2470124777
 40
0.2821146577
 40
0.317823358
 40
0.3539951928
 40
0.3904783377
 40
0.4271157864
 40
0.4637474931
 40
0.5002138769
 40
0.5363578257
 40
0.5720284516
 40
0.6070825956
 40
0.6413895965
 40
0.6748327123
 40
0.7073132397
 40
0.7387543539
 40
0.7691031643
 40
0.7983365251
 40
0.8264615556
 40
0.8401241061
 40
0.8535286435
 40
0.8795991746
 40
0.9047935984
 40
0.9292550477
 40
0.9531510267
 40
0.9649444861
 40
0.9766631977
 40
0.9883376125
 40
1.0
 40
1.0
 40
1.0
 40
1.0
 10
14.3532551732
 20
11.9538059846
 30
0.0
 10
14.3628463832
 20
11.9342611536
 30
0.0
 10
14.3844175263
 20
11.8953465231
 30
0.0
 10
14.4225503537
 20
11.8390218592
 30
0.0
 10
14.466789733
 20
11.7839182285
 30
0.0
 10
14.5168048835
 20
11.7303244826
 30
0.0
 10
14.5722637702
 20
11.6785050274
 30
0.0
 10
14.6328108781
 20
11.6287486304
 30
0.0
 10
14.6980505448
 20
11.5813346147
 30
0.0
 10
14.7675630279
 20
11.5365449631
 30
0.0
 10
14.8408961626
 20
11.4946492202
 30
0.0
 10
14.9175710196
 20
11.455908209
 30
0.0
 10
14.997085053
 20
11.4205694611
 30
0.0
 10
15.0789123184
 20
11.3888562022
 30
0.0
 10
15.1625136559
 20
11.3609797892
 30
0.0
 10
15.2473346002
 20
11.3371195917
 30
0.0
 10
15.3328151283
 20
11.3174363802
 30
0.0
 10
15.4183922989
 20
11.3020637053
 30
0.0
 10
15.5035045946
 20
11.2911045465
 30
0.0
 10
15.5875993572
 20
11.2846432699
 30
0.0
 10
15.6701346228
 20
11.2827283302
 30
0.0
 10
15.7505859474
 20
11.2853918334
 30
0.0
 10
15.828449186
 20
11.2926381521
 30
0.0
 10
15.9032435086
 20
11.3044524204
 30
0.0
 10
15.9745143498
 20
11.3208078885
 30
0.0
 10
16.0418267719
 20
11.3416574471
 30
0.0
 10
16.0947912497
 20
11.362944865
 30
0.0
 10
16.1346924489
 20
11.3822243961
 30
0.0
 10
16.1721907175
 20
11.4025736591
 30
0.0
 10
16.215961648
 20
11.4306571563
 30
0.0
 10
16.2633745505
 20
11.4688950714
 30
0.0
 10
16.3047452751
 20
11.5112141127
 30
0.0
 10
16.333920643
 20
11.5498737999
 30
0.0
 10
16.3536614519
 20
11.5824343391
 30
0.0
 10
16.3666125533
 20
11.6075594409
 30
0.0
 10
16.3777326912
 20
11.6334299984
 30
0.0
 10
16.3839016387
 20
11.6511361241
 30
0.0
 10
16.3866654061
 20
11.6600796787
 30
0.0
  0
SPLINE
  5
303
100
AcDbEntity
  8
0
100
AcDbSpline
 62
7
  6
CONTINUOUS
 70
0
 71
3
 72
45
 73
41
 74
0
 42
0.0000001
 43
0.0000001
 44
0.0000000001
 40
0.0
 40
0.0
 40
0.0
 40
0.0
 40
0.0107123596
 40
0.0214621884
 40
0.0322862846
 40
0.0432200394
 40
0.0542972588
 40
0.0655495008
 40
0.0886800573
 40
0.1006187518
 40
0.1128300455
 40
0.1253306697
 40
0.1381347128
 40
0.1512527588
 40
0.1646925706
 40
0.1925507401
 40
0.2217288171
 40
0.2522047385
 40
0.2839248046
 40
0.3168099445
 40
0.3507589592
 40
0.3856516076
 40
0.4213530916
 40
0.4577154964
 40
0.4945816487
 40
0.5317870589
 40
0.5691624823
 40
0.606536562
 40
0.6437377593
 40
0.6805971694
 40
0.716950162
 40
0.7526398591
 40
0.7875186378
 40
0.8214512538
 40
0.8543187332
 40
0.8860198528
 40
0.9164745633
 40
0.9456313464
 40
0.9734740617
 40
1.0
 40
1.0
 40
1.0
 40
1.0
 10
14.4513647383
 20
12.7429768675
 30
0.0
 10
14.4538922891
 20
12.7511565232
 30
0.0
 10
14.4595506763
 20
12.7673675138
 30
0.0
 10
14.4697970548
 20
12.7910718949
 30
0.0
 10
14.4817885346
 20
12.8141436822
 30
0.0
 10
14.4955010858
 20
12.8365418135
 30
0.0
 10
14.5109140866
 20
12.8582274122
 30
0.0
 10
14.5338980693
 20
12.8863920854
 30
0.0
 10
14.5600603825
 20
12.9127440217
 30
0.0
 10
14.5889556695
 20
12.9371147899
 30
0.0
 10
14.6123941054
 20
12.9547093659
 30
0.0
 10
14.6373241476
 20
12.9713906875
 30
0.0
 10
14.6637061955
 20
12.9871300246
 30
0.0
 10
14.6914936045
 20
13.0019028755
 30
0.0
 10
14.7308203112
 20
13.0205004754
 30
0.0
 10
14.7833246591
 20
13.0410982481
 30
0.0
 10
14.8503533695
 20
13.061298886
 30
0.0
 10
14.9217039332
 20
13.0771403659
 30
0.0
 10
14.9968897515
 20
13.0885232567
 30
0.0
 10
15.0754046368
 20
13.0953727996
 30
0.0
 10
15.1567170215
 20
13.0976417092
 30
0.0
 10
15.2402761493
 20
13.095320223
 30
0.0
 10
15.3255147658
 20
13.0884197859
 30
0.0
 10
15.4118541499
 20
13.0769904913
 30
0.0
 10
15.4987074253
 20
13.0611102151
 30
0.0
 10
15.5854831412
 20
13.0408840666
 30
0.0
 10
15.6715918921
 20
13.0164540661
 30
0.0
 10
15.7564466064
 20
12.9879825873
 30
0.0
 10
15.8394704067
 20
12.9556651584
 30
0.0
 10
15.9200988616
 20
12.9197227688
 30
0.0
 10
15.9977820342
 20
12.8803963848
 30
0.0
 10
16.071993757
 20
12.8379574504
 30
0.0
 10
16.142228049
 20
12.7926909231
 30
0.0
 10
16.2080087108
 20
12.7449045744
 30
0.0
 10
16.2688909356
 20
12.6949227722
 30
0.0
 10
16.3244578572
 20
12.6430783371
 30
0.0
 10
16.3743376188
 20
12.5897256864
 30
0.0
 10
16.4181923081
 20
12.5352110213
 30
0.0
 10
16.4557092313
 20
12.4799072691
 30
0.0
 10
16.4768346741
 20
12.4418496255
 30
0.0
 10
16.4861739162
 20
12.422818251
 30
0.0
  0
SPLINE
  5
304
100
AcDbEntity
  8
0
100
AcDbSpline
 62
7
  6
CONTINUOUS
 70
0
 71
3
 72
9
 73
5
 74
0
 42
0.0000001
 43
0.0000001
 44
0.0000000001
 40
0.0
 40
0.0
 40
0.0
 40
0.0
 40
0.2549973578
 40
1.0
 40
1.0
 40
1.0
 40
1.0
 10
14.1876060022
 20
13.6309922298
 30
0.0
 10
14.1879773302
 20
13.6302355429
 30
0.0
 10
14.1893917307
 20
13.6272478744
 30
0.0
 10
14.1906353707
 20
13.624178635
 30
0.0
 10
14.191450159
 20
13.6218547458
 30
0.0
  0
SPLINE
  5
305
100
AcDbEntity
  8
0
100
AcDbSpline
 62
7
  6
CONTINUOUS
 70
0
 71
3
 72
11
 73
7
 74
0
 42
0.0000001
 43
0.0000001
 44
0.0000000001
 40
0.0
 40
0.0
 40
0.0
 40
0.0
 40
0.2653989829
 40
0.5180133519
 40
0.76139918
 40
1.0
 40
1.0
 40
1.0
 40
1.0
 10
14.191450159
 20
13.6218547458
 30
0.0
 10
14.1925516697
 20
13.6187130841
 30
0.0
 10
14.1943096189
 20
13.6124315112
 30
0.0
 10
14.1954935313
 20
13.6029158885
 30
0.0
 10
14.1951361984
 20
13.5936662232
 30
0.0
 10
14.1938577072
 20
13.5877196307
 30
0.0
 10
14.1929737531
 20
13.5848601295
 30
0.0
  0
SPLINE
  5
306
100
AcDbEntity
  8
0
100
AcDbSpline
 62
7
  6
CONTINUOUS
 70
0
 71
3
 72
15
 73
11
 74
0
 42
0.0000001
 43
0.0000001
 44
0.0000000001
 40
0.0
 40
0.0
 40
0.0
 40
0.0
 40
0.1174175571
 40
0.2356197493
 40
0.3553745386
 40
0.4773997814
 40
0.6023462149
 40
0.7307884063
 40
0.8632096626
 40
1.0
 40
1.0
 40
1.0
 40
1.0
 10
16.6714308966
 20
12.0735325901
 30
0.0
 10
16.6670313912
 20
12.0592957856
 30
0.0
 10
16.6566595072
 20
12.0311786564
 30
0.0
 10
16.6366112222
 20
11.9906916038
 30
0.0
 10
16.612149256
 20
11.9520127132
 30
0.0
 10
16.5834138715
 20
11.9153087395
 30
0.0
 10
16.5505466563
 20
11.8807238841
 30
0.0
 10
16.5137070906
 20
11.8483775332
 30
0.0
 10
16.4730599506
 20
11.8183776697
 30
0.0
 10
16.4440211162
 20
11.8003045671
 30
0.0
 10
16.428960312
 20
11.7916715751
 30
0.0
  0
SPLINE
  5
307
100
AcDbEntity
  8
0
100
AcDbSpline
 62
7
  6
CONTINUOUS
 70
0
 71
3
 72
14
 73
10
 74
0
 42
0.0000001
 43
0.0000001
 44
0.0000000001
 40
0.0
 40
0.0
 40
0.0
 40
0.0
 40
0.2692180663
 40
0.3977154909
 40
0.5226888514
 40
0.6447168608
 40
0.7644542523
 40
0.8826232748
 40
1.0
 40
1.0
 40
1.0
 40
1.0
 10
14.3548444009
 20
12.4309970891
 30
0.0
 10
14.3397857756
 20
12.4618691511
 30
0.0
 10
14.3207352852
 20
12.5092098151
 30
0.0
 10
14.3040111686
 20
12.5738371718
 30
0.0
 10
14.29624389
 20
12.6211863847
 30
0.0
 10
14.2931260154
 20
12.6679484005
 30
0.0
 10
14.294701694
 20
12.713926918
 30
0.0
 10
14.3009847961
 20
12.7589004495
 30
0.0
 10
14.3083141167
 20
12.7881163306
 30
0.0
 10
14.3127356873
 20
12.8024245384
 30
0.0
  0
SPLINE
  5
308
100
AcDbEntity
  8
0
100
AcDbSpline
 62
7
  6
CONTINUOUS
 70
0
 71
3
 72
22
 73
18
 74
0
 42
0.0000001
 43
0.0000001
 44
0.0000000001
 40
0.0
 40
0.0
 40
0.0
 40
0.0
 40
0.0505954934
 40
0.1035331338
 40
0.1588340806
 40
0.2165104438
 40
0.2764576126
 40
0.3384859394
 40
0.4023436847
 40
0.467725999
 40
0.5342852147
 40
0.6016411747
 40
0.7370874935
 40
0.8044099875
 40
0.8709135536
 40
0.9362433174
 40
1.0
 40
1.0
 40
1.0
 40
1.0
 10
16.7934729721
 20
13.9722784935
 30
0.0
 10
16.790201746
 20
13.9789445516
 30
0.0
 10
16.7826965265
 20
13.9921979648
 30
0.0
 10
16.7691616914
 20
14.0112191244
 30
0.0
 10
16.7532433877
 20
14.0296878982
 30
0.0
 10
16.7351030879
 20
14.0474744346
 30
0.0
 10
16.7149039024
 20
14.0644568835
 30
0.0
 10
16.6928246292
 20
14.0805029328
 30
0.0
 10
16.6690636457
 20
14.0954849069
 30
0.0
 10
16.6438350679
 20
14.1092784369
 30
0.0
 10
16.6173650224
 20
14.1217639527
 30
0.0
 10
16.5806830869
 20
14.1365444603
 30
0.0
 10
16.5426924811
 20
14.1482234886
 30
0.0
 10
16.5040552291
 20
14.1565991043
 30
0.0
 10
16.475162315
 20
14.161132952
 30
0.0
 10
16.4465728986
 20
14.1638832849
 30
0.0
 10
16.4276231428
 20
14.1645200346
 30
0.0
 10
16.4182661471
 20
14.1645200346
 30
0.0
  0
SPLINE
  5
309
100
AcDbEntity
  8
0
100
AcDbSpline
 62
7
  6
CONTINUOUS
 70
0
 71
3
 72
9
 73
5
 74
0
 42
0.0000001
 43
0.0000001
 44
0.0000000001
 40
0.0
 40
0.0
 40
0.0
 40
0.0
 40
0.2549973578
 40
1.0
 40
1.0
 40
1.0
 40
1.0
 10
17.3294945826
 20
12.0381166861
 30
0.0
 10
17.3298659106
 20
12.0373599992
 30
0.0
 10
17.3312803111
 20
12.0343723307
 30
0.0
 10
17.3325239511
 20
12.0313030913
 30
0.0
 10
17.3333387393
 20
12.0289792021
 30
0.0
  0
SPLINE
  5
30A
100
AcDbEntity
  8
0
100
AcDbSpline
 62
7
  6
CONTINUOUS
 70
0
 71
3
 72
11
 73
7
 74
0
 42
0.0000001
 43
0.0000001
 44
0.0000000001
 40
0.0
 40
0.0
 40
0.0
 40
0.0
 40
0.2653989829
 40
0.5180133519
 40
0.76139918
 40
1.0
 40
1.0
 40
1.0
 40
1.0
 10
17.3333387393
 20
12.0289792021
 30
0.0
 10
17.3344402501
 20
12.0258375404
 30
0.0
 10
17.3361981992
 20
12.0195559675
 30
0.0
 10
17.3373821117
 20
12.0100403449
 30
0.0
 10
17.3370247787
 20
12.0007906795
 30
0.0
 10
17.3357462876
 20
11.994844087
 30
0.0
 10
17.3348623334
 20
11.9919845858
 30
0.0
  0
SPLINE
  5
30B
100
AcDbEntity
  8
0
100
AcDbSpline
 62
7
  6
CONTINUOUS
 70
0
 71
3
 72
14
 73
10
 74
0
 42
0.0000001
 43
0.0000001
 44
0.0000000001
 40
0.0
 40
0.0
 40
0.0
 40
0.0
 40
0.1101782795
 40
0.2220723875
 40
0.3372733009
 40
0.4571365956
 40
0.582750511
 40
0.7148707638
 40
1.0
 40
1.0
 40
1.0
 40
1.0
 10
16.2546254879
 20
13.67712433
 30
0.0
 10
16.2554016126
 20
13.679635014
 30
0.0
 10
16.2573597601
 20
13.6845829614
 30
0.0
 10
16.2614357281
 20
13.6915513722
 30
0.0
 10
16.2666214895
 20
13.698035814
 30
0.0
 10
16.2728663536
 20
13.703987028
 30
0.0
 10
16.2801216707
 20
13.7093593062
 30
0.0
 10
16.291337963
 20
13.7158683506
 30
0.0
 10
16.3006826646
 20
13.7195049526
 30
0.0
 10
16.3071920996
 20
13.7214740363
 30
0.0
  0
SPLINE
  5
30C
100
AcDbEntity
  8
0
100
AcDbSpline
 62
7
  6
CONTINUOUS
 70
0
 71
3
 72
15
 73
11
 74
0
 42
0.0000001
 43
0.0000001
 44
0.0000000001
 40
0.0
 40
0.0
 40
0.0
 40
0.0
 40
0.1150519494
 40
0.2386882553
 40
0.3683997019
 40
0.501183116
 40
0.6338040224
 40
0.7630369058
 40
0.8859207243
 40
1.0
 40
1.0
 40
1.0
 40
1.0
 10
16.3129466819
 20
13.7229947007
 30
0.0
 10
16.3219274068
 20
13.7247728929
 30
0.0
 10
16.3408813813
 20
13.7269186928
 30
0.0
 10
16.3702596365
 20
13.726297132
 30
0.0
 10
16.4007527315
 20
13.7219994281
 30
0.0
 10
16.4312690277
 20
13.7141775455
 30
0.0
 10
16.4607235741
 20
13.7031109843
 30
0.0
 10
16.488069413
 20
13.6891920533
 30
0.0
 10
16.5123275828
 20
13.6729193019
 30
0.0
 10
16.5264832579
 20
13.6603360552
 30
0.0
 10
16.5327355667
 20
13.6537548072
 30
0.0
  0
SPLINE
  5
30D
100
AcDbEntity
  8
0
100
AcDbSpline
 62
7
  6
CONTINUOUS
 70
0
 71
3
 72
9
 73
5
 74
0
 42
0.0000001
 43
0.0000001
 44
0.0000000001
 40
0.0
 40
0.0
 40
0.0
 40
0.0
 40
0.5153521707
 40
1.0
 40
1.0
 40
1.0
 40
1.0
 10
16.5347702427
 20
13.6511859766
 30
0.0
 10
16.5373654583
 20
13.6479642055
 30
0.0
 10
16.542106609
 20
13.6414671802
 30
0.0
 10
16.5461108498
 20
13.6344848917
 30
0.0
 10
16.5478247993
 20
13.6309922298
 30
0.0
  0
SPLINE
  5
30E
100
AcDbEntity
  8
0
100
AcDbSpline
 62
7
  6
CONTINUOUS
 70
0
 71
3
 72
9
 73
5
 74
0
 42
0.0000001
 43
0.0000001
 44
0.0000000001
 40
0.0
 40
0.0
 40
0.0
 40
0.0
 40
0.5096179969
 40
1.0
 40
1.0
 40
1.0
 40
1.0
 10
16.4767915145
 20
13.2940794104
 30
0.0
 10
16.4731837704
 20
13.2898614843
 30
0.0
 10
16.4668460141
 20
13.2809056366
 30
0.0
 10
16.462497128
 20
13.2708191452
 30
0.0
 10
16.4609202484
 20
13.265716361
 30
0.0
  0
SPLINE
  5
30F
100
AcDbEntity
  8
0
100
AcDbSpline
 62
7
  6
CONTINUOUS
 70
0
 71
3
 72
11
 73
7
 74
0
 42
0.0000001
 43
0.0000001
 44
0.0000000001
 40
0.0
 40
0.0
 40
0.0
 40
0.0
 40
0.256792948
 40
0.5078303656
 40
0.7549012049
 40
1.0
 40
1.0
 40
1.0
 40
1.0
 10
16.6729486192
 20
13.4923714422
 30
0.0
 10
16.6763380905
 20
13.4957916755
 30
0.0
 10
16.6826843404
 20
13.5029227167
 30
0.0
 10
16.6908244804
 20
13.514543469
 30
0.0
 10
16.6973898345
 20
13.5268752952
 30
0.0
 10
16.7006795428
 20
13.5355291449
 30
0.0
 10
16.7020364865
 20
13.5399202163
 30
0.0
  0
SPLINE
  5
310
100
AcDbEntity
  8
0
100
AcDbSpline
 62
7
  6
CONTINUOUS
 70
0
 71
3
 72
18
 73
14
 74
0
 42
0.0000001
 43
0.0000001
 44
0.0000000001
 40
0.0
 40
0.0
 40
0.0
 40
0.0
 40
0.1493431898
 40
0.2913412109
 40
0.4254589492
 40
0.5517298232
 40
0.6707774156
 40
0.728026559
 40
0.7840054382
 40
0.8389414978
 40
0.8930518592
 40
0.946620245
 40
1.0
 40
1.0
 40
1.0
 40
1.0
 10
14.0492203089
 20
14.1644700133
 30
0.0
 10
14.0370460749
 20
14.1642799828
 30
0.0
 10
14.0132940802
 20
14.1628523798
 30
0.0
 10
13.9789917266
 20
14.1572932119
 30
0.0
 10
13.9473331091
 20
14.1483842105
 30
0.0
 10
13.9188096255
 20
14.1361624694
 30
0.0
 10
13.8977630402
 20
14.1230597268
 30
0.0
 10
13.8831483024
 20
14.1109797993
 30
0.0
 10
13.8734379518
 20
14.1012695045
 30
0.0
 10
13.8649111224
 20
14.0908318918
 30
0.0
 10
13.8576363886
 20
14.0797169678
 30
0.0
 10
13.8516866535
 20
14.06798232
 30
0.0
 10
13.8486347185
 20
14.0597910011
 30
0.0
 10
13.8473498114
 20
14.0556330401
 30
0.0
  0
SPLINE
  5
311
100
AcDbEntity
  8
0
100
AcDbSpline
 62
7
  6
CONTINUOUS
 70
0
 71
3
 72
9
 73
5
 74
0
 42
0.0000001
 43
0.0000001
 44
0.0000000001
 40
0.0
 40
0.0
 40
0.0
 40
0.0
 40
0.2549973578
 40
1.0
 40
1.0
 40
1.0
 40
1.0
 10
16.5478247993
 20
13.6309922298
 30
0.0
 10
16.5481961273
 20
13.6302355429
 30
0.0
 10
16.5496105279
 20
13.6272478744
 30
0.0
 10
16.5508541679
 20
13.624178635
 30
0.0
 10
16.5516689561
 20
13.6218547458
 30
0.0
  0
SPLINE
  5
312
100
AcDbEntity
  8
0
100
AcDbSpline
 62
7
  6
CONTINUOUS
 70
0
 71
3
 72
11
 73
7
 74
0
 42
0.0000001
 43
0.0000001
 44
0.0000000001
 40
0.0
 40
0.0
 40
0.0
 40
0.0
 40
0.2653989829
 40
0.5180133519
 40
0.76139918
 40
1.0
 40
1.0
 40
1.0
 40
1.0
 10
16.5516689561
 20
13.6218547458
 30
0.0
 10
16.5527704668
 20
13.6187130841
 30
0.0
 10
16.554528416
 20
13.6124315112
 30
0.0
 10
16.5557123284
 20
13.6029158885
 30
0.0
 10
16.5553549955
 20
13.5936662232
 30
0.0
 10
16.5540765044
 20
13.5877196307
 30
0.0
 10
16.5531925502
 20
13.5848601295
 30
0.0
  0
SPLINE
  5
313
100
AcDbEntity
  8
0
100
AcDbSpline
 62
7
  6
CONTINUOUS
 70
0
 71
3
 72
21
 73
17
 74
0
 42
0.0000001
 43
0.0000001
 44
0.0000000001
 40
0.0
 40
0.0
 40
0.0
 40
0.0
 40
0.1544272455
 40
0.3018661366
 40
0.3724117047
 40
0.4405983421
 40
0.5063039948
 40
0.5694759221
 40
0.6301215554
 40
0.6883213932
 40
0.7442305963
 40
0.7980821097
 40
0.8501912931
 40
0.9009156484
 40
0.9506849548
 40
1.0
 40
1.0
 40
1.0
 40
1.0
 10
13.9063735594
 20
13.4904912657
 30
0.0
 10
13.8923188876
 20
13.4976167071
 30
0.0
 10
13.8654900912
 20
13.5128672398
 30
0.0
 10
13.8345297297
 20
13.5350469652
 30
0.0
 10
13.8123947088
 20
13.5541176157
 30
0.0
 10
13.7974703744
 20
13.5687146634
 30
0.0
 10
13.7840760855
 20
13.5837351721
 30
0.0
 10
13.7722954172
 20
13.5990959918
 30
0.0
 10
13.7622088067
 20
13.614717726
 30
0.0
 10
13.7538865347
 20
13.630517418
 30
0.0
 10
13.7473992247
 20
13.6464127293
 30
0.0
 10
13.7428084682
 20
13.6623147026
 30
0.0
 10
13.740179345
 20
13.6781241859
 30
0.0
 10
13.7395526082
 20
13.69372695
 30
0.0
 10
13.7409702698
 20
13.7089921459
 30
0.0
 10
13.74328335
 20
13.7188738475
 30
0.0
 10
13.7447690629
 20
13.7236816164
 30
0.0
  0
SPLINE
  5
314
100
AcDbEntity
  8
0
100
AcDbSpline
 62
7
  6
CONTINUOUS
 70
0
 71
3
 72
14
 73
10
 74
0
 42
0.0000001
 43
0.0000001
 44
0.0000000001
 40
0.0
 40
0.0
 40
0.0
 40
0.0
 40
0.1101782795
 40
0.2220723875
 40
0.3372733009
 40
0.4571365956
 40
0.582750511
 40
0.7148707638
 40
1.0
 40
1.0
 40
1.0
 40
1.0
 10
17.0362952711
 20
12.0842487863
 30
0.0
 10
17.0370713959
 20
12.0867594703
 30
0.0
 10
17.0390295433
 20
12.0917074178
 30
0.0
 10
17.0431055114
 20
12.0986758285
 30
0.0
 10
17.0482912727
 20
12.1051602703
 30
0.0
 10
17.0545361368
 20
12.1111114843
 30
0.0
 10
17.061791454
 20
12.1164837625
 30
0.0
 10
17.0730077463
 20
12.1229928069
 30
0.0
 10
17.0823524478
 20
12.1266294089
 30
0.0
 10
17.0888618828
 20
12.1285984926
 30
0.0
  0
SPLINE
  5
315
100
AcDbEntity
  8
0
100
AcDbSpline
 62
7
  6
CONTINUOUS
 70
0
 71
3
 72
15
 73
11
 74
0
 42
0.0000001
 43
0.0000001
 44
0.0000000001
 40
0.0
 40
0.0
 40
0.0
 40
0.0
 40
0.1150519494
 40
0.2386882553
 40
0.3683997019
 40
0.501183116
 40
0.6338040224
 40
0.7630369058
 40
0.8859207243
 40
1.0
 40
1.0
 40
1.0
 40
1.0
 10
17.0946164652
 20
12.130119157
 30
0.0
 10
17.1035971901
 20
12.1318973492
 30
0.0
 10
17.1225511646
 20
12.1340431491
 30
0.0
 10
17.1519294198
 20
12.1334215883
 30
0.0
 10
17.1824225148
 20
12.1291238844
 30
0.0
 10
17.2129388109
 20
12.1213020018
 30
0.0
 10
17.2423933573
 20
12.1102354406
 30
0.0
 10
17.2697391963
 20
12.0963165096
 30
0.0
 10
17.2939973661
 20
12.0800437582
 30
0.0
 10
17.3081530411
 20
12.0674605115
 30
0.0
 10
17.3144053499
 20
12.0608792635
 30
0.0
  0
SPLINE
  5
316
100
AcDbEntity
  8
0
100
AcDbSpline
 62
7
  6
CONTINUOUS
 70
0
 71
3
 72
9
 73
5
 74
0
 42
0.0000001
 43
0.0000001
 44
0.0000000001
 40
0.0
 40
0.0
 40
0.0
 40
0.0
 40
0.5153521707
 40
1.0
 40
1.0
 40
1.0
 40
1.0
 10
17.3164400259
 20
12.0583104329
 30
0.0
 10
17.3190352415
 20
12.0550886618
 30
0.0
 10
17.3237763922
 20
12.0485916365
 30
0.0
 10
17.327780633
 20
12.0416093481
 30
0.0
 10
17.3294945826
 20
12.0381166861
 30
0.0
  0
SPLINE
  5
317
100
AcDbEntity
  8
0
100
AcDbSpline
 62
7
  6
CONTINUOUS
 70
0
 71
3
 72
25
 73
21
 74
0
 42
0.0000001
 43
0.0000001
 44
0.0000000001
 40
0.0
 40
0.0
 40
0.0
 40
0.0
 40
0.0226840408
 40
0.0454699859
 40
0.0684829409
 40
0.091840007
 40
0.1399442963
 40
0.190518435
 40
0.2440806952
 40
0.3009277854
 40
0.3611498537
 40
0.4246515536
 40
0.4911792557
 40
0.5603540318
 40
0.6316944176
 40
0.7046451488
 40
0.7785949081
 40
0.8528971914
 40
0.9269302414
 40
1.0
 40
1.0
 40
1.0
 40
1.0
 10
17.4844999612
 20
11.9454272994
 30
0.0
 10
17.4834254005
 20
11.9419500196
 30
0.0
 10
17.4809177702
 20
11.9350836624
 30
0.0
 10
17.4761321521
 20
11.9251741379
 30
0.0
 10
17.4703443299
 20
11.9156864872
 30
0.0
 10
17.4612462317
 20
11.9035386872
 30
0.0
 10
17.4473938299
 20
11.8895477026
 30
0.0
 10
17.4275333601
 20
11.8751704807
 30
0.0
 10
17.4045948851
 20
11.8631296609
 30
0.0
 10
17.3788973273
 20
11.8535101452
 30
0.0
 10
17.3507647966
 20
11.8463760327
 30
0.0
 10
17.3205444493
 20
11.8417795625
 30
0.0
 10
17.2886103367
 20
11.8397530656
 30
0.0
 10
17.2553632294
 20
11.840308956
 30
0.0
 10
17.2212264906
 20
11.8434314508
 30
0.0
 10
17.1866403323
 20
11.8490739739
 30
0.0
 10
17.1520557013
 20
11.8571600572
 30
0.0
 10
17.1179204851
 20
11.8675833295
 30
0.0
 10
17.0846892589
 20
11.8802076333
 30
0.0
 10
17.0632232517
 20
11.8900720383
 30
0.0
 10
17.0527510354
 20
11.8953423551
 30
0.0
  0
SPLINE
  5
318
100
AcDbEntity
  8
0
100
AcDbSpline
 62
7
  6
CONTINUOUS
 70
0
 71
3
 72
12
 73
8
 74
0
 42
0.0000001
 43
0.0000001
 44
0.0000000001
 40
0.0
 40
0.0
 40
0.0
 40
0.0
 40
0.12039169
 40
0.2411194153
 40
0.4856455931
 40
0.7375075818
 40
1.0
 40
1.0
 40
1.0
 40
1.0
 10
17.5870807097
 20
12.2773787231
 30
0.0
 10
17.5882082789
 20
12.2810275382
 30
0.0
 10
17.5901027941
 20
12.2884539844
 30
0.0
 10
17.5924209595
 20
12.3037045357
 30
0.0
 10
17.5924987024
 20
12.3234105742
 30
0.0
 10
17.5882182128
 20
12.3472138428
 30
0.0
 10
17.5827348723
 20
12.3626609569
 30
0.0
 10
17.5794073387
 20
12.3702939697
 30
0.0
  0
SPLINE
  5
319
100
AcDbEntity
  8
0
100
AcDbSpline
 62
7
  6
CONTINUOUS
 70
0
 71
3
 72
15
 73
11
 74
0
 42
0.0000001
 43
0.0000001
 44
0.0000000001
 40
0.0
 40
0.0
 40
0.0
 40
0.0
 40
0.144531914
 40
0.2850375093
 40
0.4204893299
 40
0.5501355691
 40
0.6733129091
 40
0.7894993243
 40
0.8984046508
 40
1.0
 40
1.0
 40
1.0
 40
1.0
 10
14.2886629281
 20
13.2966757436
 30
0.0
 10
14.2960218223
 20
13.2929150876
 30
0.0
 10
14.3103125909
 20
13.2850528835
 30
0.0
 10
14.3306010564
 20
13.2721199677
 30
0.0
 10
14.3492698759
 20
13.2583265281
 30
0.0
 10
14.3661152681
 20
13.2438316658
 30
0.0
 10
14.3809622594
 20
13.2288043811
 30
0.0
 10
14.3936513648
 20
13.2134176486
 30
0.0
 10
14.4040516394
 20
13.1978620456
 30
0.0
 10
14.4095856243
 20
13.1871342114
 30
0.0
 10
14.411901934
 20
13.1818069134
 30
0.0
  0
SPLINE
  5
31A
100
AcDbEntity
  8
0
100
AcDbSpline
 62
7
  6
CONTINUOUS
 70
0
 71
3
 72
9
 73
5
 74
0
 42
0.0000001
 43
0.0000001
 44
0.0000000001
 40
0.0
 40
0.0
 40
0.0
 40
0.0
 40
0.2557197719
 40
1.0
 40
1.0
 40
1.0
 40
1.0
 10
14.4126598032
 20
13.1800277828
 30
0.0
 10
14.4131106707
 20
13.1789469299
 30
0.0
 10
14.4148156292
 20
13.1746963099
 30
0.0
 10
14.4162832088
 20
13.1703495375
 30
0.0
 10
14.417221656
 20
13.1670726854
 30
0.0
  0
SPLINE
  5
31B
100
AcDbEntity
  8
0
100
AcDbSpline
 62
7
  6
CONTINUOUS
 70
0
 71
3
 72
9
 73
5
 74
0
 42
0.0000001
 43
0.0000001
 44
0.0000000001
 40
0.0
 40
0.0
 40
0.0
 40
0.0
 40
0.2571224798
 40
1.0
 40
1.0
 40
1.0
 40
1.0
 10
14.417221656
 20
13.1670726854
 30
0.0
 10
14.4176346843
 20
13.1656304811
 30
0.0
 10
14.4191256817
 20
13.1599894816
 30
0.0
 10
14.4201400241
 20
13.1542193031
 30
0.0
 10
14.4205807031
 20
13.1499074427
 30
0.0
  0
SPLINE
  5
31C
100
AcDbEntity
  8
0
100
AcDbSpline
 62
7
  6
CONTINUOUS
 70
0
 71
3
 72
15
 73
11
 74
0
 42
0.0000001
 43
0.0000001
 44
0.0000000001
 40
0.0
 40
0.0
 40
0.0
 40
0.0
 40
0.1150519494
 40
0.2386882553
 40
0.3683997019
 40
0.501183116
 40
0.6338040224
 40
0.7630369058
 40
0.8859207243
 40
1.0
 40
1.0
 40
1.0
 40
1.0
 10
13.9527278848
 20
13.7229947007
 30
0.0
 10
13.9617086097
 20
13.7247728929
 30
0.0
 10
13.9806625842
 20
13.7269186928
 30
0.0
 10
14.0100408394
 20
13.726297132
 30
0.0
 10
14.0405339344
 20
13.7219994281
 30
0.0
 10
14.0710502306
 20
13.7141775455
 30
0.0
 10
14.1005047769
 20
13.7031109843
 30
0.0
 10
14.1278506159
 20
13.6891920533
 30
0.0
 10
14.1521087857
 20
13.6729193019
 30
0.0
 10
14.1662644608
 20
13.6603360552
 30
0.0
 10
14.1725167696
 20
13.6537548072
 30
0.0
  0
SPLINE
  5
31D
100
AcDbEntity
  8
0
100
AcDbSpline
 62
7
  6
CONTINUOUS
 70
0
 71
3
 72
9
 73
5
 74
0
 42
0.0000001
 43
0.0000001
 44
0.0000000001
 40
0.0
 40
0.0
 40
0.0
 40
0.0
 40
0.5153521707
 40
1.0
 40
1.0
 40
1.0
 40
1.0
 10
14.1745514455
 20
13.6511859766
 30
0.0
 10
14.1771466612
 20
13.6479642055
 30
0.0
 10
14.1818878119
 20
13.6414671802
 30
0.0
 10
14.1858920527
 20
13.6344848917
 30
0.0
 10
14.1876060022
 20
13.6309922298
 30
0.0
  0
SPLINE
  5
31E
100
AcDbEntity
  8
0
100
AcDbSpline
 62
7
  6
CONTINUOUS
 70
0
 71
3
 72
14
 73
10
 74
0
 42
0.0000001
 43
0.0000001
 44
0.0000000001
 40
0.0
 40
0.0
 40
0.0
 40
0.0
 40
0.1101782795
 40
0.2220723875
 40
0.3372733009
 40
0.4571365956
 40
0.582750511
 40
0.7148707638
 40
1.0
 40
1.0
 40
1.0
 40
1.0
 10
13.8944066907
 20
13.67712433
 30
0.0
 10
13.8951828155
 20
13.679635014
 30
0.0
 10
13.8971409629
 20
13.6845829614
 30
0.0
 10
13.901216931
 20
13.6915513722
 30
0.0
 10
13.9064026923
 20
13.698035814
 30
0.0
 10
13.9126475565
 20
13.703987028
 30
0.0
 10
13.9199028736
 20
13.7093593062
 30
0.0
 10
13.9311191659
 20
13.7158683506
 30
0.0
 10
13.9404638675
 20
13.7195049526
 30
0.0
 10
13.9469733024
 20
13.7214740363
 30
0.0
  0
SPLINE
  5
31F
100
AcDbEntity
  8
0
100
AcDbSpline
 62
7
  6
CONTINUOUS
 70
0
 71
3
 72
27
 73
23
 74
0
 42
0.0000001
 43
0.0000001
 44
0.0000000001
 40
0.0
 40
0.0
 40
0.0
 40
0.0
 40
0.0623778653
 40
0.0936226704
 40
0.1248552875
 40
0.1872455524
 40
0.2496661076
 40
0.2809263812
 40
0.3121946272
 40
0.3746856998
 40
0.4372234724
 40
0.499797847
 40
0.5623933248
 40
0.6249907706
 40
0.6875647138
 40
0.7188740327
 40
0.7501736237
 40
0.8126669904
 40
0.8751096205
 40
0.9063573353
 40
0.9376130578
 40
1.0
 40
1.0
 40
1.0
 40
1.0
 10
15.108115107
 20
13.5081835181
 30
0.0
 10
15.1043973021
 20
13.5081835181
 30
0.0
 10
15.0987962771
 20
13.5087489634
 30
0.0
 10
15.0915799466
 20
13.5106023589
 30
0.0
 10
15.0845830656
 20
13.5131719948
 30
0.0
 10
15.0763752015
 20
13.517684794
 30
0.0
 10
15.069228214
 20
13.5237408037
 30
0.0
 10
15.0643174806
 20
13.5293535401
 30
0.0
 10
15.0599796724
 20
13.5354249381
 30
0.0
 10
15.0557094061
 20
13.5437771011
 30
0.0
 10
15.0526250883
 20
13.5545960235
 30
0.0
 10
15.0516702617
 20
13.565812469
 30
0.0
 10
15.0528707247
 20
13.5770081994
 30
0.0
 10
15.0561744408
 20
13.5877705708
 30
0.0
 10
15.0605889788
 20
13.5960569263
 30
0.0
 10
15.0650144733
 20
13.6020762367
 30
0.0
 10
15.0699960225
 20
13.6076378982
 30
0.0
 10
15.077198328
 20
13.613639006
 30
0.0
 10
15.0854314706
 20
13.6181186122
 30
0.0
 10
15.0924383336
 20
13.6206739058
 30
0.0
 10
15.0996585966
 20
13.6225193445
 30
0.0
 10
15.1052604168
 20
13.6230849502
 30
0.0
 10
15.1089787627
 20
13.6230849502
 30
0.0
  0
SPLINE
  5
320
100
AcDbEntity
  8
0
100
AcDbSpline
 62
7
  6
CONTINUOUS
 70
0
 71
3
 72
15
 73
11
 74
0
 42
0.0000001
 43
0.0000001
 44
0.0000000001
 40
0.0
 40
0.0
 40
0.0
 40
0.0
 40
0.139226404
 40
0.2726915706
 40
0.400905324
 40
0.5246899779
 40
0.6451715748
 40
0.7636319511
 40
0.8814435203
 40
1.0
 40
1.0
 40
1.0
 40
1.0
 10
17.0300317488
 20
12.030283417
 30
0.0
 10
17.0287682144
 20
12.0328582295
 30
0.0
 10
17.0265179346
 20
12.0380162814
 30
0.0
 10
17.023978657
 20
12.0458900521
 30
0.0
 10
17.0223710089
 20
12.0536838297
 30
0.0
 10
17.0217121225
 20
12.0613476296
 30
0.0
 10
17.0220045026
 20
12.0688346948
 30
0.0
 10
17.0232528311
 20
12.0760993997
 30
0.0
 10
17.0254458499
 20
12.0830942065
 30
0.0
 10
17.0275163069
 20
12.0875199262
 30
0.0
 10
17.0286925493
 20
12.0896603435
 30
0.0
  0
SPLINE
  5
321
100
AcDbEntity
  8
0
100
AcDbSpline
 62
7
  6
CONTINUOUS
 70
0
 71
3
 72
13
 73
9
 74
0
 42
0.0000001
 43
0.0000001
 44
0.0000000001
 40
0.0
 40
0.0
 40
0.0
 40
0.0
 40
0.1079587613
 40
0.2192084849
 40
0.3348405675
 40
0.4557011177
 40
0.7150701484
 40
1.0
 40
1.0
 40
1.0
 40
1.0
 10
17.0286925493
 20
12.0896603435
 30
0.0
 10
17.0299764948
 20
12.091996749
 30
0.0
 10
17.032922766
 20
12.096561671
 30
0.0
 10
17.0383011393
 20
12.1028702912
 30
0.0
 10
17.0446539497
 20
12.1086789398
 30
0.0
 10
17.0545874119
 20
12.1158772485
 30
0.0
 10
17.0693391889
 20
12.1233420362
 30
0.0
 10
17.082240915
 20
12.1273130059
 30
0.0
 10
17.0890901821
 20
12.1289237133
 30
0.0
  0
SPLINE
  5
322
100
AcDbEntity
  8
0
100
AcDbSpline
 62
7
  6
CONTINUOUS
 70
0
 71
3
 72
36
 73
32
 74
0
 42
0.0000001
 43
0.0000001
 44
0.0000000001
 40
0.0
 40
0.0
 40
0.0
 40
0.0
 40
0.0262451788
 40
0.0511195087
 40
0.0748210746
 40
0.0976757479
 40
0.1200824426
 40
0.14247224
 40
0.1652769042
 40
0.1888916088
 40
0.2136460959
 40
0.239782497
 40
0.2674620091
 40
0.2967615798
 40
0.3276935599
 40
0.3602055883
 40
0.3942006629
 40
0.4295360418
 40
0.466039822
 40
0.5035096473
 40
0.580417827
 40
0.6583712608
 40
0.7353624833
 40
0.7729023452
 40
0.8094943673
 40
0.8449349912
 40
0.8790469097
 40
0.9116832694
 40
0.9427530501
 40
0.972202057
 40
1.0
 40
1.0
 40
1.0
 40
1.0
 10
17.3362845293
 20
12.030283417
 30
0.0
 10
17.3378958027
 20
12.0269999871
 30
0.0
 10
17.3406724869
 20
12.020416529
 30
0.0
 10
17.3434475229
 20
12.0103323383
 30
0.0
 10
17.3446660537
 20
12.0004133743
 30
0.0
 10
17.3443093003
 20
11.9907659192
 30
0.0
 10
17.3423679381
 20
11.9814928678
 30
0.0
 10
17.3388669219
 20
11.9726967001
 30
0.0
 10
17.3338408575
 20
11.9644788122
 30
0.0
 10
17.327358328
 20
11.9569200821
 30
0.0
 10
17.3194891531
 20
11.9500947995
 30
0.0
 10
17.3103210598
 20
11.9440566232
 30
0.0
 10
17.2999416684
 20
11.9388619477
 30
0.0
 10
17.2884534663
 20
11.9345488565
 30
0.0
 10
17.2759633553
 20
11.9311601279
 30
0.0
 10
17.2625905753
 20
11.9287200278
 30
0.0
 10
17.2484607834
 20
11.9272557074
 30
0.0
 10
17.2337084156
 20
11.9267752942
 30
0.0
 10
17.2184731575
 20
11.9272876531
 30
0.0
 10
17.1975320506
 20
11.9293000436
 30
0.0
 10
17.1711240743
 20
11.9342553603
 30
0.0
 10
17.1401726286
 20
11.943742183
 30
0.0
 10
17.1155030691
 20
11.9544418212
 30
0.0
 10
17.0969972538
 20
11.9645178843
 30
0.0
 10
17.0840550562
 20
11.9726415661
 30
0.0
 10
17.0720619793
 20
11.9813193873
 30
0.0
 10
17.0611290414
 20
11.9904646889
 30
0.0
 10
17.0513628381
 20
11.9999955679
 30
0.0
 10
17.0428528675
 20
12.0098221077
 30
0.0
 10
17.0356882011
 20
12.0198519449
 30
0.0
 10
17.0317383512
 20
12.026805727
 30
0.0
 10
17.0300317488
 20
12.030283417
 30
0.0
  0
SPLINE
  5
323
100
AcDbEntity
  8
0
100
AcDbSpline
 62
7
  6
CONTINUOUS
 70
0
 71
3
 72
12
 73
8
 74
0
 42
0.0000001
 43
0.0000001
 44
0.0000000001
 40
0.0
 40
0.0
 40
0.0
 40
0.0
 40
0.2713734382
 40
0.5253799581
 40
0.7660676858
 40
0.8834810231
 40
1.0
 40
1.0
 40
1.0
 40
1.0
 10
17.041663022
 20
12.0381166861
 30
0.0
 10
17.0397686873
 20
12.0419769342
 30
0.0
 10
17.0366272994
 20
12.0497302742
 30
0.0
 10
17.034017269
 20
12.0616489946
 30
0.0
 10
17.0338094098
 20
12.0714203714
 30
0.0
 10
17.0348461453
 20
12.0788809197
 30
0.0
 10
17.0357499915
 20
12.0824848626
 30
0.0
 10
17.0362952711
 20
12.0842487863
 30
0.0
  0
SPLINE
  5
324
100
AcDbEntity
  8
0
100
AcDbSpline
 62
7
  6
CONTINUOUS
 70
0
 71
3
 72
10
 73
6
 74
0
 42
0.0000001
 43
0.0000001
 44
0.0000000001
 40
0.0
 40
0.0
 40
0.0
 40
0.0
 40
0.2660247541
 40
0.6525852891
 40
1.0
 40
1.0
 40
1.0
 40
1.0
 10
16.8086694723
 20
12.537389671
 30
0.0
 10
16.8079812894
 20
12.5334024753
 30
0.0
 10
16.8062094163
 20
12.5236358386
 30
0.0
 10
16.8032265282
 20
12.5087204351
 30
0.0
 10
16.8008374828
 20
12.4978150494
 30
0.0
 10
16.799673374
 20
12.4926608101
 30
0.0
  0
SPLINE
  5
325
100
AcDbEntity
  8
0
100
AcDbSpline
 62
7
  6
CONTINUOUS
 70
0
 71
3
 72
26
 73
22
 74
0
 42
0.0000001
 43
0.0000001
 44
0.0000000001
 40
0.0
 40
0.0
 40
0.0
 40
0.0
 40
0.0214594547
 40
0.0432148397
 40
0.0655432384
 40
0.0886844448
 40
0.1128368057
 40
0.1381454081
 40
0.1925262657
 40
0.2521674004
 40
0.3167709996
 40
0.3856195455
 40
0.457695363
 40
0.5317811493
 40
0.6065460348
 40
0.6806214437
 40
0.7526757431
 40
0.8214948449
 40
0.8860558577
 40
0.9456687966
 40
1.0
 40
1.0
 40
1.0
 40
1.0
 10
16.5531925502
 20
13.5848601295
 30
0.0
 10
16.5524630572
 20
13.5825002945
 30
0.0
 10
16.5506467867
 20
13.5778477678
 30
0.0
 10
16.5469157099
 20
13.5712635039
 30
0.0
 10
16.5421992325
 20
13.5651001408
 30
0.0
 10
16.536539387
 20
13.5593983666
 30
0.0
 10
16.5299743944
 20
13.5541983288
 30
0.0
 10
16.5198414615
 20
13.5478223264
 30
0.0
 10
16.5050510575
 20
13.5413766729
 30
0.0
 10
16.4850627751
 20
13.536274938
 30
0.0
 10
16.4629243997
 20
13.5337244828
 30
0.0
 10
16.4392200794
 20
13.5337862488
 30
0.0
 10
16.4145738107
 20
13.5364540565
 30
0.0
 10
16.3896428383
 20
13.541655636
 30
0.0
 10
16.3650941667
 20
13.5492516333
 30
0.0
 10
16.3415858815
 20
13.559038533
 30
0.0
 10
16.3197470249
 20
13.5707550951
 30
0.0
 10
16.3001620854
 20
13.5840895645
 30
0.0
 10
16.2833436811
 20
13.5986934545
 30
0.0
 10
16.2697477176
 20
13.6141871621
 30
0.0
 10
16.2627482191
 20
13.62537817
 30
0.0
 10
16.2599932387
 20
13.6309922298
 30
0.0
  0
SPLINE
  5
326
100
AcDbEntity
  8
0
100
AcDbSpline
 62
7
  6
CONTINUOUS
 70
0
 71
3
 72
13
 73
9
 74
0
 42
0.0000001
 43
0.0000001
 44
0.0000000001
 40
0.0
 40
0.0
 40
0.0
 40
0.0
 40
0.1153416482
 40
0.2353036842
 40
0.35850888
 40
0.4840239854
 40
0.7400633427
 40
1.0
 40
1.0
 40
1.0
 40
1.0
 10
14.778248092
 20
13.51748356
 30
0.0
 10
14.78020941
 20
13.5182457792
 30
0.0
 10
14.784168131
 20
13.5199106614
 30
0.0
 10
14.7900993684
 20
13.5226687747
 30
0.0
 10
14.7961312921
 20
13.5256454238
 30
0.0
 10
14.8043275307
 20
13.5298433652
 30
0.0
 10
14.8146632427
 20
13.5353332945
 30
0.0
 10
14.822967447
 20
13.5397658153
 30
0.0
 10
14.827164192
 20
13.5419737675
 30
0.0
  0
SPLINE
  5
327
100
AcDbEntity
  8
0
100
AcDbSpline
 62
7
  6
CONTINUOUS
 70
0
 71
3
 72
26
 73
22
 74
0
 42
0.0000001
 43
0.0000001
 44
0.0000000001
 40
0.0
 40
0.0
 40
0.0
 40
0.0
 40
0.0598271893
 40
0.1196453224
 40
0.1497123625
 40
0.1799312426
 40
0.210338696
 40
0.240966817
 40
0.2718399332
 40
0.3029738147
 40
0.3659548676
 40
0.4298982619
 40
0.4945770545
 40
0.5596616645
 40
0.6247671638
 40
0.6895061008
 40
0.7535392448
 40
0.81663077
 40
0.8786714517
 40
0.939733252
 40
1.0
 40
1.0
 40
1.0
 40
1.0
 10
15.134817001
 20
13.4464465353
 30
0.0
 10
15.1280518915
 20
13.4464465353
 30
0.0
 10
15.1144798678
 20
13.4478893141
 30
0.0
 10
15.0982871931
 20
13.4532722362
 30
0.0
 10
15.0862246795
 20
13.4595593267
 30
0.0
 10
15.077663348
 20
13.4652406035
 30
0.0
 10
15.0696905494
 20
13.471820289
 30
0.0
 10
15.062386804
 20
13.4792391483
 30
0.0
 10
15.0558169773
 20
13.4874211797
 30
0.0
 10
15.0481001797
 20
13.4992851216
 30
0.0
 10
15.040608666
 20
13.5156458021
 30
0.0
 10
15.0354358477
 20
13.5368118439
 30
0.0
 10
15.03421307
 20
13.5588043009
 30
0.0
 10
15.0369843501
 20
13.5807848029
 30
0.0
 10
15.0436410009
 20
13.6019228788
 30
0.0
 10
15.0539333249
 20
13.6214171821
 30
0.0
 10
15.0674759275
 20
13.6385275507
 30
0.0
 10
15.0837633084
 20
13.6525950051
 30
0.0
 10
15.1021847306
 20
13.6630773275
 30
0.0
 10
15.1220301268
 20
13.6695492676
 30
0.0
 10
15.1357912051
 20
13.6710241054
 30
0.0
 10
15.1426060188
 20
13.6710241054
 30
0.0
  0
SPLINE
  5
328
100
AcDbEntity
  8
0
100
AcDbSpline
 62
7
  6
CONTINUOUS
 70
0
 71
3
 72
9
 73
5
 74
0
 42
0.0000001
 43
0.0000001
 44
0.0000000001
 40
0.0
 40
0.0
 40
0.0
 40
0.0
 40
0.2601352882
 40
1.0
 40
1.0
 40
1.0
 40
1.0
 10
16.5348070614
 20
13.6515318561
 30
0.0
 10
16.536255869
 20
13.6499464403
 30
0.0
 10
16.541696855
 20
13.643737213
 30
0.0
 10
16.5466042599
 20
13.637048949
 30
0.0
 10
16.5498074086
 20
13.6318477934
 30
0.0
  0
SPLINE
  5
329
100
AcDbEntity
  8
0
100
AcDbSpline
 62
7
  6
CONTINUOUS
 70
0
 71
3
 72
9
 73
5
 74
0
 42
0.0000001
 43
0.0000001
 44
0.0000000001
 40
0.0
 40
0.0
 40
0.0
 40
0.0
 40
0.2548338022
 40
1.0
 40
1.0
 40
1.0
 40
1.0
 10
16.5498074086
 20
13.6318477934
 30
0.0
 10
16.5502498258
 20
13.6311294127
 30
0.0
 10
16.5519540177
 20
13.6282909365
 30
0.0
 10
16.5535279093
 20
13.625373701
 30
0.0
 10
16.5546147461
 20
13.6231589607
 30
0.0
  0
SPLINE
  5
32A
100
AcDbEntity
  8
0
100
AcDbSpline
 62
7
  6
CONTINUOUS
 70
0
 71
3
 72
26
 73
22
 74
0
 42
0.0000001
 43
0.0000001
 44
0.0000000001
 40
0.0
 40
0.0
 40
0.0
 40
0.0
 40
0.0598271893
 40
0.1196453224
 40
0.1497123625
 40
0.1799312426
 40
0.210338696
 40
0.240966817
 40
0.2718399332
 40
0.3029738147
 40
0.3659548676
 40
0.4298982619
 40
0.4945770545
 40
0.5596616645
 40
0.6247671638
 40
0.6895061008
 40
0.7535392448
 40
0.81663077
 40
0.8786714517
 40
0.939733252
 40
1.0
 40
1.0
 40
1.0
 40
1.0
 10
15.1426060188
 20
13.6710241054
 30
0.0
 10
15.1493711283
 20
13.6710241054
 30
0.0
 10
15.162943152
 20
13.6695813265
 30
0.0
 10
15.1791358267
 20
13.6641984044
 30
0.0
 10
15.1911983403
 20
13.6579113139
 30
0.0
 10
15.1997596719
 20
13.6522300371
 30
0.0
 10
15.2077324704
 20
13.6456503516
 30
0.0
 10
15.2150362159
 20
13.6382314924
 30
0.0
 10
15.2216060426
 20
13.6300494609
 30
0.0
 10
15.2293228401
 20
13.6181855191
 30
0.0
 10
15.2368143538
 20
13.6018248386
 30
0.0
 10
15.2419871721
 20
13.5806587967
 30
0.0
 10
15.2432099498
 20
13.5586663398
 30
0.0
 10
15.2404386697
 20
13.5366858378
 30
0.0
 10
15.2337820189
 20
13.5155477619
 30
0.0
 10
15.2234896949
 20
13.4960534586
 30
0.0
 10
15.2099470923
 20
13.47894309
 30
0.0
 10
15.1936597114
 20
13.4648756355
 30
0.0
 10
15.1752382892
 20
13.4543933132
 30
0.0
 10
15.155392893
 20
13.447921373
 30
0.0
 10
15.1416318147
 20
13.4464465353
 30
0.0
 10
15.134817001
 20
13.4464465353
 30
0.0
  0
SPLINE
  5
32B
100
AcDbEntity
  8
0
100
AcDbSpline
 62
7
  6
CONTINUOUS
 70
0
 71
3
 72
13
 73
9
 74
0
 42
0.0000001
 43
0.0000001
 44
0.0000000001
 40
0.0
 40
0.0
 40
0.0
 40
0.0
 40
0.1327115635
 40
0.2623233276
 40
0.3893671273
 40
0.5142739604
 40
0.7592661512
 40
1.0
 40
1.0
 40
1.0
 40
1.0
 10
16.4718073271
 20
13.1607815676
 30
0.0
 10
16.4736403946
 20
13.159263263
 30
0.0
 10
16.4773480682
 20
13.1563628534
 30
0.0
 10
16.4830419955
 20
13.1523169781
 30
0.0
 10
16.4887487073
 20
13.1485384096
 30
0.0
 10
16.4962963527
 20
13.1437968615
 30
0.0
 10
16.5057268626
 20
13.1382257861
 30
0.0
 10
16.5132811785
 20
13.1338874729
 30
0.0
 10
16.5170148788
 20
13.1317192448
 30
0.0
  0
SPLINE
  5
32C
100
AcDbEntity
  8
0
100
AcDbSpline
 62
7
  6
CONTINUOUS
 70
0
 71
3
 72
15
 73
11
 74
0
 42
0.0000001
 43
0.0000001
 44
0.0000000001
 40
0.0
 40
0.0
 40
0.0
 40
0.0
 40
0.139226404
 40
0.2726915706
 40
0.400905324
 40
0.5246899779
 40
0.6451715748
 40
0.7636319511
 40
0.8814435203
 40
1.0
 40
1.0
 40
1.0
 40
1.0
 10
16.2483619655
 20
13.6231589607
 30
0.0
 10
16.2470984311
 20
13.6257337731
 30
0.0
 10
16.2448481514
 20
13.6308918251
 30
0.0
 10
16.2423088738
 20
13.6387655958
 30
0.0
 10
16.2407012257
 20
13.6465593734
 30
0.0
 10
16.2400423393
 20
13.6542231733
 30
0.0
 10
16.2403347194
 20
13.6617102385
 30
0.0
 10
16.2415830479
 20
13.6689749434
 30
0.0
 10
16.2437760667
 20
13.6759697502
 30
0.0
 10
16.2458465237
 20
13.6803954699
 30
0.0
 10
16.247022766
 20
13.6825358872
 30
0.0
  0
SPLINE
  5
32D
100
AcDbEntity
  8
0
100
AcDbSpline
 62
7
  6
CONTINUOUS
 70
0
 71
3
 72
13
 73
9
 74
0
 42
0.0000001
 43
0.0000001
 44
0.0000000001
 40
0.0
 40
0.0
 40
0.0
 40
0.0
 40
0.1079587613
 40
0.2192084849
 40
0.3348405675
 40
0.4557011177
 40
0.7150701484
 40
1.0
 40
1.0
 40
1.0
 40
1.0
 10
16.247022766
 20
13.6825358872
 30
0.0
 10
16.2483067115
 20
13.6848722927
 30
0.0
 10
16.2512529827
 20
13.6894372147
 30
0.0
 10
16.256631356
 20
13.6957458349
 30
0.0
 10
16.2629841664
 20
13.7015544835
 30
0.0
 10
16.2729176286
 20
13.7087527922
 30
0.0
 10
16.2876694056
 20
13.7162175799
 30
0.0
 10
16.3005711317
 20
13.7201885496
 30
0.0
 10
16.3074203989
 20
13.721799257
 30
0.0
  0
SPLINE
  5
32E
100
AcDbEntity
  8
0
100
AcDbSpline
 62
7
  6
CONTINUOUS
 70
0
 71
3
 72
36
 73
32
 74
0
 42
0.0000001
 43
0.0000001
 44
0.0000000001
 40
0.0
 40
0.0
 40
0.0
 40
0.0
 40
0.0262451788
 40
0.0511195087
 40
0.0748210746
 40
0.0976757479
 40
0.1200824426
 40
0.14247224
 40
0.1652769042
 40
0.1888916088
 40
0.2136460959
 40
0.239782497
 40
0.2674620091
 40
0.2967615798
 40
0.3276935599
 40
0.3602055883
 40
0.3942006629
 40
0.4295360418
 40
0.466039822
 40
0.5035096473
 40
0.580417827
 40
0.6583712608
 40
0.7353624833
 40
0.7729023452
 40
0.8094943673
 40
0.8449349912
 40
0.8790469097
 40
0.9116832694
 40
0.9427530501
 40
0.972202057
 40
1.0
 40
1.0
 40
1.0
 40
1.0
 10
16.5546147461
 20
13.6231589607
 30
0.0
 10
16.5562260194
 20
13.6198755308
 30
0.0
 10
16.5590027036
 20
13.6132920727
 30
0.0
 10
16.5617777396
 20
13.603207882
 30
0.0
 10
16.5629962704
 20
13.593288918
 30
0.0
 10
16.562639517
 20
13.5836414629
 30
0.0
 10
16.5606981548
 20
13.5743684115
 30
0.0
 10
16.5571971387
 20
13.5655722438
 30
0.0
 10
16.5521710742
 20
13.5573543559
 30
0.0
 10
16.5456885447
 20
13.5497956258
 30
0.0
 10
16.5378193699
 20
13.5429703432
 30
0.0
 10
16.5286512766
 20
13.5369321669
 30
0.0
 10
16.5182718851
 20
13.5317374914
 30
0.0
 10
16.5067836831
 20
13.5274244002
 30
0.0
 10
16.494293572
 20
13.5240356716
 30
0.0
 10
16.480920792
 20
13.5215955715
 30
0.0
 10
16.4667910001
 20
13.520131251
 30
0.0
 10
16.4520386324
 20
13.5196508379
 30
0.0
 10
16.4368033743
 20
13.5201631968
 30
0.0
 10
16.4158622673
 20
13.5221755873
 30
0.0
 10
16.389454291
 20
13.527130904
 30
0.0
 10
16.3585028453
 20
13.5366177267
 30
0.0
 10
16.3338332859
 20
13.5473173649
 30
0.0
 10
16.3153274705
 20
13.557393428
 30
0.0
 10
16.302385273
 20
13.5655171098
 30
0.0
 10
16.2903921961
 20
13.574194931
 30
0.0
 10
16.2794592581
 20
13.5833402326
 30
0.0
 10
16.2696930548
 20
13.5928711116
 30
0.0
 10
16.2611830842
 20
13.6026976514
 30
0.0
 10
16.2540184178
 20
13.6127274886
 30
0.0
 10
16.2500685679
 20
13.6196812707
 30
0.0
 10
16.2483619655
 20
13.6231589607
 30
0.0
  0
SPLINE
  5
32F
100
AcDbEntity
  8
0
100
AcDbSpline
 62
7
  6
CONTINUOUS
 70
0
 71
3
 72
15
 73
11
 74
0
 42
0.0000001
 43
0.0000001
 44
0.0000000001
 40
0.0
 40
0.0
 40
0.0
 40
0.0
 40
0.1300832687
 40
0.2598983855
 40
0.3888015522
 40
0.5162194635
 40
0.6415713082
 40
0.7643079802
 40
0.8839457504
 40
1.0
 40
1.0
 40
1.0
 40
1.0
 10
15.7682257315
 20
13.51748356
 30
0.0
 10
15.8013807796
 20
13.5081562628
 30
0.0
 10
15.8671860837
 20
13.4879277366
 30
0.0
 10
15.9640597563
 20
13.4529925835
 30
0.0
 10
16.0584830743
 20
13.413685748
 30
0.0
 10
16.1497915234
 20
13.3702876338
 30
0.0
 10
16.2373504235
 20
13.3230965229
 30
0.0
 10
16.3205542924
 20
13.2724418983
 30
0.0
 10
16.3988142694
 20
13.2186777649
 30
0.0
 10
16.4481430909
 20
13.1803823291
 30
0.0
 10
16.4718073271
 20
13.1607815676
 30
0.0
  0
SPLINE
  5
330
100
AcDbEntity
  8
0
100
AcDbSpline
 62
7
  6
CONTINUOUS
 70
0
 71
3
 72
12
 73
8
 74
0
 42
0.0000001
 43
0.0000001
 44
0.0000000001
 40
0.0
 40
0.0
 40
0.0
 40
0.0
 40
0.2713734382
 40
0.5253799581
 40
0.7660676858
 40
0.8834810231
 40
1.0
 40
1.0
 40
1.0
 40
1.0
 10
16.2599932387
 20
13.6309922298
 30
0.0
 10
16.2580989041
 20
13.6348524779
 30
0.0
 10
16.2549575161
 20
13.6426058178
 30
0.0
 10
16.2523474858
 20
13.6545245382
 30
0.0
 10
16.2521396265
 20
13.6642959151
 30
0.0
 10
16.253176362
 20
13.6717564634
 30
0.0
 10
16.2540802082
 20
13.6753604063
 30
0.0
 10
16.2546254879
 20
13.67712433
 30
0.0
  0
SPLINE
  5
331
100
AcDbEntity
  8
0
100
AcDbSpline
 62
7
  6
CONTINUOUS
 70
0
 71
3
 72
12
 73
8
 74
0
 42
0.0000001
 43
0.0000001
 44
0.0000000001
 40
0.0
 40
0.0
 40
0.0
 40
0.0
 40
0.2480960259
 40
0.4972099721
 40
0.6223036139
 40
0.7478663194
 40
1.0
 40
1.0
 40
1.0
 40
1.0
 10
15.7078028818
 20
13.5419737675
 30
0.0
 10
15.7127215511
 20
13.5397542486
 30
0.0
 10
15.722562433
 20
13.5352696913
 30
0.0
 10
15.7349374199
 20
13.5297836529
 30
0.0
 10
15.7449762999
 20
13.5256114127
 30
0.0
 10
15.7551594445
 20
13.5216257875
 30
0.0
 10
15.7629465808
 20
13.5189687096
 30
0.0
 10
15.7682257315
 20
13.51748356
 30
0.0
  0
SPLINE
  5
332
100
AcDbEntity
  8
0
100
AcDbSpline
 62
7
  6
CONTINUOUS
 70
0
 71
3
 72
11
 73
7
 74
0
 42
0.0000001
 43
0.0000001
 44
0.0000000001
 40
0.0
 40
0.0
 40
0.0
 40
0.0
 40
0.2465128812
 40
0.5225200493
 40
0.7850575949
 40
1.0
 40
1.0
 40
1.0
 40
1.0
 10
15.3943252195
 20
13.6364759533
 30
0.0
 10
15.3937254091
 20
13.636471495
 30
0.0
 10
15.3924518501
 20
13.6362674764
 30
0.0
 10
15.3906877117
 20
13.6354791885
 30
0.0
 10
15.3892556517
 20
13.6342952663
 30
0.0
 10
15.3886218583
 20
13.6332862797
 30
0.0
 10
15.3884457052
 20
13.6327938291
 30
0.0
  0
SPLINE
  5
333
100
AcDbEntity
  8
0
100
AcDbSpline
 62
7
  6
CONTINUOUS
 70
0
 71
3
 72
10
 73
6
 74
0
 42
0.0000001
 43
0.0000001
 44
0.0000000001
 40
0.0
 40
0.0
 40
0.0
 40
0.0
 40
0.4874723749
 40
0.7422429468
 40
1.0
 40
1.0
 40
1.0
 40
1.0
 10
15.2835783576
 20
13.2719002111
 30
0.0
 10
15.2843002514
 20
13.2717177853
 30
0.0
 10
15.285443619
 20
13.2715775735
 30
0.0
 10
15.2869680343
 20
13.2717220974
 30
0.0
 10
15.287730878
 20
13.2719242621
 30
0.0
 10
15.2880972291
 20
13.2720684638
 30
0.0
  0
SPLINE
  5
334
100
AcDbEntity
  8
0
100
AcDbSpline
 62
7
  6
CONTINUOUS
 70
0
 71
3
 72
10
 73
6
 74
0
 42
0.0000001
 43
0.0000001
 44
0.0000000001
 40
0.0
 40
0.0
 40
0.0
 40
0.0
 40
0.2212190631
 40
0.4642927451
 40
1.0
 40
1.0
 40
1.0
 40
1.0
 10
14.9945467762
 20
13.2720684638
 30
0.0
 10
14.9947930066
 20
13.2719173218
 30
0.0
 10
14.9953771498
 20
13.2717120781
 30
0.0
 10
14.9966809323
 20
13.2715759287
 30
0.0
 10
14.9977040047
 20
13.2717317202
 30
0.0
 10
14.9983830601
 20
13.2719002111
 30
0.0
  0
SPLINE
  5
335
100
AcDbEntity
  8
0
100
AcDbSpline
 62
7
  6
CONTINUOUS
 70
0
 71
3
 72
15
 73
11
 74
0
 42
0.0000001
 43
0.0000001
 44
0.0000000001
 40
0.0
 40
0.0
 40
0.0
 40
0.0
 40
0.0903743477
 40
0.201919817
 40
0.3319121491
 40
0.4736506816
 40
0.6192689489
 40
0.7602337587
 40
0.8886625512
 40
1.0
 40
1.0
 40
1.0
 40
1.0
 10
14.5790036433
 20
13.6230603733
 30
0.0
 10
14.5785632176
 20
13.6226084852
 30
0.0
 10
14.577626423
 20
13.6215528813
 30
0.0
 10
14.576194073
 20
13.6197298367
 30
0.0
 10
14.574648933
 20
13.6175436351
 30
0.0
 10
14.5730659849
 20
13.615096105
 30
0.0
 10
14.5715461044
 20
13.6125195862
 30
0.0
 10
14.5701671415
 20
13.6099701804
 30
0.0
 10
14.5689991533
 20
13.6075813721
 30
0.0
 10
14.5683289702
 20
13.6060464517
 30
0.0
 10
14.5680380208
 20
13.6053255694
 30
0.0
  0
SPLINE
  5
336
100
AcDbEntity
  8
0
100
AcDbSpline
 62
7
  6
CONTINUOUS
 70
0
 71
3
 72
15
 73
11
 74
0
 42
0.0000001
 43
0.0000001
 44
0.0000000001
 40
0.0
 40
0.0
 40
0.0
 40
0.0
 40
0.0900787909
 40
0.2014476892
 40
0.3314008044
 40
0.4732103109
 40
0.6189659935
 40
0.7600817604
 40
0.8886179622
 40
1.0
 40
1.0
 40
1.0
 40
1.0
 10
14.2055100397
 20
13.8408926628
 30
0.0
 10
14.2050694047
 20
13.8404423065
 30
0.0
 10
14.2041315407
 20
13.8393887026
 30
0.0
 10
14.2026966657
 20
13.8375669661
 30
0.0
 10
14.2011471143
 20
13.8353793114
 30
0.0
 10
14.1995583204
 20
13.8329280049
 30
0.0
 10
14.1980320525
 20
13.8303461841
 30
0.0
 10
14.1966469149
 20
13.8277911361
 30
0.0
 10
14.1954736255
 20
13.8253973196
 30
0.0
 10
14.1948003404
 20
13.8238593578
 30
0.0
 10
14.1945080498
 20
13.8231371961
 30
0.0
  0
SPLINE
  5
337
100
AcDbEntity
  8
0
100
AcDbSpline
 62
7
  6
CONTINUOUS
 70
0
 71
3
 72
10
 73
6
 74
0
 42
0.0000001
 43
0.0000001
 44
0.0000000001
 40
0.0
 40
0.0
 40
0.0
 40
0.0
 40
0.2605028324
 40
0.5183256979
 40
1.0
 40
1.0
 40
1.0
 40
1.0
 10
15.0162597956
 20
13.8332544552
 30
0.0
 10
15.0165260981
 20
13.8332528148
 30
0.0
 10
15.0170573461
 20
13.8332112028
 30
0.0
 10
15.0180519798
 20
13.8329717826
 30
0.0
 10
15.0187358611
 20
13.8325670487
 30
0.0
 10
15.01906952
 20
13.8322049208
 30
0.0
  0
SPLINE
  5
338
100
AcDbEntity
  8
0
100
AcDbSpline
 62
7
  6
CONTINUOUS
 70
0
 71
3
 72
11
 73
7
 74
0
 42
0.0000001
 43
0.0000001
 44
0.0000000001
 40
0.0
 40
0.0
 40
0.0
 40
0.0
 40
0.2464285618
 40
0.5224761843
 40
0.7850752024
 40
1.0
 40
1.0
 40
1.0
 40
1.0
 10
15.3109296133
 20
13.8332544561
 30
0.0
 10
15.3103293615
 20
13.833250828
 30
0.0
 10
15.3090542698
 20
13.8330480128
 30
0.0
 10
15.3072875324
 20
13.8322602797
 30
0.0
 10
15.3058530172
 20
13.8310758222
 30
0.0
 10
15.3052180973
 20
13.83006585
 30
0.0
 10
15.3050417008
 20
13.8295729382
 30
0.0
  0
SPLINE
  5
339
100
AcDbEntity
  8
0
100
AcDbSpline
 62
7
  6
CONTINUOUS
 70
0
 71
3
 72
14
 73
10
 74
0
 42
0.0000001
 43
0.0000001
 44
0.0000000001
 40
0.0
 40
0.0
 40
0.0
 40
0.0
 40
0.2560409886
 40
0.3939081903
 40
0.5316282766
 40
0.6641722774
 40
0.7877718099
 40
0.8996883671
 40
1.0
 40
1.0
 40
1.0
 40
1.0
 10
15.9430509594
 20
13.6230603394
 30
0.0
 10
15.9446859379
 20
13.6222041705
 30
0.0
 10
15.9470249736
 20
13.6205082079
 30
0.0
 10
15.9495876042
 20
13.6176470569
 30
0.0
 10
15.9512162579
 20
13.6151809365
 30
0.0
 10
15.952363673
 20
13.6125694658
 30
0.0
 10
15.9530060394
 20
13.6099795303
 30
0.0
 10
15.9531177493
 20
13.6075456857
 30
0.0
 10
15.9528736419
 20
13.6060219192
 30
0.0
 10
15.9526782107
 20
13.6053257687
 30
0.0
  0
SPLINE
  5
33A
100
AcDbEntity
  8
0
100
AcDbSpline
 62
7
  6
CONTINUOUS
 70
0
 71
3
 72
14
 73
10
 74
0
 42
0.0000001
 43
0.0000001
 44
0.0000000001
 40
0.0
 40
0.0
 40
0.0
 40
0.0
 40
0.100229169
 40
0.2121142782
 40
0.3357409065
 40
0.4683504302
 40
0.6061458655
 40
0.7440614858
 40
1.0
 40
1.0
 40
1.0
 40
1.0
 10
16.1517626843
 20
13.8231371957
 30
0.0
 10
16.1519582462
 20
13.823834553
 30
0.0
 10
16.1522019155
 20
13.8253614939
 30
0.0
 10
16.152087248
 20
13.8278006923
 30
0.0
 10
16.1514391637
 20
13.8303965425
 30
0.0
 10
16.1502836683
 20
13.8330135647
 30
0.0
 10
16.148644961
 20
13.8354835251
 30
0.0
 10
16.1460692331
 20
13.838345944
 30
0.0
 10
16.1437200449
 20
13.8400397765
 30
0.0
 10
16.1420790268
 20
13.8408926628
 30
0.0
  0
SPLINE
  5
33B
100
AcDbEntity
  8
0
100
AcDbSpline
 62
7
  6
CONTINUOUS
 70
0
 71
3
 72
18
 73
14
 74
0
 42
0.0000001
 43
0.0000001
 44
0.0000000001
 40
0.0
 40
0.0
 40
0.0
 40
0.0
 40
0.0562083937
 40
0.112594004
 40
0.1693210654
 40
0.2265597241
 40
0.3431577518
 40
0.4636137534
 40
0.5256201701
 40
0.5889302532
 40
0.7197541702
 40
0.8566862744
 40
1.0
 40
1.0
 40
1.0
 40
1.0
 10
14.4328672067
 20
13.1911668658
 30
0.0
 10
14.4355873527
 20
13.1999684412
 30
0.0
 10
14.441640406
 20
13.2174191074
 30
0.0
 10
14.4525062542
 20
13.2429762928
 30
0.0
 10
14.46515076
 20
13.2678933652
 30
0.0
 10
14.4844616229
 20
13.3004023802
 30
0.0
 10
14.5131331052
 20
13.3393639483
 30
0.0
 10
14.5469005436
 20
13.3750567819
 30
0.0
 10
14.5769808163
 20
13.4018732905
 30
0.0
 10
14.6098152402
 20
13.4280615824
 30
0.0
 10
14.6548812225
 20
13.4584646084
 30
0.0
 10
14.7141682024
 20
13.4906502468
 30
0.0
 10
14.7563547285
 20
13.5089752296
 30
0.0
 10
14.778248092
 20
13.51748356
 30
0.0
  0
SPLINE
  5
33C
100
AcDbEntity
  8
0
100
AcDbSpline
 62
7
  6
CONTINUOUS
 70
0
 71
3
 72
26
 73
22
 74
0
 42
0.0000001
 43
0.0000001
 44
0.0000000001
 40
0.0
 40
0.0
 40
0.0
 40
0.0
 40
0.0214594547
 40
0.0432148397
 40
0.0655432384
 40
0.0886844448
 40
0.1128368057
 40
0.1381454081
 40
0.1925262657
 40
0.2521674004
 40
0.3167709996
 40
0.3856195455
 40
0.457695363
 40
0.5317811493
 40
0.6065460348
 40
0.6806214437
 40
0.7526757431
 40
0.8214948449
 40
0.8860558577
 40
0.9456687966
 40
1.0
 40
1.0
 40
1.0
 40
1.0
 10
17.3348623334
 20
11.9919845858
 30
0.0
 10
17.3341328404
 20
11.9896247508
 30
0.0
 10
17.3323165699
 20
11.9849722241
 30
0.0
 10
17.3285854932
 20
11.9783879602
 30
0.0
 10
17.3238690158
 20
11.9722245971
 30
0.0
 10
17.3182091703
 20
11.9665228229
 30
0.0
 10
17.3116441776
 20
11.9613227851
 30
0.0
 10
17.3015112448
 20
11.9549467827
 30
0.0
 10
17.2867208407
 20
11.9485011292
 30
0.0
 10
17.2667325583
 20
11.9433993943
 30
0.0
 10
17.244594183
 20
11.9408489391
 30
0.0
 10
17.2208898626
 20
11.9409107051
 30
0.0
 10
17.196243594
 20
11.9435785128
 30
0.0
 10
17.1713126215
 20
11.9487800923
 30
0.0
 10
17.1467639499
 20
11.9563760896
 30
0.0
 10
17.1232556647
 20
11.9661629893
 30
0.0
 10
17.1014168082
 20
11.9778795514
 30
0.0
 10
17.0818318686
 20
11.9912140208
 30
0.0
 10
17.0650134643
 20
12.0058179108
 30
0.0
 10
17.0514175008
 20
12.0213116184
 30
0.0
 10
17.0444180023
 20
12.0325026263
 30
0.0
 10
17.041663022
 20
12.0381166861
 30
0.0
  0
SPLINE
  5
33D
100
AcDbEntity
  8
0
100
AcDbSpline
 62
7
  6
CONTINUOUS
 70
0
 71
3
 72
9
 73
5
 74
0
 42
0.0000001
 43
0.0000001
 44
0.0000000001
 40
0.0
 40
0.0
 40
0.0
 40
0.0
 40
0.2601352882
 40
1.0
 40
1.0
 40
1.0
 40
1.0
 10
17.3164768447
 20
12.0586563124
 30
0.0
 10
17.3179256523
 20
12.0570708966
 30
0.0
 10
17.3233666382
 20
12.0508616693
 30
0.0
 10
17.3282740432
 20
12.0441734053
 30
0.0
 10
17.3314771918
 20
12.0389722498
 30
0.0
  0
SPLINE
  5
33E
100
AcDbEntity
  8
0
100
AcDbSpline
 62
7
  6
CONTINUOUS
 70
0
 71
3
 72
9
 73
5
 74
0
 42
0.0000001
 43
0.0000001
 44
0.0000000001
 40
0.0
 40
0.0
 40
0.0
 40
0.0
 40
0.2548338022
 40
1.0
 40
1.0
 40
1.0
 40
1.0
 10
17.3314771918
 20
12.0389722498
 30
0.0
 10
17.331919609
 20
12.038253869
 30
0.0
 10
17.333623801
 20
12.0354153928
 30
0.0
 10
17.3351976926
 20
12.0324981573
 30
0.0
 10
17.3362845293
 20
12.030283417
 30
0.0
  0
SPLINE
  5
33F
100
AcDbEntity
  8
0
100
AcDbSpline
 62
7
  6
CONTINUOUS
 70
0
 71
3
 72
15
 73
11
 74
0
 42
0.0000001
 43
0.0000001
 44
0.0000000001
 40
0.0
 40
0.0
 40
0.0
 40
0.0
 40
0.113730612
 40
0.2436765422
 40
0.3852538959
 40
0.5306559492
 40
0.6715062339
 40
0.8002375387
 40
0.9105062996
 40
1.0
 40
1.0
 40
1.0
 40
1.0
 10
17.3395868691
 20
12.2286442637
 30
0.0
 10
17.3397585294
 20
12.2294220348
 30
0.0
 10
17.3401891643
 20
12.2310748096
 30
0.0
 10
17.3410238379
 20
12.2336419972
 30
0.0
 10
17.3420855559
 20
12.2363635796
 30
0.0
 10
17.3433208045
 20
12.2390950502
 30
0.0
 10
17.3446733146
 20
12.2416692588
 30
0.0
 10
17.3460497642
 20
12.2439481047
 30
0.0
 10
17.347382208
 20
12.2458259701
 30
0.0
 10
17.3482902823
 20
12.2468942848
 30
0.0
 10
17.3487273808
 20
12.2473434637
 30
0.0
  0
SPLINE
  5
340
100
AcDbEntity
  8
0
100
AcDbSpline
 62
7
  6
CONTINUOUS
 70
0
 71
3
 72
15
 73
11
 74
0
 42
0.0000001
 43
0.0000001
 44
0.0000000001
 40
0.0
 40
0.0
 40
0.0
 40
0.0
 40
0.0897824279
 40
0.200235309
 40
0.3290213694
 40
0.4698164335
 40
0.6150886648
 40
0.7565149487
 40
0.8863393934
 40
1.0
 40
1.0
 40
1.0
 40
1.0
 10
16.9599862373
 20
12.4159491068
 30
0.0
 10
16.9595497363
 20
12.4154980982
 30
0.0
 10
16.9586431785
 20
12.4144275332
 30
0.0
 10
16.9573129506
 20
12.4125486581
 30
0.0
 10
16.9559393999
 20
12.4102721605
 30
0.0
 10
16.9545900754
 20
12.4077032041
 30
0.0
 10
16.9533575262
 20
12.4049789964
 30
0.0
 10
16.9522976902
 20
12.4022653238
 30
0.0
 10
16.9514637067
 20
12.3997055219
 30
0.0
 10
16.9510328545
 20
12.3980573566
 30
0.0
 10
16.9508608791
 20
12.3972816161
 30
0.0
  0
SPLINE
  5
341
100
AcDbEntity
  8
0
100
AcDbSpline
 62
7
  6
CONTINUOUS
 70
0
 71
3
 72
12
 73
8
 74
0
 42
0.0000001
 43
0.0000001
 44
0.0000000001
 40
0.0
 40
0.0
 40
0.0
 40
0.0
 40
0.2713734382
 40
0.5253799581
 40
0.7660676858
 40
0.8834810231
 40
1.0
 40
1.0
 40
1.0
 40
1.0
 10
13.8997744416
 20
13.6309922298
 30
0.0
 10
13.8978801069
 20
13.6348524779
 30
0.0
 10
13.894738719
 20
13.6426058178
 30
0.0
 10
13.8921286886
 20
13.6545245382
 30
0.0
 10
13.8919208294
 20
13.6642959151
 30
0.0
 10
13.8929575649
 20
13.6717564634
 30
0.0
 10
13.8938614111
 20
13.6753604063
 30
0.0
 10
13.8944066907
 20
13.67712433
 30
0.0
  0
SPLINE
  5
342
100
AcDbEntity
  8
0
100
AcDbSpline
 62
7
  6
CONTINUOUS
 70
0
 71
3
 72
15
 73
11
 74
0
 42
0.0000001
 43
0.0000001
 44
0.0000000001
 40
0.0
 40
0.0
 40
0.0
 40
0.0
 40
0.139226404
 40
0.2726915706
 40
0.400905324
 40
0.5246899779
 40
0.6451715748
 40
0.7636319511
 40
0.8814435203
 40
1.0
 40
1.0
 40
1.0
 40
1.0
 10
13.8881431684
 20
13.6231589607
 30
0.0
 10
13.886879634
 20
13.6257337731
 30
0.0
 10
13.8846293543
 20
13.6308918251
 30
0.0
 10
13.8820900767
 20
13.6387655958
 30
0.0
 10
13.8804824286
 20
13.6465593734
 30
0.0
 10
13.8798235422
 20
13.6542231733
 30
0.0
 10
13.8801159222
 20
13.6617102385
 30
0.0
 10
13.8813642508
 20
13.6689749434
 30
0.0
 10
13.8835572695
 20
13.6759697502
 30
0.0
 10
13.8856277266
 20
13.6803954699
 30
0.0
 10
13.8868039689
 20
13.6825358872
 30
0.0
  0
SPLINE
  5
343
100
AcDbEntity
  8
0
100
AcDbSpline
 62
7
  6
CONTINUOUS
 70
0
 71
3
 72
13
 73
9
 74
0
 42
0.0000001
 43
0.0000001
 44
0.0000000001
 40
0.0
 40
0.0
 40
0.0
 40
0.0
 40
0.1079587613
 40
0.2192084849
 40
0.3348405675
 40
0.4557011177
 40
0.7150701484
 40
1.0
 40
1.0
 40
1.0
 40
1.0
 10
13.8868039689
 20
13.6825358872
 30
0.0
 10
13.8880879144
 20
13.6848722927
 30
0.0
 10
13.8910341856
 20
13.6894372147
 30
0.0
 10
13.8964125589
 20
13.6957458349
 30
0.0
 10
13.9027653693
 20
13.7015544835
 30
0.0
 10
13.9126988315
 20
13.7087527922
 30
0.0
 10
13.9274506085
 20
13.7162175799
 30
0.0
 10
13.9403523346
 20
13.7201885496
 30
0.0
 10
13.9472016017
 20
13.721799257
 30
0.0
  0
SPLINE
  5
344
100
AcDbEntity
  8
0
100
AcDbSpline
 62
7
  6
CONTINUOUS
 70
0
 71
3
 72
36
 73
32
 74
0
 42
0.0000001
 43
0.0000001
 44
0.0000000001
 40
0.0
 40
0.0
 40
0.0
 40
0.0
 40
0.0262451788
 40
0.0511195087
 40
0.0748210746
 40
0.0976757479
 40
0.1200824426
 40
0.14247224
 40
0.1652769042
 40
0.1888916088
 40
0.2136460959
 40
0.239782497
 40
0.2674620091
 40
0.2967615798
 40
0.3276935599
 40
0.3602055883
 40
0.3942006629
 40
0.4295360418
 40
0.466039822
 40
0.5035096473
 40
0.580417827
 40
0.6583712608
 40
0.7353624833
 40
0.7729023452
 40
0.8094943673
 40
0.8449349912
 40
0.8790469097
 40
0.9116832694
 40
0.9427530501
 40
0.972202057
 40
1.0
 40
1.0
 40
1.0
 40
1.0
 10
14.1943959489
 20
13.6231589607
 30
0.0
 10
14.1960072223
 20
13.6198755308
 30
0.0
 10
14.1987839065
 20
13.6132920727
 30
0.0
 10
14.2015589425
 20
13.603207882
 30
0.0
 10
14.2027774733
 20
13.593288918
 30
0.0
 10
14.2024207199
 20
13.5836414629
 30
0.0
 10
14.2004793577
 20
13.5743684115
 30
0.0
 10
14.1969783415
 20
13.5655722438
 30
0.0
 10
14.1919522771
 20
13.5573543559
 30
0.0
 10
14.1854697476
 20
13.5497956258
 30
0.0
 10
14.1776005728
 20
13.5429703432
 30
0.0
 10
14.1684324794
 20
13.5369321669
 30
0.0
 10
14.158053088
 20
13.5317374914
 30
0.0
 10
14.146564886
 20
13.5274244002
 30
0.0
 10
14.1340747749
 20
13.5240356716
 30
0.0
 10
14.1207019949
 20
13.5215955715
 30
0.0
 10
14.106572203
 20
13.520131251
 30
0.0
 10
14.0918198352
 20
13.5196508379
 30
0.0
 10
14.0765845772
 20
13.5201631968
 30
0.0
 10
14.0556434702
 20
13.5221755873
 30
0.0
 10
14.0292354939
 20
13.527130904
 30
0.0
 10
13.9982840482
 20
13.5366177267
 30
0.0
 10
13.9736144887
 20
13.5473173649
 30
0.0
 10
13.9551086734
 20
13.557393428
 30
0.0
 10
13.9421664758
 20
13.5655171098
 30
0.0
 10
13.9301733989
 20
13.574194931
 30
0.0
 10
13.919240461
 20
13.5833402326
 30
0.0
 10
13.9094742577
 20
13.5928711116
 30
0.0
 10
13.9009642871
 20
13.6026976514
 30
0.0
 10
13.8937996207
 20
13.6127274886
 30
0.0
 10
13.8898497708
 20
13.6196812707
 30
0.0
 10
13.8881431684
 20
13.6231589607
 30
0.0
  0
SPLINE
  5
345
100
AcDbEntity
  8
0
100
AcDbSpline
 62
7
  6
CONTINUOUS
 70
0
 71
3
 72
9
 73
5
 74
0
 42
0.0000001
 43
0.0000001
 44
0.0000000001
 40
0.0
 40
0.0
 40
0.0
 40
0.0
 40
0.2601352882
 40
1.0
 40
1.0
 40
1.0
 40
1.0
 10
14.1745882643
 20
13.6515318561
 30
0.0
 10
14.1760370719
 20
13.6499464403
 30
0.0
 10
14.1814780578
 20
13.643737213
 30
0.0
 10
14.1863854628
 20
13.637048949
 30
0.0
 10
14.1895886115
 20
13.6318477934
 30
0.0
  0
SPLINE
  5
346
100
AcDbEntity
  8
0
100
AcDbSpline
 62
7
  6
CONTINUOUS
 70
0
 71
3
 72
9
 73
5
 74
0
 42
0.0000001
 43
0.0000001
 44
0.0000000001
 40
0.0
 40
0.0
 40
0.0
 40
0.0
 40
0.2548338022
 40
1.0
 40
1.0
 40
1.0
 40
1.0
 10
14.1895886115
 20
13.6318477934
 30
0.0
 10
14.1900310286
 20
13.6311294127
 30
0.0
 10
14.1917352206
 20
13.6282909365
 30
0.0
 10
14.1933091122
 20
13.625373701
 30
0.0
 10
14.1943959489
 20
13.6231589607
 30
0.0
  0
SPLINE
  5
347
100
AcDbEntity
  8
0
100
AcDbSpline
 62
7
  6
CONTINUOUS
 70
0
 71
3
 72
26
 73
22
 74
0
 42
0.0000001
 43
0.0000001
 44
0.0000000001
 40
0.0
 40
0.0
 40
0.0
 40
0.0
 40
0.0214594547
 40
0.0432148397
 40
0.0655432384
 40
0.0886844448
 40
0.1128368057
 40
0.1381454081
 40
0.1925262657
 40
0.2521674004
 40
0.3167709996
 40
0.3856195455
 40
0.457695363
 40
0.5317811493
 40
0.6065460348
 40
0.6806214437
 40
0.7526757431
 40
0.8214948449
 40
0.8860558577
 40
0.9456687966
 40
1.0
 40
1.0
 40
1.0
 40
1.0
 10
14.1929737531
 20
13.5848601295
 30
0.0
 10
14.1922442601
 20
13.5825002945
 30
0.0
 10
14.1904279896
 20
13.5778477678
 30
0.0
 10
14.1866969128
 20
13.5712635039
 30
0.0
 10
14.1819804354
 20
13.5651001408
 30
0.0
 10
14.1763205899
 20
13.5593983666
 30
0.0
 10
14.1697555973
 20
13.5541983288
 30
0.0
 10
14.1596226644
 20
13.5478223264
 30
0.0
 10
14.1448322604
 20
13.5413766729
 30
0.0
 10
14.1248439779
 20
13.536274938
 30
0.0
 10
14.1027056026
 20
13.5337244828
 30
0.0
 10
14.0790012823
 20
13.5337862488
 30
0.0
 10
14.0543550136
 20
13.5364540565
 30
0.0
 10
14.0294240411
 20
13.541655636
 30
0.0
 10
14.0048753696
 20
13.5492516333
 30
0.0
 10
13.9813670843
 20
13.559038533
 30
0.0
 10
13.9595282278
 20
13.5707550951
 30
0.0
 10
13.9399432883
 20
13.5840895645
 30
0.0
 10
13.923124884
 20
13.5986934545
 30
0.0
 10
13.9095289205
 20
13.6141871621
 30
0.0
 10
13.902529422
 20
13.62537817
 30
0.0
 10
13.8997744416
 20
13.6309922298
 30
0.0
  0
SPLINE
  5
348
100
AcDbEntity
  8
03__ASM_ALL_CURVES
100
AcDbSpline
 62
8
  6
PHANTOM
 70
0
 71
3
 72
391
 73
387
 74
0
 42
0.0000001
 43
0.0000001
 44
0.0000000001
 40
0.0
 40
0.0
 40
0.0
 40
0.0
 40
0.015625
 40
0.0234375
 40
0.03125
 40
0.0390625
 40
0.04296875
 40
0.046875
 40
0.05078125
 40
0.0546875
 40
0.056640625
 40
0.05859375
 40
0.0595703125
 40
0.060546875
 40
0.0615234375
 40
0.0620117188
 40
0.0622558594
 40
0.0625
 40
0.0627441406
 40
0.0629882812
 40
0.0634765625
 40
0.064453125
 40
0.0654296875
 40
0.06640625
 40
0.068359375
 40
0.0703125
 40
0.07421875
 40
0.078125
 40
0.08203125
 40
0.0859375
 40
0.09375
 40
0.1015625
 40
0.10546875
 40
0.109375
 40
0.11328125
 40
0.1171875
 40
0.119140625
 40
0.12109375
 40
0.1220703125
 40
0.123046875
 40
0.1240234375
 40
0.1245117188
 40
0.1247558594
 40
0.125
 40
0.1252441406
 40
0.1254882812
 40
0.1259765625
 40
0.126953125
 40
0.1279296875
 40
0.12890625
 40
0.130859375
 40
0.1328125
 40
0.13671875
 40
0.140625
 40
0.14453125
 40
0.1484375
 40
0.15625
 40
0.1640625
 40
0.16796875
 40
0.171875
 40
0.17578125
 40
0.1796875
 40
0.181640625
 40
0.18359375
 40
0.1845703125
 40
0.185546875
 40
0.1865234375
 40
0.1870117188
 40
0.1872558594
 40
0.1875
 40
0.1877441406
 40
0.1879882812
 40
0.1884765625
 40
0.189453125
 40
0.1904296875
 40
0.19140625
 40
0.193359375
 40
0.1953125
 40
0.19921875
 40
0.203125
 40
0.20703125
 40
0.2109375
 40
0.21875
 40
0.2265625
 40
0.23046875
 40
0.234375
 40
0.23828125
 40
0.2421875
 40
0.244140625
 40
0.24609375
 40
0.2470703125
 40
0.248046875
 40
0.2490234375
 40
0.2495117188
 40
0.25
 40
0.2504882812
 40
0.2509765625
 40
0.251953125
 40
0.2529296875
 40
0.25390625
 40
0.255859375
 40
0.2578125
 40
0.26171875
 40
0.265625
 40
0.26953125
 40
0.2734375
 40
0.28125
 40
0.2890625
 40
0.29296875
 40
0.296875
 40
0.30078125
 40
0.3046875
 40
0.306640625
 40
0.30859375
 40
0.310546875
 40
0.3115234375
 40
0.3120117188
 40
0.3125
 40
0.3129882812
 40
0.3134765625
 40
0.314453125
 40
0.31640625
 40
0.318359375
 40
0.3203125
 40
0.32421875
 40
0.328125
 40
0.33203125
 40
0.3359375
 40
0.34375
 40
0.3515625
 40
0.35546875
 40
0.359375
 40
0.36328125
 40
0.3671875
 40
0.369140625
 40
0.37109375
 40
0.373046875
 40
0.3740234375
 40
0.3745117188
 40
0.375
 40
0.3754882812
 40
0.3759765625
 40
0.376953125
 40
0.37890625
 40
0.380859375
 40
0.3828125
 40
0.38671875
 40
0.390625
 40
0.39453125
 40
0.3984375
 40
0.40625
 40
0.4140625
 40
0.41796875
 40
0.421875
 40
0.42578125
 40
0.4296875
 40
0.431640625
 40
0.43359375
 40
0.4345703125
 40
0.435546875
 40
0.4365234375
 40
0.4370117188
 40
0.4375
 40
0.4379882812
 40
0.4384765625
 40
0.439453125
 40
0.4404296875
 40
0.44140625
 40
0.443359375
 40
0.4453125
 40
0.44921875
 40
0.453125
 40
0.45703125
 40
0.4609375
 40
0.46875
 40
0.4765625
 40
0.48046875
 40
0.484375
 40
0.48828125
 40
0.4921875
 40
0.494140625
 40
0.49609375
 40
0.4970703125
 40
0.498046875
 40
0.4990234375
 40
0.4995117188
 40
0.4997558594
 40
0.5
 40
0.5002441406
 40
0.5004882812
 40
0.5009765625
 40
0.501953125
 40
0.5029296875
 40
0.50390625
 40
0.505859375
 40
0.5078125
 40
0.51171875
 40
0.515625
 40
0.51953125
 40
0.5234375
 40
0.53125
 40
0.5390625
 40
0.54296875
 40
0.546875
 40
0.55078125
 40
0.5546875
 40
0.556640625
 40
0.55859375
 40
0.5595703125
 40
0.560546875
 40
0.5615234375
 40
0.5620117188
 40
0.5622558594
 40
0.5625
 40
0.5627441406
 40
0.5629882812
 40
0.5634765625
 40
0.564453125
 40
0.5654296875
 40
0.56640625
 40
0.568359375
 40
0.5703125
 40
0.57421875
 40
0.578125
 40
0.58203125
 40
0.5859375
 40
0.59375
 40
0.6015625
 40
0.60546875
 40
0.609375
 40
0.61328125
 40
0.6171875
 40
0.619140625
 40
0.62109375
 40
0.6220703125
 40
0.623046875
 40
0.6240234375
 40
0.6245117188
 40
0.6247558594
 40
0.625
 40
0.6252441406
 40
0.6254882812
 40
0.6259765625
 40
0.626953125
 40
0.6279296875
 40
0.62890625
 40
0.630859375
 40
0.6328125
 40
0.63671875
 40
0.640625
 40
0.64453125
 40
0.6484375
 40
0.65625
 40
0.6640625
 40
0.66796875
 40
0.671875
 40
0.67578125
 40
0.6796875
 40
0.681640625
 40
0.68359375
 40
0.6845703125
 40
0.685546875
 40
0.6865234375
 40
0.6870117188
 40
0.6872558594
 40
0.6875
 40
0.6877441406
 40
0.6879882812
 40
0.6884765625
 40
0.689453125
 40
0.6904296875
 40
0.69140625
 40
0.693359375
 40
0.6953125
 40
0.69921875
 40
0.703125
 40
0.70703125
 40
0.7109375
 40
0.71875
 40
0.7265625
 40
0.73046875
 40
0.734375
 40
0.73828125
 40
0.7421875
 40
0.744140625
 40
0.74609375
 40
0.7470703125
 40
0.748046875
 40
0.7490234375
 40
0.7495117188
 40
0.7497558594
 40
0.75
 40
0.7502441406
 40
0.7504882812
 40
0.7509765625
 40
0.751953125
 40
0.7529296875
 40
0.75390625
 40
0.755859375
 40
0.7578125
 40
0.76171875
 40
0.765625
 40
0.76953125
 40
0.7734375
 40
0.78125
 40
0.7890625
 40
0.79296875
 40
0.796875
 40
0.80078125
 40
0.8046875
 40
0.806640625
 40
0.80859375
 40
0.8095703125
 40
0.810546875
 40
0.8115234375
 40
0.8120117188
 40
0.8122558594
 40
0.8125
 40
0.8127441406
 40
0.8129882812
 40
0.8134765625
 40
0.814453125
 40
0.8154296875
 40
0.81640625
 40
0.818359375
 40
0.8203125
 40
0.82421875
 40
0.828125
 40
0.83203125
 40
0.8359375
 40
0.84375
 40
0.8515625
 40
0.85546875
 40
0.859375
 40
0.86328125
 40
0.8671875
 40
0.869140625
 40
0.87109375
 40
0.8720703125
 40
0.873046875
 40
0.8740234375
 40
0.8745117188
 40
0.8747558594
 40
0.875
 40
0.8752441406
 40
0.8754882812
 40
0.8759765625
 40
0.876953125
 40
0.8779296875
 40
0.87890625
 40
0.880859375
 40
0.8828125
 40
0.88671875
 40
0.890625
 40
0.89453125
 40
0.8984375
 40
0.90625
 40
0.9140625
 40
0.91796875
 40
0.921875
 40
0.92578125
 40
0.9296875
 40
0.931640625
 40
0.93359375
 40
0.9345703125
 40
0.935546875
 40
0.9365234375
 40
0.9370117188
 40
0.9372558594
 40
0.9375
 40
0.9377441406
 40
0.9379882812
 40
0.9384765625
 40
0.939453125
 40
0.9404296875
 40
0.94140625
 40
0.943359375
 40
0.9453125
 40
0.94921875
 40
0.953125
 40
0.95703125
 40
0.9609375
 40
0.96875
 40
0.9765625
 40
0.984375
 40
1.0
 40
1.0
 40
1.0
 40
1.0
 10
17.369007287
 20
12.1780285918
 30
0.0
 10
17.3554088679
 20
12.1994092809
 30
0.0
 10
17.3350112392
 20
12.2314803145
 30
0.0
 10
17.3078144012
 20
12.2742416926
 30
0.0
 10
17.287416772
 20
12.3063127262
 30
0.0
 10
17.2704187496
 20
12.3330385877
 30
0.0
 10
17.2568203275
 20
12.3544192764
 30
0.0
 10
17.2466215224
 20
12.3704547945
 30
0.0
 10
17.2364226733
 20
12.3864903063
 30
0.0
 10
17.2279237696
 20
12.3998532525
 30
0.0
 10
17.2211243393
 20
12.4105435655
 30
0.0
 10
17.2168753952
 20
12.4172251112
 30
0.0
 10
17.2134746371
 20
12.4225701185
 30
0.0
 10
17.2109284572
 20
12.4265795016
 30
0.0
 10
17.2087926794
 20
12.4299186576
 30
0.0
 10
17.2073250334
 20
12.4322599851
 30
0.0
 10
17.2064435982
 20
12.4335917685
 30
0.0
 10
17.2059030346
 20
12.4346078405
 30
0.0
 10
17.2049018101
 20
12.4355580339
 30
0.0
 10
17.2037275277
 20
12.4368479376
 30
0.0
 10
17.2015976681
 20
12.4390945626
 30
0.0
 10
17.198594152
 20
12.4423096245
 30
0.0
 10
17.1949731794
 20
12.4461653028
 30
0.0
 10
17.1901510674
 20
12.4513070441
 30
0.0
 10
17.1841214239
 20
12.4577339341
 30
0.0
 10
17.1744751141
 20
12.4680171183
 30
0.0
 10
17.1624168426
 20
12.4808710436
 30
0.0
 10
17.1479470814
 20
12.4962957776
 30
0.0
 10
17.1334772762
 20
12.5117205052
 30
0.0
 10
17.1141842181
 20
12.5322868109
 30
0.0
 10
17.0900678897
 20
12.5579946922
 30
0.0
 10
17.0659515649
 20
12.5837025742
 30
0.0
 10
17.046658501
 20
12.6042688786
 30
0.0
 10
17.0321887132
 20
12.6196936102
 30
0.0
 10
17.0177188869
 20
12.6351183294
 30
0.0
 10
17.005660818
 20
12.6479723006
 30
0.0
 10
16.9960140951
 20
12.6582553913
 30
0.0
 10
16.9899855028
 20
12.6646825193
 30
0.0
 10
16.985161233
 20
12.669823772
 30
0.0
 10
16.981546853
 20
12.6736809429
 30
0.0
 10
16.9785227101
 20
12.6768913349
 30
0.0
 10
16.9764296728
 20
12.6791462964
 30
0.0
 10
16.9751963918
 20
12.680422843
 30
0.0
 10
16.9743763922
 20
12.6814140653
 30
0.0
 10
16.9731551779
 20
12.6822760397
 30
0.0
 10
16.9716668402
 20
12.683470422
 30
0.0
 10
16.9689970449
 20
12.6855395861
 30
0.0
 10
16.9652171413
 20
12.6885065164
 30
0.0
 10
16.9606666654
 20
12.6920621322
 30
0.0
 10
16.9546044608
 20
12.6968045951
 30
0.0
 10
16.94702496
 20
12.7027321116
 30
0.0
 10
16.934898734
 20
12.7122164522
 30
0.0
 10
16.9197406168
 20
12.7240717702
 30
0.0
 10
16.9015510196
 20
12.7382981979
 30
0.0
 10
16.8833613841
 20
12.7525246133
 30
0.0
 10
16.8591085501
 20
12.7714931714
 30
0.0
 10
16.8287925027
 20
12.7952038675
 30
0.0
 10
16.7984764585
 20
12.8189145647
 30
0.0
 10
16.7742236194
 20
12.8378831209
 30
0.0
 10
16.7560339994
 20
12.8521095422
 30
0.0
 10
16.737844344
 20
12.8663359477
 30
0.0
 10
16.722686408
 20
12.8781913349
 30
0.0
 10
16.7105598124
 20
12.8876755341
 30
0.0
 10
16.7029812521
 20
12.8936034104
 30
0.0
 10
16.696917117
 20
12.8983451349
 30
0.0
 10
16.6923725388
 20
12.9019030067
 30
0.0
 10
16.6885741829
 20
12.9048628787
 30
0.0
 10
16.685937328
 20
12.906944643
 30
0.0
 10
16.6843962115
 20
12.9081188366
 30
0.0
 10
16.683337117
 20
12.9090428243
 30
0.0
 10
16.6819082219
 20
12.909801135
 30
0.0
 10
16.680132019
 20
12.9108700059
 30
0.0
 10
16.6769635648
 20
12.9127136046
 30
0.0
 10
16.6724686222
 20
12.915361394
 30
0.0
 10
16.6670612421
 20
12.9185327158
 30
0.0
 10
16.6598560994
 20
12.9227632495
 30
0.0
 10
16.6508480627
 20
12.928050696
 30
0.0
 10
16.6364361028
 20
12.9365110132
 30
0.0
 10
16.6184208444
 20
12.9470862714
 30
0.0
 10
16.5968026666
 20
12.9597766406
 30
0.0
 10
16.5751844535
 20
12.9724669939
 30
0.0
 10
16.5463601816
 20
12.9893874704
 30
0.0
 10
16.5103298381
 20
13.0105380649
 30
0.0
 10
16.4742994937
 20
13.031688657
 30
0.0
 10
16.4454752231
 20
13.0486091374
 30
0.0
 10
16.4238570061
 20
13.061299479
 30
0.0
 10
16.4022388429
 20
13.0739898922
 30
0.0
 10
16.3842235392
 20
13.0845650132
 30
0.0
 10
16.3698116717
 20
13.0930256103
 30
0.0
 10
16.3608033996
 20
13.0983123444
 30
0.0
 10
16.35359874
 20
13.1025443403
 30
0.0
 10
16.3481898842
 20
13.1057111949
 30
0.0
 10
16.3436995587
 20
13.1083729612
 30
0.0
 10
16.3400690484
 20
13.1104514156
 30
0.0
 10
16.3374506828
 20
13.1121494996
 30
0.0
 10
16.3344333735
 20
13.1133160904
 30
0.0
 10
16.3305496506
 20
13.1150572023
 30
0.0
 10
16.3256471845
 20
13.117169894
 30
0.0
 10
16.3197846905
 20
13.1197323888
 30
0.0
 10
16.3119608838
 20
13.1231395256
 30
0.0
 10
16.3021835728
 20
13.1274017073
 30
0.0
 10
16.2865385074
 20
13.1342193756
 30
0.0
 10
16.266982645
 20
13.1427420862
 30
0.0
 10
16.2435154089
 20
13.152969071
 30
0.0
 10
16.2200482266
 20
13.1631961274
 30
0.0
 10
16.1887586317
 20
13.176832178
 30
0.0
 10
16.1496466428
 20
13.1938772467
 30
0.0
 10
16.1105346578
 20
13.2109223245
 30
0.0
 10
16.0792450567
 20
13.2245583604
 30
0.0
 10
16.0557778928
 20
13.234785461
 30
0.0
 10
16.0323105877
 20
13.2450122799
 30
0.0
 10
16.0127549401
 20
13.2535355068
 30
0.0
 10
15.9971094367
 20
13.2603521224
 30
0.0
 10
15.9853780011
 20
13.265469955
 30
0.0
 10
15.9755932422
 20
13.2697177317
 30
0.0
 10
15.9687607145
 20
13.2727247016
 30
0.0
 10
15.9648301757
 20
13.2743906218
 30
0.0
 10
15.9619561825
 20
13.2757875281
 30
0.0
 10
15.9587996641
 20
13.2766207437
 30
0.0
 10
15.9546895209
 20
13.2779283194
 30
0.0
 10
15.9474508549
 20
13.2801249674
 30
0.0
 10
15.9371339085
 20
13.2833109304
 30
0.0
 10
15.9247432978
 20
13.2871135855
 30
0.0
 10
15.9082260728
 20
13.2921909534
 30
0.0
 10
15.8875783099
 20
13.2985352061
 30
0.0
 10
15.8628015225
 20
13.3061493626
 30
0.0
 10
15.8380245937
 20
13.3137632372
 30
0.0
 10
15.8049887382
 20
13.3239151691
 30
0.0
 10
15.7636939013
 20
13.3366050464
 30
0.0
 10
15.7223990723
 20
13.3492949498
 30
0.0
 10
15.689363204
 20
13.3594468398
 30
0.0
 10
15.6645863134
 20
13.3670608398
 30
0.0
 10
15.6398093832
 20
13.3746745265
 30
0.0
 10
15.6191620643
 20
13.3810202407
 30
0.0
 10
15.6026439339
 20
13.3860946281
 30
0.0
 10
15.5902560882
 20
13.3899063855
 30
0.0
 10
15.579930491
 20
13.3930638702
 30
0.0
 10
15.5727072682
 20
13.3953113566
 30
0.0
 10
15.568572381
 20
13.3965374764
 30
0.0
 10
15.565491868
 20
13.3976208987
 30
0.0
 10
15.5623324111
 20
13.3980780699
 30
0.0
 10
15.5581473384
 20
13.3989060749
 30
0.0
 10
15.5508106315
 20
13.4002533067
 30
0.0
 10
15.5403363291
 20
13.4022311337
 30
0.0
 10
15.5277642952
 20
13.4045817504
 30
0.0
 10
15.5110025862
 20
13.4077238618
 30
0.0
 10
15.4900501059
 20
13.4116487711
 30
0.0
 10
15.464907277
 20
13.4163598326
 30
0.0
 10
15.4397644086
 20
13.421070581
 30
0.0
 10
15.4062405979
 20
13.427351688
 30
0.0
 10
15.3643358297
 20
13.4352030353
 30
0.0
 10
15.3224310634
 20
13.4430543924
 30
0.0
 10
15.2889072496
 20
13.4493354838
 30
0.0
 10
15.2637643906
 20
13.4540462792
 30
0.0
 10
15.2386215267
 20
13.4587571643
 30
0.0
 10
15.2176691551
 20
13.4626826223
 30
0.0
 10
15.2009072244
 20
13.4658236147
 30
0.0
 10
15.1904310937
 20
13.4677853098
 30
0.0
 10
15.182050015
 20
13.4693579297
 30
0.0
 10
15.1757646829
 20
13.4705284584
 30
0.0
 10
15.1705253891
 20
13.4715323266
 30
0.0
 10
15.1663373565
 20
13.4722716629
 30
0.0
 10
15.163187035
 20
13.4730003833
 30
0.0
 10
15.1600722002
 20
13.4730641101
 30
0.0
 10
15.1559066911
 20
13.4733813702
 30
0.0
 10
15.1507040578
 20
13.4736982475
 30
0.0
 10
15.1444590774
 20
13.4741126134
 30
0.0
 10
15.1361330727
 20
13.4746531862
 30
0.0
 10
15.1257253491
 20
13.475332982
 30
0.0
 10
15.1090731131
 20
13.476418375
 30
0.0
 10
15.0882577762
 20
13.4777758988
 30
0.0
 10
15.0632793899
 20
13.4794045919
 30
0.0
 10
15.0383009989
 20
13.4810333747
 30
0.0
 10
15.0049964791
 20
13.4832050539
 30
0.0
 10
14.963365829
 20
13.4859196632
 30
0.0
 10
14.9217351782
 20
13.48863427
 30
0.0
 10
14.8884306595
 20
13.4908059531
 30
0.0
 10
14.8634522651
 20
13.492434724
 30
0.0
 10
14.8384738912
 20
13.4940634619
 30
0.0
 10
14.8176585157
 20
13.4954208464
 30
0.0
 10
14.8010063585
 20
13.4965065235
 30
0.0
 10
14.7905984342
 20
13.4971855963
 30
0.0
 10
14.7822728415
 20
13.4977276532
 30
0.0
 10
14.7760266025
 20
13.4981374851
 30
0.0
 10
14.770827907
 20
13.498468548
 30
0.0
 10
14.7671760569
 20
13.4987208268
 30
0.0
 10
14.7651092141
 20
13.4988329228
 30
0.0
 10
14.7635029427
 20
13.4990073179
 30
0.0
 10
14.7621112642
 20
13.498836452
 30
0.0
 10
14.7601808404
 20
13.4987290617
 30
0.0
 10
14.7568374739
 20
13.4984850178
 30
0.0
 10
14.7520430029
 20
13.498165719
 30
0.0
 10
14.7462974421
 20
13.497770004
 30
0.0
 10
14.7386339685
 20
13.4972467697
 30
0.0
 10
14.7290555598
 20
13.4965912252
 30
0.0
 10
14.7137295842
 20
13.4955431932
 30
0.0
 10
14.6945722937
 20
13.4942328653
 30
0.0
 10
14.6715834684
 20
13.4926605952
 30
0.0
 10
14.6485946636
 20
13.4910882921
 30
0.0
 10
14.6179429167
 20
13.4889918995
 30
0.0
 10
14.5796282358
 20
13.4863714044
 30
0.0
 10
14.541313553
 20
13.4837509122
 30
0.0
 10
14.5106618093
 20
13.4816545151
 30
0.0
 10
14.4876729949
 20
13.4800822256
 30
0.0
 10
14.4646842055
 20
13.4785099043
 30
0.0
 10
14.4455268033
 20
13.4771997357
 30
0.0
 10
14.4302010556
 20
13.4761513788
 30
0.0
 10
14.4206220669
 20
13.4754966612
 30
0.0
 10
14.4129597838
 20
13.4749717295
 30
0.0
 10
14.4072105859
 20
13.4745812004
 30
0.0
 10
14.4024274943
 20
13.4742456761
 30
0.0
 10
14.3990638137
 20
13.4740305975
 30
0.0
 10
14.3971659382
 20
13.4738767975
 30
0.0
 10
14.3956742818
 20
13.4738484875
 30
0.0
 10
14.3944435108
 20
13.4734874665
 30
0.0
 10
14.3927114829
 20
13.4731221584
 30
0.0
 10
14.3897228327
 20
13.472428798
 30
0.0
 10
14.385431166
 20
13.4714665522
 30
0.0
 10
14.3802906539
 20
13.4702997572
 30
0.0
 10
14.3734333238
 20
13.4687482568
 30
0.0
 10
14.3648627959
 20
13.4668074342
 30
0.0
 10
14.3511493171
 20
13.4637029268
 30
0.0
 10
14.3340076861
 20
13.4598220151
 30
0.0
 10
14.3134376357
 20
13.45516504
 30
0.0
 10
14.2928676102
 20
13.4505080331
 30
0.0
 10
14.2654409009
 20
13.4442987016
 30
0.0
 10
14.2311575175
 20
13.4365370332
 30
0.0
 10
14.1968741316
 20
13.4287753675
 30
0.0
 10
14.1694474263
 20
13.4225660317
 30
0.0
 10
14.1488773887
 20
13.4179090378
 30
0.0
 10
14.128307384
 20
13.4132520139
 30
0.0
 10
14.1111656106
 20
13.409371254
 30
0.0
 10
14.0974524224
 20
13.4062664369
 30
0.0
 10
14.0888811549
 20
13.4043264026
 30
0.0
 10
14.0820253428
 20
13.4027732841
 30
0.0
 10
14.0768801931
 20
13.4016114327
 30
0.0
 10
14.0726030362
 20
13.4006337196
 30
0.0
 10
14.0695884836
 20
13.3999679709
 30
0.0
 10
14.0678979579
 20
13.3995584219
 30
0.0
 10
14.0665397058
 20
13.399333295
 30
0.0
 10
14.0655268468
 20
13.3987945893
 30
0.0
 10
14.0640558912
 20
13.3981856949
 30
0.0
 10
14.0615378512
 20
13.3970691677
 30
0.0
 10
14.0579113047
 20
13.3955007723
 30
0.0
 10
14.0535720101
 20
13.3936072935
 30
0.0
 10
14.0477818966
 20
13.3910866384
 30
0.0
 10
14.0405457569
 20
13.3879344556
 30
0.0
 10
14.0289670939
 20
13.3828917255
 30
0.0
 10
14.0144940532
 20
13.3765880513
 30
0.0
 10
13.9971262808
 20
13.3690237544
 30
0.0
 10
13.9797585415
 20
13.3614594275
 30
0.0
 10
13.9566015442
 20
13.3513736688
 30
0.0
 10
13.927655302
 20
13.3387664664
 30
0.0
 10
13.8987090566
 20
13.3261592667
 30
0.0
 10
13.8755520642
 20
13.3160735038
 30
0.0
 10
13.85818431
 20
13.3085091894
 30
0.0
 10
13.8408165936
 20
13.3009448457
 30
0.0
 10
13.8263433789
 20
13.2946413168
 30
0.0
 10
13.8147650707
 20
13.2895982905
 30
0.0
 10
13.8075280281
 20
13.2864468616
 30
0.0
 10
13.801739768
 20
13.2839246591
 30
0.0
 10
13.7973948109
 20
13.2820359077
 30
0.0
 10
13.7937859811
 20
13.2804527215
 30
0.0
 10
13.7912363138
 20
13.2793625983
 30
0.0
 10
13.7898160332
 20
13.278711398
 30
0.0
 10
13.7886475167
 20
13.2783026425
 30
0.0
 10
13.7878738882
 20
13.2775894444
 30
0.0
 10
13.7867046423
 20
13.2767447066
 30
0.0
 10
13.7847226382
 20
13.2752169382
 30
0.0
 10
13.7818576516
 20
13.2730602791
 30
0.0
 10
13.7784340291
 20
13.2704612162
 30
0.0
 10
13.773864183
 20
13.2669996663
 30
0.0
 10
13.7681535929
 20
13.2626714047
 30
0.0
 10
13.7590156887
 20
13.2557469263
 30
0.0
 10
13.747593638
 20
13.2470910743
 30
0.0
 10
13.7338870358
 20
13.2367041607
 30
0.0
 10
13.7201804715
 20
13.2263172181
 30
0.0
 10
13.7019050391
 20
13.2124679714
 30
0.0
 10
13.6790607537
 20
13.1951564093
 30
0.0
 10
13.6562164645
 20
13.1778448494
 30
0.0
 10
13.6379410381
 20
13.1639955992
 30
0.0
 10
13.6242344557
 20
13.1536086671
 30
0.0
 10
13.6105279214
 20
13.1432217138
 30
0.0
 10
13.5991056596
 20
13.1345659856
 30
0.0
 10
13.5899681858
 20
13.1276412546
 30
0.0
 10
13.5842565006
 20
13.1233136358
 30
0.0
 10
13.5796889023
 20
13.1198507664
 30
0.0
 10
13.5762584124
 20
13.1172557348
 30
0.0
 10
13.5734149123
 20
13.1150864627
 30
0.0
 10
13.5713945512
 20
13.1135812107
 30
0.0
 10
13.5702867628
 20
13.112700396
 30
0.0
 10
13.5693243564
 20
13.1120980147
 30
0.0
 10
13.5688648588
 20
13.1112730497
 30
0.0
 10
13.5680767751
 20
13.1102507361
 30
0.0
 10
13.5667793602
 20
13.1084255134
 30
0.0
 10
13.5648831802
 20
13.1058369646
 30
0.0
 10
13.562626054
 20
13.102722611
 30
0.0
 10
13.5596101642
 20
13.098572967
 30
0.0
 10
13.5558424893
 20
13.0933849438
 30
0.0
 10
13.5498129869
 20
13.0850846479
 30
0.0
 10
13.5422765284
 20
13.0747090923
 30
0.0
 10
13.5332325984
 20
13.0622585051
 30
0.0
 10
13.5241887165
 20
13.0498078967
 30
0.0
 10
13.5121301904
 20
13.0332070929
 30
0.0
 10
13.4970570391
 20
13.0124560854
 30
0.0
 10
13.4819838836
 20
12.9917050796
 30
0.0
 10
13.4699253643
 20
12.9751042731
 30
0.0
 10
13.460881462
 20
12.9626536729
 30
0.0
 10
13.4518376086
 20
12.9502030547
 30
0.0
 10
13.4443009119
 20
12.9398275957
 30
0.0
 10
13.4382718951
 20
12.9315271027
 30
0.0
 10
13.4345029845
 20
12.9263395812
 30
0.0
 10
13.4314896312
 20
12.9221889075
 30
0.0
 10
13.4292247555
 20
12.9190776997
 30
0.0
 10
13.4273528219
 20
12.9164793083
 30
0.0
 10
13.426012123
 20
12.9146716563
 30
0.0
 10
13.4252933912
 20
12.9136211901
 30
0.0
 10
13.424620867
 20
12.9128827006
 30
0.0
 10
13.4244585531
 20
12.911955532
 30
0.0
 10
13.4240641675
 20
12.9107851205
 30
0.0
 10
13.4234569109
 20
12.9087062368
 30
0.0
 10
13.4225460508
 20
12.9057524343
 30
0.0
 10
13.4214715741
 20
12.9022010093
 30
0.0
 10
13.4200324576
 20
12.8974681728
 30
0.0
 10
13.418235781
 20
12.8915513064
 30
0.0
 10
13.4153598582
 20
12.8820847789
 30
0.0
 10
13.4117653803
 20
12.8702514622
 30
0.0
 10
13.4074518244
 20
12.8560515495
 30
0.0
 10
13.4031383173
 20
12.8418516188
 30
0.0
 10
13.3973869573
 20
12.8229183842
 30
0.0
 10
13.3901977638
 20
12.7992518387
 30
0.0
 10
13.383008566
 20
12.7755852945
 30
0.0
 10
13.377257213
 20
12.7566520577
 30
0.0
 10
13.372943685
 20
12.7424521335
 30
0.0
 10
13.3686302075
 20
12.7282521967
 30
0.0
 10
13.3650354855
 20
12.716418955
 30
0.0
 10
13.3621600603
 20
12.7069522746
 30
0.0
 10
13.3603621175
 20
12.7010357974
 30
0.0
 10
13.3589256001
 20
12.6963021621
 30
0.0
 10
13.3578431825
 20
12.6927531773
 30
0.0
 10
13.3569571678
 20
12.6897917398
 30
0.0
 10
13.3563055581
 20
12.6877264858
 30
0.0
 10
13.3559822372
 20
12.6865342362
 30
0.0
 10
13.3556016352
 20
12.6856741475
 30
0.0
 10
13.3557489647
 20
12.6846837171
 30
0.0
 10
13.3557612556
 20
12.6834086079
 30
0.0
 10
13.3558685629
 20
12.681155984
 30
0.0
 10
13.3559770027
 20
12.6779490244
 30
0.0
 10
13.3561263304
 20
12.6740959326
 30
0.0
 10
13.3563187279
 20
12.6689601326
 30
0.0
 10
13.3565615209
 20
12.6625398157
 30
0.0
 10
13.3569487064
 20
12.6522676255
 30
0.0
 10
13.3574331286
 20
12.639427279
 30
0.0
 10
13.3580142465
 20
12.6240189099
 30
0.0
 10
13.358595415
 20
12.6086105282
 30
0.0
 10
13.3593702885
 20
12.5880660237
 30
0.0
 10
13.360338887
 20
12.5623853915
 30
0.0
 10
13.361307481
 20
12.5367047603
 30
0.0
 10
13.3620823617
 20
12.5161602543
 30
0.0
 10
13.3626635086
 20
12.5007518772
 30
0.0
 10
13.3632447072
 20
12.4853434908
 30
0.0
 10
13.3637288783
 20
12.472503198
 30
0.0
 10
13.364116576
 20
12.4622308983
 30
0.0
 10
13.3643580655
 20
12.4558108601
 30
0.0
 10
13.3645531386
 20
12.450674488
 30
0.0
 10
13.364694292
 20
12.4468231438
 30
0.0
 10
13.3648283072
 20
12.4436107166
 30
0.0
 10
13.3648899581
 20
12.4413678534
 30
0.0
 10
13.364975402
 20
12.440077105
 30
0.0
 10
13.3648980289
 20
12.4391347134
 30
0.0
 10
13.3653613727
 20
12.4380941989
 30
0.0
 10
13.3657905563
 20
12.4367410727
 30
0.0
 10
13.3666295038
 20
12.434357155
 30
0.0
 10
13.3677820575
 20
12.4309598955
 30
0.0
 10
13.3691847868
 20
12.4268796155
 30
0.0
 10
13.3710482241
 20
12.4214404886
 30
0.0
 10
13.3733798724
 20
12.4146411532
 30
0.0
 10
13.3771091954
 20
12.4037624551
 30
0.0
 10
13.3817713001
 20
12.3901640006
 30
0.0
 10
13.3873656325
 20
12.3738458903
 30
0.0
 10
13.3929600165
 20
12.3575277706
 30
0.0
 10
13.4004191772
 20
12.335770281
 30
0.0
 10
13.4097431342
 20
12.3085734179
 30
0.0
 10
13.42093188
 20
12.2759371826
 30
0.0
 10
13.4358502087
 20
12.232422202
 30
0.0
 10
13.447038955
 20
12.1997859666
 30
0.0
 10
13.4544981192
 20
12.1780284763
 30
0.0
  0
SPLINE
  5
349
100
AcDbEntity
  8
03__ASM_ALL_CURVES
100
AcDbSpline
 62
8
  6
PHANTOM
 70
0
 71
3
 72
391
 73
387
 74
0
 42
0.0000001
 43
0.0000001
 44
0.0000000001
 40
0.0
 40
0.0
 40
0.0
 40
0.0
 40
0.015625
 40
0.0234375
 40
0.03125
 40
0.0390625
 40
0.04296875
 40
0.046875
 40
0.05078125
 40
0.0546875
 40
0.056640625
 40
0.05859375
 40
0.0595703125
 40
0.060546875
 40
0.0615234375
 40
0.0620117188
 40
0.0622558594
 40
0.0625
 40
0.0627441406
 40
0.0629882812
 40
0.0634765625
 40
0.064453125
 40
0.0654296875
 40
0.06640625
 40
0.068359375
 40
0.0703125
 40
0.07421875
 40
0.078125
 40
0.08203125
 40
0.0859375
 40
0.09375
 40
0.1015625
 40
0.10546875
 40
0.109375
 40
0.11328125
 40
0.1171875
 40
0.119140625
 40
0.12109375
 40
0.1220703125
 40
0.123046875
 40
0.1240234375
 40
0.1245117188
 40
0.1247558594
 40
0.125
 40
0.1252441406
 40
0.1254882812
 40
0.1259765625
 40
0.126953125
 40
0.1279296875
 40
0.12890625
 40
0.130859375
 40
0.1328125
 40
0.13671875
 40
0.140625
 40
0.14453125
 40
0.1484375
 40
0.15625
 40
0.1640625
 40
0.16796875
 40
0.171875
 40
0.17578125
 40
0.1796875
 40
0.181640625
 40
0.18359375
 40
0.1845703125
 40
0.185546875
 40
0.1865234375
 40
0.1870117188
 40
0.1872558594
 40
0.1875
 40
0.1877441406
 40
0.1879882812
 40
0.1884765625
 40
0.189453125
 40
0.1904296875
 40
0.19140625
 40
0.193359375
 40
0.1953125
 40
0.19921875
 40
0.203125
 40
0.20703125
 40
0.2109375
 40
0.21875
 40
0.2265625
 40
0.23046875
 40
0.234375
 40
0.23828125
 40
0.2421875
 40
0.244140625
 40
0.24609375
 40
0.2470703125
 40
0.248046875
 40
0.2490234375
 40
0.2495117188
 40
0.25
 40
0.2504882812
 40
0.2509765625
 40
0.251953125
 40
0.2529296875
 40
0.25390625
 40
0.255859375
 40
0.2578125
 40
0.26171875
 40
0.265625
 40
0.26953125
 40
0.2734375
 40
0.28125
 40
0.2890625
 40
0.29296875
 40
0.296875
 40
0.30078125
 40
0.3046875
 40
0.306640625
 40
0.30859375
 40
0.310546875
 40
0.3115234375
 40
0.3120117188
 40
0.3125
 40
0.3129882812
 40
0.3134765625
 40
0.314453125
 40
0.31640625
 40
0.318359375
 40
0.3203125
 40
0.32421875
 40
0.328125
 40
0.33203125
 40
0.3359375
 40
0.34375
 40
0.3515625
 40
0.35546875
 40
0.359375
 40
0.36328125
 40
0.3671875
 40
0.369140625
 40
0.37109375
 40
0.373046875
 40
0.3740234375
 40
0.3745117188
 40
0.375
 40
0.3754882812
 40
0.3759765625
 40
0.376953125
 40
0.37890625
 40
0.380859375
 40
0.3828125
 40
0.38671875
 40
0.390625
 40
0.39453125
 40
0.3984375
 40
0.40625
 40
0.4140625
 40
0.41796875
 40
0.421875
 40
0.42578125
 40
0.4296875
 40
0.431640625
 40
0.43359375
 40
0.4345703125
 40
0.435546875
 40
0.4365234375
 40
0.4370117188
 40
0.4375
 40
0.4379882812
 40
0.4384765625
 40
0.439453125
 40
0.4404296875
 40
0.44140625
 40
0.443359375
 40
0.4453125
 40
0.44921875
 40
0.453125
 40
0.45703125
 40
0.4609375
 40
0.46875
 40
0.4765625
 40
0.48046875
 40
0.484375
 40
0.48828125
 40
0.4921875
 40
0.494140625
 40
0.49609375
 40
0.4970703125
 40
0.498046875
 40
0.4990234375
 40
0.4995117188
 40
0.4997558594
 40
0.5
 40
0.5002441406
 40
0.5004882812
 40
0.5009765625
 40
0.501953125
 40
0.5029296875
 40
0.50390625
 40
0.505859375
 40
0.5078125
 40
0.51171875
 40
0.515625
 40
0.51953125
 40
0.5234375
 40
0.53125
 40
0.5390625
 40
0.54296875
 40
0.546875
 40
0.55078125
 40
0.5546875
 40
0.556640625
 40
0.55859375
 40
0.5595703125
 40
0.560546875
 40
0.5615234375
 40
0.5620117188
 40
0.5622558594
 40
0.5625
 40
0.5627441406
 40
0.5629882812
 40
0.5634765625
 40
0.564453125
 40
0.5654296875
 40
0.56640625
 40
0.568359375
 40
0.5703125
 40
0.57421875
 40
0.578125
 40
0.58203125
 40
0.5859375
 40
0.59375
 40
0.6015625
 40
0.60546875
 40
0.609375
 40
0.61328125
 40
0.6171875
 40
0.619140625
 40
0.62109375
 40
0.6220703125
 40
0.623046875
 40
0.6240234375
 40
0.6245117188
 40
0.6247558594
 40
0.625
 40
0.6252441406
 40
0.6254882812
 40
0.6259765625
 40
0.626953125
 40
0.6279296875
 40
0.62890625
 40
0.630859375
 40
0.6328125
 40
0.63671875
 40
0.640625
 40
0.64453125
 40
0.6484375
 40
0.65625
 40
0.6640625
 40
0.66796875
 40
0.671875
 40
0.67578125
 40
0.6796875
 40
0.681640625
 40
0.68359375
 40
0.6845703125
 40
0.685546875
 40
0.6865234375
 40
0.6870117188
 40
0.6872558594
 40
0.6875
 40
0.6877441406
 40
0.6879882812
 40
0.6884765625
 40
0.689453125
 40
0.6904296875
 40
0.69140625
 40
0.693359375
 40
0.6953125
 40
0.69921875
 40
0.703125
 40
0.70703125
 40
0.7109375
 40
0.71875
 40
0.7265625
 40
0.73046875
 40
0.734375
 40
0.73828125
 40
0.7421875
 40
0.744140625
 40
0.74609375
 40
0.7470703125
 40
0.748046875
 40
0.7490234375
 40
0.7495117188
 40
0.7497558594
 40
0.75
 40
0.7502441406
 40
0.7504882812
 40
0.7509765625
 40
0.751953125
 40
0.7529296875
 40
0.75390625
 40
0.755859375
 40
0.7578125
 40
0.76171875
 40
0.765625
 40
0.76953125
 40
0.7734375
 40
0.78125
 40
0.7890625
 40
0.79296875
 40
0.796875
 40
0.80078125
 40
0.8046875
 40
0.806640625
 40
0.80859375
 40
0.8095703125
 40
0.810546875
 40
0.8115234375
 40
0.8120117188
 40
0.8122558594
 40
0.8125
 40
0.8127441406
 40
0.8129882812
 40
0.8134765625
 40
0.814453125
 40
0.8154296875
 40
0.81640625
 40
0.818359375
 40
0.8203125
 40
0.82421875
 40
0.828125
 40
0.83203125
 40
0.8359375
 40
0.84375
 40
0.8515625
 40
0.85546875
 40
0.859375
 40
0.86328125
 40
0.8671875
 40
0.869140625
 40
0.87109375
 40
0.8720703125
 40
0.873046875
 40
0.8740234375
 40
0.8745117188
 40
0.8747558594
 40
0.875
 40
0.8752441406
 40
0.8754882812
 40
0.8759765625
 40
0.876953125
 40
0.8779296875
 40
0.87890625
 40
0.880859375
 40
0.8828125
 40
0.88671875
 40
0.890625
 40
0.89453125
 40
0.8984375
 40
0.90625
 40
0.9140625
 40
0.91796875
 40
0.921875
 40
0.92578125
 40
0.9296875
 40
0.931640625
 40
0.93359375
 40
0.9345703125
 40
0.935546875
 40
0.9365234375
 40
0.9370117188
 40
0.9372558594
 40
0.9375
 40
0.9377441406
 40
0.9379882812
 40
0.9384765625
 40
0.939453125
 40
0.9404296875
 40
0.94140625
 40
0.943359375
 40
0.9453125
 40
0.94921875
 40
0.953125
 40
0.95703125
 40
0.9609375
 40
0.96875
 40
0.9765625
 40
0.984375
 40
1.0
 40
1.0
 40
1.0
 40
1.0
 10
13.4544980625
 20
12.1780285918
 30
0.0
 10
13.4680964816
 20
12.1566479027
 30
0.0
 10
13.4884941104
 20
12.1245768691
 30
0.0
 10
13.5156909484
 20
12.0818154909
 30
0.0
 10
13.5360885776
 20
12.0497444574
 30
0.0
 10
13.5530865999
 20
12.0230185958
 30
0.0
 10
13.5666850221
 20
12.0016379072
 30
0.0
 10
13.5768838272
 20
11.9856023891
 30
0.0
 10
13.5870826763
 20
11.9695668772
 30
0.0
 10
13.59558158
 20
11.9562039311
 30
0.0
 10
13.6023810103
 20
11.9455136181
 30
0.0
 10
13.6066299544
 20
11.9388320724
 30
0.0
 10
13.6100307125
 20
11.9334870651
 30
0.0
 10
13.6125768924
 20
11.929477682
 30
0.0
 10
13.6147126702
 20
11.9261385259
 30
0.0
 10
13.6161803162
 20
11.9237971985
 30
0.0
 10
13.6170617514
 20
11.9224654151
 30
0.0
 10
13.617602315
 20
11.9214493431
 30
0.0
 10
13.6186035395
 20
11.9204991497
 30
0.0
 10
13.6197778219
 20
11.919209246
 30
0.0
 10
13.6219076815
 20
11.9169626209
 30
0.0
 10
13.6249111975
 20
11.9137475591
 30
0.0
 10
13.6285321702
 20
11.9098918808
 30
0.0
 10
13.6333542821
 20
11.9047501395
 30
0.0
 10
13.6393839257
 20
11.8983232495
 30
0.0
 10
13.6490302355
 20
11.8880400653
 30
0.0
 10
13.661088507
 20
11.8751861399
 30
0.0
 10
13.6755582681
 20
11.859761406
 30
0.0
 10
13.6900280733
 20
11.8443366784
 30
0.0
 10
13.7093211315
 20
11.8237703727
 30
0.0
 10
13.7334374599
 20
11.7980624914
 30
0.0
 10
13.7575537846
 20
11.7723546093
 30
0.0
 10
13.7768468486
 20
11.7517883049
 30
0.0
 10
13.7913166364
 20
11.7363635734
 30
0.0
 10
13.8057864626
 20
11.7209388542
 30
0.0
 10
13.8178445316
 20
11.708084883
 30
0.0
 10
13.8274912545
 20
11.6978017923
 30
0.0
 10
13.8335198468
 20
11.6913746643
 30
0.0
 10
13.8383441166
 20
11.6862334116
 30
0.0
 10
13.8419584966
 20
11.6823762407
 30
0.0
 10
13.8449826395
 20
11.6791658487
 30
0.0
 10
13.8470756767
 20
11.6769108871
 30
0.0
 10
13.8483089577
 20
11.6756343406
 30
0.0
 10
13.8491289573
 20
11.6746431183
 30
0.0
 10
13.8503501717
 20
11.6737811439
 30
0.0
 10
13.8518385093
 20
11.6725867615
 30
0.0
 10
13.8545083046
 20
11.6705175975
 30
0.0
 10
13.8582882083
 20
11.6675506672
 30
0.0
 10
13.8628386841
 20
11.6639950514
 30
0.0
 10
13.8689008888
 20
11.6592525884
 30
0.0
 10
13.8764803896
 20
11.6533250719
 30
0.0
 10
13.8886066156
 20
11.6438407313
 30
0.0
 10
13.9037647328
 20
11.6319854134
 30
0.0
 10
13.9219543299
 20
11.6177589857
 30
0.0
 10
13.9401439655
 20
11.6035325703
 30
0.0
 10
13.9643967994
 20
11.5845640122
 30
0.0
 10
13.9947128469
 20
11.5608533161
 30
0.0
 10
14.0250288911
 20
11.5371426188
 30
0.0
 10
14.0492817302
 20
11.5181740627
 30
0.0
 10
14.0674713502
 20
11.5039476414
 30
0.0
 10
14.0856610056
 20
11.4897212359
 30
0.0
 10
14.1008189416
 20
11.4778658487
 30
0.0
 10
14.1129455371
 20
11.4683816494
 30
0.0
 10
14.1205240975
 20
11.4624537732
 30
0.0
 10
14.1265882326
 20
11.4577120487
 30
0.0
 10
14.1311328107
 20
11.4541541769
 30
0.0
 10
14.1349311667
 20
11.4511943049
 30
0.0
 10
14.1375680215
 20
11.4491125406
 30
0.0
 10
14.1391091381
 20
11.447938347
 30
0.0
 10
14.1401682325
 20
11.4470143593
 30
0.0
 10
14.1415971277
 20
11.4462560486
 30
0.0
 10
14.1433733305
 20
11.4451871777
 30
0.0
 10
14.1465417847
 20
11.4433435789
 30
0.0
 10
14.1510367273
 20
11.4406957896
 30
0.0
 10
14.1564441074
 20
11.4375244677
 30
0.0
 10
14.1636492501
 20
11.433293934
 30
0.0
 10
14.1726572869
 20
11.4280064875
 30
0.0
 10
14.1870692468
 20
11.4195461704
 30
0.0
 10
14.2050845052
 20
11.4089709121
 30
0.0
 10
14.2267026829
 20
11.396280543
 30
0.0
 10
14.2483208961
 20
11.3835901897
 30
0.0
 10
14.277145168
 20
11.3666697132
 30
0.0
 10
14.3131755115
 20
11.3455191187
 30
0.0
 10
14.3492058559
 20
11.3243685266
 30
0.0
 10
14.3780301265
 20
11.3074480462
 30
0.0
 10
14.3996483435
 20
11.2947577046
 30
0.0
 10
14.4212665067
 20
11.2820672914
 30
0.0
 10
14.4392818104
 20
11.2714921704
 30
0.0
 10
14.4536936778
 20
11.2630315733
 30
0.0
 10
14.4627019499
 20
11.2577448391
 30
0.0
 10
14.4699066096
 20
11.2535128433
 30
0.0
 10
14.4753154654
 20
11.2503459886
 30
0.0
 10
14.4798057909
 20
11.2476842224
 30
0.0
 10
14.4834363012
 20
11.2456057679
 30
0.0
 10
14.4860546668
 20
11.243907684
 30
0.0
 10
14.4890719761
 20
11.2427410932
 30
0.0
 10
14.492955699
 20
11.2409999813
 30
0.0
 10
14.4978581651
 20
11.2388872896
 30
0.0
 10
14.5037206591
 20
11.2363247948
 30
0.0
 10
14.5115444658
 20
11.232917658
 30
0.0
 10
14.5213217768
 20
11.2286554763
 30
0.0
 10
14.5369668422
 20
11.221837808
 30
0.0
 10
14.5565227046
 20
11.2133150973
 30
0.0
 10
14.5799899407
 20
11.2030881125
 30
0.0
 10
14.6034571229
 20
11.1928610561
 30
0.0
 10
14.6347467179
 20
11.1792250055
 30
0.0
 10
14.6738587068
 20
11.1621799369
 30
0.0
 10
14.7129706918
 20
11.145134859
 30
0.0
 10
14.7442602929
 20
11.1314988232
 30
0.0
 10
14.7677274567
 20
11.1212717225
 30
0.0
 10
14.7911947618
 20
11.1110449037
 30
0.0
 10
14.8107504095
 20
11.1025216768
 30
0.0
 10
14.8263959129
 20
11.0957050612
 30
0.0
 10
14.8381273485
 20
11.0905872286
 30
0.0
 10
14.8479121074
 20
11.0863394519
 30
0.0
 10
14.854744635
 20
11.0833324819
 30
0.0
 10
14.8586751739
 20
11.0816665618
 30
0.0
 10
14.861549167
 20
11.0802696555
 30
0.0
 10
14.8647056855
 20
11.0794364399
 30
0.0
 10
14.8688158287
 20
11.0781288641
 30
0.0
 10
14.8760544947
 20
11.0759322162
 30
0.0
 10
14.8863714411
 20
11.0727462532
 30
0.0
 10
14.8987620518
 20
11.0689435981
 30
0.0
 10
14.9152792768
 20
11.0638662301
 30
0.0
 10
14.9359270396
 20
11.0575219775
 30
0.0
 10
14.9607038271
 20
11.049907821
 30
0.0
 10
14.9854807558
 20
11.0422939463
 30
0.0
 10
15.0185166114
 20
11.0321420145
 30
0.0
 10
15.0598114483
 20
11.0194521372
 30
0.0
 10
15.1011062773
 20
11.0067622338
 30
0.0
 10
15.1341421455
 20
10.9966103437
 30
0.0
 10
15.1589190362
 20
10.9889963438
 30
0.0
 10
15.1836959664
 20
10.9813826571
 30
0.0
 10
15.2043432853
 20
10.9750369428
 30
0.0
 10
15.2208614157
 20
10.9699625555
 30
0.0
 10
15.2332492613
 20
10.9661507981
 30
0.0
 10
15.2435748586
 20
10.9629933133
 30
0.0
 10
15.2507980814
 20
10.9607458269
 30
0.0
 10
15.2549329686
 20
10.9595197072
 30
0.0
 10
15.2580134816
 20
10.9584362848
 30
0.0
 10
15.2611729385
 20
10.9579791137
 30
0.0
 10
15.2653580111
 20
10.9571511087
 30
0.0
 10
15.2726947181
 20
10.9558038769
 30
0.0
 10
15.2831690204
 20
10.9538260498
 30
0.0
 10
15.2957410544
 20
10.9514754332
 30
0.0
 10
15.3125027633
 20
10.9483333217
 30
0.0
 10
15.3334552437
 20
10.9444084124
 30
0.0
 10
15.3585980726
 20
10.939697351
 30
0.0
 10
15.383740941
 20
10.9349866026
 30
0.0
 10
15.4172647517
 20
10.9287054955
 30
0.0
 10
15.4591695199
 20
10.9208541483
 30
0.0
 10
15.5010742861
 20
10.9130027912
 30
0.0
 10
15.5345981
 20
10.9067216998
 30
0.0
 10
15.559740959
 20
10.9020109044
 30
0.0
 10
15.5848838229
 20
10.8973000193
 30
0.0
 10
15.6058361945
 20
10.8933745613
 30
0.0
 10
15.6225981252
 20
10.8902335689
 30
0.0
 10
15.6330742559
 20
10.8882718737
 30
0.0
 10
15.6414553345
 20
10.8866992538
 30
0.0
 10
15.6477406667
 20
10.8855287252
 30
0.0
 10
15.6529799605
 20
10.884524857
 30
0.0
 10
15.6571679931
 20
10.8837855207
 30
0.0
 10
15.6603183146
 20
10.8830568003
 30
0.0
 10
15.6634331494
 20
10.8829930734
 30
0.0
 10
15.6675986584
 20
10.8826758134
 30
0.0
 10
15.6728012918
 20
10.8823589361
 30
0.0
 10
15.6790462722
 20
10.8819445702
 30
0.0
 10
15.6873722769
 20
10.8814039974
 30
0.0
 10
15.6977800005
 20
10.8807242016
 30
0.0
 10
15.7144322365
 20
10.8796388085
 30
0.0
 10
15.7352475733
 20
10.8782812848
 30
0.0
 10
15.7602259596
 20
10.8766525917
 30
0.0
 10
15.7852043507
 20
10.8750238089
 30
0.0
 10
15.8185088705
 20
10.8728521297
 30
0.0
 10
15.8601395206
 20
10.8701375204
 30
0.0
 10
15.9017701714
 20
10.8674229135
 30
0.0
 10
15.9350746901
 20
10.8652512304
 30
0.0
 10
15.9600530845
 20
10.8636224595
 30
0.0
 10
15.9850314584
 20
10.8619937217
 30
0.0
 10
16.0058468339
 20
10.8606363372
 30
0.0
 10
16.0224989911
 20
10.8595506601
 30
0.0
 10
16.0329069153
 20
10.8588715873
 30
0.0
 10
16.0412325081
 20
10.8583295304
 30
0.0
 10
16.0474787471
 20
10.8579196984
 30
0.0
 10
16.0526774426
 20
10.8575886356
 30
0.0
 10
16.0563292926
 20
10.8573363567
 30
0.0
 10
16.0583961355
 20
10.8572242608
 30
0.0
 10
16.0600024069
 20
10.8570498657
 30
0.0
 10
16.0613940854
 20
10.8572207316
 30
0.0
 10
16.0633245092
 20
10.8573281218
 30
0.0
 10
16.0666678757
 20
10.8575721658
 30
0.0
 10
16.0714623467
 20
10.8578914645
 30
0.0
 10
16.0772079075
 20
10.8582871796
 30
0.0
 10
16.0848713811
 20
10.8588104138
 30
0.0
 10
16.0944497898
 20
10.8594659584
 30
0.0
 10
16.1097757654
 20
10.8605139903
 30
0.0
 10
16.1289330559
 20
10.8618243183
 30
0.0
 10
16.1519218812
 20
10.8633965884
 30
0.0
 10
16.1749106859
 20
10.8649688915
 30
0.0
 10
16.2055624328
 20
10.8670652841
 30
0.0
 10
16.2438771137
 20
10.8696857791
 30
0.0
 10
16.2821917966
 20
10.8723062713
 30
0.0
 10
16.3128435403
 20
10.8744026685
 30
0.0
 10
16.3358323547
 20
10.8759749579
 30
0.0
 10
16.358821144
 20
10.8775472792
 30
0.0
 10
16.3779785463
 20
10.8788574479
 30
0.0
 10
16.393304294
 20
10.8799058048
 30
0.0
 10
16.4028832826
 20
10.8805605223
 30
0.0
 10
16.4105455658
 20
10.8810854541
 30
0.0
 10
16.4162947636
 20
10.8814759832
 30
0.0
 10
16.4210778552
 20
10.8818115075
 30
0.0
 10
16.4244415358
 20
10.8820265861
 30
0.0
 10
16.4263394113
 20
10.8821803861
 30
0.0
 10
16.4278310678
 20
10.8822086961
 30
0.0
 10
16.4290618388
 20
10.8825697171
 30
0.0
 10
16.4307938666
 20
10.8829350251
 30
0.0
 10
16.4337825168
 20
10.8836283856
 30
0.0
 10
16.4380741835
 20
10.8845906314
 30
0.0
 10
16.4432146957
 20
10.8857574264
 30
0.0
 10
16.4500720258
 20
10.8873089268
 30
0.0
 10
16.4586425537
 20
10.8892497494
 30
0.0
 10
16.4723560325
 20
10.8923542567
 30
0.0
 10
16.4894976635
 20
10.8962351685
 30
0.0
 10
16.5100677139
 20
10.9008921436
 30
0.0
 10
16.5306377393
 20
10.9055491505
 30
0.0
 10
16.5580644487
 20
10.9117584819
 30
0.0
 10
16.592347832
 20
10.9195201504
 30
0.0
 10
16.6266312179
 20
10.9272818161
 30
0.0
 10
16.6540579232
 20
10.9334911519
 30
0.0
 10
16.6746279609
 20
10.9381481458
 30
0.0
 10
16.6951979655
 20
10.9428051697
 30
0.0
 10
16.712339739
 20
10.9466859295
 30
0.0
 10
16.7260529272
 20
10.9497907466
 30
0.0
 10
16.7346241946
 20
10.9517307809
 30
0.0
 10
16.7414800068
 20
10.9532838995
 30
0.0
 10
16.7466251564
 20
10.9544457509
 30
0.0
 10
16.7509023134
 20
10.955423464
 30
0.0
 10
16.7539168659
 20
10.9560892127
 30
0.0
 10
16.7556073917
 20
10.9564987617
 30
0.0
 10
16.7569656437
 20
10.9567238886
 30
0.0
 10
16.7579785028
 20
10.9572625942
 30
0.0
 10
16.7594494584
 20
10.9578714886
 30
0.0
 10
16.7619674983
 20
10.9589880159
 30
0.0
 10
16.7655940449
 20
10.9605564113
 30
0.0
 10
16.7699333395
 20
10.9624498901
 30
0.0
 10
16.775723453
 20
10.9649705452
 30
0.0
 10
16.7829595927
 20
10.9681227279
 30
0.0
 10
16.7945382557
 20
10.973165458
 30
0.0
 10
16.8090112964
 20
10.9794691322
 30
0.0
 10
16.8263790687
 20
10.9870334292
 30
0.0
 10
16.843746808
 20
10.9945977561
 30
0.0
 10
16.8669038054
 20
11.0046835148
 30
0.0
 10
16.8958500476
 20
11.0172907171
 30
0.0
 10
16.924796293
 20
11.0298979169
 30
0.0
 10
16.9479532853
 20
11.0399836797
 30
0.0
 10
16.9653210395
 20
11.0475479942
 30
0.0
 10
16.9826887559
 20
11.0551123378
 30
0.0
 10
16.9971619706
 20
11.0614158668
 30
0.0
 10
17.0087402789
 20
11.0664588931
 30
0.0
 10
17.0159773215
 20
11.069610322
 30
0.0
 10
17.0217655815
 20
11.0721325245
 30
0.0
 10
17.0261105387
 20
11.0740212759
 30
0.0
 10
17.0297193685
 20
11.0756044621
 30
0.0
 10
17.0322690358
 20
11.0766945853
 30
0.0
 10
17.0336893164
 20
11.0773457856
 30
0.0
 10
17.0348578329
 20
11.0777545411
 30
0.0
 10
17.0356314613
 20
11.0784677392
 30
0.0
 10
17.0368007073
 20
11.079312477
 30
0.0
 10
17.0387827114
 20
11.0808402454
 30
0.0
 10
17.0416476979
 20
11.0829969044
 30
0.0
 10
17.0450713204
 20
11.0855959673
 30
0.0
 10
17.0496411666
 20
11.0890575173
 30
0.0
 10
17.0553517567
 20
11.0933857788
 30
0.0
 10
17.0644896608
 20
11.1003102573
 30
0.0
 10
17.0759117116
 20
11.1089661093
 30
0.0
 10
17.0896183137
 20
11.1193530228
 30
0.0
 10
17.1033248781
 20
11.1297399655
 30
0.0
 10
17.1216003105
 20
11.1435892122
 30
0.0
 10
17.1444445959
 20
11.1609007743
 30
0.0
 10
17.1672888851
 20
11.1782123342
 30
0.0
 10
17.1855643114
 20
11.1920615844
 30
0.0
 10
17.1992708939
 20
11.2024485165
 30
0.0
 10
17.2129774282
 20
11.2128354698
 30
0.0
 10
17.22439969
 20
11.221491198
 30
0.0
 10
17.2335371638
 20
11.228415929
 30
0.0
 10
17.239248849
 20
11.2327435477
 30
0.0
 10
17.2438164473
 20
11.2362064172
 30
0.0
 10
17.2472469372
 20
11.2388014487
 30
0.0
 10
17.2500904373
 20
11.2409707208
 30
0.0
 10
17.2521107984
 20
11.2424759729
 30
0.0
 10
17.2532185868
 20
11.2433567876
 30
0.0
 10
17.2541809932
 20
11.2439591689
 30
0.0
 10
17.2546404908
 20
11.2447841339
 30
0.0
 10
17.2554285745
 20
11.2458064475
 30
0.0
 10
17.2567259894
 20
11.2476316701
 30
0.0
 10
17.2586221694
 20
11.250220219
 30
0.0
 10
17.2608792955
 20
11.2533345726
 30
0.0
 10
17.2638951854
 20
11.2574842166
 30
0.0
 10
17.2676628603
 20
11.2626722397
 30
0.0
 10
17.2736923627
 20
11.2709725357
 30
0.0
 10
17.2812288212
 20
11.2813480913
 30
0.0
 10
17.2902727512
 20
11.2937986785
 30
0.0
 10
17.2993166331
 20
11.3062492869
 30
0.0
 10
17.3113751592
 20
11.3228500907
 30
0.0
 10
17.3264483104
 20
11.3436010982
 30
0.0
 10
17.3415214659
 20
11.364352104
 30
0.0
 10
17.3535799852
 20
11.3809529105
 30
0.0
 10
17.3626238875
 20
11.3934035107
 30
0.0
 10
17.371667741
 20
11.4058541289
 30
0.0
 10
17.3792044376
 20
11.4162295878
 30
0.0
 10
17.3852334544
 20
11.4245300809
 30
0.0
 10
17.3890023651
 20
11.4297176024
 30
0.0
 10
17.3920157184
 20
11.4338682761
 30
0.0
 10
17.3942805941
 20
11.4369794839
 30
0.0
 10
17.3961525276
 20
11.4395778752
 30
0.0
 10
17.3974932265
 20
11.4413855273
 30
0.0
 10
17.3982119584
 20
11.4424359934
 30
0.0
 10
17.3988844826
 20
11.443174483
 30
0.0
 10
17.3990467965
 20
11.4441016516
 30
0.0
 10
17.3994411821
 20
11.445272063
 30
0.0
 10
17.4000484387
 20
11.4473509467
 30
0.0
 10
17.4009592988
 20
11.4503047493
 30
0.0
 10
17.4020337754
 20
11.4538561743
 30
0.0
 10
17.403472892
 20
11.4585890108
 30
0.0
 10
17.4052695686
 20
11.4645058772
 30
0.0
 10
17.4081454914
 20
11.4739724047
 30
0.0
 10
17.4117399693
 20
11.4858057214
 30
0.0
 10
17.4160535252
 20
11.500005634
 30
0.0
 10
17.4203670323
 20
11.5142055647
 30
0.0
 10
17.4261183923
 20
11.5331387993
 30
0.0
 10
17.4333075858
 20
11.5568053449
 30
0.0
 10
17.4404967836
 20
11.5804718891
 30
0.0
 10
17.4462481366
 20
11.5994051258
 30
0.0
 10
17.4505616646
 20
11.6136050501
 30
0.0
 10
17.4548751421
 20
11.6278049868
 30
0.0
 10
17.458469864
 20
11.6396382286
 30
0.0
 10
17.4613452893
 20
11.649104909
 30
0.0
 10
17.4631432321
 20
11.6550213862
 30
0.0
 10
17.4645797495
 20
11.6597550215
 30
0.0
 10
17.465662167
 20
11.6633040062
 30
0.0
 10
17.4665481818
 20
11.6662654437
 30
0.0
 10
17.4671997915
 20
11.6683306977
 30
0.0
 10
17.4675231124
 20
11.6695229474
 30
0.0
 10
17.4679037143
 20
11.6703830361
 30
0.0
 10
17.4677563848
 20
11.6713734665
 30
0.0
 10
17.4677440939
 20
11.6726485757
 30
0.0
 10
17.4676367867
 20
11.6749011996
 30
0.0
 10
17.4675283468
 20
11.6781081592
 30
0.0
 10
17.4673790192
 20
11.6819612509
 30
0.0
 10
17.4671866217
 20
11.6870970509
 30
0.0
 10
17.4669438287
 20
11.6935173678
 30
0.0
 10
17.4665566432
 20
11.7037895581
 30
0.0
 10
17.4660722209
 20
11.7166299045
 30
0.0
 10
17.465491103
 20
11.7320382737
 30
0.0
 10
17.4649099346
 20
11.7474466553
 30
0.0
 10
17.4641350611
 20
11.7679911598
 30
0.0
 10
17.4631664626
 20
11.793671792
 30
0.0
 10
17.4621978685
 20
11.8193524233
 30
0.0
 10
17.4614229879
 20
11.8398969293
 30
0.0
 10
17.460841841
 20
11.8553053064
 30
0.0
 10
17.4602606423
 20
11.8707136928
 30
0.0
 10
17.4597764713
 20
11.8835539856
 30
0.0
 10
17.4593887736
 20
11.8938262853
 30
0.0
 10
17.459147284
 20
11.9002463235
 30
0.0
 10
17.458952211
 20
11.9053826955
 30
0.0
 10
17.4588110576
 20
11.9092340397
 30
0.0
 10
17.4586770423
 20
11.912446467
 30
0.0
 10
17.4586153915
 20
11.9146893301
 30
0.0
 10
17.4585299476
 20
11.9159800786
 30
0.0
 10
17.4586073207
 20
11.9169224702
 30
0.0
 10
17.4581439769
 20
11.9179629846
 30
0.0
 10
17.4577147932
 20
11.9193161109
 30
0.0
 10
17.4568758458
 20
11.9217000285
 30
0.0
 10
17.4557232921
 20
11.9250972881
 30
0.0
 10
17.4543205628
 20
11.9291775681
 30
0.0
 10
17.4524571255
 20
11.934616695
 30
0.0
 10
17.4501254771
 20
11.9414160304
 30
0.0
 10
17.4463961542
 20
11.9522947285
 30
0.0
 10
17.4417340495
 20
11.9658931829
 30
0.0
 10
17.4361397171
 20
11.9822112932
 30
0.0
 10
17.4305453331
 20
11.9985294129
 30
0.0
 10
17.4230861724
 20
12.0202869025
 30
0.0
 10
17.4137622154
 20
12.0474837657
 30
0.0
 10
17.4025734696
 20
12.080120001
 30
0.0
 10
17.3876551409
 20
12.1236349816
 30
0.0
 10
17.3764663946
 20
12.156271217
 30
0.0
 10
17.3690072304
 20
12.1780287073
 30
0.0
  0
SPLINE
  5
34A
100
AcDbEntity
  8
03__ASM_ALL_CURVES
100
AcDbSpline
 62
8
  6
PHANTOM
 70
0
 71
3
 72
140
 73
136
 74
0
 42
0.0000001
 43
0.0000001
 44
0.0000000001
 40
0.0
 40
0.0
 40
0.0
 40
0.0
 40
0.015625
 40
0.03125
 40
0.046875
 40
0.0546875
 40
0.05859375
 40
0.0625
 40
0.06640625
 40
0.0703125
 40
0.078125
 40
0.09375
 40
0.109375
 40
0.1171875
 40
0.12109375
 40
0.125
 40
0.12890625
 40
0.1328125
 40
0.140625
 40
0.15625
 40
0.171875
 40
0.1796875
 40
0.18359375
 40
0.1875
 40
0.19140625
 40
0.1953125
 40
0.203125
 40
0.21875
 40
0.234375
 40
0.2421875
 40
0.24609375
 40
0.25
 40
0.25390625
 40
0.2578125
 40
0.265625
 40
0.28125
 40
0.296875
 40
0.3046875
 40
0.30859375
 40
0.3125
 40
0.31640625
 40
0.3203125
 40
0.328125
 40
0.34375
 40
0.359375
 40
0.3671875
 40
0.37109375
 40
0.375
 40
0.37890625
 40
0.3828125
 40
0.390625
 40
0.40625
 40
0.421875
 40
0.4296875
 40
0.43359375
 40
0.4375
 40
0.44140625
 40
0.4453125
 40
0.453125
 40
0.46875
 40
0.484375
 40
0.4921875
 40
0.49609375
 40
0.5
 40
0.50390625
 40
0.5078125
 40
0.515625
 40
0.53125
 40
0.546875
 40
0.5546875
 40
0.55859375
 40
0.5625
 40
0.56640625
 40
0.5703125
 40
0.578125
 40
0.59375
 40
0.609375
 40
0.6171875
 40
0.62109375
 40
0.625
 40
0.62890625
 40
0.6328125
 40
0.640625
 40
0.65625
 40
0.671875
 40
0.6796875
 40
0.68359375
 40
0.6875
 40
0.69140625
 40
0.6953125
 40
0.703125
 40
0.71875
 40
0.734375
 40
0.7421875
 40
0.74609375
 40
0.748046875
 40
0.75
 40
0.751953125
 40
0.75390625
 40
0.7578125
 40
0.765625
 40
0.78125
 40
0.796875
 40
0.8046875
 40
0.80859375
 40
0.810546875
 40
0.8125
 40
0.814453125
 40
0.81640625
 40
0.8203125
 40
0.828125
 40
0.84375
 40
0.859375
 40
0.8671875
 40
0.87109375
 40
0.873046875
 40
0.875
 40
0.876953125
 40
0.87890625
 40
0.8828125
 40
0.890625
 40
0.90625
 40
0.921875
 40
0.9296875
 40
0.93359375
 40
0.935546875
 40
0.9375
 40
0.939453125
 40
0.94140625
 40
0.9453125
 40
0.953125
 40
0.9609375
 40
0.96875
 40
0.984375
 40
1.0
 40
1.0
 40
1.0
 40
1.0
 10
13.6876819943
 20
12.9744663636
 30
0.0
 10
13.6887458707
 20
12.9727936391
 30
0.0
 10
13.690874629
 20
12.969448334
 30
0.0
 10
13.6940617323
 20
12.9644295132
 30
0.0
 10
13.6967352516
 20
12.9602496796
 30
0.0
 10
13.6985723952
 20
12.957318888
 30
0.0
 10
13.6996757457
 20
12.9556518087
 30
0.0
 10
13.7003524019
 20
12.954379925
 30
0.0
 10
13.7016057079
 20
12.9531905091
 30
0.0
 10
13.7030755909
 20
12.9515758398
 30
0.0
 10
13.7057421234
 20
12.9487637362
 30
0.0
 10
13.709498178
 20
12.9447380821
 30
0.0
 10
13.7132878431
 20
12.9407200375
 30
0.0
 10
13.7159073208
 20
12.9378972806
 30
0.0
 10
13.7174511471
 20
12.936299352
 30
0.0
 10
13.7184775819
 20
12.9350585727
 30
0.0
 10
13.7200062653
 20
12.9339795873
 30
0.0
 10
13.7218692742
 20
12.9324844844
 30
0.0
 10
13.7252116437
 20
12.9298945617
 30
0.0
 10
13.7299398433
 20
12.9261791741
 30
0.0
 10
13.7346981105
 20
12.9224752879
 30
0.0
 10
13.7379983854
 20
12.9198692634
 30
0.0
 10
13.7399275429
 20
12.9183994633
 30
0.0
 10
13.7412532704
 20
12.9172428439
 30
0.0
 10
13.7430419174
 20
12.9162936236
 30
0.0
 10
13.7452652835
 20
12.914955621
 30
0.0
 10
13.7492316705
 20
12.9126481627
 30
0.0
 10
13.7548564374
 20
12.9093313758
 30
0.0
 10
13.7605034028
 20
12.9060314109
 30
0.0
 10
13.764438712
 20
12.9037004017
 30
0.0
 10
13.7667109147
 20
12.9023994078
 30
0.0
 10
13.768349722
 20
12.9013366379
 30
0.0
 10
13.7702381807
 20
12.9006064601
 30
0.0
 10
13.7726690269
 20
12.8995168433
 30
0.0
 10
13.7769637652
 20
12.89766443
 30
0.0
 10
13.7830763757
 20
12.8949868747
 30
0.0
 10
13.7892022724
 20
12.8923306718
 30
0.0
 10
13.7934784101
 20
12.8904483652
 30
0.0
 10
13.7959384857
 20
12.8894057236
 30
0.0
 10
13.7977372629
 20
12.8885314172
 30
0.0
 10
13.7997128741
 20
12.8880099303
 30
0.0
 10
13.8022853355
 20
12.8871915086
 30
0.0
 10
13.806815936
 20
12.8858170141
 30
0.0
 10
13.8132727495
 20
12.8838201531
 30
0.0
 10
13.8197366111
 20
12.8818464944
 30
0.0
 10
13.8242573442
 20
12.8804395166
 30
0.0
 10
13.8268453116
 20
12.87967214
 30
0.0
 10
13.8287733475
 20
12.8789940373
 30
0.0
 10
13.8307507962
 20
12.8787079105
 30
0.0
 10
13.8333701608
 20
12.8781896416
 30
0.0
 10
13.8379620583
 20
12.8773468035
 30
0.0
 10
13.8445178859
 20
12.8761059162
 30
0.0
 10
13.851074561
 20
12.8748902036
 30
0.0
 10
13.855665272
 20
12.8740121208
 30
0.0
 10
13.858286501
 20
12.8735492365
 30
0.0
 10
13.8602582295
 20
12.8730931798
 30
0.0
 10
13.8622077479
 20
12.8730532582
 30
0.0
 10
13.8648148787
 20
12.8728548343
 30
0.0
 10
13.8693734771
 20
12.8725756682
 30
0.0
 10
13.8758898734
 20
12.8721378354
 30
0.0
 10
13.8823972094
 20
12.8717264307
 30
0.0
 10
13.8869684923
 20
12.8714102653
 30
0.0
 10
13.8895556904
 20
12.871269983
 30
0.0
 10
13.8915663661
 20
12.8710516725
 30
0.0
 10
13.8933084146
 20
12.8712655653
 30
0.0
 10
13.8957248782
 20
12.8713999572
 30
0.0
 10
13.8999096967
 20
12.8717058147
 30
0.0
 10
13.9059135933
 20
12.872102491
 30
0.0
 10
13.9118989476
 20
12.8725256065
 30
0.0
 10
13.9161097254
 20
12.8727944492
 30
0.0
 10
13.9184853958
 20
12.8729870072
 30
0.0
 10
13.9203526051
 20
12.8730224357
 30
0.0
 10
13.9218932325
 20
12.8734743576
 30
0.0
 10
13.92406136
 20
12.8739316038
 30
0.0
 10
13.9278020638
 20
12.8747998787
 30
0.0
 10
13.9331773227
 20
12.8760015448
 30
0.0
 10
13.9385289382
 20
12.8772284145
 30
0.0
 10
13.9423027426
 20
12.8780614043
 30
0.0
 10
13.9444188549
 20
12.8785740986
 30
0.0
 10
13.9461190746
 20
12.8788558958
 30
0.0
 10
13.947386926
 20
12.8795302368
 30
0.0
 10
13.949228258
 20
12.8802923969
 30
0.0
 10
13.9523798122
 20
12.8816903665
 30
0.0
 10
13.9569229528
 20
12.8836508744
 30
0.0
 10
13.9614372249
 20
12.8856354832
 30
0.0
 10
13.964629195
 20
12.8869997115
 30
0.0
 10
13.9664070162
 20
12.8878148937
 30
0.0
 10
13.9678697303
 20
12.8883265532
 30
0.0
 10
13.9688381325
 20
12.8892193097
 30
0.0
 10
13.9703017369
 20
12.8902767293
 30
0.0
 10
13.9727829211
 20
12.8921890596
 30
0.0
 10
13.9763677374
 20
12.8948893099
 30
0.0
 10
13.9799441003
 20
12.8975983589
 30
0.0
 10
13.9824371192
 20
12.8994983711
 30
0.0
 10
13.9837015003
 20
12.9004405506
 30
0.0
 10
13.9843948575
 20
12.9009918305
 30
0.0
 10
13.9849972079
 20
12.9013688518
 30
0.0
 10
13.9852848014
 20
12.9018851819
 30
0.0
 10
13.9857780421
 20
12.9025250331
 30
0.0
 10
13.9865901432
 20
12.9036673746
 30
0.0
 10
13.9882508272
 20
12.9059359279
 30
0.0
 10
13.9906023614
 20
12.9091858196
 30
0.0
 10
13.992967893
 20
12.9124300293
 30
0.0
 10
13.9946089805
 20
12.9147065375
 30
0.0
 10
13.9954480268
 20
12.915837941
 30
0.0
 10
13.9958978754
 20
12.9164954067
 30
0.0
 10
13.9963187946
 20
12.9169576149
 30
0.0
 10
13.9964203858
 20
12.9175379127
 30
0.0
 10
13.9966672179
 20
12.9182704554
 30
0.0
 10
13.9970473618
 20
12.9195715629
 30
0.0
 10
13.9978446658
 20
12.9221601186
 30
0.0
 10
13.9989624591
 20
12.9258656617
 30
0.0
 10
14.0000945955
 20
12.9295667971
 30
0.0
 10
14.0008718191
 20
12.9321615236
 30
0.0
 10
14.0012795737
 20
12.9334541464
 30
0.0
 10
14.0014819418
 20
12.9342003528
 30
0.0
 10
14.001720152
 20
12.9347386676
 30
0.0
 10
14.0016279429
 20
12.93535856
 30
0.0
 10
14.001620243
 20
12.9361566302
 30
0.0
 10
14.0015531567
 20
12.937566488
 30
0.0
 10
14.0014572835
 20
12.9403767637
 30
0.0
 10
14.0012983928
 20
12.9443967276
 30
0.0
 10
14.0011542668
 20
12.948413535
 30
0.0
 10
14.0010377229
 20
12.9512282299
 30
0.0
 10
14.0009990587
 20
12.9526320114
 30
0.0
 10
14.0009455882
 20
12.9534398668
 30
0.0
 10
14.0009940132
 20
12.9540296933
 30
0.0
 10
14.0007040149
 20
12.9546809329
 30
0.0
 10
14.0004353963
 20
12.9555278308
 30
0.0
 10
13.999910314
 20
12.9570198828
 30
0.0
 10
13.999188951
 20
12.9591461676
 30
0.0
 10
13.9983110071
 20
12.9616999428
 30
0.0
 10
13.9971447162
 20
12.9651041961
 30
0.0
 10
13.995685367
 20
12.9693597823
 30
0.0
 10
13.9945183403
 20
12.972764169
 30
0.0
 10
13.9939347704
 20
12.9744663727
 30
0.0
  0
SPLINE
  5
34B
100
AcDbEntity
  8
03__ASM_ALL_CURVES
100
AcDbSpline
 62
8
  6
PHANTOM
 70
0
 71
3
 72
140
 73
136
 74
0
 42
0.0000001
 43
0.0000001
 44
0.0000000001
 40
0.0
 40
0.0
 40
0.0
 40
0.0
 40
0.015625
 40
0.03125
 40
0.046875
 40
0.0546875
 40
0.05859375
 40
0.0625
 40
0.06640625
 40
0.0703125
 40
0.078125
 40
0.09375
 40
0.109375
 40
0.1171875
 40
0.12109375
 40
0.125
 40
0.12890625
 40
0.1328125
 40
0.140625
 40
0.15625
 40
0.171875
 40
0.1796875
 40
0.18359375
 40
0.1875
 40
0.19140625
 40
0.1953125
 40
0.203125
 40
0.21875
 40
0.234375
 40
0.2421875
 40
0.24609375
 40
0.25
 40
0.25390625
 40
0.2578125
 40
0.265625
 40
0.28125
 40
0.296875
 40
0.3046875
 40
0.30859375
 40
0.3125
 40
0.31640625
 40
0.3203125
 40
0.328125
 40
0.34375
 40
0.359375
 40
0.3671875
 40
0.37109375
 40
0.375
 40
0.37890625
 40
0.3828125
 40
0.390625
 40
0.40625
 40
0.421875
 40
0.4296875
 40
0.43359375
 40
0.4375
 40
0.44140625
 40
0.4453125
 40
0.453125
 40
0.46875
 40
0.484375
 40
0.4921875
 40
0.49609375
 40
0.5
 40
0.50390625
 40
0.5078125
 40
0.515625
 40
0.53125
 40
0.546875
 40
0.5546875
 40
0.55859375
 40
0.5625
 40
0.56640625
 40
0.5703125
 40
0.578125
 40
0.59375
 40
0.609375
 40
0.6171875
 40
0.62109375
 40
0.625
 40
0.62890625
 40
0.6328125
 40
0.640625
 40
0.65625
 40
0.671875
 40
0.6796875
 40
0.68359375
 40
0.6875
 40
0.69140625
 40
0.6953125
 40
0.703125
 40
0.71875
 40
0.734375
 40
0.7421875
 40
0.74609375
 40
0.748046875
 40
0.75
 40
0.751953125
 40
0.75390625
 40
0.7578125
 40
0.765625
 40
0.78125
 40
0.796875
 40
0.8046875
 40
0.80859375
 40
0.810546875
 40
0.8125
 40
0.814453125
 40
0.81640625
 40
0.8203125
 40
0.828125
 40
0.84375
 40
0.859375
 40
0.8671875
 40
0.87109375
 40
0.873046875
 40
0.875
 40
0.876953125
 40
0.87890625
 40
0.8828125
 40
0.890625
 40
0.90625
 40
0.921875
 40
0.9296875
 40
0.93359375
 40
0.935546875
 40
0.9375
 40
0.939453125
 40
0.94140625
 40
0.9453125
 40
0.953125
 40
0.9609375
 40
0.96875
 40
0.984375
 40
1.0
 40
1.0
 40
1.0
 40
1.0
 10
13.9939347749
 20
12.9744663636
 30
0.0
 10
13.9928708985
 20
12.9761390881
 30
0.0
 10
13.9907421402
 20
12.9794843933
 30
0.0
 10
13.9875550369
 20
12.984503214
 30
0.0
 10
13.9848815176
 20
12.9886830476
 30
0.0
 10
13.983044374
 20
12.9916138393
 30
0.0
 10
13.9819410235
 20
12.9932809185
 30
0.0
 10
13.9812643673
 20
12.9945528023
 30
0.0
 10
13.9800110613
 20
12.9957422181
 30
0.0
 10
13.9785411783
 20
12.9973568874
 30
0.0
 10
13.9758746458
 20
13.0001689911
 30
0.0
 10
13.9721185912
 20
13.0041946451
 30
0.0
 10
13.9683289261
 20
13.0082126898
 30
0.0
 10
13.9657094484
 20
13.0110354466
 30
0.0
 10
13.9641656221
 20
13.0126333752
 30
0.0
 10
13.9631391873
 20
13.0138741546
 30
0.0
 10
13.9616105039
 20
13.0149531399
 30
0.0
 10
13.959747495
 20
13.0164482429
 30
0.0
 10
13.9564051255
 20
13.0190381656
 30
0.0
 10
13.9516769259
 20
13.0227535531
 30
0.0
 10
13.9469186587
 20
13.0264574393
 30
0.0
 10
13.9436183838
 20
13.0290634639
 30
0.0
 10
13.9416892263
 20
13.0305332639
 30
0.0
 10
13.9403634988
 20
13.0316898833
 30
0.0
 10
13.9385748518
 20
13.0326391037
 30
0.0
 10
13.9363514857
 20
13.0339771063
 30
0.0
 10
13.9323850987
 20
13.0362845645
 30
0.0
 10
13.9267603318
 20
13.0396013515
 30
0.0
 10
13.9211133664
 20
13.0429013163
 30
0.0
 10
13.9171780572
 20
13.0452323256
 30
0.0
 10
13.9149058545
 20
13.0465333195
 30
0.0
 10
13.9132670472
 20
13.0475960894
 30
0.0
 10
13.9113785885
 20
13.0483262671
 30
0.0
 10
13.9089477423
 20
13.049415884
 30
0.0
 10
13.904653004
 20
13.0512682973
 30
0.0
 10
13.8985403935
 20
13.0539458525
 30
0.0
 10
13.8924144968
 20
13.0566020554
 30
0.0
 10
13.8881383591
 20
13.0584843621
 30
0.0
 10
13.8856782835
 20
13.0595270037
 30
0.0
 10
13.8838795063
 20
13.06040131
 30
0.0
 10
13.8819038951
 20
13.0609227969
 30
0.0
 10
13.8793314337
 20
13.0617412187
 30
0.0
 10
13.8748008332
 20
13.0631157131
 30
0.0
 10
13.8683440197
 20
13.0651125742
 30
0.0
 10
13.8618801581
 20
13.0670862329
 30
0.0
 10
13.857359425
 20
13.0684932107
 30
0.0
 10
13.8547714576
 20
13.0692605872
 30
0.0
 10
13.8528434217
 20
13.06993869
 30
0.0
 10
13.850865973
 20
13.0702248168
 30
0.0
 10
13.8482466084
 20
13.0707430857
 30
0.0
 10
13.8436547109
 20
13.0715859237
 30
0.0
 10
13.8370988833
 20
13.0728268111
 30
0.0
 10
13.8305422082
 20
13.0740425237
 30
0.0
 10
13.8259514972
 20
13.0749206064
 30
0.0
 10
13.8233302682
 20
13.0753834908
 30
0.0
 10
13.8213585397
 20
13.0758395475
 30
0.0
 10
13.8194090213
 20
13.0758794691
 30
0.0
 10
13.8168018905
 20
13.0760778929
 30
0.0
 10
13.8122432921
 20
13.0763570591
 30
0.0
 10
13.8057268958
 20
13.0767948918
 30
0.0
 10
13.7992195597
 20
13.0772062966
 30
0.0
 10
13.7946482769
 20
13.0775224619
 30
0.0
 10
13.7920610788
 20
13.0776627442
 30
0.0
 10
13.7900504031
 20
13.0778810547
 30
0.0
 10
13.7883083546
 20
13.077667162
 30
0.0
 10
13.785891891
 20
13.0775327701
 30
0.0
 10
13.7817070725
 20
13.0772269126
 30
0.0
 10
13.7757031759
 20
13.0768302363
 30
0.0
 10
13.7697178216
 20
13.0764071208
 30
0.0
 10
13.7655070438
 20
13.0761382781
 30
0.0
 10
13.7631313734
 20
13.07594572
 30
0.0
 10
13.7612641641
 20
13.0759102916
 30
0.0
 10
13.7597235367
 20
13.0754583697
 30
0.0
 10
13.7575554092
 20
13.0750011234
 30
0.0
 10
13.7538147054
 20
13.0741328486
 30
0.0
 10
13.7484394465
 20
13.0729311825
 30
0.0
 10
13.743087831
 20
13.0717043127
 30
0.0
 10
13.7393140266
 20
13.0708713229
 30
0.0
 10
13.7371979143
 20
13.0703586287
 30
0.0
 10
13.7354976946
 20
13.0700768314
 30
0.0
 10
13.7342298432
 20
13.0694024905
 30
0.0
 10
13.7323885112
 20
13.0686403304
 30
0.0
 10
13.729236957
 20
13.0672423607
 30
0.0
 10
13.7246938164
 20
13.0652818529
 30
0.0
 10
13.7201795443
 20
13.0632972441
 30
0.0
 10
13.7169875742
 20
13.0619330157
 30
0.0
 10
13.715209753
 20
13.0611178336
 30
0.0
 10
13.7137470389
 20
13.0606061741
 30
0.0
 10
13.7127786367
 20
13.0597134176
 30
0.0
 10
13.7113150323
 20
13.058655998
 30
0.0
 10
13.7088338481
 20
13.0567436677
 30
0.0
 10
13.7052490318
 20
13.0540434174
 30
0.0
 10
13.7016726689
 20
13.0513343684
 30
0.0
 10
13.69917965
 20
13.0494343562
 30
0.0
 10
13.6979152689
 20
13.0484921767
 30
0.0
 10
13.6972219117
 20
13.0479408968
 30
0.0
 10
13.6966195612
 20
13.0475638755
 30
0.0
 10
13.6963319678
 20
13.0470475454
 30
0.0
 10
13.6958387271
 20
13.0464076941
 30
0.0
 10
13.695026626
 20
13.0452653527
 30
0.0
 10
13.6933659419
 20
13.0429967994
 30
0.0
 10
13.6910144078
 20
13.0397469076
 30
0.0
 10
13.6886488762
 20
13.036502698
 30
0.0
 10
13.6870077887
 20
13.0342261898
 30
0.0
 10
13.6861687424
 20
13.0330947863
 30
0.0
 10
13.6857188938
 20
13.0324373206
 30
0.0
 10
13.6852979746
 20
13.0319751123
 30
0.0
 10
13.6851963834
 20
13.0313948145
 30
0.0
 10
13.6849495513
 20
13.0306622719
 30
0.0
 10
13.6845694074
 20
13.0293611644
 30
0.0
 10
13.6837721034
 20
13.0267726087
 30
0.0
 10
13.6826543101
 20
13.0230670656
 30
0.0
 10
13.6815221737
 20
13.0193659301
 30
0.0
 10
13.6807449501
 20
13.0167712037
 30
0.0
 10
13.6803371955
 20
13.0154785809
 30
0.0
 10
13.6801348274
 20
13.0147323745
 30
0.0
 10
13.6798966172
 20
13.0141940597
 30
0.0
 10
13.6799888263
 20
13.0135741673
 30
0.0
 10
13.6799965262
 20
13.012776097
 30
0.0
 10
13.6800636125
 20
13.0113662393
 30
0.0
 10
13.6801594857
 20
13.0085559635
 30
0.0
 10
13.6803183764
 20
13.0045359996
 30
0.0
 10
13.6804625024
 20
13.0005191922
 30
0.0
 10
13.6805790463
 20
12.9977044973
 30
0.0
 10
13.6806177105
 20
12.9963007159
 30
0.0
 10
13.680671181
 20
12.9954928604
 30
0.0
 10
13.680622756
 20
12.9949030339
 30
0.0
 10
13.6809127543
 20
12.9942517943
 30
0.0
 10
13.6811813729
 20
12.9934048965
 30
0.0
 10
13.6817064552
 20
12.9919128445
 30
0.0
 10
13.6824278182
 20
12.9897865597
 30
0.0
 10
13.6833057621
 20
12.9872327844
 30
0.0
 10
13.684472053
 20
12.9838285312
 30
0.0
 10
13.6859314022
 20
12.979572945
 30
0.0
 10
13.6870984289
 20
12.9761685582
 30
0.0
 10
13.6876819988
 20
12.9744663546
 30
0.0
  0
SPLINE
  5
34C
100
AcDbEntity
  8
03__ASM_ALL_CURVES
100
AcDbSpline
 62
8
  6
PHANTOM
 70
0
 71
3
 72
379
 73
375
 74
0
 42
0.0000001
 43
0.0000001
 44
0.0000000001
 40
0.0
 40
0.0
 40
0.0
 40
0.0
 40
0.015625
 40
0.0234375
 40
0.03125
 40
0.0390625
 40
0.04296875
 40
0.046875
 40
0.05078125
 40
0.0546875
 40
0.056640625
 40
0.05859375
 40
0.0595703125
 40
0.060546875
 40
0.0615234375
 40
0.0620117188
 40
0.0622558594
 40
0.0625
 40
0.0627441406
 40
0.0629882812
 40
0.0634765625
 40
0.064453125
 40
0.0654296875
 40
0.06640625
 40
0.068359375
 40
0.0703125
 40
0.07421875
 40
0.078125
 40
0.08203125
 40
0.0859375
 40
0.09375
 40
0.1015625
 40
0.10546875
 40
0.109375
 40
0.11328125
 40
0.1171875
 40
0.119140625
 40
0.12109375
 40
0.1220703125
 40
0.123046875
 40
0.1240234375
 40
0.1245117188
 40
0.1247558594
 40
0.125
 40
0.1252441406
 40
0.1254882812
 40
0.1259765625
 40
0.126953125
 40
0.1279296875
 40
0.12890625
 40
0.130859375
 40
0.1328125
 40
0.13671875
 40
0.140625
 40
0.14453125
 40
0.1484375
 40
0.15625
 40
0.1640625
 40
0.16796875
 40
0.171875
 40
0.17578125
 40
0.1796875
 40
0.181640625
 40
0.18359375
 40
0.1845703125
 40
0.185546875
 40
0.1865234375
 40
0.1870117188
 40
0.1872558594
 40
0.1875
 40
0.1877441406
 40
0.1879882812
 40
0.1884765625
 40
0.189453125
 40
0.1904296875
 40
0.19140625
 40
0.193359375
 40
0.1953125
 40
0.19921875
 40
0.203125
 40
0.20703125
 40
0.2109375
 40
0.21875
 40
0.2265625
 40
0.234375
 40
0.23828125
 40
0.2421875
 40
0.244140625
 40
0.24609375
 40
0.248046875
 40
0.2490234375
 40
0.2495117188
 40
0.25
 40
0.2504882812
 40
0.2509765625
 40
0.251953125
 40
0.25390625
 40
0.255859375
 40
0.2578125
 40
0.26171875
 40
0.265625
 40
0.2734375
 40
0.28125
 40
0.2890625
 40
0.296875
 40
0.30078125
 40
0.3046875
 40
0.306640625
 40
0.30859375
 40
0.310546875
 40
0.3115234375
 40
0.3120117188
 40
0.3125
 40
0.3129882812
 40
0.3134765625
 40
0.314453125
 40
0.31640625
 40
0.318359375
 40
0.3203125
 40
0.32421875
 40
0.328125
 40
0.3359375
 40
0.34375
 40
0.3515625
 40
0.359375
 40
0.36328125
 40
0.3671875
 40
0.369140625
 40
0.37109375
 40
0.373046875
 40
0.3740234375
 40
0.3745117188
 40
0.375
 40
0.3754882812
 40
0.3759765625
 40
0.376953125
 40
0.37890625
 40
0.380859375
 40
0.3828125
 40
0.38671875
 40
0.390625
 40
0.3984375
 40
0.40625
 40
0.4140625
 40
0.421875
 40
0.42578125
 40
0.4296875
 40
0.431640625
 40
0.43359375
 40
0.435546875
 40
0.4365234375
 40
0.4370117188
 40
0.4375
 40
0.4379882812
 40
0.4384765625
 40
0.439453125
 40
0.44140625
 40
0.443359375
 40
0.4453125
 40
0.44921875
 40
0.453125
 40
0.4609375
 40
0.46875
 40
0.4765625
 40
0.48046875
 40
0.484375
 40
0.48828125
 40
0.4921875
 40
0.494140625
 40
0.49609375
 40
0.4970703125
 40
0.498046875
 40
0.4990234375
 40
0.4995117188
 40
0.4997558594
 40
0.5
 40
0.5002441406
 40
0.5004882812
 40
0.5009765625
 40
0.501953125
 40
0.5029296875
 40
0.50390625
 40
0.505859375
 40
0.5078125
 40
0.51171875
 40
0.515625
 40
0.51953125
 40
0.5234375
 40
0.53125
 40
0.5390625
 40
0.54296875
 40
0.546875
 40
0.55078125
 40
0.5546875
 40
0.556640625
 40
0.55859375
 40
0.5595703125
 40
0.560546875
 40
0.5615234375
 40
0.5620117188
 40
0.5622558594
 40
0.5625
 40
0.5627441406
 40
0.5629882812
 40
0.5634765625
 40
0.564453125
 40
0.5654296875
 40
0.56640625
 40
0.568359375
 40
0.5703125
 40
0.57421875
 40
0.578125
 40
0.58203125
 40
0.5859375
 40
0.59375
 40
0.6015625
 40
0.60546875
 40
0.609375
 40
0.61328125
 40
0.6171875
 40
0.619140625
 40
0.62109375
 40
0.6220703125
 40
0.623046875
 40
0.6240234375
 40
0.6245117188
 40
0.6247558594
 40
0.625
 40
0.6252441406
 40
0.6254882812
 40
0.6259765625
 40
0.626953125
 40
0.6279296875
 40
0.62890625
 40
0.630859375
 40
0.6328125
 40
0.63671875
 40
0.640625
 40
0.64453125
 40
0.6484375
 40
0.65625
 40
0.6640625
 40
0.66796875
 40
0.671875
 40
0.67578125
 40
0.6796875
 40
0.681640625
 40
0.68359375
 40
0.6845703125
 40
0.685546875
 40
0.6865234375
 40
0.6870117188
 40
0.6872558594
 40
0.6875
 40
0.6877441406
 40
0.6879882812
 40
0.6884765625
 40
0.689453125
 40
0.6904296875
 40
0.69140625
 40
0.693359375
 40
0.6953125
 40
0.69921875
 40
0.703125
 40
0.70703125
 40
0.7109375
 40
0.71875
 40
0.7265625
 40
0.73046875
 40
0.734375
 40
0.73828125
 40
0.7421875
 40
0.744140625
 40
0.74609375
 40
0.7470703125
 40
0.748046875
 40
0.7490234375
 40
0.7495117188
 40
0.7497558594
 40
0.75
 40
0.7502441406
 40
0.7504882812
 40
0.7509765625
 40
0.751953125
 40
0.7529296875
 40
0.75390625
 40
0.755859375
 40
0.7578125
 40
0.76171875
 40
0.765625
 40
0.76953125
 40
0.7734375
 40
0.78125
 40
0.7890625
 40
0.79296875
 40
0.796875
 40
0.80078125
 40
0.8046875
 40
0.806640625
 40
0.80859375
 40
0.8095703125
 40
0.810546875
 40
0.8115234375
 40
0.8120117188
 40
0.8122558594
 40
0.8125
 40
0.8127441406
 40
0.8129882812
 40
0.8134765625
 40
0.814453125
 40
0.8154296875
 40
0.81640625
 40
0.818359375
 40
0.8203125
 40
0.82421875
 40
0.828125
 40
0.83203125
 40
0.8359375
 40
0.84375
 40
0.8515625
 40
0.85546875
 40
0.859375
 40
0.86328125
 40
0.8671875
 40
0.869140625
 40
0.87109375
 40
0.8720703125
 40
0.873046875
 40
0.8740234375
 40
0.8745117188
 40
0.8747558594
 40
0.875
 40
0.8752441406
 40
0.8754882812
 40
0.8759765625
 40
0.876953125
 40
0.8779296875
 40
0.87890625
 40
0.880859375
 40
0.8828125
 40
0.88671875
 40
0.890625
 40
0.89453125
 40
0.8984375
 40
0.90625
 40
0.9140625
 40
0.91796875
 40
0.921875
 40
0.92578125
 40
0.9296875
 40
0.931640625
 40
0.93359375
 40
0.9345703125
 40
0.935546875
 40
0.9365234375
 40
0.9370117188
 40
0.9372558594
 40
0.9375
 40
0.9377441406
 40
0.9379882812
 40
0.9384765625
 40
0.939453125
 40
0.9404296875
 40
0.94140625
 40
0.943359375
 40
0.9453125
 40
0.94921875
 40
0.953125
 40
0.95703125
 40
0.9609375
 40
0.96875
 40
0.9765625
 40
0.984375
 40
1.0
 40
1.0
 40
1.0
 40
1.0
 10
17.0806793913
 20
12.1780285918
 30
0.0
 10
17.0690841881
 20
12.19625964
 30
0.0
 10
17.0516913833
 20
12.2236062123
 30
0.0
 10
17.028500977
 20
12.2600683088
 30
0.0
 10
17.0111081718
 20
12.2874148811
 30
0.0
 10
16.996614169
 20
12.3102036915
 30
0.0
 10
16.9850189633
 20
12.3284347394
 30
0.0
 10
16.9763225688
 20
12.3421080267
 30
0.0
 10
16.9676261367
 20
12.3557813086
 30
0.0
 10
16.960379227
 20
12.3671757269
 30
0.0
 10
16.9545814371
 20
12.3762912241
 30
0.0
 10
16.9509584152
 20
12.3819884952
 30
0.0
 10
16.948058631
 20
12.3865461166
 30
0.0
 10
16.945887535
 20
12.3899648678
 30
0.0
 10
16.9440663838
 20
12.3928121247
 30
0.0
 10
16.9428149402
 20
12.3948085456
 30
0.0
 10
16.9420633514
 20
12.3959441408
 30
0.0
 10
16.9416024195
 20
12.3968105327
 30
0.0
 10
16.9407486878
 20
12.3976207509
 30
0.0
 10
16.9397473918
 20
12.3987206358
 30
0.0
 10
16.937931287
 20
12.4006363051
 30
0.0
 10
16.9353702261
 20
12.4033777484
 30
0.0
 10
16.9322826676
 20
12.4066654374
 30
0.0
 10
16.9281709126
 20
12.4110497364
 30
0.0
 10
16.9230295104
 20
12.4165298658
 30
0.0
 10
16.9148042218
 20
12.4252982093
 30
0.0
 10
16.9045222833
 20
12.4362585919
 30
0.0
 10
16.8921840976
 20
12.4494110711
 30
0.0
 10
16.8798458743
 20
12.4625635449
 30
0.0
 10
16.863394923
 20
12.4801001786
 30
0.0
 10
16.8428312291
 20
12.5020209698
 30
0.0
 10
16.8222675383
 20
12.5239417618
 30
0.0
 10
16.8058165821
 20
12.5414783944
 30
0.0
 10
16.7934783736
 20
12.5546308715
 30
0.0
 10
16.7811401324
 20
12.5677833381
 30
0.0
 10
16.7708583666
 20
12.5787437598
 30
0.0
 10
16.7626327257
 20
12.5875120236
 30
0.0
 10
16.7574922199
 20
12.592992356
 30
0.0
 10
16.7533786249
 20
12.5973762383
 30
0.0
 10
16.7502966879
 20
12.6006652001
 30
0.0
 10
16.7477180388
 20
12.6034026615
 30
0.0
 10
16.7459333319
 20
12.6053254392
 30
0.0
 10
16.7448817285
 20
12.6064139346
 30
0.0
 10
16.7441825251
 20
12.6072591375
 30
0.0
 10
16.7431412107
 20
12.6079941324
 30
0.0
 10
16.7418721237
 20
12.6090125674
 30
0.0
 10
16.7395956224
 20
12.6107769179
 30
0.0
 10
16.7363725454
 20
12.6133067826
 30
0.0
 10
16.7324924112
 20
12.6163386121
 30
0.0
 10
16.7273232445
 20
12.6203824514
 30
0.0
 10
16.7208602982
 20
12.6254367711
 30
0.0
 10
16.7105204158
 20
12.6335239506
 30
0.0
 10
16.6975952774
 20
12.6436328331
 30
0.0
 10
16.6820852337
 20
12.6557635314
 30
0.0
 10
16.6665751572
 20
12.6678942193
 30
0.0
 10
16.6458950667
 20
12.6840684734
 30
0.0
 10
16.6200449493
 20
12.7042862896
 30
0.0
 10
16.5941948346
 20
12.7245041069
 30
0.0
 10
16.5735147397
 20
12.7406783594
 30
0.0
 10
16.5580046765
 20
12.7528090522
 30
0.0
 10
16.5424945831
 20
12.7649397316
 30
0.0
 10
16.5295695992
 20
12.7750486732
 30
0.0
 10
16.5192294017
 20
12.7831357322
 30
0.0
 10
16.5127672573
 20
12.7881903587
 30
0.0
 10
16.5075964446
 20
12.7922335683
 30
0.0
 10
16.5037213392
 20
12.7952673214
 30
0.0
 10
16.5004825282
 20
12.7977911676
 30
0.0
 10
16.4982341148
 20
12.7995662621
 30
0.0
 10
16.4969200239
 20
12.8005674824
 30
0.0
 10
16.4960169472
 20
12.8013553553
 30
0.0
 10
16.494798546
 20
12.8020019574
 30
0.0
 10
16.4932839999
 20
12.8029133704
 30
0.0
 10
16.4905822983
 20
12.8044853841
 30
0.0
 10
16.4867495165
 20
12.8067431212
 30
0.0
 10
16.4821387106
 20
12.809447268
 30
0.0
 10
16.4759949749
 20
12.8130545916
 30
0.0
 10
16.4683139337
 20
12.8175631316
 30
0.0
 10
16.4560250344
 20
12.824777139
 30
0.0
 10
16.4406636472
 20
12.8337945305
 30
0.0
 10
16.4222300952
 20
12.8446154507
 30
0.0
 10
16.4037965134
 20
12.8554363577
 30
0.0
 10
16.3792184137
 20
12.869864237
 30
0.0
 10
16.3484957927
 20
12.8878990942
 30
0.0
 10
16.3116286158
 20
12.9095408791
 30
0.0
 10
16.2809060695
 20
12.9275758349
 30
0.0
 10
16.2563278055
 20
12.9420034972
 30
0.0
 10
16.2409669073
 20
12.9510214745
 30
0.0
 10
16.2286770053
 20
12.9582342798
 30
0.0
 10
16.2194628189
 20
12.9636482004
 30
0.0
 10
16.2117740229
 20
12.968146069
 30
0.0
 10
16.2064120936
 20
12.9713215256
 30
0.0
 10
16.2033165498
 20
12.9730939942
 30
0.0
 10
16.2010838652
 20
12.9745418802
 30
0.0
 10
16.1985110798
 20
12.9755366668
 30
0.0
 10
16.1951993302
 20
12.977021095
 30
0.0
 10
16.189348496
 20
12.9795452078
 30
0.0
 10
16.1810190585
 20
12.9831895813
 30
0.0
 10
16.1710113646
 20
12.9875463511
 30
0.0
 10
16.157672093
 20
12.993361133
 30
0.0
 10
16.1409965242
 20
13.0006276397
 30
0.0
 10
16.1143164411
 20
13.0122551522
 30
0.0
 10
16.0809660521
 20
13.0267891621
 30
0.0
 10
16.0409457133
 20
13.0442301487
 30
0.0
 10
16.0009253188
 20
13.0616710457
 30
0.0
 10
15.9675750692
 20
13.0762052796
 30
0.0
 10
15.9408947072
 20
13.087832344
 30
0.0
 10
15.9242198472
 20
13.0950999897
 30
0.0
 10
15.9108791209
 20
13.1009124338
 30
0.0
 10
15.9008758713
 20
13.105276346
 30
0.0
 10
15.8925325288
 20
13.1088983725
 30
0.0
 10
15.8867065173
 20
13.1114623785
 30
0.0
 10
15.8833549956
 20
13.1128828879
 30
0.0
 10
15.8809043773
 20
13.1140740126
 30
0.0
 10
15.8782128532
 20
13.1147844852
 30
0.0
 10
15.8747081851
 20
13.1158994388
 30
0.0
 10
15.8685358644
 20
13.1177724932
 30
0.0
 10
15.8597387323
 20
13.1204891243
 30
0.0
 10
15.8491734124
 20
13.1237316012
 30
0.0
 10
15.8350893794
 20
13.1280610093
 30
0.0
 10
15.8174832903
 20
13.1334706788
 30
0.0
 10
15.7893141334
 20
13.1421273189
 30
0.0
 10
15.754102486
 20
13.152947715
 30
0.0
 10
15.711848597
 20
13.1659323763
 30
0.0
 10
15.6695946784
 20
13.1789169402
 30
0.0
 10
15.6343831049
 20
13.1897375797
 30
0.0
 10
15.6062138001
 20
13.1983937328
 30
0.0
 10
15.588608087
 20
13.2038046401
 30
0.0
 10
15.5745232823
 20
13.2081315078
 30
0.0
 10
15.56396032
 20
13.2113817459
 30
0.0
 10
15.5551558114
 20
13.214074094
 30
0.0
 10
15.548996659
 20
13.2159904978
 30
0.0
 10
15.545470892
 20
13.2170359948
 30
0.0
 10
15.5428441768
 20
13.2179598157
 30
0.0
 10
15.5401501471
 20
13.2183496398
 30
0.0
 10
15.5365815876
 20
13.2190556694
 30
0.0
 10
15.5303256686
 20
13.2202044372
 30
0.0
 10
15.521394361
 20
13.2218909058
 30
0.0
 10
15.5106743437
 20
13.2238952476
 30
0.0
 10
15.4963818424
 20
13.2265744864
 30
0.0
 10
15.478515923
 20
13.2299212124
 30
0.0
 10
15.4499306156
 20
13.2352772724
 30
0.0
 10
15.4141989254
 20
13.2419718988
 30
0.0
 10
15.3713209204
 20
13.2500056564
 30
0.0
 10
15.3284429118
 20
13.2580393083
 30
0.0
 10
15.2927112305
 20
13.2647341988
 30
0.0
 10
15.2641259053
 20
13.2700897305
 30
0.0
 10
15.2462600311
 20
13.2734377994
 30
0.0
 10
15.231967437
 20
13.2761142819
 30
0.0
 10
15.2212477032
 20
13.2781270447
 30
0.0
 10
15.2123155086
 20
13.2797871659
 30
0.0
 10
15.2060611731
 20
13.2809829683
 30
0.0
 10
15.2024900765
 20
13.2816136367
 30
0.0
 10
15.1998038398
 20
13.2822349461
 30
0.0
 10
15.1971478555
 20
13.2822893466
 30
0.0
 10
15.1935959907
 20
13.2825596248
 30
0.0
 10
15.1873851439
 20
13.282940479
 30
0.0
 10
15.1785099353
 20
13.2835327244
 30
0.0
 10
15.1678607851
 20
13.2842228014
 30
0.0
 10
15.1536615338
 20
13.2851501053
 30
0.0
 10
15.1359126014
 20
13.2863067695
 30
0.0
 10
15.1075142359
 20
13.2881588103
 30
0.0
 10
15.0720163043
 20
13.2904733884
 30
0.0
 10
15.0294187758
 20
13.2932510848
 30
0.0
 10
14.9939208371
 20
13.2955657867
 30
0.0
 10
14.9655224872
 20
13.2974175552
 30
0.0
 10
14.9442237204
 20
13.2988063877
 30
0.0
 10
14.922924971
 20
13.3001951923
 30
0.0
 10
14.9051759586
 20
13.3013526172
 30
0.0
 10
14.8909768708
 20
13.3022783606
 30
0.0
 10
14.882102163
 20
13.3028573976
 30
0.0
 10
14.8750030334
 20
13.3033196027
 30
0.0
 10
14.8696769429
 20
13.3036690614
 30
0.0
 10
14.8652440797
 20
13.3039513546
 30
0.0
 10
14.8621301925
 20
13.3041664696
 30
0.0
 10
14.8603678213
 20
13.3042620524
 30
0.0
 10
14.8589981736
 20
13.3044107569
 30
0.0
 10
14.8578115066
 20
13.3042650617
 30
0.0
 10
14.8561654582
 20
13.3041734914
 30
0.0
 10
14.8533146111
 20
13.3039653981
 30
0.0
 10
14.8492264252
 20
13.3036931361
 30
0.0
 10
14.8443272568
 20
13.3033557148
 30
0.0
 10
14.8377927079
 20
13.3029095594
 30
0.0
 10
14.8296253177
 20
13.3023505847
 30
0.0
 10
14.8165570485
 20
13.3014569409
 30
0.0
 10
14.8002218647
 20
13.3003396405
 30
0.0
 10
14.7806195787
 20
13.2989989853
 30
0.0
 10
14.7610173102
 20
13.2976583019
 30
0.0
 10
14.734880946
 20
13.295870734
 30
0.0
 10
14.7022104931
 20
13.2936362704
 30
0.0
 10
14.6695400386
 20
13.2914018092
 30
0.0
 10
14.6434036771
 20
13.2896142374
 30
0.0
 10
14.6238014004
 20
13.2882735657
 30
0.0
 10
14.604199145
 20
13.2869328668
 30
0.0
 10
14.5878638659
 20
13.2858157023
 30
0.0
 10
14.5747957911
 20
13.2849217814
 30
0.0
 10
14.5666279063
 20
13.2843635118
 30
0.0
 10
14.5600943726
 20
13.283915909
 30
0.0
 10
14.5551921029
 20
13.2835829097
 30
0.0
 10
14.5511136201
 20
13.2832968123
 30
0.0
 10
14.5482454514
 20
13.2831134175
 30
0.0
 10
14.5466271565
 20
13.2829822741
 30
0.0
 10
14.5453552396
 20
13.2829581345
 30
0.0
 10
14.5443057764
 20
13.2826502964
 30
0.0
 10
14.5428288977
 20
13.2823388028
 30
0.0
 10
14.5402805128
 20
13.2817475829
 30
0.0
 10
14.5366210619
 20
13.2809270879
 30
0.0
 10
14.532237811
 20
13.2799321762
 30
0.0
 10
14.5263906507
 20
13.2786092311
 30
0.0
 10
14.5190826679
 20
13.2769543158
 30
0.0
 10
14.5073893547
 20
13.2743071409
 30
0.0
 10
14.4927728988
 20
13.2709979356
 30
0.0
 10
14.4752330721
 20
13.2670269907
 30
0.0
 10
14.4576932666
 20
13.2630560187
 30
0.0
 10
14.434306852
 20
13.2577613989
 30
0.0
 10
14.4050738365
 20
13.2511431205
 30
0.0
 10
14.3758408188
 20
13.2445248445
 30
0.0
 10
14.3524544076
 20
13.239230221
 30
0.0
 10
14.3349145918
 20
13.23525926
 30
0.0
 10
14.3173748041
 20
13.2312882735
 30
0.0
 10
14.3027582267
 20
13.2279791978
 30
0.0
 10
14.2910651612
 20
13.2253317588
 30
0.0
 10
14.2837565479
 20
13.2236775156
 30
0.0
 10
14.2779106819
 20
13.2223531907
 30
0.0
 10
14.2735234767
 20
13.2213624944
 30
0.0
 10
14.269876398
 20
13.2205288106
 30
0.0
 10
14.2673059265
 20
13.219961135
 30
0.0
 10
14.2658644362
 20
13.2196119176
 30
0.0
 10
14.2647062715
 20
13.2194199547
 30
0.0
 10
14.2638426192
 20
13.2189606071
 30
0.0
 10
14.2625883536
 20
13.2184414104
 30
0.0
 10
14.2604412522
 20
13.2174893614
 30
0.0
 10
14.2573489409
 20
13.2161520101
 30
0.0
 10
14.2536488783
 20
13.2145374643
 30
0.0
 10
14.2487117203
 20
13.212388133
 30
0.0
 10
14.2425415539
 20
13.2097003059
 30
0.0
 10
14.2326685716
 20
13.2054004325
 30
0.0
 10
14.2203275894
 20
13.2000253677
 30
0.0
 10
14.2055183055
 20
13.1935753856
 30
0.0
 10
14.1907090497
 20
13.1871253779
 30
0.0
 10
14.1709633655
 20
13.1785253766
 30
0.0
 10
14.146281264
 20
13.1677753717
 30
0.0
 10
14.1215991598
 20
13.1570253689
 30
0.0
 10
14.1018534798
 20
13.1484253641
 30
0.0
 10
14.0870442114
 20
13.141975367
 30
0.0
 10
14.0722349751
 20
13.1355253451
 30
0.0
 10
14.0598938446
 20
13.1301504042
 30
0.0
 10
14.0500211649
 20
13.1258502782
 30
0.0
 10
14.0438502285
 20
13.1231630939
 30
0.0
 10
14.038914651
 20
13.1210124432
 30
0.0
 10
14.0352097599
 20
13.1194019283
 30
0.0
 10
14.0321325555
 20
13.1180519651
 30
0.0
 10
14.0299584858
 20
13.1171224305
 30
0.0
 10
14.0287474302
 20
13.1165671601
 30
0.0
 10
14.0277510507
 20
13.1162186194
 30
0.0
 10
14.0270913873
 20
13.1156104842
 30
0.0
 10
14.0260943858
 20
13.1148901868
 30
0.0
 10
14.0244043555
 20
13.1135874776
 30
0.0
 10
14.021961417
 20
13.1117485212
 30
0.0
 10
14.0190421366
 20
13.1095323326
 30
0.0
 10
14.0151454856
 20
13.1065807119
 30
0.0
 10
14.0102761362
 20
13.102890057
 30
0.0
 10
14.0024843588
 20
13.0969856401
 30
0.0
 10
13.9927449178
 20
13.0896049026
 30
0.0
 10
13.9810574683
 20
13.0807481103
 30
0.0
 10
13.969370051
 20
13.0718912932
 30
0.0
 10
13.9537868166
 20
13.0600822124
 30
0.0
 10
13.934307778
 20
13.0453208583
 30
0.0
 10
13.9148287361
 20
13.030559506
 30
0.0
 10
13.8992455068
 20
13.0187504222
 30
0.0
 10
13.8875580741
 20
13.0098936142
 30
0.0
 10
13.8758706824
 20
13.001036788
 30
0.0
 10
13.8661310616
 20
12.993656156
 30
0.0
 10
13.858339651
 20
12.9877515238
 30
0.0
 10
13.8534693679
 20
12.984061417
 30
0.0
 10
13.8495746336
 20
12.9811086712
 30
0.0
 10
13.8466494974
 20
12.97889592
 30
0.0
 10
13.8442248802
 20
12.9770462086
 30
0.0
 10
13.8425021433
 20
12.9757626989
 30
0.0
 10
13.8415575459
 20
12.9750116391
 30
0.0
 10
13.8407369139
 20
12.974497996
 30
0.0
 10
13.840345106
 20
12.9737945586
 30
0.0
 10
13.8396731169
 20
12.9729228445
 30
0.0
 10
13.8385668273
 20
12.9713664998
 30
0.0
 10
13.8369499781
 20
12.9691592763
 30
0.0
 10
13.8350253546
 20
12.9665037057
 30
0.0
 10
13.8324537428
 20
12.9629653557
 30
0.0
 10
13.8292410932
 20
12.9585415928
 30
0.0
 10
13.8240998113
 20
12.9514640334
 30
0.0
 10
13.8176735667
 20
12.9426169259
 30
0.0
 10
13.8099619198
 20
12.9320004648
 30
0.0
 10
13.802250314
 20
12.9213839855
 30
0.0
 10
13.7919681584
 20
12.9072286861
 30
0.0
 10
13.7791154694
 20
12.8895345596
 30
0.0
 10
13.7662627768
 20
12.8718404345
 30
0.0
 10
13.755980627
 20
12.8576851328
 30
0.0
 10
13.7482690038
 20
12.8470686605
 30
0.0
 10
13.7405574222
 20
12.8364521729
 30
0.0
 10
13.7341309745
 20
12.8276051478
 30
0.0
 10
13.7289901067
 20
12.8205274204
 30
0.0
 10
13.7257764033
 20
12.8161040852
 30
0.0
 10
13.7232069544
 20
12.8125648572
 30
0.0
 10
13.721275723
 20
12.809911969
 30
0.0
 10
13.7196795485
 20
12.8076963529
 30
0.0
 10
13.7185363512
 20
12.8061549905
 30
0.0
 10
13.7179234975
 20
12.805259271
 30
0.0
 10
13.7173500444
 20
12.8046295701
 30
0.0
 10
13.7172116414
 20
12.803838985
 30
0.0
 10
13.7168753537
 20
12.8028409897
 30
0.0
 10
13.7163575535
 20
12.8010683513
 30
0.0
 10
13.7155808744
 20
12.7985496806
 30
0.0
 10
13.7146646815
 20
12.7955214246
 30
0.0
 10
13.7134375647
 20
12.7914857936
 30
0.0
 10
13.7119055608
 20
12.7864405551
 30
0.0
 10
13.7094532972
 20
12.7783685646
 30
0.0
 10
13.7063883305
 20
12.7682784422
 30
0.0
 10
13.7027102149
 20
12.756170353
 30
0.0
 10
13.6990321409
 20
12.7440622483
 30
0.0
 10
13.6941280276
 20
12.7279181141
 30
0.0
 10
13.6879978916
 20
12.7077379445
 30
0.0
 10
13.6818677518
 20
12.6875577759
 30
0.0
 10
13.6769636445
 20
12.67141364
 30
0.0
 10
13.6732855527
 20
12.6593055408
 30
0.0
 10
13.6696075039
 20
12.647197431
 30
0.0
 10
13.6665423292
 20
12.6371073726
 30
0.0
 10
13.6640904898
 20
12.6290352517
 30
0.0
 10
13.6625574062
 20
12.623990345
 30
0.0
 10
13.6613325057
 20
12.6199540329
 30
0.0
 10
13.6604095416
 20
12.6169278577
 30
0.0
 10
13.6596540479
 20
12.6144026767
 30
0.0
 10
13.6590984284
 20
12.6126416602
 30
0.0
 10
13.6588227367
 20
12.6116250438
 30
0.0
 10
13.6584982021
 20
12.6108916568
 30
0.0
 10
13.6586238281
 20
12.6100471291
 30
0.0
 10
13.6586343084
 20
12.6089598593
 30
0.0
 10
13.658725808
 20
12.6070390748
 30
0.0
 10
13.6588182733
 20
12.6043045402
 30
0.0
 10
13.6589456032
 20
12.6010190567
 30
0.0
 10
13.6591096581
 20
12.5966398237
 30
0.0
 10
13.6593166847
 20
12.5911652992
 30
0.0
 10
13.659646833
 20
12.5824063301
 30
0.0
 10
13.6600598938
 20
12.571457526
 30
0.0
 10
13.6605554058
 20
12.5583190009
 30
0.0
 10
13.6610509609
 20
12.5451804651
 30
0.0
 10
13.6617116859
 20
12.5276624211
 30
0.0
 10
13.6625375979
 20
12.5057648647
 30
0.0
 10
13.663363506
 20
12.4838673092
 30
0.0
 10
13.6640242371
 20
12.4663492638
 30
0.0
 10
13.6645197739
 20
12.453210732
 30
0.0
 10
13.6650153547
 20
12.4400721921
 30
0.0
 10
13.6654282014
 20
12.4291234338
 30
0.0
 10
13.6657587864
 20
12.4203643713
 30
0.0
 10
13.6659647015
 20
12.4148900844
 30
0.0
 10
13.6661310379
 20
12.4105103637
 30
0.0
 10
13.6662513977
 20
12.4072263703
 30
0.0
 10
13.6663656708
 20
12.4044871735
 30
0.0
 10
13.6664182397
 20
12.4025747119
 30
0.0
 10
13.6664910967
 20
12.4014741067
 30
0.0
 10
13.6664251216
 20
12.4006705411
 30
0.0
 10
13.6668202091
 20
12.3997833073
 30
0.0
 10
13.6671861687
 20
12.3986295134
 30
0.0
 10
13.6679015287
 20
12.3965967764
 30
0.0
 10
13.668884297
 20
12.3936999753
 30
0.0
 10
13.6700803869
 20
12.3902207712
 30
0.0
 10
13.6716693167
 20
12.3855828952
 30
0.0
 10
13.6736574843
 20
12.3797851863
 30
0.0
 10
13.6768374317
 20
12.3705090555
 30
0.0
 10
13.6808127505
 20
12.3589138221
 30
0.0
 10
13.6855829683
 20
12.344999572
 30
0.0
 10
13.6903532302
 20
12.3310853139
 30
0.0
 10
13.6967135639
 20
12.3125329725
 30
0.0
 10
13.7046639863
 20
12.2893425448
 30
0.0
 10
13.714204491
 20
12.261514032
 30
0.0
 10
13.7269251647
 20
12.2244093481
 30
0.0
 10
13.7364656698
 20
12.1965808352
 30
0.0
 10
13.7428260066
 20
12.1780284933
 30
0.0
  0
SPLINE
  5
34D
100
AcDbEntity
  8
03__ASM_ALL_CURVES
100
AcDbSpline
 62
8
  6
PHANTOM
 70
0
 71
3
 72
309
 73
305
 74
0
 42
0.0000001
 43
0.0000001
 44
0.0000000001
 40
0.0
 40
0.0
 40
0.0
 40
0.0
 40
0.015625
 40
0.0234375
 40
0.03125
 40
0.0390625
 40
0.046875
 40
0.05078125
 40
0.0546875
 40
0.05859375
 40
0.060546875
 40
0.0625
 40
0.0634765625
 40
0.064453125
 40
0.0654296875
 40
0.0659179688
 40
0.06640625
 40
0.0666503906
 40
0.0668945312
 40
0.0673828125
 40
0.068359375
 40
0.0703125
 40
0.072265625
 40
0.07421875
 40
0.078125
 40
0.08203125
 40
0.0859375
 40
0.09375
 40
0.1015625
 40
0.109375
 40
0.11328125
 40
0.1171875
 40
0.12109375
 40
0.125
 40
0.126953125
 40
0.12890625
 40
0.130859375
 40
0.1318359375
 40
0.1328125
 40
0.1330566406
 40
0.1333007812
 40
0.1335449219
 40
0.1337890625
 40
0.134765625
 40
0.13671875
 40
0.140625
 40
0.14453125
 40
0.1484375
 40
0.15625
 40
0.1640625
 40
0.171875
 40
0.1796875
 40
0.1875
 40
0.19140625
 40
0.193359375
 40
0.1953125
 40
0.197265625
 40
0.1982421875
 40
0.19921875
 40
0.2001953125
 40
0.2006835938
 40
0.201171875
 40
0.2021484375
 40
0.203125
 40
0.20703125
 40
0.2109375
 40
0.21484375
 40
0.21875
 40
0.2265625
 40
0.234375
 40
0.2421875
 40
0.25
 40
0.25390625
 40
0.2578125
 40
0.259765625
 40
0.26171875
 40
0.263671875
 40
0.2646484375
 40
0.265625
 40
0.2661132812
 40
0.2666015625
 40
0.2670898438
 40
0.267578125
 40
0.2685546875
 40
0.26953125
 40
0.2734375
 40
0.27734375
 40
0.28125
 40
0.2890625
 40
0.296875
 40
0.3046875
 40
0.3125
 40
0.3203125
 40
0.32421875
 40
0.326171875
 40
0.328125
 40
0.330078125
 40
0.33203125
 40
0.3325195312
 40
0.3330078125
 40
0.3334960938
 40
0.333984375
 40
0.3349609375
 40
0.3359375
 40
0.337890625
 40
0.33984375
 40
0.34375
 40
0.34765625
 40
0.3515625
 40
0.359375
 40
0.3671875
 40
0.375
 40
0.3828125
 40
0.38671875
 40
0.390625
 40
0.39453125
 40
0.396484375
 40
0.3984375
 40
0.400390625
 40
0.4013671875
 40
0.40234375
 40
0.404296875
 40
0.40625
 40
0.41015625
 40
0.4140625
 40
0.421875
 40
0.4296875
 40
0.4375
 40
0.4453125
 40
0.453125
 40
0.45703125
 40
0.4609375
 40
0.462890625
 40
0.46484375
 40
0.4658203125
 40
0.466796875
 40
0.4672851562
 40
0.4677734375
 40
0.46875
 40
0.470703125
 40
0.47265625
 40
0.4765625
 40
0.48046875
 40
0.484375
 40
0.4921875
 40
0.5
 40
0.5078125
 40
0.515625
 40
0.51953125
 40
0.5234375
 40
0.52734375
 40
0.529296875
 40
0.5302734375
 40
0.53125
 40
0.5322265625
 40
0.5327148438
 40
0.533203125
 40
0.5341796875
 40
0.53515625
 40
0.537109375
 40
0.5390625
 40
0.54296875
 40
0.546875
 40
0.5546875
 40
0.5625
 40
0.5703125
 40
0.578125
 40
0.5859375
 40
0.58984375
 40
0.59375
 40
0.595703125
 40
0.59765625
 40
0.5986328125
 40
0.5991210938
 40
0.599609375
 40
0.6000976562
 40
0.6005859375
 40
0.6015625
 40
0.603515625
 40
0.60546875
 40
0.607421875
 40
0.609375
 40
0.61328125
 40
0.6171875
 40
0.625
 40
0.6328125
 40
0.640625
 40
0.6484375
 40
0.65234375
 40
0.65625
 40
0.66015625
 40
0.662109375
 40
0.6640625
 40
0.6650390625
 40
0.666015625
 40
0.6665039062
 40
0.6667480469
 40
0.6669921875
 40
0.6674804688
 40
0.66796875
 40
0.6689453125
 40
0.669921875
 40
0.671875
 40
0.673828125
 40
0.67578125
 40
0.6796875
 40
0.6875
 40
0.6953125
 40
0.703125
 40
0.7109375
 40
0.71875
 40
0.72265625
 40
0.7265625
 40
0.728515625
 40
0.73046875
 40
0.7314453125
 40
0.732421875
 40
0.7329101562
 40
0.7333984375
 40
0.7336425781
 40
0.7338867188
 40
0.734375
 40
0.7353515625
 40
0.736328125
 40
0.73828125
 40
0.740234375
 40
0.7421875
 40
0.74609375
 40
0.75
 40
0.75390625
 40
0.7578125
 40
0.765625
 40
0.7734375
 40
0.78125
 40
0.78515625
 40
0.7890625
 40
0.79296875
 40
0.796875
 40
0.7978515625
 40
0.798828125
 40
0.7993164062
 40
0.7998046875
 40
0.80078125
 40
0.8017578125
 40
0.802734375
 40
0.8046875
 40
0.806640625
 40
0.80859375
 40
0.8125
 40
0.8203125
 40
0.828125
 40
0.8359375
 40
0.84375
 40
0.84765625
 40
0.8515625
 40
0.85546875
 40
0.859375
 40
0.861328125
 40
0.86328125
 40
0.865234375
 40
0.8657226562
 40
0.8662109375
 40
0.8664550781
 40
0.8666992188
 40
0.8669433594
 40
0.8671875
 40
0.8681640625
 40
0.869140625
 40
0.8701171875
 40
0.87109375
 40
0.873046875
 40
0.875
 40
0.87890625
 40
0.8828125
 40
0.88671875
 40
0.890625
 40
0.8984375
 40
0.90625
 40
0.9140625
 40
0.91796875
 40
0.921875
 40
0.92578125
 40
0.927734375
 40
0.9296875
 40
0.931640625
 40
0.9326171875
 40
0.9331054688
 40
0.9333496094
 40
0.93359375
 40
0.9340820312
 40
0.9345703125
 40
0.935546875
 40
0.9365234375
 40
0.9375
 40
0.939453125
 40
0.94140625
 40
0.9453125
 40
0.94921875
 40
0.953125
 40
0.9609375
 40
0.96875
 40
0.9765625
 40
0.984375
 40
1.0
 40
1.0
 40
1.0
 40
1.0
 10
13.7428259583
 20
12.1780285918
 30
0.0
 10
13.7544117908
 20
12.1600340081
 30
0.0
 10
13.7717905396
 20
12.1330421325
 30
0.0
 10
13.7949622045
 20
12.097052965
 30
0.0
 10
13.8123409536
 20
12.0700610895
 30
0.0
 10
13.829719701
 20
12.0430692137
 30
0.0
 10
13.844201996
 20
12.0205759847
 30
0.0
 10
13.8557878195
 20
12.0025813996
 30
0.0
 10
13.8644772215
 20
11.989085466
 30
0.0
 10
13.8717182803
 20
11.977838838
 30
0.0
 10
13.8775113731
 20
11.9688415729
 30
0.0
 10
13.8811314965
 20
11.9632181974
 30
0.0
 10
13.8840288768
 20
11.9587196912
 30
0.0
 10
13.886198403
 20
11.95534528
 30
0.0
 10
13.8880175045
 20
11.9525349615
 30
0.0
 10
13.8894477489
 20
11.9502829144
 30
0.0
 10
13.8903986621
 20
11.9488840204
 30
0.0
 10
13.8910288268
 20
11.9477451282
 30
0.0
 10
13.8921356464
 20
11.9466784354
 30
0.0
 10
13.8939093019
 20
11.9447869909
 30
0.0
 10
13.8975725361
 20
11.941021661
 30
0.0
 10
13.9027451219
 20
11.9356334381
 30
0.0
 10
13.9089781662
 20
11.9291715001
 30
0.0
 10
13.9172798304
 20
11.9205542102
 30
0.0
 10
13.9276600195
 20
11.9097830687
 30
0.0
 10
13.9401149158
 20
11.8968574973
 30
0.0
 10
13.9567219089
 20
11.8796234725
 30
0.0
 10
13.9774804911
 20
11.8580809175
 30
0.0
 10
14.0023908569
 20
11.8322298614
 30
0.0
 10
14.0231494834
 20
11.8106873136
 30
0.0
 10
14.0397563789
 20
11.7934532728
 30
0.0
 10
14.0522115748
 20
11.7805277506
 30
0.0
 10
14.0646666767
 20
11.7676021961
 30
0.0
 10
14.0750462211
 20
11.7568310016
 30
0.0
 10
14.0833492008
 20
11.7482138198
 30
0.0
 10
14.0895782275
 20
11.7417515513
 30
0.0
 10
14.0947633831
 20
11.7363643625
 30
0.0
 10
14.0989242917
 20
11.7320590186
 30
0.0
 10
14.1012386034
 20
11.729628231
 30
0.0
 10
14.102823146
 20
11.7280220701
 30
0.0
 10
14.1035408142
 20
11.7271932718
 30
0.0
 10
14.1045485612
 20
11.7264644721
 30
0.0
 10
14.1064982288
 20
11.7249841804
 30
0.0
 10
14.1107608895
 20
11.7217901129
 30
0.0
 10
14.1199067905
 20
11.7148984434
 30
0.0
 10
14.1329907738
 20
11.7050595479
 30
0.0
 10
14.1486836734
 20
11.6932501567
 30
0.0
 10
14.1696102922
 20
11.6775052507
 30
0.0
 10
14.1957676219
 20
11.6578237929
 30
0.0
 10
14.2271568188
 20
11.6342061814
 30
0.0
 10
14.2585459208
 20
11.6105885392
 30
0.0
 10
14.2899350012
 20
11.5869708816
 30
0.0
 10
14.3160927193
 20
11.5672895773
 30
0.0
 10
14.3344028141
 20
11.5535125093
 30
0.0
 10
14.3448662078
 20
11.5456401416
 30
0.0
 10
14.3527123938
 20
11.5397351824
 30
0.0
 10
14.3592552123
 20
11.5348165599
 30
0.0
 10
14.3644797542
 20
11.5308767793
 30
0.0
 10
14.3684247014
 20
11.5279352855
 30
0.0
 10
14.3716277351
 20
11.5254416029
 30
0.0
 10
14.374815041
 20
11.5237607744
 30
0.0
 10
14.3778932275
 20
11.5220250931
 30
0.0
 10
14.381778258
 20
11.5198742403
 30
0.0
 10
14.3910716337
 20
11.5146967626
 30
0.0
 10
14.4050245907
 20
11.5069370272
 30
0.0
 10
14.423621164
 20
11.496587009
 30
0.0
 10
14.4422197087
 20
11.4862379818
 30
0.0
 10
14.4670170797
 20
11.4724389327
 30
0.0
 10
14.4980140294
 20
11.4551902396
 30
0.0
 10
14.5352102696
 20
11.4344917597
 30
0.0
 10
14.57240653
 20
11.4137932831
 30
0.0
 10
14.6034034291
 20
11.3965445818
 30
0.0
 10
14.6282009012
 20
11.382745549
 30
0.0
 10
14.6436994315
 20
11.3741213183
 30
0.0
 10
14.656098003
 20
11.3672215562
 30
0.0
 10
14.6653976237
 20
11.3620477685
 30
0.0
 10
14.6731451061
 20
11.3577329895
 30
0.0
 10
14.6793480296
 20
11.3542885437
 30
0.0
 10
14.6832136135
 20
11.3521189663
 30
0.0
 10
14.6863318302
 20
11.350421777
 30
0.0
 10
14.6885999899
 20
11.3490435462
 30
0.0
 10
14.6911372859
 20
11.3480674346
 30
0.0
 10
14.6944787297
 20
11.3467037712
 30
0.0
 10
14.6986697595
 20
11.3450204457
 30
0.0
 10
14.7087165232
 20
11.3409629719
 30
0.0
 10
14.7237915852
 20
11.3348841069
 30
0.0
 10
14.7438888621
 20
11.3267747613
 30
0.0
 10
14.7706862113
 20
11.3159637649
 30
0.0
 10
14.8041825616
 20
11.3024495173
 30
0.0
 10
14.8443783255
 20
11.2862326337
 30
0.0
 10
14.8845740535
 20
11.2700156994
 30
0.0
 10
14.9247697815
 20
11.2537987542
 30
0.0
 10
14.9582662514
 20
11.2402847119
 30
0.0
 10
14.9817137176
 20
11.2308247219
 30
0.0
 10
14.9951123683
 20
11.2254192646
 30
0.0
 10
15.0051610784
 20
11.2213644636
 30
0.0
 10
15.0152108508
 20
11.2173123688
 30
0.0
 10
15.0227452016
 20
11.2142657103
 30
0.0
 10
15.0277727344
 20
11.2122464047
 30
0.0
 10
15.0302782291
 20
11.2112156809
 30
0.0
 10
15.0328158841
 20
11.2102668811
 30
0.0
 10
15.0363524488
 20
11.2093916245
 30
0.0
 10
15.0407207593
 20
11.2081640836
 30
0.0
 10
15.047739337
 20
11.2062746075
 30
0.0
 10
15.0565025333
 20
11.2038872229
 30
0.0
 10
15.0705292508
 20
11.2000816816
 30
0.0
 10
15.0880607252
 20
11.1953198575
 30
0.0
 10
15.1090993173
 20
11.1896077651
 30
0.0
 10
15.1371504861
 20
11.1819909086
 30
0.0
 10
15.1722145458
 20
11.1724700969
 30
0.0
 10
15.2142913745
 20
11.1610449795
 30
0.0
 10
15.2563682171
 20
11.1496200213
 30
0.0
 10
15.2914322421
 20
11.1400988118
 30
0.0
 10
15.3194834802
 20
11.1324827509
 30
0.0
 10
15.3405218606
 20
11.1267682316
 30
0.0
 10
15.3580539975
 20
11.1220139999
 30
0.0
 10
15.3720793634
 20
11.118192969
 30
0.0
 10
15.3825993268
 20
11.1153754116
 30
0.0
 10
15.3913629763
 20
11.1128740802
 30
0.0
 10
15.3983960019
 20
11.1120081992
 30
0.0
 10
15.4054251668
 20
11.1109440703
 30
0.0
 10
15.4142129449
 20
11.1096817888
 30
0.0
 10
15.4282726511
 20
11.1076242041
 30
0.0
 10
15.4458475368
 20
11.1050652119
 30
0.0
 10
15.4739672124
 20
11.1009635657
 30
0.0
 10
15.5091168566
 20
11.0958389928
 30
0.0
 10
15.5512964036
 20
11.0896884661
 30
0.0
 10
15.5934759753
 20
11.0835381207
 30
0.0
 10
15.635655474
 20
11.0773880896
 30
0.0
 10
15.6708052789
 20
11.0722618645
 30
0.0
 10
15.698924625
 20
11.0681636054
 30
0.0
 10
15.7165003497
 20
11.0655959907
 30
0.0
 10
15.7305583337
 20
11.0635561054
 30
0.0
 10
15.7393504963
 20
11.0622487622
 30
0.0
 10
15.7463706612
 20
11.0612771317
 30
0.0
 10
15.7507892158
 20
11.06050046
 30
0.0
 10
15.7542022601
 20
11.06054575
 30
0.0
 10
15.7576365468
 20
11.0604747771
 30
0.0
 10
15.7636366527
 20
11.0604047365
 30
0.0
 10
15.7722133957
 20
11.0602764193
 30
0.0
 10
15.7859332987
 20
11.0600869058
 30
0.0
 10
15.8030841676
 20
11.059844595
 30
0.0
 10
15.8236647865
 20
11.0595561416
 30
0.0
 10
15.8511057596
 20
11.0591707269
 30
0.0
 10
15.8854069256
 20
11.0586892361
 30
0.0
 10
15.9265683449
 20
11.0581113302
 30
0.0
 10
15.9677297647
 20
11.0575334476
 30
0.0
 10
16.0020309294
 20
11.0570518984
 30
0.0
 10
16.0294719051
 20
11.0566666004
 30
0.0
 10
16.0500525163
 20
11.0563777909
 30
0.0
 10
16.0672034092
 20
11.0561365942
 30
0.0
 10
16.0792082814
 20
11.0559687813
 30
0.0
 10
16.0860693839
 20
11.055871288
 30
0.0
 10
16.0912118995
 20
11.0558026759
 30
0.0
 10
16.0955078768
 20
11.0557311394
 30
0.0
 10
16.098921
 20
11.0557061198
 30
0.0
 10
16.1024203196
 20
11.0555637496
 30
0.0
 10
16.106177569
 20
11.0562256546
 30
0.0
 10
16.112389839
 20
11.0570115027
 30
0.0
 10
16.1200864672
 20
11.058087356
 30
0.0
 10
16.1324394702
 20
11.059756445
 30
0.0
 10
16.1478675764
 20
11.0618607058
 30
0.0
 10
16.1725598946
 20
11.0652175188
 30
0.0
 10
16.2034227709
 20
11.069416968
 30
0.0
 10
16.2404593033
 20
11.0744548354
 30
0.0
 10
16.2774955465
 20
11.0794930967
 30
0.0
 10
16.3145318657
 20
11.0845312541
 30
0.0
 10
16.3453954528
 20
11.0887297368
 30
0.0
 10
16.3700863137
 20
11.0920885312
 30
0.0
 10
16.3855181297
 20
11.094187748
 30
0.0
 10
16.3978635178
 20
11.0958671907
 30
0.0
 10
16.4055795332
 20
11.0969166839
 30
0.0
 10
16.4109804476
 20
11.0976516469
 30
0.0
 10
16.4140671481
 20
11.0980711285
 30
0.0
 10
16.4163808672
 20
11.0983871407
 30
0.0
 10
16.4186995796
 20
11.0986977978
 30
0.0
 10
16.4212678012
 20
11.0996733169
 30
0.0
 10
16.4260060508
 20
11.1011189483
 30
0.0
 10
16.4326474665
 20
11.1033208853
 30
0.0
 10
16.440671826
 20
11.1059045894
 30
0.0
 10
16.4486815627
 20
11.1085039756
 30
0.0
 10
16.4593663191
 20
11.1119643465
 30
0.0
 10
16.4727205157
 20
11.1162916855
 30
0.0
 10
16.4940882078
 20
11.1232143797
 30
0.0
 10
16.5207974868
 20
11.1318681078
 30
0.0
 10
16.5528487691
 20
11.1422524243
 30
0.0
 10
16.584899999
 20
11.152636793
 30
0.0
 10
16.6116094091
 20
11.1612903907
 30
0.0
 10
16.6329768388
 20
11.1682133456
 30
0.0
 10
16.6490026752
 20
11.1734053573
 30
0.0
 10
16.6623566996
 20
11.1777326833
 30
0.0
 10
16.6730418012
 20
11.1811930873
 30
0.0
 10
16.6797157042
 20
11.183359157
 30
0.0
 10
16.6850646412
 20
11.1850844157
 30
0.0
 10
16.6883853329
 20
11.1861800365
 30
0.0
 10
16.6907546975
 20
11.1869122313
 30
0.0
 10
16.6920384005
 20
11.187384982
 30
0.0
 10
16.6930575757
 20
11.1880624915
 30
0.0
 10
16.6944221186
 20
11.1888392694
 30
0.0
 10
16.6965547703
 20
11.1901212942
 30
0.0
 10
16.6992379162
 20
11.1917104099
 30
0.0
 10
16.7035212631
 20
11.1942604928
 30
0.0
 10
16.7088787702
 20
11.197445524
 30
0.0
 10
16.7153063563
 20
11.2012686624
 30
0.0
 10
16.7238769673
 20
11.2063657962
 30
0.0
 10
16.7388753052
 20
11.2152859593
 30
0.0
 10
16.7603016239
 20
11.2280289555
 30
0.0
 10
16.7860131509
 20
11.2433205933
 30
0.0
 10
16.8117247048
 20
11.258612212
 30
0.0
 10
16.8374362067
 20
11.2739038647
 30
0.0
 10
16.8588626092
 20
11.2866468113
 30
0.0
 10
16.876003395
 20
11.2968413851
 30
0.0
 10
16.8867171513
 20
11.3032125011
 30
0.0
 10
16.8952864038
 20
11.308310522
 30
0.0
 10
16.9006461855
 20
11.3114942113
 30
0.0
 10
16.9049248516
 20
11.3140470576
 30
0.0
 10
16.9076199167
 20
11.3156291362
 30
0.0
 10
16.9097281014
 20
11.3169256063
 30
0.0
 10
16.911154936
 20
11.3176656071
 30
0.0
 10
16.9118666082
 20
11.3185342226
 30
0.0
 10
16.9126532386
 20
11.3193545953
 30
0.0
 10
16.9139949221
 20
11.3208127217
 30
0.0
 10
16.9159298323
 20
11.3228840334
 30
0.0
 10
16.9190155057
 20
11.3262046859
 30
0.0
 10
16.9228760911
 20
11.3303532529
 30
0.0
 10
16.9275072982
 20
11.3353324958
 30
0.0
 10
16.9336827634
 20
11.34197115
 30
0.0
 10
16.9414019157
 20
11.3502695833
 30
0.0
 10
16.9506649752
 20
11.3602276537
 30
0.0
 10
16.9599280144
 20
11.3701857373
 30
0.0
 10
16.9722787392
 20
11.3834631779
 30
0.0
 10
16.9877171517
 20
11.400059977
 30
0.0
 10
17.0062432067
 20
11.4199761501
 30
0.0
 10
17.0216817106
 20
11.4365729158
 30
0.0
 10
17.0340322343
 20
11.4498504299
 30
0.0
 10
17.0432958906
 20
11.4598082879
 30
0.0
 10
17.0525566327
 20
11.4697672055
 30
0.0
 10
17.059510359
 20
11.4772334231
 30
0.0
 10
17.064133471
 20
11.4822155214
 30
0.0
 10
17.0660786742
 20
11.484284521
 30
0.0
 10
17.0675907317
 20
11.4859557579
 30
0.0
 10
17.0692640844
 20
11.4875683456
 30
0.0
 10
17.0702011918
 20
11.4900039031
 30
0.0
 10
17.0714754675
 20
11.492872122
 30
0.0
 10
17.0731221932
 20
11.4967154339
 30
0.0
 10
17.075198547
 20
11.5015130483
 30
0.0
 10
17.0776824906
 20
11.5072729783
 30
0.0
 10
17.0809970945
 20
11.5149519109
 30
0.0
 10
17.0867964031
 20
11.5283904969
 30
0.0
 10
17.0950817825
 20
11.5475882394
 30
0.0
 10
17.1050239576
 20
11.5706256323
 30
0.0
 10
17.1149662086
 20
11.5936629977
 30
0.0
 10
17.1232513983
 20
11.6128608091
 30
0.0
 10
17.1298795589
 20
11.6282190554
 30
0.0
 10
17.1348506644
 20
11.6397377444
 30
0.0
 10
17.1398218254
 20
11.6512564177
 30
0.0
 10
17.1439642872
 20
11.6608553609
 30
0.0
 10
17.1472786425
 20
11.6685344062
 30
0.0
 10
17.1497633547
 20
11.6742939889
 30
0.0
 10
17.1516299069
 20
11.6786128206
 30
0.0
 10
17.1528695745
 20
11.6814933738
 30
0.0
 10
17.1533930985
 20
11.6826916218
 30
0.0
 10
17.1537955978
 20
11.6836548451
 30
0.0
 10
17.1541422345
 20
11.6843645775
 30
0.0
 10
17.1541022413
 20
11.685183876
 30
0.0
 10
17.1542211389
 20
11.6867661117
 30
0.0
 10
17.1543159517
 20
11.6891631378
 30
0.0
 10
17.1544901131
 20
11.6923456423
 30
0.0
 10
17.154651502
 20
11.6955317665
 30
0.0
 10
17.1548711484
 20
11.6997786678
 30
0.0
 10
17.1551441788
 20
11.7050877273
 30
0.0
 10
17.1555818813
 20
11.7135819805
 30
0.0
 10
17.1561287163
 20
11.7241998801
 30
0.0
 10
17.1567850441
 20
11.7369413239
 30
0.0
 10
17.157441338
 20
11.7496827774
 30
0.0
 10
17.1583164091
 20
11.7666713785
 30
0.0
 10
17.1594102391
 20
11.787907132
 30
0.0
 10
17.1607228589
 20
11.8133900313
 30
0.0
 10
17.1618166412
 20
11.8346257942
 30
0.0
 10
17.1626918172
 20
11.8516143746
 30
0.0
 10
17.1633477891
 20
11.8643558918
 30
0.0
 10
17.1638957368
 20
11.8749735621
 30
0.0
 10
17.1643311695
 20
11.883468283
 30
0.0
 10
17.1646657375
 20
11.8898377261
 30
0.0
 10
17.1649191183
 20
11.895150677
 30
0.0
 10
17.1651463821
 20
11.8988597701
 30
0.0
 10
17.1651918424
 20
11.9007279416
 30
0.0
 10
17.1653275571
 20
11.9017735358
 30
0.0
 10
17.1649026538
 20
11.9029311761
 30
0.0
 10
17.1645634811
 20
11.9043398617
 30
0.0
 10
17.1639135201
 20
11.9066152008
 30
0.0
 10
17.1631378777
 20
11.909452018
 30
0.0
 10
17.1621913514
 20
11.9128593475
 30
0.0
 10
17.1609348194
 20
11.9174013537
 30
0.0
 10
17.1593622702
 20
11.923079238
 30
0.0
 10
17.1568472445
 20
11.9321636425
 30
0.0
 10
17.1537031011
 20
11.9435192203
 30
0.0
 10
17.1499302837
 20
11.9571458827
 30
0.0
 10
17.1448998064
 20
11.9753147767
 30
0.0
 10
17.1386117283
 20
11.9980258905
 30
0.0
 10
17.1310660267
 20
12.0252792287
 30
0.0
 10
17.1235203273
 20
12.0525325665
 30
0.0
 10
17.1134593939
 20
12.0888703503
 30
0.0
 10
17.105913694
 20
12.1161236881
 30
0.0
 10
17.1008832274
 20
12.13429258
 30
0.0
  0
SPLINE
  5
34E
100
AcDbEntity
  8
03__ASM_ALL_CURVES
100
AcDbSpline
 62
8
  6
PHANTOM
 70
0
 71
3
 72
24
 73
20
 74
0
 42
0.0000001
 43
0.0000001
 44
0.0000000001
 40
0.0
 40
0.0
 40
0.0
 40
0.0
 40
0.0625
 40
0.125
 40
0.140625
 40
0.15625
 40
0.1640625
 40
0.171875
 40
0.1875
 40
0.21875
 40
0.25
 40
0.3125
 40
0.375
 40
0.5
 40
0.625
 40
0.75
 40
0.8125
 40
0.875
 40
1.0
 40
1.0
 40
1.0
 40
1.0
 10
17.1008831747
 20
12.1342927018
 30
0.0
 10
17.1006691758
 20
12.134783819
 30
0.0
 10
17.1002425215
 20
12.1357630764
 30
0.0
 10
17.0997564901
 20
12.1368781374
 30
0.0
 10
17.0994412852
 20
12.137601975
 30
0.0
 10
17.0992969356
 20
12.1379324134
 30
0.0
 10
17.0992118084
 20
12.1381295031
 30
0.0
 10
17.099015683
 20
12.1385725653
 30
0.0
 10
17.0986208682
 20
12.1394622088
 30
0.0
 10
17.0980839371
 20
12.1406734981
 30
0.0
 10
17.097208714
 20
12.1426448967
 30
0.0
 10
17.0961273251
 20
12.1450976466
 30
0.0
 10
17.0943484734
 20
12.1490289643
 30
0.0
 10
17.0921312985
 20
12.1539430597
 30
0.0
 10
17.0893898532
 20
12.1598321815
 30
0.0
 10
17.0870591271
 20
12.16477023
 30
0.0
 10
17.0852232351
 20
12.1686526784
 30
0.0
 10
17.0832278175
 20
12.1727835216
 30
0.0
 10
17.0816937636
 20
12.1759380869
 30
0.0
 10
17.0806793923
 20
12.1780285897
 30
0.0
  0
ELLIPSE
  5
34F
100
AcDbEntity
  8
0
100
AcDbEllipse
 62
7
  6
CONTINUOUS
 10
6.0708720839
 20
10.6791290561
 30
0.0
 11
0.0
 21
1.8759964482
 31
0.0
 40
0.6579836551
 41
-0.1257540911
 42
0.1257540911
  0
ELLIPSE
  5
350
100
AcDbEntity
  8
0
100
AcDbEllipse
 62
7
  6
CONTINUOUS
 10
15.0640138168
 20
11.052745235
 30
0.0
 11
0.1045156993
 21
2.2361894272
 31
0.0
 40
0.5074594781
 41
-0.102040742
 42
0.1494674402
  0
ENDSEC
  0
SECTION
  2
OBJECTS
  0
DICTIONARY
  5
C
100
AcDbDictionary
280
0
281
1
  3
ACAD_GROUP
350
D
  3
ACAD_MLINESTYLE
350
17
  3
ACAD_LAYOUT
350
1A
  3
ACAD_PLOTSETTINGS
350
19
  3
ACAD_PLOTSTYLENAME
350
E
  0
DICTIONARY
  5
D
102
{ACAD_REACTORS
330
C
102
}
100
AcDbDictionary
280
0
281
1
  0
ACDBDICTIONARYWDFLT
  5
E
102
{ACAD_REACTORS
330
C
102
}
100
AcDbDictionary
281
1
  3
Normal
350
F
100
AcDbDictionaryWithDefault
340
F
  0
DICTIONARY
  5
17
102
{ACAD_REACTORS
330
C
102
}
100
AcDbDictionary
280
0
281
1
  3
Standard
350
18
  0
DICTIONARY
  5
19
102
{ACAD_REACTORS
330
C
102
}
100
AcDbDictionary
281
1
  0
DICTIONARY
  5
1A
102
{ACAD_REACTORS
330
C
102
}
100
AcDbDictionary
281
1
  3
Model
350
351
  3
Layout1
350
352
  0
ACDBPLACEHOLDER
  5
F
102
{ACAD_REACTORS
330
E
102
}
  0
MLINESTYLE
  5
18
102
{ACAD_REACTORS
330
17
102
}
100
AcDbMlineStyle
  2
STANDARD
 70
0
  3

 62
256
 51
90.0
 52
90.0
 71
2
 49
0.5
 62
256
  6
BYLAYER
 49
-0.5
 62
256
  6
BYLAYER
  0
LAYOUT
  5
351
102
{ACAD_REACTORS
330
1A
102
}
100
AcDbPlotSettings
  1

  2
none_device
  4
ANSI_C_(22.00_x_17.00_Inches)
  6

 40
0.0
 41
0.0
 42
0.0
 43
0.0
 44
558.8
 45
431.8
 46
0.0
 47
0.0
 48
0.0
 49
0.0
140
0.0
141
0.0
142
1.0
143
1.0
 70
1024
 72
0
 73
0
 74
0
  7

 75
0
147
1.0
148
0.0
149
0.0
100
AcDbLayout
  1
Model
 70
0
 71
0
 10
0.0
 20
0.0
 11
22.0
 21
17.0
 12
0.0
 22
0.0
 32
0.0
 14
0.0
 24
0.0
 34
0.0
 15
0.0
 25
0.0
 35
0.0
146
0.0
 13
0.0
 23
0.0
 33
0.0
 16
1.0
 26
0.0
 36
0.0
 17
0.0
 27
1.0
 37
0.0
 76
0
330
219
345
0
346
0
  0
LAYOUT
  5
352
102
{ACAD_REACTORS
330
1A
102
}
100
AcDbPlotSettings
  1

  2
none_device
  4
ANSI_C_(22.00_x_17.00_Inches)
  6

 40
0.0
 41
0.0
 42
0.0
 43
0.0
 44
558.8
 45
431.8
 46
0.0
 47
0.0
 48
0.0
 49
0.0
140
0.0
141
0.0
142
1.0
143
1.0
 70
0
 72
0
 73
0
 74
0
  7

 75
0
147
1.0
148
0.0
149
0.0
100
AcDbLayout
  1
Layout1
 70
0
 71
1
 10
0.0
 20
0.0
 11
22.0
 21
17.0
 12
0.0
 22
0.0
 32
0.0
 14
0.0
 24
0.0
 34
0.0
 15
0.0
 25
0.0
 35
0.0
146
0.0
 13
0.0
 23
0.0
 33
0.0
 16
1.0
 26
0.0
 36
0.0
 17
0.0
 27
1.0
 37
0.0
 76
0
330
21A
345
0
346
0
  0
ENDSEC
  0
EOF