999
DXF file: _cgs_temp_output.dxf
999
Pro/ENGINEER 2016360 by Parametric Technology Corporation
  0
SECTION
  2
HEADER
  9
$ACADVER
  1
AC1021
  9
$DWGCODEPAGE
  3
ANSI_1252
  9
$EXTMAX
 10
22.0
 20
17.0
 30
0.0
  9
$EXTMIN
 10
0.0
 20
0.0
 30
0.0
  9
$LIMMIN
 10
0.0
 20
0.0
  9
$LIMMAX
 10
22.0
 20
17.0
  9
$VIEWCTR
 10
11.0
 20
8.5
  9
$VIEWSIZE
 40
17.0
  9
$CLAYER
  8
0
  9
$LTSCALE
 40
1.21
  9
$CELTYPE
  6
BYLAYER
  9
$DIMSCALE
 40
1.0
  9
$DIMASZ
 40
0.1875
  9
$DIMEXO
 40
0.0625
  9
$DIMDLI
 40
0.836
  9
$DIMEXE
 40
0.125
  9
$DIMCEN
 40
0.198
  9
$DIMLFAC
 40
1.0
  9
$DIMBLK
  1
_CLOSED
  9
$DIMALT
 70
0
  9
$DIMALTF
 40
25.4
  9
$DIMTXT
 40
0.15625
  9
$DIMTOL
 70
0
  9
$DIMLIM
 70
0
  9
$DIMTFAC
 40
1.0
  9
$DIMGAP
 40
0.09
  9
$DIMDSEP
 70
46
  9
$AUNITS
 70
0
  9
$PDMODE
 70
3
  9
$PDSIZE
 40
0.3125
  9
$HANDSEED
  5
45D
  9
$TILEMODE
 70
1
  9
$MEASUREMENT
 70
0
  9
$INSUNITS
 70
1
  0
ENDSEC
  0
SECTION
  2
CLASSES
  0
CLASS
  1
ACDBDICTIONARYWDFLT
  2
AcDbDictionaryWithDefault
  3
AutoCAD 2000
 90
0
 91
1
280
0
281
0
  0
CLASS
  1
ACDBPLACEHOLDER
  2
AcDbPlaceHolder
  3
AutoCAD 2000
 90
0
 91
1
280
0
281
0
  0
CLASS
  1
LAYOUT
  2
AcDbLayout
  3
AutoCAD 2000
 90
0
 91
0
280
0
281
0
  0
ENDSEC
  0
SECTION
  2
TABLES
  0
TABLE
  2
VPORT
  5
8
100
AcDbSymbolTable
 70
2
  0
VPORT
  5
1F4
100
AcDbSymbolTableRecord
100
AcDbViewportTableRecord
  2
*ACTIVE
 70
0
 10
0.0
 20
0.0
 11
1.0
 21
1.0
 12
11.0
 22
8.5
 13
0.0
 23
0.0
 14
1.0
 24
1.0
 15
0.0
 25
0.0
 16
0.0
 26
0.0
 36
1.0
 17
0.0
 27
0.0
 37
0.0
 40
17.0
 41
1.2941176471
 42
50.0
 43
0.0
 44
0.0
 50
0.0
 51
0.0
 71
0
 72
100
 73
1
 74
1
 75
0
 76
0
 77
0
 78
0
  0
ENDTAB
  0
TABLE
  2
LTYPE
  5
5
100
AcDbSymbolTable
 70
6
  0
LTYPE
  5
14
100
AcDbSymbolTableRecord
100
AcDbLinetypeTableRecord
  2
BYBLOCK
 70
0
  3

 72
65
 73
0
 40
0.0
  0
LTYPE
  5
15
100
AcDbSymbolTableRecord
100
AcDbLinetypeTableRecord
  2
BYLAYER
 70
0
  3

 72
65
 73
0
 40
0.0
  0
LTYPE
  5
16
100
AcDbSymbolTableRecord
100
AcDbLinetypeTableRecord
  2
CONTINUOUS
 70
64
  3
Solid line
 72
65
 73
0
 40
0.0
  0
LTYPE
  5
1F5
100
AcDbSymbolTableRecord
100
AcDbLinetypeTableRecord
  2
CENTER
 70
64
  3
____ _ ____ _ ____ _ ____ _ ____ _ ____ _ ____
 72
65
 73
4
 40
0.6
 49
0.375
 74
0
 49
-0.075
 74
0
 49
0.075
 74
0
 49
-0.075
 74
0
  0
LTYPE
  5
1F6
100
AcDbSymbolTableRecord
100
AcDbLinetypeTableRecord
  2
HIDDEN
 70
64
  3
- - - - - - - - - - - - - - - - - - - -
 72
65
 73
2
 40
0.2
 49
0.1
 74
0
 49
-0.1
 74
0
  0
LTYPE
  5
1F7
100
AcDbSymbolTableRecord
100
AcDbLinetypeTableRecord
  2
PHANTOM
 70
64
  3
_____ _ _ _____ _ _ _____ _ _ _____
 72
65
 73
6
 40
0.8
 49
0.45
 74
0
 49
-0.05
 74
0
 49
0.1
 74
0
 49
-0.05
 74
0
 49
0.1
 74
0
 49
-0.05
 74
0
  0
LTYPE
  5
1F8
100
AcDbSymbolTableRecord
100
AcDbLinetypeTableRecord
  2
DOT
 70
64
  3
. . . . . . . . . . . . . . . . . . . .
 72
65
 73
2
 40
0.2
 49
0.1
 74
0
 49
-0.1
 74
0
  0
LTYPE
  5
1F9
100
AcDbSymbolTableRecord
100
AcDbLinetypeTableRecord
  2
DASHED
 70
64
  3
- - - - - - - - - - - - - - - - - - - -
 72
65
 73
2
 40
0.2
 49
0.1
 74
0
 49
-0.1
 74
0
  0
ENDTAB
  0
TABLE
  2
LAYER
  5
2
100
AcDbSymbolTable
 70
36
  0
LAYER
  5
10
100
AcDbSymbolTableRecord
100
AcDbLayerTableRecord
  2
0
 70
0
 62
7
  6
CONTINUOUS
370
-3
390
F
  0
LAYER
  5
1FA
100
AcDbSymbolTableRecord
100
AcDbLayerTableRecord
  2
DEFAULT_1
 70
0
 62
7
  6
CENTER
370
-3
390
F
  0
LAYER
  5
1FB
100
AcDbSymbolTableRecord
100
AcDbLayerTableRecord
  2
DEFAULT_2
 70
0
 62
8
  6
HIDDEN
370
-3
390
F
  0
LAYER
  5
1FC
100
AcDbSymbolTableRecord
100
AcDbLayerTableRecord
  2
DEFAULT_3
 70
0
 62
7
  6
PHANTOM
370
-3
390
F
  0
LAYER
  5
1FD
100
AcDbSymbolTableRecord
100
AcDbLayerTableRecord
  2
01_ALL_DTM_PLN
 70
0
 62
7
  6
CONTINUOUS
370
-3
390
F
  0
LAYER
  5
1FE
100
AcDbSymbolTableRecord
100
AcDbLayerTableRecord
  2
01__ASM_ALL_DTM_PLN
 70
0
 62
7
  6
CONTINUOUS
370
-3
390
F
  0
LAYER
  5
1FF
100
AcDbSymbolTableRecord
100
AcDbLayerTableRecord
  2
01__ASM_DEF_DTM_PLN
 70
0
 62
7
  6
CONTINUOUS
370
-3
390
F
  0
LAYER
  5
200
100
AcDbSymbolTableRecord
100
AcDbLayerTableRecord
  2
01___PRT_ALL_DTM_PLN
 70
0
 62
7
  6
CONTINUOUS
370
-3
390
F
  0
LAYER
  5
201
100
AcDbSymbolTableRecord
100
AcDbLayerTableRecord
  2
01___PRT_DEF_DTM_PLN
 70
0
 62
7
  6
CONTINUOUS
370
-3
390
F
  0
LAYER
  5
202
100
AcDbSymbolTableRecord
100
AcDbLayerTableRecord
  2
02_ALL_AXES
 70
0
 62
7
  6
CONTINUOUS
370
-3
390
F
  0
LAYER
  5
203
100
AcDbSymbolTableRecord
100
AcDbLayerTableRecord
  2
02__ASM_ALL_AXES
 70
0
 62
7
  6
CONTINUOUS
370
-3
390
F
  0
LAYER
  5
204
100
AcDbSymbolTableRecord
100
AcDbLayerTableRecord
  2
02___PRT_ALL_AXES
 70
0
 62
7
  6
CONTINUOUS
370
-3
390
F
  0
LAYER
  5
205
100
AcDbSymbolTableRecord
100
AcDbLayerTableRecord
  2
03_ALL_CURVES
 70
0
 62
7
  6
CONTINUOUS
370
-3
390
F
  0
LAYER
  5
206
100
AcDbSymbolTableRecord
100
AcDbLayerTableRecord
  2
03__ASM_ALL_CURVES
 70
0
 62
7
  6
CONTINUOUS
370
-3
390
F
  0
LAYER
  5
207
100
AcDbSymbolTableRecord
100
AcDbLayerTableRecord
  2
03___PRT_ALL_CURVES
 70
0
 62
7
  6
CONTINUOUS
370
-3
390
F
  0
LAYER
  5
208
100
AcDbSymbolTableRecord
100
AcDbLayerTableRecord
  2
04_ALL_DTM_PNT
 70
0
 62
7
  6
CONTINUOUS
370
-3
390
F
  0
LAYER
  5
209
100
AcDbSymbolTableRecord
100
AcDbLayerTableRecord
  2
04__ASM_ALL_DTM_PNT
 70
0
 62
7
  6
CONTINUOUS
370
-3
390
F
  0
LAYER
  5
20A
100
AcDbSymbolTableRecord
100
AcDbLayerTableRecord
  2
04___PRT_ALL_DTM_PNT
 70
0
 62
7
  6
CONTINUOUS
370
-3
390
F
  0
LAYER
  5
20B
100
AcDbSymbolTableRecord
100
AcDbLayerTableRecord
  2
05_ALL_DTM_CSYS
 70
0
 62
7
  6
CONTINUOUS
370
-3
390
F
  0
LAYER
  5
20C
100
AcDbSymbolTableRecord
100
AcDbLayerTableRecord
  2
05__ASM_ALL_DTM_CSYS
 70
0
 62
7
  6
CONTINUOUS
370
-3
390
F
  0
LAYER
  5
20D
100
AcDbSymbolTableRecord
100
AcDbLayerTableRecord
  2
05__ASM_DEF_DTM_CSYS
 70
0
 62
7
  6
CONTINUOUS
370
-3
390
F
  0
LAYER
  5
20E
100
AcDbSymbolTableRecord
100
AcDbLayerTableRecord
  2
05___PRT_ALL_DTM_CSYS
 70
0
 62
7
  6
CONTINUOUS
370
-3
390
F
  0
LAYER
  5
20F
100
AcDbSymbolTableRecord
100
AcDbLayerTableRecord
  2
05___PRT_DEF_DTM_CSYS
 70
0
 62
7
  6
CONTINUOUS
370
-3
390
F
  0
LAYER
  5
210
100
AcDbSymbolTableRecord
100
AcDbLayerTableRecord
  2
06_ALL_SURFS
 70
0
 62
7
  6
CONTINUOUS
370
-3
390
F
  0
LAYER
  5
211
100
AcDbSymbolTableRecord
100
AcDbLayerTableRecord
  2
06__ASM_ALL_SURFS
 70
0
 62
7
  6
CONTINUOUS
370
-3
390
F
  0
LAYER
  5
212
100
AcDbSymbolTableRecord
100
AcDbLayerTableRecord
  2
06___PRT_ALL_SURFS
 70
0
 62
7
  6
CONTINUOUS
370
-3
390
F
  0
LAYER
  5
213
100
AcDbSymbolTableRecord
100
AcDbLayerTableRecord
  2
07__ASM_ALL_SKELETONS
 70
0
 62
7
  6
CONTINUOUS
370
-3
390
F
  0
LAYER
  5
214
100
AcDbSymbolTableRecord
100
AcDbLayerTableRecord
  2
SHELL
 70
0
 62
7
  6
CONTINUOUS
370
-3
390
F
  0
ENDTAB
  0
TABLE
  2
STYLE
  5
3
100
AcDbSymbolTable
 70
1
  0
STYLE
  5
11
100
AcDbSymbolTableRecord
100
AcDbTextStyleTableRecord
  2
STANDARD
 70
0
 40
0.0
 41
0.8
 50
0.0
 71
0
 42
0.2
  3
txt
  4

  0
STYLE
  5
215
100
AcDbSymbolTableRecord
100
AcDbTextStyleTableRecord
  2
TEXTSTYLE_1
 70
0
 40
0.0
 41
0.8
 50
0.0
 71
0
 42
0.2
  3
gdt
  4

  0
ENDTAB
  0
TABLE
  2
VIEW
  5
6
100
AcDbSymbolTable
 70
0
  0
ENDTAB
  0
TABLE
  2
UCS
  5
7
100
AcDbSymbolTable
 70
0
  0
ENDTAB
  0
TABLE
  2
APPID
  5
9
100
AcDbSymbolTable
 70
1
  0
APPID
  5
216
100
AcDbSymbolTableRecord
100
AcDbRegAppTableRecord
  2
ACAD
 70
0
  0
ENDTAB
  0
TABLE
  2
BLOCK_RECORD
  5
1
100
AcDbSymbolTable
 70
0
  0
BLOCK_RECORD
  5
217
100
AcDbSymbolTableRecord
100
AcDbBlockTableRecord
  2
*Model_Space
  0
BLOCK_RECORD
  5
218
100
AcDbSymbolTableRecord
100
AcDbBlockTableRecord
  2
*Paper_Space
  0
ENDTAB
  0
TABLE
  2
DIMSTYLE
  5
A
100
AcDbSymbolTable
 70
1
100
AcDbDimStyleTable
 71
0
  0
DIMSTYLE
105
219
100
AcDbSymbolTableRecord
100
AcDbDimStyleTableRecord
  2
STANDARD
 70
0
  3

  4

 40
1.0
 41
0.1875
 42
0.0625
 43
0.38
 44
0.125
 45
0.0
 46
0.0
 47
0.0001
 48
0.0001
140
0.15625
141
0.09
142
0.0
143
25.4
144
1.0
145
0.0
146
1.0
147
0.09
 71
0.0
 72
0.0
 73
1
 74
1
 75
0
 76
0
 77
0
 78
4
 79
1
170
0
171
3
172
0
173
0
174
0
175
0
176
0
177
0
178
0
270
2
179
4
271
4
272
4
273
2
274
2
275
0
280
0
281
0
282
0
283
1
284
4
285
0
286
0
287
3
288
0
340
11
278
46
  0
ENDTAB
  0
ENDSEC
  0
SECTION
  2
BLOCKS
  0
BLOCK
  5
20
100
AcDbEntity
  8
0
100
AcDbBlockBegin
  2
*Model_Space
 70
0
 10
0.0
 20
0.0
 30
0.0
  3
*Model_Space
  1

  0
ENDBLK
  5
21
100
AcDbEntity
  8
0
100
AcDbBlockEnd
  0
BLOCK
  5
1C
100
AcDbEntity
  8
0
100
AcDbBlockBegin
  2
*Paper_Space
 70
0
 10
0.0
 20
0.0
 30
0.0
  3
*Paper_Space
  1

  0
ENDBLK
  5
1D
100
AcDbEntity
  8
0
100
AcDbBlockEnd
  0
ENDSEC
  0
SECTION
  2
ENTITIES
  0
MTEXT
  5
21A
100
AcDbEntity
  8
0
100
AcDbMText
 62
7
  6
CONTINUOUS
  7
STANDARD
 71
1
 72
1
 10
15.9560215477
 20
0.9479130325
 30
0.0
 11
1.0
 21
0.0
 31
0.0
 44
0.9
  1
SCALE: 1:1.000
 40
0.3
 41
3.36
  0
LINE
  5
21B
100
AcDbEntity
  8
0
100
AcDbLine
 62
7
  6
CONTINUOUS
 10
0.0
 20
0.0
 11
0.0
 21
17.0
  0
LINE
  5
21C
100
AcDbEntity
  8
0
100
AcDbLine
 62
7
  6
CONTINUOUS
 10
0.0
 20
0.0
 11
22.0
 21
0.0
  0
LINE
  5
21D
100
AcDbEntity
  8
0
100
AcDbLine
 62
7
  6
CONTINUOUS
 10
0.0
 20
17.0
 11
22.0
 21
17.0
  0
LINE
  5
21E
100
AcDbEntity
  8
0
100
AcDbLine
 62
7
  6
CONTINUOUS
 10
22.0
 20
0.0
 11
22.0
 21
17.0
  0
LINE
  5
21F
100
AcDbEntity
  8
0
100
AcDbLine
 62
7
  6
CONTINUOUS
 10
4.1826104142
 20
7.0873605313
 11
4.1689780752
 21
7.0702658261
  0
LINE
  5
220
100
AcDbEntity
  8
0
100
AcDbLine
 62
7
  6
CONTINUOUS
 10
4.2653597561
 20
7.1852051063
 11
4.2613020584
 21
7.1805155085
  0
LINE
  5
221
100
AcDbEntity
  8
0
100
AcDbLine
 62
7
  6
CONTINUOUS
 10
4.2626995175
 20
7.1819914752
 11
4.2513848196
 21
7.1691877934
  0
LWPOLYLINE
  5
222
100
AcDbEntity
  8
0
100
AcDbPolyline
 62
7
  6
CONTINUOUS
 90
3
 70
0
 10
4.3364500908
 20
7.2664930431
 10
4.3046392254
 20
7.2312718594
 10
4.2652153322
 20
7.1850357428
  0
LINE
  5
223
100
AcDbEntity
  8
0
100
AcDbLine
 62
7
  6
CONTINUOUS
 10
4.3598653363
 20
7.2906218366
 11
4.3364500908
 21
7.2664930431
  0
LINE
  5
224
100
AcDbEntity
  8
0
100
AcDbLine
 62
7
  6
CONTINUOUS
 10
4.3839968606
 20
7.3140396524
 11
4.3598653363
 21
7.2906218366
  0
LINE
  5
225
100
AcDbEntity
  8
0
100
AcDbLine
 62
7
  6
CONTINUOUS
 10
4.41921819
 20
7.3458504492
 11
4.3839968606
 21
7.3140396524
  0
LINE
  5
226
100
AcDbEntity
  8
0
100
AcDbLine
 62
7
  6
CONTINUOUS
 10
4.4815062413
 20
7.3992838831
 11
4.4684956977
 21
7.3877876554
  0
LINE
  5
227
100
AcDbEntity
  8
0
100
AcDbLine
 62
7
  6
CONTINUOUS
 10
4.4750505325
 20
7.3936202563
 11
4.4686049802
 21
7.3879980819
  0
LINE
  5
228
100
AcDbEntity
  8
0
100
AcDbLine
 62
7
  6
CONTINUOUS
 10
4.4686049802
 20
7.3879980819
 11
4.4652820589
 21
7.3851274102
  0
LINE
  5
229
100
AcDbEntity
  8
0
100
AcDbLine
 62
7
  6
CONTINUOUS
 10
4.4654505116
 20
7.3852710506
 11
4.41921819
 21
7.3458504492
  0
LINE
  5
22A
100
AcDbEntity
  8
0
100
AcDbLine
 62
7
  6
CONTINUOUS
 10
4.5802213468
 20
7.4815090977
 11
4.5633604701
 21
7.4680648831
  0
LINE
  5
22B
100
AcDbEntity
  8
0
100
AcDbLine
 62
7
  6
CONTINUOUS
 10
4.5631266416
 20
3.5723630348
 11
4.5802213468
 21
3.5587306958
  0
LINE
  5
22C
100
AcDbEntity
  8
0
100
AcDbLine
 62
7
  6
CONTINUOUS
 10
4.4652820666
 20
3.6551123767
 11
4.4699716644
 21
3.651054679
  0
LINE
  5
22D
100
AcDbEntity
  8
0
100
AcDbLine
 62
7
  6
CONTINUOUS
 10
4.4684956977
 20
3.6524521381
 11
4.4812993795
 21
3.6411374402
  0
LWPOLYLINE
  5
22E
100
AcDbEntity
  8
0
100
AcDbPolyline
 62
7
  6
CONTINUOUS
 90
3
 70
0
 10
4.38399413
 20
3.7262027113
 10
4.4192153137
 20
3.6943918458
 10
4.4654514301
 20
3.6549679528
  0
LINE
  5
22F
100
AcDbEntity
  8
0
100
AcDbLine
 62
7
  6
CONTINUOUS
 10
4.3598653363
 20
3.7496179569
 11
4.38399413
 21
3.7262027113
  0
LINE
  5
230
100
AcDbEntity
  8
0
100
AcDbLine
 62
7
  6
CONTINUOUS
 10
4.3364475204
 20
3.7737494813
 11
4.3598653363
 21
3.7496179569
  0
LINE
  5
231
100
AcDbEntity
  8
0
100
AcDbLine
 62
7
  6
CONTINUOUS
 10
4.3046367236
 20
3.8089708107
 11
4.3364475204
 21
3.7737494813
  0
LINE
  5
232
100
AcDbEntity
  8
0
100
AcDbLine
 62
7
  6
CONTINUOUS
 10
4.2626995175
 20
3.8582483183
 11
4.2512032898
 21
3.8712588618
  0
LINE
  5
233
100
AcDbEntity
  8
0
100
AcDbLine
 62
7
  6
CONTINUOUS
 10
4.2568669166
 20
3.864803153
 11
4.2624890911
 21
3.8583576008
  0
LINE
  5
234
100
AcDbEntity
  8
0
100
AcDbLine
 62
7
  6
CONTINUOUS
 10
4.2624890911
 20
3.8583576008
 11
4.2653597627
 21
3.8550346795
  0
LINE
  5
235
100
AcDbEntity
  8
0
100
AcDbLine
 62
7
  6
CONTINUOUS
 10
4.2652161223
 20
3.8552031322
 11
4.3046367236
 21
3.8089708107
  0
LINE
  5
236
100
AcDbEntity
  8
0
100
AcDbLine
 62
7
  6
CONTINUOUS
 10
4.1824222898
 20
3.9531130907
 11
4.1689780752
 21
3.9699739674
  0
LINE
  5
237
100
AcDbEntity
  8
0
100
AcDbLine
 62
7
  6
CONTINUOUS
 10
6.0040719048
 20
7.6243922345
 11
5.8777765334
 21
7.5495753281
  0
LINE
  5
238
100
AcDbEntity
  8
0
100
AcDbLine
 62
7
  6
CONTINUOUS
 10
6.2566626476
 20
7.4747584217
 11
6.3829580189
 21
7.5495753281
  0
LINE
  5
239
100
AcDbEntity
  8
0
100
AcDbLine
 62
7
  6
CONTINUOUS
 10
6.2566626476
 20
7.416027633
 11
6.3829580189
 21
7.4908445393
  0
LINE
  5
23A
100
AcDbEntity
  8
0
100
AcDbLine
 62
7
  6
CONTINUOUS
 10
5.1718672762
 20
5.4101229222
 11
5.1718672762
 21
5.6301168713
  0
LINE
  5
23B
100
AcDbEntity
  8
0
100
AcDbLine
 62
7
  6
CONTINUOUS
 10
5.1868672762
 20
5.3951198968
 11
5.1868672762
 21
5.6451198968
  0
LINE
  5
23C
100
AcDbEntity
  8
0
100
AcDbLine
 62
7
  6
CONTINUOUS
 10
6.0203672762
 20
6.4786198968
 11
6.0053672762
 21
6.4636198968
  0
LINE
  5
23D
100
AcDbEntity
  8
0
100
AcDbLine
 62
7
  6
CONTINUOUS
 10
5.1718672762
 20
5.6301198968
 11
5.1868672762
 21
5.6451198968
  0
LINE
  5
23E
100
AcDbEntity
  8
0
100
AcDbLine
 62
7
  6
CONTINUOUS
 10
5.1718672762
 20
5.4101198968
 11
5.1868672762
 21
5.3951198968
  0
LINE
  5
23F
100
AcDbEntity
  8
0
100
AcDbLine
 62
7
  6
CONTINUOUS
 10
5.8777765334
 20
7.4908445393
 11
5.8777765334
 21
7.5495753281
  0
LINE
  5
240
100
AcDbEntity
  8
0
100
AcDbLine
 62
7
  6
CONTINUOUS
 10
7.2794157956
 20
7.2878868497
 11
7.1865824208
 21
7.1950534749
  0
LINE
  5
241
100
AcDbEntity
  8
0
100
AcDbLine
 62
7
  6
CONTINUOUS
 10
4.455433698
 20
4.4639047521
 11
4.3626003232
 21
4.3710713773
  0
LINE
  5
242
100
AcDbEntity
  8
0
100
AcDbLine
 62
7
  6
CONTINUOUS
 10
4.3626003232
 20
6.6691684162
 11
4.455433698
 21
6.5763350414
  0
LINE
  5
243
100
AcDbEntity
  8
0
100
AcDbLine
 62
7
  6
CONTINUOUS
 10
7.1865824208
 20
3.8451863186
 11
7.2794157956
 21
3.7523529438
  0
LINE
  5
244
100
AcDbEntity
  8
0
100
AcDbLine
 62
7
  6
CONTINUOUS
 10
5.9303672762
 20
7.4596899797
 11
5.9303672762
 21
7.44255409
  0
LINE
  5
245
100
AcDbEntity
  8
0
100
AcDbLine
 62
7
  6
CONTINUOUS
 10
6.0040719048
 20
7.416027633
 11
6.0040719048
 21
7.4747584217
  0
LINE
  5
246
100
AcDbEntity
  8
0
100
AcDbLine
 62
7
  6
CONTINUOUS
 10
6.0053672762
 20
6.4351211406
 11
6.0053672762
 21
6.4636198968
  0
LINE
  5
247
100
AcDbEntity
  8
0
100
AcDbLine
 62
7
  6
CONTINUOUS
 10
5.2153660467
 20
5.3951198968
 11
5.1868672762
 21
5.3951198968
  0
LINE
  5
248
100
AcDbEntity
  8
0
100
AcDbLine
 62
7
  6
CONTINUOUS
 10
6.2553672762
 20
6.4351211397
 11
6.2553672762
 21
6.4636198968
  0
LINE
  5
249
100
AcDbEntity
  8
0
100
AcDbLine
 62
7
  6
CONTINUOUS
 10
6.2566626476
 20
7.4747584217
 11
6.2566626476
 21
7.416027633
  0
LINE
  5
24A
100
AcDbEntity
  8
0
100
AcDbLine
 62
7
  6
CONTINUOUS
 10
6.3303672762
 20
7.4596899797
 11
6.3303672762
 21
7.44255409
  0
LINE
  5
24B
100
AcDbEntity
  8
0
100
AcDbLine
 62
7
  6
CONTINUOUS
 10
6.3829580189
 20
7.5495753281
 11
6.3829580189
 21
7.4908445393
  0
LINE
  5
24C
100
AcDbEntity
  8
0
100
AcDbLine
 62
7
  6
CONTINUOUS
 10
5.2153660467
 20
5.6451198968
 11
5.1868672762
 21
5.6451198968
  0
LINE
  5
24D
100
AcDbEntity
  8
0
100
AcDbLine
 62
7
  6
CONTINUOUS
 10
4.9813187567
 20
3.7523529438
 11
5.0741521315
 21
3.8451863186
  0
LINE
  5
24E
100
AcDbEntity
  8
0
100
AcDbLine
 62
7
  6
CONTINUOUS
 10
7.8053008543
 20
6.5763350414
 11
7.8981342291
 21
6.6691684162
  0
LINE
  5
24F
100
AcDbEntity
  8
0
100
AcDbLine
 62
7
  6
CONTINUOUS
 10
7.8981342291
 20
4.3710713773
 11
7.8053008543
 21
4.4639047521
  0
LINE
  5
250
100
AcDbEntity
  8
0
100
AcDbLine
 62
7
  6
CONTINUOUS
 10
5.0741521315
 20
7.1950534749
 11
4.9813187567
 21
7.2878868497
  0
LINE
  5
251
100
AcDbEntity
  8
0
100
AcDbLine
 62
7
  6
CONTINUOUS
 10
6.0053672762
 20
6.4636198968
 11
6.2553672762
 21
6.4636198968
  0
LINE
  5
252
100
AcDbEntity
  8
0
100
AcDbLine
 62
7
  6
CONTINUOUS
 10
6.0203703016
 20
6.4786198968
 11
6.2403642507
 21
6.4786198968
  0
LINE
  5
253
100
AcDbEntity
  8
0
100
AcDbLine
 62
7
  6
CONTINUOUS
 10
6.2403672762
 20
6.4786198968
 11
6.2553672762
 21
6.4636198968
  0
LINE
  5
254
100
AcDbEntity
  8
0
100
AcDbLine
 62
7
  6
CONTINUOUS
 10
6.0040719048
 20
7.416027633
 11
5.8777765334
 21
7.4908445393
  0
LINE
  5
255
100
AcDbEntity
  8
0
100
AcDbLine
 62
7
  6
CONTINUOUS
 10
5.8777765334
 20
7.5495753281
 11
6.0040719048
 21
7.4747584217
  0
LINE
  5
256
100
AcDbEntity
  8
0
100
AcDbLine
 62
7
  6
CONTINUOUS
 10
6.2566626476
 20
7.416027633
 11
6.0040719048
 21
7.416027633
  0
LINE
  5
257
100
AcDbEntity
  8
0
100
AcDbLine
 62
7
  6
CONTINUOUS
 10
6.2566626476
 20
7.6243922345
 11
6.3829580189
 21
7.5495753281
  0
LINE
  5
258
100
AcDbEntity
  8
0
100
AcDbLine
 62
7
  6
CONTINUOUS
 10
6.0040719048
 20
7.4747584217
 11
6.2566626476
 21
7.4747584217
  0
LINE
  5
259
100
AcDbEntity
  8
0
100
AcDbLine
 62
7
  6
CONTINUOUS
 10
6.2566626476
 20
7.6243922345
 11
6.2525588458
 21
7.6243922345
  0
LINE
  5
25A
100
AcDbEntity
  8
0
100
AcDbLine
 62
7
  6
CONTINUOUS
 10
6.0080688088
 20
7.6243922345
 11
6.0040719048
 21
7.6243922345
  0
LINE
  5
25B
100
AcDbEntity
  8
0
100
AcDbLine
 62
7
  6
CONTINUOUS
 10
8.0781241381
 20
3.9528792622
 11
8.0917564771
 21
3.9699739674
  0
LINE
  5
25C
100
AcDbEntity
  8
0
100
AcDbLine
 62
7
  6
CONTINUOUS
 10
7.9953747963
 20
3.8550346872
 11
7.9994324939
 21
3.859724285
  0
LINE
  5
25D
100
AcDbEntity
  8
0
100
AcDbLine
 62
7
  6
CONTINUOUS
 10
7.9994324939
 20
3.859724285
 11
8.0093497436
 21
3.8710519906
  0
LINE
  5
25E
100
AcDbEntity
  8
0
100
AcDbLine
 62
7
  6
CONTINUOUS
 10
7.9980350348
 20
3.8582483183
 11
8.0093497328
 21
3.8710520001
  0
LWPOLYLINE
  5
25F
100
AcDbEntity
  8
0
100
AcDbPolyline
 62
7
  6
CONTINUOUS
 90
3
 70
0
 10
7.9242844616
 20
3.7737467506
 10
7.9560953271
 20
3.8089679343
 10
7.9955192218
 20
3.8552040526
  0
LINE
  5
260
100
AcDbEntity
  8
0
100
AcDbLine
 62
7
  6
CONTINUOUS
 10
7.900869216
 20
3.7496179569
 11
7.9242844616
 21
3.7737467506
  0
LINE
  5
261
100
AcDbEntity
  8
0
100
AcDbLine
 62
7
  6
CONTINUOUS
 10
7.8767376917
 20
3.7262001411
 11
7.900869216
 21
3.7496179569
  0
LINE
  5
262
100
AcDbEntity
  8
0
100
AcDbLine
 62
7
  6
CONTINUOUS
 10
7.8415163623
 20
3.6943893443
 11
7.8767376917
 21
3.7262001411
  0
LINE
  5
263
100
AcDbEntity
  8
0
100
AcDbLine
 62
7
  6
CONTINUOUS
 10
7.7792283111
 20
3.6409559104
 11
7.7922388546
 21
3.6524521381
  0
LINE
  5
264
100
AcDbEntity
  8
0
100
AcDbLine
 62
7
  6
CONTINUOUS
 10
7.7856840199
 20
3.6466195372
 11
7.7921295721
 21
3.6522417116
  0
LINE
  5
265
100
AcDbEntity
  8
0
100
AcDbLine
 62
7
  6
CONTINUOUS
 10
7.7921295721
 20
3.6522417116
 11
7.7954524934
 21
3.6551123833
  0
LINE
  5
266
100
AcDbEntity
  8
0
100
AcDbLine
 62
7
  6
CONTINUOUS
 10
7.7952840407
 20
3.6549687429
 11
7.8415163623
 21
3.6943893443
  0
LINE
  5
267
100
AcDbEntity
  8
0
100
AcDbLine
 62
7
  6
CONTINUOUS
 10
7.6805132055
 20
3.5587306958
 11
7.6973740822
 21
3.5721749104
  0
LINE
  5
268
100
AcDbEntity
  8
0
100
AcDbLine
 62
7
  6
CONTINUOUS
 10
7.6976079107
 20
7.4678767587
 11
7.6805132055
 21
7.4815090977
  0
LINE
  5
269
100
AcDbEntity
  8
0
100
AcDbLine
 62
7
  6
CONTINUOUS
 10
7.7954524857
 20
7.3851274168
 11
7.7907628879
 21
7.3891851145
  0
LINE
  5
26A
100
AcDbEntity
  8
0
100
AcDbLine
 62
7
  6
CONTINUOUS
 10
7.7907628879
 20
7.3891851145
 11
7.7794351823
 21
7.3991023642
  0
LINE
  5
26B
100
AcDbEntity
  8
0
100
AcDbLine
 62
7
  6
CONTINUOUS
 10
7.7922388546
 20
7.3877876554
 11
7.7794351728
 21
7.3991023534
  0
LWPOLYLINE
  5
26C
100
AcDbEntity
  8
0
100
AcDbPolyline
 62
7
  6
CONTINUOUS
 90
3
 70
0
 10
7.8767404329
 20
7.3140370723
 10
7.8415192515
 20
7.3458479365
 10
7.7952840086
 20
7.3852710779
  0
LINE
  5
26D
100
AcDbEntity
  8
0
100
AcDbLine
 62
7
  6
CONTINUOUS
 10
7.900869216
 20
7.2906218366
 11
7.8767404329
 21
7.3140370723
  0
LINE
  5
26E
100
AcDbEntity
  8
0
100
AcDbLine
 62
7
  6
CONTINUOUS
 10
7.9242870318
 20
7.2664903123
 11
7.900869216
 21
7.2906218366
  0
LINE
  5
26F
100
AcDbEntity
  8
0
100
AcDbLine
 62
7
  6
CONTINUOUS
 10
7.9560978286
 20
7.231268983
 11
7.9242870318
 21
7.2664903123
  0
LINE
  5
270
100
AcDbEntity
  8
0
100
AcDbLine
 62
7
  6
CONTINUOUS
 10
8.0095312625
 20
7.1689809317
 11
7.9980350348
 21
7.1819914752
  0
LINE
  5
271
100
AcDbEntity
  8
0
100
AcDbLine
 62
7
  6
CONTINUOUS
 10
8.0038676357
 20
7.1754366405
 11
7.9982454613
 21
7.1818821927
  0
LINE
  5
272
100
AcDbEntity
  8
0
100
AcDbLine
 62
7
  6
CONTINUOUS
 10
7.9982454613
 20
7.1818821927
 11
7.9953747896
 21
7.185205114
  0
LINE
  5
273
100
AcDbEntity
  8
0
100
AcDbLine
 62
7
  6
CONTINUOUS
 10
7.99551843
 20
7.1850366613
 11
7.9560978286
 21
7.231268983
  0
LINE
  5
274
100
AcDbEntity
  8
0
100
AcDbLine
 62
7
  6
CONTINUOUS
 10
8.0917564771
 20
7.0702658261
 11
8.0783122625
 21
7.0871267028
  0
LINE
  5
275
100
AcDbEntity
  8
0
100
AcDbLine
 62
7
  6
CONTINUOUS
 10
3.5708720839
 20
13.1309902026
 11
3.5708720839
 21
12.8597303601
  0
LINE
  5
276
100
AcDbEntity
  8
0
100
AcDbLine
 62
7
  6
CONTINUOUS
 10
4.1749643477
 20
12.3347303601
 11
4.1749643477
 21
12.7809902026
  0
LINE
  5
277
100
AcDbEntity
  8
0
100
AcDbLine
 62
7
  6
CONTINUOUS
 10
4.1749643477
 20
12.534369137
 11
4.0803006304
 21
12.7944555626
  0
LINE
  5
278
100
AcDbEntity
  8
0
100
AcDbLine
 62
7
  6
CONTINUOUS
 10
4.3833720839
 20
13.5059902026
 11
4.3833720839
 21
13.1703602814
  0
LINE
  5
279
100
AcDbEntity
  8
0
100
AcDbLine
 62
7
  6
CONTINUOUS
 10
5.1123720839
 20
11.8650477814
 11
5.1273720839
 21
11.8500477814
  0
LINE
  5
27A
100
AcDbEntity
  8
0
100
AcDbLine
 62
7
  6
CONTINUOUS
 10
5.1123720839
 20
11.8650477814
 11
5.1123720839
 21
12.0850477814
  0
LINE
  5
27B
100
AcDbEntity
  8
0
100
AcDbLine
 62
7
  6
CONTINUOUS
 10
5.1273720839
 20
11.8500477814
 11
5.1273720839
 21
12.1000477814
  0
LINE
  5
27C
100
AcDbEntity
  8
0
100
AcDbLine
 62
7
  6
CONTINUOUS
 10
5.1473720839
 20
12.2953602814
 11
5.1473720839
 21
12.1000477814
  0
LINE
  5
27D
100
AcDbEntity
  8
0
100
AcDbLine
 62
7
  6
CONTINUOUS
 10
5.1473720839
 20
11.8500477814
 11
5.1473720839
 21
11.6547352814
  0
LINE
  5
27E
100
AcDbEntity
  8
0
100
AcDbLine
 62
7
  6
CONTINUOUS
 10
6.9943720839
 20
11.6547352814
 11
5.1473720839
 21
11.6547352814
  0
LINE
  5
27F
100
AcDbEntity
  8
0
100
AcDbLine
 62
7
  6
CONTINUOUS
 10
5.1473720839
 20
11.8500477814
 11
5.1273720839
 21
11.8500477814
  0
LINE
  5
280
100
AcDbEntity
  8
0
100
AcDbLine
 62
7
  6
CONTINUOUS
 10
6.0275708137
 20
11.9000477814
 11
6.114173354
 21
11.9000477814
  0
LINE
  5
281
100
AcDbEntity
  8
0
100
AcDbLine
 62
7
  6
CONTINUOUS
 10
6.114173354
 20
12.0500477814
 11
6.0275708137
 21
12.0500477814
  0
LINE
  5
282
100
AcDbEntity
  8
0
100
AcDbLine
 62
7
  6
CONTINUOUS
 10
5.1273720839
 20
12.1000477814
 11
5.1473720839
 21
12.1000477814
  0
LINE
  5
283
100
AcDbEntity
  8
0
100
AcDbLine
 62
7
  6
CONTINUOUS
 10
6.0275708137
 20
11.9000477814
 11
5.9842695435
 21
11.9750477814
  0
LINE
  5
284
100
AcDbEntity
  8
0
100
AcDbLine
 62
7
  6
CONTINUOUS
 10
5.8182813411
 20
12.6181800856
 11
5.8182813411
 21
12.5968038266
  0
LINE
  5
285
100
AcDbEntity
  8
0
100
AcDbLine
 62
7
  6
CONTINUOUS
 10
5.8182813411
 20
12.6181800856
 11
5.9425015253
 21
12.8203602814
  0
LINE
  5
286
100
AcDbEntity
  8
0
100
AcDbLine
 62
7
  6
CONTINUOUS
 10
5.9445767125
 20
12.8023615874
 11
5.8182813411
 21
12.5968038266
  0
LINE
  5
287
100
AcDbEntity
  8
0
100
AcDbLine
 62
7
  6
CONTINUOUS
 10
5.1273720839
 20
12.1000477814
 11
5.1123720839
 21
12.0850477814
  0
LINE
  5
288
100
AcDbEntity
  8
03__ASM_ALL_CURVES
100
AcDbLine
 62
8
  6
PHANTOM
 10
8.1333720839
 20
12.2953602814
 11
7.9277147821
 21
12.2953602814
  0
LINE
  5
289
100
AcDbEntity
  8
03__ASM_ALL_CURVES
100
AcDbLine
 62
8
  6
PHANTOM
 10
7.2202588591
 20
12.2953602814
 11
4.9214853086
 21
12.2953602814
  0
LINE
  5
28A
100
AcDbEntity
  8
03__ASM_ALL_CURVES
100
AcDbLine
 62
8
  6
PHANTOM
 10
4.2140293819
 20
12.2953602814
 11
4.0083720839
 21
12.2953602814
  0
LINE
  5
28B
100
AcDbEntity
  8
0
100
AcDbLine
 62
7
  6
CONTINUOUS
 10
4.2143344264
 20
12.2953602814
 11
7.9274097413
 21
12.2953602814
  0
LINE
  5
28C
100
AcDbEntity
  8
0
100
AcDbLine
 62
7
  6
CONTINUOUS
 10
6.0582869828
 20
12.3912460658
 11
5.9445767125
 21
12.3912460658
  0
LINE
  5
28D
100
AcDbEntity
  8
0
100
AcDbLine
 62
7
  6
CONTINUOUS
 10
6.0833604999
 20
12.3912460658
 11
6.1971674552
 21
12.3912460658
  0
LINE
  5
28E
100
AcDbEntity
  8
0
100
AcDbLine
 62
7
  6
CONTINUOUS
 10
5.9445767125
 20
12.3912460658
 11
5.8182813411
 21
12.5968038266
  0
LINE
  5
28F
100
AcDbEntity
  8
0
100
AcDbLine
 62
7
  6
CONTINUOUS
 10
6.114173354
 20
12.0500477814
 11
6.1574746242
 21
11.9750477814
  0
LINE
  5
290
100
AcDbEntity
  8
0
100
AcDbLine
 62
7
  6
CONTINUOUS
 10
5.9445767125
 20
12.8023615874
 11
5.9445767125
 21
12.8203602814
  0
LINE
  5
291
100
AcDbEntity
  8
0
100
AcDbLine
 62
7
  6
CONTINUOUS
 10
7.9915540809
 20
12.8193360242
 11
7.9914686417
 21
12.8193199064
  0
LWPOLYLINE
  5
292
100
AcDbEntity
  8
0
100
AcDbPolyline
 62
7
  6
CONTINUOUS
 90
9
 70
0
 10
7.9914941509
 20
12.8193244358
 10
7.9923380457
 20
12.819474336
 10
7.9932274544
 20
12.8196213418
 10
7.9940541786
 20
12.8197486334
 10
7.9948181636
 20
12.8198582555
 10
7.9955837732
 20
12.8199601039
 10
7.9963506583
 20
12.8200535444
 10
7.9970823198
 20
12.8201339064
 10
7.9977672049
 20
12.8202003539
  0
LWPOLYLINE
  5
293
100
AcDbEntity
  8
0
100
AcDbPolyline
 62
7
  6
CONTINUOUS
 90
6
 70
0
 10
4.1454711838
 20
12.8200444927
 10
4.1465630622
 20
12.8199075633
 10
4.1476457289
 20
12.8197551958
 10
4.1488439452
 20
12.8195684846
 10
4.1501375668
 20
12.8193450835
 10
4.1502977432
 20
12.8193156075
  0
LINE
  5
294
100
AcDbEntity
  8
0
100
AcDbLine
 62
7
  6
CONTINUOUS
 10
6.1971674552
 20
12.8203602814
 11
6.1971674552
 21
12.8023615874
  0
LINE
  5
295
100
AcDbEntity
  8
0
100
AcDbLine
 62
7
  6
CONTINUOUS
 10
6.3234628266
 20
12.5968038266
 11
6.3234628266
 21
12.6181800856
  0
LINE
  5
296
100
AcDbEntity
  8
0
100
AcDbLine
 62
7
  6
CONTINUOUS
 10
5.9842695435
 20
11.9750477814
 11
6.0275708137
 21
12.0500477814
  0
LINE
  5
297
100
AcDbEntity
  8
0
100
AcDbLine
 62
7
  6
CONTINUOUS
 10
6.1971674552
 20
12.3912460658
 11
6.3234628266
 21
12.5968038266
  0
LINE
  5
298
100
AcDbEntity
  8
0
100
AcDbLine
 62
7
  6
CONTINUOUS
 10
6.1971674552
 20
12.8023615874
 11
5.9445767125
 21
12.8023615874
  0
LINE
  5
299
100
AcDbEntity
  8
0
100
AcDbLine
 62
7
  6
CONTINUOUS
 10
5.9337112377
 20
12.80605325
 11
5.790107064
 21
12.80605325
  0
LINE
  5
29A
100
AcDbEntity
  8
0
100
AcDbLine
 62
7
  6
CONTINUOUS
 10
6.20803293
 20
12.80605325
 11
6.3516371037
 21
12.80605325
  0
LINE
  5
29B
100
AcDbEntity
  8
0
100
AcDbLine
 62
7
  6
CONTINUOUS
 10
8.5315020051
 20
12.8203602814
 11
8.0013732659
 21
12.8203602814
  0
LINE
  5
29C
100
AcDbEntity
  8
0
100
AcDbLine
 62
7
  6
CONTINUOUS
 10
7.5966062663
 20
12.8203602814
 11
4.5451379014
 21
12.8203602814
  0
LINE
  5
29D
100
AcDbEntity
  8
0
100
AcDbLine
 62
7
  6
CONTINUOUS
 10
4.1403709018
 20
12.8203602814
 11
3.6102421626
 21
12.8203602814
  0
LWPOLYLINE
  5
29E
100
AcDbEntity
  8
0
100
AcDbPolyline
 62
7
  6
CONTINUOUS
 90
6
 70
0
 10
4.1403664875
 20
12.820360282
 10
4.1407675457
 20
12.8203582197
 10
4.1426445046
 20
12.8202995707
 10
4.1434741842
 20
12.8202429501
 10
4.1444363529
 20
12.8201567797
 10
4.1454711838
 20
12.8200444927
  0
LINE
  5
29F
100
AcDbEntity
  8
0
100
AcDbLine
 62
7
  6
CONTINUOUS
 10
6.3234628266
 20
12.5968038266
 11
6.1971674552
 21
12.8023615874
  0
LINE
  5
2A0
100
AcDbEntity
  8
0
100
AcDbLine
 62
7
  6
CONTINUOUS
 10
6.3234628266
 20
12.6181800856
 11
6.1992426424
 21
12.8203602814
  0
LINE
  5
2A1
100
AcDbEntity
  8
0
100
AcDbLine
 62
7
  6
CONTINUOUS
 10
6.1574746242
 20
11.9750477814
 11
6.114173354
 21
11.9000477814
  0
LINE
  5
2A2
100
AcDbEntity
  8
0
100
AcDbLine
 62
7
  6
CONTINUOUS
 10
3.6102421626
 20
13.1703602814
 11
8.5315020051
 21
13.1703602814
  0
LINE
  5
2A3
100
AcDbEntity
  8
0
100
AcDbLine
 62
7
  6
CONTINUOUS
 10
6.9943720839
 20
11.6547352814
 11
6.9943720839
 21
12.2953602814
  0
LINE
  5
2A4
100
AcDbEntity
  8
0
100
AcDbLine
 62
7
  6
CONTINUOUS
 10
4.4227421626
 20
13.5453602814
 11
7.7190020051
 21
13.5453602814
  0
LINE
  5
2A5
100
AcDbEntity
  8
0
100
AcDbLine
 62
7
  6
CONTINUOUS
 10
7.7583720839
 20
13.1703602814
 11
7.7583720839
 21
13.5059902026
  0
LINE
  5
2A6
100
AcDbEntity
  8
0
100
AcDbLine
 62
7
  6
CONTINUOUS
 10
8.0614435373
 20
12.7944555626
 11
7.9667798201
 21
12.534369137
  0
LINE
  5
2A7
100
AcDbEntity
  8
0
100
AcDbLine
 62
7
  6
CONTINUOUS
 10
7.9667798201
 20
12.3347303601
 11
7.9667798201
 21
12.7809902026
  0
LINE
  5
2A8
100
AcDbEntity
  8
0
100
AcDbLine
 62
7
  6
CONTINUOUS
 10
8.5708720839
 20
12.8597303601
 11
8.5708720839
 21
13.1309902026
  0
LINE
  5
2A9
100
AcDbEntity
  8
0
100
AcDbLine
 62
7
  6
CONTINUOUS
 10
15.8200378357
 20
2.9606247044
 11
16.0912976782
 21
2.9606247044
  0
LINE
  5
2AA
100
AcDbEntity
  8
0
100
AcDbLine
 62
7
  6
CONTINUOUS
 10
15.4085894411
 20
7.7519503754
 11
15.5025587032
 21
7.7861523898
  0
LINE
  5
2AB
100
AcDbEntity
  8
0
100
AcDbLine
 62
7
  6
CONTINUOUS
 10
15.402286248
 20
7.5853737571
 11
15.6144606155
 21
7.6625989114
  0
LINE
  5
2AC
100
AcDbEntity
  8
0
100
AcDbLine
 62
7
  6
CONTINUOUS
 10
15.3515535414
 20
7.4152632294
 11
15.762669063
 21
7.5648970421
  0
LINE
  5
2AD
100
AcDbEntity
  8
0
100
AcDbLine
 62
7
  6
CONTINUOUS
 10
15.3729298004
 20
7.3565324406
 11
15.7806677569
 21
7.5049369202
  0
LINE
  5
2AE
100
AcDbEntity
  8
0
100
AcDbLine
 62
7
  6
CONTINUOUS
 10
15.2950378357
 20
3.5647169682
 11
15.7412976782
 21
3.5647169682
  0
LINE
  5
2AF
100
AcDbEntity
  8
0
100
AcDbLine
 62
7
  6
CONTINUOUS
 10
15.4946766126
 20
3.5647169682
 11
15.7547630382
 21
3.470053251
  0
LINE
  5
2B0
100
AcDbEntity
  8
0
100
AcDbLine
 62
7
  6
CONTINUOUS
 10
16.4662976782
 20
3.7731247044
 11
16.1306677569
 21
3.7731247044
  0
LINE
  5
2B1
100
AcDbEntity
  8
0
100
AcDbLine
 62
7
  6
CONTINUOUS
 10
14.8253552569
 20
6.4191247044
 11
14.8103552569
 21
6.4041247044
  0
LINE
  5
2B2
100
AcDbEntity
  8
0
100
AcDbLine
 62
7
  6
CONTINUOUS
 10
14.6150427569
 20
4.5371897387
 11
14.6150427569
 21
6.3840596702
  0
LINE
  5
2B3
100
AcDbEntity
  8
0
100
AcDbLine
 62
7
  6
CONTINUOUS
 10
15.2556677569
 20
4.5371247044
 11
14.6150427569
 21
4.5371247044
  0
LINE
  5
2B4
100
AcDbEntity
  8
0
100
AcDbLine
 62
7
  6
CONTINUOUS
 10
14.8103552569
 20
6.3841247044
 11
14.8103552569
 21
6.4041247044
  0
LINE
  5
2B5
100
AcDbEntity
  8
0
100
AcDbLine
 62
7
  6
CONTINUOUS
 10
15.0603552569
 20
6.4041247044
 11
15.0603552569
 21
6.3841247044
  0
LINE
  5
2B6
100
AcDbEntity
  8
03__ASM_ALL_CURVES
100
AcDbLine
 62
8
  6
PHANTOM
 10
15.2556677569
 20
3.6038370883
 11
15.2556677569
 21
3.3981247044
  0
LINE
  5
2B7
100
AcDbEntity
  8
03__ASM_ALL_CURVES
100
AcDbLine
 62
8
  6
PHANTOM
 10
15.2556677569
 20
4.3111944101
 11
15.2556677569
 21
6.6100549984
  0
LINE
  5
2B8
100
AcDbEntity
  8
0
100
AcDbLine
 62
7
  6
CONTINUOUS
 10
15.2556677569
 20
3.6041440507
 11
15.2556677569
 21
7.3171054207
  0
LINE
  5
2B9
100
AcDbEntity
  8
03__ASM_ALL_CURVES
100
AcDbLine
 62
8
  6
PHANTOM
 10
15.2556677569
 20
7.3174681346
 11
15.2556677569
 21
7.5231247044
  0
LWPOLYLINE
  5
2BA
100
AcDbEntity
  8
0
100
AcDbPolyline
 62
7
  6
CONTINUOUS
 90
5
 70
0
 10
15.780266699
 20
7.3853294959
 10
15.7801285028
 20
7.3843051592
 10
15.7799508128
 20
7.3831188764
 10
15.7797387736
 20
7.3818420074
 10
15.7796732976
 20
7.381473299
  0
LWPOLYLINE
  5
2BB
100
AcDbEntity
  8
0
100
AcDbPolyline
 62
7
  6
CONTINUOUS
 90
7
 70
0
 10
15.7796578445
 20
3.539866465
 10
15.7796324163
 20
3.5400014798
 10
15.7796832009
 20
3.5397209702
 10
15.7799389532
 20
3.5382055692
 10
15.7801471811
 20
3.5368118308
 10
15.7803001589
 20
3.5356538021
 10
15.780421204
 20
3.5346062466
  0
LINE
  5
2BC
100
AcDbEntity
  8
0
100
AcDbLine
 62
7
  6
CONTINUOUS
 10
15.780421204
 20
3.5346062466
 11
15.7805203747
 21
3.5335881715
  0
LINE
  5
2BD
100
AcDbEntity
  8
0
100
AcDbLine
 62
7
  6
CONTINUOUS
 10
15.7663607255
 20
7.4563937888
 11
15.7663607255
 21
7.4379966978
  0
LINE
  5
2BE
100
AcDbEntity
  8
0
100
AcDbLine
 62
7
  6
CONTINUOUS
 10
15.7806677569
 20
2.9999969927
 11
15.7806677569
 21
3.5301235224
  0
LINE
  5
2BF
100
AcDbEntity
  8
0
100
AcDbLine
 62
7
  6
CONTINUOUS
 10
15.7806677569
 20
3.934890522
 11
15.7806677569
 21
6.9863588869
  0
LINE
  5
2C0
100
AcDbEntity
  8
0
100
AcDbLine
 62
7
  6
CONTINUOUS
 10
15.7806677569
 20
7.3911258865
 11
15.7806677569
 21
7.9212546239
  0
LWPOLYLINE
  5
2C1
100
AcDbEntity
  8
0
100
AcDbPolyline
 62
7
  6
CONTINUOUS
 90
7
 70
0
 10
15.7806673848
 20
7.3909558625
 10
15.780665606
 20
7.390721228
 10
15.7806059364
 20
7.388832755
 10
15.7805538356
 20
7.3880660599
 10
15.7804754975
 20
7.3871748618
 10
15.7803789159
 20
7.3862593619
 10
15.780266699
 20
7.3853294959
  0
LINE
  5
2C2
100
AcDbEntity
  8
0
100
AcDbLine
 62
7
  6
CONTINUOUS
 10
15.0603552569
 20
6.4041247044
 11
15.0453552569
 21
6.4191247044
  0
LINE
  5
2C3
100
AcDbEntity
  8
0
100
AcDbLine
 62
7
  6
CONTINUOUS
 10
15.3515535414
 20
7.4152632294
 11
15.3729298004
 21
7.3565324406
  0
LINE
  5
2C4
100
AcDbEntity
  8
0
100
AcDbLine
 62
7
  6
CONTINUOUS
 10
15.3928831336
 20
7.3565324406
 11
15.390549037
 21
7.3629453183
  0
LINE
  5
2C5
100
AcDbEntity
  8
0
100
AcDbLine
 62
7
  6
CONTINUOUS
 10
16.1306677569
 20
7.9211906292
 11
16.1306677569
 21
3.0000587797
  0
LINE
  5
2C6
100
AcDbEntity
  8
0
100
AcDbLine
 62
7
  6
CONTINUOUS
 10
15.5571113022
 20
7.4900801358
 11
15.5784875611
 21
7.431349347
  0
LINE
  5
2C7
100
AcDbEntity
  8
0
100
AcDbLine
 62
7
  6
CONTINUOUS
 10
15.7664260853
 20
7.4997533757
 11
15.7795224638
 21
7.4637713714
  0
LINE
  5
2C8
100
AcDbEntity
  8
0
100
AcDbLine
 62
7
  6
CONTINUOUS
 10
15.7806677569
 20
7.5154460369
 11
15.762669063
 21
7.5648970421
  0
LINE
  5
2C9
100
AcDbEntity
  8
0
100
AcDbLine
 62
7
  6
CONTINUOUS
 10
16.5056677569
 20
7.1086901578
 11
16.5056677569
 21
3.8125592511
  0
LINE
  5
2CA
100
AcDbEntity
  8
0
100
AcDbLine
 62
7
  6
CONTINUOUS
 10
15.2556677569
 20
6.3841247044
 11
15.0603552569
 21
6.3841247044
  0
LINE
  5
2CB
100
AcDbEntity
  8
0
100
AcDbLine
 62
7
  6
CONTINUOUS
 10
14.8103552569
 20
6.3841247044
 11
14.6150427569
 21
6.3841247044
  0
LINE
  5
2CC
100
AcDbEntity
  8
0
100
AcDbLine
 62
7
  6
CONTINUOUS
 10
14.8103552569
 20
6.4041247044
 11
15.0603552569
 21
6.4041247044
  0
LINE
  5
2CD
100
AcDbEntity
  8
0
100
AcDbLine
 62
7
  6
CONTINUOUS
 10
14.8253552569
 20
6.4191247044
 11
15.0453552569
 21
6.4191247044
  0
LINE
  5
2CE
100
AcDbEntity
  8
0
100
AcDbLine
 62
7
  6
CONTINUOUS
 10
16.4662976782
 20
7.1481247044
 11
16.1306677569
 21
7.1481247044
  0
LINE
  5
2CF
100
AcDbEntity
  8
0
100
AcDbLine
 62
7
  6
CONTINUOUS
 10
15.2950378357
 20
7.3565324406
 11
15.7412976782
 21
7.3565324406
  0
LINE
  5
2D0
100
AcDbEntity
  8
0
100
AcDbLine
 62
7
  6
CONTINUOUS
 10
15.7663607666
 20
7.4563937932
 11
15.7778779876
 21
7.4567972867
  0
LINE
  5
2D1
100
AcDbEntity
  8
0
100
AcDbLine
 62
7
  6
CONTINUOUS
 10
15.8200378357
 20
7.9606247044
 11
16.0912976782
 21
7.9606247044
  0
LINE
  5
2D2
100
AcDbEntity
  8
0
100
AcDbLine
 62
7
  6
CONTINUOUS
 10
13.2118916554
 20
13.4522254218
 11
13.213066175
 21
13.4562319849
  0
LINE
  5
2D3
100
AcDbEntity
  8
0
100
AcDbLine
 62
7
  6
CONTINUOUS
 10
13.0497289215
 20
13.2202981861
 11
13.1153917942
 21
13.4327833203
  0
LINE
  5
2D4
100
AcDbEntity
  8
0
100
AcDbLine
 62
7
  6
CONTINUOUS
 10
13.1050416956
 20
13.1066646415
 11
13.213066175
 21
13.4562319849
  0
LINE
  5
2D5
100
AcDbEntity
  8
0
100
AcDbLine
 62
7
  6
CONTINUOUS
 10
13.2136375267
 20
13.4580458501
 11
13.2131366046
 21
13.4564632034
  0
LWPOLYLINE
  5
2D6
100
AcDbEntity
  8
0
100
AcDbPolyline
 62
7
  6
CONTINUOUS
 90
16
 70
0
 10
13.2295869516
 20
13.4922514713
 10
13.2284834416
 20
13.4904546581
 10
13.2273720509
 20
13.4885899882
 10
13.226255716
 20
13.4866570736
 10
13.2251383155
 20
13.4846571224
 10
13.2240236831
 20
13.4825913728
 10
13.2229155874
 20
13.4804610721
 10
13.221817716
 20
13.478267463
 10
13.2207334261
 20
13.476011267
 10
13.2196641792
 20
13.4736891073
 10
13.2186108071
 20
13.4712954947
 10
13.2175745039
 20
13.4688247136
 10
13.2165568403
 20
13.4662707845
 10
13.215559774
 20
13.4636274049
 10
13.2145857194
 20
13.4608880502
 10
13.2136375267
 20
13.4580458501
  0
LWPOLYLINE
  5
2D7
100
AcDbEntity
  8
0
100
AcDbPolyline
 62
7
  6
CONTINUOUS
 90
8
 70
0
 10
13.2370721058
 20
13.503250126
 10
13.2360255805
 20
13.5018207689
 10
13.2349727922
 20
13.5003505449
 10
13.2339127204
 20
13.4988356663
 10
13.2328445467
 20
13.4972722601
 10
13.231767667
 20
13.4956563647
 10
13.2306817891
 20
13.4939840568
 10
13.2295869516
 20
13.4922514713
  0
LWPOLYLINE
  5
2D8
100
AcDbEntity
  8
0
100
AcDbPolyline
 62
7
  6
CONTINUOUS
 90
3
 70
0
 10
13.2391513971
 20
13.5060009929
 10
13.2381135798
 20
13.5046423237
 10
13.2370721058
 20
13.503250126
  0
LWPOLYLINE
  5
2D9
100
AcDbEntity
  8
0
100
AcDbPolyline
 62
7
  6
CONTINUOUS
 90
3
 70
0
 10
13.2412205981
 20
13.5086295375
 10
13.2401869539
 20
13.5073294734
 10
13.2391513971
 20
13.5060009929
  0
LINE
  5
2DA
100
AcDbEntity
  8
0
100
AcDbLine
 62
7
  6
CONTINUOUS
 10
13.242252237
 20
13.5099022853
 11
13.2412205981
 21
13.5086295375
  0
LWPOLYLINE
  5
2DB
100
AcDbEntity
  8
0
100
AcDbPolyline
 62
7
  6
CONTINUOUS
 90
3
 70
0
 10
13.2443092946
 20
13.5123700339
 10
13.2432818113
 20
13.5111487763
 10
13.242252237
 20
13.5099022853
  0
LINE
  5
2DC
100
AcDbEntity
  8
0
100
AcDbLine
 62
7
  6
CONTINUOUS
 10
13.24398851
 20
13.5516618557
 11
13.2401517218
 21
13.5473417486
  0
LINE
  5
2DD
100
AcDbEntity
  8
0
100
AcDbLine
 62
7
  6
CONTINUOUS
 10
13.2461498968
 20
13.5540705442
 11
13.24398851
 21
13.5516618557
  0
LINE
  5
2DE
100
AcDbEntity
  8
0
100
AcDbLine
 62
7
  6
CONTINUOUS
 10
13.2485381511
 20
13.5567058182
 11
13.2461498968
 21
13.5540705442
  0
LINE
  5
2DF
100
AcDbEntity
  8
0
100
AcDbLine
 62
7
  6
CONTINUOUS
 10
13.2511107426
 20
13.5595118383
 11
13.2485381511
 21
13.5567058182
  0
LINE
  5
2E0
100
AcDbEntity
  8
0
100
AcDbLine
 62
7
  6
CONTINUOUS
 10
13.2538214614
 20
13.5624310249
 11
13.2511107426
 21
13.5595118383
  0
LINE
  5
2E1
100
AcDbEntity
  8
0
100
AcDbLine
 62
7
  6
CONTINUOUS
 10
13.2566197316
 20
13.5654041748
 11
13.2538214614
 21
13.5624310249
  0
LINE
  5
2E2
100
AcDbEntity
  8
0
100
AcDbLine
 62
7
  6
CONTINUOUS
 10
13.2594511489
 20
13.5683716052
 11
13.2566197316
 21
13.5654041748
  0
LINE
  5
2E3
100
AcDbEntity
  8
0
100
AcDbLine
 62
7
  6
CONTINUOUS
 10
13.2622584887
 20
13.5712743969
 11
13.2594511489
 21
13.5683716052
  0
LWPOLYLINE
  5
2E4
100
AcDbEntity
  8
0
100
AcDbPolyline
 62
7
  6
CONTINUOUS
 90
10
 70
0
 10
13.2534359624
 20
13.5223422044
 10
13.2524391776
 20
13.5213222841
 10
13.2514361721
 20
13.5202801349
 10
13.2504278621
 20
13.519215936
 10
13.2494151068
 20
13.5181298232
 10
13.2483987061
 20
13.5170218828
 10
13.2473794154
 20
13.5158921627
 10
13.2463580438
 20
13.5147407805
 10
13.2453346929
 20
13.5135670485
 10
13.2443092946
 20
13.5123700339
  0
LINE
  5
2E5
100
AcDbEntity
  8
0
100
AcDbLine
 62
7
  6
CONTINUOUS
 10
13.264982785
 20
13.5740553139
 11
13.2622584887
 21
13.5712743969
  0
LINE
  5
2E6
100
AcDbEntity
  8
0
100
AcDbLine
 62
7
  6
CONTINUOUS
 10
13.2677518394
 20
13.5768473012
 11
13.264982785
 21
13.5740553139
  0
LINE
  5
2E7
100
AcDbEntity
  8
0
100
AcDbLine
 62
7
  6
CONTINUOUS
 10
13.2704970476
 20
13.5795824529
 11
13.2677518394
 21
13.5768473012
  0
LINE
  5
2E8
100
AcDbEntity
  8
0
100
AcDbLine
 62
7
  6
CONTINUOUS
 10
13.273157142
 20
13.5822032892
 11
13.2704970476
 21
13.5795824529
  0
LINE
  5
2E9
100
AcDbEntity
  8
0
100
AcDbLine
 62
7
  6
CONTINUOUS
 10
13.2757250847
 20
13.5847075841
 11
13.273157142
 21
13.5822032892
  0
LINE
  5
2EA
100
AcDbEntity
  8
0
100
AcDbLine
 62
7
  6
CONTINUOUS
 10
13.2789767021
 20
13.5878457496
 11
13.2757250847
 21
13.5847075841
  0
LINE
  5
2EB
100
AcDbEntity
  8
0
100
AcDbLine
 62
7
  6
CONTINUOUS
 10
13.2837101886
 20
13.5923621934
 11
13.2789767021
 21
13.5878457496
  0
LINE
  5
2EC
100
AcDbEntity
  8
0
100
AcDbLine
 62
7
  6
CONTINUOUS
 10
13.2837101886
 20
13.5923621934
 11
13.2834573787
 21
13.5921220515
  0
LWPOLYLINE
  5
2ED
100
AcDbEntity
  8
0
100
AcDbPolyline
 62
7
  6
CONTINUOUS
 90
13
 70
0
 10
13.2639226125
 20
13.5322414789
 10
13.2630600367
 20
13.5314765894
 10
13.2622292839
 20
13.5307330804
 10
13.2613852156
 20
13.5299700345
 10
13.2605174745
 20
13.5291771143
 10
13.2596358148
 20
13.5283622855
 10
13.258744547
 20
13.5275288016
 10
13.2578452538
 20
13.5266775023
 10
13.2569386696
 20
13.5258084707
 10
13.2560245056
 20
13.5249208076
 10
13.2551025328
 20
13.5240136357
 10
13.2541726016
 20
13.5230861169
 10
13.2534359624
 20
13.5223422044
  0
LINE
  5
2EE
100
AcDbEntity
  8
0
100
AcDbLine
 62
7
  6
CONTINUOUS
 10
13.5632575734
 20
12.5886679687
 11
13.5632589154
 21
12.5886537989
  0
LINE
  5
2EF
100
AcDbEntity
  8
0
100
AcDbLine
 62
7
  6
CONTINUOUS
 10
13.5495804194
 20
12.3268019942
 11
13.5044173558
 21
12.6706338157
  0
LINE
  5
2F0
100
AcDbEntity
  8
0
100
AcDbLine
 62
7
  6
CONTINUOUS
 10
14.0647034592
 20
11.5277555141
 11
14.066742459
 21
11.5263731174
  0
LINE
  5
2F1
100
AcDbEntity
  8
0
100
AcDbLine
 62
7
  6
CONTINUOUS
 10
14.0613558577
 20
11.5455899657
 11
14.0613236966
 21
11.5456159706
  0
LINE
  5
2F2
100
AcDbEntity
  8
0
100
AcDbLine
 62
7
  6
CONTINUOUS
 10
14.0613663421
 20
11.5455845913
 11
14.0833225625
 21
11.5249440242
  0
LINE
  5
2F3
100
AcDbEntity
  8
0
100
AcDbLine
 62
7
  6
CONTINUOUS
 10
14.0833225625
 20
11.5249440242
 11
14.1057001765
 21
11.4924719744
  0
LINE
  5
2F4
100
AcDbEntity
  8
0
100
AcDbLine
 62
7
  6
CONTINUOUS
 10
14.0624695743
 20
11.5262032531
 11
14.0646013797
 21
11.5248809851
  0
LWPOLYLINE
  5
2F5
100
AcDbEntity
  8
0
100
AcDbPolyline
 62
7
  6
CONTINUOUS
 90
3
 70
0
 10
14.1057001765
 20
11.4924719744
 10
14.1132034016
 20
11.4624787798
 10
14.1127030762
 20
11.4550816007
  0
LINE
  5
2F6
100
AcDbEntity
  8
0
100
AcDbLine
 62
7
  6
CONTINUOUS
 10
14.6661770821
 20
13.7452779151
 11
14.659912805
 21
13.7362036392
  0
LINE
  5
2F7
100
AcDbEntity
  8
0
100
AcDbLine
 62
7
  6
CONTINUOUS
 10
14.5461054352
 20
13.5713451146
 11
14.5229150192
 21
13.5377520548
  0
LINE
  5
2F8
100
AcDbEntity
  8
0
100
AcDbLine
 62
7
  6
CONTINUOUS
 10
13.9947925319
 20
11.2935430683
 11
14.070132601
 21
11.5373436212
  0
LINE
  5
2F9
100
AcDbEntity
  8
0
100
AcDbLine
 62
7
  6
CONTINUOUS
 10
14.8449559174
 20
13.3302261945
 11
14.9882179804
 21
13.5377520548
  0
LINE
  5
2FA
100
AcDbEntity
  8
0
100
AcDbLine
 62
7
  6
CONTINUOUS
 10
14.4435415248
 20
12.3910871263
 11
14.264261154
 21
11.8109356338
  0
LINE
  5
2FB
100
AcDbEntity
  8
0
100
AcDbLine
 62
7
  6
CONTINUOUS
 10
14.8680457393
 20
13.3104631496
 11
15.0113078022
 21
13.5179890099
  0
LWPOLYLINE
  5
2FC
100
AcDbEntity
  8
0
100
AcDbPolyline
 62
7
  6
CONTINUOUS
 90
5
 70
0
 10
13.4456399991
 20
12.7096862615
 10
13.4912602988
 20
12.6822750142
 10
13.5346860081
 20
12.6438524929
 10
13.5582411143
 20
12.6076825619
 10
13.5632575734
 20
12.5886679687
  0
LINE
  5
2FD
100
AcDbEntity
  8
0
100
AcDbLine
 62
7
  6
CONTINUOUS
 10
16.9081295269
 20
10.954261399
 11
16.7943062605
 21
11.0119675502
  0
LINE
  5
2FE
100
AcDbEntity
  8
0
100
AcDbLine
 62
7
  6
CONTINUOUS
 10
13.4456453627
 20
12.7096726033
 11
13.3318137322
 21
12.7673829723
  0
LINE
  5
2FF
100
AcDbEntity
  8
0
100
AcDbLine
 62
7
  6
CONTINUOUS
 10
14.8672324151
 20
12.3539167432
 11
14.8519803218
 21
12.3849972416
  0
LINE
  5
300
100
AcDbEntity
  8
0
100
AcDbLine
 62
7
  6
CONTINUOUS
 10
14.8737084585
 20
12.3262477234
 11
14.8519803218
 21
12.3849972416
  0
LINE
  5
301
100
AcDbEntity
  8
0
100
AcDbLine
 62
7
  6
CONTINUOUS
 10
14.8672324151
 20
12.3539167432
 11
14.8770135429
 21
12.3274700879
  0
LINE
  5
302
100
AcDbEntity
  8
0
100
AcDbLine
 62
7
  6
CONTINUOUS
 10
14.910018407
 20
12.4437467598
 11
14.9252705003
 21
12.4126662614
  0
LINE
  5
303
100
AcDbEntity
  8
0
100
AcDbLine
 62
7
  6
CONTINUOUS
 10
14.6123044368
 20
13.3302261945
 11
14.5229150192
 21
13.5377520548
  0
LINE
  5
304
100
AcDbEntity
  8
0
100
AcDbLine
 62
7
  6
CONTINUOUS
 10
14.9897846289
 20
12.4437467598
 11
15.0115127656
 21
12.3849972416
  0
LINE
  5
305
100
AcDbEntity
  8
0
100
AcDbLine
 62
7
  6
CONTINUOUS
 10
14.8519803218
 20
12.3849972416
 11
14.910018407
 21
12.4437467598
  0
LINE
  5
306
100
AcDbEntity
  8
0
100
AcDbLine
 62
7
  6
CONTINUOUS
 10
14.9252705003
 20
12.4126662614
 11
14.8672324151
 21
12.3539167432
  0
LINE
  5
307
100
AcDbEntity
  8
0
100
AcDbLine
 62
7
  6
CONTINUOUS
 10
15.0115127656
 20
12.3849972416
 11
14.9534746804
 21
12.3262477234
  0
LINE
  5
308
100
AcDbEntity
  8
0
100
AcDbLine
 62
7
  6
CONTINUOUS
 10
14.8737084585
 20
12.3262477234
 11
14.9534746804
 21
12.3262477234
  0
LINE
  5
309
100
AcDbEntity
  8
0
100
AcDbLine
 62
7
  6
CONTINUOUS
 10
14.6649303951
 20
11.6985614688
 11
14.6460199561
 21
11.6759058142
  0
LINE
  5
30A
100
AcDbEntity
  8
0
100
AcDbLine
 62
7
  6
CONTINUOUS
 10
15.0012795541
 20
12.4126662614
 11
14.9252705003
 21
12.4126662614
  0
LINE
  5
30B
100
AcDbEntity
  8
0
100
AcDbLine
 62
7
  6
CONTINUOUS
 10
14.9897846289
 20
12.4437467598
 11
14.910018407
 21
12.4437467598
  0
LINE
  5
30C
100
AcDbEntity
  8
0
100
AcDbLine
 62
7
  6
CONTINUOUS
 10
14.9882179804
 20
13.5377520548
 11
14.8988285627
 21
13.7452779151
  0
LINE
  5
30D
100
AcDbEntity
  8
0
100
AcDbLine
 62
7
  6
CONTINUOUS
 10
15.0113078022
 20
13.5179890099
 11
14.9219183846
 21
13.7255148702
  0
LINE
  5
30E
100
AcDbEntity
  8
0
100
AcDbLine
 62
7
  6
CONTINUOUS
 10
14.6353942587
 20
13.3104631496
 11
14.6123044368
 21
13.3302261945
  0
LINE
  5
30F
100
AcDbEntity
  8
0
100
AcDbLine
 62
7
  6
CONTINUOUS
 10
14.8449559174
 20
13.3302261945
 11
14.8680457393
 21
13.3104631496
  0
LINE
  5
310
100
AcDbEntity
  8
0
100
AcDbLine
 62
7
  6
CONTINUOUS
 10
16.5827405237
 20
12.7747852418
 11
16.5255533892
 21
12.7170790906
  0
LINE
  5
311
100
AcDbEntity
  8
0
100
AcDbLine
 62
7
  6
CONTINUOUS
 10
14.8431135363
 20
11.0193698197
 11
14.7859264017
 21
10.9616636686
  0
LINE
  5
312
100
AcDbEntity
  8
0
100
AcDbLine
 62
7
  6
CONTINUOUS
 10
14.9882179804
 20
13.5377520548
 11
15.0113078022
 21
13.5179890099
  0
LINE
  5
313
100
AcDbEntity
  8
0
100
AcDbLine
 62
7
  6
CONTINUOUS
 10
14.9219183846
 20
13.7255148702
 11
14.8988285627
 21
13.7452779151
  0
LWPOLYLINE
  5
314
100
AcDbEntity
  8
0
100
AcDbPolyline
 62
7
  6
CONTINUOUS
 90
3
 70
0
 10
16.5131771178
 20
12.6992826006
 10
16.5174559509
 20
12.7071985659
 10
16.5256405748
 20
12.717168167
  0
LINE
  5
315
100
AcDbEntity
  8
03__ASM_ALL_CURVES
100
AcDbLine
 62
8
  6
PHANTOM
 10
14.6353769776
 20
13.3219174014
 11
14.6328711049
 21
13.3218828681
  0
LINE
  5
316
100
AcDbEntity
  8
0
100
AcDbLine
 62
7
  6
CONTINUOUS
 10
14.8680457393
 20
13.3104631496
 11
14.6353942587
 21
13.3104631496
  0
LINE
  5
317
100
AcDbEntity
  8
0
100
AcDbLine
 62
7
  6
CONTINUOUS
 10
14.6123044368
 20
13.3302261945
 11
14.8449559174
 21
13.3302261945
  0
LINE
  5
318
100
AcDbEntity
  8
03__ASM_ALL_CURVES
100
AcDbLine
 62
8
  6
PHANTOM
 10
14.8745352341
 20
13.3151407307
 11
14.8682943409
 21
13.3155621746
  0
LINE
  5
319
100
AcDbEntity
  8
0
100
AcDbLine
 62
7
  6
CONTINUOUS
 10
16.2082038241
 20
11.8457652312
 11
16.0289234533
 21
11.2656137387
  0
LINE
  5
31A
100
AcDbEntity
  8
0
100
AcDbLine
 62
7
  6
CONTINUOUS
 10
16.6275998927
 20
12.8483231915
 11
16.735624372
 21
13.1978905348
  0
LINE
  5
31B
100
AcDbEntity
  8
0
100
AcDbLine
 62
7
  6
CONTINUOUS
 10
16.5130991685
 20
12.6991006689
 11
16.5131771178
 21
12.6992826006
  0
LWPOLYLINE
  5
31C
100
AcDbEntity
  8
0
100
AcDbPolyline
 62
7
  6
CONTINUOUS
 90
4
 70
0
 10
14.8431467526
 20
11.0194042793
 10
14.8657819194
 20
11.0358308847
 10
14.9082733865
 20
11.0507946115
 10
14.9359063156
 20
11.053618415
  0
LINE
  5
31D
100
AcDbEntity
  8
0
100
AcDbLine
 62
7
  6
CONTINUOUS
 10
14.8988285627
 20
13.7452779151
 11
14.6661770821
 21
13.7452779151
  0
LINE
  5
31E
100
AcDbEntity
  8
0
100
AcDbLine
 62
7
  6
CONTINUOUS
 10
16.5451717586
 20
11.0438052933
 11
16.5452293579
 21
11.0438286736
  0
LWPOLYLINE
  5
31F
100
AcDbEntity
  8
0
100
AcDbPolyline
 62
7
  6
CONTINUOUS
 90
6
 70
0
 10
16.5452557094
 20
11.0438405257
 10
16.5695418188
 20
11.051134689
 10
16.6190483105
 20
11.056023663
 10
16.6809021969
 20
11.0501743402
 10
16.7487857406
 20
11.0316942233
 10
16.7943014904
 20
11.0119808848
  0
LINE
  5
320
100
AcDbEntity
  8
0
100
AcDbLine
 62
7
  6
CONTINUOUS
 10
17.6321198718
 20
11.4250294699
 11
17.6321868316
 21
11.4266265951
  0
LWPOLYLINE
  5
321
100
AcDbEntity
  8
0
100
AcDbPolyline
 62
7
  6
CONTINUOUS
 90
4
 70
0
 10
17.6319174454
 20
11.4211809666
 10
17.6319751981
 20
11.4221516619
 10
17.6320281088
 20
11.423120453
 10
17.6321198718
 20
11.4250294699
  0
LWPOLYLINE
  5
322
100
AcDbEntity
  8
0
100
AcDbPolyline
 62
7
  6
CONTINUOUS
 90
3
 70
0
 10
17.6317850903
 20
11.4192160748
 10
17.6318542751
 20
11.4202038045
 10
17.6319174454
 20
11.4211809666
  0
LWPOLYLINE
  5
323
100
AcDbEntity
  8
0
100
AcDbPolyline
 62
7
  6
CONTINUOUS
 90
13
 70
0
 10
17.6302828884
 20
11.4059819728
 10
17.6304652188
 20
11.4071776895
 10
17.6306356712
 20
11.4083571314
 10
17.630794736
 20
11.409520429
 10
17.6309428929
 20
11.4106677143
 10
17.6310806056
 20
11.4117990684
 10
17.6312082692
 20
11.4129140237
 10
17.6313262519
 20
11.4140117782
 10
17.6314349361
 20
11.4150915013
 10
17.6315347185
 20
11.416152339
 10
17.6316260107
 20
11.4171934156
 10
17.6317092426
 20
11.418213884
 10
17.6317850903
 20
11.4192160748
  0
LWPOLYLINE
  5
324
100
AcDbEntity
  8
0
100
AcDbPolyline
 62
7
  6
CONTINUOUS
 90
3
 70
0
 10
17.6298805755
 20
11.4035411891
 10
17.6300881785
 20
11.4047698504
 10
17.6302828884
 20
11.4059819728
  0
LWPOLYLINE
  5
325
100
AcDbEntity
  8
0
100
AcDbPolyline
 62
7
  6
CONTINUOUS
 90
4
 70
0
 10
17.6291750733
 20
11.399754571
 10
17.6294245704
 20
11.4010336953
 10
17.6296595528
 20
11.4022958515
 10
17.6298805755
 20
11.4035411891
  0
LWPOLYLINE
  5
326
100
AcDbEntity
  8
0
100
AcDbPolyline
 62
7
  6
CONTINUOUS
 90
3
 70
0
 10
17.6286302653
 20
11.3971449033
 10
17.6289104935
 20
11.3984583311
 10
17.6291750733
 20
11.399754571
  0
LWPOLYLINE
  5
327
100
AcDbEntity
  8
0
100
AcDbPolyline
 62
7
  6
CONTINUOUS
 90
6
 70
0
 10
17.6269567669
 20
11.3902537039
 10
17.6273411965
 20
11.3917179892
 10
17.6276898846
 20
11.3931008425
 10
17.6280205537
 20
11.3944662296
 10
17.6283338144
 20
11.3958142258
 10
17.6286302653
 20
11.3971449033
  0
LINE
  5
328
100
AcDbEntity
  8
0
100
AcDbLine
 62
7
  6
CONTINUOUS
 10
17.6269166279
 20
11.3901235251
 11
17.6253752084
 21
11.3847689616
  0
LINE
  5
329
100
AcDbEntity
  8
0
100
AcDbLine
 62
7
  6
CONTINUOUS
 10
17.517350729
 20
11.0352016182
 11
17.6253752084
 21
11.3847689616
  0
LINE
  5
32A
100
AcDbEntity
  8
0
100
AcDbLine
 62
7
  6
CONTINUOUS
 10
17.6253752084
 20
11.3847689616
 11
17.6190853838
 21
11.3681385327
  0
LINE
  5
32B
100
AcDbEntity
  8
0
100
AcDbLine
 62
7
  6
CONTINUOUS
 10
17.6281029002
 20
11.3948205759
 11
17.6283518453
 21
11.3953139562
  0
LWPOLYLINE
  5
32C
100
AcDbEntity
  8
0
100
AcDbPolyline
 62
7
  6
CONTINUOUS
 90
3
 70
0
 10
17.6283518453
 20
11.3953139562
 10
17.6304223519
 20
11.3993396734
 10
17.6321363774
 20
11.4026909925
  0
LINE
  5
32D
100
AcDbEntity
  8
0
100
AcDbLine
 62
7
  6
CONTINUOUS
 10
17.6527670925
 20
11.4273209992
 11
17.658940999
 21
11.4362518603
  0
LINE
  5
32E
100
AcDbEntity
  8
0
100
AcDbLine
 62
7
  6
CONTINUOUS
 10
17.6500390469
 20
11.423420787
 11
17.6527670925
 21
11.4273209992
  0
LINE
  5
32F
100
AcDbEntity
  8
0
100
AcDbLine
 62
7
  6
CONTINUOUS
 10
17.7035784422
 20
11.4966274944
 11
17.7144205768
 21
11.5119012627
  0
LINE
  5
330
100
AcDbEntity
  8
0
100
AcDbLine
 62
7
  6
CONTINUOUS
 10
17.6474226485
 20
11.4197229148
 11
17.6500390469
 21
11.423420787
  0
LINE
  5
331
100
AcDbEntity
  8
0
100
AcDbLine
 62
7
  6
CONTINUOUS
 10
17.6457339613
 20
11.4173626109
 11
17.6474226485
 21
11.4197229148
  0
LINE
  5
332
100
AcDbEntity
  8
0
100
AcDbLine
 62
7
  6
CONTINUOUS
 10
17.6440871514
 20
11.4150830472
 11
17.6457339613
 21
11.4173626109
  0
LINE
  5
333
100
AcDbEntity
  8
0
100
AcDbLine
 62
7
  6
CONTINUOUS
 10
17.6424847925
 20
11.4128878754
 11
17.6440871514
 21
11.4150830472
  0
LINE
  5
334
100
AcDbEntity
  8
0
100
AcDbLine
 62
7
  6
CONTINUOUS
 10
17.6589313164
 20
11.436240667
 11
17.682750686
 21
11.468615311
  0
LINE
  5
335
100
AcDbEntity
  8
0
100
AcDbLine
 62
7
  6
CONTINUOUS
 10
17.6409219705
 20
11.4107700512
 11
17.6424847925
 21
11.4128878754
  0
LINE
  5
336
100
AcDbEntity
  8
0
100
AcDbLine
 62
7
  6
CONTINUOUS
 10
17.682750686
 20
11.468615311
 11
17.7035784422
 21
11.4966274944
  0
LINE
  5
337
100
AcDbEntity
  8
0
100
AcDbLine
 62
7
  6
CONTINUOUS
 10
17.6393944676
 20
11.4087232091
 11
17.6409219705
 21
11.4107700512
  0
LINE
  5
338
100
AcDbEntity
  8
0
100
AcDbLine
 62
7
  6
CONTINUOUS
 10
17.6378988604
 20
11.4067419066
 11
17.6393944676
 21
11.4087232091
  0
LINE
  5
339
100
AcDbEntity
  8
0
100
AcDbLine
 62
7
  6
CONTINUOUS
 10
17.63642295
 20
11.4048091025
 11
17.6378988604
 21
11.4067419066
  0
LINE
  5
33A
100
AcDbEntity
  8
0
100
AcDbLine
 62
7
  6
CONTINUOUS
 10
17.6349575093
 20
11.4029117533
 11
17.63642295
 21
11.4048091025
  0
LINE
  5
33B
100
AcDbEntity
  8
0
100
AcDbLine
 62
7
  6
CONTINUOUS
 10
17.6335047085
 20
11.4010517177
 11
17.6349575093
 21
11.4029117533
  0
LINE
  5
33C
100
AcDbEntity
  8
0
100
AcDbLine
 62
7
  6
CONTINUOUS
 10
17.6320650085
 20
11.3992285124
 11
17.6335047085
 21
11.4010517177
  0
LINE
  5
33D
100
AcDbEntity
  8
0
100
AcDbLine
 62
7
  6
CONTINUOUS
 10
17.6299196867
 20
11.3965472851
 11
17.6320650085
 21
11.3992285124
  0
LWPOLYLINE
  5
33E
100
AcDbEntity
  8
0
100
AcDbPolyline
 62
7
  6
CONTINUOUS
 90
3
 70
0
 10
17.6277004015
 20
11.3938141597
 10
17.6284545956
 20
11.3947389845
 10
17.6299196867
 20
11.3965472851
  0
LINE
  5
33F
100
AcDbEntity
  8
0
100
AcDbLine
 62
7
  6
CONTINUOUS
 10
17.8268331427
 20
11.7440613287
 11
17.8924960155
 21
11.9565464629
  0
ARC
  5
340
100
AcDbEntity
  8
0
100
AcDbCircle
 62
7
  6
CONTINUOUS
 10
3.1021279071
 20
5.4460701613
 40
3.8881567629
100
AcDbArc
 50
32.9367535326
 51
33.6391499316
  0
ARC
  5
341
100
AcDbEntity
  8
0
100
AcDbCircle
 62
7
  6
CONTINUOUS
 10
4.67195954
 20
4.0617121606
 40
0.4375
100
AcDbArc
 50
135.0
 51
315.0
  0
CIRCLE
  5
342
100
AcDbEntity
  8
03__ASM_ALL_CURVES
100
AcDbCircle
 62
7
  6
DOT
 10
4.67195954
 20
4.0617121606
 40
0.21875
  0
CIRCLE
  5
343
100
AcDbEntity
  8
0
100
AcDbCircle
 62
7
  6
CONTINUOUS
 10
4.67195954
 20
4.0617121606
 40
0.21875
  0
ARC
  5
344
100
AcDbEntity
  8
0
100
AcDbCircle
 62
7
  6
CONTINUOUS
 10
6.1303672762
 20
5.5201198968
 40
2.5
100
AcDbArc
 50
221.8943450157
 51
224.9659668838
  0
ARC
  5
345
100
AcDbEntity
  8
0
100
AcDbCircle
 62
7
  6
CONTINUOUS
 10
6.1303672762
 20
5.5201198968
 40
2.5
100
AcDbArc
 50
311.8943557797
 51
314.9680097058
  0
ARC
  5
346
100
AcDbEntity
  8
0
100
AcDbCircle
 62
7
  6
CONTINUOUS
 10
6.1303672762
 20
5.5201198968
 40
2.5
100
AcDbArc
 50
135.0456989113
 51
138.1056448446
  0
ARC
  5
347
100
AcDbEntity
  8
0
100
AcDbCircle
 62
7
  6
CONTINUOUS
 10
6.1303672762
 20
5.5201198968
 40
2.5
100
AcDbArc
 50
138.2414365818
 51
141.1784968163
  0
ARC
  5
348
100
AcDbEntity
  8
0
100
AcDbCircle
 62
7
  6
CONTINUOUS
 10
6.1303672762
 20
5.5201198968
 40
2.5
100
AcDbArc
 50
141.6796027875
 51
218.3203972125
  0
ARC
  5
349
100
AcDbEntity
  8
0
100
AcDbCircle
 62
7
  6
CONTINUOUS
 10
6.1303672762
 20
5.5201198968
 40
2.5
100
AcDbArc
 50
225.0456989113
 51
228.1056448446
  0
ARC
  5
34A
100
AcDbEntity
  8
0
100
AcDbCircle
 62
7
  6
CONTINUOUS
 10
6.1303672762
 20
5.5201198968
 40
2.5
100
AcDbArc
 50
231.6796027875
 51
308.3203972125
  0
ARC
  5
34B
100
AcDbEntity
  8
0
100
AcDbCircle
 62
7
  6
CONTINUOUS
 10
6.1303672762
 20
5.5201198968
 40
2.5
100
AcDbArc
 50
131.8943450157
 51
134.9659668838
  0
ARC
  5
34C
100
AcDbEntity
  8
0
100
AcDbCircle
 62
7
  6
CONTINUOUS
 10
6.1303672762
 20
5.5201198968
 40
2.5
100
AcDbArc
 50
128.8118370647
 51
131.7585588313
  0
ARC
  5
34D
100
AcDbEntity
  8
0
100
AcDbCircle
 62
7
  6
CONTINUOUS
 10
6.1303672762
 20
5.5201198968
 40
2.5
100
AcDbArc
 50
38.8146251484
 51
41.7585638691
  0
ARC
  5
34E
100
AcDbEntity
  8
0
100
AcDbCircle
 62
7
  6
CONTINUOUS
 10
6.1303672762
 20
5.5201198968
 40
2.5
100
AcDbArc
 50
41.8943557797
 51
44.965965477
  0
ARC
  5
34F
100
AcDbEntity
  8
0
100
AcDbCircle
 62
7
  6
CONTINUOUS
 10
6.1303672762
 20
5.5201198968
 40
2.5
100
AcDbArc
 50
45.0456989113
 51
48.1056448446
  0
ARC
  5
350
100
AcDbEntity
  8
0
100
AcDbCircle
 62
7
  6
CONTINUOUS
 10
6.1303672762
 20
5.5201198968
 40
2.5
100
AcDbArc
 50
48.2414365818
 51
51.178496816
  0
ARC
  5
351
100
AcDbEntity
  8
0
100
AcDbCircle
 62
7
  6
CONTINUOUS
 10
6.1303672762
 20
5.5201198968
 40
2.5
100
AcDbArc
 50
321.6796027875
 51
38.3203972125
  0
ARC
  5
352
100
AcDbEntity
  8
0
100
AcDbCircle
 62
7
  6
CONTINUOUS
 10
6.1303672762
 20
5.5201198968
 40
2.5
100
AcDbArc
 50
315.0456989113
 51
318.1056448446
  0
ARC
  5
353
100
AcDbEntity
  8
0
100
AcDbCircle
 62
7
  6
CONTINUOUS
 10
6.1303672762
 20
5.5201198968
 40
2.5
100
AcDbArc
 50
318.2465357155
 51
321.1784968161
  0
ARC
  5
354
100
AcDbEntity
  8
0
100
AcDbCircle
 62
7
  6
CONTINUOUS
 10
6.1303672762
 20
5.5201198968
 40
2.5
100
AcDbArc
 50
228.2414365818
 51
231.1784968157
  0
ARC
  5
355
100
AcDbEntity
  8
0
100
AcDbCircle
 62
7
  6
CONTINUOUS
 10
6.1303672762
 20
5.5201198968
 40
2.5
100
AcDbArc
 50
51.6796027875
 51
128.3203972125
  0
ARC
  5
356
100
AcDbEntity
  8
0
100
AcDbCircle
 62
7
  6
CONTINUOUS
 10
6.1303672762
 20
5.5201198968
 40
2.5
100
AcDbArc
 50
218.814625149
 51
221.7534875153
  0
ARC
  5
357
100
AcDbEntity
  8
0
100
AcDbCircle
 62
7
  6
CONTINUOUS
 10
6.1303672762
 20
5.5201198968
 40
2.5
100
AcDbArc
 50
308.8146251483
 51
311.7585638691
  0
CIRCLE
  5
358
100
AcDbEntity
  8
03__ASM_ALL_CURVES
100
AcDbCircle
 62
8
  6
PHANTOM
 10
6.1303672762
 20
5.5201198968
 40
2.0625
  0
ARC
  5
359
100
AcDbEntity
  8
0
100
AcDbCircle
 62
7
  6
CONTINUOUS
 10
6.1303672762
 20
5.5201198968
 40
1.9972052965
100
AcDbArc
 50
97.3027989855
 51
98.0813488579
  0
ARC
  5
35A
100
AcDbEntity
  8
0
100
AcDbCircle
 62
7
  6
CONTINUOUS
 10
6.1303672762
 20
5.5201198968
 40
1.9972052965
100
AcDbArc
 50
81.9186511421
 51
82.6972010145
  0
CIRCLE
  5
35B
100
AcDbEntity
  8
0
100
AcDbCircle
 62
7
  6
CONTINUOUS
 10
6.1303672762
 20
5.5201198968
 40
1.1234251969
  0
CIRCLE
  5
35C
100
AcDbEntity
  8
0
100
AcDbCircle
 62
7
  6
CONTINUOUS
 10
6.1303672762
 20
5.5201198968
 40
1.0235
  0
CIRCLE
  5
35D
100
AcDbEntity
  8
0
100
AcDbCircle
 62
7
  6
CONTINUOUS
 10
6.1303672762
 20
5.5201198968
 40
0.9735
  0
CIRCLE
  5
35E
100
AcDbEntity
  8
0
100
AcDbCircle
 62
7
  6
CONTINUOUS
 10
6.1303672762
 20
5.5201198968
 40
0.9235
  0
CIRCLE
  5
35F
100
AcDbEntity
  8
0
100
AcDbCircle
 62
7
  6
CONTINUOUS
 10
6.1303672762
 20
5.5201198968
 40
0.625
  0
ARC
  5
360
100
AcDbEntity
  8
0
100
AcDbCircle
 62
7
  6
CONTINUOUS
 10
5.4291477237
 20
7.0580766471
 40
1.0567889673
100
AcDbArc
 50
37.4232444077
 51
37.9454847627
  0
ARC
  5
361
100
AcDbEntity
  8
0
100
AcDbCircle
 62
7
  6
CONTINUOUS
 10
4.67195954
 20
6.978527633
 40
0.4375
100
AcDbArc
 50
45.0
 51
225.0
  0
ARC
  5
362
100
AcDbEntity
  8
0
100
AcDbCircle
 62
7
  6
CONTINUOUS
 10
6.081893293
 20
7.28615288
 40
0.3337068816
100
AcDbArc
 50
104.5894712748
 51
106.0274591734
  0
ARC
  5
363
100
AcDbEntity
  8
0
100
AcDbCircle
 62
7
  6
CONTINUOUS
 10
6.0758937198
 20
7.3070767092
 40
0.3119399024
100
AcDbArc
 50
106.0294173225
 51
106.7795387921
  0
CIRCLE
  5
364
100
AcDbEntity
  8
0
100
AcDbCircle
 62
7
  6
CONTINUOUS
 10
4.67195954
 20
6.978527633
 40
0.21875
  0
ARC
  5
365
100
AcDbEntity
  8
0
100
AcDbCircle
 62
7
  6
CONTINUOUS
 10
6.0936243251
 20
7.7489806637
 40
0.1049236387
100
AcDbArc
 50
222.6275236622
 51
229.5832848617
  0
ARC
  5
366
100
AcDbEntity
  8
0
100
AcDbCircle
 62
7
  6
CONTINUOUS
 10
6.0921677865
 20
7.7475894372
 40
0.1029097857
100
AcDbArc
 50
221.5898094672
 51
222.6068042645
  0
ARC
  5
367
100
AcDbEntity
  8
0
100
AcDbCircle
 62
7
  6
CONTINUOUS
 10
5.9217316761
 20
7.6659044792
 40
0.0971490347
100
AcDbArc
 50
2.0212673732
 51
7.7093257333
  0
ARC
  5
368
100
AcDbEntity
  8
0
100
AcDbCircle
 62
7
  6
CONTINUOUS
 10
9.1961245053
 20
5.4215390035
 40
3.9329813517
100
AcDbArc
 50
146.3661812603
 51
147.0604979607
  0
ARC
  5
369
100
AcDbEntity
  8
0
100
AcDbCircle
 62
7
  6
CONTINUOUS
 10
7.5887750124
 20
4.0617121606
 40
0.4375
100
AcDbArc
 50
225.0
 51
45.0
  0
CIRCLE
  5
36A
100
AcDbEntity
  8
0
100
AcDbCircle
 62
7
  6
CONTINUOUS
 10
7.5887750124
 20
4.0617121606
 40
0.21875
  0
ARC
  5
36B
100
AcDbEntity
  8
0
100
AcDbCircle
 62
7
  6
CONTINUOUS
 10
6.8347012299
 20
7.0552249089
 40
1.0609959667
100
AcDbArc
 50
141.9892458645
 51
142.5569333052
  0
ARC
  5
36C
100
AcDbEntity
  8
0
100
AcDbCircle
 62
7
  6
CONTINUOUS
 10
7.5887750124
 20
6.978527633
 40
0.4375
100
AcDbArc
 50
315.0
 51
135.0
  0
ARC
  5
36D
100
AcDbEntity
  8
0
100
AcDbCircle
 62
7
  6
CONTINUOUS
 10
6.1767662104
 20
7.2784986091
 40
0.3416370382
100
AcDbArc
 50
74.2392263079
 51
75.390615684
  0
ARC
  5
36E
100
AcDbEntity
  8
0
100
AcDbCircle
 62
7
  6
CONTINUOUS
 10
6.1817918767
 20
7.2965396551
 40
0.3229091878
100
AcDbArc
 50
73.9668908123
 51
74.2279391854
  0
CIRCLE
  5
36F
100
AcDbEntity
  8
0
100
AcDbCircle
 62
7
  6
CONTINUOUS
 10
7.5887750124
 20
6.978527633
 40
0.21875
  0
ARC
  5
370
100
AcDbEntity
  8
0
100
AcDbCircle
 62
7
  6
CONTINUOUS
 10
6.167256123
 20
7.7487916264
 40
0.1046851257
100
AcDbArc
 50
310.4230000789
 51
318.4322189161
  0
ARC
  5
371
100
AcDbEntity
  8
0
100
AcDbCircle
 62
7
  6
CONTINUOUS
 10
6.3388733748
 20
7.6659166003
 40
0.0970188803
100
AcDbArc
 50
171.8515080866
 51
177.9969083114
  0
ARC
  5
372
100
AcDbEntity
  8
0
100
AcDbCircle
 62
7
  6
CONTINUOUS
 10
4.2320209831
 20
11.9750477814
 40
0.9238392157
100
AcDbArc
 50
352.2238101351
 51
7.776189865
  0
ARC
  5
373
100
AcDbEntity
  8
0
100
AcDbCircle
 62
7
  6
CONTINUOUS
 10
6.0902761412
 20
12.5951073597
 40
0.1995704377
100
AcDbArc
 50
13.2376922719
 51
31.567393962
  0
ARC
  5
374
100
AcDbEntity
  8
0
100
AcDbCircle
 62
7
  6
CONTINUOUS
 10
6.0514680265
 20
12.5951073597
 40
0.1995704377
100
AcDbArc
 50
148.432606038
 51
166.7623077281
  0
ARC
  5
375
100
AcDbEntity
  8
0
100
AcDbCircle
 62
7
  6
CONTINUOUS
 10
6.0960273366
 20
12.5966461622
 40
0.1936197726
100
AcDbArc
 50
10.6709902395
 51
13.1841485394
  0
ARC
  5
376
100
AcDbEntity
  8
0
100
AcDbCircle
 62
7
  6
CONTINUOUS
 10
6.0457168311
 20
12.5966461622
 40
0.1936197726
100
AcDbArc
 50
166.8158514606
 51
169.3290097605
  0
CIRCLE
  5
377
100
AcDbEntity
  8
0
100
AcDbCircle
 62
7
  6
CONTINUOUS
 10
6.0708720839
 20
11.9750477814
 40
0.125
  0
CIRCLE
  5
378
100
AcDbEntity
  8
0
100
AcDbCircle
 62
7
  6
CONTINUOUS
 10
6.0708720839
 20
11.9750477814
 40
0.11
  0
ARC
  5
379
100
AcDbEntity
  8
0
100
AcDbCircle
 62
7
  6
CONTINUOUS
 10
4.0433048579
 20
12.7809902026
 40
0.0393700787
100
AcDbArc
 50
20.0
 51
90.0
  0
ARC
  5
37A
100
AcDbEntity
  8
0
100
AcDbCircle
 62
7
  6
CONTINUOUS
 10
7.7190020051
 20
13.5059902026
 40
0.0393700787
100
AcDbArc
 50
0.0
 51
90.0
  0
ARC
  5
37B
100
AcDbEntity
  8
0
100
AcDbCircle
 62
7
  6
CONTINUOUS
 10
4.4227421626
 20
13.5059902026
 40
0.0393700787
100
AcDbArc
 50
90.0
 51
180.0
  0
ARC
  5
37C
100
AcDbEntity
  8
0
100
AcDbCircle
 62
7
  6
CONTINUOUS
 10
4.2143344264
 20
12.3347303601
 40
0.0393700787
100
AcDbArc
 50
180.0
 51
270.0
  0
ARC
  5
37D
100
AcDbEntity
  8
0
100
AcDbCircle
 62
7
  6
CONTINUOUS
 10
3.6102421626
 20
13.1309902026
 40
0.0393700787
100
AcDbArc
 50
90.0
 51
180.0
  0
ARC
  5
37E
100
AcDbEntity
  8
0
100
AcDbCircle
 62
7
  6
CONTINUOUS
 10
3.6102421626
 20
12.8597303601
 40
0.0393700787
100
AcDbArc
 50
180.0
 51
270.0
  0
ARC
  5
37F
100
AcDbEntity
  8
0
100
AcDbCircle
 62
7
  6
CONTINUOUS
 10
8.5315020051
 20
13.1309902026
 40
0.0393700787
100
AcDbArc
 50
0.0
 51
90.0
  0
ARC
  5
380
100
AcDbEntity
  8
0
100
AcDbCircle
 62
7
  6
CONTINUOUS
 10
4.1355942689
 20
12.7809902026
 40
0.0393700787
100
AcDbArc
 50
0.0
 51
90.0
  0
ARC
  5
381
100
AcDbEntity
  8
0
100
AcDbCircle
 62
7
  6
CONTINUOUS
 10
7.9274097413
 20
12.3347303601
 40
0.0393700787
100
AcDbArc
 50
270.0
 51
360.0
  0
ARC
  5
382
100
AcDbEntity
  8
0
100
AcDbCircle
 62
7
  6
CONTINUOUS
 10
8.0984393098
 20
12.7809902026
 40
0.0393700787
100
AcDbArc
 50
90.0
 51
160.0
  0
ARC
  5
383
100
AcDbEntity
  8
0
100
AcDbCircle
 62
7
  6
CONTINUOUS
 10
8.0061498988
 20
12.7809902026
 40
0.0393700787
100
AcDbArc
 50
90.0
 51
180.0
  0
ARC
  5
384
100
AcDbEntity
  8
0
100
AcDbCircle
 62
7
  6
CONTINUOUS
 10
8.5315020051
 20
12.8597303601
 40
0.0393700787
100
AcDbArc
 50
270.0
 51
360.0
  0
ARC
  5
385
100
AcDbEntity
  8
0
100
AcDbCircle
 62
7
  6
CONTINUOUS
 10
14.9353552569
 20
7.2991341044
 40
0.9235003465
100
AcDbArc
 50
262.2209417462
 51
277.779058254
  0
ARC
  5
386
100
AcDbEntity
  8
0
100
AcDbCircle
 62
7
  6
CONTINUOUS
 10
15.292573148
 20
7.5254735429
 40
0.125
100
AcDbArc
 50
298.1540058897
 51
28.6332776745
  0
ARC
  5
387
100
AcDbEntity
  8
0
100
AcDbCircle
 62
7
  6
CONTINUOUS
 10
15.7370088417
 20
7.6872349065
 40
0.125
100
AcDbArc
 50
191.3667223255
 51
281.8459941103
  0
ARC
  5
388
100
AcDbEntity
  8
0
100
AcDbCircle
 62
7
  6
CONTINUOUS
 10
15.5333405161
 20
7.7015800539
 40
0.09
100
AcDbArc
 50
334.3340313162
 51
110.0
  0
ARC
  5
389
100
AcDbEntity
  8
0
100
AcDbCircle
 62
7
  6
CONTINUOUS
 10
15.439371254
 20
7.6673780396
 40
0.09
100
AcDbArc
 50
110.0
 51
245.6659686838
  0
ARC
  5
38A
100
AcDbEntity
  8
0
100
AcDbCircle
 62
7
  6
CONTINUOUS
 10
15.7353030672
 20
7.4699356027
 40
0.0445496553
100
AcDbArc
 50
314.1985528374
 51
315.7856241526
  0
ARC
  5
38B
100
AcDbEntity
  8
0
100
AcDbCircle
 62
7
  6
CONTINUOUS
 10
15.7361745839
 20
7.4883564916
 40
0.0439638455
100
AcDbArc
 50
304.5355279374
 51
313.3626552426
  0
ARC
  5
38C
100
AcDbEntity
  8
0
100
AcDbCircle
 62
7
  6
CONTINUOUS
 10
15.7371613794
 20
7.4868560013
 40
0.042168365
100
AcDbArc
 50
294.6715380501
 51
304.5868291076
  0
ARC
  5
38D
100
AcDbEntity
  8
0
100
AcDbCircle
 62
7
  6
CONTINUOUS
 10
15.8200378357
 20
7.9212546257
 40
0.0393700787
100
AcDbArc
 50
90.0
 51
180.0
  0
ARC
  5
38E
100
AcDbEntity
  8
0
100
AcDbCircle
 62
7
  6
CONTINUOUS
 10
15.2950378357
 20
7.3171623619
 40
0.0393700787
100
AcDbArc
 50
90.0
 51
180.0
  0
ARC
  5
38F
100
AcDbEntity
  8
0
100
AcDbCircle
 62
7
  6
CONTINUOUS
 10
15.7412976782
 20
7.3959025194
 40
0.0393700787
100
AcDbArc
 50
270.0
 51
360.0
  0
ARC
  5
390
100
AcDbEntity
  8
0
100
AcDbCircle
 62
7
  6
CONTINUOUS
 10
15.8200378357
 20
2.9999947832
 40
0.0393700787
100
AcDbArc
 50
180.0
 51
270.0
  0
ARC
  5
391
100
AcDbEntity
  8
0
100
AcDbCircle
 62
7
  6
CONTINUOUS
 10
15.7412976782
 20
3.5253468895
 40
0.0393700787
100
AcDbArc
 50
0.0
 51
90.0
  0
ARC
  5
392
100
AcDbEntity
  8
0
100
AcDbCircle
 62
7
  6
CONTINUOUS
 10
15.7412976782
 20
3.4330574785
 40
0.0393700787
100
AcDbArc
 50
0.0
 51
70.0
  0
ARC
  5
393
100
AcDbEntity
  8
0
100
AcDbCircle
 62
7
  6
CONTINUOUS
 10
15.2950378357
 20
3.604087047
 40
0.0393700787
100
AcDbArc
 50
180.0
 51
270.0
  0
ARC
  5
394
100
AcDbEntity
  8
0
100
AcDbCircle
 62
7
  6
CONTINUOUS
 10
16.0912976782
 20
2.9999947832
 40
0.0393700787
100
AcDbArc
 50
270.0
 51
360.0
  0
ARC
  5
395
100
AcDbEntity
  8
0
100
AcDbCircle
 62
7
  6
CONTINUOUS
 10
16.0912976782
 20
7.9212546257
 40
0.0393700787
100
AcDbArc
 50
0.0
 51
90.0
  0
ARC
  5
396
100
AcDbEntity
  8
0
100
AcDbCircle
 62
7
  6
CONTINUOUS
 10
16.4662976782
 20
7.1087546257
 40
0.0393700787
100
AcDbArc
 50
0.0
 51
90.0
  0
ARC
  5
397
100
AcDbEntity
  8
0
100
AcDbCircle
 62
7
  6
CONTINUOUS
 10
16.4662976782
 20
3.8124947832
 40
0.0393700787
100
AcDbArc
 50
270.0
 51
360.0
  0
ARC
  5
398
100
AcDbEntity
  8
0
100
AcDbCircle
 62
7
  6
CONTINUOUS
 10
15.9600498367
 20
14.5831811299
 40
3.5980445511
100
AcDbArc
 50
237.9634729698
 51
238.1705818853
  0
ARC
  5
399
100
AcDbEntity
  8
0
100
AcDbCircle
 62
7
  6
CONTINUOUS
 10
14.8084852558
 20
10.7056889666
 40
2.976074529
100
AcDbArc
 50
84.7517944437
 51
87.4275564839
  0
ARC
  5
39A
100
AcDbEntity
  8
0
100
AcDbCircle
 62
7
  6
CONTINUOUS
 10
14.4628470651
 20
13.1156988959
 40
1.477394616
100
AcDbArc
 50
206.0933873631
 51
207.0642843319
  0
ARC
  5
39B
100
AcDbEntity
  8
0
100
AcDbCircle
 62
7
  6
CONTINUOUS
 10
16.5066297049
 20
12.0744911949
 40
1.4470505569
100
AcDbArc
 50
25.456171092
 51
26.1398507539
  0
ARC
  5
39C
100
AcDbEntity
  8
0
100
AcDbCircle
 62
7
  6
CONTINUOUS
 10
16.0499580712
 20
12.2701616339
 40
1.3225681345
100
AcDbArc
 50
291.0966992236
 51
291.9892980216
  0
ARC
  5
39D
100
AcDbEntity
  8
0
100
AcDbCircle
 62
7
  6
CONTINUOUS
 10
15.5566861929
 20
11.6318574614
 40
0.8812882958
100
AcDbArc
 50
35.8691947231
 51
37.5758134426
  0
ARC
  5
39E
100
AcDbEntity
  8
0
100
AcDbCircle
 62
7
  6
CONTINUOUS
 10
13.9211085313
 20
13.1837853631
 40
0.8433145576
100
AcDbArc
 50
160.7436559188
 51
162.8268071786
  0
ARC
  5
39F
100
AcDbEntity
  8
0
100
AcDbCircle
 62
7
  6
CONTINUOUS
 10
17.2130428253
 20
11.5557035
 40
0.6743179668
100
AcDbArc
 50
243.1163441887
 51
243.6173753883
  0
ARC
  5
3A0
100
AcDbEntity
  8
0
100
AcDbCircle
 62
7
  6
CONTINUOUS
 10
15.9138237209
 20
11.9529632894
 40
0.4174850214
100
AcDbArc
 50
8.5730682518
 51
11.2650738996
  0
ARC
  5
3A1
100
AcDbEntity
  8
0
100
AcDbCircle
 62
7
  6
CONTINUOUS
 10
14.8821195568
 20
13.4114695485
 40
0.4112725546
100
AcDbArc
 50
121.0176971226
 51
122.9302778637
  0
ARC
  5
3A2
100
AcDbEntity
  8
0
100
AcDbCircle
 62
7
  6
CONTINUOUS
 10
14.2731514191
 20
11.2764108963
 40
0.2925781804
100
AcDbArc
 50
208.5722922395
 51
211.2919892346
  0
ARC
  5
3A3
100
AcDbEntity
  8
0
100
AcDbCircle
 62
7
  6
CONTINUOUS
 10
14.7827656843
 20
13.572283419
 40
0.1750314588
100
AcDbArc
 50
23.2995222588
 51
30.5637349922
  0
ARC
  5
3A4
100
AcDbEntity
  8
0
100
AcDbCircle
 62
7
  6
CONTINUOUS
 10
14.7846663421
 20
13.573451884
 40
0.1728007149
100
AcDbArc
 50
30.5505897397
 51
37.6658474238
  0
ARC
  5
3A5
100
AcDbEntity
  8
0
100
AcDbCircle
 62
7
  6
CONTINUOUS
 10
14.7243859367
 20
13.5030746125
 40
0.1722818012
100
AcDbArc
 50
248.5354742083
 51
249.2645219812
  0
ARC
  5
3A6
100
AcDbEntity
  8
0
100
AcDbCircle
 62
7
  6
CONTINUOUS
 10
14.7241656878
 20
13.5025118945
 40
0.1716775163
100
AcDbArc
 50
248.0244221331
 51
248.5351607412
  0
ARC
  5
3A7
100
AcDbEntity
  8
0
100
AcDbCircle
 62
7
  6
CONTINUOUS
 10
14.7237041383
 20
13.5014052411
 40
0.170478552
100
AcDbArc
 50
240.6448809712
 51
248.0290912701
  0
ARC
  5
3A8
100
AcDbEntity
  8
0
100
AcDbCircle
 62
7
  6
CONTINUOUS
 10
14.9666068378
 20
12.3372803295
 40
0.1363086289
100
AcDbArc
 50
90.0110867261
 51
93.4311136568
  0
ARC
  5
3A9
100
AcDbEntity
  8
0
100
AcDbCircle
 62
7
  6
CONTINUOUS
 10
14.9584151373
 20
12.357817713
 40
0.1133454962
100
AcDbArc
 50
85.9938106791
 51
90.0208760057
  0
ARC
  5
3AA
100
AcDbEntity
  8
0
100
AcDbCircle
 62
7
  6
CONTINUOUS
 10
14.8868527672
 20
12.3635555266
 40
0.0603007871
100
AcDbArc
 50
220.4234021578
 51
224.0708481096
  0
ARC
  5
3AB
100
AcDbEntity
  8
0
100
AcDbCircle
 62
7
  6
CONTINUOUS
 10
14.8857736556
 20
12.3626208756
 40
0.0588732325
100
AcDbArc
 50
216.863992255
 51
220.4119224608
  0
ARC
  5
3AC
100
AcDbEntity
  8
0
100
AcDbCircle
 62
7
  6
CONTINUOUS
 10
14.6565822745
 20
11.7004955754
 40
0.0372082788
100
AcDbArc
 50
233.0355203359
 51
237.6617118416
  0
SPLINE
  5
3AD
100
AcDbEntity
  8
0
100
AcDbSpline
 62
7
  6
CONTINUOUS
 70
0
 71
3
 72
25
 73
21
 74
0
 42
0.0000001
 43
0.0000001
 44
0.0000000001
 40
0.0
 40
0.0
 40
0.0
 40
0.0
 40
0.0624584016
 40
0.125340029
 40
0.1886319352
 40
0.2203624635
 40
0.2521004583
 40
0.2838434277
 40
0.3155835965
 40
0.3789517593
 40
0.4422081778
 40
0.5051356815
 40
0.5363828021
 40
0.5674407708
 40
0.6290470721
 40
0.6899000498
 40
0.750083721
 40
0.8107524466
 40
0.872830949
 40
1.0
 40
1.0
 40
1.0
 40
1.0
 10
6.0151998944
 20
7.6792786212
 30
0.0
 10
6.0114974867
 20
7.6834503007
 30
0.0
 10
6.0047338745
 20
7.6924474844
 30
0.0
 10
5.9970414869
 20
7.7075225407
 30
0.0
 10
5.9928574496
 20
7.7210702184
 30
0.0
 10
5.9909589964
 20
7.7322425756
 30
0.0
 10
5.990295572
 20
7.740731221
 30
0.0
 10
5.9903896449
 20
7.7492456884
 30
0.0
 10
5.991511247
 20
7.7605300176
 30
0.0
 10
5.994777672
 20
7.7743752813
 30
0.0
 10
6.0015620719
 20
7.7899725516
 30
0.0
 10
6.0092885121
 20
7.8018038379
 30
0.0
 10
6.0165454857
 20
7.810328368
 30
0.0
 10
6.0244075503
 20
7.8181313134
 30
0.0
 10
6.035247038
 20
7.8266150115
 30
0.0
 10
6.0494076038
 20
7.8348029826
 30
0.0
 10
6.0644158406
 20
7.8410777347
 30
0.0
 10
6.0801348634
 20
7.8456333308
 30
0.0
 10
6.1020682758
 20
7.8498627076
 30
0.0
 10
6.1190107454
 20
7.8510752462
 30
0.0
 10
6.1303672762
 20
7.8510752462
 30
0.0
  0
SPLINE
  5
3AE
100
AcDbEntity
  8
0
100
AcDbSpline
 62
7
  6
CONTINUOUS
 70
0
 71
3
 72
25
 73
21
 74
0
 42
0.0000001
 43
0.0000001
 44
0.0000000001
 40
0.0
 40
0.0
 40
0.0
 40
0.0
 40
0.1271945367
 40
0.1892467723
 40
0.2498880918
 40
0.3100834117
 40
0.3708930149
 40
0.4323779329
 40
0.4946273888
 40
0.5574858667
 40
0.5890649277
 40
0.6207014906
 40
0.6523863645
 40
0.6841065971
 40
0.7158523268
 40
0.7476227378
 40
0.8111429998
 40
0.8744799229
 40
0.9373481179
 40
1.0
 40
1.0
 40
1.0
 40
1.0
 10
6.1303672762
 20
7.8510752462
 30
0.0
 10
6.1417232548
 20
7.8510752462
 30
0.0
 10
6.1586615469
 20
7.8498655428
 30
0.0
 10
6.1805872538
 20
7.8456373849
 30
0.0
 10
6.1962961588
 20
7.8410741769
 30
0.0
 10
6.2112945781
 20
7.8348037304
 30
0.0
 10
6.2254559722
 20
7.8266522295
 30
0.0
 10
6.2384936374
 20
7.8164737626
 30
0.0
 10
6.2498571003
 20
7.8041912361
 30
0.0
 10
6.2575814029
 20
7.7924426203
 30
0.0
 10
6.2625218617
 20
7.7823154649
 30
0.0
 10
6.2655520409
 20
7.7743907239
 30
0.0
 10
6.2678786307
 20
7.7662193768
 30
0.0
 10
6.2694823959
 20
7.7578659995
 30
0.0
 10
6.2703443258
 20
7.7493952659
 30
0.0
 10
6.2704725879
 20
7.7380409056
 30
0.0
 10
6.2687167632
 20
7.7239081312
 30
0.0
 10
6.2637542506
 20
7.7076244549
 30
0.0
 10
6.2560503996
 20
7.6925319534
 30
0.0
 10
6.2492878057
 20
7.6835192806
 30
0.0
 10
6.2455785311
 20
7.6793324592
 30
0.0
  0
SPLINE
  5
3AF
100
AcDbEntity
  8
0
100
AcDbSpline
 62
7
  6
CONTINUOUS
 70
0
 71
3
 72
26
 73
22
 74
0
 42
0.0000001
 43
0.0000001
 44
0.0000000001
 40
0.0
 40
0.0
 40
0.0
 40
0.0
 40
0.0488628854
 40
0.0684947451
 40
0.084777326
 40
0.0975978438
 40
0.1068526111
 40
0.1146487621
 40
0.1209555343
 40
0.1293446686
 40
0.1412057209
 40
0.1565307384
 40
0.1753164773
 40
0.2232780459
 40
0.2850086667
 40
0.3594640357
 40
0.4452324696
 40
0.5409678921
 40
0.6454069263
 40
0.7573872321
 40
1.0
 40
1.0
 40
1.0
 40
1.0
 10
6.2680427767
 20
7.6004569664
 30
0.0
 10
6.2685471001
 20
7.6002247001
 30
0.0
 10
6.2692488881
 20
7.5998936027
 30
0.0
 10
6.2701166686
 20
7.5994628117
 30
0.0
 10
6.270599904
 20
7.5992168114
 30
0.0
 10
6.2710105033
 20
7.5989959399
 30
0.0
 10
6.2712439628
 20
7.5988720888
 30
0.0
 10
6.2716457814
 20
7.5986235407
 30
0.0
 10
6.2712911582
 20
7.5988391545
 30
0.0
 10
6.2710913653
 20
7.598980889
 30
0.0
 10
6.2707411551
 20
7.5992276507
 30
0.0
 10
6.2703311542
 20
7.5995360531
 30
0.0
 10
6.2695930334
 20
7.600113506
 30
0.0
 10
6.2684784353
 20
7.6010526579
 30
0.0
 10
6.2669350543
 20
7.6024683767
 30
0.0
 10
6.2651461572
 20
7.6042465867
 30
0.0
 10
6.2631668503
 20
7.6063790639
 30
0.0
 10
6.2610584114
 20
7.608852571
 30
0.0
 10
6.2588810235
 20
7.6116544919
 30
0.0
 10
6.2558854271
 20
7.6159267793
 30
0.0
 10
6.253847504
 20
7.6194138957
 30
0.0
 10
6.2525677827
 20
7.6218557326
 30
0.0
  0
SPLINE
  5
3B0
100
AcDbEntity
  8
0
100
AcDbSpline
 62
7
  6
CONTINUOUS
 70
0
 71
3
 72
10
 73
6
 74
0
 42
0.0000001
 43
0.0000001
 44
0.0000000001
 40
0.0
 40
0.0
 40
0.0
 40
0.0
 40
0.2358526503
 40
0.4851975149
 40
1.0
 40
1.0
 40
1.0
 40
1.0
 10
6.2525677827
 20
7.6218557326
 30
0.0
 10
6.2507761064
 20
7.6252744311
 30
0.0
 10
6.2475405943
 20
7.6325534866
 30
0.0
 10
6.2427727507
 20
7.6482405986
 30
0.0
 10
6.2416173631
 20
7.6608881881
 30
0.0
 10
6.2419137786
 20
7.6693077424
 30
0.0
  0
SPLINE
  5
3B1
100
AcDbEntity
  8
0
100
AcDbSpline
 62
7
  6
CONTINUOUS
 70
0
 71
3
 72
20
 73
16
 74
0
 42
0.0000001
 43
0.0000001
 44
0.0000000001
 40
0.0
 40
0.0
 40
0.0
 40
0.0
 40
0.1701051706
 40
0.3374431008
 40
0.4997791803
 40
0.5775350768
 40
0.651866052
 40
0.7218841121
 40
0.7866846038
 40
0.845229028
 40
0.8962772521
 40
0.9384438952
 40
0.9702388832
 40
0.9907202595
 40
1.0
 40
1.0
 40
1.0
 40
1.0
 10
6.018820265
 20
7.6693309698
 30
0.0
 10
6.0189796938
 20
7.6648376498
 30
0.0
 10
6.0186850398
 20
7.6558905855
 30
0.0
 10
6.0164411291
 20
7.6428301578
 30
0.0
 10
6.0131029699
 20
7.6325515824
 30
0.0
 10
6.0097692393
 20
7.6249341239
 30
0.0
 10
6.0070708291
 20
7.6197155892
 30
0.0
 10
6.0042110939
 20
7.6149793287
 30
0.0
 10
6.0012543813
 20
7.6108050176
 30
0.0
 10
5.9983403326
 20
7.607229632
 30
0.0
 10
5.9956253301
 20
7.6042737833
 30
0.0
 10
5.9932603867
 20
7.6019645631
 30
0.0
 10
5.9913896588
 20
7.600309097
 30
0.0
 10
5.9901104153
 20
7.5993038061
 30
0.0
 10
5.9894717494
 20
7.5988426049
 30
0.0
 10
5.9892626147
 20
7.5987144486
 30
0.0
  0
SPLINE
  5
3B2
100
AcDbEntity
  8
0
100
AcDbSpline
 62
7
  6
CONTINUOUS
 70
0
 71
3
 72
15
 73
11
 74
0
 42
0.0000001
 43
0.0000001
 44
0.0000000001
 40
0.0
 40
0.0
 40
0.0
 40
0.0
 40
0.0824940281
 40
0.1799061403
 40
0.2916426173
 40
0.4163926401
 40
0.5521888544
 40
0.6968075848
 40
0.8472559572
 40
1.0
 40
1.0
 40
1.0
 40
1.0
 10
6.0255978847
 20
7.6690971309
 30
0.0
 10
6.0278827898
 20
7.6671501378
 30
0.0
 10
6.0333493976
 20
7.6634729396
 30
0.0
 10
6.0429216639
 20
7.6588437639
 30
0.0
 10
6.0543770882
 20
7.6547351091
 30
0.0
 10
6.0674803319
 20
7.6512473492
 30
0.0
 10
6.0819647307
 20
7.648439623
 30
0.0
 10
6.0975188588
 20
7.6463971092
 30
0.0
 10
6.113773937
 20
7.645152959
 30
0.0
 10
6.1248089749
 20
7.6448689495
 30
0.0
 10
6.1303672762
 20
7.6448689495
 30
0.0
  0
SPLINE
  5
3B3
100
AcDbEntity
  8
0
100
AcDbSpline
 62
7
  6
CONTINUOUS
 70
0
 71
3
 72
11
 73
7
 74
0
 42
0.0000001
 43
0.0000001
 44
0.0000000001
 40
0.0
 40
0.0
 40
0.0
 40
0.0
 40
0.2700379937
 40
0.5319110532
 40
0.7774897853
 40
1.0
 40
1.0
 40
1.0
 40
1.0
 10
6.1303672762
 20
7.3833118394
 30
0.0
 10
6.1423701207
 20
7.3833118394
 30
0.0
 10
6.1660162642
 20
7.3838332783
 30
0.0
 10
6.2005084443
 20
7.3861898291
 30
0.0
 10
6.2327302406
 20
7.3901293474
 30
0.0
 10
6.2531953301
 20
7.3940233255
 30
0.0
 10
6.2628111029
 20
7.3963373818
 30
0.0
  0
SPLINE
  5
3B4
100
AcDbEntity
  8
0
100
AcDbSpline
 62
7
  6
CONTINUOUS
 70
0
 71
3
 72
17
 73
13
 74
0
 42
0.0000001
 43
0.0000001
 44
0.0000000001
 40
0.0
 40
0.0
 40
0.0
 40
0.0
 40
0.1793992736
 40
0.3425305089
 40
0.4886080661
 40
0.6175506598
 40
0.7301098783
 40
0.8283923343
 40
0.8734031465
 40
0.9164684954
 40
0.9583805395
 40
1.0
 40
1.0
 40
1.0
 40
1.0
 10
6.2628111029
 20
7.3963373818
 30
0.0
 10
6.2678765011
 20
7.3975563807
 30
0.0
 10
6.2774912481
 20
7.4001338342
 30
0.0
 10
6.2909380657
 20
7.4047047554
 30
0.0
 10
6.3026183938
 20
7.4097987295
 30
0.0
 10
6.3124202584
 20
7.4153911483
 30
0.0
 10
6.3202413218
 20
7.4214738965
 30
0.0
 10
6.3251795723
 20
7.4271179225
 30
0.0
 10
6.3279011873
 20
7.4318137401
 30
0.0
 10
6.329322439
 20
7.4353258839
 30
0.0
 10
6.3301770989
 20
7.4389159766
 30
0.0
 10
6.3303655358
 20
7.4413461674
 30
0.0
 10
6.330365908
 20
7.442554856
 30
0.0
  0
SPLINE
  5
3B5
100
AcDbEntity
  8
0
100
AcDbSpline
 62
7
  6
CONTINUOUS
 70
0
 71
3
 72
15
 73
11
 74
0
 42
0.0000001
 43
0.0000001
 44
0.0000000001
 40
0.0
 40
0.0
 40
0.0
 40
0.0
 40
0.086978719
 40
0.1778043513
 40
0.2777572469
 40
0.3906085367
 40
0.5185661945
 40
0.6627422266
 40
0.8233500101
 40
1.0
 40
1.0
 40
1.0
 40
1.0
 10
5.9303670981
 20
7.4425541543
 30
0.0
 10
5.9303673712
 20
7.4403446574
 30
0.0
 10
5.931026735
 20
7.4358019616
 30
0.0
 10
5.9339825103
 20
7.4293091708
 30
0.0
 10
5.9387947478
 20
7.4232052673
 30
0.0
 10
5.9453645541
 20
7.4175104518
 30
0.0
 10
5.9536148523
 20
7.4122119864
 30
0.0
 10
5.9634841916
 20
7.4073308326
 30
0.0
 10
5.9748857878
 20
7.4028750932
 30
0.0
 10
5.9830678894
 20
7.4003134442
 30
0.0
 10
5.9873852235
 20
7.3990897968
 30
0.0
  0
SPLINE
  5
3B6
100
AcDbEntity
  8
0
100
AcDbSpline
 62
7
  6
CONTINUOUS
 70
0
 71
3
 72
12
 73
8
 74
0
 42
0.0000001
 43
0.0000001
 44
0.0000000001
 40
0.0
 40
0.0
 40
0.0
 40
0.0
 40
0.1044323077
 40
0.2166928752
 40
0.4611954527
 40
0.7256024825
 40
1.0
 40
1.0
 40
1.0
 40
1.0
 10
5.9873852235
 20
7.3990897968
 30
0.0
 10
5.9922159907
 20
7.3977206287
 30
0.0
 10
6.0023272995
 20
7.3951845387
 30
0.0
 10
6.0240751344
 20
7.3908271525
 30
0.0
 10
6.0536936047
 20
7.3867751937
 30
0.0
 10
6.0912636202
 20
7.3839381691
 30
0.0
 10
6.1171743917
 20
7.3833118394
 30
0.0
 10
6.1303672762
 20
7.3833118394
 30
0.0
  0
SPLINE
  5
3B7
100
AcDbEntity
  8
0
100
AcDbSpline
 62
7
  6
CONTINUOUS
 70
0
 71
3
 72
9
 73
5
 74
0
 42
0.0000001
 43
0.0000001
 44
0.0000000001
 40
0.0
 40
0.0
 40
0.0
 40
0.0
 40
0.4999934717
 40
1.0
 40
1.0
 40
1.0
 40
1.0
 10
5.9923151441
 20
7.7002815915
 30
0.0
 10
5.9798715045
 20
7.6840338256
 30
0.0
 10
5.9558697233
 20
7.6508597342
 30
0.0
 10
5.9328872849
 20
7.6169870349
 30
0.0
 10
5.9215460317
 20
7.5999508408
 30
0.0
  0
SPLINE
  5
3B8
100
AcDbEntity
  8
0
100
AcDbSpline
 62
7
  6
CONTINUOUS
 70
0
 71
3
 72
9
 73
5
 74
0
 42
0.0000001
 43
0.0000001
 44
0.0000000001
 40
0.0
 40
0.0
 40
0.0
 40
0.0
 40
0.5109247841
 40
1.0
 40
1.0
 40
1.0
 40
1.0
 10
5.8771834613
 20
7.5318173918
 30
0.0
 10
5.8743931821
 20
7.527450185
 30
0.0
 10
5.8685516612
 20
7.5191429512
 30
0.0
 10
5.8621603279
 20
7.511256886
 30
0.0
 10
5.8589096524
 20
7.507509458
 30
0.0
  0
SPLINE
  5
3B9
100
AcDbEntity
  8
0
100
AcDbSpline
 62
7
  6
CONTINUOUS
 70
0
 71
3
 72
9
 73
5
 74
0
 42
0.0000001
 43
0.0000001
 44
0.0000000001
 40
0.0
 40
0.0
 40
0.0
 40
0.0
 40
0.2612193172
 40
1.0
 40
1.0
 40
1.0
 40
1.0
 10
5.8589096524
 20
7.507509458
 30
0.0
 10
5.8581293748
 20
7.5066099423
 30
0.0
 10
5.8551143501
 20
7.5031909401
 30
0.0
 10
5.8519884285
 20
7.4998684547
 30
0.0
 10
5.8496022563
 20
7.4974918901
 30
0.0
  0
SPLINE
  5
3BA
100
AcDbEntity
  8
0
100
AcDbSpline
 62
7
  6
CONTINUOUS
 70
0
 71
3
 72
10
 73
6
 74
0
 42
0.0000001
 43
0.0000001
 44
0.0000000001
 40
0.0
 40
0.0
 40
0.0
 40
0.0
 40
0.4999930944
 40
0.7499954527
 40
1.0
 40
1.0
 40
1.0
 40
1.0
 10
6.3391852783
 20
7.5999556245
 30
0.0
 10
6.327842351
 20
7.6169904817
 30
0.0
 10
6.310598025
 20
7.6423934333
 30
0.0
 10
6.2868465269
 20
7.6757316012
 30
0.0
 10
6.2746350714
 20
7.6921587575
 30
0.0
 10
6.2684158606
 20
7.7002852703
 30
0.0
  0
SPLINE
  5
3BB
100
AcDbEntity
  8
0
100
AcDbSpline
 62
7
  6
CONTINUOUS
 70
0
 71
3
 72
9
 73
5
 74
0
 42
0.0000001
 43
0.0000001
 44
0.0000000001
 40
0.0
 40
0.0
 40
0.0
 40
0.0
 40
0.2376105881
 40
1.0
 40
1.0
 40
1.0
 40
1.0
 10
6.411132296
 20
7.4974918901
 30
0.0
 10
6.4103640972
 20
7.4982569958
 30
0.0
 10
6.4071659051
 20
7.5015118959
 30
0.0
 10
6.4040956335
 20
7.5048914308
 30
0.0
 10
6.4018162752
 20
7.507519424
 30
0.0
  0
SPLINE
  5
3BC
100
AcDbEntity
  8
0
100
AcDbSpline
 62
7
  6
CONTINUOUS
 70
0
 71
3
 72
9
 73
5
 74
0
 42
0.0000001
 43
0.0000001
 44
0.0000000001
 40
0.0
 40
0.0
 40
0.0
 40
0.0
 40
0.4890852851
 40
1.0
 40
1.0
 40
1.0
 40
1.0
 10
6.4018162752
 20
7.507519424
 30
0.0
 10
6.3985671614
 20
7.5112654996
 30
0.0
 10
6.3921788878
 20
7.5191483836
 30
0.0
 10
6.3863401077
 20
7.5274521611
 30
0.0
 10
6.383551091
 20
7.5318173918
 30
0.0
  0
SPLINE
  5
3BD
100
AcDbEntity
  8
0
100
AcDbSpline
 62
7
  6
CONTINUOUS
 70
0
 71
3
 72
15
 73
11
 74
0
 42
0.0000001
 43
0.0000001
 44
0.0000000001
 40
0.0
 40
0.0
 40
0.0
 40
0.0
 40
0.1461536454
 40
0.2906078211
 40
0.4307069971
 40
0.5641778492
 40
0.6893280659
 40
0.8045969027
 40
0.9085609255
 40
1.0
 40
1.0
 40
1.0
 40
1.0
 10
6.1303672762
 20
7.4747584217
 30
0.0
 10
6.1208690553
 20
7.4747584217
 30
0.0
 10
6.1019804131
 20
7.475186135
 30
0.0
 10
6.0740438891
 20
7.477068633
 30
0.0
 10
6.0470433887
 20
7.4801659433
 30
0.0
 10
6.0214739126
 20
7.484441571
 30
0.0
 10
5.9977594053
 20
7.4898028926
 30
0.0
 10
5.976284974
 20
7.4961795771
 30
0.0
 10
5.9574214015
 20
7.5034358226
 30
0.0
 10
5.9460368857
 20
7.5091381503
 30
0.0
 10
5.9409242191
 20
7.5121668749
 30
0.0
  0
SPLINE
  5
3BE
100
AcDbEntity
  8
0
100
AcDbSpline
 62
7
  6
CONTINUOUS
 70
0
 71
3
 72
11
 73
7
 74
0
 42
0.0000001
 43
0.0000001
 44
0.0000000001
 40
0.0
 40
0.0
 40
0.0
 40
0.0
 40
0.2791401441
 40
0.5397429005
 40
0.7804173069
 40
1.0
 40
1.0
 40
1.0
 40
1.0
 10
6.2709770658
 20
7.6068884035
 30
0.0
 10
6.2757043143
 20
7.6055298944
 30
0.0
 10
6.2847866227
 20
7.6026930163
 30
0.0
 10
6.2976847142
 20
7.5979036089
 30
0.0
 10
6.3093096364
 20
7.5927647562
 30
0.0
 10
6.31648145
 20
7.5889557993
 30
0.0
 10
6.3198103332
 20
7.5869837813
 30
0.0
  0
SPLINE
  5
3BF
100
AcDbEntity
  8
0
100
AcDbSpline
 62
7
  6
CONTINUOUS
 70
0
 71
3
 72
19
 73
15
 74
0
 42
0.0000001
 43
0.0000001
 44
0.0000000001
 40
0.0
 40
0.0
 40
0.0
 40
0.0
 40
0.1549306026
 40
0.2237135828
 40
0.2870364303
 40
0.3992730337
 40
0.4504277861
 40
0.5
 40
0.5495722139
 40
0.6007269663
 40
0.7129635697
 40
0.7762864172
 40
0.8450693974
 40
1.0
 40
1.0
 40
1.0
 40
1.0
 10
5.9409242191
 20
7.5121668749
 30
0.0
 10
5.9365197647
 20
7.5147760573
 30
0.0
 10
5.9303656531
 20
7.5189423013
 30
0.0
 10
5.9233084823
 20
7.5253038522
 30
0.0
 10
5.9179098412
 20
7.5313136788
 30
0.0
 10
5.9139206932
 20
7.5378127941
 30
0.0
 10
5.9119346626
 20
7.5446018002
 30
0.0
 10
5.9114504161
 20
7.5495753281
 30
0.0
 10
5.9119346626
 20
7.554548856
 30
0.0
 10
5.9139206932
 20
7.5613378621
 30
0.0
 10
5.9179098412
 20
7.5678369774
 30
0.0
 10
5.9233084823
 20
7.573846804
 30
0.0
 10
5.9303656531
 20
7.5802083549
 30
0.0
 10
5.9365197647
 20
7.5843745989
 30
0.0
 10
5.9409242191
 20
7.5869837813
 30
0.0
  0
SPLINE
  5
3C0
100
AcDbEntity
  8
0
100
AcDbSpline
 62
7
  6
CONTINUOUS
 70
0
 71
3
 72
15
 73
11
 74
0
 42
0.0000001
 43
0.0000001
 44
0.0000000001
 40
0.0
 40
0.0
 40
0.0
 40
0.0
 40
0.0914390745
 40
0.1954030973
 40
0.3106719341
 40
0.4358221508
 40
0.5692930029
 40
0.7093921789
 40
0.8538463546
 40
1.0
 40
1.0
 40
1.0
 40
1.0
 10
6.3198103332
 20
7.5121668749
 30
0.0
 10
6.3146976666
 20
7.5091381503
 30
0.0
 10
6.3033131509
 20
7.5034358226
 30
0.0
 10
6.2844495783
 20
7.4961795771
 30
0.0
 10
6.262975147
 20
7.4898028926
 30
0.0
 10
6.2392606397
 20
7.484441571
 30
0.0
 10
6.2136911637
 20
7.4801659433
 30
0.0
 10
6.1866906632
 20
7.477068633
 30
0.0
 10
6.1587541392
 20
7.475186135
 30
0.0
 10
6.1398654971
 20
7.4747584217
 30
0.0
 10
6.1303672762
 20
7.4747584217
 30
0.0
  0
SPLINE
  5
3C1
100
AcDbEntity
  8
0
100
AcDbSpline
 62
7
  6
CONTINUOUS
 70
0
 71
3
 72
19
 73
15
 74
0
 42
0.0000001
 43
0.0000001
 44
0.0000000001
 40
0.0
 40
0.0
 40
0.0
 40
0.0
 40
0.1549306026
 40
0.2237135828
 40
0.2870364303
 40
0.3992730337
 40
0.4504277861
 40
0.5
 40
0.5495722139
 40
0.6007269663
 40
0.7129635697
 40
0.7762864172
 40
0.8450693974
 40
1.0
 40
1.0
 40
1.0
 40
1.0
 10
6.3198103332
 20
7.5869837813
 30
0.0
 10
6.3242147877
 20
7.5843745989
 30
0.0
 10
6.3303688992
 20
7.5802083549
 30
0.0
 10
6.33742607
 20
7.573846804
 30
0.0
 10
6.3428247111
 20
7.5678369774
 30
0.0
 10
6.3468138591
 20
7.5613378621
 30
0.0
 10
6.3487998897
 20
7.554548856
 30
0.0
 10
6.3492841362
 20
7.5495753281
 30
0.0
 10
6.3487998897
 20
7.5446018002
 30
0.0
 10
6.3468138591
 20
7.5378127941
 30
0.0
 10
6.3428247111
 20
7.5313136788
 30
0.0
 10
6.33742607
 20
7.5253038522
 30
0.0
 10
6.3303688992
 20
7.5189423013
 30
0.0
 10
6.3242147877
 20
7.5147760573
 30
0.0
 10
6.3198103332
 20
7.5121668749
 30
0.0
  0
SPLINE
  5
3C2
100
AcDbEntity
  8
0
100
AcDbSpline
 62
7
  6
CONTINUOUS
 70
0
 71
3
 72
10
 73
6
 74
0
 42
0.0000001
 43
0.0000001
 44
0.0000000001
 40
0.0
 40
0.0
 40
0.0
 40
0.0
 40
0.2211821595
 40
0.4623032313
 40
1.0
 40
1.0
 40
1.0
 40
1.0
 10
5.9409242191
 20
7.5869837813
 30
0.0
 10
5.9440178493
 20
7.5888164363
 30
0.0
 10
5.9506517187
 20
7.5923674108
 30
0.0
 10
5.9654815911
 20
7.5990470468
 30
0.0
 10
5.9774708259
 20
7.6032113293
 30
0.0
 10
5.9858398191
 20
7.6057350385
 30
0.0
  0
SPLINE
  5
3C3
100
AcDbEntity
  8
0
100
AcDbSpline
 62
7
  6
CONTINUOUS
 70
0
 71
3
 72
15
 73
11
 74
0
 42
0.0000001
 43
0.0000001
 44
0.0000000001
 40
0.0
 40
0.0
 40
0.0
 40
0.0
 40
0.1527440428
 40
0.3031924152
 40
0.4478111456
 40
0.5836073599
 40
0.7083573827
 40
0.8200938597
 40
0.9175059719
 40
1.0
 40
1.0
 40
1.0
 40
1.0
 10
6.1303672762
 20
7.6448689495
 30
0.0
 10
6.1359255774
 20
7.6448689495
 30
0.0
 10
6.1469606153
 20
7.645152959
 30
0.0
 10
6.1632156935
 20
7.6463971092
 30
0.0
 10
6.1787698216
 20
7.648439623
 30
0.0
 10
6.1932542205
 20
7.6512473492
 30
0.0
 10
6.2063574641
 20
7.6547351091
 30
0.0
 10
6.2178128885
 20
7.6588437639
 30
0.0
 10
6.2273851548
 20
7.6634729396
 30
0.0
 10
6.2328517625
 20
7.6671501378
 30
0.0
 10
6.2351366676
 20
7.6690971309
 30
0.0
  0
SPLINE
  5
3C4
100
AcDbEntity
  8
0
100
AcDbSpline
 62
7
  6
CONTINUOUS
 70
0
 71
3
 72
32
 73
28
 74
0
 42
0.0000001
 43
0.0000001
 44
0.0000000001
 40
0.0
 40
0.0
 40
0.0
 40
0.0
 40
0.0626060596
 40
0.0940224584
 40
0.1254135559
 40
0.1879899959
 40
0.2192665833
 40
0.2505282837
 40
0.2817763484
 40
0.3130041503
 40
0.344211404
 40
0.3754054819
 40
0.4376773572
 40
0.4999249575
 40
0.5621733272
 40
0.5933462814
 40
0.6245329654
 40
0.6557319695
 40
0.686945351
 40
0.7181804912
 40
0.7494353939
 40
0.7807029967
 40
0.8119862857
 40
0.8745766108
 40
0.9059730249
 40
0.9373924123
 40
1.0
 40
1.0
 40
1.0
 40
1.0
 10
6.0708720839
 20
12.3890637784
 30
0.0
 10
6.061800259
 20
12.3890637784
 30
0.0
 10
6.0481319683
 20
12.3903857734
 30
0.0
 10
6.0304511709
 20
12.3946707085
 30
0.0
 10
6.0132615576
 20
12.4006265675
 30
0.0
 10
5.9970349771
 20
12.4090506741
 30
0.0
 10
5.9823039418
 20
12.4196558684
 30
0.0
 10
5.9720890332
 20
12.4286544829
 30
0.0
 10
5.9628089007
 20
12.4386020367
 30
0.0
 10
5.9545505908
 20
12.4494035828
 30
0.0
 10
5.9474100551
 20
12.4609678325
 30
0.0
 10
5.9394975823
 20
12.477235281
 30
0.0
 10
5.9327008175
 20
12.4989260605
 30
0.0
 10
5.9299683241
 20
12.526028473
 30
0.0
 10
5.9322440531
 20
12.5486392461
 30
0.0
 10
5.9367678146
 20
12.5661457229
 30
0.0
 10
5.9414583934
 20
12.5788902713
 30
0.0
 10
5.9473975001
 20
12.5911086988
 30
0.0
 10
5.9545395262
 20
12.6026738175
 30
0.0
 10
5.9627972226
 20
12.6134797802
 30
0.0
 10
5.9720769843
 20
12.623431648
 30
0.0
 10
5.9822934121
 20
12.6324329193
 30
0.0
 10
5.9970270845
 20
12.6430409622
 30
0.0
 10
6.0132563049
 20
12.6514683135
 30
0.0
 10
6.0304490058
 20
12.65742517
 30
0.0
 10
6.0481310833
 20
12.6617108053
 30
0.0
 10
6.0618000376
 20
12.6630330405
 30
0.0
 10
6.0708720839
 20
12.6630330405
 30
0.0
  0
SPLINE
  5
3C5
100
AcDbEntity
  8
0
100
AcDbSpline
 62
7
  6
CONTINUOUS
 70
0
 71
3
 72
32
 73
28
 74
0
 42
0.0000001
 43
0.0000001
 44
0.0000000001
 40
0.0
 40
0.0
 40
0.0
 40
0.0
 40
0.0626060596
 40
0.0940224584
 40
0.1254135559
 40
0.1879899959
 40
0.2192665833
 40
0.2505282837
 40
0.2817763484
 40
0.3130041503
 40
0.344211404
 40
0.3754054819
 40
0.4376773572
 40
0.4999249575
 40
0.5621733272
 40
0.5933462814
 40
0.6245329654
 40
0.6557319695
 40
0.686945351
 40
0.7181804912
 40
0.7494353939
 40
0.7807029967
 40
0.8119862857
 40
0.8745766108
 40
0.9059730249
 40
0.9373924123
 40
1.0
 40
1.0
 40
1.0
 40
1.0
 10
6.0708720839
 20
12.6630330405
 30
0.0
 10
6.0799439087
 20
12.6630330405
 30
0.0
 10
6.0936121994
 20
12.6617110456
 30
0.0
 10
6.1112929968
 20
12.6574261104
 30
0.0
 10
6.1284826101
 20
12.6514702515
 30
0.0
 10
6.1447091906
 20
12.6430461448
 30
0.0
 10
6.1594402259
 20
12.6324409505
 30
0.0
 10
6.1696551345
 20
12.623442336
 30
0.0
 10
6.178935267
 20
12.6134947823
 30
0.0
 10
6.1871935769
 20
12.6026932362
 30
0.0
 10
6.1943341126
 20
12.5911289865
 30
0.0
 10
6.2022465855
 20
12.574861538
 30
0.0
 10
6.2090433502
 20
12.5531707585
 30
0.0
 10
6.2117758436
 20
12.526068346
 30
0.0
 10
6.2095001147
 20
12.5034575729
 30
0.0
 10
6.2049763531
 20
12.485951096
 30
0.0
 10
6.2002857743
 20
12.4732065476
 30
0.0
 10
6.1943466676
 20
12.4609881202
 30
0.0
 10
6.1872046415
 20
12.4494230014
 30
0.0
 10
6.1789469451
 20
12.4386170387
 30
0.0
 10
6.1696671835
 20
12.4286651709
 30
0.0
 10
6.1594507556
 20
12.4196638996
 30
0.0
 10
6.1447170832
 20
12.4090558568
 30
0.0
 10
6.1284878629
 20
12.4006285055
 30
0.0
 10
6.1112951619
 20
12.394671649
 30
0.0
 10
6.0936130844
 20
12.3903860136
 30
0.0
 10
6.0799441301
 20
12.3890637784
 30
0.0
 10
6.0708720839
 20
12.3890637784
 30
0.0
  0
SPLINE
  5
3C6
100
AcDbEntity
  8
0
100
AcDbSpline
 62
7
  6
CONTINUOUS
 70
0
 71
3
 72
11
 73
7
 74
0
 42
0.0000001
 43
0.0000001
 44
0.0000000001
 40
0.0
 40
0.0
 40
0.0
 40
0.0
 40
0.2106419909
 40
0.4470359823
 40
0.710012714
 40
1.0
 40
1.0
 40
1.0
 40
1.0
 10
5.817688269
 20
12.8203602814
 30
0.0
 10
5.8154576385
 20
12.8203602814
 30
0.0
 10
5.8107211934
 20
12.8195530427
 30
0.0
 10
5.8037368767
 20
12.8166646509
 30
0.0
 10
5.7966589133
 20
12.812147173
 30
0.0
 10
5.7922523176
 20
12.8082505526
 30
0.0
 10
5.790107064
 20
12.80605325
 30
0.0
  0
SPLINE
  5
3C7
100
AcDbEntity
  8
0
100
AcDbSpline
 62
7
  6
CONTINUOUS
 70
0
 71
3
 72
11
 73
7
 74
0
 42
0.0000001
 43
0.0000001
 44
0.0000000001
 40
0.0
 40
0.0
 40
0.0
 40
0.0
 40
0.2899871512
 40
0.5529663324
 40
0.7893592946
 40
1.0
 40
1.0
 40
1.0
 40
1.0
 10
6.3516371037
 20
12.80605325
 30
0.0
 10
6.3494918504
 20
12.8082505523
 30
0.0
 10
6.3450852066
 20
12.8121471587
 30
0.0
 10
6.3380072599
 20
12.8166646777
 30
0.0
 10
6.3310229519
 20
12.8195531333
 30
0.0
 10
6.3262865164
 20
12.8203602814
 30
0.0
 10
6.3240558987
 20
12.8203602814
 30
0.0
  0
SPLINE
  5
3C8
100
AcDbEntity
  8
0
100
AcDbSpline
 62
7
  6
CONTINUOUS
 70
0
 71
3
 72
15
 73
11
 74
0
 42
0.0000001
 43
0.0000001
 44
0.0000000001
 40
0.0
 40
0.0
 40
0.0
 40
0.0
 40
0.1216892213
 40
0.2447663865
 40
0.3688367142
 40
0.4937103803
 40
0.6194386883
 40
0.7460267808
 40
0.8731058784
 40
1.0
 40
1.0
 40
1.0
 40
1.0
 10
5.8814290268
 20
12.699582707
 30
0.0
 10
5.8862052602
 20
12.7073564824
 30
0.0
 10
5.8969026574
 20
12.7223479122
 30
0.0
 10
5.915824545
 20
12.7426159878
 30
0.0
 10
5.9374014896
 20
12.7604183215
 30
0.0
 10
5.9612668448
 20
12.7753811446
 30
0.0
 10
5.9869965795
 20
12.787297641
 30
0.0
 10
6.0141804333
 20
12.7959281287
 30
0.0
 10
6.0422964074
 20
12.8011684512
 30
0.0
 10
6.061358025
 20
12.8023615874
 30
0.0
 10
6.0708720839
 20
12.8023615874
 30
0.0
  0
SPLINE
  5
3C9
100
AcDbEntity
  8
0
100
AcDbSpline
 62
7
  6
CONTINUOUS
 70
0
 71
3
 72
11
 73
7
 74
0
 42
0.0000001
 43
0.0000001
 44
0.0000000001
 40
0.0
 40
0.0
 40
0.0
 40
0.0
 40
0.249064232
 40
0.4981284639
 40
0.7485328315
 40
1.0
 40
1.0
 40
1.0
 40
1.0
 10
6.2862987798
 20
12.6324985572
 30
0.0
 10
6.2885109508
 20
12.620755179
 30
0.0
 10
6.2907467243
 20
12.5967968703
 30
0.0
 10
6.2873893957
 20
12.5608367639
 30
0.0
 10
6.2773907774
 20
12.5260185483
 30
0.0
 10
6.2666311696
 20
12.5043048852
 30
0.0
 10
6.2603151409
 20
12.4940249462
 30
0.0
  0
SPLINE
  5
3CA
100
AcDbEntity
  8
0
100
AcDbSpline
 62
7
  6
CONTINUOUS
 70
0
 71
3
 72
14
 73
10
 74
0
 42
0.0000001
 43
0.0000001
 44
0.0000000001
 40
0.0
 40
0.0
 40
0.0
 40
0.0
 40
0.2451140632
 40
0.3693023882
 40
0.494168479
 40
0.6196448731
 40
0.745772243
 40
0.8725709337
 40
1.0
 40
1.0
 40
1.0
 40
1.0
 10
6.2603151409
 20
12.4940249462
 30
0.0
 10
6.252999512
 20
12.4821180626
 30
0.0
 10
6.2400392831
 20
12.4652830985
 30
0.0
 10
6.2197253049
 20
12.4457189352
 30
0.0
 10
6.202919983
 20
12.4324827169
 30
0.0
 10
6.1847998339
 20
12.420916271
 30
0.0
 10
6.165546648
 20
12.4111072913
 30
0.0
 10
6.1453379114
 20
12.403154524
 30
0.0
 10
6.1313779351
 20
12.3991601767
 30
0.0
 10
6.1243072613
 20
12.3974905802
 30
0.0
  0
SPLINE
  5
3CB
100
AcDbEntity
  8
0
100
AcDbSpline
 62
7
  6
CONTINUOUS
 70
0
 71
3
 72
11
 73
7
 74
0
 42
0.0000001
 43
0.0000001
 44
0.0000000001
 40
0.0
 40
0.0
 40
0.0
 40
0.0
 40
0.2514671685
 40
0.5018715361
 40
0.750935768
 40
1.0
 40
1.0
 40
1.0
 40
1.0
 10
5.8814290268
 20
12.4940249462
 30
0.0
 10
5.8751129981
 20
12.5043048852
 30
0.0
 10
5.8643533904
 20
12.5260185483
 30
0.0
 10
5.854354772
 20
12.5608367639
 30
0.0
 10
5.8509974434
 20
12.5967968703
 30
0.0
 10
5.8532332169
 20
12.620755179
 30
0.0
 10
5.8554453879
 20
12.6324985572
 30
0.0
  0
SPLINE
  5
3CC
100
AcDbEntity
  8
0
100
AcDbSpline
 62
7
  6
CONTINUOUS
 70
0
 71
3
 72
15
 73
11
 74
0
 42
0.0000001
 43
0.0000001
 44
0.0000000001
 40
0.0
 40
0.0
 40
0.0
 40
0.0
 40
0.1268941216
 40
0.2539732192
 40
0.3805613117
 40
0.5062896197
 40
0.6311632858
 40
0.7552336135
 40
0.8783107787
 40
1.0
 40
1.0
 40
1.0
 40
1.0
 10
6.0708720839
 20
12.8023615874
 30
0.0
 10
6.0803861427
 20
12.8023615874
 30
0.0
 10
6.0994477604
 20
12.8011684512
 30
0.0
 10
6.1275637344
 20
12.7959281287
 30
0.0
 10
6.1547475882
 20
12.787297641
 30
0.0
 10
6.1804773229
 20
12.7753811446
 30
0.0
 10
6.2043426781
 20
12.7604183215
 30
0.0
 10
6.2259196227
 20
12.7426159878
 30
0.0
 10
6.2448415103
 20
12.7223479122
 30
0.0
 10
6.2555389075
 20
12.7073564824
 30
0.0
 10
6.2603151409
 20
12.699582707
 30
0.0
  0
SPLINE
  5
3CD
100
AcDbEntity
  8
0
100
AcDbSpline
 62
7
  6
CONTINUOUS
 70
0
 71
3
 72
14
 73
10
 74
0
 42
0.0000001
 43
0.0000001
 44
0.0000000001
 40
0.0
 40
0.0
 40
0.0
 40
0.0
 40
0.1274297636
 40
0.2542294905
 40
0.3803574685
 40
0.5058340375
 40
0.6306998837
 40
0.7548878855
 40
1.0
 40
1.0
 40
1.0
 40
1.0
 10
6.0175318373
 20
12.3974681852
 30
0.0
 10
6.0104564005
 20
12.3991357713
 30
0.0
 10
5.9964867699
 20
12.4031268586
 30
0.0
 10
5.9762635878
 20
12.4110771257
 30
0.0
 10
5.9569964145
 20
12.4208860479
 30
0.0
 10
5.9388630551
 20
12.4324546523
 30
0.0
 10
5.9220455648
 20
12.4456951274
 30
0.0
 10
5.9017173965
 20
12.4652675344
 30
0.0
 10
5.8887487606
 20
12.4821113814
 30
0.0
 10
5.8814290268
 20
12.4940249462
 30
0.0
  0
SPLINE
  5
3CE
100
AcDbEntity
  8
0
100
AcDbSpline
 62
7
  6
CONTINUOUS
 70
0
 71
3
 72
9
 73
5
 74
0
 42
0.0000001
 43
0.0000001
 44
0.0000000001
 40
0.0
 40
0.0
 40
0.0
 40
0.0
 40
0.4958243695
 40
1.0
 40
1.0
 40
1.0
 40
1.0
 10
15.7672333939
 20
7.4388691252
 30
0.0
 10
15.7714651937
 20
7.443218487
 30
0.0
 10
15.7782599792
 20
7.4538117803
 30
0.0
 10
15.7806677569
 20
7.4661516219
 30
0.0
 10
15.7806677569
 20
7.4723221995
 30
0.0
  0
SPLINE
  5
3CF
100
AcDbEntity
  8
0
100
AcDbSpline
 62
7
  6
CONTINUOUS
 70
0
 71
3
 72
9
 73
5
 74
0
 42
0.0000001
 43
0.0000001
 44
0.0000000001
 40
0.0
 40
0.0
 40
0.0
 40
0.0
 40
0.5591196618
 40
1.0
 40
1.0
 40
1.0
 40
1.0
 10
15.5185214173
 20
7.356453872
 30
0.0
 10
15.5635452261
 20
7.3708738786
 30
0.0
 10
15.6431657215
 20
7.3995839868
 30
0.0
 10
15.7208838766
 20
7.4329835044
 30
0.0
 10
15.7547631177
 20
7.4485369483
 30
0.0
  0
SPLINE
  5
3D0
100
AcDbEntity
  8
03__ASM_ALL_CURVES
100
AcDbSpline
 62
8
  6
PHANTOM
 70
0
 71
3
 72
79
 73
75
 74
0
 42
0.0000001
 43
0.0000001
 44
0.0000000001
 40
0.0
 40
0.0
 40
0.0
 40
0.0
 40
0.0625
 40
0.09375
 40
0.109375
 40
0.125
 40
0.140625
 40
0.15625
 40
0.16015625
 40
0.1640625
 40
0.166015625
 40
0.16796875
 40
0.171875
 40
0.1796875
 40
0.1875
 40
0.203125
 40
0.21875
 40
0.25
 40
0.28125
 40
0.296875
 40
0.3125
 40
0.3203125
 40
0.328125
 40
0.33203125
 40
0.3359375
 40
0.33984375
 40
0.34375
 40
0.359375
 40
0.375
 40
0.390625
 40
0.40625
 40
0.4375
 40
0.453125
 40
0.46875
 40
0.4765625
 40
0.484375
 40
0.4921875
 40
0.49609375
 40
0.5
 40
0.50390625
 40
0.5078125
 40
0.515625
 40
0.5234375
 40
0.53125
 40
0.546875
 40
0.5625
 40
0.59375
 40
0.609375
 40
0.625
 40
0.640625
 40
0.65625
 40
0.6640625
 40
0.66796875
 40
0.671875
 40
0.6796875
 40
0.6875
 40
0.703125
 40
0.71875
 40
0.75
 40
0.78125
 40
0.796875
 40
0.8125
 40
0.8203125
 40
0.828125
 40
0.83203125
 40
0.8359375
 40
0.83984375
 40
0.84375
 40
0.859375
 40
0.875
 40
0.890625
 40
0.90625
 40
0.9375
 40
1.0
 40
1.0
 40
1.0
 40
1.0
 10
17.2013543422
 20
12.0400934878
 30
0.0
 10
17.1873184431
 20
12.0635045815
 30
0.0
 10
17.1662648183
 20
12.0986212208
 30
0.0
 10
17.1417014724
 20
12.1395906382
 30
0.0
 10
17.1276663942
 20
12.1630017268
 30
0.0
 10
17.1171369512
 20
12.1805600628
 30
0.0
 10
17.1066194861
 20
12.1981183243
 30
0.0
 10
17.0986978041
 20
12.2112872293
 30
0.0
 10
17.0934689116
 20
12.2200661744
 30
0.0
 10
17.091212487
 20
12.2237245517
 30
0.0
 10
17.0895886509
 20
12.2266501256
 30
0.0
 10
17.0873017763
 20
12.2295798246
 30
0.0
 10
17.0829916823
 20
12.2347087143
 30
0.0
 10
17.0769951378
 20
12.2420346999
 30
0.0
 10
17.0673108379
 20
12.2537568341
 30
0.0
 10
17.0552362475
 20
12.2684093215
 30
0.0
 10
17.0358995399
 20
12.2918533413
 30
0.0
 10
17.0117357394
 20
12.3211587876
 30
0.0
 10
16.9875653064
 20
12.3504624978
 30
0.0
 10
16.9682392109
 20
12.3739092954
 30
0.0
 10
16.9561380904
 20
12.3885548382
 30
0.0
 10
16.9465081772
 20
12.4002912088
 30
0.0
 10
16.9403731788
 20
12.4075809524
 30
0.0
 10
16.9357315606
 20
12.4135169344
 30
0.0
 10
16.931520987
 20
12.4176836525
 30
0.0
 10
16.9271060328
 20
12.421770433
 30
0.0
 10
16.9183812587
 20
12.4299851142
 30
0.0
 10
16.905249939
 20
12.4422898648
 30
0.0
 10
16.8877667567
 20
12.4587060715
 30
0.0
 10
16.8702768036
 20
12.4751196332
 30
0.0
 10
16.846959318
 20
12.4970053258
 30
0.0
 10
16.8236406628
 20
12.5188906461
 30
0.0
 10
16.8003236777
 20
12.5407763754
 30
0.0
 10
16.7857473614
 20
12.5544542438
 30
0.0
 10
16.7740935722
 20
12.5653981462
 30
0.0
 10
16.7653333592
 20
12.5736016776
 30
0.0
 10
16.7580963922
 20
12.580451935
 30
0.0
 10
16.7521650489
 20
12.5859007836
 30
0.0
 10
16.7481039243
 20
12.5900731035
 30
0.0
 10
16.7425641529
 20
12.593918368
 30
0.0
 10
16.7356943015
 20
12.5991596321
 30
0.0
 10
16.7269297753
 20
12.6056720155
 30
0.0
 10
16.7164881957
 20
12.6135036525
 30
0.0
 10
16.7025395985
 20
12.6239399777
 30
0.0
 10
16.6851129055
 20
12.6369873735
 30
0.0
 10
16.6572252363
 20
12.6578621903
 30
0.0
 10
16.6293383585
 20
12.6787367395
 30
0.0
 10
16.6014528268
 20
12.699612854
 30
0.0
 10
16.5805338483
 20
12.7152655117
 30
0.0
 10
16.5596335158
 20
12.7309350996
 30
0.0
 10
16.5421584434
 20
12.7439403454
 30
0.0
 10
16.5300398053
 20
12.7531473732
 30
0.0
 10
16.5229370292
 20
12.7582471739
 30
0.0
 10
16.5151644072
 20
12.7627392097
 30
0.0
 10
16.5056779843
 20
12.7685623523
 30
0.0
 10
16.4903715302
 20
12.7777630838
 30
0.0
 10
16.4712823747
 20
12.7893038317
 30
0.0
 10
16.4407150437
 20
12.8077466873
 30
0.0
 10
16.4025153478
 20
12.8308084808
 30
0.0
 10
16.3643086333
 20
12.8538653042
 30
0.0
 10
16.3337525319
 20
12.8723161119
 30
0.0
 10
16.3146353025
 20
12.8838369795
 30
0.0
 10
16.2993863998
 20
12.8930784657
 30
0.0
 10
16.2897534665
 20
12.8987978578
 30
0.0
 10
16.2822815856
 20
12.9035028617
 30
0.0
 10
16.2760356992
 20
12.9066770661
 30
0.0
 10
16.2696099189
 20
12.9097519193
 30
0.0
 10
16.2568508964
 20
12.9159527324
 30
0.0
 10
16.2376734956
 20
12.9252324867
 30
0.0
 10
16.2121258425
 20
12.9376177611
 30
0.0
 10
16.186572247
 20
12.9499997536
 30
0.0
 10
16.1525028597
 20
12.966510222
 30
0.0
 10
16.0928804601
 20
12.9954030049
 30
0.0
 10
16.0417758793
 20
13.0201684315
 30
0.0
 10
16.0077060848
 20
13.036678675
 30
0.0
  0
SPLINE
  5
3D1
100
AcDbEntity
  8
03__ASM_ALL_CURVES
100
AcDbSpline
 62
8
  6
PHANTOM
 70
0
 71
3
 72
52
 73
48
 74
0
 42
0.0000001
 43
0.0000001
 44
0.0000000001
 40
0.0
 40
0.0
 40
0.0
 40
0.0
 40
0.0625
 40
0.125
 40
0.140625
 40
0.15625
 40
0.1640625
 40
0.171875
 40
0.1875
 40
0.21875
 40
0.25
 40
0.28125
 40
0.3125
 40
0.328125
 40
0.3359375
 40
0.34375
 40
0.359375
 40
0.375
 40
0.40625
 40
0.4375
 40
0.46875
 40
0.484375
 40
0.4921875
 40
0.5
 40
0.5078125
 40
0.515625
 40
0.53125
 40
0.5625
 40
0.59375
 40
0.625
 40
0.640625
 40
0.65625
 40
0.6640625
 40
0.671875
 40
0.6875
 40
0.71875
 40
0.75
 40
0.78125
 40
0.8125
 40
0.828125
 40
0.8359375
 40
0.84375
 40
0.859375
 40
0.875
 40
0.90625
 40
0.9375
 40
1.0
 40
1.0
 40
1.0
 40
1.0
 10
16.0077060566
 20
13.0366786871
 30
0.0
 10
15.98528748
 20
13.0456137093
 30
0.0
 10
15.9404538676
 20
13.0634909341
 30
0.0
 10
15.8900001201
 20
13.0835704999
 30
0.0
 10
15.8563875249
 20
13.0970039988
 30
0.0
 10
15.8423479755
 20
13.1025317294
 30
0.0
 10
15.8311963356
 20
13.1071161473
 30
0.0
 10
15.8197521385
 20
13.1111072799
 30
0.0
 10
15.7995887081
 20
13.1178159524
 30
0.0
 10
15.7708559612
 20
13.1275448164
 30
0.0
 10
15.7363413804
 20
13.1391536538
 30
0.0
 10
15.7018524917
 20
13.1507936148
 30
0.0
 10
15.6730555144
 20
13.1604446698
 30
0.0
 10
15.6530044872
 20
13.1672895081
 30
0.0
 10
15.6413804451
 20
13.1710627755
 30
0.0
 10
15.6291301075
 20
13.17431629
 30
0.0
 10
15.6140316525
 20
13.1785610969
 30
0.0
 10
15.5897541266
 20
13.1852536459
 30
0.0
 10
15.5594493363
 20
13.193651243
 30
0.0
 10
15.5230614225
 20
13.2037239002
 30
0.0
 10
15.49275589
 20
13.2120900976
 30
0.0
 10
15.4715144836
 20
13.2180065223
 30
0.0
 10
15.4594184189
 20
13.2212926361
 30
0.0
 10
15.4502285916
 20
13.2240241548
 30
0.0
 10
15.4414889387
 20
13.2257352905
 30
0.0
 10
15.4296790339
 20
13.2283727138
 30
0.0
 10
15.4090849491
 20
13.2328225007
 30
0.0
 10
15.3796258606
 20
13.239264999
 30
0.0
 10
15.3442945727
 20
13.2469635809
 30
0.0
 10
15.3148383949
 20
13.2533729065
 30
0.0
 10
15.2912958943
 20
13.2585313573
 30
0.0
 10
15.2765324463
 20
13.2616809928
 30
0.0
 10
15.2648346019
 20
13.2643715047
 30
0.0
 10
15.2527246098
 20
13.2664383197
 30
0.0
 10
15.2313406747
 20
13.2697652971
 30
0.0
 10
15.2008920266
 20
13.2746709313
 30
0.0
 10
15.1643120597
 20
13.2804869477
 30
0.0
 10
15.1277387204
 20
13.286341448
 30
0.0
 10
15.0972735032
 20
13.2911508722
 30
0.0
 10
15.075918564
 20
13.2946462172
 30
0.0
 10
15.0637621785
 20
13.296443644
 30
0.0
 10
15.0517808927
 20
13.2974883768
 30
0.0
 10
15.0367443314
 20
13.2990520143
 30
0.0
 10
15.0127193391
 20
13.3014098045
 30
0.0
 10
14.9826766215
 20
13.3044063793
 30
0.0
 10
14.9346147166
 20
13.3091732011
 30
0.0
 10
14.8985668382
 20
13.3127545495
 30
0.0
 10
14.8745352414
 20
13.3151407302
 30
0.0
  0
SPLINE
  5
3D2
100
AcDbEntity
  8
03__ASM_ALL_CURVES
100
AcDbSpline
 62
8
  6
PHANTOM
 70
0
 71
3
 72
34
 73
30
 74
0
 42
0.0000001
 43
0.0000001
 44
0.0000000001
 40
0.0
 40
0.0
 40
0.0
 40
0.0
 40
0.0625
 40
0.125
 40
0.15625
 40
0.171875
 40
0.1875
 40
0.21875
 40
0.25
 40
0.3125
 40
0.375
 40
0.4375
 40
0.5
 40
0.5625
 40
0.625
 40
0.65625
 40
0.671875
 40
0.6875
 40
0.71875
 40
0.75
 40
0.78125
 40
0.8125
 40
0.828125
 40
0.8359375
 40
0.84375
 40
0.859375
 40
0.875
 40
0.9375
 40
1.0
 40
1.0
 40
1.0
 40
1.0
 10
14.8682943411
 20
13.3155621746
 30
0.0
 10
14.8640405577
 20
13.315821364
 30
0.0
 10
14.8555484315
 20
13.316339971
 30
0.0
 10
14.8448560713
 20
13.3169870888
 30
0.0
 10
14.8375132785
 20
13.3174421679
 30
0.0
 10
14.8330973702
 20
13.3176989611
 30
0.0
 10
14.8278532248
 20
13.3179432076
 30
0.0
 10
14.8215812212
 20
13.3182538453
 30
0.0
 10
14.8113901496
 20
13.31874185
 30
0.0
 10
14.7986875915
 20
13.3193981545
 30
0.0
 10
14.7835041696
 20
13.31997701
 30
0.0
 10
14.7683583768
 20
13.3204747696
 30
0.0
 10
14.7531695557
 20
13.3210846941
 30
0.0
 10
14.7381152183
 20
13.3213270548
 30
0.0
 10
14.7256086007
 20
13.32160728
 30
0.0
 10
14.7167139382
 20
13.3217999051
 30
0.0
 10
14.7118597266
 20
13.3218925549
 30
0.0
 10
14.707868508
 20
13.3219133942
 30
0.0
 10
14.7025844444
 20
13.3219641367
 30
0.0
 10
14.6963652718
 20
13.322014215
 30
0.0
 10
14.690131349
 20
13.3220680345
 30
0.0
 10
14.684884161
 20
13.3221094243
 30
0.0
 10
14.6813273124
 20
13.3221440259
 30
0.0
 10
14.6791113323
 20
13.3221551868
 30
0.0
 10
14.6762037583
 20
13.3221339654
 30
0.0
 10
14.6728056857
 20
13.3221185073
 30
0.0
 10
14.6644557025
 20
13.3220722957
 30
0.0
 10
14.6520131226
 20
13.3220068363
 30
0.0
 10
14.6409195705
 20
13.3219470824
 30
0.0
 10
14.6353769796
 20
13.3219174015
 30
0.0
  0
SPLINE
  5
3D3
100
AcDbEntity
  8
03__ASM_ALL_CURVES
100
AcDbSpline
 62
8
  6
PHANTOM
 70
0
 71
3
 72
9
 73
5
 74
0
 42
0.0000001
 43
0.0000001
 44
0.0000000001
 40
0.0
 40
0.0
 40
0.0
 40
0.0
 40
0.5
 40
1.0
 40
1.0
 40
1.0
 40
1.0
 10
14.6328711049
 20
13.3218828681
 30
0.0
 10
14.5935183731
 20
13.3210394536
 30
0.0
 10
14.5150725143
 20
13.318788295
 30
0.0
 10
14.4393841413
 20
13.312054538
 30
0.0
 10
14.4017542598
 20
13.30841042
 30
0.0
  0
LINE
  5
3D4
100
AcDbEntity
  8
03__ASM_ALL_CURVES
100
AcDbLine
 62
8
  6
PHANTOM
 10
14.4017542713
 20
13.3084104212
 11
14.3876790608
 21
13.3068931652
  0
SPLINE
  5
3D5
100
AcDbEntity
  8
03__ASM_ALL_CURVES
100
AcDbSpline
 62
8
  6
PHANTOM
 70
0
 71
3
 72
51
 73
47
 74
0
 42
0.0000001
 43
0.0000001
 44
0.0000000001
 40
0.0
 40
0.0
 40
0.0
 40
0.0
 40
0.0625
 40
0.09375
 40
0.125
 40
0.140625
 40
0.15625
 40
0.1640625
 40
0.171875
 40
0.1875
 40
0.21875
 40
0.25
 40
0.28125
 40
0.3125
 40
0.328125
 40
0.3359375
 40
0.34375
 40
0.359375
 40
0.375
 40
0.4375
 40
0.46875
 40
0.484375
 40
0.4921875
 40
0.5
 40
0.5078125
 40
0.515625
 40
0.53125
 40
0.5625
 40
0.625
 40
0.640625
 40
0.65625
 40
0.6640625
 40
0.671875
 40
0.6875
 40
0.71875
 40
0.75
 40
0.78125
 40
0.8125
 40
0.828125
 40
0.8359375
 40
0.84375
 40
0.859375
 40
0.875
 40
0.90625
 40
0.9375
 40
1.0
 40
1.0
 40
1.0
 40
1.0
 10
14.3876790602
 20
13.3068931652
 30
0.0
 10
14.3687189896
 20
13.304141222
 30
0.0
 10
14.3402802845
 20
13.3000116708
 30
0.0
 10
14.3023564073
 20
13.2945121481
 30
0.0
 10
14.2786656585
 20
13.2910613099
 30
0.0
 10
14.2596864419
 20
13.2883317307
 30
0.0
 10
14.247885138
 20
13.2865548335
 30
0.0
 10
14.2383050538
 20
13.2852957273
 30
0.0
 10
14.2292325688
 20
13.2834437031
 30
0.0
 10
14.213591683
 20
13.2799270568
 30
0.0
 10
14.1911232608
 20
13.2750483073
 30
0.0
 10
14.1642184485
 20
13.2691276113
 30
0.0
 10
14.1372833385
 20
13.2632396525
 30
0.0
 10
14.1148906606
 20
13.2582790599
 30
0.0
 10
14.0991172224
 20
13.254905639
 30
0.0
 10
14.0902568212
 20
13.2528244541
 30
0.0
 10
14.0819723787
 20
13.2501653822
 30
0.0
 10
14.0714198157
 20
13.2470391955
 30
0.0
 10
14.0462570826
 20
13.239372537
 30
0.0
 10
14.0168327739
 20
13.2304944621
 30
0.0
 10
13.9874688345
 20
13.2215606412
 30
0.0
 10
13.972736983
 20
13.2171375337
 30
0.0
 10
13.9643956696
 20
13.2145429167
 30
0.0
 10
13.9579232743
 20
13.2127858198
 30
0.0
 10
13.9522780761
 20
13.210306823
 30
0.0
 10
13.9444625909
 20
13.2072533126
 30
0.0
 10
13.9309201218
 20
13.2017922239
 30
0.0
 10
13.9037345338
 20
13.1909573427
 30
0.0
 10
13.8766143246
 20
13.1800684668
 30
0.0
 10
13.8533002264
 20
13.1707884932
 30
0.0
 10
13.8436685603
 20
13.1668586349
 30
0.0
 10
13.8357719484
 20
13.1638610997
 30
0.0
 10
13.8285744191
 20
13.1603287207
 30
0.0
 10
13.8163037131
 20
13.1538984001
 30
0.0
 10
13.7986032564
 20
13.1448432388
 30
0.0
 10
13.7774401274
 20
13.1339165524
 30
0.0
 10
13.7562407248
 20
13.1230222196
 30
0.0
 10
13.7386309522
 20
13.113886174
 30
0.0
 10
13.726201549
 20
13.1075974009
 30
0.0
 10
13.7192579352
 20
13.103838546
 30
0.0
 10
13.7129125104
 20
13.0994574404
 30
0.0
 10
13.7047759103
 20
13.0941941162
 30
0.0
 10
13.6918718149
 20
13.0856537285
 30
0.0
 10
13.675702486
 20
13.0750190307
 30
0.0
 10
13.6498535721
 20
13.0579806164
 30
0.0
 10
13.6304619339
 20
13.0452069577
 30
0.0
 10
13.6175352758
 20
13.0366900403
 30
0.0
  0
SPLINE
  5
3D6
100
AcDbEntity
  8
03__ASM_ALL_CURVES
100
AcDbSpline
 62
8
  6
PHANTOM
 70
0
 71
3
 72
39
 73
35
 74
0
 42
0.0000001
 43
0.0000001
 44
0.0000000001
 40
0.0
 40
0.0
 40
0.0
 40
0.0
 40
0.0625
 40
0.125
 40
0.15625
 40
0.171875
 40
0.1875
 40
0.21875
 40
0.25
 40
0.28125
 40
0.3125
 40
0.328125
 40
0.34375
 40
0.375
 40
0.4375
 40
0.46875
 40
0.484375
 40
0.5
 40
0.515625
 40
0.53125
 40
0.5625
 40
0.625
 40
0.65625
 40
0.671875
 40
0.6875
 40
0.71875
 40
0.75
 40
0.78125
 40
0.8125
 40
0.828125
 40
0.84375
 40
0.875
 40
0.9375
 40
1.0
 40
1.0
 40
1.0
 40
1.0
 10
13.6175352819
 20
13.0366900448
 30
0.0
 10
13.6111863874
 20
13.031616433
 30
0.0
 10
13.5984863367
 20
13.0214818771
 30
0.0
 10
13.5826225817
 20
13.0087503439
 30
0.0
 10
13.5714971741
 20
12.9999546547
 30
0.0
 10
13.5651720271
 20
12.9947480325
 30
0.0
 10
13.5589688788
 20
12.9888617264
 30
0.0
 10
13.5511709081
 20
12.9817368512
 30
0.0
 10
13.5418417145
 20
12.9730880917
 30
0.0
 10
13.5324694926
 20
12.9644621572
 30
0.0
 10
13.5247790928
 20
12.9572802193
 30
0.0
 10
13.5183608027
 20
12.9515080386
 30
0.0
 10
13.5129105657
 20
12.9458373067
 30
0.0
 10
13.50382215
 20
12.9359645143
 30
0.0
 10
13.4932481543
 20
12.9246385411
 30
0.0
 10
13.4840379007
 20
12.9147896287
 30
0.0
 10
13.4787965288
 20
12.9090779597
 30
0.0
 10
13.4747886116
 20
12.9050278468
 30
0.0
 10
13.4710774324
 20
12.9000850381
 30
0.0
 10
13.4660266198
 20
12.893806216
 30
0.0
 10
13.4572261387
 20
12.8826710221
 30
0.0
 10
13.4472125719
 20
12.8700200687
 30
0.0
 10
13.4382964294
 20
12.8589009108
 30
0.0
 10
13.4334438935
 20
12.8525945984
 30
0.0
 10
13.4295051399
 20
12.8464585492
 30
0.0
 10
13.4242676631
 20
12.8387321985
 30
0.0
 10
13.4181193846
 20
12.8294753707
 30
0.0
 10
13.4119267871
 20
12.8202494334
 30
0.0
 10
13.4068001076
 20
12.8124458566
 30
0.0
 10
13.4026397593
 20
12.8064642597
 30
0.0
 10
13.3986883752
 20
12.7995298412
 30
0.0
 10
13.3918702851
 20
12.7869517529
 30
0.0
 10
13.3820791921
 20
12.7692161374
 30
0.0
 10
13.3742618496
 20
12.7549566104
 30
0.0
 10
13.3703512369
 20
12.7478357262
 30
0.0
  0
LINE
  5
3D7
100
AcDbEntity
  8
03__ASM_ALL_CURVES
100
AcDbLine
 62
8
  6
PHANTOM
 10
13.3703512398
 20
12.7478357321
 11
13.3676914332
 21
12.7423493212
  0
SPLINE
  5
3D8
100
AcDbEntity
  8
03__ASM_ALL_CURVES
100
AcDbSpline
 62
8
  6
PHANTOM
 70
0
 71
3
 72
61
 73
57
 74
0
 42
0.0000001
 43
0.0000001
 44
0.0000000001
 40
0.0
 40
0.0
 40
0.0
 40
0.0
 40
0.0625
 40
0.09375
 40
0.125
 40
0.140625
 40
0.15625
 40
0.1640625
 40
0.16796875
 40
0.171875
 40
0.1796875
 40
0.1875
 40
0.21875
 40
0.25
 40
0.28125
 40
0.3125
 40
0.3203125
 40
0.328125
 40
0.33203125
 40
0.3359375
 40
0.34375
 40
0.359375
 40
0.375
 40
0.4375
 40
0.46875
 40
0.484375
 40
0.4921875
 40
0.5
 40
0.5078125
 40
0.515625
 40
0.53125
 40
0.546875
 40
0.5625
 40
0.59375
 40
0.625
 40
0.640625
 40
0.65625
 40
0.6640625
 40
0.66796875
 40
0.671875
 40
0.6796875
 40
0.6875
 40
0.71875
 40
0.75
 40
0.78125
 40
0.8125
 40
0.8203125
 40
0.828125
 40
0.83203125
 40
0.8359375
 40
0.84375
 40
0.859375
 40
0.875
 40
0.90625
 40
0.9375
 40
1.0
 40
1.0
 40
1.0
 40
1.0
 10
13.3676914332
 20
12.7423493213
 30
0.0
 10
13.3627156798
 20
12.7293417809
 30
0.0
 10
13.3552530912
 20
12.7098298924
 30
0.0
 10
13.3452988071
 20
12.6838163523
 30
0.0
 10
13.3390860586
 20
12.6675530748
 30
0.0
 10
13.3340960716
 20
12.6545534308
 30
0.0
 10
13.3310224607
 20
12.6464036157
 30
0.0
 10
13.3287804867
 20
12.6407489228
 30
0.0
 10
13.3276408703
 20
12.6374391621
 30
0.0
 10
13.3270342574
 20
12.6338337034
 30
0.0
 10
13.3260938041
 20
12.629427952
 30
0.0
 10
13.3239867033
 20
12.6187709521
 30
0.0
 10
13.3207624896
 20
12.602820534
 30
0.0
 10
13.3165025637
 20
12.5815326005
 30
0.0
 10
13.3122221353
 20
12.5602526634
 30
0.0
 10
13.309044052
 20
12.5442842534
 30
0.0
 10
13.3068780069
 20
12.5336502431
 30
0.0
 10
13.3060454047
 20
12.5292024275
 30
0.0
 10
13.3052162553
 20
12.5256837626
 30
0.0
 10
13.3049834431
 20
12.5220203293
 30
0.0
 10
13.3048530914
 20
12.5155420678
 30
0.0
 10
13.3045223292
 20
12.50632243
 30
0.0
 10
13.303849533
 20
12.484166536
 30
0.0
 10
13.3030016424
 20
12.4583266974
 30
0.0
 10
13.3022367331
 20
12.4324859134
 30
0.0
 10
13.3017675834
 20
12.4195617168
 30
0.0
 10
13.3016362635
 20
12.4121831188
 30
0.0
 10
13.3011522466
 20
12.4066302858
 30
0.0
 10
13.302141955
 20
12.4011496622
 30
0.0
 10
13.3029467724
 20
12.3938169412
 30
0.0
 10
13.3041294339
 20
12.3846596881
 30
0.0
 10
13.305472948
 20
12.3736673074
 30
0.0
 10
13.3072910936
 20
12.3590119609
 30
0.0
 10
13.3095520238
 20
12.3406932617
 30
0.0
 10
13.3118264694
 20
12.3223711754
 30
0.0
 10
13.3136229903
 20
12.3077212484
 30
0.0
 10
13.3147966471
 20
12.2985473826
 30
0.0
 10
13.3155165003
 20
12.2921610718
 30
0.0
 10
13.3160869497
 20
12.2884563722
 30
0.0
 10
13.3172566603
 20
12.2845430874
 30
0.0
 10
13.3185139641
 20
12.279722777
 30
0.0
 10
13.3217001198
 20
12.2680953494
 30
0.0
 10
13.3264079701
 20
12.2506789002
 30
0.0
 10
13.3327285611
 20
12.2274426412
 30
0.0
 10
13.3390276074
 20
12.2042110126
 30
0.0
 10
13.3437839332
 20
12.186784145
 30
0.0
 10
13.346908148
 20
12.1751700298
 30
0.0
 10
13.3482787856
 20
12.1703253616
 30
0.0
 10
13.3492146472
 20
12.1664623358
 30
0.0
 10
13.3507379974
 20
12.1625528375
 30
0.0
 10
13.3536768206
 20
12.1556896234
 30
0.0
 10
13.3577327223
 20
12.1458962976
 30
0.0
 10
13.364301756
 20
12.1302206802
 30
0.0
 10
13.3724857843
 20
12.1106283152
 30
0.0
 10
13.3855955357
 20
12.0792793205
 30
0.0
 10
13.3954244054
 20
12.0557678468
 30
0.0
 10
13.4019777504
 20
12.0400934705
 30
0.0
  0
SPLINE
  5
3D9
100
AcDbEntity
  8
03__ASM_ALL_CURVES
100
AcDbSpline
 62
8
  6
PHANTOM
 70
0
 71
3
 72
63
 73
59
 74
0
 42
0.0000001
 43
0.0000001
 44
0.0000000001
 40
0.0
 40
0.0
 40
0.0
 40
0.0
 40
0.0625
 40
0.09375
 40
0.125
 40
0.140625
 40
0.15625
 40
0.1640625
 40
0.16796875
 40
0.171875
 40
0.1796875
 40
0.1875
 40
0.21875
 40
0.25
 40
0.28125
 40
0.296875
 40
0.3125
 40
0.3203125
 40
0.328125
 40
0.33203125
 40
0.3359375
 40
0.34375
 40
0.359375
 40
0.375
 40
0.40625
 40
0.4375
 40
0.453125
 40
0.46875
 40
0.484375
 40
0.4921875
 40
0.5
 40
0.5078125
 40
0.515625
 40
0.53125
 40
0.5625
 40
0.59375
 40
0.625
 40
0.640625
 40
0.65625
 40
0.6640625
 40
0.66796875
 40
0.671875
 40
0.6796875
 40
0.6875
 40
0.71875
 40
0.75
 40
0.78125
 40
0.8125
 40
0.8203125
 40
0.828125
 40
0.83203125
 40
0.8359375
 40
0.84375
 40
0.859375
 40
0.875
 40
0.90625
 40
0.9375
 40
1.0
 40
1.0
 40
1.0
 40
1.0
 10
13.401977742
 20
12.0400934878
 30
0.0
 10
13.4122239372
 20
12.0222296082
 30
0.0
 10
13.4275946152
 20
11.9954338978
 30
0.0
 10
13.4480833115
 20
11.9597058483
 30
0.0
 10
13.4609002907
 20
11.937376725
 30
0.0
 10
13.4711275537
 20
11.919511357
 30
0.0
 10
13.4775796221
 20
11.9083502215
 30
0.0
 10
13.4819757666
 20
11.9005279683
 30
0.0
 10
13.4846760747
 20
11.8960729079
 30
0.0
 10
13.4880853319
 20
11.8916735858
 30
0.0
 10
13.4921045832
 20
11.8861553815
 30
0.0
 10
13.5019502127
 20
11.872927372
 30
0.0
 10
13.5166351039
 20
11.8530787644
 30
0.0
 10
13.5362617224
 20
11.8266177579
 30
0.0
 10
13.5526098979
 20
11.804565962
 30
0.0
 10
13.5656826722
 20
11.7869249207
 30
0.0
 10
13.5738712415
 20
11.7758987598
 30
0.0
 10
13.5803801337
 20
11.7670789564
 30
0.0
 10
13.5845440566
 20
11.761564021
 30
0.0
 10
13.587655609
 20
11.7571579312
 30
0.0
 10
13.5915688132
 20
11.7527304539
 30
0.0
 10
13.598789325
 20
11.7449724345
 30
0.0
 10
13.6089100187
 20
11.7338947224
 30
0.0
 10
13.6252118502
 20
11.7161675529
 30
0.0
 10
13.6455510208
 20
11.6940091262
 30
0.0
 10
13.6659067647
 20
11.6718520966
 30
0.0
 10
13.6821820788
 20
11.6541226917
 30
0.0
 10
13.6944064635
 20
11.6408361434
 30
0.0
 10
13.704537654
 20
11.6297305773
 30
0.0
 10
13.712767569
 20
11.6209211338
 30
0.0
 10
13.7185985955
 20
11.6141090886
 30
0.0
 10
13.72573278
 20
11.608079389
 30
0.0
 10
13.7347904798
 20
11.5997668998
 30
0.0
 10
13.7508531375
 20
11.5853471766
 30
0.0
 10
13.7736899133
 20
11.5646811972
 30
0.0
 10
13.8011376118
 20
11.5399100316
 30
0.0
 10
13.8240119727
 20
11.5192625277
 30
0.0
 10
13.8422866086
 20
11.5027421979
 30
0.0
 10
13.8537697485
 20
11.4924252414
 30
0.0
 10
13.8616842489
 20
11.4851865567
 30
0.0
 10
13.8664004257
 20
11.4810765165
 30
0.0
 10
13.8718458337
 20
11.4770657396
 30
0.0
 10
13.8784033355
 20
11.4720183377
 30
0.0
 10
13.8943465242
 20
11.4599325187
 30
0.0
 10
13.9181746407
 20
11.4417917751
 30
0.0
 10
13.9499973158
 20
11.4176123062
 30
0.0
 10
13.981797467
 20
11.3934257128
 30
0.0
 10
14.0056762625
 20
11.3753009994
 30
0.0
 10
14.0215546946
 20
11.3631946974
 30
0.0
 10
14.0282306822
 20
11.3581847734
 30
0.0
 10
14.0334316107
 20
11.3540966657
 30
0.0
 10
14.0391440061
 20
11.3503017375
 30
0.0
 10
14.0493783369
 20
11.3437968311
 30
0.0
 10
14.0638748212
 20
11.3344330359
 30
0.0
 10
14.087138488
 20
11.3194906827
 30
0.0
 10
14.1161943357
 20
11.3007991355
 30
0.0
 10
14.1626970173
 20
11.2709002982
 30
0.0
 10
14.1975710304
 20
11.2484744516
 30
0.0
 10
14.2208210386
 20
11.2335242691
 30
0.0
  0
SPLINE
  5
3DA
100
AcDbEntity
  8
03__ASM_ALL_CURVES
100
AcDbSpline
 62
8
  6
PHANTOM
 70
0
 71
3
 72
32
 73
28
 74
0
 42
0.0000001
 43
0.0000001
 44
0.0000000001
 40
0.0
 40
0.0
 40
0.0
 40
0.0
 40
0.0625
 40
0.125
 40
0.140625
 40
0.15625
 40
0.171875
 40
0.1875
 40
0.21875
 40
0.25
 40
0.3125
 40
0.34375
 40
0.375
 40
0.4375
 40
0.46875
 40
0.5
 40
0.53125
 40
0.5625
 40
0.625
 40
0.65625
 40
0.6875
 40
0.75
 40
0.8125
 40
0.84375
 40
0.875
 40
0.9375
 40
1.0
 40
1.0
 40
1.0
 40
1.0
 10
14.2208210832
 20
11.2335242427
 30
0.0
 10
14.2312662763
 20
11.2275593349
 30
0.0
 10
14.2521615454
 20
11.2156288699
 30
0.0
 10
14.2756467504
 20
11.2022100186
 30
0.0
 10
14.2913355972
 20
11.1932598568
 30
0.0
 10
14.2991232579
 20
11.1887923238
 30
0.0
 10
14.3071315608
 20
11.1842954512
 30
0.0
 10
14.3188596578
 20
11.1781605238
 30
0.0
 10
14.3331583554
 20
11.1705377756
 30
0.0
 10
14.3562486639
 20
11.1583257426
 30
0.0
 10
14.3792211737
 20
11.146060609
 30
0.0
 10
14.4023877852
 20
11.1339665041
 30
0.0
 10
14.4261754851
 20
11.1224968208
 30
0.0
 10
14.4497638437
 20
11.1108227854
 30
0.0
 10
14.4734844098
 20
11.0992934899
 30
0.0
 10
14.4910775532
 20
11.0904166508
 30
0.0
 10
14.5093937177
 20
11.082386912
 30
0.0
 10
14.533554354
 20
11.0713731317
 30
0.0
 10
14.557834446
 20
11.0605099218
 30
0.0
 10
14.5819518582
 20
11.0494255974
 30
0.0
 10
14.6065607154
 20
11.0390249701
 30
0.0
 10
14.6375066561
 20
11.0262777599
 30
0.0
 10
14.6683212658
 20
11.013363269
 30
0.0
 10
14.6931402527
 20
11.0032302909
 30
0.0
 10
14.7185191784
 20
10.9937520459
 30
0.0
 10
14.7500494356
 20
10.9816780983
 30
0.0
 10
14.7753325823
 20
10.9720878595
 30
0.0
 10
14.787966788
 20
10.9672841252
 30
0.0
  0
SPLINE
  5
3DB
100
AcDbEntity
  8
03__ASM_ALL_CURVES
100
AcDbSpline
 62
8
  6
PHANTOM
 70
0
 71
3
 72
90
 73
86
 74
0
 42
0.0000001
 43
0.0000001
 44
0.0000000001
 40
0.0
 40
0.0
 40
0.0
 40
0.0
 40
0.0625
 40
0.09375
 40
0.109375
 40
0.125
 40
0.140625
 40
0.15625
 40
0.16015625
 40
0.1640625
 40
0.166015625
 40
0.16796875
 40
0.171875
 40
0.1796875
 40
0.1875
 40
0.203125
 40
0.21875
 40
0.25
 40
0.28125
 40
0.296875
 40
0.3125
 40
0.3203125
 40
0.328125
 40
0.33203125
 40
0.333984375
 40
0.3359375
 40
0.33984375
 40
0.34375
 40
0.359375
 40
0.375
 40
0.390625
 40
0.40625
 40
0.421875
 40
0.4375
 40
0.453125
 40
0.46875
 40
0.4765625
 40
0.484375
 40
0.4921875
 40
0.49609375
 40
0.498046875
 40
0.5
 40
0.501953125
 40
0.50390625
 40
0.5078125
 40
0.515625
 40
0.5234375
 40
0.53125
 40
0.546875
 40
0.5625
 40
0.578125
 40
0.59375
 40
0.609375
 40
0.625
 40
0.640625
 40
0.6484375
 40
0.65625
 40
0.66015625
 40
0.6640625
 40
0.666015625
 40
0.66796875
 40
0.671875
 40
0.6796875
 40
0.6875
 40
0.703125
 40
0.71875
 40
0.75
 40
0.78125
 40
0.796875
 40
0.8125
 40
0.8203125
 40
0.828125
 40
0.830078125
 40
0.83203125
 40
0.833984375
 40
0.8359375
 40
0.83984375
 40
0.84375
 40
0.8515625
 40
0.859375
 40
0.875
 40
0.890625
 40
0.90625
 40
0.9375
 40
1.0
 40
1.0
 40
1.0
 40
1.0
 10
14.7879667951
 20
10.9672841227
 30
0.0
 10
14.8352771051
 20
10.9530047725
 30
0.0
 10
14.9062425438
 20
10.9315855169
 30
0.0
 10
14.9890356475
 20
10.9065971919
 30
0.0
 10
15.0363458612
 20
10.8923169968
 30
0.0
 10
15.071828889
 20
10.8816100767
 30
0.0
 10
15.1073105125
 20
10.870890828
 30
0.0
 10
15.1339256675
 20
10.8628859576
 30
0.0
 10
15.1516629806
 20
10.8574956198
 30
0.0
 10
15.1590626399
 20
10.8553296399
 30
0.0
 10
15.1649611105
 20
10.8534102457
 30
0.0
 10
15.1709373188
 20
10.8521732971
 30
0.0
 10
15.1814318021
 20
10.8503257174
 30
0.0
 10
15.1964050761
 20
10.847520881
 30
0.0
 10
15.2203728459
 20
10.8431255986
 30
0.0
 10
15.2503289529
 20
10.8375998242
 30
0.0
 10
15.2982607349
 20
10.8287763701
 30
0.0
 10
15.3581748024
 20
10.8177403506
 30
0.0
 10
15.4180889963
 20
10.8067089078
 30
0.0
 10
15.466020576
 20
10.7978781309
 30
0.0
 10
15.4959771888
 20
10.7923706637
 30
0.0
 10
15.5199439216
 20
10.7879378514
 30
0.0
 10
15.5349198356
 20
10.7852285559
 30
0.0
 10
15.5454095772
 20
10.7832093745
 30
0.0
 10
15.5513933861
 20
10.7822474921
 30
0.0
 10
15.5573382903
 20
10.7820085329
 30
0.0
 10
15.5647827184
 20
10.7814627357
 30
0.0
 10
15.582638401
 20
10.7803561958
 30
0.0
 10
15.6094265219
 20
10.7786109657
 30
0.0
 10
15.645141389
 20
10.7763328199
 30
0.0
 10
15.6808569587
 20
10.7740415931
 30
0.0
 10
15.7165723456
 20
10.7717538627
 30
0.0
 10
15.7522877612
 20
10.7694652278
 30
0.0
 10
15.7880032447
 20
10.7671767145
 30
0.0
 10
15.8237184276
 20
10.7648886194
 30
0.0
 10
15.8534820257
 20
10.762980378
 30
0.0
 10
15.8772907849
 20
10.761457165
 30
0.0
 10
15.8951531446
 20
10.760305512
 30
0.0
 10
15.9100200263
 20
10.7593752037
 30
0.0
 10
15.9204629883
 20
10.7586662866
 30
0.0
 10
15.926373958
 20
10.7583512869
 30
0.0
 10
15.9309661695
 20
10.7578612357
 30
0.0
 10
15.9349506628
 20
10.7583413424
 30
0.0
 10
15.9404752993
 20
10.7586430827
 30
0.0
 10
15.9500446484
 20
10.7593287961
 30
0.0
 10
15.9637667826
 20
10.7602259561
 30
0.0
 10
15.9802112418
 20
10.7613378312
 30
0.0
 10
16.002144908
 20
10.7628080063
 30
0.0
 10
16.0295593406
 20
10.7646499556
 30
0.0
 10
16.0624577997
 20
10.7668584761
 30
0.0
 10
16.0953559389
 20
10.7690675026
 30
0.0
 10
16.128254218
 20
10.7712763239
 30
0.0
 10
16.1611522573
 20
10.7734854599
 30
0.0
 10
16.1940511158
 20
10.7756935421
 30
0.0
 10
16.2214643002
 20
10.7775368612
 30
0.0
 10
16.2434005128
 20
10.7790042421
 30
0.0
 10
16.2570977485
 20
10.7799379157
 30
0.0
 10
16.2680850739
 20
10.7806469278
 30
0.0
 10
16.2748847586
 20
10.7811765969
 30
0.0
 10
16.2804788671
 20
10.7814021263
 30
0.0
 10
16.2855094479
 20
10.7823512501
 30
0.0
 10
16.2940511819
 20
10.7843483572
 30
0.0
 10
16.3063902438
 20
10.7870259863
 30
0.0
 10
16.3260564133
 20
10.7914082036
 30
0.0
 10
16.3506652577
 20
10.7968524192
 30
0.0
 10
16.3900248201
 20
10.8055819008
 30
0.0
 10
16.4392291577
 20
10.8164874518
 30
0.0
 10
16.4884321923
 20
10.8273947864
 30
0.0
 10
16.5277938397
 20
10.8361214141
 30
0.0
 10
16.5523974715
 20
10.8415727646
 30
0.0
 10
16.5720743266
 20
10.8459403552
 30
0.0
 10
16.583155
 20
10.8483837334
 30
0.0
 10
16.5905223237
 20
10.8500339542
 30
0.0
 10
16.5942414218
 20
10.8508209245
 30
0.0
 10
16.5978227333
 20
10.8517561946
 30
0.0
 10
16.6019421972
 20
10.8537088624
 30
0.0
 10
16.6073160094
 20
10.855908087
 30
0.0
 10
16.6157886579
 20
10.8595618694
 30
0.0
 10
16.6264224231
 20
10.8640828654
 30
0.0
 10
16.64341244
 20
10.8713422981
 30
0.0
 10
16.6646581978
 20
10.8804077237
 30
0.0
 10
16.690149582
 20
10.8912900287
 30
0.0
 10
16.7241393242
 20
10.9057984449
 30
0.0
 10
16.7836207965
 20
10.9311887938
 30
0.0
 10
16.8346051132
 20
10.9529517373
 30
0.0
 10
16.8685946138
 20
10.9674604135
 30
0.0
  0
LINE
  5
3DC
100
AcDbEntity
  8
03__ASM_ALL_CURVES
100
AcDbLine
 62
8
  6
PHANTOM
 10
16.8685946535
 20
10.9674604359
 11
16.8749057825
 21
10.9710463517
  0
SPLINE
  5
3DD
100
AcDbEntity
  8
03__ASM_ALL_CURVES
100
AcDbSpline
 62
8
  6
PHANTOM
 70
0
 71
3
 72
40
 73
36
 74
0
 42
0.0000001
 43
0.0000001
 44
0.0000000001
 40
0.0
 40
0.0
 40
0.0
 40
0.0
 40
0.0625
 40
0.125
 40
0.15625
 40
0.171875
 40
0.1875
 40
0.21875
 40
0.25
 40
0.28125
 40
0.3125
 40
0.328125
 40
0.34375
 40
0.359375
 40
0.375
 40
0.4375
 40
0.46875
 40
0.484375
 40
0.5
 40
0.515625
 40
0.53125
 40
0.5625
 40
0.625
 40
0.65625
 40
0.671875
 40
0.6875
 40
0.71875
 40
0.75
 40
0.78125
 40
0.8125
 40
0.828125
 40
0.84375
 40
0.875
 40
0.9375
 40
1.0
 40
1.0
 40
1.0
 40
1.0
 10
16.8749057827
 20
10.9710463519
 30
0.0
 10
16.8822228977
 20
10.9755272782
 30
0.0
 10
16.8968574619
 20
10.9844767758
 30
0.0
 10
16.9151489953
 20
10.9957254227
 30
0.0
 10
16.9279561408
 20
11.0034859643
 30
0.0
 10
16.9352697447
 20
11.0080966178
 30
0.0
 10
16.9425647571
 20
11.01337022
 30
0.0
 10
16.951692111
 20
11.0197348089
 30
0.0
 10
16.9626315989
 20
11.027469479
 30
0.0
 10
16.9736106921
 20
11.0351793579
 30
0.0
 10
16.9826390328
 20
11.0416059245
 30
0.0
 10
16.9901320714
 20
11.0467555715
 30
0.0
 10
16.9950132945
 20
11.0505916248
 30
0.0
 10
16.9996875428
 20
11.0544205011
 30
0.0
 10
17.0091429352
 20
11.0620803262
 30
0.0
 10
17.0201344601
 20
11.0710344734
 30
0.0
 10
17.03115175
 20
11.0799337535
 30
0.0
 10
17.037430444
 20
11.0851009878
 30
0.0
 10
17.0421828038
 20
11.0887462956
 30
0.0
 10
17.0467702564
 20
11.0932711093
 30
0.0
 10
17.0529433918
 20
11.0989972729
 30
0.0
 10
17.0637299688
 20
11.1091624618
 30
0.0
 10
17.0760004146
 20
11.1207103953
 30
0.0
 10
17.0869032754
 20
11.130852676
 30
0.0
 10
17.0928770671
 20
11.1366181109
 30
0.0
 10
17.0978856273
 20
11.1422783206
 30
0.0
 10
17.1044777044
 20
11.1493876151
 30
0.0
 10
17.112245435
 20
11.1579132506
 30
0.0
 10
17.1200540101
 20
11.1664065061
 30
0.0
 10
17.1265439761
 20
11.1735967507
 30
0.0
 10
17.1317567585
 20
11.1790950604
 30
0.0
 10
17.1369000463
 20
11.1855188886
 30
0.0
 10
17.1458687992
 20
11.1971907354
 30
0.0
 10
17.1586981459
 20
11.213638409
 30
0.0
 10
17.1689564903
 20
11.2268655439
 30
0.0
 10
17.1740863041
 20
11.2334704868
 30
0.0
  0
SPLINE
  5
3DE
100
AcDbEntity
  8
03__ASM_ALL_CURVES
100
AcDbSpline
 62
8
  6
PHANTOM
 70
0
 71
3
 72
69
 73
65
 74
0
 42
0.0000001
 43
0.0000001
 44
0.0000000001
 40
0.0
 40
0.0
 40
0.0
 40
0.0
 40
0.0625
 40
0.09375
 40
0.125
 40
0.140625
 40
0.15625
 40
0.1640625
 40
0.16796875
 40
0.171875
 40
0.1796875
 40
0.1875
 40
0.203125
 40
0.21875
 40
0.25
 40
0.28125
 40
0.296875
 40
0.3125
 40
0.3203125
 40
0.328125
 40
0.33203125
 40
0.3359375
 40
0.34375
 40
0.359375
 40
0.375
 40
0.40625
 40
0.4375
 40
0.453125
 40
0.46875
 40
0.484375
 40
0.4921875
 40
0.49609375
 40
0.5
 40
0.50390625
 40
0.5078125
 40
0.515625
 40
0.53125
 40
0.546875
 40
0.5625
 40
0.59375
 40
0.625
 40
0.640625
 40
0.65625
 40
0.6640625
 40
0.66796875
 40
0.671875
 40
0.6796875
 40
0.6875
 40
0.703125
 40
0.71875
 40
0.75
 40
0.78125
 40
0.796875
 40
0.8125
 40
0.8203125
 40
0.828125
 40
0.83203125
 40
0.8359375
 40
0.84375
 40
0.859375
 40
0.875
 40
0.90625
 40
0.9375
 40
1.0
 40
1.0
 40
1.0
 40
1.0
 10
17.1740863
 20
11.2334704811
 30
0.0
 10
17.1824672685
 20
11.2479840609
 30
0.0
 10
17.1950372434
 20
11.2697549569
 30
0.0
 10
17.2118031216
 20
11.2987807134
 30
0.0
 10
17.2222694793
 20
11.3169261962
 30
0.0
 10
17.2306706464
 20
11.3314325847
 30
0.0
 10
17.2358573317
 20
11.3405218793
 30
0.0
 10
17.2396163613
 20
11.3468386888
 30
0.0
 10
17.2415635631
 20
11.3505197909
 30
0.0
 10
17.2427542649
 20
11.354470232
 30
0.0
 10
17.2445016668
 20
11.359316062
 30
0.0
 10
17.2471527518
 20
11.3671209289
 30
0.0
 10
17.250516195
 20
11.3768593557
 30
0.0
 10
17.255869864
 20
11.3924507645
 30
0.0
 10
17.2625724034
 20
11.4119362085
 30
0.0
 10
17.2692679303
 20
11.4314245131
 30
0.0
 10
17.2746328193
 20
11.4470113449
 30
0.0
 10
17.2779682124
 20
11.4567612141
 30
0.0
 10
17.2806768001
 20
11.4645426241
 30
0.0
 10
17.2822778158
 20
11.4694481691
 30
0.0
 10
17.2837690038
 20
11.4732760334
 30
0.0
 10
17.2844921713
 20
11.4774564534
 30
0.0
 10
17.2854009373
 20
11.4849359656
 30
0.0
 10
17.2868853165
 20
11.4955355311
 30
0.0
 10
17.2891563346
 20
11.5125425974
 30
0.0
 10
17.2920304531
 20
11.5337850267
 30
0.0
 10
17.2948931742
 20
11.5550333683
 30
0.0
 10
17.2971824281
 20
11.5720309749
 30
0.0
 10
17.2989089762
 20
11.5847788327
 30
0.0
 10
17.3003161251
 20
11.5954036491
 30
0.0
 10
17.3013633724
 20
11.6028378091
 30
0.0
 10
17.3018645894
 20
11.6070909255
 30
0.0
 10
17.3025143484
 20
11.6102666053
 30
0.0
 10
17.3021173274
 20
11.6134964026
 30
0.0
 10
17.3019530945
 20
11.6177839223
 30
0.0
 10
17.3014955695
 20
11.6252958759
 30
0.0
 10
17.3009308794
 20
11.6360226474
 30
0.0
 10
17.3002152889
 20
11.6488967082
 30
0.0
 10
17.2992739445
 20
11.6660615964
 30
0.0
 10
17.2980963483
 20
11.6875168157
 30
0.0
 10
17.2969064445
 20
11.7089762565
 30
0.0
 10
17.2959847922
 20
11.7261343902
 30
0.0
 10
17.2953392365
 20
11.7368796605
 30
0.0
 10
17.2950267242
 20
11.7443583928
 30
0.0
 10
17.2946300712
 20
11.7486991635
 30
0.0
 10
17.2934118977
 20
11.7532931217
 30
0.0
 10
17.2921704684
 20
11.7589488784
 30
0.0
 10
17.2900269817
 20
11.7680465363
 30
0.0
 10
17.2874014714
 20
11.7794020187
 30
0.0
 10
17.2831704266
 20
11.7975800722
 30
0.0
 10
17.2778929414
 20
11.8202993869
 30
0.0
 10
17.2726079583
 20
11.8430201079
 30
0.0
 10
17.2683889103
 20
11.8611959112
 30
0.0
 10
17.2657334079
 20
11.872557019
 30
0.0
 10
17.263651405
 20
11.8816431449
 30
0.0
 10
17.2622534544
 20
11.887328259
 30
0.0
 10
17.2613565713
 20
11.8918619555
 30
0.0
 10
17.2596511376
 20
11.8964482026
 30
0.0
 10
17.2562910226
 20
11.904498547
 30
0.0
 10
17.2516868309
 20
11.915986302
 30
0.0
 10
17.2442106032
 20
11.9343738283
 30
0.0
 10
17.2349028349
 20
11.9573557978
 30
0.0
 10
17.2199893438
 20
11.9941283178
 30
0.0
 10
17.2088089643
 20
12.0217073998
 30
0.0
 10
17.2013543249
 20
12.040093523
 30
0.0
  0
SPLINE
  5
3DF
100
AcDbEntity
  8
03__ASM_ALL_CURVES
100
AcDbSpline
 62
7
  6
DOT
 70
0
 71
3
 72
16
 73
12
 74
0
 42
0.0000001
 43
0.0000001
 44
0.0000000001
 40
0.0
 40
0.0
 40
0.0
 40
0.0
 40
0.25
 40
0.375
 40
0.4375
 40
0.5
 40
0.5625
 40
0.625
 40
0.75
 40
0.875
 40
1.0
 40
1.0
 40
1.0
 40
1.0
 10
14.6047410735
 20
11.1335327011
 30
0.0
 10
14.602856877
 20
11.137090949
 30
0.0
 10
14.5999734429
 20
11.1424323448
 30
0.0
 10
14.5960981545
 20
11.148624288
 30
0.0
 10
14.5936068684
 20
11.1521680718
 30
0.0
 10
14.5919198333
 20
11.1547622192
 30
0.0
 10
14.5896454984
 20
11.1576083632
 30
0.0
 10
14.5868273719
 20
11.1613615629
 30
0.0
 10
14.5831655627
 20
11.1657355134
 30
0.0
 10
14.5786381371
 20
11.1709286664
 30
0.0
 10
14.5752205796
 20
11.17449612
 30
0.0
 10
14.5735617101
 20
11.1762666779
 30
0.0
  0
SPLINE
  5
3E0
100
AcDbEntity
  8
03__ASM_ALL_CURVES
100
AcDbSpline
 62
7
  6
DOT
 70
0
 71
3
 72
11
 73
7
 74
0
 42
0.0000001
 43
0.0000001
 44
0.0000000001
 40
0.0
 40
0.0
 40
0.0
 40
0.0
 40
0.5
 40
0.75
 40
0.875
 40
1.0
 40
1.0
 40
1.0
 40
1.0
 10
14.5735617096
 20
11.1762666785
 30
0.0
 10
14.5666990565
 20
11.1829640345
 30
0.0
 10
14.5560057325
 20
11.1929567589
 30
0.0
 10
14.5414526673
 20
11.2036873419
 30
0.0
 10
14.5327347658
 20
11.2097470498
 30
0.0
 10
14.5278909317
 20
11.2128668847
 30
0.0
 10
14.525529625
 20
11.2144155546
 30
0.0
  0
SPLINE
  5
3E1
100
AcDbEntity
  8
03__ASM_ALL_CURVES
100
AcDbSpline
 62
7
  6
DOT
 70
0
 71
3
 72
13
 73
9
 74
0
 42
0.0000001
 43
0.0000001
 44
0.0000000001
 40
0.0
 40
0.0
 40
0.0
 40
0.0
 40
0.125
 40
0.25
 40
0.5
 40
0.75
 40
0.875
 40
1.0
 40
1.0
 40
1.0
 40
1.0
 10
14.5255296238
 20
11.2144155554
 30
0.0
 10
14.5233744373
 20
11.2157263054
 30
0.0
 10
14.5191854879
 20
11.21832512
 30
0.0
 10
14.5098362008
 20
11.2237042327
 30
0.0
 10
14.497651761
 20
11.2303319597
 30
0.0
 10
14.4849551947
 20
11.2362282492
 30
0.0
 10
14.4744880478
 20
11.2407918581
 30
0.0
 10
14.4688393215
 20
11.2430505991
 30
0.0
 10
14.4660668525
 20
11.2441828525
 30
0.0
  0
SPLINE
  5
3E2
100
AcDbEntity
  8
03__ASM_ALL_CURVES
100
AcDbSpline
 62
7
  6
DOT
 70
0
 71
3
 72
11
 73
7
 74
0
 42
0.0000001
 43
0.0000001
 44
0.0000000001
 40
0.0
 40
0.0
 40
0.0
 40
0.0
 40
0.125
 40
0.25
 40
0.5
 40
1.0
 40
1.0
 40
1.0
 40
1.0
 10
14.4660668521
 20
11.2441828526
 30
0.0
 10
14.4635721763
 20
11.2451150228
 30
0.0
 10
14.4586977684
 20
11.2469806594
 30
0.0
 10
14.4480294024
 20
11.2507015624
 30
0.0
 10
14.4288610048
 20
11.2569204341
 30
0.0
 10
14.4121944608
 20
11.2607006981
 30
0.0
 10
14.4009461414
 20
11.2630731082
 30
0.0
  0
SPLINE
  5
3E3
100
AcDbEntity
  8
03__ASM_ALL_CURVES
100
AcDbSpline
 62
7
  6
DOT
 70
0
 71
3
 72
12
 73
8
 74
0
 42
0.0000001
 43
0.0000001
 44
0.0000000001
 40
0.0
 40
0.0
 40
0.0
 40
0.0
 40
0.125
 40
0.25
 40
0.5
 40
0.75
 40
1.0
 40
1.0
 40
1.0
 40
1.0
 10
14.4009461421
 20
11.2630731081
 30
0.0
 10
14.3983549649
 20
11.2635393191
 30
0.0
 10
14.3932687443
 20
11.2644965827
 30
0.0
 10
14.3823272322
 20
11.2662123766
 30
0.0
 10
14.3684016744
 20
11.2680482324
 30
0.0
 10
14.3523104939
 20
11.269198618
 30
0.0
 10
14.3411483778
 20
11.2694219146
 30
0.0
 10
14.335487571
 20
11.2695080549
 30
0.0
  0
SPLINE
  5
3E4
100
AcDbEntity
  8
03__ASM_ALL_CURVES
100
AcDbSpline
 62
7
  6
DOT
 70
0
 71
3
 72
10
 73
6
 74
0
 42
0.0000001
 43
0.0000001
 44
0.0000000001
 40
0.0
 40
0.0
 40
0.0
 40
0.0
 40
0.25
 40
0.5
 40
1.0
 40
1.0
 40
1.0
 40
1.0
 10
14.3354875692
 20
11.2695080549
 30
0.0
 10
14.3306153616
 20
11.269409671
 30
0.0
 10
14.32070945
 20
11.2691620109
 30
0.0
 10
14.300229461
 20
11.2675786641
 30
0.0
 10
14.2863572968
 20
11.2648168026
 30
0.0
 10
14.2768917842
 20
11.2626953495
 30
0.0
  0
SPLINE
  5
3E5
100
AcDbEntity
  8
03__ASM_ALL_CURVES
100
AcDbSpline
 62
7
  6
DOT
 70
0
 71
3
 72
10
 73
6
 74
0
 42
0.0000001
 43
0.0000001
 44
0.0000000001
 40
0.0
 40
0.0
 40
0.0
 40
0.0
 40
0.25
 40
0.5
 40
1.0
 40
1.0
 40
1.0
 40
1.0
 10
14.2768917825
 20
11.2626953491
 30
0.0
 10
14.2728021471
 20
11.2615800311
 30
0.0
 10
14.2645114155
 20
11.2592622517
 30
0.0
 10
14.247912706
 20
11.2533418379
 30
0.0
 10
14.2375241782
 20
11.2475520606
 30
0.0
 10
14.230632686
 20
11.243401987
 30
0.0
  0
SPLINE
  5
3E6
100
AcDbEntity
  8
03__ASM_ALL_CURVES
100
AcDbSpline
 62
7
  6
DOT
 70
0
 71
3
 72
9
 73
5
 74
0
 42
0.0000001
 43
0.0000001
 44
0.0000000001
 40
0.0
 40
0.0
 40
0.0
 40
0.0
 40
0.5
 40
1.0
 40
1.0
 40
1.0
 40
1.0
 10
14.2306326864
 20
11.2434019873
 30
0.0
 10
14.2256132186
 20
11.2399507138
 30
0.0
 10
14.2150463956
 20
11.2322456228
 30
0.0
 10
14.2075653049
 20
11.2229221403
 30
0.0
 10
14.2039108915
 20
11.2179946252
 30
0.0
  0
LINE
  5
3E7
100
AcDbEntity
  8
03__ASM_ALL_CURVES
100
AcDbLine
 62
7
  6
DOT
 10
14.2039108913
 20
11.217994625
 11
14.2012033341
 21
11.2137442247
  0
SPLINE
  5
3E8
100
AcDbEntity
  8
03__ASM_ALL_CURVES
100
AcDbSpline
 62
7
  6
DOT
 70
0
 71
3
 72
9
 73
5
 74
0
 42
0.0000001
 43
0.0000001
 44
0.0000000001
 40
0.0
 40
0.0
 40
0.0
 40
0.0
 40
0.5
 40
1.0
 40
1.0
 40
1.0
 40
1.0
 10
14.2012033341
 20
11.2137442247
 30
0.0
 10
14.198270768
 20
11.2082847885
 30
0.0
 10
14.1928805529
 20
11.1971460745
 30
0.0
 10
14.1914874695
 20
11.1847987241
 30
0.0
 10
14.1910394705
 20
11.1782510595
 30
0.0
  0
SPLINE
  5
3E9
100
AcDbEntity
  8
03__ASM_ALL_CURVES
100
AcDbSpline
 62
7
  6
DOT
 70
0
 71
3
 72
13
 73
9
 74
0
 42
0.0000001
 43
0.0000001
 44
0.0000000001
 40
0.0
 40
0.0
 40
0.0
 40
0.0
 40
0.125
 40
0.25
 40
0.5
 40
0.75
 40
0.875
 40
1.0
 40
1.0
 40
1.0
 40
1.0
 10
14.1910394705
 20
11.1782510605
 30
0.0
 10
14.1910697296
 20
11.1765555767
 30
0.0
 10
14.1910494528
 20
11.1732404658
 30
0.0
 10
14.1916552595
 20
11.1660033895
 30
0.0
 10
14.1930368151
 20
11.1566924384
 30
0.0
 10
14.1960303549
 20
11.1473058402
 30
0.0
 10
14.1989631736
 20
11.1396488182
 30
0.0
 10
14.2008762017
 20
11.1355487798
 30
0.0
 10
14.2017768885
 20
11.1335327015
 30
0.0
  0
SPLINE
  5
3EA
100
AcDbEntity
  8
03__ASM_ALL_CURVES
100
AcDbSpline
 62
7
  6
DOT
 70
0
 71
3
 72
84
 73
80
 74
0
 42
0.0000001
 43
0.0000001
 44
0.0000000001
 40
0.0
 40
0.0
 40
0.0
 40
0.0
 40
0.03125
 40
0.046875
 40
0.0625
 40
0.0703125
 40
0.078125
 40
0.09375
 40
0.109375
 40
0.125
 40
0.1328125
 40
0.140625
 40
0.15625
 40
0.171875
 40
0.1875
 40
0.21875
 40
0.234375
 40
0.25
 40
0.265625
 40
0.28125
 40
0.28515625
 40
0.2890625
 40
0.296875
 40
0.3125
 40
0.34375
 40
0.359375
 40
0.3671875
 40
0.375
 40
0.40625
 40
0.421875
 40
0.4296875
 40
0.4375
 40
0.453125
 40
0.46875
 40
0.484375
 40
0.4921875
 40
0.5
 40
0.5078125
 40
0.515625
 40
0.53125
 40
0.546875
 40
0.5625
 40
0.5703125
 40
0.578125
 40
0.59375
 40
0.609375
 40
0.625
 40
0.6328125
 40
0.640625
 40
0.65625
 40
0.671875
 40
0.6875
 40
0.703125
 40
0.7109375
 40
0.71484375
 40
0.71875
 40
0.7265625
 40
0.734375
 40
0.75
 40
0.765625
 40
0.7734375
 40
0.78125
 40
0.78515625
 40
0.7890625
 40
0.796875
 40
0.8125
 40
0.828125
 40
0.84375
 40
0.859375
 40
0.8671875
 40
0.875
 40
0.890625
 40
0.90625
 40
0.921875
 40
0.9296875
 40
0.9375
 40
0.953125
 40
0.96875
 40
1.0
 40
1.0
 40
1.0
 40
1.0
 10
14.2017768886
 20
11.1335327011
 30
0.0
 10
14.2042800108
 20
11.129613155
 30
0.0
 10
14.2080556851
 20
11.1237368971
 30
0.0
 10
14.2130059528
 20
11.1158896413
 30
0.0
 10
14.2162747968
 20
11.1110106175
 30
0.0
 10
14.2184910392
 20
11.1070492331
 30
0.0
 10
14.222162671
 20
11.1033001014
 30
0.0
 10
14.2265626342
 20
11.0985858247
 30
0.0
 10
14.2319331139
 20
11.092942895
 30
0.0
 10
14.2363595364
 20
11.0882302617
 30
0.0
 10
14.2399729577
 20
11.0844775145
 30
0.0
 10
14.2433364274
 20
11.0806634833
 30
0.0
 10
14.249325048
 20
11.0763338746
 30
0.0
 10
14.2560811881
 20
11.0710261308
 30
0.0
 10
14.2653016456
 20
11.0640351208
 30
0.0
 10
14.2741088883
 20
11.0567526471
 30
0.0
 10
14.2848560547
 20
11.0509304183
 30
0.0
 10
14.292666766
 20
11.0463765162
 30
0.0
 10
14.3005061694
 20
11.0418414137
 30
0.0
 10
14.3064868935
 20
11.0385241109
 30
0.0
 10
14.3102964573
 20
11.0361666607
 30
0.0
 10
14.313264763
 20
11.0349467898
 30
0.0
 10
14.3183875932
 20
11.0327545984
 30
0.0
 10
14.3286783286
 20
11.0283904547
 30
0.0
 10
14.3404578775
 20
11.0235265594
 30
0.0
 10
14.3506707982
 20
11.0189257059
 30
0.0
 10
14.3567899168
 20
11.0172808536
 30
0.0
 10
14.3658961369
 20
11.0145620984
 30
0.0
 10
14.3765395081
 20
11.0114535111
 30
0.0
 10
14.3871879366
 20
11.0083750845
 30
0.0
 10
14.3932507476
 20
11.0065208781
 30
0.0
 10
14.3995437376
 20
11.0056508865
 30
0.0
 10
14.4073320872
 20
11.0042225966
 30
0.0
 10
14.4167067
 20
11.0026681686
 30
0.0
 10
14.4245274169
 20
11.0012954797
 30
0.0
 10
14.4307491988
 20
11.0003031661
 30
0.0
 10
14.4355147863
 20
10.9992878176
 30
0.0
 10
14.4399007655
 20
10.9993040033
 30
0.0
 10
14.4458820164
 20
10.9989639952
 30
0.0
 10
14.4533080111
 20
10.9986720671
 30
0.0
 10
14.4622620174
 20
10.9982253431
 30
0.0
 10
14.4696484059
 20
10.997996998
 30
0.0
 10
14.4757167905
 20
10.9975171074
 30
0.0
 10
14.4812083067
 20
10.9981109347
 30
0.0
 10
14.4881482336
 20
10.9987131395
 30
0.0
 10
14.496438645
 20
10.9995030944
 30
0.0
 10
14.5033716151
 20
11.0001237986
 30
0.0
 10
14.5088784363
 20
11.000676927
 30
0.0
 10
14.5145240417
 20
11.0010338687
 30
0.0
 10
14.5205896111
 20
11.0028807393
 30
0.0
 10
14.5281022494
 20
11.0047675983
 30
0.0
 10
14.5355459063
 20
11.0067475008
 30
0.0
 10
14.5417839294
 20
11.008361763
 30
0.0
 10
14.5461072759
 20
11.0095259187
 30
0.0
 10
14.5486414435
 20
11.0101432666
 30
0.0
 10
14.5505401334
 20
11.0112367159
 30
0.0
 10
14.5531311798
 20
11.0124404411
 30
0.0
 10
14.5571546319
 20
11.0144579519
 30
0.0
 10
14.5622298777
 20
11.0169455571
 30
0.0
 10
14.5672741781
 20
11.0194558573
 30
0.0
 10
14.5713471429
 20
11.021437056
 30
0.0
 10
14.5738144073
 20
11.0227315613
 30
0.0
 10
14.5759668505
 20
11.0236389113
 30
0.0
 10
14.5774674376
 20
11.0250142734
 30
0.0
 10
14.580208274
 20
11.027339021
 30
0.0
 10
14.5840562632
 20
11.0307061024
 30
0.0
 10
14.588735388
 20
11.0347134756
 30
0.0
 10
14.5932763483
 20
11.0387797252
 30
0.0
 10
14.5974697486
 20
11.0419996156
 30
0.0
 10
14.5991531628
 20
11.0452623841
 30
0.0
 10
14.6011292026
 20
11.0484049064
 30
0.0
 10
14.6034936922
 20
11.052376336
 30
0.0
 10
14.6063988303
 20
11.0571146927
 30
0.0
 10
14.6087346901
 20
11.0610968169
 30
0.0
 10
14.6107737155
 20
11.064215811
 30
0.0
 10
14.611178925
 20
11.0679742393
 30
0.0
 10
14.6122450973
 20
11.0724532377
 30
0.0
 10
14.6136367777
 20
11.0797426033
 30
0.0
 10
14.614751232
 20
11.0851819597
 30
0.0
 10
14.6154784918
 20
11.0888143456
 30
0.0
  0
LINE
  5
3EB
100
AcDbEntity
  8
03__ASM_ALL_CURVES
100
AcDbLine
 62
7
  6
DOT
 10
14.6154784917
 20
11.0888143417
 11
14.615501436
 21
11.0913227026
  0
SPLINE
  5
3EC
100
AcDbEntity
  8
03__ASM_ALL_CURVES
100
AcDbSpline
 62
7
  6
DOT
 70
0
 71
3
 72
9
 73
5
 74
0
 42
0.0000001
 43
0.0000001
 44
0.0000000001
 40
0.0
 40
0.0
 40
0.0
 40
0.0
 40
0.5
 40
1.0
 40
1.0
 40
1.0
 40
1.0
 10
14.615501436
 20
11.0913227026
 30
0.0
 10
14.6151641165
 20
11.0981454879
 30
0.0
 10
14.6138971536
 20
11.1119454608
 30
0.0
 10
14.6080397458
 20
11.1262158852
 30
0.0
 10
14.6047410726
 20
11.1335327031
 30
0.0
  0
SPLINE
  5
3ED
100
AcDbEntity
  8
0
100
AcDbSpline
 62
7
  6
CONTINUOUS
 70
0
 71
3
 72
11
 73
7
 74
0
 42
0.0000001
 43
0.0000001
 44
0.0000000001
 40
0.0
 40
0.0
 40
0.0
 40
0.0
 40
0.2395853459
 40
0.4835741603
 40
0.7360282803
 40
1.0
 40
1.0
 40
1.0
 40
1.0
 10
15.0485288199
 20
12.4307361175
 30
0.0
 10
15.0466030196
 20
12.4346606439
 30
0.0
 10
15.0419068425
 20
12.4422132141
 30
0.0
 10
15.0326314478
 20
12.4520385783
 30
0.0
 10
15.0213319994
 20
12.4602159476
 30
0.0
 10
15.0128170198
 20
12.4643680034
 30
0.0
 10
15.0083365347
 20
12.4661355545
 30
0.0
  0
SPLINE
  5
3EE
100
AcDbEntity
  8
0
100
AcDbSpline
 62
7
  6
CONTINUOUS
 70
0
 71
3
 72
9
 73
5
 74
0
 42
0.0000001
 43
0.0000001
 44
0.0000000001
 40
0.0
 40
0.0
 40
0.0
 40
0.0
 40
0.4856148794
 40
1.0
 40
1.0
 40
1.0
 40
1.0
 10
15.0083365347
 20
12.4661355545
 30
0.0
 10
15.0019218691
 20
12.4686661396
 30
0.0
 10
14.9881141642
 20
12.4724178513
 30
0.0
 10
14.9738847836
 20
12.4735889558
 30
0.0
 10
14.9665804621
 20
12.4735889558
 30
0.0
  0
SPLINE
  5
3EF
100
AcDbEntity
  8
0
100
AcDbSpline
 62
7
  6
CONTINUOUS
 70
0
 71
3
 72
11
 73
7
 74
0
 42
0.0000001
 43
0.0000001
 44
0.0000000001
 40
0.0
 40
0.0
 40
0.0
 40
0.0
 40
0.2710367522
 40
0.5252683686
 40
0.7663113103
 40
1.0
 40
1.0
 40
1.0
 40
1.0
 10
16.4015551955
 20
12.9466542744
 30
0.0
 10
16.4042029743
 20
12.9412586686
 30
0.0
 10
16.4085904838
 20
12.9304080823
 30
0.0
 10
16.4122457518
 20
12.9137202679
 30
0.0
 10
16.4126164176
 20
12.897451474
 30
0.0
 10
16.4106002574
 20
12.8870203205
 30
0.0
 10
16.4090701011
 20
12.8820693145
 30
0.0
  0
SPLINE
  5
3F0
100
AcDbEntity
  8
0
100
AcDbSpline
 62
7
  6
CONTINUOUS
 70
0
 71
3
 72
11
 73
7
 74
0
 42
0.0000001
 43
0.0000001
 44
0.0000000001
 40
0.0
 40
0.0
 40
0.0
 40
0.0
 40
0.2710367522
 40
0.5252683686
 40
0.7663113103
 40
1.0
 40
1.0
 40
1.0
 40
1.0
 10
17.2913060319
 20
11.1335327011
 30
0.0
 10
17.2939538106
 20
11.1281370953
 30
0.0
 10
17.2983413201
 20
11.117286509
 30
0.0
 10
17.3019965881
 20
11.1005986947
 30
0.0
 10
17.302367254
 20
11.0843299007
 30
0.0
 10
17.3003510937
 20
11.0738987473
 30
0.0
 10
17.2988209374
 20
11.0689477413
 30
0.0
  0
SPLINE
  5
3F1
100
AcDbEntity
  8
0
100
AcDbSpline
 62
7
  6
CONTINUOUS
 70
0
 71
3
 72
11
 73
7
 74
0
 42
0.0000001
 43
0.0000001
 44
0.0000000001
 40
0.0
 40
0.0
 40
0.0
 40
0.0
 40
0.2710367522
 40
0.5252683686
 40
0.7663113103
 40
1.0
 40
1.0
 40
1.0
 40
1.0
 10
14.6047410735
 20
11.1335327011
 30
0.0
 10
14.6073888523
 20
11.1281370953
 30
0.0
 10
14.6117763618
 20
11.117286509
 30
0.0
 10
14.6154316298
 20
11.1005986947
 30
0.0
 10
14.6158022956
 20
11.0843299007
 30
0.0
 10
14.6137861354
 20
11.0738987473
 30
0.0
 10
14.6122559791
 20
11.0689477413
 30
0.0
  0
SPLINE
  5
3F2
100
AcDbEntity
  8
0
100
AcDbSpline
 62
7
  6
CONTINUOUS
 70
0
 71
3
 72
11
 73
7
 74
0
 42
0.0000001
 43
0.0000001
 44
0.0000000001
 40
0.0
 40
0.0
 40
0.0
 40
0.0
 40
0.2710367522
 40
0.5252683686
 40
0.7663113103
 40
1.0
 40
1.0
 40
1.0
 40
1.0
 10
13.7149902372
 20
12.9466542744
 30
0.0
 10
13.717638016
 20
12.9412586686
 30
0.0
 10
13.7220255255
 20
12.9304080823
 30
0.0
 10
13.7256807935
 20
12.9137202679
 30
0.0
 10
13.7260514593
 20
12.897451474
 30
0.0
 10
13.7240352991
 20
12.8870203205
 30
0.0
 10
13.7225051428
 20
12.8820693145
 30
0.0
  0
SPLINE
  5
3F3
100
AcDbEntity
  8
0
100
AcDbSpline
 62
7
  6
CONTINUOUS
 70
0
 71
3
 72
14
 73
10
 74
0
 42
0.0000001
 43
0.0000001
 44
0.0000000001
 40
0.0
 40
0.0
 40
0.0
 40
0.0
 40
0.2711789493
 40
0.4002275211
 40
0.5253379289
 40
0.6470825956
 40
0.7662124616
 40
0.883555368
 40
1.0
 40
1.0
 40
1.0
 40
1.0
 10
16.3364091706
 20
12.0400934878
 30
0.0
 10
16.3500272414
 20
12.0123427773
 30
0.0
 10
16.3672471109
 20
11.9698171829
 30
0.0
 10
16.3824154813
 20
11.9118239034
 30
0.0
 10
16.389463754
 20
11.8694906707
 30
0.0
 10
16.3923106763
 20
11.8278014273
 30
0.0
 10
16.3909628165
 20
11.7869165117
 30
0.0
 10
16.3854236259
 20
11.7469970503
 30
0.0
 10
16.3789252528
 20
11.7210882416
 30
0.0
 10
16.3750034111
 20
11.7084071725
 30
0.0
  0
SPLINE
  5
3F4
100
AcDbEntity
  8
0
100
AcDbSpline
 62
7
  6
CONTINUOUS
 70
0
 71
3
 72
14
 73
10
 74
0
 42
0.0000001
 43
0.0000001
 44
0.0000000001
 40
0.0
 40
0.0
 40
0.0
 40
0.0
 40
0.118105682
 40
0.2369146624
 40
0.3571311469
 40
0.4794198313
 40
0.6043989155
 40
0.7326106223
 40
1.0
 40
1.0
 40
1.0
 40
1.0
 10
14.3601086756
 20
12.4597763584
 30
0.0
 10
14.3569680317
 20
12.4496215815
 30
0.0
 10
14.3516350135
 20
12.4289379411
 30
0.0
 10
14.3465902926
 20
12.3971493688
 30
0.0
 10
14.3444907879
 20
12.3646531212
 30
0.0
 10
14.3453407595
 20
12.3315483887
 30
0.0
 10
14.3491436011
 20
12.2979270039
 30
0.0
 10
14.3582677436
 20
12.2519322227
 30
0.0
 10
14.3693449874
 20
12.2179134562
 30
0.0
 10
14.3783170361
 20
12.1955838482
 30
0.0
  0
SPLINE
  5
3F5
100
AcDbEntity
  8
0
100
AcDbSpline
 62
7
  6
CONTINUOUS
 70
0
 71
3
 72
11
 73
7
 74
0
 42
0.0000001
 43
0.0000001
 44
0.0000000001
 40
0.0
 40
0.0
 40
0.0
 40
0.0
 40
0.2428133603
 40
0.488572878
 40
0.7401166292
 40
1.0
 40
1.0
 40
1.0
 40
1.0
 10
14.39577612
 20
12.4058477318
 30
0.0
 10
14.391514387
 20
12.3920681351
 30
0.0
 10
14.3848221158
 20
12.3637200787
 30
0.0
 10
14.3805477217
 20
12.3198403734
 30
0.0
 10
14.3819993663
 20
12.2747688531
 30
0.0
 10
14.3867047214
 20
12.2446716147
 30
0.0
 10
14.3899376145
 20
12.2295763503
 30
0.0
  0
SPLINE
  5
3F6
100
AcDbEntity
  8
0
100
AcDbSpline
 62
7
  6
CONTINUOUS
 70
0
 71
3
 72
19
 73
15
 74
0
 42
0.0000001
 43
0.0000001
 44
0.0000000001
 40
0.0
 40
0.0
 40
0.0
 40
0.0
 40
0.0423109274
 40
0.0900174759
 40
0.1429272279
 40
0.2006817009
 40
0.2627693731
 40
0.3284836032
 40
0.4676406568
 40
0.6114034099
 40
0.752486047
 40
0.8840881078
 40
0.9443802376
 40
1.0
 40
1.0
 40
1.0
 40
1.0
 10
14.6649295948
 20
11.6985659303
 30
0.0
 10
14.6664642314
 20
11.7004017111
 30
0.0
 10
14.6694054312
 20
11.7045810136
 30
0.0
 10
14.673234916
 20
11.7117139632
 30
0.0
 10
14.6767074624
 20
11.7199820463
 30
0.0
 10
14.6797641376
 20
11.7292700056
 30
0.0
 10
14.6823556414
 20
11.7394458922
 30
0.0
 10
14.6852083455
 20
11.754278138
 30
0.0
 10
14.6873273736
 20
11.7739173552
 30
0.0
 10
14.6876377095
 20
11.7979272147
 30
0.0
 10
14.6857229603
 20
11.8214342792
 30
0.0
 10
14.6822872444
 20
11.8399959602
 30
0.0
 10
14.6784155187
 20
11.8534563161
 30
0.0
 10
14.6761539504
 20
11.8596176574
 30
0.0
 10
14.6749379381
 20
11.8625184635
 30
0.0
  0
SPLINE
  5
3F7
100
AcDbEntity
  8
0
100
AcDbSpline
 62
7
  6
CONTINUOUS
 70
0
 71
3
 72
28
 73
24
 74
0
 42
0.0000001
 43
0.0000001
 44
0.0000000001
 40
0.0
 40
0.0
 40
0.0
 40
0.0
 40
0.0622302139
 40
0.0933948294
 40
0.1245296946
 40
0.1556363675
 40
0.1867241479
 40
0.2178032409
 40
0.2488902474
 40
0.27999178
 40
0.3111040781
 40
0.3732879794
 40
0.435589754
 40
0.4980308396
 40
0.5606541377
 40
0.6234440709
 40
0.6549246906
 40
0.6864257251
 40
0.7493795218
 40
0.8122587839
 40
0.8750134438
 40
0.937658882
 40
1.0
 40
1.0
 40
1.0
 40
1.0
 10
14.6729823157
 20
13.465733251
 30
0.0
 10
14.6640719972
 20
13.465733251
 30
0.0
 10
14.6506489033
 20
13.4670889726
 30
0.0
 10
14.6333587867
 20
13.471530319
 30
0.0
 10
14.6207916536
 20
13.476181723
 30
0.0
 10
14.6087883915
 20
13.4821082058
 30
0.0
 10
14.5974657024
 20
13.4892353573
 30
0.0
 10
14.5869461852
 20
13.4974987238
 30
0.0
 10
14.5773521389
 20
13.506822833
 30
0.0
 10
14.5687699439
 20
13.5170925084
 30
0.0
 10
14.5587951777
 20
13.5318816067
 30
0.0
 10
14.5492947987
 20
13.552222357
 30
0.0
 10
14.5430227633
 20
13.5784230912
 30
0.0
 10
14.5420775428
 20
13.6054092091
 30
0.0
 10
14.546325487
 20
13.632132119
 30
0.0
 10
14.5540364318
 20
13.6533840881
 30
0.0
 10
14.5624654672
 20
13.6693227176
 30
0.0
 10
14.5723513136
 20
13.6844298842
 30
0.0
 10
14.587247783
 20
13.7015123597
 30
0.0
 10
14.6085351831
 20
13.718366995
 30
0.0
 10
14.6325436119
 20
13.7309837482
 30
0.0
 10
14.6584288313
 20
13.7387931823
 30
0.0
 10
14.6763698651
 20
13.7406022157
 30
0.0
 10
14.6852960632
 20
13.7406022157
 30
0.0
  0
SPLINE
  5
3F8
100
AcDbEntity
  8
0
100
AcDbSpline
 62
7
  6
CONTINUOUS
 70
0
 71
3
 72
28
 73
24
 74
0
 42
0.0000001
 43
0.0000001
 44
0.0000000001
 40
0.0
 40
0.0
 40
0.0
 40
0.0
 40
0.0622302139
 40
0.0933948294
 40
0.1245296946
 40
0.1556363675
 40
0.1867241479
 40
0.2178032409
 40
0.2488902474
 40
0.27999178
 40
0.3111040781
 40
0.3732879794
 40
0.435589754
 40
0.4980308396
 40
0.5606541377
 40
0.6234440709
 40
0.6549246906
 40
0.6864257251
 40
0.7493795218
 40
0.8122587839
 40
0.8750134438
 40
0.937658882
 40
1.0
 40
1.0
 40
1.0
 40
1.0
 10
14.6852960632
 20
13.7406022157
 30
0.0
 10
14.6942063817
 20
13.7406022157
 30
0.0
 10
14.7076294756
 20
13.7392464942
 30
0.0
 10
14.7249195921
 20
13.7348051477
 30
0.0
 10
14.7374867253
 20
13.7301537438
 30
0.0
 10
14.7494899873
 20
13.7242272609
 30
0.0
 10
14.7608126764
 20
13.7171001095
 30
0.0
 10
14.7713321937
 20
13.708836743
 30
0.0
 10
14.78092624
 20
13.6995126338
 30
0.0
 10
14.789508435
 20
13.6892429583
 30
0.0
 10
14.7994832011
 20
13.6744538601
 30
0.0
 10
14.8089835801
 20
13.6541131097
 30
0.0
 10
14.8152556156
 20
13.6279123756
 30
0.0
 10
14.816200836
 20
13.6009262577
 30
0.0
 10
14.8119528918
 20
13.5742033478
 30
0.0
 10
14.8042419471
 20
13.5529513787
 30
0.0
 10
14.7958129117
 20
13.5370127492
 30
0.0
 10
14.7859270653
 20
13.5219055826
 30
0.0
 10
14.7710305958
 20
13.5048231071
 30
0.0
 10
14.7497431958
 20
13.4879684717
 30
0.0
 10
14.7257347669
 20
13.4753517186
 30
0.0
 10
14.6998495475
 20
13.4675422845
 30
0.0
 10
14.6819085138
 20
13.465733251
 30
0.0
 10
14.6729823157
 20
13.465733251
 30
0.0
  0
SPLINE
  5
3F9
100
AcDbEntity
  8
0
100
AcDbSpline
 62
7
  6
CONTINUOUS
 70
0
 71
3
 72
11
 73
7
 74
0
 42
0.0000001
 43
0.0000001
 44
0.0000000001
 40
0.0
 40
0.0
 40
0.0
 40
0.0
 40
0.256963661
 40
0.5140795519
 40
0.7638832137
 40
1.0
 40
1.0
 40
1.0
 40
1.0
 10
14.610545544
 20
11.817549817
 30
0.0
 10
14.6092948736
 20
11.8099684703
 30
0.0
 10
14.6072102129
 20
11.7947286924
 30
0.0
 10
14.6054892196
 20
11.7719349026
 30
0.0
 10
14.605419189
 20
11.7496962702
 30
0.0
 10
14.6066404327
 20
11.7351877697
 30
0.0
 10
14.6076456125
 20
11.7281992451
 30
0.0
  0
SPLINE
  5
3FA
100
AcDbEntity
  8
0
100
AcDbSpline
 62
7
  6
CONTINUOUS
 70
0
 71
3
 72
9
 73
5
 74
0
 42
0.0000001
 43
0.0000001
 44
0.0000000001
 40
0.0
 40
0.0
 40
0.0
 40
0.0
 40
0.2609652754
 40
1.0
 40
1.0
 40
1.0
 40
1.0
 10
14.6076456125
 20
11.7281992451
 30
0.0
 10
14.6079240702
 20
11.7262632645
 30
0.0
 10
14.6091145728
 20
11.7188638423
 30
0.0
 10
14.6108083891
 20
11.7115390311
 30
0.0
 10
14.6124137137
 20
11.7062377855
 30
0.0
  0
SPLINE
  5
3FB
100
AcDbEntity
  8
0
100
AcDbSpline
 62
7
  6
CONTINUOUS
 70
0
 71
3
 72
9
 73
5
 74
0
 42
0.0000001
 43
0.0000001
 44
0.0000000001
 40
0.0
 40
0.0
 40
0.0
 40
0.0
 40
0.2620386686
 40
1.0
 40
1.0
 40
1.0
 40
1.0
 10
14.6124137137
 20
11.7062377855
 30
0.0
 10
14.6128203016
 20
11.7048951147
 30
0.0
 10
14.6144601523
 20
11.6997991271
 30
0.0
 10
14.6164672475
 20
11.6948150173
 30
0.0
 10
14.6182077612
 20
11.6912682233
 30
0.0
  0
SPLINE
  5
3FC
100
AcDbEntity
  8
0
100
AcDbSpline
 62
7
  6
CONTINUOUS
 70
0
 71
3
 72
14
 73
10
 74
0
 42
0.0000001
 43
0.0000001
 44
0.0000000001
 40
0.0
 40
0.0
 40
0.0
 40
0.0
 40
0.1164359116
 40
0.2337799401
 40
0.3529199549
 40
0.474687952
 40
0.5998285278
 40
0.7288829899
 40
1.0
 40
1.0
 40
1.0
 40
1.0
 10
14.2642632561
 20
11.8109349841
 30
0.0
 10
14.261039792
 20
11.8005114014
 30
0.0
 10
14.2557031885
 20
11.7792128001
 30
0.0
 10
14.2511482815
 20
11.7463978221
 30
0.0
 10
14.2500376247
 20
11.7127856447
 30
0.0
 10
14.2523805253
 20
11.6785095156
 30
0.0
 10
14.2581828681
 20
11.6437058592
 30
0.0
 10
14.2706500457
 20
11.5960356208
 30
0.0
 10
14.284800479
 20
11.5610815776
 30
0.0
 10
14.2959924757
 20
11.5382746863
 30
0.0
  0
SPLINE
  5
3FD
100
AcDbEntity
  8
0
100
AcDbSpline
 62
7
  6
CONTINUOUS
 70
0
 71
3
 72
34
 73
30
 74
0
 42
0.0000001
 43
0.0000001
 44
0.0000000001
 40
0.0
 40
0.0
 40
0.0
 40
0.0
 40
0.0214502404
 40
0.0432003429
 40
0.0655223558
 40
0.0886576177
 40
0.1128037702
 40
0.1381037035
 40
0.1924692854
 40
0.221653046
 40
0.2521332994
 40
0.283861341
 40
0.3167530772
 40
0.385580169
 40
0.4212890362
 40
0.457657659
 40
0.531724208
 40
0.5691077221
 40
0.6064891981
 40
0.6436989878
 40
0.6805683175
 40
0.752608848
 40
0.7874993247
 40
0.821438493
 40
0.8543085789
 40
0.8860200244
 40
0.9456456358
 40
0.973500319
 40
1.0
 40
1.0
 40
1.0
 40
1.0
 10
14.5494545588
 20
11.7228042224
 30
0.0
 10
14.5523711802
 20
11.7322420915
 30
0.0
 10
14.5596450167
 20
11.7508476242
 30
0.0
 10
14.5745767166
 20
11.7771764522
 30
0.0
 10
14.5934279679
 20
11.8018403741
 30
0.0
 10
14.6160698724
 20
11.8246450615
 30
0.0
 10
14.6423306116
 20
11.8454422531
 30
0.0
 10
14.6828538622
 20
11.8709499553
 30
0.0
 10
14.7291065219
 20
11.8911014422
 30
0.0
 10
14.7794087897
 20
11.9062658339
 30
0.0
 10
14.8205347891
 20
11.9154044754
 30
0.0
 10
14.863868583
 20
11.9219570862
 30
0.0
 10
14.9251230077
 20
11.9273040932
 30
0.0
 10
14.9885692164
 20
11.9271381877
 30
0.0
 10
15.0532663996
 20
11.9219025828
 30
0.0
 10
15.1200125112
 20
11.913076221
 30
0.0
 10
15.1867717995
 20
11.8991361985
 30
0.0
 10
15.2527301509
 20
11.8804352765
 30
0.0
 10
15.3016370696
 20
11.8640237827
 30
0.0
 10
15.349489502
 20
11.8453951339
 30
0.0
 10
15.4109702742
 20
11.8179978193
 30
0.0
 10
15.469441671
 20
11.7866149332
 30
0.0
 10
15.5239980005
 20
11.7514646056
 30
0.0
 10
15.5619148885
 20
11.7239287192
 30
0.0
 10
15.5970048417
 20
11.6951169307
 30
0.0
 10
15.6388497942
 20
11.6560877175
 30
0.0
 10
15.675201732
 20
11.6146293841
 30
0.0
 10
15.7047006619
 20
11.5711511475
 30
0.0
 10
15.716879205
 20
11.5492302706
 30
0.0
 10
15.7222554249
 20
11.5382746863
 30
0.0
  0
SPLINE
  5
3FE
100
AcDbEntity
  8
0
100
AcDbSpline
 62
7
  6
CONTINUOUS
 70
0
 71
3
 72
9
 73
5
 74
0
 42
0.0000001
 43
0.0000001
 44
0.0000000001
 40
0.0
 40
0.0
 40
0.0
 40
0.0
 40
0.4843528583
 40
1.0
 40
1.0
 40
1.0
 40
1.0
 10
13.5495804194
 20
12.3268019942
 30
0.0
 10
13.5560657441
 20
12.2774284389
 30
0.0
 10
13.579792642
 20
12.1766920847
 30
0.0
 10
13.6203936224
 20
12.0817206894
 30
0.0
 10
13.6446761282
 20
12.0345936003
 30
0.0
  0
SPLINE
  5
3FF
100
AcDbEntity
  8
0
100
AcDbSpline
 62
7
  6
CONTINUOUS
 70
0
 71
3
 72
12
 73
8
 74
0
 42
0.0000001
 43
0.0000001
 44
0.0000000001
 40
0.0
 40
0.0
 40
0.0
 40
0.0
 40
0.2291846203
 40
0.3490436599
 40
0.4724364001
 40
0.7296738913
 40
1.0
 40
1.0
 40
1.0
 40
1.0
 10
13.6446761282
 20
12.0345936003
 30
0.0
 10
13.66730385
 20
11.9906780889
 30
0.0
 10
13.7062860301
 20
11.9260384834
 30
0.0
 10
13.7660750584
 20
11.8435663347
 30
0.0
 10
13.8340335825
 20
11.7597114226
 30
0.0
 10
13.9306723749
 20
11.6576615901
 30
0.0
 10
14.0160989957
 20
11.58236091
 30
0.0
 10
14.0613236966
 20
11.5456159706
 30
0.0
  0
SPLINE
  5
400
100
AcDbEntity
  8
0
100
AcDbSpline
 62
7
  6
CONTINUOUS
 70
0
 71
3
 72
13
 73
9
 74
0
 42
0.0000001
 43
0.0000001
 44
0.0000000001
 40
0.0
 40
0.0
 40
0.0
 40
0.0
 40
0.1197957932
 40
0.2395889344
 40
0.3602836256
 40
0.4826539154
 40
0.7347576232
 40
1.0
 40
1.0
 40
1.0
 40
1.0
 10
13.1050416956
 20
13.1066646415
 30
0.0
 10
13.1029750298
 20
13.0999769085
 30
0.0
 10
13.0996707189
 20
13.0863294858
 30
0.0
 10
13.0972452297
 20
13.0653696641
 30
0.0
 10
13.0973121847
 20
13.0441180832
 30
0.0
 10
13.1007023162
 20
13.0153297456
 30
0.0
 10
13.1110860947
 20
12.9791405364
 30
0.0
 10
13.124709987
 20
12.9519727894
 30
0.0
 10
13.132700553
 20
12.9386931127
 30
0.0
  0
SPLINE
  5
401
100
AcDbEntity
  8
0
100
AcDbSpline
 62
7
  6
CONTINUOUS
 70
0
 71
3
 72
12
 73
8
 74
0
 42
0.0000001
 43
0.0000001
 44
0.0000000001
 40
0.0
 40
0.0
 40
0.0
 40
0.0
 40
0.2262483529
 40
0.3457584257
 40
0.4694431024
 40
0.7284890937
 40
1.0
 40
1.0
 40
1.0
 40
1.0
 10
13.132700553
 20
12.9386931127
 30
0.0
 10
13.1430357696
 20
12.9215168155
 30
0.0
 10
13.1614660333
 20
12.8967921086
 30
0.0
 10
13.1900305382
 20
12.8665344034
 30
0.0
 10
13.2228715675
 20
12.8364483639
 30
0.0
 10
13.2695230638
 20
12.8017699518
 30
0.0
 10
13.3103573347
 20
12.7782609426
 30
0.0
 10
13.3318137322
 20
12.7673829723
 30
0.0
  0
SPLINE
  5
402
100
AcDbEntity
  8
0
100
AcDbSpline
 62
7
  6
CONTINUOUS
 70
0
 71
3
 72
11
 73
7
 74
0
 42
0.0000001
 43
0.0000001
 44
0.0000000001
 40
0.0
 40
0.0
 40
0.0
 40
0.0
 40
0.2529059314
 40
0.5033347651
 40
0.7520879514
 40
1.0
 40
1.0
 40
1.0
 40
1.0
 10
17.7140568422
 20
11.5111856355
 30
0.0
 10
17.7263798475
 20
11.5292765805
 30
0.0
 10
17.7496304531
 20
11.5661705658
 30
0.0
 10
17.780217792
 20
11.623696243
 30
0.0
 10
17.8062355101
 20
11.6829572378
 30
0.0
 10
17.820498016
 20
11.7235608512
 30
0.0
 10
17.8268331427
 20
11.7440613287
 30
0.0
  0
SPLINE
  5
403
100
AcDbEntity
  8
0
100
AcDbSpline
 62
7
  6
CONTINUOUS
 70
0
 71
3
 72
11
 73
7
 74
0
 42
0.0000001
 43
0.0000001
 44
0.0000000001
 40
0.0
 40
0.0
 40
0.0
 40
0.0
 40
0.2541904864
 40
0.5047497755
 40
0.7529138446
 40
1.0
 40
1.0
 40
1.0
 40
1.0
 10
16.5827405237
 20
12.7747852418
 30
0.0
 10
16.5879254236
 20
12.7800171986
 30
0.0
 10
16.5976688157
 20
12.7909747836
 30
0.0
 10
16.6102008739
 20
12.808895861
 30
0.0
 10
16.6203739544
 20
12.8280239893
 30
0.0
 10
16.6254859107
 20
12.8414823433
 30
0.0
 10
16.6275998927
 20
12.8483231915
 30
0.0
  0
SPLINE
  5
404
100
AcDbEntity
  8
0
100
AcDbSpline
 62
7
  6
CONTINUOUS
 70
0
 71
3
 72
11
 73
7
 74
0
 42
0.0000001
 43
0.0000001
 44
0.0000000001
 40
0.0
 40
0.0
 40
0.0
 40
0.0
 40
0.2644295922
 40
0.5201463133
 40
0.7657152239
 40
1.0
 40
1.0
 40
1.0
 40
1.0
 10
15.903040563
 20
10.9248570701
 30
0.0
 10
15.9862169278
 20
10.918215405
 30
0.0
 10
16.1503228432
 20
10.9105490932
 30
0.0
 10
16.3920873286
 20
10.916491958
 30
0.0
 10
16.6232407106
 20
10.9399800357
 30
0.0
 10
16.7722991152
 20
10.9679245662
 30
0.0
 10
16.8442302942
 20
10.9849945457
 30
0.0
  0
SPLINE
  5
405
100
AcDbEntity
  8
0
100
AcDbSpline
 62
7
  6
CONTINUOUS
 70
0
 71
3
 72
18
 73
14
 74
0
 42
0.0000001
 43
0.0000001
 44
0.0000000001
 40
0.0
 40
0.0
 40
0.0
 40
0.0
 40
0.2437683635
 40
0.366397515
 40
0.4897688664
 40
0.6141945638
 40
0.7401675185
 40
0.803974616
 40
0.8684946931
 40
0.9010607447
 40
0.9338358857
 40
0.9668358951
 40
1.0
 40
1.0
 40
1.0
 40
1.0
 10
15.0482966391
 20
13.7018313314
 30
0.0
 10
15.0267475917
 20
13.7168226718
 30
0.0
 10
14.9942457645
 20
13.7391960697
 30
0.0
 10
14.9504112859
 20
13.7685273669
 30
0.0
 10
14.9169846184
 20
13.7902992554
 30
0.0
 10
14.8828649156
 20
13.8116561618
 30
0.0
 10
14.8536974752
 20
13.8288235097
 30
0.0
 10
14.8296289461
 20
13.8418925212
 30
0.0
 10
14.8141431173
 20
13.8496734238
 30
0.0
 10
14.8014497506
 20
13.855545236
 30
0.0
 10
14.791716111
 20
13.8597216508
 30
0.0
 10
14.7817915388
 20
13.8636027169
 30
0.0
 10
14.7750556627
 20
13.8659343078
 30
0.0
 10
14.7716519143
 20
13.8670155336
 30
0.0
  0
SPLINE
  5
406
100
AcDbEntity
  8
0
100
AcDbSpline
 62
7
  6
CONTINUOUS
 70
0
 71
3
 72
11
 73
7
 74
0
 42
0.0000001
 43
0.0000001
 44
0.0000000001
 40
0.0
 40
0.0
 40
0.0
 40
0.0
 40
0.2541058157
 40
0.50868595
 40
0.7590818883
 40
1.0
 40
1.0
 40
1.0
 40
1.0
 10
15.0807080758
 20
13.6692871747
 30
0.0
 10
15.078494225
 20
13.6725083245
 30
0.0
 10
15.0737046283
 20
13.6787147583
 30
0.0
 10
15.0657736241
 20
13.6873008987
 30
0.0
 10
15.0573187522
 20
13.6950736304
 30
0.0
 10
15.0513386408
 20
13.6997150576
 30
0.0
 10
15.0482966391
 20
13.7018313314
 30
0.0
  0
SPLINE
  5
407
100
AcDbEntity
  8
0
100
AcDbSpline
 62
7
  6
CONTINUOUS
 70
0
 71
3
 72
15
 73
11
 74
0
 42
0.0000001
 43
0.0000001
 44
0.0000000001
 40
0.0
 40
0.0
 40
0.0
 40
0.0
 40
0.1173169476
 40
0.2354382423
 40
0.3551284009
 40
0.4771164519
 40
0.6020695045
 40
0.7305589684
 40
0.8630721239
 40
1.0
 40
1.0
 40
1.0
 40
1.0
 10
13.0497289215
 20
13.2202981861
 30
0.0
 10
13.0407489796
 20
13.1912390836
 30
0.0
 10
13.0258809867
 20
13.1318949009
 30
0.0
 10
13.0131538748
 20
13.0405446437
 30
0.0
 10
13.0100094906
 20
12.9471496812
 30
0.0
 10
13.0164413735
 20
12.8521624615
 30
0.0
 10
13.0323204324
 20
12.7559908252
 30
0.0
 10
13.0575525375
 20
12.6590286804
 30
0.0
 10
13.0919642606
 20
12.5616535515
 30
0.0
 10
13.1204177133
 20
12.4977696056
 30
0.0
 10
13.1360309547
 20
12.4658882615
 30
0.0
  0
SPLINE
  5
408
100
AcDbEntity
  8
0
100
AcDbSpline
 62
7
  6
CONTINUOUS
 70
0
 71
3
 72
15
 73
11
 74
0
 42
0.0000001
 43
0.0000001
 44
0.0000000001
 40
0.0
 40
0.0
 40
0.0
 40
0.0
 40
0.1087949231
 40
0.222361127
 40
0.3407704514
 40
0.4639522387
 40
0.5917458902
 40
0.7239215272
 40
0.8601758342
 40
1.0
 40
1.0
 40
1.0
 40
1.0
 10
13.1472321853
 20
12.4434992684
 30
0.0
 10
13.1686461905
 20
12.401582721
 30
0.0
 10
13.216462082
 20
12.317932604
 30
0.0
 10
13.3001758805
 20
12.1963922568
 30
0.0
 10
13.3968846822
 20
12.0768038036
 30
0.0
 10
13.5059460869
 20
11.9598232285
 30
0.0
 10
13.6267256728
 20
11.8461232963
 30
0.0
 10
13.7584991173
 20
11.7363230427
 30
0.0
 10
13.9004721987
 20
11.631099834
 30
0.0
 10
14.0001501824
 20
11.5651723561
 30
0.0
 10
14.0514318383
 20
11.5330824549
 30
0.0
  0
SPLINE
  5
409
100
AcDbEntity
  8
0
100
AcDbSpline
 62
7
  6
CONTINUOUS
 70
0
 71
3
 72
15
 73
11
 74
0
 42
0.0000001
 43
0.0000001
 44
0.0000000001
 40
0.0
 40
0.0
 40
0.0
 40
0.0
 40
0.1376528621
 40
0.2727927834
 40
0.4047997009
 40
0.5330707304
 40
0.6570630197
 40
0.7764025847
 40
0.8908105212
 40
1.0
 40
1.0
 40
1.0
 40
1.0
 10
15.3718682428
 20
10.9682098139
 30
0.0
 10
15.4247062935
 20
10.958821551
 30
0.0
 10
15.5299400302
 20
10.9430177412
 30
0.0
 10
15.6871449309
 20
10.9282533592
 30
0.0
 10
15.8412966482
 20
10.9227555501
 30
0.0
 10
15.9911600476
 20
10.9265395758
 30
0.0
 10
16.1355506111
 20
10.9396339811
 30
0.0
 10
16.2733511593
 20
10.9619540745
 30
0.0
 10
16.4034362249
 20
10.9933939265
 30
0.0
 10
16.4862919422
 20
11.0209165285
 30
0.0
 10
16.5260072934
 20
11.0362395908
 30
0.0
  0
SPLINE
  5
40A
100
AcDbEntity
  8
0
100
AcDbSpline
 62
7
  6
CONTINUOUS
 70
0
 71
3
 72
22
 73
18
 74
0
 42
0.0000001
 43
0.0000001
 44
0.0000000001
 40
0.0
 40
0.0
 40
0.0
 40
0.0
 40
0.0716758894
 40
0.1442749784
 40
0.2170570757
 40
0.2894102242
 40
0.3607856106
 40
0.430659172
 40
0.4985406316
 40
0.5640156672
 40
0.6268214008
 40
0.6868018308
 40
0.7984142001
 40
0.8508413726
 40
0.901450955
 40
0.9508994402
 40
1.0
 40
1.0
 40
1.0
 40
1.0
 10
16.9134005151
 20
10.9516180704
 30
0.0
 10
16.9279018626
 20
10.9444248771
 30
0.0
 10
16.957617084
 20
10.9309834944
 30
0.0
 10
17.0035737192
 20
10.9138251059
 30
0.0
 10
17.0507284337
 20
10.8997483976
 30
0.0
 10
17.0984515782
 20
10.8889293442
 30
0.0
 10
17.1461566791
 20
10.8815043388
 30
0.0
 10
17.1932650375
 20
10.8775771435
 30
0.0
 10
17.2392086894
 20
10.877202814
 30
0.0
 10
17.2834411418
 20
10.8804448846
 30
0.0
 10
17.3254759015
 20
10.8873004677
 30
0.0
 10
17.3766773075
 20
10.9008998908
 30
0.0
 10
17.423430549
 20
10.9218852017
 30
0.0
 10
17.4624463469
 20
10.9509399576
 30
0.0
 10
17.4865323885
 20
10.9757946581
 30
0.0
 10
17.5053733321
 20
11.0039411243
 30
0.0
 10
17.5140767505
 20
11.02460702
 30
0.0
 10
17.517350729
 20
11.0352016182
 30
0.0
  0
SPLINE
  5
40B
100
AcDbEntity
  8
0
100
AcDbSpline
 62
7
  6
CONTINUOUS
 70
0
 71
3
 72
14
 73
10
 74
0
 42
0.0000001
 43
0.0000001
 44
0.0000000001
 40
0.0
 40
0.0
 40
0.0
 40
0.0
 40
0.2710470915
 40
0.4001047923
 40
0.5252742677
 40
0.6470733929
 40
0.7662262141
 40
0.883572081
 40
1.0
 40
1.0
 40
1.0
 40
1.0
 10
15.7222554249
 20
11.5382746863
 30
0.0
 10
15.7298278741
 20
11.5228436573
 30
0.0
 10
15.7394003553
 20
11.49919065
 30
0.0
 10
15.7478358422
 20
11.4669310233
 30
0.0
 10
15.7517673113
 20
11.443373819
 30
0.0
 10
15.7533585314
 20
11.4201723894
 30
0.0
 10
15.7526053012
 20
11.3974216714
 30
0.0
 10
15.7495207522
 20
11.3752133972
 30
0.0
 10
15.7459100675
 20
11.3607994539
 30
0.0
 10
15.7437300486
 20
11.3537451501
 30
0.0
  0
SPLINE
  5
40C
100
AcDbEntity
  8
0
100
AcDbSpline
 62
7
  6
CONTINUOUS
 70
0
 71
3
 72
33
 73
29
 74
0
 42
0.0000001
 43
0.0000001
 44
0.0000000001
 40
0.0
 40
0.0
 40
0.0
 40
0.0
 40
0.026507951
 40
0.054364133
 40
0.1139792732
 40
0.1456859115
 40
0.1785563038
 40
0.212498316
 40
0.2473874487
 40
0.3194257863
 40
0.3934819733
 40
0.4308661384
 40
0.4682522664
 40
0.5423217346
 40
0.6143814161
 40
0.6492826331
 40
0.6832413914
 40
0.7161343301
 40
0.7478619866
 40
0.7783471585
 40
0.807532228
 40
0.835397361
 40
0.8619566818
 40
0.9113322277
 40
0.9344704281
 40
0.9567939144
 40
0.9785458663
 40
1.0
 40
1.0
 40
1.0
 40
1.0
 10
14.2959924757
 20
11.5382746863
 30
0.0
 10
14.303938588
 20
11.5220822119
 30
0.0
 10
14.3219339348
 20
11.489686089
 30
0.0
 10
14.3655155746
 20
11.4254418229
 30
0.0
 10
14.4192320938
 20
11.3642018146
 30
0.0
 10
14.481046695
 20
11.3065352478
 30
0.0
 10
14.5328948638
 20
11.26396672
 30
0.0
 10
14.5889199868
 20
11.2232820978
 30
0.0
 10
14.6695210983
 20
11.1713265932
 30
0.0
 10
14.7782460635
 20
11.1130053591
 30
0.0
 10
14.8936832351
 20
11.0649333729
 30
0.0
 10
14.989724767
 20
11.032718495
 30
0.0
 10
15.087185303
 20
11.0050587916
 30
0.0
 10
15.2096226042
 20
10.9795265196
 30
0.0
 10
15.3323158263
 20
10.9662326397
 30
0.0
 10
15.4282079567
 20
10.9635750137
 30
0.0
 10
15.4974568622
 20
10.9655004343
 30
0.0
 10
15.5643220892
 20
10.9713340978
 30
0.0
 10
15.628351361
 20
10.9810341851
 30
0.0
 10
15.6891175983
 20
10.9945166292
 30
0.0
 10
15.7462009891
 20
11.0117210314
 30
0.0
 10
15.7992322772
 20
11.0325372377
 30
0.0
 10
15.8624781896
 20
11.0640958113
 30
0.0
 10
15.9183591203
 20
11.1029327332
 30
0.0
 10
15.9639442486
 20
11.1488155617
 30
0.0
 10
15.9918085017
 20
11.1852605737
 30
0.0
 10
16.0138584613
 20
11.224174614
 30
0.0
 10
16.0246083994
 20
11.2516677745
 30
0.0
 10
16.0289213512
 20
11.2656143885
 30
0.0
  0
SPLINE
  5
40D
100
AcDbEntity
  8
0
100
AcDbSpline
 62
7
  6
CONTINUOUS
 70
0
 71
3
 72
9
 73
5
 74
0
 42
0.0000001
 43
0.0000001
 44
0.0000000001
 40
0.0
 40
0.0
 40
0.0
 40
0.0
 40
0.5321938786
 40
1.0
 40
1.0
 40
1.0
 40
1.0
 10
14.6182077612
 20
11.6912682233
 30
0.0
 10
14.6202539801
 20
11.6870984677
 30
0.0
 10
14.6247858777
 20
11.6795683606
 30
0.0
 10
14.6309451888
 20
11.6732198567
 30
0.0
 10
14.6342081998
 20
11.6707658462
 30
0.0
  0
SPLINE
  5
40E
100
AcDbEntity
  8
0
100
AcDbSpline
 62
7
  6
CONTINUOUS
 70
0
 71
3
 72
9
 73
5
 74
0
 42
0.0000001
 43
0.0000001
 44
0.0000000001
 40
0.0
 40
0.0
 40
0.0
 40
0.0
 40
0.5107710038
 40
1.0
 40
1.0
 40
1.0
 40
1.0
 10
14.6366789306
 20
11.6690581309
 30
0.0
 10
14.6391465803
 20
11.667499249
 30
0.0
 10
14.6443932872
 20
11.6650372979
 30
0.0
 10
14.650138497
 20
11.664183583
 30
0.0
 10
14.6529341976
 20
11.6641834022
 30
0.0
  0
SPLINE
  5
40F
100
AcDbEntity
  8
0
100
AcDbSpline
 62
7
  6
CONTINUOUS
 70
0
 71
3
 72
15
 73
11
 74
0
 42
0.0000001
 43
0.0000001
 44
0.0000000001
 40
0.0
 40
0.0
 40
0.0
 40
0.0
 40
0.1175597108
 40
0.2358955057
 40
0.3557392059
 40
0.4777982115
 40
0.6027432908
 40
0.7311540645
 40
0.8634719892
 40
1.0
 40
1.0
 40
1.0
 40
1.0
 10
17.8924960155
 20
11.9565464629
 30
0.0
 10
17.9013084932
 20
11.9850636513
 30
0.0
 10
17.915954077
 20
12.0432743835
 30
0.0
 10
17.928704699
 20
12.1328464856
 30
0.0
 10
17.932235697
 20
12.2244001676
 30
0.0
 10
17.9265425879
 20
12.3175131984
 30
0.0
 10
17.9117370248
 20
12.411808749
 30
0.0
 10
17.8879035734
 20
12.5069131266
 30
0.0
 10
17.8552150576
 20
12.6024429761
 30
0.0
 10
17.8280913451
 20
12.6651647407
 30
0.0
 10
17.8131924084
 20
12.6964632328
 30
0.0
  0
SPLINE
  5
410
100
AcDbEntity
  8
0
100
AcDbSpline
 62
7
  6
CONTINUOUS
 70
0
 71
3
 72
41
 73
37
 74
0
 42
0.0000001
 43
0.0000001
 44
0.0000000001
 40
0.0
 40
0.0
 40
0.0
 40
0.0
 40
0.0266207826
 40
0.054496259
 40
0.0836138415
 40
0.1139527188
 40
0.1454793826
 40
0.1781301793
 40
0.2118091712
 40
0.2464056727
 40
0.2817914306
 40
0.317828476
 40
0.3543668213
 40
0.3912486893
 40
0.4283123629
 40
0.4653923329
 40
0.5023236505
 40
0.5389436369
 40
0.5750928688
 40
0.6106211245
 40
0.6453853951
 40
0.6792567831
 40
0.7121211398
 40
0.7438812796
 40
0.7744650253
 40
0.8038211998
 40
0.831932687
 40
0.8588124623
 40
0.8845122438
 40
0.9091249846
 40
0.9327846454
 40
0.9556653865
 40
0.9668863458
 40
0.9779954824
 40
0.989022877
 40
1.0
 40
1.0
 40
1.0
 40
1.0
 10
17.8056779119
 20
12.7120090927
 30
0.0
 10
17.7841632759
 20
12.7558513112
 30
0.0
 10
17.7355964931
 20
12.8434350067
 30
0.0
 10
17.6495640159
 20
12.9706343388
 30
0.0
 10
17.5492750891
 20
13.095785092
 30
0.0
 10
17.4354655029
 20
13.2180676009
 30
0.0
 10
17.308890369
 20
13.3367560642
 30
0.0
 10
17.1703712751
 20
13.4511231587
 30
0.0
 10
17.0208307312
 20
13.5604687048
 30
0.0
 10
16.8612309686
 20
13.6640439773
 30
0.0
 10
16.6926529164
 20
13.7612226527
 30
0.0
 10
16.5161896699
 20
13.8513353054
 30
0.0
 10
16.333024367
 20
13.9338198623
 30
0.0
 10
16.1443654049
 20
14.008120215
 30
0.0
 10
15.951465477
 20
14.0737377591
 30
0.0
 10
15.7556132106
 20
14.1302620696
 30
0.0
 10
15.5580994657
 20
14.177278563
 30
0.0
 10
15.3602466841
 20
14.2145193683
 30
0.0
 10
15.1633559996
 20
14.2416889402
 30
0.0
 10
14.9687365971
 20
14.2586390264
 30
0.0
 10
14.7776665282
 20
14.2652299538
 30
0.0
 10
14.5914019872
 20
14.2614084605
 30
0.0
 10
14.4111580254
 20
14.2472044739
 30
0.0
 10
14.2381080361
 20
14.22265129
 30
0.0
 10
14.0733653079
 20
14.1879265543
 30
0.0
 10
13.9179977918
 20
14.1431616381
 30
0.0
 10
13.7729977962
 20
14.0886296277
 30
0.0
 10
13.6393150966
 20
14.0245759208
 30
0.0
 10
13.5178409497
 20
13.9513296647
 30
0.0
 10
13.4094192927
 20
13.8692557937
 30
0.0
 10
13.3149030749
 20
13.7787842422
 30
0.0
 10
13.2478913836
 20
13.6962746496
 30
0.0
 10
13.2023562176
 20
13.626885929
 30
0.0
 10
13.1723344703
 20
13.5735022411
 30
0.0
 10
13.1462980436
 20
13.5185645982
 30
0.0
 10
13.1316164663
 20
13.4809177265
 30
0.0
 10
13.1249753068
 20
13.4619064374
 30
0.0
  0
SPLINE
  5
411
100
AcDbEntity
  8
0
100
AcDbSpline
 62
7
  6
CONTINUOUS
 70
0
 71
3
 72
26
 73
22
 74
0
 42
0.0000001
 43
0.0000001
 44
0.0000000001
 40
0.0
 40
0.0
 40
0.0
 40
0.0
 40
0.0214543266
 40
0.0432046412
 40
0.0885829595
 40
0.1379662496
 40
0.164532522
 40
0.1924036036
 40
0.2520435849
 40
0.2837837692
 40
0.3166860228
 40
0.3855371974
 40
0.4576191994
 40
0.5317065851
 40
0.6064766869
 40
0.6805575403
 40
0.7526218527
 40
0.8214333195
 40
0.8860323288
 40
0.9457074838
 40
1.0
 40
1.0
 40
1.0
 40
1.0
 10
16.8808269414
 20
11.198117661
 30
0.0
 10
16.8818476826
 20
11.2014203927
 30
0.0
 10
16.8843897251
 20
11.2079323815
 30
0.0
 10
16.8914474377
 20
11.2203861097
 30
0.0
 10
16.9040582569
 20
11.2346025446
 30
0.0
 10
16.9202406916
 20
11.245842817
 30
0.0
 10
16.9352242796
 20
11.2533202236
 30
0.0
 10
16.9523540223
 20
11.260044617
 30
0.0
 10
16.9710534543
 20
11.2648207813
 30
0.0
 10
16.9908613449
 20
11.2678168749
 30
0.0
 10
17.0123025349
 20
11.269692269
 30
0.0
 10
17.040375943
 20
11.2696168784
 30
0.0
 10
17.0748771653
 20
11.265887256
 30
0.0
 10
17.1097796039
 20
11.258603893
 30
0.0
 10
17.144148472
 20
11.2479766167
 30
0.0
 10
17.1770571178
 20
11.2342681536
 30
0.0
 10
17.2076342521
 20
11.2178744315
 30
0.0
 10
17.2350559414
 20
11.1992049205
 30
0.0
 10
17.2586176445
 20
11.178757659
 30
0.0
 10
17.2776390435
 20
11.1570465675
 30
0.0
 10
17.2874521701
 20
11.1413860456
 30
0.0
 10
17.2913060319
 20
11.1335327011
 30
0.0
  0
SPLINE
  5
412
100
AcDbEntity
  8
0
100
AcDbSpline
 62
7
  6
CONTINUOUS
 70
0
 71
3
 72
26
 73
22
 74
0
 42
0.0000001
 43
0.0000001
 44
0.0000000001
 40
0.0
 40
0.0
 40
0.0
 40
0.0
 40
0.0214543266
 40
0.0432046412
 40
0.0885829595
 40
0.1379662496
 40
0.164532522
 40
0.1924036036
 40
0.2520435849
 40
0.2837837692
 40
0.3166860228
 40
0.3855371974
 40
0.4576191994
 40
0.5317065851
 40
0.6064766869
 40
0.6805575403
 40
0.7526218527
 40
0.8214333195
 40
0.8860323288
 40
0.9457074838
 40
1.0
 40
1.0
 40
1.0
 40
1.0
 10
14.1942619831
 20
11.198117661
 30
0.0
 10
14.1952827243
 20
11.2014203927
 30
0.0
 10
14.1978247667
 20
11.2079323815
 30
0.0
 10
14.2048824794
 20
11.2203861097
 30
0.0
 10
14.2174932986
 20
11.2346025446
 30
0.0
 10
14.2336757333
 20
11.245842817
 30
0.0
 10
14.2486593213
 20
11.2533202236
 30
0.0
 10
14.265789064
 20
11.260044617
 30
0.0
 10
14.284488496
 20
11.2648207813
 30
0.0
 10
14.3042963866
 20
11.2678168749
 30
0.0
 10
14.3257375765
 20
11.269692269
 30
0.0
 10
14.3538109847
 20
11.2696168784
 30
0.0
 10
14.388312207
 20
11.265887256
 30
0.0
 10
14.4232146455
 20
11.258603893
 30
0.0
 10
14.4575835137
 20
11.2479766167
 30
0.0
 10
14.4904921595
 20
11.2342681536
 30
0.0
 10
14.5210692937
 20
11.2178744315
 30
0.0
 10
14.5484909831
 20
11.1992049205
 30
0.0
 10
14.5720526862
 20
11.178757659
 30
0.0
 10
14.5910740852
 20
11.1570465675
 30
0.0
 10
14.6008872118
 20
11.1413860456
 30
0.0
 10
14.6047410735
 20
11.1335327011
 30
0.0
  0
SPLINE
  5
413
100
AcDbEntity
  8
0
100
AcDbSpline
 62
7
  6
CONTINUOUS
 70
0
 71
3
 72
26
 73
22
 74
0
 42
0.0000001
 43
0.0000001
 44
0.0000000001
 40
0.0
 40
0.0
 40
0.0
 40
0.0
 40
0.0214543266
 40
0.0432046412
 40
0.0885829595
 40
0.1379662496
 40
0.164532522
 40
0.1924036036
 40
0.2520435849
 40
0.2837837692
 40
0.3166860228
 40
0.3855371974
 40
0.4576191994
 40
0.5317065851
 40
0.6064766869
 40
0.6805575403
 40
0.7526218527
 40
0.8214333195
 40
0.8860323288
 40
0.9457074838
 40
1.0
 40
1.0
 40
1.0
 40
1.0
 10
13.3045111468
 20
13.0112392342
 30
0.0
 10
13.305531888
 20
13.0145419659
 30
0.0
 10
13.3080739304
 20
13.0210539547
 30
0.0
 10
13.3151316431
 20
13.0335076829
 30
0.0
 10
13.3277424623
 20
13.0477241178
 30
0.0
 10
13.343924897
 20
13.0589643903
 30
0.0
 10
13.358908485
 20
13.0664417969
 30
0.0
 10
13.3760382277
 20
13.0731661902
 30
0.0
 10
13.3947376597
 20
13.0779423545
 30
0.0
 10
13.4145455502
 20
13.0809384481
 30
0.0
 10
13.4359867402
 20
13.0828138422
 30
0.0
 10
13.4640601484
 20
13.0827384517
 30
0.0
 10
13.4985613706
 20
13.0790088292
 30
0.0
 10
13.5334638092
 20
13.0717254663
 30
0.0
 10
13.5678326774
 20
13.0610981899
 30
0.0
 10
13.6007413232
 20
13.0473897268
 30
0.0
 10
13.6313184574
 20
13.0309960048
 30
0.0
 10
13.6587401467
 20
13.0123264937
 30
0.0
 10
13.6823018499
 20
12.9918792323
 30
0.0
 10
13.7013232489
 20
12.9701681408
 30
0.0
 10
13.7111363755
 20
12.9545076189
 30
0.0
 10
13.7149902372
 20
12.9466542744
 30
0.0
  0
SPLINE
  5
414
100
AcDbEntity
  8
0
100
AcDbSpline
 62
7
  6
CONTINUOUS
 70
0
 71
3
 72
36
 73
32
 74
0
 42
0.0000001
 43
0.0000001
 44
0.0000000001
 40
0.0
 40
0.0
 40
0.0
 40
0.0
 40
0.0212463224
 40
0.0427467864
 40
0.0647403412
 40
0.0874398536
 40
0.0991152881
 40
0.1110304991
 40
0.1356371576
 40
0.161367009
 40
0.1882806416
 40
0.2164102827
 40
0.2457517363
 40
0.307901485
 40
0.3406178435
 40
0.3743039499
 40
0.4088592787
 40
0.4441662105
 40
0.5165059166
 40
0.5532856139
 40
0.5902742624
 40
0.6273264021
 40
0.6642946919
 40
0.7373761411
 40
0.773228038
 40
0.808435451
 40
0.8428740834
 40
0.8764300085
 40
0.9089971086
 40
0.9404911253
 40
1.0
 40
1.0
 40
1.0
 40
1.0
 10
14.2283286731
 20
12.3717798031
 30
0.0
 10
14.2332058028
 20
12.3875497457
 30
0.0
 10
14.2451747233
 20
12.4186548824
 30
0.0
 10
14.2693670577
 20
12.4629107633
 30
0.0
 10
14.2997118693
 20
12.5045991193
 30
0.0
 10
14.3296645675
 20
12.5366953117
 30
0.0
 10
14.3563283365
 20
12.5608512765
 30
0.0
 10
14.3854155814
 20
12.5844601111
 30
0.0
 10
14.4253368327
 20
12.6119210094
 30
0.0
 10
14.4778670848
 20
12.6411149923
 30
0.0
 10
14.5352250844
 20
12.6667549025
 30
0.0
 10
14.597084914
 20
12.688667861
 30
0.0
 10
14.6867785343
 20
12.7132532992
 30
0.0
 10
14.7822653496
 20
12.729169643
 30
0.0
 10
14.8818533399
 20
12.7371329085
 30
0.0
 10
14.9603069317
 20
12.7391119807
 30
0.0
 10
15.0407625636
 20
12.7369599997
 30
0.0
 10
15.1509590164
 20
12.728568393
 30
0.0
 10
15.2621362465
 20
12.7120295842
 30
0.0
 10
15.3730747497
 20
12.6878564726
 30
0.0
 10
15.4563356752
 20
12.6658129005
 30
0.0
 10
15.5386822378
 20
12.6400734626
 30
0.0
 10
15.6461898494
 20
12.6012171551
 30
0.0
 10
15.7501823817
 20
12.5556415796
 30
0.0
 10
15.8494112484
 20
12.5036611643
 30
0.0
 10
15.9201467431
 20
12.4621851366
 30
0.0
 10
15.9872367523
 20
12.4182145455
 30
0.0
 10
16.05029903
 20
12.3720317047
 30
0.0
 10
16.1089615282
 20
12.3238868936
 30
0.0
 10
16.1794833473
 20
12.2587040242
 30
0.0
 10
16.2269567866
 20
12.2059209116
 30
0.0
 10
16.2551487081
 20
12.1692764555
 30
0.0
  0
SPLINE
  5
415
100
AcDbEntity
  8
0
100
AcDbSpline
 62
7
  6
CONTINUOUS
 70
0
 71
3
 72
9
 73
5
 74
0
 42
0.0000001
 43
0.0000001
 44
0.0000000001
 40
0.0
 40
0.0
 40
0.0
 40
0.0
 40
0.5116504399
 40
1.0
 40
1.0
 40
1.0
 40
1.0
 10
16.270844146
 20
12.1482366615
 30
0.0
 10
16.2834902504
 20
12.1307402457
 30
0.0
 10
16.3069285267
 20
12.0955963193
 30
0.0
 10
16.3273317797
 20
12.0585912655
 30
0.0
 10
16.3364091706
 20
12.0400934878
 30
0.0
  0
SPLINE
  5
416
100
AcDbEntity
  8
0
100
AcDbSpline
 62
7
  6
CONTINUOUS
 70
0
 71
3
 72
13
 73
9
 74
0
 42
0.0000001
 43
0.0000001
 44
0.0000000001
 40
0.0
 40
0.0
 40
0.0
 40
0.0
 40
0.2676541918
 40
0.5206357826
 40
0.6429348584
 40
0.7631475926
 40
0.8819379002
 40
1.0
 40
1.0
 40
1.0
 40
1.0
 10
16.1495690753
 20
11.6460882858
 30
0.0
 10
16.1698559559
 20
11.6594968388
 30
0.0
 10
16.2076159144
 20
11.6883101854
 30
0.0
 10
16.248098533
 20
11.7308244015
 30
0.0
 10
16.2745814827
 20
11.7672956195
 30
0.0
 10
16.291392057
 20
11.7955470687
 30
0.0
 10
16.3053232919
 20
11.8248949676
 30
0.0
 10
16.3126739609
 20
11.8451611138
 30
0.0
 10
16.3158433056
 20
11.85540869
 30
0.0
  0
SPLINE
  5
417
100
AcDbEntity
  8
0
100
AcDbSpline
 62
7
  6
CONTINUOUS
 70
0
 71
3
 72
11
 73
7
 74
0
 42
0.0000001
 43
0.0000001
 44
0.0000000001
 40
0.0
 40
0.0
 40
0.0
 40
0.0
 40
0.2593234917
 40
0.5108011135
 40
0.7568099324
 40
1.0
 40
1.0
 40
1.0
 40
1.0
 10
16.164650313
 20
11.6853534446
 30
0.0
 10
16.1754056313
 20
11.6958207278
 30
0.0
 10
16.1954837393
 20
11.7176231844
 30
0.0
 10
16.2211408792
 20
11.7532560251
 30
0.0
 10
16.2416368756
 20
11.7910345194
 30
0.0
 10
16.2518106899
 20
11.8175586898
 30
0.0
 10
16.2559692289
 20
11.8310046256
 30
0.0
  0
SPLINE
  5
418
100
AcDbEntity
  8
0
100
AcDbSpline
 62
7
  6
CONTINUOUS
 70
0
 71
3
 72
26
 73
22
 74
0
 42
0.0000001
 43
0.0000001
 44
0.0000000001
 40
0.0
 40
0.0
 40
0.0
 40
0.0
 40
0.0214543266
 40
0.0432046412
 40
0.0885829595
 40
0.1379662496
 40
0.164532522
 40
0.1924036036
 40
0.2520435849
 40
0.2837837692
 40
0.3166860228
 40
0.3855371974
 40
0.4576191994
 40
0.5317065851
 40
0.6064766869
 40
0.6805575403
 40
0.7526218527
 40
0.8214333195
 40
0.8860323288
 40
0.9457074838
 40
1.0
 40
1.0
 40
1.0
 40
1.0
 10
15.9910761051
 20
13.0112392342
 30
0.0
 10
15.9920968463
 20
13.0145419659
 30
0.0
 10
15.9946388887
 20
13.0210539547
 30
0.0
 10
16.0016966014
 20
13.0335076829
 30
0.0
 10
16.0143074206
 20
13.0477241178
 30
0.0
 10
16.0304898553
 20
13.0589643903
 30
0.0
 10
16.0454734433
 20
13.0664417969
 30
0.0
 10
16.062603186
 20
13.0731661902
 30
0.0
 10
16.081302618
 20
13.0779423545
 30
0.0
 10
16.1011105086
 20
13.0809384481
 30
0.0
 10
16.1225516985
 20
13.0828138422
 30
0.0
 10
16.1506251067
 20
13.0827384517
 30
0.0
 10
16.185126329
 20
13.0790088292
 30
0.0
 10
16.2200287675
 20
13.0717254663
 30
0.0
 10
16.2543976357
 20
13.0610981899
 30
0.0
 10
16.2873062815
 20
13.0473897268
 30
0.0
 10
16.3178834157
 20
13.0309960048
 30
0.0
 10
16.3453051051
 20
13.0123264937
 30
0.0
 10
16.3688668082
 20
12.9918792323
 30
0.0
 10
16.3878882072
 20
12.9701681408
 30
0.0
 10
16.3977013338
 20
12.9545076189
 30
0.0
 10
16.4015551955
 20
12.9466542744
 30
0.0
  0
SPLINE
  5
419
100
AcDbEntity
  8
0
100
AcDbSpline
 62
7
  6
CONTINUOUS
 70
0
 71
3
 72
13
 73
9
 74
0
 42
0.0000001
 43
0.0000001
 44
0.0000000001
 40
0.0
 40
0.0
 40
0.0
 40
0.0
 40
0.1205857502
 40
0.2410836416
 40
0.3622977504
 40
0.4849081087
 40
0.7364378065
 40
1.0
 40
1.0
 40
1.0
 40
1.0
 10
13.9947925319
 20
11.2935430683
 30
0.0
 10
13.992861117
 20
11.2872930074
 30
0.0
 10
13.9897247727
 20
11.2745603544
 30
0.0
 10
13.9872298184
 20
11.255025312
 30
0.0
 10
13.9869113063
 20
11.23522323
 30
0.0
 10
13.9893510361
 20
11.2084166226
 30
0.0
 10
13.9978192171
 20
11.1746376605
 30
0.0
 10
14.0093683463
 20
11.1490379499
 30
0.0
 10
14.0162050584
 20
11.1364803443
 30
0.0
  0
SPLINE
  5
41A
100
AcDbEntity
  8
0
100
AcDbSpline
 62
7
  6
CONTINUOUS
 70
0
 71
3
 72
23
 73
19
 74
0
 42
0.0000001
 43
0.0000001
 44
0.0000000001
 40
0.0
 40
0.0
 40
0.0
 40
0.0
 40
0.0550545645
 40
0.1132318283
 40
0.1745223522
 40
0.238622456
 40
0.3050794912
 40
0.3732666828
 40
0.4424781815
 40
0.5119460886
 40
0.5808820275
 40
0.6485432939
 40
0.714237273
 40
0.7774021932
 40
0.8376152096
 40
0.8946834163
 40
0.9487243483
 40
1.0
 40
1.0
 40
1.0
 40
1.0
 10
14.02313416
 20
11.1244458944
 30
0.0
 10
14.0310347151
 20
11.1114367362
 30
0.0
 10
14.0493077807
 20
11.0858769744
 30
0.0
 10
14.0821438681
 20
11.050388058
 30
0.0
 10
14.1205441389
 20
11.0170684625
 30
0.0
 10
14.1638628511
 20
10.9863339631
 30
0.0
 10
14.2114025458
 20
10.9586507613
 30
0.0
 10
14.2623454705
 20
10.9344021586
 30
0.0
 10
14.3158415744
 20
10.9140148209
 30
0.0
 10
14.3709591147
 20
10.8977925938
 30
0.0
 10
14.4267645699
 20
10.8860452617
 30
0.0
 10
14.482303717
 20
10.8789642252
 30
0.0
 10
14.5366574124
 20
10.8767086684
 30
0.0
 10
14.5889415081
 20
10.8793565307
 30
0.0
 10
14.6383475891
 20
10.8869129428
 30
0.0
 10
14.6841544327
 20
10.8994299432
 30
0.0
 10
14.725644705
 20
10.9169370103
 30
0.0
 10
14.7505594082
 20
10.9323082474
 30
0.0
 10
14.7619016007
 20
10.9408112741
 30
0.0
  0
SPLINE
  5
41B
100
AcDbEntity
  8
0
100
AcDbSpline
 62
7
  6
CONTINUOUS
 70
0
 71
3
 72
9
 73
5
 74
0
 42
0.0000001
 43
0.0000001
 44
0.0000000001
 40
0.0
 40
0.0
 40
0.0
 40
0.0
 40
0.2533601532
 40
1.0
 40
1.0
 40
1.0
 40
1.0
 10
14.7619016007
 20
10.9408112741
 30
0.0
 10
14.7640523119
 20
10.9424236215
 30
0.0
 10
14.7724305949
 20
10.948932852
 30
0.0
 10
14.7803505306
 20
10.9560371922
 30
0.0
 10
14.7859264017
 20
10.9616636686
 30
0.0
  0
SPLINE
  5
41C
100
AcDbEntity
  8
0
100
AcDbSpline
 62
7
  6
CONTINUOUS
 70
0
 71
3
 72
12
 73
8
 74
0
 42
0.0000001
 43
0.0000001
 44
0.0000000001
 40
0.0
 40
0.0
 40
0.0
 40
0.0
 40
0.2722882853
 40
0.5269909702
 40
0.7673286424
 40
0.8841898642
 40
1.0
 40
1.0
 40
1.0
 40
1.0
 10
14.8300846048
 20
12.3961760916
 30
0.0
 10
14.8265893975
 20
12.3899422878
 30
0.0
 10
14.8208881661
 20
12.3772183639
 30
0.0
 10
14.8167634369
 20
12.3573360456
 30
0.0
 10
14.8174112953
 20
12.3410859073
 30
0.0
 10
14.8204655427
 20
12.3290175099
 30
0.0
 10
14.8227764535
 20
12.3233389146
 30
0.0
 10
14.8241155236
 20
12.3206100667
 30
0.0
  0
SPLINE
  5
41D
100
AcDbEntity
  8
0
100
AcDbSpline
 62
7
  6
CONTINUOUS
 70
0
 71
3
 72
15
 73
11
 74
0
 42
0.0000001
 43
0.0000001
 44
0.0000000001
 40
0.0
 40
0.0
 40
0.0
 40
0.0
 40
0.1095378347
 40
0.2208779062
 40
0.3356837316
 40
0.4553597365
 40
0.5810149515
 40
0.7134205163
 40
0.8530188554
 40
1.0
 40
1.0
 40
1.0
 40
1.0
 10
14.4078794373
 20
12.4450140802
 30
0.0
 10
14.4128548975
 20
12.4611018736
 30
0.0
 10
14.4254906167
 20
12.4927983882
 30
0.0
 10
14.4519189086
 20
12.5373471263
 30
0.0
 10
14.4856644079
 20
12.5786690354
 30
0.0
 10
14.5263542761
 20
12.6164482854
 30
0.0
 10
14.5736489523
 20
12.650382573
 30
0.0
 10
14.6271349514
 20
12.6802312531
 30
0.0
 10
14.6863640701
 20
12.705790116
 30
0.0
 10
14.7283104428
 20
12.7194748161
 30
0.0
 10
14.7500568665
 20
12.7256121711
 30
0.0
  0
SPLINE
  5
41E
100
AcDbEntity
  8
0
100
AcDbSpline
 62
7
  6
CONTINUOUS
 70
0
 71
3
 72
9
 73
5
 74
0
 42
0.0000001
 43
0.0000001
 44
0.0000000001
 40
0.0
 40
0.0
 40
0.0
 40
0.0
 40
0.5133606031
 40
1.0
 40
1.0
 40
1.0
 40
1.0
 10
16.1670937716
 20
12.2657669352
 30
0.0
 10
16.1803093685
 20
12.2483697493
 30
0.0
 10
16.2046336226
 20
12.2133708788
 30
0.0
 10
16.2255050869
 20
12.1761848358
 30
0.0
 10
16.2346288683
 20
12.1575925242
 30
0.0
  0
SPLINE
  5
41F
100
AcDbEntity
  8
0
100
AcDbSpline
 62
7
  6
CONTINUOUS
 70
0
 71
3
 72
10
 73
6
 74
0
 42
0.0000001
 43
0.0000001
 44
0.0000000001
 40
0.0
 40
0.0
 40
0.0
 40
0.0
 40
0.5091320378
 40
0.7592553163
 40
1.0
 40
1.0
 40
1.0
 40
1.0
 10
14.7716519143
 20
13.8670155336
 30
0.0
 10
14.7648647104
 20
13.8691715391
 30
0.0
 10
14.7545546932
 20
13.8718746125
 30
0.0
 10
14.7407031335
 20
13.8738994658
 30
0.0
 10
14.7338343576
 20
13.8742930659
 30
0.0
 10
14.7304669759
 20
13.8742930659
 30
0.0
  0
SPLINE
  5
420
100
AcDbEntity
  8
0
100
AcDbSpline
 62
7
  6
CONTINUOUS
 70
0
 71
3
 72
9
 73
5
 74
0
 42
0.0000001
 43
0.0000001
 44
0.0000000001
 40
0.0
 40
0.0
 40
0.0
 40
0.0
 40
0.2442463927
 40
1.0
 40
1.0
 40
1.0
 40
1.0
 10
14.3153361783
 20
12.1967588697
 30
0.0
 10
14.3182613807
 20
12.1907979338
 30
0.0
 10
14.3306137832
 20
12.1665779451
 30
0.0
 10
14.344416269
 20
12.1431046512
 30
0.0
 10
14.3555178418
 20
12.1258165337
 30
0.0
  0
SPLINE
  5
421
100
AcDbEntity
  8
0
100
AcDbSpline
 62
7
  6
CONTINUOUS
 70
0
 71
3
 72
13
 73
9
 74
0
 42
0.0000001
 43
0.0000001
 44
0.0000000001
 40
0.0
 40
0.0
 40
0.0
 40
0.0
 40
0.2740937679
 40
0.5302955288
 40
0.6524417716
 40
0.7710957228
 40
0.886755992
 40
1.0
 40
1.0
 40
1.0
 40
1.0
 10
16.1270342001
 20
11.5753096672
 30
0.0
 10
16.1555491053
 20
11.5871934147
 30
0.0
 10
16.2094431066
 20
11.6134581096
 30
0.0
 10
16.2706874186
 20
11.6546933441
 30
0.0
 10
16.313056349
 20
11.6914229848
 30
0.0
 10
16.3411188032
 20
11.7202459824
 30
0.0
 10
16.3658625965
 20
11.7506805553
 30
0.0
 10
16.3802073
 20
11.7721806461
 30
0.0
 10
16.3867600414
 20
11.783133456
 30
0.0
  0
SPLINE
  5
422
100
AcDbEntity
  8
0
100
AcDbSpline
 62
7
  6
CONTINUOUS
 70
0
 71
3
 72
14
 73
10
 74
0
 42
0.0000001
 43
0.0000001
 44
0.0000000001
 40
0.0
 40
0.0
 40
0.0
 40
0.0
 40
0.1338003136
 40
0.2699726499
 40
0.5390936616
 40
0.6673379904
 40
0.7882967768
 40
0.8998408583
 40
1.0
 40
1.0
 40
1.0
 40
1.0
 10
14.6111241033
 20
11.8175443241
 30
0.0
 10
14.6105693925
 20
11.8127276738
 30
0.0
 10
14.6097580801
 20
11.8029708263
 30
0.0
 10
14.6092672515
 20
11.7834356003
 30
0.0
 10
14.6104207198
 20
11.7640815002
 30
0.0
 10
14.6132752675
 20
11.7455066655
 30
0.0
 10
14.616154163
 20
11.7327421818
 30
0.0
 10
14.6197207384
 20
11.7212145516
 30
0.0
 10
14.6226604958
 20
11.7141096596
 30
0.0
 10
14.6242594193
 20
11.7108513961
 30
0.0
  0
SPLINE
  5
423
100
AcDbEntity
  8
0
100
AcDbSpline
 62
7
  6
CONTINUOUS
 70
0
 71
3
 72
9
 73
5
 74
0
 42
0.0000001
 43
0.0000001
 44
0.0000000001
 40
0.0
 40
0.0
 40
0.0
 40
0.0
 40
0.2710562624
 40
1.0
 40
1.0
 40
1.0
 40
1.0
 10
14.6460193122
 20
11.6759093638
 30
0.0
 10
14.6452989317
 20
11.6750477384
 30
0.0
 10
14.6425442216
 20
11.6719558928
 30
0.0
 10
14.6393528986
 20
11.6692192937
 30
0.0
 10
14.636782143
 20
11.6676338921
 30
0.0
  0
SPLINE
  5
424
100
AcDbEntity
  8
0
100
AcDbSpline
 62
7
  6
CONTINUOUS
 70
0
 71
3
 72
11
 73
7
 74
0
 42
0.0000001
 43
0.0000001
 44
0.0000000001
 40
0.0
 40
0.0
 40
0.0
 40
0.0
 40
0.2517917765
 40
0.5028944092
 40
0.752506801
 40
1.0
 40
1.0
 40
1.0
 40
1.0
 10
14.9116613885
 20
13.3716633102
 30
0.0
 10
14.9182354776
 20
13.3775571138
 30
0.0
 10
14.9306963946
 20
13.3901016322
 30
0.0
 10
14.9469971903
 20
13.4109279948
 30
0.0
 10
14.9606194467
 20
13.4334231782
 30
0.0
 10
14.9677705577
 20
13.4493785411
 30
0.0
 10
14.9708140002
 20
13.4575059046
 30
0.0
  0
SPLINE
  5
425
100
AcDbEntity
  8
0
100
AcDbSpline
 62
7
  6
CONTINUOUS
 70
0
 71
3
 72
12
 73
8
 74
0
 42
0.0000001
 43
0.0000001
 44
0.0000000001
 40
0.0
 40
0.0
 40
0.0
 40
0.0
 40
0.2409075365
 40
0.4904040407
 40
0.6171830121
 40
0.7446898129
 40
1.0
 40
1.0
 40
1.0
 40
1.0
 10
14.8663916667
 20
13.8214813286
 30
0.0
 10
14.8497920539
 20
13.8213394475
 30
0.0
 10
14.8159877579
 20
13.8184710034
 30
0.0
 10
14.7743661113
 20
13.809139748
 30
0.0
 10
14.7413751648
 20
13.7982670125
 30
0.0
 10
14.7087780159
 20
13.7851657
 30
0.0
 10
14.6852666045
 20
13.7729992172
 30
0.0
 10
14.6701896553
 20
13.7639334913
 30
0.0
  0
SPLINE
  5
426
100
AcDbEntity
  8
0
100
AcDbSpline
 62
7
  6
CONTINUOUS
 70
0
 71
3
 72
9
 73
5
 74
0
 42
0.0000001
 43
0.0000001
 44
0.0000000001
 40
0.0
 40
0.0
 40
0.0
 40
0.0
 40
0.2525191211
 40
1.0
 40
1.0
 40
1.0
 40
1.0
 10
14.6585443645
 20
13.7566640553
 30
0.0
 10
14.6538830487
 20
13.7536447518
 30
0.0
 10
14.6356691117
 20
13.7413146584
 30
0.0
 10
14.6184683636
 20
13.7274786572
 30
0.0
 10
14.6063649063
 20
13.7163535872
 30
0.0
  0
SPLINE
  5
427
100
AcDbEntity
  8
0
100
AcDbSpline
 62
7
  6
CONTINUOUS
 70
0
 71
3
 72
23
 73
19
 74
0
 42
0.0000001
 43
0.0000001
 44
0.0000000001
 40
0.0
 40
0.0
 40
0.0
 40
0.0
 40
0.0449042289
 40
0.086971925
 40
0.1260064697
 40
0.1625055714
 40
0.1971630599
 40
0.2304452724
 40
0.2942179237
 40
0.3557599983
 40
0.3860207465
 40
0.4160427294
 40
0.4755517717
 40
0.5345718025
 40
0.6516946318
 40
0.7681230388
 40
0.8841756201
 40
1.0
 40
1.0
 40
1.0
 40
1.0
 10
14.7304669759
 20
13.8742930659
 30
0.0
 10
14.7268826511
 20
13.8742930659
 30
0.0
 10
14.7199324044
 20
13.873866243
 30
0.0
 10
14.7100199003
 20
13.8720242293
 30
0.0
 10
14.701050425
 20
13.8691739921
 30
0.0
 10
14.6930309858
 20
13.8655161032
 30
0.0
 10
14.6858327386
 20
13.861287864
 30
0.0
 10
14.6772334765
 20
13.8552214053
 30
0.0
 10
14.6677360228
 20
13.8467941379
 30
0.0
 10
14.6593352266
 20
13.8376290424
 30
0.0
 10
14.653187357
 20
13.8300929327
 30
0.0
 10
14.647370201
 20
13.8225023391
 30
0.0
 10
14.6405506488
 20
13.8127958129
 30
0.0
 10
14.6303670514
 20
13.7969766344
 30
0.0
 10
14.6186886323
 20
13.7767381954
 30
0.0
 10
14.6057546885
 20
13.7520060682
 30
0.0
 10
14.593541361
 20
13.7270273057
 30
0.0
 10
14.5857368585
 20
13.7102433872
 30
0.0
 10
14.5819011667
 20
13.7018313314
 30
0.0
  0
SPLINE
  5
428
100
AcDbEntity
  8
0
100
AcDbSpline
 62
7
  6
CONTINUOUS
 70
0
 71
3
 72
10
 73
6
 74
0
 42
0.0000001
 43
0.0000001
 44
0.0000000001
 40
0.0
 40
0.0
 40
0.0
 40
0.0
 40
0.2063267282
 40
0.4456341794
 40
1.0
 40
1.0
 40
1.0
 40
1.0
 10
14.5819011667
 20
13.7018313314
 30
0.0
 10
14.5810299004
 20
13.6999205571
 30
0.0
 10
14.5789948239
 20
13.6958639576
 30
0.0
 10
14.5740977394
 20
13.6869405326
 30
0.0
 10
14.5699706743
 20
13.6799938006
 30
0.0
 10
14.5670608272
 20
13.6751595357
 30
0.0
  0
SPLINE
  5
429
100
AcDbEntity
  8
0
100
AcDbSpline
 62
7
  6
CONTINUOUS
 70
0
 71
3
 72
11
 73
7
 74
0
 42
0.0000001
 43
0.0000001
 44
0.0000000001
 40
0.0
 40
0.0
 40
0.0
 40
0.0
 40
0.2710367522
 40
0.5252683686
 40
0.7663113103
 40
1.0
 40
1.0
 40
1.0
 40
1.0
 10
15.9985910107
 20
12.9466542744
 30
0.0
 10
15.9959432319
 20
12.9520498802
 30
0.0
 10
15.9915557224
 20
12.9629004665
 30
0.0
 10
15.9879004544
 20
12.9795882808
 30
0.0
 10
15.9875297885
 20
12.9958570748
 30
0.0
 10
15.9895459488
 20
13.0062882283
 30
0.0
 10
15.9910761051
 20
13.0112392342
 30
0.0
  0
SPLINE
  5
42A
100
AcDbEntity
  8
0
100
AcDbSpline
 62
7
  6
CONTINUOUS
 70
0
 71
3
 72
15
 73
11
 74
0
 42
0.0000001
 43
0.0000001
 44
0.0000000001
 40
0.0
 40
0.0
 40
0.0
 40
0.0
 40
0.1127938086
 40
0.22704276
 40
0.3441601349
 40
0.4652903664
 40
0.5913114141
 40
0.72268402
 40
0.8591200882
 40
1.0
 40
1.0
 40
1.0
 40
1.0
 10
14.8241155236
 20
12.3206100667
 30
0.0
 10
14.825728774
 20
12.3173224755
 30
0.0
 10
14.8295397
 20
12.310964811
 30
0.0
 10
14.8368359987
 20
12.3024378093
 30
0.0
 10
14.8456143698
 20
12.2950217567
 30
0.0
 10
14.8557253025
 20
12.2888069576
 30
0.0
 10
14.8670315642
 20
12.2838934531
 30
0.0
 10
14.8793552732
 20
12.280362413
 30
0.0
 10
14.8924780855
 20
12.2782245668
 30
0.0
 10
14.9014899284
 20
12.2777572284
 30
0.0
 10
14.9060638813
 20
12.2777572284
 30
0.0
  0
SPLINE
  5
42B
100
AcDbEntity
  8
0
100
AcDbSpline
 62
7
  6
CONTINUOUS
 70
0
 71
3
 72
9
 73
5
 74
0
 42
0.0000001
 43
0.0000001
 44
0.0000000001
 40
0.0
 40
0.0
 40
0.0
 40
0.0
 40
0.2478960923
 40
1.0
 40
1.0
 40
1.0
 40
1.0
 10
14.6529341976
 20
11.6641834022
 30
0.0
 10
14.6535076592
 20
11.6641833651
 30
0.0
 10
14.6558205978
 20
11.6642520772
 30
0.0
 10
14.6581241958
 20
11.6645992801
 30
0.0
 10
14.6598164067
 20
11.6650036441
 30
0.0
  0
SPLINE
  5
42C
100
AcDbEntity
  8
0
100
AcDbSpline
 62
7
  6
CONTINUOUS
 70
0
 71
3
 72
9
 73
5
 74
0
 42
0.0000001
 43
0.0000001
 44
0.0000000001
 40
0.0
 40
0.0
 40
0.0
 40
0.0
 40
0.4724988891
 40
1.0
 40
1.0
 40
1.0
 40
1.0
 10
14.6598164067
 20
11.6650036441
 30
0.0
 10
14.6633258107
 20
11.6658422373
 30
0.0
 10
14.6704607367
 20
11.6689455513
 30
0.0
 10
14.67639638
 20
11.6738888727
 30
0.0
 10
14.67919892
 20
11.6767823803
 30
0.0
  0
SPLINE
  5
42D
100
AcDbEntity
  8
0
100
AcDbSpline
 62
7
  6
CONTINUOUS
 70
0
 71
3
 72
9
 73
5
 74
0
 42
0.0000001
 43
0.0000001
 44
0.0000000001
 40
0.0
 40
0.0
 40
0.0
 40
0.0
 40
0.2396544835
 40
1.0
 40
1.0
 40
1.0
 40
1.0
 10
14.67919892
 20
11.6767823803
 30
0.0
 10
14.6798740091
 20
11.677479382
 30
0.0
 10
14.6826143974
 20
11.6804616429
 30
0.0
 10
14.6850454947
 20
11.6837220669
 30
0.0
 10
14.6867328643
 20
11.6862970156
 30
0.0
  0
SPLINE
  5
42E
100
AcDbEntity
  8
0
100
AcDbSpline
 62
7
  6
CONTINUOUS
 70
0
 71
3
 72
16
 73
12
 74
0
 42
0.0000001
 43
0.0000001
 44
0.0000000001
 40
0.0
 40
0.0
 40
0.0
 40
0.0
 40
0.0993032868
 40
0.2106381024
 40
0.2704818002
 40
0.3327253163
 40
0.4630131187
 40
0.5985432568
 40
0.7357775593
 40
0.8708893116
 40
1.0
 40
1.0
 40
1.0
 40
1.0
 10
14.6867328643
 20
11.6862970156
 30
0.0
 10
14.6897860553
 20
11.6909562258
 30
0.0
 10
14.6951973533
 20
11.7015504837
 30
0.0
 10
14.6998064765
 20
11.7160625953
 30
0.0
 10
14.7025042161
 20
11.7288827523
 30
0.0
 10
14.7045759753
 20
11.7428952421
 30
0.0
 10
14.7057201496
 20
11.7612993565
 30
0.0
 10
14.7049791899
 20
11.7839231904
 30
0.0
 10
14.7024269558
 20
11.8066823337
 30
0.0
 10
14.6983208931
 20
11.8288417205
 30
0.0
 10
14.6946593024
 20
11.8432173907
 30
0.0
 10
14.6926273238
 20
11.8501690425
 30
0.0
  0
SPLINE
  5
42F
100
AcDbEntity
  8
0
100
AcDbSpline
 62
7
  6
CONTINUOUS
 70
0
 71
3
 72
9
 73
5
 74
0
 42
0.0000001
 43
0.0000001
 44
0.0000000001
 40
0.0
 40
0.0
 40
0.0
 40
0.0
 40
0.2601959008
 40
1.0
 40
1.0
 40
1.0
 40
1.0
 10
14.6926273238
 20
11.8501690425
 30
0.0
 10
14.6921008188
 20
11.8519702818
 30
0.0
 10
14.6900136301
 20
11.8588739831
 30
0.0
 10
14.6876744236
 20
11.8657026397
 30
0.0
 10
14.6857792845
 20
11.8706904291
 30
0.0
  0
SPLINE
  5
430
100
AcDbEntity
  8
0
100
AcDbSpline
 62
7
  6
CONTINUOUS
 70
0
 71
3
 72
14
 73
10
 74
0
 42
0.0000001
 43
0.0000001
 44
0.0000000001
 40
0.0
 40
0.0
 40
0.0
 40
0.0
 40
0.109499341
 40
0.2205050422
 40
0.3350985805
 40
0.4549478807
 40
0.7142017461
 40
0.8542291173
 40
1.0
 40
1.0
 40
1.0
 40
1.0
 10
14.8319842365
 20
12.3045714808
 30
0.0
 10
14.8334947616
 20
12.3014930063
 30
0.0
 10
14.8370998814
 20
12.2955519078
 30
0.0
 10
14.8440948207
 20
12.2876599603
 30
0.0
 10
14.8525782849
 20
12.2808681114
 30
0.0
 10
14.8660359388
 20
12.2731540821
 30
0.0
 10
14.8817396087
 20
12.2682108124
 30
0.0
 10
14.8986397227
 20
12.2657378646
 30
0.0
 10
14.9075997398
 20
12.265325029
 30
0.0
 10
14.9121647186
 20
12.265325029
 30
0.0
  0
SPLINE
  5
431
100
AcDbEntity
  8
0
100
AcDbSpline
 62
7
  6
CONTINUOUS
 70
0
 71
3
 72
11
 73
7
 74
0
 42
0.0000001
 43
0.0000001
 44
0.0000000001
 40
0.0
 40
0.0
 40
0.0
 40
0.0
 40
0.2710367522
 40
0.5252683686
 40
0.7663113103
 40
1.0
 40
1.0
 40
1.0
 40
1.0
 10
16.888341847
 20
11.1335327011
 30
0.0
 10
16.8856940682
 20
11.138928307
 30
0.0
 10
16.8813065587
 20
11.1497788933
 30
0.0
 10
16.8776512907
 20
11.1664667076
 30
0.0
 10
16.8772806249
 20
11.1827355016
 30
0.0
 10
16.8792967851
 20
11.193166655
 30
0.0
 10
16.8808269414
 20
11.198117661
 30
0.0
  0
SPLINE
  5
432
100
AcDbEntity
  8
0
100
AcDbSpline
 62
7
  6
CONTINUOUS
 70
0
 71
3
 72
11
 73
7
 74
0
 42
0.0000001
 43
0.0000001
 44
0.0000000001
 40
0.0
 40
0.0
 40
0.0
 40
0.0
 40
0.2710367522
 40
0.5252683686
 40
0.7663113103
 40
1.0
 40
1.0
 40
1.0
 40
1.0
 10
14.2017768886
 20
11.1335327011
 30
0.0
 10
14.1991291099
 20
11.138928307
 30
0.0
 10
14.1947416004
 20
11.1497788933
 30
0.0
 10
14.1910863324
 20
11.1664667076
 30
0.0
 10
14.1907156665
 20
11.1827355016
 30
0.0
 10
14.1927318268
 20
11.193166655
 30
0.0
 10
14.1942619831
 20
11.198117661
 30
0.0
  0
SPLINE
  5
433
100
AcDbEntity
  8
0
100
AcDbSpline
 62
7
  6
CONTINUOUS
 70
0
 71
3
 72
11
 73
7
 74
0
 42
0.0000001
 43
0.0000001
 44
0.0000000001
 40
0.0
 40
0.0
 40
0.0
 40
0.0
 40
0.2550870469
 40
0.5058552993
 40
0.7536804538
 40
1.0
 40
1.0
 40
1.0
 40
1.0
 10
14.4329560482
 20
12.6131136656
 30
0.0
 10
14.4260924162
 20
12.6044463671
 30
0.0
 10
14.4132155715
 20
12.5866597076
 30
0.0
 10
14.3965200961
 20
12.5585307373
 30
0.0
 10
14.3826755957
 20
12.5293135245
 30
0.0
 10
14.3753652203
 20
12.5091422585
 30
0.0
 10
14.3722110188
 20
12.4989430148
 30
0.0
  0
SPLINE
  5
434
100
AcDbEntity
  8
0
100
AcDbSpline
 62
7
  6
CONTINUOUS
 70
0
 71
3
 72
34
 73
30
 74
0
 42
0.0000001
 43
0.0000001
 44
0.0000000001
 40
0.0
 40
0.0
 40
0.0
 40
0.0
 40
0.0265057758
 40
0.0543595209
 40
0.1139692018
 40
0.1456729833
 40
0.1785405461
 40
0.2124797405
 40
0.2473662474
 40
0.3194009095
 40
0.3934537205
 40
0.4308353899
 40
0.468218739
 40
0.5422827069
 40
0.6143376149
 40
0.6492366162
 40
0.6831933308
 40
0.7160843689
 40
0.7478099077
 40
0.7782930539
 40
0.8074761864
 40
0.8353390699
 40
0.8618964015
 40
0.8871966922
 40
0.9113411632
 40
0.9344775575
 40
0.9567989033
 40
0.9785483377
 40
1.0
 40
1.0
 40
1.0
 40
1.0
 10
16.1764725024
 20
12.1184261787
 30
0.0
 10
16.1685264474
 20
12.1346185364
 30
0.0
 10
16.1505313666
 20
12.1670143776
 30
0.0
 10
16.106950585
 20
12.231257964
 30
0.0
 10
16.0532350377
 20
12.2924971425
 30
0.0
 10
15.9914218034
 20
12.3501633244
 30
0.0
 10
15.9395744607
 20
12.392731648
 30
0.0
 10
15.8835500635
 20
12.4334164929
 30
0.0
 10
15.8029485819
 20
12.485373243
 30
0.0
 10
15.6942211066
 20
12.543695381
 30
0.0
 10
15.5787817402
 20
12.5917694755
 30
0.0
 10
15.4827385846
 20
12.6239848899
 30
0.0
 10
15.3852777218
 20
12.6516443481
 30
0.0
 10
15.2628400119
 20
12.677176821
 30
0.0
 10
15.1401460788
 20
12.6904710745
 30
0.0
 10
15.0442528947
 20
12.6931282552
 30
0.0
 10
14.975003014
 20
12.6912022775
 30
0.0
 10
14.9081368968
 20
12.6853691785
 30
0.0
 10
14.8441068031
 20
12.6756678357
 30
0.0
 10
14.7833410297
 20
12.6621850812
 30
0.0
 10
14.726254502
 20
12.6449795374
 30
0.0
 10
14.6732328784
 20
12.624168538
 30
0.0
 10
14.6246234933
 20
12.5999053823
 30
0.0
 10
14.580772793
 20
12.5723094834
 30
0.0
 10
14.5419822313
 20
12.5415655559
 30
0.0
 10
14.5085136734
 20
12.5078810782
 30
0.0
 10
14.480651792
 20
12.4714394971
 30
0.0
 10
14.4586038189
 20
12.43252502
 30
0.0
 10
14.4478554103
 20
12.4050328348
 30
0.0
 10
14.4435425639
 20
12.3910868046
 30
0.0
  0
SPLINE
  5
435
100
AcDbEntity
  8
0
100
AcDbSpline
 62
7
  6
CONTINUOUS
 70
0
 71
3
 72
22
 73
18
 74
0
 42
0.0000001
 43
0.0000001
 44
0.0000000001
 40
0.0
 40
0.0
 40
0.0
 40
0.0
 40
0.0651382835
 40
0.132626897
 40
0.2709614704
 40
0.3404223256
 40
0.40917439
 40
0.4766695163
 40
0.5424534503
 40
0.6061820322
 40
0.6676897106
 40
0.7269675982
 40
0.7841555126
 40
0.8395860105
 40
0.8936841263
 40
0.9469609432
 40
1.0
 40
1.0
 40
1.0
 40
1.0
 10
14.9121647186
 20
12.265325029
 30
0.0
 10
14.9174536913
 20
12.265325029
 30
0.0
 10
14.9282294323
 20
12.2658974044
 30
0.0
 10
14.9500132677
 20
12.269131428
 30
0.0
 10
14.9716101274
 20
12.2754484433
 30
0.0
 10
14.9921272507
 20
12.2846307138
 30
0.0
 10
15.0066865166
 20
12.2928739131
 30
0.0
 10
15.0200987714
 20
12.3023687968
 30
0.0
 10
15.0321261583
 20
12.3129642855
 30
0.0
 10
15.0425230579
 20
12.3245262516
 30
0.0
 10
15.0510566389
 20
12.3368933799
 30
0.0
 10
15.0575901956
 20
12.3498377419
 30
0.0
 10
15.061961361
 20
12.3631536444
 30
0.0
 10
15.0640603544
 20
12.3765885617
 30
0.0
 10
15.0638922405
 20
12.3898728164
 30
0.0
 10
15.0614280658
 20
12.4027305312
 30
0.0
 10
15.0582976313
 20
12.4108327755
 30
0.0
 10
15.0564005434
 20
12.4146989807
 30
0.0
  0
SPLINE
  5
436
100
AcDbEntity
  8
0
100
AcDbSpline
 62
7
  6
CONTINUOUS
 70
0
 71
3
 72
14
 73
10
 74
0
 42
0.0000001
 43
0.0000001
 44
0.0000000001
 40
0.0
 40
0.0
 40
0.0
 40
0.0
 40
0.2710470915
 40
0.4001047923
 40
0.5252742677
 40
0.6470733929
 40
0.7662262141
 40
0.883572081
 40
1.0
 40
1.0
 40
1.0
 40
1.0
 10
14.5709291824
 20
11.5382746863
 30
0.0
 10
14.5633567332
 20
11.5537057153
 30
0.0
 10
14.553784252
 20
11.5773587226
 30
0.0
 10
14.5453487651
 20
11.6096183493
 30
0.0
 10
14.541417296
 20
11.6331755536
 30
0.0
 10
14.5398260759
 20
11.6563769831
 30
0.0
 10
14.5405793061
 20
11.6791277012
 30
0.0
 10
14.5436638551
 20
11.7013359754
 30
0.0
 10
14.5472745398
 20
11.7157499187
 30
0.0
 10
14.5494545588
 20
11.7228042224
 30
0.0
  0
SPLINE
  5
437
100
AcDbEntity
  8
0
100
AcDbSpline
 62
7
  6
CONTINUOUS
 70
0
 71
3
 72
22
 73
18
 74
0
 42
0.0000001
 43
0.0000001
 44
0.0000000001
 40
0.0
 40
0.0
 40
0.0
 40
0.0
 40
0.0486805616
 40
0.1001619847
 40
0.1543854173
 40
0.2112450722
 40
0.2705953957
 40
0.3322413528
 40
0.3959069077
 40
0.4612702448
 40
0.5279846616
 40
0.5956734729
 40
0.6639481959
 40
0.7324077061
 40
0.8682013396
 40
0.9347961372
 40
1.0
 40
1.0
 40
1.0
 40
1.0
 10
15.9971921316
 20
11.5382746863
 30
0.0
 10
15.9881336445
 20
11.5567339422
 30
0.0
 10
15.9672822003
 20
11.59365526
 30
0.0
 10
15.9296741691
 20
11.6470385195
 30
0.0
 10
15.8851871871
 20
11.6994570773
 30
0.0
 10
15.8342257917
 20
11.7504052663
 30
0.0
 10
15.777261642
 20
11.7994799281
 30
0.0
 10
15.714761959
 20
11.8462402149
 30
0.0
 10
15.6472892837
 20
11.8903105606
 30
0.0
 10
15.5754276154
 20
11.9312956098
 30
0.0
 10
15.4997991671
 20
11.9688159654
 30
0.0
 10
15.4210823852
 20
12.0025760844
 30
0.0
 10
15.3399473596
 20
12.0322504132
 30
0.0
 10
15.2298364769
 20
12.0659469624
 30
0.0
 10
15.1178436051
 20
12.0906181297
 30
0.0
 10
15.0057718099
 20
12.1056220375
 30
0.0
 10
14.9502178155
 20
12.109806296
 30
0.0
 10
14.9227035651
 20
12.1110280103
 30
0.0
  0
SPLINE
  5
438
100
AcDbEntity
  8
0
100
AcDbSpline
 62
7
  6
CONTINUOUS
 70
0
 71
3
 72
21
 73
17
 74
0
 42
0.0000001
 43
0.0000001
 44
0.0000000001
 40
0.0
 40
0.0
 40
0.0
 40
0.0
 40
0.0792542709
 40
0.1566437513
 40
0.3049638471
 40
0.3756321319
 40
0.4437930198
 40
0.509370928
 40
0.5723534995
 40
0.6906026613
 40
0.7462213911
 40
0.7997547993
 40
0.8514985416
 40
0.9018240353
 40
0.9511667735
 40
1.0
 40
1.0
 40
1.0
 40
1.0
 10
14.9227035651
 20
12.1110280103
 30
0.0
 10
14.9022653429
 20
12.1119355279
 30
0.0
 10
14.8618195918
 20
12.1128067028
 30
0.0
 10
14.7831074116
 20
12.1107143288
 30
0.0
 10
14.7068176813
 20
12.102937771
 30
0.0
 10
14.6339709422
 20
12.089041276
 30
0.0
 10
14.5828101322
 20
12.0759859672
 30
0.0
 10
14.5345062106
 20
12.0601717065
 30
0.0
 10
14.4755005116
 20
12.0360614925
 30
0.0
 10
14.4215865346
 20
12.0064845001
 30
0.0
 10
14.3745339168
 20
11.9712557652
 30
0.0
 10
14.3438665178
 20
11.9431343302
 30
0.0
 10
14.3172917251
 20
11.9129058659
 30
0.0
 10
14.2949697299
 20
11.8807109352
 30
0.0
 10
14.2770073377
 20
11.8467443563
 30
0.0
 10
14.2679874877
 20
11.8229778777
 30
0.0
 10
14.2642632561
 20
11.8109349841
 30
0.0
  0
SPLINE
  5
439
100
AcDbEntity
  8
0
100
AcDbSpline
 62
7
  6
CONTINUOUS
 70
0
 71
3
 72
9
 73
5
 74
0
 42
0.0000001
 43
0.0000001
 44
0.0000000001
 40
0.0
 40
0.0
 40
0.0
 40
0.0
 40
0.5041499862
 40
1.0
 40
1.0
 40
1.0
 40
1.0
 10
14.7286301771
 20
13.3302261945
 30
0.0
 10
14.7174452568
 20
13.3302261945
 30
0.0
 10
14.6952150794
 20
13.3321713995
 30
0.0
 10
14.673677054
 20
13.3380574355
 30
0.0
 10
14.663388874
 20
13.341952369
 30
0.0
  0
SPLINE
  5
43A
100
AcDbEntity
  8
0
100
AcDbSpline
 62
7
  6
CONTINUOUS
 70
0
 71
3
 72
11
 73
7
 74
0
 42
0.0000001
 43
0.0000001
 44
0.0000000001
 40
0.0
 40
0.0
 40
0.0
 40
0.0
 40
0.2488436164
 40
0.4976551673
 40
0.7478985726
 40
1.0
 40
1.0
 40
1.0
 40
1.0
 10
14.6401319443
 20
13.3528164627
 30
0.0
 10
14.6321304173
 20
13.3573193329
 30
0.0
 10
14.6168315516
 20
13.3676497753
 30
0.0
 10
14.596748312
 20
13.3867535086
 30
0.0
 10
14.5799938762
 20
13.4089779538
 30
0.0
 10
14.5712894909
 20
13.4254462123
 30
0.0
 10
14.567609728
 20
13.4339891246
 30
0.0
  0
SPLINE
  5
43B
100
AcDbEntity
  8
0
100
AcDbSpline
 62
7
  6
CONTINUOUS
 70
0
 71
3
 72
14
 73
10
 74
0
 42
0.0000001
 43
0.0000001
 44
0.0000000001
 40
0.0
 40
0.0
 40
0.0
 40
0.0
 40
0.255496416
 40
0.381508415
 40
0.5062182901
 40
0.6299364091
 40
0.7531478431
 40
0.8763572711
 40
1.0
 40
1.0
 40
1.0
 40
1.0
 10
14.7825028224
 20
13.7452779151
 30
0.0
 10
14.7960745745
 20
13.7452779151
 30
0.0
 10
14.8164351037
 20
13.7431104427
 30
0.0
 10
14.8423774108
 20
13.735885261
 30
0.0
 10
14.8608502906
 20
13.7283842688
 30
0.0
 10
14.8781906177
 20
13.7188572491
 30
0.0
 10
14.8942381052
 20
13.7074178391
 30
0.0
 10
14.9088206466
 20
13.6941701569
 30
0.0
 10
14.9174394553
 20
13.6842412359
 30
0.0
 10
14.9214532986
 20
13.6790426772
 30
0.0
  0
SPLINE
  5
43C
100
AcDbEntity
  8
0
100
AcDbSpline
 62
7
  6
CONTINUOUS
 70
0
 71
3
 72
11
 73
7
 74
0
 42
0.0000001
 43
0.0000001
 44
0.0000000001
 40
0.0
 40
0.0
 40
0.0
 40
0.0
 40
0.2710367522
 40
0.5252683686
 40
0.7663113103
 40
1.0
 40
1.0
 40
1.0
 40
1.0
 10
13.3120260523
 20
12.9466542744
 30
0.0
 10
13.3093782736
 20
12.9520498802
 30
0.0
 10
13.3049907641
 20
12.9629004665
 30
0.0
 10
13.3013354961
 20
12.9795882808
 30
0.0
 10
13.3009648302
 20
12.9958570748
 30
0.0
 10
13.3029809905
 20
13.0062882283
 30
0.0
 10
13.3045111468
 20
13.0112392342
 30
0.0
  0
SPLINE
  5
43D
100
AcDbEntity
  8
0
100
AcDbSpline
 62
7
  6
CONTINUOUS
 70
0
 71
3
 72
11
 73
7
 74
0
 42
0.0000001
 43
0.0000001
 44
0.0000000001
 40
0.0
 40
0.0
 40
0.0
 40
0.0
 40
0.2445005289
 40
0.4912359661
 40
0.7423957549
 40
1.0
 40
1.0
 40
1.0
 40
1.0
 10
16.3158433056
 20
11.85540869
 30
0.0
 10
16.3197308906
 20
11.867978583
 30
0.0
 10
16.3260554923
 20
11.8937200612
 30
0.0
 10
16.330996017
 20
11.933450169
 30
0.0
 10
16.3314125198
 20
11.9741854372
 30
0.0
 10
16.3287091713
 20
12.0014902212
 30
0.0
 10
16.3266439988
 20
12.0151980171
 30
0.0
  0
SPLINE
  5
43E
100
AcDbEntity
  8
0
100
AcDbSpline
 62
7
  6
CONTINUOUS
 70
0
 71
3
 72
9
 73
5
 74
0
 42
0.0000001
 43
0.0000001
 44
0.0000000001
 40
0.0
 40
0.0
 40
0.0
 40
0.0
 40
0.2455871923
 40
1.0
 40
1.0
 40
1.0
 40
1.0
 10
16.3232654427
 20
12.0345182992
 30
0.0
 10
16.3223027238
 20
12.0393588302
 30
0.0
 10
16.3180433998
 20
12.0590004836
 30
0.0
 10
16.3124566669
 20
12.0783492499
 30
0.0
 10
16.3075930356
 20
12.0927086728
 30
0.0
  0
SPLINE
  5
43F
100
AcDbEntity
  8
0
100
AcDbSpline
 62
7
  6
CONTINUOUS
 70
0
 71
3
 72
34
 73
30
 74
0
 42
0.0000001
 43
0.0000001
 44
0.0000000001
 40
0.0
 40
0.0
 40
0.0
 40
0.0
 40
0.0214502404
 40
0.0432003429
 40
0.0655223558
 40
0.0886576177
 40
0.1128037702
 40
0.1381037035
 40
0.1924692854
 40
0.221653046
 40
0.2521332994
 40
0.283861341
 40
0.3167530772
 40
0.385580169
 40
0.4212890362
 40
0.457657659
 40
0.531724208
 40
0.5691077221
 40
0.6064891981
 40
0.6436989878
 40
0.6805683175
 40
0.752608848
 40
0.7874993247
 40
0.821438493
 40
0.8543085789
 40
0.8860200244
 40
0.9456456358
 40
0.973500319
 40
1.0
 40
1.0
 40
1.0
 40
1.0
 10
15.7437300486
 20
11.3537451501
 30
0.0
 10
15.7408134271
 20
11.3443072811
 30
0.0
 10
15.7335395907
 20
11.3257017484
 30
0.0
 10
15.7186078907
 20
11.2993729204
 30
0.0
 10
15.6997566394
 20
11.2747089985
 30
0.0
 10
15.6771147349
 20
11.2519043111
 30
0.0
 10
15.6508539958
 20
11.2311071195
 30
0.0
 10
15.6103307451
 20
11.2055994173
 30
0.0
 10
15.5640780855
 20
11.1854479303
 30
0.0
 10
15.5137758177
 20
11.1702835386
 30
0.0
 10
15.4726498182
 20
11.1611448972
 30
0.0
 10
15.4293160243
 20
11.1545922864
 30
0.0
 10
15.3680615996
 20
11.1492452794
 30
0.0
 10
15.3046153909
 20
11.1494111848
 30
0.0
 10
15.2399182077
 20
11.1546467898
 30
0.0
 10
15.1731720961
 20
11.1634731516
 30
0.0
 10
15.1064128078
 20
11.1774131741
 30
0.0
 10
15.0404544564
 20
11.196114096
 30
0.0
 10
14.9915475377
 20
11.2125255899
 30
0.0
 10
14.9436951053
 20
11.2311542387
 30
0.0
 10
14.8822143331
 20
11.2585515533
 30
0.0
 10
14.8237429363
 20
11.2899344394
 30
0.0
 10
14.7691866069
 20
11.325084767
 30
0.0
 10
14.7312697188
 20
11.3526206534
 30
0.0
 10
14.6961797656
 20
11.3814324419
 30
0.0
 10
14.6543348131
 20
11.4204616551
 30
0.0
 10
14.6179828753
 20
11.4619199885
 30
0.0
 10
14.5884839454
 20
11.5053982251
 30
0.0
 10
14.5763054023
 20
11.5273191019
 30
0.0
 10
14.5709291824
 20
11.5382746863
 30
0.0
  0
SPLINE
  5
440
100
AcDbEntity
  8
0
100
AcDbSpline
 62
7
  6
CONTINUOUS
 70
0
 71
3
 72
10
 73
6
 74
0
 42
0.0000001
 43
0.0000001
 44
0.0000000001
 40
0.0
 40
0.0
 40
0.0
 40
0.0
 40
0.4905193728
 40
0.7431844291
 40
1.0
 40
1.0
 40
1.0
 40
1.0
 10
14.567609728
 20
13.4339891246
 30
0.0
 10
14.5607483469
 20
13.4499184601
 30
0.0
 10
14.5538868053
 20
13.4757437371
 30
0.0
 10
14.5516999057
 20
13.5110915448
 30
0.0
 10
14.5529428684
 20
13.5291286456
 30
0.0
 10
14.5541274503
 20
13.5381317675
 30
0.0
  0
SPLINE
  5
441
100
AcDbEntity
  8
0
100
AcDbSpline
 62
7
  6
CONTINUOUS
 70
0
 71
3
 72
14
 73
10
 74
0
 42
0.0000001
 43
0.0000001
 44
0.0000000001
 40
0.0
 40
0.0
 40
0.0
 40
0.0
 40
0.1164359116
 40
0.2337799401
 40
0.3529199549
 40
0.474687952
 40
0.5998285278
 40
0.7288829899
 40
1.0
 40
1.0
 40
1.0
 40
1.0
 10
16.0289213512
 20
11.2656143885
 30
0.0
 10
16.0321448154
 20
11.2760379712
 30
0.0
 10
16.0374814188
 20
11.2973365725
 30
0.0
 10
16.0420363259
 20
11.3301515505
 30
0.0
 10
16.0431469826
 20
11.3637637279
 30
0.0
 10
16.040804082
 20
11.3980398569
 30
0.0
 10
16.0350017392
 20
11.4328435133
 30
0.0
 10
16.0225345616
 20
11.4805137518
 30
0.0
 10
16.0083841283
 20
11.515467795
 30
0.0
 10
15.9971921316
 20
11.5382746863
 30
0.0
  0
SPLINE
  5
442
100
AcDbEntity
  8
0
100
AcDbSpline
 62
7
  6
CONTINUOUS
 70
0
 71
3
 72
15
 73
11
 74
0
 42
0.0000001
 43
0.0000001
 44
0.0000000001
 40
0.0
 40
0.0
 40
0.0
 40
0.0
 40
0.1280032036
 40
0.2563968216
 40
0.3842269839
 40
0.5108458574
 40
0.6360009745
 40
0.7595105042
 40
0.8810106722
 40
1.0
 40
1.0
 40
1.0
 40
1.0
 10
14.9165869489
 20
13.4339891246
 30
0.0
 10
14.911182302
 20
13.4261600875
 30
0.0
 10
14.8994296918
 20
13.4110976124
 30
0.0
 10
14.879398459
 20
13.3906648994
 30
0.0
 10
14.8572459988
 20
13.3727051537
 30
0.0
 10
14.8333462165
 20
13.3575914365
 30
0.0
 10
14.8081182316
 20
13.3455396828
 30
0.0
 10
14.7819586603
 20
13.3367925965
 30
0.0
 10
14.7553664879
 20
13.3314651286
 30
0.0
 10
14.7374736151
 20
13.3302261945
 30
0.0
 10
14.7286301771
 20
13.3302261945
 30
0.0
  0
SPLINE
  5
443
100
AcDbEntity
  8
0
100
AcDbSpline
 62
7
  6
CONTINUOUS
 70
0
 71
3
 72
14
 73
10
 74
0
 42
0.0000001
 43
0.0000001
 44
0.0000000001
 40
0.0
 40
0.0
 40
0.0
 40
0.0
 40
0.2377858802
 40
0.360257355
 40
0.4847335224
 40
0.6112428706
 40
0.7397066215
 40
0.8695910004
 40
1.0
 40
1.0
 40
1.0
 40
1.0
 10
14.9435232716
 20
13.6415149849
 30
0.0
 10
14.9503604396
 20
13.6256418623
 30
0.0
 10
14.9572099494
 20
13.599916711
 30
0.0
 10
14.959429787
 20
13.5646937204
 30
0.0
 10
14.9576006545
 20
13.5375291939
 30
0.0
 10
14.9523281428
 20
13.5103896143
 30
0.0
 10
14.9436640306
 20
13.4837202213
 30
0.0
 10
14.9318221413
 20
13.4579998716
 30
0.0
 10
14.921971811
 20
13.4417895018
 30
0.0
 10
14.9165869489
 20
13.4339891246
 30
0.0
  0
SPLINE
  5
444
100
AcDbEntity
  8
0
100
AcDbSpline
 62
7
  6
CONTINUOUS
 70
0
 71
3
 72
14
 73
10
 74
0
 42
0.0000001
 43
0.0000001
 44
0.0000000001
 40
0.0
 40
0.0
 40
0.0
 40
0.0
 40
0.1164352688
 40
0.2337776895
 40
0.3529156598
 40
0.4746812473
 40
0.5998201932
 40
0.7288755373
 40
1.0
 40
1.0
 40
1.0
 40
1.0
 10
16.2082027849
 20
11.8457655529
 30
0.0
 10
16.2114262884
 20
11.8561890814
 30
0.0
 10
16.2167631223
 20
11.8774874567
 30
0.0
 10
16.2213176505
 20
11.9103021631
 30
0.0
 10
16.2224279299
 20
11.9439138333
 30
0.0
 10
16.220085171
 20
11.9781894466
 30
0.0
 10
16.214283245
 20
12.0129929441
 30
0.0
 10
16.2018157364
 20
12.0606638568
 30
0.0
 10
16.1876648274
 20
12.0956186183
 30
0.0
 10
16.1764725024
 20
12.1184261787
 30
0.0
  0
SPLINE
  5
445
100
AcDbEntity
  8
0
100
AcDbSpline
 62
7
  6
CONTINUOUS
 70
0
 71
3
 72
11
 73
7
 74
0
 42
0.0000001
 43
0.0000001
 44
0.0000000001
 40
0.0
 40
0.0
 40
0.0
 40
0.0
 40
0.2456945629
 40
0.4931268552
 40
0.7440234109
 40
1.0
 40
1.0
 40
1.0
 40
1.0
 10
16.3279475947
 20
11.8945747246
 30
0.0
 10
16.331369279
 20
11.9056388852
 30
0.0
 10
16.3370882302
 20
11.9282193137
 30
0.0
 10
16.3421531614
 20
11.9629816504
 30
0.0
 10
16.3437185056
 20
11.9985590659
 30
0.0
 10
16.3424401572
 20
12.0224595197
 30
0.0
 10
16.3412416113
 20
12.0344656756
 30
0.0
  0
SPLINE
  5
446
100
AcDbEntity
  8
0
100
AcDbSpline
 62
7
  6
CONTINUOUS
 70
0
 71
3
 72
9
 73
5
 74
0
 42
0.0000001
 43
0.0000001
 44
0.0000000001
 40
0.0
 40
0.0
 40
0.0
 40
0.0
 40
0.5058950679
 40
1.0
 40
1.0
 40
1.0
 40
1.0
 10
14.7204730169
 20
13.7356044803
 30
0.0
 10
14.7306086304
 20
13.7387640086
 30
0.0
 10
14.7511215348
 20
13.7435745984
 30
0.0
 10
14.7721335976
 20
13.7452779151
 30
0.0
 10
14.7825028224
 20
13.7452779151
 30
0.0
  0
SPLINE
  5
447
100
AcDbEntity
  8
0
100
AcDbSpline
 62
7
  6
CONTINUOUS
 70
0
 71
3
 72
11
 73
7
 74
0
 42
0.0000001
 43
0.0000001
 44
0.0000000001
 40
0.0
 40
0.0
 40
0.0
 40
0.0
 40
0.2872846052
 40
0.5495609548
 40
0.7867881967
 40
1.0
 40
1.0
 40
1.0
 40
1.0
 10
14.6242594193
 20
11.7108513961
 30
0.0
 10
14.6252154496
 20
11.7089032111
 30
0.0
 10
14.6271903361
 20
11.7052448763
 30
0.0
 10
14.6305019488
 20
11.7002967909
 30
0.0
 10
14.6339947297
 20
11.6961829945
 30
0.0
 10
14.6365557693
 20
11.6939156797
 30
0.0
 10
14.6378573161
 20
11.6929670245
 30
0.0
  0
SPLINE
  5
448
100
AcDbEntity
  8
0
100
AcDbSpline
 62
7
  6
CONTINUOUS
 70
0
 71
3
 72
15
 73
11
 74
0
 42
0.0000001
 43
0.0000001
 44
0.0000000001
 40
0.0
 40
0.0
 40
0.0
 40
0.0
 40
0.127432517
 40
0.2454542966
 40
0.3581980312
 40
0.4704352618
 40
0.5870614916
 40
0.7123131394
 40
0.8492678397
 40
1.0
 40
1.0
 40
1.0
 40
1.0
 10
14.6378573161
 20
11.6929670245
 30
0.0
 10
14.638920832
 20
11.6921918624
 30
0.0
 10
14.6410926998
 20
11.6908547396
 30
0.0
 10
14.6445810152
 20
11.6895484111
 30
0.0
 10
14.6481197162
 20
11.6890538291
 30
0.0
 10
14.6516636239
 20
11.6893854938
 30
0.0
 10
14.6551625191
 20
11.6905416523
 30
0.0
 10
14.6585804637
 20
11.6924892158
 30
0.0
 10
14.6618991632
 20
11.6951919593
 30
0.0
 10
14.6639311994
 20
11.6973716181
 30
0.0
 10
14.6649295948
 20
11.6985659303
 30
0.0
  0
SPLINE
  5
449
100
AcDbEntity
  8
0
100
AcDbSpline
 62
7
  6
CONTINUOUS
 70
0
 71
3
 72
26
 73
22
 74
0
 42
0.0000001
 43
0.0000001
 44
0.0000000001
 40
0.0
 40
0.0
 40
0.0
 40
0.0
 40
0.0214543266
 40
0.0432046412
 40
0.0885829595
 40
0.1379662496
 40
0.164532522
 40
0.1924036036
 40
0.2520435849
 40
0.2837837692
 40
0.3166860228
 40
0.3855371974
 40
0.4576191994
 40
0.5317065851
 40
0.6064766869
 40
0.6805575403
 40
0.7526218527
 40
0.8214333195
 40
0.8860323288
 40
0.9457074838
 40
1.0
 40
1.0
 40
1.0
 40
1.0
 10
17.2988209374
 20
11.0689477413
 30
0.0
 10
17.2978001962
 20
11.0656450096
 30
0.0
 10
17.2952581538
 20
11.0591330208
 30
0.0
 10
17.2882004411
 20
11.0466792926
 30
0.0
 10
17.2755896219
 20
11.0324628577
 30
0.0
 10
17.2594071872
 20
11.0212225853
 30
0.0
 10
17.2444235992
 20
11.0137451787
 30
0.0
 10
17.2272938565
 20
11.0070207853
 30
0.0
 10
17.2085944245
 20
11.002244621
 30
0.0
 10
17.1887865339
 20
10.9992485274
 30
0.0
 10
17.167345344
 20
10.9973731333
 30
0.0
 10
17.1392719358
 20
10.9974485239
 30
0.0
 10
17.1047707135
 20
11.0011781463
 30
0.0
 10
17.069868275
 20
11.0084615093
 30
0.0
 10
17.0354994068
 20
11.0190887856
 30
0.0
 10
17.002590761
 20
11.0327972487
 30
0.0
 10
16.9720136268
 20
11.0491909707
 30
0.0
 10
16.9445919374
 20
11.0678604818
 30
0.0
 10
16.9210302343
 20
11.0883077433
 30
0.0
 10
16.9020088353
 20
11.1100188348
 30
0.0
 10
16.8921957087
 20
11.1256793566
 30
0.0
 10
16.888341847
 20
11.1335327011
 30
0.0
  0
SPLINE
  5
44A
100
AcDbEntity
  8
0
100
AcDbSpline
 62
7
  6
CONTINUOUS
 70
0
 71
3
 72
14
 73
10
 74
0
 42
0.0000001
 43
0.0000001
 44
0.0000000001
 40
0.0
 40
0.0
 40
0.0
 40
0.0
 40
0.2711789493
 40
0.4002275211
 40
0.5253379289
 40
0.6470825956
 40
0.7662124616
 40
0.883555368
 40
1.0
 40
1.0
 40
1.0
 40
1.0
 10
14.2669229136
 20
12.0400934878
 30
0.0
 10
14.2533048428
 20
12.0678441983
 30
0.0
 10
14.2360849733
 20
12.1103697926
 30
0.0
 10
14.2209166029
 20
12.1683630722
 30
0.0
 10
14.2138683302
 20
12.2106963048
 30
0.0
 10
14.2110214079
 20
12.2523855483
 30
0.0
 10
14.2123692677
 20
12.2932704639
 30
0.0
 10
14.2179084583
 20
12.3331899252
 30
0.0
 10
14.2244068314
 20
12.3590987339
 30
0.0
 10
14.2283286731
 20
12.3717798031
 30
0.0
  0
SPLINE
  5
44B
100
AcDbEntity
  8
0
100
AcDbSpline
 62
7
  6
CONTINUOUS
 70
0
 71
3
 72
26
 73
22
 74
0
 42
0.0000001
 43
0.0000001
 44
0.0000000001
 40
0.0
 40
0.0
 40
0.0
 40
0.0
 40
0.0214543266
 40
0.0432046412
 40
0.0885829595
 40
0.1379662496
 40
0.164532522
 40
0.1924036036
 40
0.2520435849
 40
0.2837837692
 40
0.3166860228
 40
0.3855371974
 40
0.4576191994
 40
0.5317065851
 40
0.6064766869
 40
0.6805575403
 40
0.7526218527
 40
0.8214333195
 40
0.8860323288
 40
0.9457074838
 40
1.0
 40
1.0
 40
1.0
 40
1.0
 10
14.6122559791
 20
11.0689477413
 30
0.0
 10
14.6112352379
 20
11.0656450096
 30
0.0
 10
14.6086931954
 20
11.0591330208
 30
0.0
 10
14.6016354828
 20
11.0466792926
 30
0.0
 10
14.5890246636
 20
11.0324628577
 30
0.0
 10
14.5728422289
 20
11.0212225853
 30
0.0
 10
14.5578586409
 20
11.0137451787
 30
0.0
 10
14.5407288982
 20
11.0070207853
 30
0.0
 10
14.5220294662
 20
11.002244621
 30
0.0
 10
14.5022215756
 20
10.9992485274
 30
0.0
 10
14.4807803856
 20
10.9973731333
 30
0.0
 10
14.4527069775
 20
10.9974485239
 30
0.0
 10
14.4182057552
 20
11.0011781463
 30
0.0
 10
14.3833033166
 20
11.0084615093
 30
0.0
 10
14.3489344485
 20
11.0190887856
 30
0.0
 10
14.3160258027
 20
11.0327972487
 30
0.0
 10
14.2854486684
 20
11.0491909707
 30
0.0
 10
14.2580269791
 20
11.0678604818
 30
0.0
 10
14.234465276
 20
11.0883077433
 30
0.0
 10
14.215443877
 20
11.1100188348
 30
0.0
 10
14.2056307504
 20
11.1256793566
 30
0.0
 10
14.2017768886
 20
11.1335327011
 30
0.0
  0
SPLINE
  5
44C
100
AcDbEntity
  8
0
100
AcDbSpline
 62
7
  6
CONTINUOUS
 70
0
 71
3
 72
26
 73
22
 74
0
 42
0.0000001
 43
0.0000001
 44
0.0000000001
 40
0.0
 40
0.0
 40
0.0
 40
0.0
 40
0.0214543266
 40
0.0432046412
 40
0.0885829595
 40
0.1379662496
 40
0.164532522
 40
0.1924036036
 40
0.2520435849
 40
0.2837837692
 40
0.3166860228
 40
0.3855371974
 40
0.4576191994
 40
0.5317065851
 40
0.6064766869
 40
0.6805575403
 40
0.7526218527
 40
0.8214333195
 40
0.8860323288
 40
0.9457074838
 40
1.0
 40
1.0
 40
1.0
 40
1.0
 10
13.7225051428
 20
12.8820693145
 30
0.0
 10
13.7214844016
 20
12.8787665829
 30
0.0
 10
13.7189423591
 20
12.8722545941
 30
0.0
 10
13.7118846464
 20
12.8598008658
 30
0.0
 10
13.6992738272
 20
12.845584431
 30
0.0
 10
13.6830913925
 20
12.8343441585
 30
0.0
 10
13.6681078046
 20
12.8268667519
 30
0.0
 10
13.6509780618
 20
12.8201423586
 30
0.0
 10
13.6322786299
 20
12.8153661942
 30
0.0
 10
13.6124707393
 20
12.8123701007
 30
0.0
 10
13.5910295493
 20
12.8104947066
 30
0.0
 10
13.5629561411
 20
12.8105700971
 30
0.0
 10
13.5284549189
 20
12.8142997195
 30
0.0
 10
13.4935524803
 20
12.8215830825
 30
0.0
 10
13.4591836121
 20
12.8322103589
 30
0.0
 10
13.4262749663
 20
12.8459188219
 30
0.0
 10
13.3956978321
 20
12.862312544
 30
0.0
 10
13.3682761428
 20
12.8809820551
 30
0.0
 10
13.3447144396
 20
12.9014293165
 30
0.0
 10
13.3256930407
 20
12.923140408
 30
0.0
 10
13.3158799141
 20
12.9388009299
 30
0.0
 10
13.3120260523
 20
12.9466542744
 30
0.0
  0
SPLINE
  5
44D
100
AcDbEntity
  8
0
100
AcDbSpline
 62
7
  6
CONTINUOUS
 70
0
 71
3
 72
11
 73
7
 74
0
 42
0.0000001
 43
0.0000001
 44
0.0000000001
 40
0.0
 40
0.0
 40
0.0
 40
0.0
 40
0.2342326243
 40
0.4772541828
 40
0.731932844
 40
1.0
 40
1.0
 40
1.0
 40
1.0
 10
14.2618633831
 20
12.4540101482
 30
0.0
 10
14.2598716937
 20
12.4333432578
 30
0.0
 10
14.2592410538
 20
12.3908384115
 30
0.0
 10
14.2681499705
 20
12.3263524228
 30
0.0
 10
14.2867237061
 20
12.2608639991
 30
0.0
 10
14.3048681039
 20
12.2180905624
 30
0.0
 10
14.3153361783
 20
12.1967588697
 30
0.0
  0
SPLINE
  5
44E
100
AcDbEntity
  8
0
100
AcDbSpline
 62
7
  6
CONTINUOUS
 70
0
 71
3
 72
14
 73
10
 74
0
 42
0.0000001
 43
0.0000001
 44
0.0000000001
 40
0.0
 40
0.0
 40
0.0
 40
0.0
 40
0.1164440998
 40
0.2337870577
 40
0.352917613
 40
0.4746638808
 40
0.5997766796
 40
0.728825818
 40
1.0
 40
1.0
 40
1.0
 40
1.0
 10
16.2559692289
 20
11.8310046256
 30
0.0
 10
16.2593677803
 20
11.8419932698
 30
0.0
 10
16.2649985913
 20
11.8644444898
 30
0.0
 10
16.269798554
 20
11.8990365315
 30
0.0
 10
16.270966792
 20
11.9344654137
 30
0.0
 10
16.2684997389
 20
11.9705915387
 30
0.0
 10
16.2623913892
 20
12.0072755685
 30
0.0
 10
16.2492474268
 20
12.0575292287
 30
0.0
 10
16.2343260283
 20
12.0943793364
 30
0.0
 10
16.2225255521
 20
12.1184261787
 30
0.0
  0
SPLINE
  5
44F
100
AcDbEntity
  8
0
100
AcDbSpline
 62
7
  6
CONTINUOUS
 70
0
 71
3
 72
16
 73
12
 74
0
 42
0.0000001
 43
0.0000001
 44
0.0000000001
 40
0.0
 40
0.0
 40
0.0
 40
0.0
 40
0.1132271789
 40
0.2277547596
 40
0.3448074008
 40
0.4654828941
 40
0.5274949471
 40
0.5907412477
 40
0.7212375315
 40
0.8575469493
 40
1.0
 40
1.0
 40
1.0
 40
1.0
 10
16.3750034111
 20
11.7084071725
 30
0.0
 10
16.3702265603
 20
11.6929614766
 30
0.0
 10
16.3585506013
 20
11.6624911595
 30
0.0
 10
16.3350497958
 20
11.6190800088
 30
0.0
 10
16.3056416071
 20
11.5781180478
 30
0.0
 10
16.2766399128
 20
11.546505078
 30
0.0
 10
16.2508351012
 20
11.522667148
 30
0.0
 10
16.2227105277
 20
11.499348203
 30
0.0
 10
16.1841202692
 20
11.4721477312
 30
0.0
 10
16.1333299447
 20
11.4430990915
 30
0.0
 10
16.0971559592
 20
11.4263637236
 30
0.0
 10
16.0783779705
 20
11.41854534
 30
0.0
  0
SPLINE
  5
450
100
AcDbEntity
  8
0
100
AcDbSpline
 62
7
  6
CONTINUOUS
 70
0
 71
3
 72
9
 73
5
 74
0
 42
0.0000001
 43
0.0000001
 44
0.0000000001
 40
0.0
 40
0.0
 40
0.0
 40
0.0
 40
0.2558616509
 40
1.0
 40
1.0
 40
1.0
 40
1.0
 10
14.30706892
 20
11.9692071345
 30
0.0
 10
14.3033140315
 20
11.9750555393
 30
0.0
 10
14.2889444468
 20
11.9981071908
 30
0.0
 10
14.2758277035
 20
12.0219474339
 30
0.0
 10
14.2669229136
 20
12.0400934878
 30
0.0
  0
SPLINE
  5
451
100
AcDbEntity
  8
0
100
AcDbSpline
 62
7
  6
CONTINUOUS
 70
0
 71
3
 72
14
 73
10
 74
0
 42
0.0000001
 43
0.0000001
 44
0.0000000001
 40
0.0
 40
0.0
 40
0.0
 40
0.0
 40
0.2711793502
 40
0.4002289522
 40
0.5253404398
 40
0.6470851517
 40
0.7662143132
 40
0.883556258
 40
1.0
 40
1.0
 40
1.0
 40
1.0
 10
16.2346288683
 20
12.1575925242
 30
0.0
 10
16.2464295739
 20
12.1335452145
 30
0.0
 10
16.2613512608
 20
12.0966946062
 30
0.0
 10
16.2744953114
 20
12.0464404925
 30
0.0
 10
16.2806032323
 20
12.0097566184
 30
0.0
 10
16.2830702481
 20
11.9736309121
 30
0.0
 10
16.2819021381
 20
11.9382024035
 30
0.0
 10
16.2771020777
 20
11.9036106171
 30
0.0
 10
16.2714709936
 20
11.8811596115
 30
0.0
 10
16.2680725439
 20
11.8701709683
 30
0.0
  0
SPLINE
  5
452
100
AcDbEntity
  8
0
100
AcDbSpline
 62
7
  6
CONTINUOUS
 70
0
 71
3
 72
11
 73
7
 74
0
 42
0.0000001
 43
0.0000001
 44
0.0000000001
 40
0.0
 40
0.0
 40
0.0
 40
0.0
 40
0.2636895144
 40
0.5159785941
 40
0.760115306
 40
1.0
 40
1.0
 40
1.0
 40
1.0
 10
14.4919152533
 20
12.6442254162
 30
0.0
 10
14.4760376501
 20
12.6317082766
 30
0.0
 10
14.4464599702
 20
12.6052244687
 30
0.0
 10
14.4088289113
 20
12.5604464529
 30
0.0
 10
14.3794666892
 20
12.5119600849
 30
0.0
 10
14.3655432411
 20
12.4773481688
 30
0.0
 10
14.3601086756
 20
12.4597763584
 30
0.0
  0
SPLINE
  5
453
100
AcDbEntity
  8
0
100
AcDbSpline
 62
7
  6
CONTINUOUS
 70
0
 71
3
 72
36
 73
32
 74
0
 42
0.0000001
 43
0.0000001
 44
0.0000000001
 40
0.0
 40
0.0
 40
0.0
 40
0.0
 40
0.0265109733
 40
0.0543647724
 40
0.1139657649
 40
0.1456671688
 40
0.1785367835
 40
0.2124760712
 40
0.2473605347
 40
0.2830557057
 40
0.3194134123
 40
0.3934622261
 40
0.4682032598
 40
0.5054152427
 40
0.54228835
 40
0.5786566385
 40
0.6143644975
 40
0.6831907663
 40
0.7160821617
 40
0.7478077702
 40
0.7782876926
 40
0.8074718711
 40
0.8353339813
 40
0.8618886224
 40
0.887189949
 40
0.8994026906
 40
0.9113424856
 40
0.9344768879
 40
0.9567981677
 40
0.9785471367
 40
1.0
 40
1.0
 40
1.0
 40
1.0
 10
16.2225255521
 20
12.1184261787
 30
0.0
 10
16.2141473886
 20
12.1354990809
 30
0.0
 10
16.1951773508
 20
12.1696540898
 30
0.0
 10
16.1492387903
 20
12.2373775121
 30
0.0
 10
16.0926110491
 20
12.301921527
 30
0.0
 10
16.0274574983
 20
12.3627109782
 30
0.0
 10
15.9727967284
 20
12.4075799015
 30
0.0
 10
15.9137422734
 20
12.4504735955
 30
0.0
 10
15.8506944119
 20
12.4911200597
 30
0.0
 10
15.7840688647
 20
12.5292154477
 30
0.0
 10
15.6905271709
 20
12.5765690251
 30
0.0
 10
15.5677066389
 20
12.6276952028
 30
0.0
 10
15.4400423488
 20
12.6672098606
 30
0.0
 10
15.3360326559
 20
12.6914451607
 30
0.0
 10
15.2580608448
 20
12.7057101408
 30
0.0
 10
15.1805450499
 20
12.7159669668
 30
0.0
 10
15.0797691765
 20
12.7241220101
 30
0.0
 10
14.9809391244
 20
12.7243795231
 30
0.0
 10
14.8855249854
 20
12.7160611264
 30
0.0
 10
14.8180240784
 20
12.705846487
 30
0.0
 10
14.7539722196
 20
12.6916157647
 30
0.0
 10
14.693792687
 20
12.673489686
 30
0.0
 10
14.637896579
 20
12.6515566893
 30
0.0
 10
14.5866662786
 20
12.6259656901
 30
0.0
 10
14.5476843686
 20
12.6014486714
 30
0.0
 10
14.5192994265
 20
12.580139524
 30
0.0
 10
14.4933616869
 20
12.5582552087
 30
0.0
 10
14.4642693776
 20
12.5289625127
 30
0.0
 10
14.4348854531
 20
12.4905617151
 30
0.0
 10
14.4116481443
 20
12.4495336557
 30
0.0
 10
14.4003232104
 20
12.4205499834
 30
0.0
 10
14.39577612
 20
12.4058477318
 30
0.0
  0
SPLINE
  5
454
100
AcDbEntity
  8
0
100
AcDbSpline
 62
7
  6
CONTINUOUS
 70
0
 71
3
 72
26
 73
22
 74
0
 42
0.0000001
 43
0.0000001
 44
0.0000000001
 40
0.0
 40
0.0
 40
0.0
 40
0.0
 40
0.0214543266
 40
0.0432046412
 40
0.0885829595
 40
0.1379662496
 40
0.164532522
 40
0.1924036036
 40
0.2520435849
 40
0.2837837692
 40
0.3166860228
 40
0.3855371974
 40
0.4576191994
 40
0.5317065851
 40
0.6064766869
 40
0.6805575403
 40
0.7526218527
 40
0.8214333195
 40
0.8860323288
 40
0.9457074838
 40
1.0
 40
1.0
 40
1.0
 40
1.0
 10
16.4090701011
 20
12.8820693145
 30
0.0
 10
16.4080493599
 20
12.8787665829
 30
0.0
 10
16.4055073174
 20
12.8722545941
 30
0.0
 10
16.3984496048
 20
12.8598008658
 30
0.0
 10
16.3858387856
 20
12.845584431
 30
0.0
 10
16.3696563509
 20
12.8343441585
 30
0.0
 10
16.3546727629
 20
12.8268667519
 30
0.0
 10
16.3375430202
 20
12.8201423586
 30
0.0
 10
16.3188435882
 20
12.8153661942
 30
0.0
 10
16.2990356976
 20
12.8123701007
 30
0.0
 10
16.2775945076
 20
12.8104947066
 30
0.0
 10
16.2495210995
 20
12.8105700971
 30
0.0
 10
16.2150198772
 20
12.8142997195
 30
0.0
 10
16.1801174386
 20
12.8215830825
 30
0.0
 10
16.1457485705
 20
12.8322103589
 30
0.0
 10
16.1128399247
 20
12.8459188219
 30
0.0
 10
16.0822627904
 20
12.862312544
 30
0.0
 10
16.0548411011
 20
12.8809820551
 30
0.0
 10
16.031279398
 20
12.9014293165
 30
0.0
 10
16.012257999
 20
12.923140408
 30
0.0
 10
16.0024448724
 20
12.9388009299
 30
0.0
 10
15.9985910107
 20
12.9466542744
 30
0.0
  0
SPLINE
  5
455
100
AcDbEntity
  8
0
100
AcDbSpline
 62
7
  6
CONTINUOUS
 70
0
 71
3
 72
21
 73
17
 74
0
 42
0.0000001
 43
0.0000001
 44
0.0000000001
 40
0.0
 40
0.0
 40
0.0
 40
0.0
 40
0.0637834035
 40
0.1295493481
 40
0.1967276771
 40
0.2647423169
 40
0.3331158256
 40
0.4013950981
 40
0.535733648
 40
0.6644169435
 40
0.7258474678
 40
0.785026281
 40
0.8418716336
 40
0.8964607684
 40
0.9490470669
 40
1.0
 40
1.0
 40
1.0
 40
1.0
 10
14.9051192481
 20
12.2988312816
 30
0.0
 10
14.909302154
 20
12.2988312816
 30
0.0
 10
14.9178030174
 20
12.2992889039
 30
0.0
 10
14.9305756665
 20
12.3012284031
 30
0.0
 10
14.9433862782
 20
12.3044014897
 30
0.0
 10
14.9560142636
 20
12.3087869871
 30
0.0
 10
14.9682684587
 20
12.3143071108
 30
0.0
 10
14.983788366
 20
12.3230043922
 30
0.0
 10
15.0012661537
 20
12.3361153797
 30
0.0
 10
15.015743714
 20
12.3519166457
 30
0.0
 10
15.0247246055
 20
12.3656130185
 30
0.0
 10
15.0299866805
 20
12.3760230325
 30
0.0
 10
15.0337881735
 20
12.3865787992
 30
0.0
 10
15.0360499304
 20
12.397130861
 30
0.0
 10
15.0367567336
 20
12.4075126177
 30
0.0
 10
15.0361679893
 20
12.4143118094
 30
0.0
 10
15.0356021366
 20
12.4176050352
 30
0.0
  0
SPLINE
  5
456
100
AcDbEntity
  8
0
100
AcDbSpline
 62
7
  6
CONTINUOUS
 70
0
 71
3
 72
9
 73
5
 74
0
 42
0.0000001
 43
0.0000001
 44
0.0000000001
 40
0.0
 40
0.0
 40
0.0
 40
0.0
 40
0.5006379599
 40
1.0
 40
1.0
 40
1.0
 40
1.0
 10
15.0356021366
 20
12.4176050352
 30
0.0
 10
15.034722801
 20
12.4227227115
 30
0.0
 10
15.0316082725
 20
12.432764058
 30
0.0
 10
15.0259032262
 20
12.4415960344
 30
0.0
 10
15.0225457128
 20
12.4455398499
 30
0.0
  0
SPLINE
  5
457
100
AcDbEntity
  8
0
100
AcDbSpline
 62
7
  6
CONTINUOUS
 70
0
 71
3
 72
11
 73
7
 74
0
 42
0.0000001
 43
0.0000001
 44
0.0000000001
 40
0.0
 40
0.0
 40
0.0
 40
0.0
 40
0.2302544455
 40
0.4720006761
 40
0.7286120269
 40
1.0
 40
1.0
 40
1.0
 40
1.0
 10
15.0225457128
 20
12.4455398499
 30
0.0
 10
15.0194008213
 20
12.4492339146
 30
0.0
 10
15.01199418
 20
12.4560280974
 30
0.0
 10
14.9985846262
 20
12.4637222544
 30
0.0
 10
14.98310091
 20
12.4688550157
 30
0.0
 10
14.972038026
 20
12.4704859972
 30
0.0
 10
14.9663339336
 20
12.4708862505
 30
0.0
  0
SPLINE
  5
458
100
AcDbEntity
  8
0
100
AcDbSpline
 62
7
  6
CONTINUOUS
 70
0
 71
3
 72
22
 73
18
 74
0
 42
0.0000001
 43
0.0000001
 44
0.0000000001
 40
0.0
 40
0.0
 40
0.0
 40
0.0
 40
0.066017559
 40
0.1343233175
 40
0.2040923892
 40
0.2745603052
 40
0.4148007527
 40
0.4834887212
 40
0.5503362094
 40
0.6148304937
 40
0.6766645828
 40
0.7356788979
 40
0.7919464407
 40
0.8458289107
 40
0.8978965338
 40
0.9489767559
 40
1.0
 40
1.0
 40
1.0
 40
1.0
 10
14.9583738393
 20
12.4711632017
 30
0.0
 10
14.9534393104
 20
12.4711632017
 30
0.0
 10
14.9433914318
 20
12.4705257425
 30
0.0
 10
14.9283439326
 20
12.4678544642
 30
0.0
 10
14.913346638
 20
12.4634870435
 30
0.0
 10
14.8939285517
 20
12.4555126773
 30
0.0
 10
14.8758933751
 20
12.4446230791
 30
0.0
 10
14.860163359
 20
12.4312524474
 30
0.0
 10
14.8498866111
 20
12.4203448533
 30
0.0
 10
14.8413011115
 20
12.4086893045
 30
0.0
 10
14.8345648691
 20
12.3965366072
 30
0.0
 10
14.8298139829
 20
12.3841271112
 30
0.0
 10
14.8271895408
 20
12.3717004632
 30
0.0
 10
14.8267211063
 20
12.3595208922
 30
0.0
 10
14.8284617998
 20
12.3478381058
 30
0.0
 10
14.8323951788
 20
12.3369288117
 30
0.0
 10
14.8363836857
 20
12.3303531934
 30
0.0
 10
14.838671429
 20
12.3273017906
 30
0.0
  0
SPLINE
  5
459
100
AcDbEntity
  8
0
100
AcDbSpline
 62
7
  6
CONTINUOUS
 70
0
 71
3
 72
11
 73
7
 74
0
 42
0.0000001
 43
0.0000001
 44
0.0000000001
 40
0.0
 40
0.0
 40
0.0
 40
0.0
 40
0.2287868028
 40
0.4706647879
 40
0.7282279451
 40
1.0
 40
1.0
 40
1.0
 40
1.0
 10
14.8435278407
 20
12.3216134754
 30
0.0
 10
14.8470989263
 20
12.3179240146
 30
0.0
 10
14.8554324448
 20
12.3112444968
 30
0.0
 10
14.8702508052
 20
12.304076835
 30
0.0
 10
14.8871145213
 20
12.2997652555
 30
0.0
 10
14.8990198659
 20
12.2988312816
 30
0.0
 10
14.9051192481
 20
12.2988312816
 30
0.0
  0
SPLINE
  5
45A
100
AcDbEntity
  8
0
100
AcDbSpline
 62
7
  6
CONTINUOUS
 70
0
 71
3
 72
20
 73
16
 74
0
 42
0.0000001
 43
0.0000001
 44
0.0000000001
 40
0.0
 40
0.0
 40
0.0
 40
0.0
 40
0.0652130784
 40
0.1325958268
 40
0.2014329019
 40
0.2710376606
 40
0.4100876241
 40
0.4785717883
 40
0.5455737296
 40
0.6730323072
 40
0.7903376504
 40
0.8453320099
 40
0.8982113087
 40
0.9495167625
 40
1.0
 40
1.0
 40
1.0
 40
1.0
 10
14.9060638813
 20
12.2777572284
 30
0.0
 10
14.9113333701
 20
12.2777572284
 30
0.0
 10
14.9220552461
 20
12.2783963258
 30
0.0
 10
14.9381346004
 20
12.2810876273
 30
0.0
 10
14.954205209
 20
12.2854890041
 30
0.0
 10
14.9751511303
 20
12.2935654501
 30
0.0
 10
14.9948150048
 20
12.3046366896
 30
0.0
 10
15.0123213707
 20
12.318313224
 30
0.0
 10
15.0276681026
 20
12.3330532503
 30
0.0
 10
15.0429594285
 20
12.3533550733
 30
0.0
 10
15.0524410438
 20
12.3760162426
 30
0.0
 10
15.0554366562
 20
12.3940342539
 30
0.0
 10
15.0554627442
 20
12.4069603482
 30
0.0
 10
15.0532651978
 20
12.4193313711
 30
0.0
 10
15.0503258481
 20
12.4270740114
 30
0.0
 10
15.0485288199
 20
12.4307361175
 30
0.0
  0
ENDSEC
  0
SECTION
  2
OBJECTS
  0
DICTIONARY
  5
C
100
AcDbDictionary
280
0
281
1
  3
ACAD_GROUP
350
D
  3
ACAD_MLINESTYLE
350
17
  3
ACAD_LAYOUT
350
1A
  3
ACAD_PLOTSETTINGS
350
19
  3
ACAD_PLOTSTYLENAME
350
E
  0
DICTIONARY
  5
D
102
{ACAD_REACTORS
330
C
102
}
100
AcDbDictionary
280
0
281
1
  0
ACDBDICTIONARYWDFLT
  5
E
102
{ACAD_REACTORS
330
C
102
}
100
AcDbDictionary
281
1
  3
Normal
350
F
100
AcDbDictionaryWithDefault
340
F
  0
DICTIONARY
  5
17
102
{ACAD_REACTORS
330
C
102
}
100
AcDbDictionary
280
0
281
1
  3
Standard
350
18
  0
DICTIONARY
  5
19
102
{ACAD_REACTORS
330
C
102
}
100
AcDbDictionary
281
1
  0
DICTIONARY
  5
1A
102
{ACAD_REACTORS
330
C
102
}
100
AcDbDictionary
281
1
  3
Model
350
45B
  3
Layout1
350
45C
  0
ACDBPLACEHOLDER
  5
F
102
{ACAD_REACTORS
330
E
102
}
  0
MLINESTYLE
  5
18
102
{ACAD_REACTORS
330
17
102
}
100
AcDbMlineStyle
  2
STANDARD
 70
0
  3

 62
256
 51
90.0
 52
90.0
 71
2
 49
0.5
 62
256
  6
BYLAYER
 49
-0.5
 62
256
  6
BYLAYER
  0
LAYOUT
  5
45B
102
{ACAD_REACTORS
330
1A
102
}
100
AcDbPlotSettings
  1

  2
none_device
  4
ANSI_C_(22.00_x_17.00_Inches)
  6

 40
0.0
 41
0.0
 42
0.0
 43
0.0
 44
558.8
 45
431.8
 46
0.0
 47
0.0
 48
0.0
 49
0.0
140
0.0
141
0.0
142
1.0
143
1.0
 70
1024
 72
0
 73
0
 74
0
  7

 75
0
147
1.0
148
0.0
149
0.0
100
AcDbLayout
  1
Model
 70
0
 71
0
 10
0.0
 20
0.0
 11
22.0
 21
17.0
 12
0.0
 22
0.0
 32
0.0
 14
0.0
 24
0.0
 34
0.0
 15
0.0
 25
0.0
 35
0.0
146
0.0
 13
0.0
 23
0.0
 33
0.0
 16
1.0
 26
0.0
 36
0.0
 17
0.0
 27
1.0
 37
0.0
 76
0
330
217
345
0
346
0
  0
LAYOUT
  5
45C
102
{ACAD_REACTORS
330
1A
102
}
100
AcDbPlotSettings
  1

  2
none_device
  4
ANSI_C_(22.00_x_17.00_Inches)
  6

 40
0.0
 41
0.0
 42
0.0
 43
0.0
 44
558.8
 45
431.8
 46
0.0
 47
0.0
 48
0.0
 49
0.0
140
0.0
141
0.0
142
1.0
143
1.0
 70
0
 72
0
 73
0
 74
0
  7

 75
0
147
1.0
148
0.0
149
0.0
100
AcDbLayout
  1
Layout1
 70
0
 71
1
 10
0.0
 20
0.0
 11
22.0
 21
17.0
 12
0.0
 22
0.0
 32
0.0
 14
0.0
 24
0.0
 34
0.0
 15
0.0
 25
0.0
 35
0.0
146
0.0
 13
0.0
 23
0.0
 33
0.0
 16
1.0
 26
0.0
 36
0.0
 17
0.0
 27
1.0
 37
0.0
 76
0
330
218
345
0
346
0
  0
ENDSEC
  0
EOF