999
DXF file: _cgs_temp_output.dxf
999
Pro/ENGINEER 2016360 by Parametric Technology Corporation
  0
SECTION
  2
HEADER
  9
$ACADVER
  1
AC1021
  9
$DWGCODEPAGE
  3
ANSI_1252
  9
$EXTMAX
 10
22.0
 20
17.0
 30
0.0
  9
$EXTMIN
 10
0.0
 20
0.0
 30
0.0
  9
$LIMMIN
 10
0.0
 20
0.0
  9
$LIMMAX
 10
22.0
 20
17.0
  9
$VIEWCTR
 10
11.0
 20
8.5
  9
$VIEWSIZE
 40
17.0
  9
$CLAYER
  8
0
  9
$LTSCALE
 40
1.21
  9
$CELTYPE
  6
BYLAYER
  9
$DIMSCALE
 40
1.0
  9
$DIMASZ
 40
0.1875
  9
$DIMEXO
 40
0.0625
  9
$DIMDLI
 40
0.836
  9
$DIMEXE
 40
0.125
  9
$DIMCEN
 40
0.198
  9
$DIMLFAC
 40
1.0
  9
$DIMBLK
  1
_CLOSED
  9
$DIMALT
 70
0
  9
$DIMALTF
 40
25.4
  9
$DIMTXT
 40
0.15625
  9
$DIMTOL
 70
0
  9
$DIMLIM
 70
0
  9
$DIMTFAC
 40
1.0
  9
$DIMGAP
 40
0.09
  9
$DIMDSEP
 70
46
  9
$AUNITS
 70
0
  9
$PDMODE
 70
3
  9
$PDSIZE
 40
0.3125
  9
$HANDSEED
  5
347
  9
$TILEMODE
 70
1
  9
$MEASUREMENT
 70
0
  9
$INSUNITS
 70
1
  0
ENDSEC
  0
SECTION
  2
CLASSES
  0
CLASS
  1
ACDBDICTIONARYWDFLT
  2
AcDbDictionaryWithDefault
  3
AutoCAD 2000
 90
0
 91
1
280
0
281
0
  0
CLASS
  1
ACDBPLACEHOLDER
  2
AcDbPlaceHolder
  3
AutoCAD 2000
 90
0
 91
1
280
0
281
0
  0
CLASS
  1
LAYOUT
  2
AcDbLayout
  3
AutoCAD 2000
 90
0
 91
0
280
0
281
0
  0
ENDSEC
  0
SECTION
  2
TABLES
  0
TABLE
  2
VPORT
  5
8
100
AcDbSymbolTable
 70
2
  0
VPORT
  5
1F4
100
AcDbSymbolTableRecord
100
AcDbViewportTableRecord
  2
*ACTIVE
 70
0
 10
0.0
 20
0.0
 11
1.0
 21
1.0
 12
11.0
 22
8.5
 13
0.0
 23
0.0
 14
1.0
 24
1.0
 15
0.0
 25
0.0
 16
0.0
 26
0.0
 36
1.0
 17
0.0
 27
0.0
 37
0.0
 40
17.0
 41
1.2941176471
 42
50.0
 43
0.0
 44
0.0
 50
0.0
 51
0.0
 71
0
 72
100
 73
1
 74
1
 75
0
 76
0
 77
0
 78
0
  0
ENDTAB
  0
TABLE
  2
LTYPE
  5
5
100
AcDbSymbolTable
 70
6
  0
LTYPE
  5
14
100
AcDbSymbolTableRecord
100
AcDbLinetypeTableRecord
  2
BYBLOCK
 70
0
  3

 72
65
 73
0
 40
0.0
  0
LTYPE
  5
15
100
AcDbSymbolTableRecord
100
AcDbLinetypeTableRecord
  2
BYLAYER
 70
0
  3

 72
65
 73
0
 40
0.0
  0
LTYPE
  5
16
100
AcDbSymbolTableRecord
100
AcDbLinetypeTableRecord
  2
CONTINUOUS
 70
64
  3
Solid line
 72
65
 73
0
 40
0.0
  0
LTYPE
  5
1F5
100
AcDbSymbolTableRecord
100
AcDbLinetypeTableRecord
  2
CENTER
 70
64
  3
____ _ ____ _ ____ _ ____ _ ____ _ ____ _ ____
 72
65
 73
4
 40
0.6
 49
0.375
 74
0
 49
-0.075
 74
0
 49
0.075
 74
0
 49
-0.075
 74
0
  0
LTYPE
  5
1F6
100
AcDbSymbolTableRecord
100
AcDbLinetypeTableRecord
  2
HIDDEN
 70
64
  3
- - - - - - - - - - - - - - - - - - - -
 72
65
 73
2
 40
0.2
 49
0.1
 74
0
 49
-0.1
 74
0
  0
LTYPE
  5
1F7
100
AcDbSymbolTableRecord
100
AcDbLinetypeTableRecord
  2
PHANTOM
 70
64
  3
_____ _ _ _____ _ _ _____ _ _ _____
 72
65
 73
6
 40
0.8
 49
0.45
 74
0
 49
-0.05
 74
0
 49
0.1
 74
0
 49
-0.05
 74
0
 49
0.1
 74
0
 49
-0.05
 74
0
  0
LTYPE
  5
1F8
100
AcDbSymbolTableRecord
100
AcDbLinetypeTableRecord
  2
DOT
 70
64
  3
. . . . . . . . . . . . . . . . . . . .
 72
65
 73
2
 40
0.2
 49
0.1
 74
0
 49
-0.1
 74
0
  0
LTYPE
  5
1F9
100
AcDbSymbolTableRecord
100
AcDbLinetypeTableRecord
  2
DASHED
 70
64
  3
- - - - - - - - - - - - - - - - - - - -
 72
65
 73
2
 40
0.2
 49
0.1
 74
0
 49
-0.1
 74
0
  0
ENDTAB
  0
TABLE
  2
LAYER
  5
2
100
AcDbSymbolTable
 70
36
  0
LAYER
  5
10
100
AcDbSymbolTableRecord
100
AcDbLayerTableRecord
  2
0
 70
0
 62
7
  6
CONTINUOUS
370
-3
390
F
  0
LAYER
  5
1FA
100
AcDbSymbolTableRecord
100
AcDbLayerTableRecord
  2
DEFAULT_1
 70
0
 62
7
  6
CENTER
370
-3
390
F
  0
LAYER
  5
1FB
100
AcDbSymbolTableRecord
100
AcDbLayerTableRecord
  2
DEFAULT_2
 70
0
 62
8
  6
HIDDEN
370
-3
390
F
  0
LAYER
  5
1FC
100
AcDbSymbolTableRecord
100
AcDbLayerTableRecord
  2
DEFAULT_3
 70
0
 62
7
  6
PHANTOM
370
-3
390
F
  0
LAYER
  5
1FD
100
AcDbSymbolTableRecord
100
AcDbLayerTableRecord
  2
01_ALL_DTM_PLN
 70
0
 62
7
  6
CONTINUOUS
370
-3
390
F
  0
LAYER
  5
1FE
100
AcDbSymbolTableRecord
100
AcDbLayerTableRecord
  2
01__ASM_ALL_DTM_PLN
 70
0
 62
7
  6
CONTINUOUS
370
-3
390
F
  0
LAYER
  5
1FF
100
AcDbSymbolTableRecord
100
AcDbLayerTableRecord
  2
01__ASM_DEF_DTM_PLN
 70
0
 62
7
  6
CONTINUOUS
370
-3
390
F
  0
LAYER
  5
200
100
AcDbSymbolTableRecord
100
AcDbLayerTableRecord
  2
01___PRT_ALL_DTM_PLN
 70
0
 62
7
  6
CONTINUOUS
370
-3
390
F
  0
LAYER
  5
201
100
AcDbSymbolTableRecord
100
AcDbLayerTableRecord
  2
01___PRT_DEF_DTM_PLN
 70
0
 62
7
  6
CONTINUOUS
370
-3
390
F
  0
LAYER
  5
202
100
AcDbSymbolTableRecord
100
AcDbLayerTableRecord
  2
02_ALL_AXES
 70
0
 62
7
  6
CONTINUOUS
370
-3
390
F
  0
LAYER
  5
203
100
AcDbSymbolTableRecord
100
AcDbLayerTableRecord
  2
02__ASM_ALL_AXES
 70
0
 62
7
  6
CONTINUOUS
370
-3
390
F
  0
LAYER
  5
204
100
AcDbSymbolTableRecord
100
AcDbLayerTableRecord
  2
02___PRT_ALL_AXES
 70
0
 62
7
  6
CONTINUOUS
370
-3
390
F
  0
LAYER
  5
205
100
AcDbSymbolTableRecord
100
AcDbLayerTableRecord
  2
03_ALL_CURVES
 70
0
 62
7
  6
CONTINUOUS
370
-3
390
F
  0
LAYER
  5
206
100
AcDbSymbolTableRecord
100
AcDbLayerTableRecord
  2
03__ASM_ALL_CURVES
 70
0
 62
7
  6
CONTINUOUS
370
-3
390
F
  0
LAYER
  5
207
100
AcDbSymbolTableRecord
100
AcDbLayerTableRecord
  2
03___PRT_ALL_CURVES
 70
0
 62
7
  6
CONTINUOUS
370
-3
390
F
  0
LAYER
  5
208
100
AcDbSymbolTableRecord
100
AcDbLayerTableRecord
  2
04_ALL_DTM_PNT
 70
0
 62
7
  6
CONTINUOUS
370
-3
390
F
  0
LAYER
  5
209
100
AcDbSymbolTableRecord
100
AcDbLayerTableRecord
  2
04__ASM_ALL_DTM_PNT
 70
0
 62
7
  6
CONTINUOUS
370
-3
390
F
  0
LAYER
  5
20A
100
AcDbSymbolTableRecord
100
AcDbLayerTableRecord
  2
04___PRT_ALL_DTM_PNT
 70
0
 62
7
  6
CONTINUOUS
370
-3
390
F
  0
LAYER
  5
20B
100
AcDbSymbolTableRecord
100
AcDbLayerTableRecord
  2
05_ALL_DTM_CSYS
 70
0
 62
7
  6
CONTINUOUS
370
-3
390
F
  0
LAYER
  5
20C
100
AcDbSymbolTableRecord
100
AcDbLayerTableRecord
  2
05__ASM_ALL_DTM_CSYS
 70
0
 62
7
  6
CONTINUOUS
370
-3
390
F
  0
LAYER
  5
20D
100
AcDbSymbolTableRecord
100
AcDbLayerTableRecord
  2
05__ASM_DEF_DTM_CSYS
 70
0
 62
7
  6
CONTINUOUS
370
-3
390
F
  0
LAYER
  5
20E
100
AcDbSymbolTableRecord
100
AcDbLayerTableRecord
  2
05___PRT_ALL_DTM_CSYS
 70
0
 62
7
  6
CONTINUOUS
370
-3
390
F
  0
LAYER
  5
20F
100
AcDbSymbolTableRecord
100
AcDbLayerTableRecord
  2
05___PRT_DEF_DTM_CSYS
 70
0
 62
7
  6
CONTINUOUS
370
-3
390
F
  0
LAYER
  5
210
100
AcDbSymbolTableRecord
100
AcDbLayerTableRecord
  2
06_ALL_SURFS
 70
0
 62
7
  6
CONTINUOUS
370
-3
390
F
  0
LAYER
  5
211
100
AcDbSymbolTableRecord
100
AcDbLayerTableRecord
  2
06__ASM_ALL_SURFS
 70
0
 62
7
  6
CONTINUOUS
370
-3
390
F
  0
LAYER
  5
212
100
AcDbSymbolTableRecord
100
AcDbLayerTableRecord
  2
06___PRT_ALL_SURFS
 70
0
 62
7
  6
CONTINUOUS
370
-3
390
F
  0
LAYER
  5
213
100
AcDbSymbolTableRecord
100
AcDbLayerTableRecord
  2
07__ASM_ALL_SKELETONS
 70
0
 62
7
  6
CONTINUOUS
370
-3
390
F
  0
LAYER
  5
214
100
AcDbSymbolTableRecord
100
AcDbLayerTableRecord
  2
NONE
 70
0
 62
7
  6
CONTINUOUS
370
-3
390
F
  0
LAYER
  5
215
100
AcDbSymbolTableRecord
100
AcDbLayerTableRecord
  2
SHELL
 70
0
 62
7
  6
CONTINUOUS
370
-3
390
F
  0
LAYER
  5
216
100
AcDbSymbolTableRecord
100
AcDbLayerTableRecord
  2
_8016
 70
0
 62
7
  6
CONTINUOUS
370
-3
390
F
  0
ENDTAB
  0
TABLE
  2
STYLE
  5
3
100
AcDbSymbolTable
 70
1
  0
STYLE
  5
11
100
AcDbSymbolTableRecord
100
AcDbTextStyleTableRecord
  2
STANDARD
 70
0
 40
0.0
 41
0.8
 50
0.0
 71
0
 42
0.2
  3
txt
  4

  0
STYLE
  5
217
100
AcDbSymbolTableRecord
100
AcDbTextStyleTableRecord
  2
TEXTSTYLE_1
 70
0
 40
0.0
 41
0.8
 50
0.0
 71
0
 42
0.2
  3
gdt
  4

  0
ENDTAB
  0
TABLE
  2
VIEW
  5
6
100
AcDbSymbolTable
 70
0
  0
ENDTAB
  0
TABLE
  2
UCS
  5
7
100
AcDbSymbolTable
 70
0
  0
ENDTAB
  0
TABLE
  2
APPID
  5
9
100
AcDbSymbolTable
 70
1
  0
APPID
  5
218
100
AcDbSymbolTableRecord
100
AcDbRegAppTableRecord
  2
ACAD
 70
0
  0
ENDTAB
  0
TABLE
  2
BLOCK_RECORD
  5
1
100
AcDbSymbolTable
 70
0
  0
BLOCK_RECORD
  5
219
100
AcDbSymbolTableRecord
100
AcDbBlockTableRecord
  2
*Model_Space
  0
BLOCK_RECORD
  5
21A
100
AcDbSymbolTableRecord
100
AcDbBlockTableRecord
  2
*Paper_Space
  0
ENDTAB
  0
TABLE
  2
DIMSTYLE
  5
A
100
AcDbSymbolTable
 70
1
100
AcDbDimStyleTable
 71
0
  0
DIMSTYLE
105
21B
100
AcDbSymbolTableRecord
100
AcDbDimStyleTableRecord
  2
STANDARD
 70
0
  3

  4

 40
1.0
 41
0.1875
 42
0.0625
 43
0.38
 44
0.125
 45
0.0
 46
0.0
 47
0.0001
 48
0.0001
140
0.15625
141
0.09
142
0.0
143
25.4
144
1.0
145
0.0
146
1.0
147
0.09
 71
0.0
 72
0.0
 73
1
 74
1
 75
0
 76
0
 77
0
 78
4
 79
1
170
0
171
3
172
0
173
0
174
0
175
0
176
0
177
0
178
0
270
2
179
4
271
4
272
4
273
2
274
2
275
0
280
0
281
0
282
0
283
1
284
4
285
0
286
0
287
3
288
0
340
11
278
46
  0
ENDTAB
  0
ENDSEC
  0
SECTION
  2
BLOCKS
  0
BLOCK
  5
20
100
AcDbEntity
  8
0
100
AcDbBlockBegin
  2
*Model_Space
 70
0
 10
0.0
 20
0.0
 30
0.0
  3
*Model_Space
  1

  0
ENDBLK
  5
21
100
AcDbEntity
  8
0
100
AcDbBlockEnd
  0
BLOCK
  5
1C
100
AcDbEntity
  8
0
100
AcDbBlockBegin
  2
*Paper_Space
 70
0
 10
0.0
 20
0.0
 30
0.0
  3
*Paper_Space
  1

  0
ENDBLK
  5
1D
100
AcDbEntity
  8
0
100
AcDbBlockEnd
  0
ENDSEC
  0
SECTION
  2
ENTITIES
  0
MTEXT
  5
21C
100
AcDbEntity
  8
0
100
AcDbMText
 62
7
  6
CONTINUOUS
  7
STANDARD
 71
1
 72
1
 10
15.9560215477
 20
0.9479130325
 30
0.0
 11
1.0
 21
0.0
 31
0.0
 44
0.9
  1
SCALE: 1:1.000
 40
0.3
 41
3.36
  0
LINE
  5
21D
100
AcDbEntity
  8
0
100
AcDbLine
 62
7
  6
CONTINUOUS
 10
0.0
 20
0.0
 11
0.0
 21
17.0
  0
LINE
  5
21E
100
AcDbEntity
  8
0
100
AcDbLine
 62
7
  6
CONTINUOUS
 10
0.0
 20
0.0
 11
22.0
 21
0.0
  0
LINE
  5
21F
100
AcDbEntity
  8
0
100
AcDbLine
 62
7
  6
CONTINUOUS
 10
0.0
 20
17.0
 11
22.0
 21
17.0
  0
LINE
  5
220
100
AcDbEntity
  8
0
100
AcDbLine
 62
7
  6
CONTINUOUS
 10
22.0
 20
0.0
 11
22.0
 21
17.0
  0
LINE
  5
221
100
AcDbEntity
  8
0
100
AcDbLine
 62
7
  6
CONTINUOUS
 10
5.9571621954
 20
7.2863120126
 11
6.0277441587
 21
7.3550552824
  0
LINE
  5
222
100
AcDbEntity
  8
0
100
AcDbLine
 62
7
  6
CONTINUOUS
 10
6.2169698165
 20
7.2019655094
 11
6.3035723569
 21
7.2863120126
  0
LINE
  5
223
100
AcDbEntity
  8
0
100
AcDbLine
 62
7
  6
CONTINUOUS
 10
6.2169698165
 20
7.1358113893
 11
6.3035723569
 21
7.2201578925
  0
LINE
  5
224
100
AcDbEntity
  8
0
100
AcDbLine
 62
7
  6
CONTINUOUS
 10
5.7703672762
 20
6.9848765674
 11
5.7703672762
 21
7.2948339504
  0
LINE
  5
225
100
AcDbEntity
  8
0
100
AcDbLine
 62
7
  6
CONTINUOUS
 10
7.1468332741
 20
7.0669159806
 11
6.9192124324
 21
6.8392951389
  0
LINE
  5
226
100
AcDbEntity
  8
0
100
AcDbLine
 62
7
  6
CONTINUOUS
 10
4.811192034
 20
4.7312747405
 11
4.5835711923
 21
4.5036538988
  0
LINE
  5
227
100
AcDbEntity
  8
0
100
AcDbLine
 62
7
  6
CONTINUOUS
 10
4.5835711923
 20
6.5365858947
 11
4.811192034
 21
6.308965053
  0
LINE
  5
228
100
AcDbEntity
  8
0
100
AcDbLine
 62
7
  6
CONTINUOUS
 10
6.9192124324
 20
4.2009446546
 11
7.1468332741
 21
3.9733238129
  0
LINE
  5
229
100
AcDbEntity
  8
0
100
AcDbLine
 62
7
  6
CONTINUOUS
 10
5.9571621954
 20
7.2863120126
 11
5.9571621954
 21
7.2201578925
  0
LINE
  5
22A
100
AcDbEntity
  8
0
100
AcDbLine
 62
7
  6
CONTINUOUS
 10
6.0437647358
 20
7.1358113893
 11
6.0437647358
 21
7.2019655094
  0
LINE
  5
22B
100
AcDbEntity
  8
0
100
AcDbLine
 62
7
  6
CONTINUOUS
 10
6.2169698165
 20
7.2019655094
 11
6.2169698165
 21
7.1358113893
  0
LINE
  5
22C
100
AcDbEntity
  8
0
100
AcDbLine
 62
7
  6
CONTINUOUS
 10
6.3035723569
 20
7.2863120126
 11
6.3035723569
 21
7.2201578925
  0
LINE
  5
22D
100
AcDbEntity
  8
0
100
AcDbLine
 62
7
  6
CONTINUOUS
 10
6.4903672762
 20
6.9848765674
 11
6.4903672762
 21
7.2948339504
  0
LINE
  5
22E
100
AcDbEntity
  8
0
100
AcDbLine
 62
7
  6
CONTINUOUS
 10
5.1139012782
 20
3.9733238129
 11
5.3415221199
 21
4.2009446546
  0
LINE
  5
22F
100
AcDbEntity
  8
0
100
AcDbLine
 62
7
  6
CONTINUOUS
 10
7.4495425183
 20
6.308965053
 11
7.67716336
 21
6.5365858947
  0
LINE
  5
230
100
AcDbEntity
  8
0
100
AcDbLine
 62
7
  6
CONTINUOUS
 10
7.67716336
 20
4.5036538988
 11
7.4495425183
 21
4.7312747405
  0
LINE
  5
231
100
AcDbEntity
  8
0
100
AcDbLine
 62
7
  6
CONTINUOUS
 10
5.3415221199
 20
6.8392951389
 11
5.1139012782
 21
7.0669159806
  0
LINE
  5
232
100
AcDbEntity
  8
0
100
AcDbLine
 62
7
  6
CONTINUOUS
 10
6.0437647358
 20
7.1358113893
 11
5.9571621954
 21
7.2201578925
  0
LINE
  5
233
100
AcDbEntity
  8
0
100
AcDbLine
 62
7
  6
CONTINUOUS
 10
6.0437647358
 20
7.2019655094
 11
5.9571621954
 21
7.2863120126
  0
LINE
  5
234
100
AcDbEntity
  8
0
100
AcDbLine
 62
7
  6
CONTINUOUS
 10
6.3035723569
 20
7.2863120126
 11
6.233117727
 21
7.3549312661
  0
LINE
  5
235
100
AcDbEntity
  8
0
100
AcDbLine
 62
7
  6
CONTINUOUS
 10
6.0437647358
 20
7.1358113893
 11
6.2169698165
 21
7.1358113893
  0
LINE
  5
236
100
AcDbEntity
  8
0
100
AcDbLine
 62
7
  6
CONTINUOUS
 10
6.0437647358
 20
7.2019655094
 11
6.2169698165
 21
7.2019655094
  0
LINE
  5
237
100
AcDbEntity
  8
0
100
AcDbLine
 62
7
  6
CONTINUOUS
 10
3.8833720839
 20
12.7762977814
 11
3.8833720839
 21
13.0487977814
  0
LINE
  5
238
100
AcDbEntity
  8
0
100
AcDbLine
 62
7
  6
CONTINUOUS
 10
4.414241043
 20
12.7062977814
 11
4.414241043
 21
12.4937977814
  0
LINE
  5
239
100
AcDbEntity
  8
0
100
AcDbLine
 62
7
  6
CONTINUOUS
 10
4.5708720839
 20
13.5187977814
 11
4.5708720839
 21
13.1187977814
  0
LINE
  5
23A
100
AcDbEntity
  8
0
100
AcDbLine
 62
7
  6
CONTINUOUS
 10
4.6458720839
 20
12.4437977814
 11
4.6458720839
 21
11.7312977814
  0
LINE
  5
23B
100
AcDbEntity
  8
0
100
AcDbLine
 62
7
  6
CONTINUOUS
 10
7.3958720839
 20
11.6312977814
 11
4.7458720839
 21
11.6312977814
  0
LINE
  5
23C
100
AcDbEntity
  8
0
100
AcDbLine
 62
7
  6
CONTINUOUS
 10
5.7108720839
 20
12.4637977814
 11
5.7108720839
 21
12.7362977814
  0
LINE
  5
23D
100
AcDbEntity
  8
0
100
AcDbLine
 62
7
  6
CONTINUOUS
 10
5.8976670031
 20
12.5459276792
 11
5.8976670031
 21
12.590912481
  0
LINE
  5
23E
100
AcDbEntity
  8
03__ASM_ALL_CURVES
100
AcDbLine
 62
8
  6
PHANTOM
 10
7.8833720839
 20
12.4437977814
 11
7.6778548273
 21
12.4437977814
  0
LINE
  5
23F
100
AcDbEntity
  8
03__ASM_ALL_CURVES
100
AcDbLine
 62
8
  6
PHANTOM
 10
7.1019084084
 20
12.4437977814
 11
6.1844277852
 21
12.4437977814
  0
LINE
  5
240
100
AcDbEntity
  8
03__ASM_ALL_CURVES
100
AcDbLine
 62
8
  6
PHANTOM
 10
5.9573637866
 20
12.4437977814
 11
5.0398357686
 21
12.4437977814
  0
LINE
  5
241
100
AcDbEntity
  8
03__ASM_ALL_CURVES
100
AcDbLine
 62
8
  6
PHANTOM
 10
4.4638893358
 20
12.4437977814
 11
4.2583720839
 21
12.4437977814
  0
LINE
  5
242
100
AcDbEntity
  8
0
100
AcDbLine
 62
7
  6
CONTINUOUS
 10
4.4642442334
 20
12.4437977814
 11
5.9573640921
 21
12.4437977814
  0
LINE
  5
243
100
AcDbEntity
  8
0
100
AcDbLine
 62
7
  6
CONTINUOUS
 10
6.1844275238
 20
12.4437977814
 11
7.6774999333
 21
12.4437977814
  0
LINE
  5
244
100
AcDbEntity
  8
0
100
AcDbLine
 62
7
  6
CONTINUOUS
 10
5.9563808021
 20
12.4618331546
 11
5.8976670031
 21
12.5459276792
  0
LINE
  5
245
100
AcDbEntity
  8
0
100
AcDbLine
 62
7
  6
CONTINUOUS
 10
5.9842695435
 20
12.6699666546
 11
5.9842695435
 21
12.7149514563
  0
LINE
  5
246
100
AcDbEntity
  8
0
100
AcDbLine
 62
7
  6
CONTINUOUS
 10
5.9842695435
 20
12.7149514563
 11
5.8976670031
 21
12.590912481
  0
LINE
  5
247
100
AcDbEntity
  8
0
100
AcDbLine
 62
7
  6
CONTINUOUS
 10
5.8976670031
 20
12.5459276792
 11
5.9842695435
 21
12.6699666546
  0
LINE
  5
248
100
AcDbEntity
  8
0
100
AcDbLine
 62
7
  6
CONTINUOUS
 10
6.1574746242
 20
12.7149514563
 11
6.1574746242
 21
12.6699666546
  0
LINE
  5
249
100
AcDbEntity
  8
0
100
AcDbLine
 62
7
  6
CONTINUOUS
 10
6.2440771646
 20
12.5459276792
 11
6.2440771646
 21
12.590912481
  0
LINE
  5
24A
100
AcDbEntity
  8
0
100
AcDbLine
 62
7
  6
CONTINUOUS
 10
6.1854137538
 20
12.4619053246
 11
6.2440771646
 21
12.5459276792
  0
LINE
  5
24B
100
AcDbEntity
  8
0
100
AcDbLine
 62
7
  6
CONTINUOUS
 10
6.1574746242
 20
12.6699666546
 11
5.9842695435
 21
12.6699666546
  0
LINE
  5
24C
100
AcDbEntity
  8
0
100
AcDbLine
 62
7
  6
CONTINUOUS
 10
5.9842695435
 20
12.7149514563
 11
6.1574746242
 21
12.7149514563
  0
LINE
  5
24D
100
AcDbEntity
  8
0
100
AcDbLine
 62
7
  6
CONTINUOUS
 10
8.238368895
 20
12.7562977814
 11
7.7732462747
 21
12.7562977814
  0
LINE
  5
24E
100
AcDbEntity
  8
0
100
AcDbLine
 62
7
  6
CONTINUOUS
 10
7.4125048074
 20
12.7562977814
 11
4.7292393621
 21
12.7562977814
  0
LINE
  5
24F
100
AcDbEntity
  8
0
100
AcDbLine
 62
7
  6
CONTINUOUS
 10
4.3684978932
 20
12.7562977814
 11
3.9033720839
 21
12.7562977814
  0
LINE
  5
250
100
AcDbEntity
  8
0
100
AcDbLine
 62
7
  6
CONTINUOUS
 10
6.2440771646
 20
12.5459276792
 11
6.1574746242
 21
12.6699666546
  0
LINE
  5
251
100
AcDbEntity
  8
0
100
AcDbLine
 62
7
  6
CONTINUOUS
 10
6.1574746242
 20
12.7149514563
 11
6.2440771646
 21
12.590912481
  0
LINE
  5
252
100
AcDbEntity
  8
0
100
AcDbLine
 62
7
  6
CONTINUOUS
 10
6.4308720839
 20
12.7362977814
 11
6.4308720839
 21
12.4637977814
  0
LINE
  5
253
100
AcDbEntity
  8
0
100
AcDbLine
 62
7
  6
CONTINUOUS
 10
3.9033720839
 20
13.0687977814
 11
8.2383720839
 21
13.0687977814
  0
LINE
  5
254
100
AcDbEntity
  8
0
100
AcDbLine
 62
7
  6
CONTINUOUS
 10
4.6208720839
 20
13.5687977814
 11
7.5208720839
 21
13.5687977814
  0
LINE
  5
255
100
AcDbEntity
  8
0
100
AcDbLine
 62
7
  6
CONTINUOUS
 10
7.4958720839
 20
11.7312977814
 11
7.4958720839
 21
12.4437977814
  0
LINE
  5
256
100
AcDbEntity
  8
0
100
AcDbLine
 62
7
  6
CONTINUOUS
 10
7.5708720839
 20
13.1187977814
 11
7.5708720839
 21
13.5187977814
  0
LINE
  5
257
100
AcDbEntity
  8
0
100
AcDbLine
 62
7
  6
CONTINUOUS
 10
7.7275031248
 20
12.7062977814
 11
7.7275031248
 21
12.4937977814
  0
LINE
  5
258
100
AcDbEntity
  8
0
100
AcDbLine
 62
7
  6
CONTINUOUS
 10
8.2583720839
 20
13.0487977814
 11
8.2583720839
 21
12.7762977814
  0
LINE
  5
259
100
AcDbEntity
  8
0
100
AcDbLine
 62
7
  6
CONTINUOUS
 10
16.0091052569
 20
3.2731247044
 11
15.7366052569
 21
3.2731247044
  0
LINE
  5
25A
100
AcDbEntity
  8
0
100
AcDbLine
 62
7
  6
CONTINUOUS
 10
15.3505203021
 20
7.4291335746
 11
15.3753280972
 21
7.4460028753
  0
LINE
  5
25B
100
AcDbEntity
  8
0
100
AcDbLine
 62
7
  6
CONTINUOUS
 10
15.6666052569
 20
3.8039936635
 11
15.4541052569
 21
3.8039936635
  0
LINE
  5
25C
100
AcDbEntity
  8
0
100
AcDbLine
 62
7
  6
CONTINUOUS
 10
15.3821961795
 20
7.1424703171
 11
15.6302741301
 21
7.3111633235
  0
LINE
  5
25D
100
AcDbEntity
  8
0
100
AcDbLine
 62
7
  6
CONTINUOUS
 10
16.0791052569
 20
3.9606247044
 11
16.4791052569
 21
3.9606247044
  0
LINE
  5
25E
100
AcDbEntity
  8
0
100
AcDbLine
 62
7
  6
CONTINUOUS
 10
15.4041052569
 20
4.0356247044
 11
14.6916052569
 21
4.0356247044
  0
LINE
  5
25F
100
AcDbEntity
  8
0
100
AcDbLine
 62
7
  6
CONTINUOUS
 10
15.4873861994
 20
7.1172557453
 11
15.7163327322
 21
7.2729393876
  0
LINE
  5
260
100
AcDbEntity
  8
0
100
AcDbLine
 62
7
  6
CONTINUOUS
 10
14.5916052569
 20
4.1356361885
 11
14.5916052569
 21
6.7856132204
  0
LINE
  5
261
100
AcDbEntity
  8
03__ASM_ALL_CURVES
100
AcDbLine
 62
8
  6
PHANTOM
 10
15.4041052569
 20
3.8539775751
 11
15.4041052569
 21
3.6481329171
  0
LINE
  5
262
100
AcDbEntity
  8
03__ASM_ALL_CURVES
100
AcDbLine
 62
8
  6
PHANTOM
 10
15.4041052569
 20
4.4296337125
 11
15.4041052569
 21
6.4916156943
  0
LINE
  5
263
100
AcDbEntity
  8
0
100
AcDbLine
 62
7
  6
CONTINUOUS
 10
15.4041052569
 20
3.8539968546
 11
15.4041052569
 21
7.0672525526
  0
LINE
  5
264
100
AcDbEntity
  8
03__ASM_ALL_CURVES
100
AcDbLine
 62
8
  6
PHANTOM
 10
15.4041052569
 20
7.0672685085
 11
15.4041052569
 21
7.2696021565
  0
LINE
  5
265
100
AcDbEntity
  8
0
100
AcDbLine
 62
7
  6
CONTINUOUS
 10
15.7166052569
 20
3.2931278274
 11
15.7166052569
 21
3.7582505136
  0
LINE
  5
266
100
AcDbEntity
  8
0
100
AcDbLine
 62
7
  6
CONTINUOUS
 10
15.7166052569
 20
4.1189919809
 11
15.7166052569
 21
6.8022574262
  0
LINE
  5
267
100
AcDbEntity
  8
0
100
AcDbLine
 62
7
  6
CONTINUOUS
 10
15.7166052569
 20
7.1629988951
 11
15.7166052569
 21
7.6281215814
  0
LINE
  5
268
100
AcDbEntity
  8
0
100
AcDbLine
 62
7
  6
CONTINUOUS
 10
16.0291052569
 20
7.6281210743
 11
16.0291052569
 21
3.2931283346
  0
LINE
  5
269
100
AcDbEntity
  8
0
100
AcDbLine
 62
7
  6
CONTINUOUS
 10
15.3821961795
 20
7.1424703171
 11
15.4136352231
 21
7.0962364294
  0
LINE
  5
26A
100
AcDbEntity
  8
0
100
AcDbLine
 62
7
  6
CONTINUOUS
 10
16.5291052569
 20
6.9106245142
 11
16.5291052569
 21
4.0106248947
  0
LINE
  5
26B
100
AcDbEntity
  8
0
100
AcDbLine
 62
7
  6
CONTINUOUS
 10
15.5062351548
 20
7.2268168203
 11
15.5512199565
 21
7.1606627002
  0
LINE
  5
26C
100
AcDbEntity
  8
0
100
AcDbLine
 62
7
  6
CONTINUOUS
 10
15.6752589318
 20
7.2450092034
 11
15.6302741301
 21
7.3111633235
  0
LINE
  5
26D
100
AcDbEntity
  8
0
100
AcDbLine
 62
7
  6
CONTINUOUS
 10
15.4041052569
 20
6.8856247044
 11
14.6916052569
 21
6.8856247044
  0
LINE
  5
26E
100
AcDbEntity
  8
0
100
AcDbLine
 62
7
  6
CONTINUOUS
 10
16.0791052569
 20
6.9606247044
 11
16.4791052569
 21
6.9606247044
  0
LINE
  5
26F
100
AcDbEntity
  8
0
100
AcDbLine
 62
7
  6
CONTINUOUS
 10
15.6666052569
 20
7.1172557453
 11
15.4541052569
 21
7.1172557453
  0
LINE
  5
270
100
AcDbEntity
  8
0
100
AcDbLine
 62
7
  6
CONTINUOUS
 10
16.0091052569
 20
7.6481247044
 11
15.7366052569
 21
7.6481247044
  0
LINE
  5
271
100
AcDbEntity
  8
0
100
AcDbLine
 62
7
  6
CONTINUOUS
 10
13.4141109082
 20
13.4508220206
 11
13.3481478351
 21
13.2373654377
  0
LINE
  5
272
100
AcDbEntity
  8
0
100
AcDbLine
 62
7
  6
CONTINUOUS
 10
13.4979876717
 20
13.4650913668
 11
13.4400528934
 21
13.2776143556
  0
LINE
  5
273
100
AcDbEntity
  8
0
100
AcDbLine
 62
7
  6
CONTINUOUS
 10
13.9395557239
 20
12.822606197
 11
13.9366159292
 21
12.8130930179
  0
LINE
  5
274
100
AcDbEntity
  8
0
100
AcDbLine
 62
7
  6
CONTINUOUS
 10
13.9961691763
 20
12.7517831195
 11
13.8236969209
 21
12.1936626964
  0
LINE
  5
275
100
AcDbEntity
  8
0
100
AcDbLine
 62
7
  6
CONTINUOUS
 10
13.9395638092
 20
12.8225789402
 11
13.9396104954
 21
12.8222924108
  0
LINE
  5
276
100
AcDbEntity
  8
0
100
AcDbLine
 62
7
  6
CONTINUOUS
 10
14.7522415603
 20
13.6302520537
 11
14.7681337704
 21
13.6585330319
  0
LINE
  5
277
100
AcDbEntity
  8
0
100
AcDbLine
 62
7
  6
CONTINUOUS
 10
14.5444948818
 20
13.3352919512
 11
14.5542378122
 21
13.6745215498
  0
LINE
  5
278
100
AcDbEntity
  8
0
100
AcDbLine
 62
7
  6
CONTINUOUS
 10
14.9190733264
 20
13.3593456432
 11
15.0031359923
 21
13.5089393376
  0
LWPOLYLINE
  5
279
100
AcDbEntity
  8
0
100
AcDbPolyline
 62
7
  6
CONTINUOUS
 90
4
 70
0
 10
13.9384765863
 20
12.8251655112
 10
13.9385721993
 20
12.8250394821
 10
13.9392054444
 20
12.8237870347
 10
13.9395638092
 20
12.8225789402
  0
LINE
  5
27A
100
AcDbEntity
  8
0
100
AcDbLine
 62
7
  6
CONTINUOUS
 10
14.9501424083
 20
13.3534613883
 11
15.0342050741
 21
13.5030550827
  0
LINE
  5
27B
100
AcDbEntity
  8
0
100
AcDbLine
 62
7
  6
CONTINUOUS
 10
16.77698214
 20
11.3860991785
 11
16.5868995868
 21
11.482467284
  0
LINE
  5
27C
100
AcDbEntity
  8
0
100
AcDbLine
 62
7
  6
CONTINUOUS
 10
13.9404304007
 20
12.8241749658
 11
13.6341591689
 21
12.9794484398
  0
LINE
  5
27D
100
AcDbEntity
  8
0
100
AcDbLine
 62
7
  6
CONTINUOUS
 10
14.546532005
 20
13.3259069186
 11
14.5893579647
 21
13.2386367883
  0
LINE
  5
27E
100
AcDbEntity
  8
0
100
AcDbLine
 62
7
  6
CONTINUOUS
 10
14.7291836729
 20
13.4195186988
 11
14.7595408826
 21
13.3593456432
  0
LINE
  5
27F
100
AcDbEntity
  8
0
100
AcDbLine
 62
7
  6
CONTINUOUS
 10
15.0031359923
 20
13.5089393376
 11
14.9276662143
 21
13.6585330319
  0
LINE
  5
280
100
AcDbEntity
  8
0
100
AcDbLine
 62
7
  6
CONTINUOUS
 10
14.9587352961
 20
13.6526487771
 11
15.0342050741
 21
13.5030550827
  0
LINE
  5
281
100
AcDbEntity
  8
0
100
AcDbLine
 62
7
  6
CONTINUOUS
 10
16.4765414565
 20
12.9888493221
 11
16.3338573242
 21
12.8448702231
  0
LINE
  5
282
100
AcDbEntity
  8
0
100
AcDbLine
 62
7
  6
CONTINUOUS
 10
14.7906099644
 20
13.3534613883
 11
14.7595408826
 21
13.3593456432
  0
LINE
  5
283
100
AcDbEntity
  8
0
100
AcDbLine
 62
7
  6
CONTINUOUS
 10
14.9190733264
 20
13.3593456432
 11
14.9501424083
 21
13.3534613883
  0
LINE
  5
284
100
AcDbEntity
  8
0
100
AcDbLine
 62
7
  6
CONTINUOUS
 10
16.5689783413
 20
13.2226357953
 11
16.5175392476
 21
13.056178827
  0
LINE
  5
285
100
AcDbEntity
  8
0
100
AcDbLine
 62
7
  6
CONTINUOUS
 10
14.7906099644
 20
13.3534613883
 11
14.9501424083
 21
13.3534613883
  0
LINE
  5
286
100
AcDbEntity
  8
0
100
AcDbLine
 62
7
  6
CONTINUOUS
 10
14.7595408826
 20
13.3593456432
 11
14.9190733264
 21
13.3593456432
  0
LINE
  5
287
100
AcDbEntity
  8
0
100
AcDbLine
 62
7
  6
CONTINUOUS
 10
15.0031359923
 20
13.5089393376
 11
15.0342050741
 21
13.5030550827
  0
LINE
  5
288
100
AcDbEntity
  8
0
100
AcDbLine
 62
7
  6
CONTINUOUS
 10
14.9587352961
 20
13.6526487771
 11
14.9276662143
 21
13.6585330319
  0
LINE
  5
289
100
AcDbEntity
  8
0
100
AcDbLine
 62
7
  6
CONTINUOUS
 10
14.9276662143
 20
13.6585330319
 11
14.7681337704
 21
13.6585330319
  0
LINE
  5
28A
100
AcDbEntity
  8
0
100
AcDbLine
 62
7
  6
CONTINUOUS
 10
16.7191185824
 20
11.9103281108
 11
16.546646327
 21
11.3522076877
  0
LINE
  5
28B
100
AcDbEntity
  8
0
100
AcDbLine
 62
7
  6
CONTINUOUS
 10
16.8543175557
 20
12.0938078717
 11
16.8028784619
 21
11.9273509034
  0
LINE
  5
28C
100
AcDbEntity
  8
0
100
AcDbLine
 62
7
  6
CONTINUOUS
 10
16.7994300652
 20
11.9166066624
 11
16.7993104745
 21
11.9162436221
  0
LINE
  5
28D
100
AcDbEntity
  8
0
100
AcDbLine
 62
7
  6
CONTINUOUS
 10
17.3765553963
 20
11.6730426421
 11
17.3868183812
 21
11.6859303532
  0
LINE
  5
28E
100
AcDbEntity
  8
0
100
AcDbLine
 62
7
  6
CONTINUOUS
 10
17.3868219926
 20
11.6859350178
 11
17.3868196991
 21
11.6859322234
  0
LINE
  5
28F
100
AcDbEntity
  8
0
100
AcDbLine
 62
7
  6
CONTINUOUS
 10
17.3573762759
 20
11.6503065769
 11
17.2994414977
 21
11.4628295657
  0
LINE
  5
290
100
AcDbEntity
  8
0
100
AcDbLine
 62
7
  6
CONTINUOUS
 10
17.5940771018
 20
12.1591147704
 11
17.5281140287
 21
11.9456581875
  0
LWPOLYLINE
  5
291
100
AcDbEntity
  8
0
100
AcDbPolyline
 62
7
  6
CONTINUOUS
 90
3
 70
0
 10
17.356263206
 20
11.6467046812
 10
17.3649924901
 20
11.6580714803
 10
17.3765553963
 20
11.6730426421
  0
ARC
  5
292
100
AcDbEntity
  8
0
100
AcDbCircle
 62
7
  6
CONTINUOUS
 10
4.8487362353
 20
4.2384888559
 40
0.375
100
AcDbArc
 50
135.0
 51
315.0
  0
CIRCLE
  5
293
100
AcDbEntity
  8
0
100
AcDbCircle
 62
7
  6
CONTINUOUS
 10
4.8487362353
 20
4.2384888559
 40
0.2075
  0
CIRCLE
  5
294
100
AcDbEntity
  8
0
100
AcDbCircle
 62
7
  6
CONTINUOUS
 10
4.8487362353
 20
4.2384888559
 40
0.1875
  0
ARC
  5
295
100
AcDbEntity
  8
0
100
AcDbCircle
 62
7
  6
CONTINUOUS
 10
5.376877459
 20
4.1655893156
 40
0.05
100
AcDbArc
 50
60.9139606862
 51
135.0
  0
ARC
  5
296
100
AcDbEntity
  8
0
100
AcDbCircle
 62
7
  6
CONTINUOUS
 10
4.775836695
 20
4.7666300796
 40
0.05
100
AcDbArc
 50
315.0
 51
29.0860393138
  0
ARC
  5
297
100
AcDbEntity
  8
0
100
AcDbCircle
 62
7
  6
CONTINUOUS
 10
4.8487362353
 20
6.8017509377
 40
0.375
100
AcDbArc
 50
45.0
 51
225.0
  0
CIRCLE
  5
298
100
AcDbEntity
  8
0
100
AcDbCircle
 62
7
  6
CONTINUOUS
 10
4.8487362353
 20
6.8017509377
 40
0.2075
  0
CIRCLE
  5
299
100
AcDbEntity
  8
0
100
AcDbCircle
 62
7
  6
CONTINUOUS
 10
4.8487362353
 20
6.8017509377
 40
0.1875
  0
ARC
  5
29A
100
AcDbEntity
  8
0
100
AcDbCircle
 62
7
  6
CONTINUOUS
 10
6.0936660465
 20
7.222612315
 40
0.1415084728
100
AcDbArc
 50
118.5609254405
 51
120.2812168114
  0
ARC
  5
29B
100
AcDbEntity
  8
0
100
AcDbCircle
 62
7
  6
CONTINUOUS
 10
5.376877459
 20
6.8746504779
 40
0.05
100
AcDbArc
 50
225.0
 51
299.0860393138
  0
ARC
  5
29C
100
AcDbEntity
  8
0
100
AcDbCircle
 62
7
  6
CONTINUOUS
 10
4.775836695
 20
6.2736097139
 40
0.05
100
AcDbArc
 50
330.9139606862
 51
45.0
  0
ARC
  5
29D
100
AcDbEntity
  8
0
100
AcDbCircle
 62
7
  6
CONTINUOUS
 10
5.7503672762
 20
6.9918535683
 40
0.02
100
AcDbArc
 50
284.4775121859
 51
360.0
  0
CIRCLE
  5
29E
100
AcDbEntity
  8
0
100
AcDbCircle
 62
7
  6
CONTINUOUS
 10
6.1303672762
 20
5.5201198968
 40
2.1875
  0
CIRCLE
  5
29F
100
AcDbEntity
  8
03__ASM_ALL_CURVES
100
AcDbCircle
 62
8
  6
PHANTOM
 10
6.1303672762
 20
5.5201198968
 40
1.8125
  0
ARC
  5
2A0
100
AcDbEntity
  8
0
100
AcDbCircle
 62
7
  6
CONTINUOUS
 10
6.1303672762
 20
5.5201198968
 40
1.5
100
AcDbArc
 50
330.9139606862
 51
29.0860393138
  0
ARC
  5
2A1
100
AcDbEntity
  8
0
100
AcDbCircle
 62
7
  6
CONTINUOUS
 10
6.1303672762
 20
5.5201198968
 40
1.5
100
AcDbArc
 50
150.9139606862
 51
209.0860393138
  0
ARC
  5
2A2
100
AcDbEntity
  8
0
100
AcDbCircle
 62
7
  6
CONTINUOUS
 10
6.1303672762
 20
5.5201198968
 40
1.5
100
AcDbArc
 50
240.9139606862
 51
299.0860393138
  0
ARC
  5
2A3
100
AcDbEntity
  8
0
100
AcDbCircle
 62
7
  6
CONTINUOUS
 10
6.1303672762
 20
5.5201198968
 40
1.5
100
AcDbArc
 50
60.9139606862
 51
75.5224878141
  0
ARC
  5
2A4
100
AcDbEntity
  8
0
100
AcDbCircle
 62
7
  6
CONTINUOUS
 10
6.1303672762
 20
5.5201198968
 40
1.5
100
AcDbArc
 50
104.4775121859
 51
119.0860393138
  0
CIRCLE
  5
2A5
100
AcDbEntity
  8
0
100
AcDbCircle
 62
7
  6
CONTINUOUS
 10
6.1303672762
 20
5.5201198968
 40
1.425
  0
ARC
  5
2A6
100
AcDbEntity
  8
0
100
AcDbCircle
 62
7
  6
CONTINUOUS
 10
7.4119983171
 20
4.2384888559
 40
0.375
100
AcDbArc
 50
225.0
 51
45.0
  0
CIRCLE
  5
2A7
100
AcDbEntity
  8
0
100
AcDbCircle
 62
7
  6
CONTINUOUS
 10
7.4119983171
 20
4.2384888559
 40
0.2075
  0
CIRCLE
  5
2A8
100
AcDbEntity
  8
0
100
AcDbCircle
 62
7
  6
CONTINUOUS
 10
7.4119983171
 20
4.2384888559
 40
0.1875
  0
ARC
  5
2A9
100
AcDbEntity
  8
0
100
AcDbCircle
 62
7
  6
CONTINUOUS
 10
6.8838570934
 20
4.1655893156
 40
0.05
100
AcDbArc
 50
45.0
 51
119.0860393138
  0
ARC
  5
2AA
100
AcDbEntity
  8
0
100
AcDbCircle
 62
7
  6
CONTINUOUS
 10
7.4848978574
 20
4.7666300796
 40
0.05
100
AcDbArc
 50
150.9139606862
 51
225.0
  0
ARC
  5
2AB
100
AcDbEntity
  8
0
100
AcDbCircle
 62
7
  6
CONTINUOUS
 10
7.4119983171
 20
6.8017509377
 40
0.375
100
AcDbArc
 50
315.0
 51
135.0
  0
CIRCLE
  5
2AC
100
AcDbEntity
  8
0
100
AcDbCircle
 62
7
  6
CONTINUOUS
 10
7.4119983171
 20
6.8017509377
 40
0.2075
  0
CIRCLE
  5
2AD
100
AcDbEntity
  8
0
100
AcDbCircle
 62
7
  6
CONTINUOUS
 10
7.4119983171
 20
6.8017509377
 40
0.1875
  0
ARC
  5
2AE
100
AcDbEntity
  8
0
100
AcDbCircle
 62
7
  6
CONTINUOUS
 10
6.166505913
 20
7.2216125262
 40
0.1426555538
100
AcDbArc
 50
59.762151136
 51
61.3488467719
  0
ARC
  5
2AF
100
AcDbEntity
  8
0
100
AcDbCircle
 62
7
  6
CONTINUOUS
 10
7.4848978574
 20
6.2736097139
 40
0.05
100
AcDbArc
 50
135.0
 51
209.0860393138
  0
ARC
  5
2B0
100
AcDbEntity
  8
0
100
AcDbCircle
 62
7
  6
CONTINUOUS
 10
6.8838570934
 20
6.8746504779
 40
0.05
100
AcDbArc
 50
240.9139606862
 51
315.0
  0
ARC
  5
2B1
100
AcDbEntity
  8
0
100
AcDbCircle
 62
7
  6
CONTINUOUS
 10
6.5103672762
 20
6.9918535683
 40
0.02
100
AcDbArc
 50
195.1044975628
 51
255.5224878141
  0
ARC
  5
2B2
100
AcDbEntity
  8
0
100
AcDbCircle
 62
7
  6
CONTINUOUS
 10
4.7458720839
 20
11.7312977814
 40
0.1
100
AcDbArc
 50
180.0
 51
270.0
  0
ARC
  5
2B3
100
AcDbEntity
  8
0
100
AcDbCircle
 62
7
  6
CONTINUOUS
 10
4.464241043
 20
12.4937977814
 40
0.05
100
AcDbArc
 50
180.0
 51
270.0
  0
ARC
  5
2B4
100
AcDbEntity
  8
0
100
AcDbCircle
 62
7
  6
CONTINUOUS
 10
5.7308720839
 20
12.4637977814
 40
0.02
100
AcDbArc
 50
180.0
 51
270.0
  0
ARC
  5
2B5
100
AcDbEntity
  8
0
100
AcDbCircle
 62
7
  6
CONTINUOUS
 10
4.364241043
 20
12.7062977814
 40
0.05
100
AcDbArc
 50
0.0
 51
90.0
  0
ARC
  5
2B6
100
AcDbEntity
  8
0
100
AcDbCircle
 62
7
  6
CONTINUOUS
 10
4.6208720839
 20
13.5187977814
 40
0.05
100
AcDbArc
 50
90.0
 51
180.0
  0
ARC
  5
2B7
100
AcDbEntity
  8
0
100
AcDbCircle
 62
7
  6
CONTINUOUS
 10
4.5208720839
 20
13.1187977814
 40
0.05
100
AcDbArc
 50
270.0
 51
360.0
  0
ARC
  5
2B8
100
AcDbEntity
  8
0
100
AcDbCircle
 62
7
  6
CONTINUOUS
 10
5.706065401
 20
12.7162193703
 40
0.0400682795
100
AcDbArc
 50
80.1383769685
 51
83.439275742
  0
ARC
  5
2B9
100
AcDbEntity
  8
0
100
AcDbCircle
 62
7
  6
CONTINUOUS
 10
3.9033720839
 20
12.7762977814
 40
0.02
100
AcDbArc
 50
180.0
 51
270.0
  0
ARC
  5
2BA
100
AcDbEntity
  8
0
100
AcDbCircle
 62
7
  6
CONTINUOUS
 10
3.9033720839
 20
13.0487977814
 40
0.02
100
AcDbArc
 50
90.0
 51
180.0
  0
ARC
  5
2BB
100
AcDbEntity
  8
0
100
AcDbCircle
 62
7
  6
CONTINUOUS
 10
5.6908720839
 20
12.7362977814
 40
0.02
100
AcDbArc
 50
0.0
 51
90.0
  0
ARC
  5
2BC
100
AcDbEntity
  8
0
100
AcDbCircle
 62
7
  6
CONTINUOUS
 10
7.3958720839
 20
11.7312977814
 40
0.1
100
AcDbArc
 50
270.0
 51
360.0
  0
ARC
  5
2BD
100
AcDbEntity
  8
0
100
AcDbCircle
 62
7
  6
CONTINUOUS
 10
7.6775031248
 20
12.4937977814
 40
0.05
100
AcDbArc
 50
270.0
 51
360.0
  0
ARC
  5
2BE
100
AcDbEntity
  8
0
100
AcDbCircle
 62
7
  6
CONTINUOUS
 10
6.4108720839
 20
12.4637977814
 40
0.02
100
AcDbArc
 50
270.0
 51
360.0
  0
ARC
  5
2BF
100
AcDbEntity
  8
0
100
AcDbCircle
 62
7
  6
CONTINUOUS
 10
7.5208720839
 20
13.5187977814
 40
0.05
100
AcDbArc
 50
0.0
 51
90.0
  0
ARC
  5
2C0
100
AcDbEntity
  8
0
100
AcDbCircle
 62
7
  6
CONTINUOUS
 10
7.6208720839
 20
13.1187977814
 40
0.05
100
AcDbArc
 50
180.0
 51
270.0
  0
ARC
  5
2C1
100
AcDbEntity
  8
0
100
AcDbCircle
 62
7
  6
CONTINUOUS
 10
7.7775031248
 20
12.7062977814
 40
0.05
100
AcDbArc
 50
90.0
 51
180.0
  0
ARC
  5
2C2
100
AcDbEntity
  8
0
100
AcDbCircle
 62
7
  6
CONTINUOUS
 10
6.4358076101
 20
12.7150732044
 40
0.0412216612
100
AcDbArc
 50
96.5566065039
 51
99.765568258
  0
ARC
  5
2C3
100
AcDbEntity
  8
0
100
AcDbCircle
 62
7
  6
CONTINUOUS
 10
8.2383720839
 20
12.7762977814
 40
0.02
100
AcDbArc
 50
270.0
 51
360.0
  0
ARC
  5
2C4
100
AcDbEntity
  8
0
100
AcDbCircle
 62
7
  6
CONTINUOUS
 10
8.2383720839
 20
13.0487977814
 40
0.02
100
AcDbArc
 50
0.0
 51
90.0
  0
ARC
  5
2C5
100
AcDbEntity
  8
0
100
AcDbCircle
 62
7
  6
CONTINUOUS
 10
6.4508720839
 20
12.7362977814
 40
0.02
100
AcDbArc
 50
90.0
 51
180.0
  0
ARC
  5
2C6
100
AcDbEntity
  8
0
100
AcDbCircle
 62
7
  6
CONTINUOUS
 10
14.6916052569
 20
6.7856247044
 40
0.1
100
AcDbArc
 50
90.0
 51
180.0
  0
ARC
  5
2C7
100
AcDbEntity
  8
0
100
AcDbCircle
 62
7
  6
CONTINUOUS
 10
14.6916052569
 20
4.1356247044
 40
0.1
100
AcDbArc
 50
180.0
 51
270.0
  0
ARC
  5
2C8
100
AcDbEntity
  8
0
100
AcDbCircle
 62
7
  6
CONTINUOUS
 10
15.4067513043
 20
7.3464409244
 40
0.1
100
AcDbArc
 50
124.2157021324
 51
234.6180882445
  0
ARC
  5
2C9
100
AcDbEntity
  8
0
100
AcDbCircle
 62
7
  6
CONTINUOUS
 10
15.4315590994
 20
7.363310225
 40
0.1
100
AcDbArc
 50
13.8133160204
 51
124.2157021324
  0
ARC
  5
2CA
100
AcDbEntity
  8
0
100
AcDbCircle
 62
7
  6
CONTINUOUS
 10
15.6257748627
 20
7.4110620552
 40
0.1
100
AcDbArc
 50
193.8133160204
 51
272.5787609159
  0
ARC
  5
2CB
100
AcDbEntity
  8
0
100
AcDbCircle
 62
7
  6
CONTINUOUS
 10
15.2909465427
 20
7.1833787976
 40
0.1
100
AcDbArc
 50
335.852643349
 51
54.6180882445
  0
ARC
  5
2CC
100
AcDbEntity
  8
0
100
AcDbCircle
 62
7
  6
CONTINUOUS
 10
15.4541052569
 20
7.0672557453
 40
0.05
100
AcDbArc
 50
90.0
 51
180.0
  0
ARC
  5
2CD
100
AcDbEntity
  8
0
100
AcDbCircle
 62
7
  6
CONTINUOUS
 10
15.6666052569
 20
7.1672557453
 40
0.05
100
AcDbArc
 50
270.0
 51
360.0
  0
ARC
  5
2CE
100
AcDbEntity
  8
0
100
AcDbCircle
 62
7
  6
CONTINUOUS
 10
15.6666052569
 20
3.7539936635
 40
0.05
100
AcDbArc
 50
0.0
 51
90.0
  0
ARC
  5
2CF
100
AcDbEntity
  8
0
100
AcDbCircle
 62
7
  6
CONTINUOUS
 10
15.4541052569
 20
3.8539936635
 40
0.05
100
AcDbArc
 50
180.0
 51
270.0
  0
ARC
  5
2D0
100
AcDbEntity
  8
0
100
AcDbCircle
 62
7
  6
CONTINUOUS
 10
16.0791052569
 20
7.0106247044
 40
0.05
100
AcDbArc
 50
180.0
 51
270.0
  0
ARC
  5
2D1
100
AcDbEntity
  8
0
100
AcDbCircle
 62
7
  6
CONTINUOUS
 10
16.0791052569
 20
3.9106247044
 40
0.05
100
AcDbArc
 50
90.0
 51
180.0
  0
ARC
  5
2D2
100
AcDbEntity
  8
0
100
AcDbCircle
 62
7
  6
CONTINUOUS
 10
16.4791052569
 20
4.0106247044
 40
0.05
100
AcDbArc
 50
270.0
 51
360.0
  0
ARC
  5
2D3
100
AcDbEntity
  8
0
100
AcDbCircle
 62
7
  6
CONTINUOUS
 10
16.4791052569
 20
6.9106247044
 40
0.05
100
AcDbArc
 50
0.0
 51
90.0
  0
ARC
  5
2D4
100
AcDbEntity
  8
0
100
AcDbCircle
 62
7
  6
CONTINUOUS
 10
15.7366052569
 20
7.6281247044
 40
0.02
100
AcDbArc
 50
90.0
 51
180.0
  0
ARC
  5
2D5
100
AcDbEntity
  8
0
100
AcDbCircle
 62
7
  6
CONTINUOUS
 10
15.7366052569
 20
3.2931247044
 40
0.02
100
AcDbArc
 50
180.0
 51
270.0
  0
ARC
  5
2D6
100
AcDbEntity
  8
0
100
AcDbCircle
 62
7
  6
CONTINUOUS
 10
16.0091052569
 20
7.6281247044
 40
0.02
100
AcDbArc
 50
0.0
 51
90.0
  0
ARC
  5
2D7
100
AcDbEntity
  8
0
100
AcDbCircle
 62
7
  6
CONTINUOUS
 10
16.0091052569
 20
3.2931247044
 40
0.02
100
AcDbArc
 50
270.0
 51
360.0
  0
ARC
  5
2D8
100
AcDbEntity
  8
0
100
AcDbCircle
 62
7
  6
CONTINUOUS
 10
15.1199661906
 20
11.5619616556
 40
2.5665406313
100
AcDbArc
 50
66.3900877967
 51
79.1688163269
  0
ARC
  5
2D9
100
AcDbEntity
  8
0
100
AcDbCircle
 62
7
  6
CONTINUOUS
 10
16.3778781185
 20
12.25406506
 40
1.2705039985
100
AcDbArc
 50
25.7572816748
 51
26.1386597317
  0
ARC
  5
2DA
100
AcDbEntity
  8
0
100
AcDbCircle
 62
7
  6
CONTINUOUS
 10
16.3008976546
 20
12.0824752901
 40
0.5254029942
100
AcDbArc
 50
341.5970041542
 51
342.8275676463
  0
ARC
  5
2DB
100
AcDbEntity
  8
0
100
AcDbCircle
 62
7
  6
CONTINUOUS
 10
16.2000057641
 20
13.0565009332
 40
0.1556741383
100
AcDbArc
 50
34.744919815
 51
35.9950986311
  0
ARC
  5
2DC
100
AcDbEntity
  8
0
100
AcDbCircle
 62
7
  6
CONTINUOUS
 10
16.9819080142
 20
11.4631516719
 40
0.1556741383
100
AcDbArc
 50
34.7449198149
 51
35.9950986312
  0
ARC
  5
2DD
100
AcDbEntity
  8
0
100
AcDbCircle
 62
7
  6
CONTINUOUS
 10
13.8390850432
 20
13.0565009332
 40
0.1556741383
100
AcDbArc
 50
34.7449198148
 51
35.9950986312
  0
ARC
  5
2DE
100
AcDbEntity
  8
0
100
AcDbCircle
 62
7
  6
CONTINUOUS
 10
16.97111661
 20
11.4777916764
 40
0.1538352364
100
AcDbArc
 50
36.4828750667
 51
39.8440503456
  0
ARC
  5
2DF
100
AcDbEntity
  8
0
100
AcDbCircle
 62
7
  6
CONTINUOUS
 10
16.1892143599
 20
13.0711409377
 40
0.1538352364
100
AcDbArc
 50
36.4828750666
 51
39.8440503456
  0
ARC
  5
2E0
100
AcDbEntity
  8
0
100
AcDbCircle
 62
7
  6
CONTINUOUS
 10
13.8282936389
 20
13.0711409377
 40
0.1538352364
100
AcDbArc
 50
36.4828750668
 51
39.8440503455
  0
ARC
  5
2E1
100
AcDbEntity
  8
0
100
AcDbCircle
 62
7
  6
CONTINUOUS
 10
16.8612338929
 20
11.5149942424
 40
0.1500450686
100
AcDbArc
 50
106.4502420679
 51
109.162341337
  0
ARC
  5
2E2
100
AcDbEntity
  8
0
100
AcDbCircle
 62
7
  6
CONTINUOUS
 10
16.0793316428
 20
13.1083435038
 40
0.1500450686
100
AcDbArc
 50
106.4502420679
 51
109.162341337
  0
ARC
  5
2E3
100
AcDbEntity
  8
0
100
AcDbCircle
 62
7
  6
CONTINUOUS
 10
13.7184109219
 20
13.1083435038
 40
0.1500450686
100
AcDbArc
 50
106.450242068
 51
109.162341337
  0
ARC
  5
2E4
100
AcDbEntity
  8
0
100
AcDbCircle
 62
7
  6
CONTINUOUS
 10
14.5644981278
 20
13.3347201319
 40
0.0200114175
100
AcDbArc
 50
178.3625701029
 51
206.1229997396
  0
SPLINE
  5
2E5
100
AcDbEntity
  8
0
100
AcDbSpline
 62
7
  6
CONTINUOUS
 70
0
 71
3
 72
25
 73
21
 74
0
 42
0.0000001
 43
0.0000001
 44
0.0000000001
 40
0.0
 40
0.0
 40
0.0
 40
0.0
 40
0.0626404419
 40
0.1252379537
 40
0.187729777
 40
0.2501603931
 40
0.3125660494
 40
0.3749748108
 40
0.4374011079
 40
0.4998497468
 40
0.5623217723
 40
0.624815356
 40
0.6560850253
 40
0.6873576215
 40
0.7186327893
 40
0.7499100894
 40
0.8124354737
 40
0.8749600667
 40
0.9374922771
 40
1.0
 40
1.0
 40
1.0
 40
1.0
 10
6.1303672762
 20
7.5228054174
 30
0.0
 10
6.1257435498
 20
7.5228054174
 30
0.0
 10
6.1164912483
 20
7.5222984809
 30
0.0
 10
6.1027953232
 20
7.5200190957
 30
0.0
 10
6.0894544429
 20
7.5162174182
 30
0.0
 10
6.0766537644
 20
7.5109052161
 30
0.0
 10
6.0645807838
 20
7.5041075537
 30
0.0
 10
6.0534297125
 20
7.4958821973
 30
0.0
 10
6.0433923146
 20
7.4863228849
 30
0.0
 10
6.0346506944
 20
7.4755579586
 30
0.0
 10
6.0273683229
 20
7.4637513176
 30
0.0
 10
6.0226303614
 20
7.4531977244
 30
0.0
 10
6.0196941809
 20
7.4444420691
 30
0.0
 10
6.0179287157
 20
7.4377405012
 30
0.0
 10
6.0166082109
 20
7.430936682
 30
0.0
 10
6.0154505139
 20
7.4217714984
 30
0.0
 10
6.0151440859
 20
7.4101998298
 30
0.0
 10
6.016611639
 20
7.396391461
 30
0.0
 10
6.019884655
 20
7.3828993803
 30
0.0
 10
6.0232304815
 20
7.3742638972
 30
0.0
 10
6.0251755964
 20
7.3700800142
 30
0.0
  0
SPLINE
  5
2E6
100
AcDbEntity
  8
0
100
AcDbSpline
 62
7
  6
CONTINUOUS
 70
0
 71
3
 72
26
 73
22
 74
0
 42
0.0000001
 43
0.0000001
 44
0.0000000001
 40
0.0
 40
0.0
 40
0.0
 40
0.0
 40
0.0624904568
 40
0.1250032114
 40
0.1875098273
 40
0.2500224633
 40
0.2812961302
 40
0.3125696805
 40
0.3438423425
 40
0.3751134312
 40
0.437615261
 40
0.5000994543
 40
0.5313505494
 40
0.5625948055
 40
0.6250354338
 40
0.687450615
 40
0.7498612749
 40
0.8122936671
 40
0.8747812706
 40
0.9373724844
 40
1.0
 40
1.0
 40
1.0
 40
1.0
 10
6.2355589559
 20
7.3700800142
 30
0.0
 10
6.2375035956
 20
7.3742628749
 30
0.0
 10
6.2408486918
 20
7.3828960207
 30
0.0
 10
6.2441215899
 20
7.3963844065
 30
0.0
 10
6.2455898156
 20
7.4101893844
 30
0.0
 10
6.2452849515
 20
7.4217589065
 30
0.0
 10
6.2441284274
 20
7.4309231998
 30
0.0
 10
6.2428087458
 20
7.4377270099
 30
0.0
 10
6.2410443504
 20
7.4444290653
 30
0.0
 10
6.2381086352
 20
7.4531860353
 30
0.0
 10
6.2333721542
 20
7.4637417104
 30
0.0
 10
6.2272989648
 20
7.4735864316
 30
0.0
 10
6.2217158809
 20
7.4809377654
 30
0.0
 10
6.2156727171
 20
7.4879114433
 30
0.0
 10
6.2073057485
 20
7.4958827851
 30
0.0
 10
6.1961524007
 20
7.50410765
 30
0.0
 10
6.1840782591
 20
7.5109064718
 30
0.0
 10
6.1712768829
 20
7.516218594
 30
0.0
 10
6.157936084
 20
7.5200198476
 30
0.0
 10
6.1442413608
 20
7.5222985392
 30
0.0
 10
6.1349901958
 20
7.5228054174
 30
0.0
 10
6.1303672762
 20
7.5228054174
 30
0.0
  0
SPLINE
  5
2E7
100
AcDbEntity
  8
0
100
AcDbSpline
 62
7
  6
CONTINUOUS
 70
0
 71
3
 72
40
 73
36
 74
0
 42
0.0000001
 43
0.0000001
 44
0.0000000001
 40
0.0
 40
0.0
 40
0.0
 40
0.0
 40
0.014618686
 40
0.0239216784
 40
0.0265976993
 40
0.0274443933
 40
0.0279662763
 40
0.0281675487
 40
0.0282828209
 40
0.028710358
 40
0.0294461345
 40
0.0318264688
 40
0.0353926507
 40
0.0401146255
 40
0.0459635256
 40
0.0529117312
 40
0.0609329333
 40
0.080087995
 40
0.1031428008
 40
0.1297557977
 40
0.1595963517
 40
0.1923488737
 40
0.2277155606
 40
0.2654059403
 40
0.3051155762
 40
0.346541693
 40
0.4333533203
 40
0.4781967754
 40
0.5236213304
 40
0.6148635408
 40
0.7043098882
 40
0.7891037911
 40
0.8671727587
 40
0.9377399118
 40
1.0
 40
1.0
 40
1.0
 40
1.0
 10
6.0244008353
 20
7.3415899
 30
0.0
 10
6.0242953614
 20
7.3414808455
 30
0.0
 10
6.0241263054
 20
7.3413016281
 30
0.0
 10
6.0239401492
 20
7.3410911436
 30
0.0
 10
6.023857576
 20
7.3409932923
 30
0.0
 10
6.0238284385
 20
7.3409576861
 30
0.0
 10
6.0238213531
 20
7.3409491197
 30
0.0
 10
6.0238116721
 20
7.3409369811
 30
0.0
 10
6.0238182317
 20
7.3409459173
 30
0.0
 10
6.0238246718
 20
7.340954386
 30
0.0
 10
6.0238478602
 20
7.3409858103
 30
0.0
 10
6.0238873478
 20
7.341040468
 30
0.0
 10
6.0239513042
 20
7.3411320787
 30
0.0
 10
6.0240330042
 20
7.34125346
 30
0.0
 10
6.0241319434
 20
7.341406191
 30
0.0
 10
6.02424604
 20
7.3415896178
 30
0.0
 10
6.0244274308
 20
7.3418938384
 30
0.0
 10
6.0246804076
 20
7.3423497994
 30
0.0
 10
6.0250039828
 20
7.3429867253
 30
0.0
 10
6.0253518103
 20
7.3437351744
 30
0.0
 10
6.025711944
 20
7.3445882743
 30
0.0
 10
6.026072651
 20
7.34553904
 30
0.0
 10
6.0264217411
 20
7.3465805039
 30
0.0
 10
6.0267486402
 20
7.3477045472
 30
0.0
 10
6.0270476942
 20
7.3489012621
 30
0.0
 10
6.0274060457
 20
7.3506073228
 30
0.0
 10
6.0276736843
 20
7.3523858043
 30
0.0
 10
6.027836056
 20
7.3542168384
 30
0.0
 10
6.0279221682
 20
7.3560991132
 30
0.0
 10
6.0278918039
 20
7.3584479554
 30
0.0
 10
6.0276575679
 20
7.3611955244
 30
0.0
 10
6.0272410813
 20
7.3637835039
 30
0.0
 10
6.0266620174
 20
7.3661385784
 30
0.0
 10
6.0259770974
 20
7.3682194327
 30
0.0
 10
6.0254479957
 20
7.3694940917
 30
0.0
 10
6.0251755964
 20
7.3700800142
 30
0.0
  0
SPLINE
  5
2E8
100
AcDbEntity
  8
0
100
AcDbSpline
 62
7
  6
CONTINUOUS
 70
0
 71
3
 72
20
 73
16
 74
0
 42
0.0000001
 43
0.0000001
 44
0.0000000001
 40
0.0
 40
0.0
 40
0.0
 40
0.0
 40
0.1078639994
 40
0.2357030064
 40
0.3797141108
 40
0.4552271165
 40
0.5311522039
 40
0.6060839662
 40
0.6787138427
 40
0.74791127
 40
0.8125035086
 40
0.871242311
 40
0.9228492163
 40
0.9661621853
 40
1.0
 40
1.0
 40
1.0
 40
1.0
 10
6.2355589559
 20
7.3700800142
 30
0.0
 10
6.2351159795
 20
7.3691271853
 30
0.0
 10
6.2342870307
 20
7.3669791606
 30
0.0
 10
6.2333634124
 20
7.3633882715
 30
0.0
 10
6.2329415393
 20
7.360021366
 30
0.0
 10
6.232820668
 20
7.3571447863
 30
0.0
 10
6.232852974
 20
7.3549385095
 30
0.0
 10
6.2330149082
 20
7.3527659189
 30
0.0
 10
6.2333141438
 20
7.3506740713
 30
0.0
 10
6.2337226389
 20
7.3487039175
 30
0.0
 10
6.2342104324
 20
7.3468918745
 30
0.0
 10
6.2347469948
 20
7.3452733044
 30
0.0
 10
6.2353056982
 20
7.343883522
 30
0.0
 10
6.2358430191
 20
7.3427494209
 30
0.0
 10
6.2362007727
 20
7.3420879986
 30
0.0
 10
6.2363662015
 20
7.3418028812
 30
0.0
  0
SPLINE
  5
2E9
100
AcDbEntity
  8
0
100
AcDbSpline
 62
7
  6
CONTINUOUS
 70
0
 71
3
 72
23
 73
19
 74
0
 42
0.0000001
 43
0.0000001
 44
0.0000000001
 40
0.0
 40
0.0
 40
0.0
 40
0.0
 40
0.0699352566
 40
0.1372297989
 40
0.2020245142
 40
0.2645584378
 40
0.3251842092
 40
0.3843162866
 40
0.4424210425
 40
0.5
 40
0.5575789575
 40
0.6156837134
 40
0.6748157908
 40
0.7354415622
 40
0.7979754858
 40
0.8627702011
 40
0.9300647434
 40
1.0
 40
1.0
 40
1.0
 40
1.0
 10
6.2602710867
 20
7.3284852642
 30
0.0
 10
6.2618738466
 20
7.3269242571
 30
0.0
 10
6.2649066378
 20
7.3237427418
 30
0.0
 10
6.2689750397
 20
7.3187113697
 30
0.0
 10
6.2724528348
 20
7.3135363194
 30
0.0
 10
6.275320505
 20
7.3082402558
 30
0.0
 10
6.2775666067
 20
7.3028468337
 30
0.0
 10
6.2791788831
 20
7.2973779149
 30
0.0
 10
6.280149965
 20
7.2918579555
 30
0.0
 10
6.2804752163
 20
7.2863120126
 30
0.0
 10
6.280149965
 20
7.2807660698
 30
0.0
 10
6.2791788831
 20
7.2752461104
 30
0.0
 10
6.2775666067
 20
7.2697771916
 30
0.0
 10
6.275320505
 20
7.2643837695
 30
0.0
 10
6.2724528348
 20
7.2590877059
 30
0.0
 10
6.2689750397
 20
7.2539126556
 30
0.0
 10
6.2649066378
 20
7.2488812835
 30
0.0
 10
6.2618738466
 20
7.2456997682
 30
0.0
 10
6.2602710867
 20
7.244138761
 30
0.0
  0
SPLINE
  5
2EA
100
AcDbEntity
  8
0
100
AcDbSpline
 62
7
  6
CONTINUOUS
 70
0
 71
3
 72
15
 73
11
 74
0
 42
0.0000001
 43
0.0000001
 44
0.0000000001
 40
0.0
 40
0.0
 40
0.0
 40
0.0
 40
0.1020270188
 40
0.2121151594
 40
0.3299077287
 40
0.4547287515
 40
0.5855231709
 40
0.7209822874
 40
0.8596983678
 40
1.0
 40
1.0
 40
1.0
 40
1.0
 10
6.2602710867
 20
7.244138761
 30
0.0
 10
6.2568694052
 20
7.2408256949
 30
0.0
 10
6.2492517311
 20
7.234486069
 30
0.0
 10
6.236262705
 20
7.2262363212
 30
0.0
 10
6.2214890068
 20
7.2190118589
 30
0.0
 10
6.205182885
 20
7.2129299268
 30
0.0
 10
6.1876142609
 20
7.2080914568
 30
0.0
 10
6.1690774497
 20
7.2045747117
 30
0.0
 10
6.1498880156
 20
7.2024419831
 30
0.0
 10
6.1368970787
 20
7.2019655094
 30
0.0
 10
6.1303672762
 20
7.2019655094
 30
0.0
  0
SPLINE
  5
2EB
100
AcDbEntity
  8
0
100
AcDbSpline
 62
7
  6
CONTINUOUS
 70
0
 71
3
 72
15
 73
11
 74
0
 42
0.0000001
 43
0.0000001
 44
0.0000000001
 40
0.0
 40
0.0
 40
0.0
 40
0.0
 40
0.1403016322
 40
0.2790177126
 40
0.4144768291
 40
0.5452712485
 40
0.6700922713
 40
0.7878848406
 40
0.8979729812
 40
1.0
 40
1.0
 40
1.0
 40
1.0
 10
6.1303672762
 20
7.2019655094
 30
0.0
 10
6.1238374737
 20
7.2019655094
 30
0.0
 10
6.1108465368
 20
7.2024419831
 30
0.0
 10
6.0916571026
 20
7.2045747117
 30
0.0
 10
6.0731202914
 20
7.2080914568
 30
0.0
 10
6.0555516673
 20
7.2129299268
 30
0.0
 10
6.0392455455
 20
7.2190118589
 30
0.0
 10
6.0244718473
 20
7.2262363212
 30
0.0
 10
6.0114828212
 20
7.234486069
 30
0.0
 10
6.0038651472
 20
7.2408256949
 30
0.0
 10
6.0004634656
 20
7.244138761
 30
0.0
  0
SPLINE
  5
2EC
100
AcDbEntity
  8
0
100
AcDbSpline
 62
7
  6
CONTINUOUS
 70
0
 71
3
 72
9
 73
5
 74
0
 42
0.0000001
 43
0.0000001
 44
0.0000000001
 40
0.0
 40
0.0
 40
0.0
 40
0.0
 40
0.517810618
 40
1.0
 40
1.0
 40
1.0
 40
1.0
 10
6.2383459325
 20
7.344858697
 30
0.0
 10
6.2424335943
 20
7.3424750288
 30
0.0
 10
6.250099824
 20
7.3374636152
 30
0.0
 10
6.2571144606
 20
7.3315596587
 30
0.0
 10
6.2602710867
 20
7.3284852642
 30
0.0
  0
SPLINE
  5
2ED
100
AcDbEntity
  8
0
100
AcDbSpline
 62
7
  6
CONTINUOUS
 70
0
 71
3
 72
9
 73
5
 74
0
 42
0.0000001
 43
0.0000001
 44
0.0000000001
 40
0.0
 40
0.0
 40
0.0
 40
0.0
 40
0.4822384731
 40
1.0
 40
1.0
 40
1.0
 40
1.0
 10
6.0004634656
 20
7.3284852642
 30
0.0
 10
6.0036101035
 20
7.3315499308
 30
0.0
 10
6.0106003724
 20
7.3374360724
 30
0.0
 10
6.0182387842
 20
7.342435201
 30
0.0
 10
6.0223111702
 20
7.3448134996
 30
0.0
  0
SPLINE
  5
2EE
100
AcDbEntity
  8
0
100
AcDbSpline
 62
7
  6
CONTINUOUS
 70
0
 71
3
 72
9
 73
5
 74
0
 42
0.0000001
 43
0.0000001
 44
0.0000000001
 40
0.0
 40
0.0
 40
0.0
 40
0.0
 40
0.4740453533
 40
1.0
 40
1.0
 40
1.0
 40
1.0
 10
6.4703672762
 20
7.326667313
 30
0.0
 10
6.4732827328
 20
7.3283032769
 30
0.0
 10
6.4798953839
 20
7.330955572
 30
0.0
 10
6.4868980295
 20
7.332145483
 30
0.0
 10
6.4905959162
 20
7.3324345799
 30
0.0
  0
SPLINE
  5
2EF
100
AcDbEntity
  8
0
100
AcDbSpline
 62
7
  6
CONTINUOUS
 70
0
 71
3
 72
11
 73
7
 74
0
 42
0.0000001
 43
0.0000001
 44
0.0000000001
 40
0.0
 40
0.0
 40
0.0
 40
0.0
 40
0.2293727581
 40
0.4745193668
 40
0.7326312331
 40
1.0
 40
1.0
 40
1.0
 40
1.0
 10
5.7903672762
 20
7.326667313
 30
0.0
 10
5.788954934
 20
7.3274601953
 30
0.0
 10
5.785919523
 20
7.3289022521
 30
0.0
 10
5.7810201054
 20
7.3305916422
 30
0.0
 10
5.7757091372
 20
7.3318199867
 30
0.0
 10
5.7720208835
 20
7.3322874138
 30
0.0
 10
5.7701386416
 20
7.3324345791
 30
0.0
  0
LINE
  5
2F0
100
AcDbEntity
  8
0
100
AcDbLine
 62
7
  6
CONTINUOUS
 10
6.4905959162
 20
7.3324345799
 11
6.4881929437
 21
7.3381370211
  0
SPLINE
  5
2F1
100
AcDbEntity
  8
0
100
AcDbSpline
 62
7
  6
CONTINUOUS
 70
0
 71
3
 72
15
 73
11
 74
0
 42
0.0000001
 43
0.0000001
 44
0.0000000001
 40
0.0
 40
0.0
 40
0.0
 40
0.0
 40
0.1079928795
 40
0.2214898078
 40
0.3402762217
 40
0.464081813
 40
0.5924943131
 40
0.7250109826
 40
0.8610587209
 40
1.0
 40
1.0
 40
1.0
 40
1.0
 10
6.4905959162
 20
7.3324345799
 30
0.0
 10
6.483105743
 20
7.3385114339
 30
0.0
 10
6.4671518648
 20
7.350258278
 30
0.0
 10
6.4412527878
 20
7.3662157395
 30
0.0
 10
6.4129766851
 20
7.3808344807
 30
0.0
 10
6.3825441487
 20
7.39400365
 30
0.0
 10
6.3501841736
 20
7.4056256177
 30
0.0
 10
6.31614347
 20
7.4156121472
 30
0.0
 10
6.2806828364
 20
7.4238867069
 30
0.0
 10
6.2564876011
 20
7.4281823954
 30
0.0
 10
6.2442177947
 20
7.4300382685
 30
0.0
  0
SPLINE
  5
2F2
100
AcDbEntity
  8
0
100
AcDbSpline
 62
7
  6
CONTINUOUS
 70
0
 71
3
 72
15
 73
11
 74
0
 42
0.0000001
 43
0.0000001
 44
0.0000000001
 40
0.0
 40
0.0
 40
0.0
 40
0.0
 40
0.1389409926
 40
0.2749881833
 40
0.4075042358
 40
0.5359162309
 40
0.6597215917
 40
0.7785081952
 40
0.8920058332
 40
1.0
 40
1.0
 40
1.0
 40
1.0
 10
6.0164796431
 20
7.4300326538
 30
0.0
 10
6.0042116762
 20
7.4281764107
 30
0.0
 10
5.9800201171
 20
7.4238801437
 30
0.0
 10
5.9445649474
 20
7.4156051937
 30
0.0
 10
5.9105295551
 20
7.4056187503
 30
0.0
 10
5.8781746334
 20
7.3939973269
 30
0.0
 10
5.8477467918
 20
7.3808291356
 30
0.0
 10
5.8194749332
 20
7.3662117738
 30
0.0
 10
5.7935795654
 20
7.3502560525
 30
0.0
 10
5.7776278552
 20
7.3385106545
 30
0.0
 10
5.7701386416
 20
7.3324345791
 30
0.0
  0
LINE
  5
2F3
100
AcDbEntity
  8
0
100
AcDbLine
 62
7
  6
CONTINUOUS
 10
5.7725416086
 20
7.3381370211
 11
5.7701386361
 21
7.3324345799
  0
SPLINE
  5
2F4
100
AcDbEntity
  8
0
100
AcDbSpline
 62
7
  6
CONTINUOUS
 70
0
 71
3
 72
23
 73
19
 74
0
 42
0.0000001
 43
0.0000001
 44
0.0000000001
 40
0.0
 40
0.0
 40
0.0
 40
0.0
 40
0.0699352566
 40
0.1372297989
 40
0.2020245142
 40
0.2645584378
 40
0.3251842092
 40
0.3843162866
 40
0.4424210425
 40
0.5
 40
0.5575789575
 40
0.6156837134
 40
0.6748157908
 40
0.7354415622
 40
0.7979754858
 40
0.8627702011
 40
0.9300647434
 40
1.0
 40
1.0
 40
1.0
 40
1.0
 10
6.0004634656
 20
7.244138761
 30
0.0
 10
5.9988607058
 20
7.2456997682
 30
0.0
 10
5.9958279146
 20
7.2488812835
 30
0.0
 10
5.9917595126
 20
7.2539126556
 30
0.0
 10
5.9882817175
 20
7.2590877059
 30
0.0
 10
5.9854140473
 20
7.2643837695
 30
0.0
 10
5.9831679457
 20
7.2697771916
 30
0.0
 10
5.9815556692
 20
7.2752461104
 30
0.0
 10
5.9805845873
 20
7.2807660698
 30
0.0
 10
5.980259336
 20
7.2863120126
 30
0.0
 10
5.9805845873
 20
7.2918579555
 30
0.0
 10
5.9815556692
 20
7.2973779149
 30
0.0
 10
5.9831679457
 20
7.3028468337
 30
0.0
 10
5.9854140473
 20
7.3082402558
 30
0.0
 10
5.9882817175
 20
7.3135363194
 30
0.0
 10
5.9917595126
 20
7.3187113697
 30
0.0
 10
5.9958279146
 20
7.3237427418
 30
0.0
 10
5.9988607058
 20
7.3269242571
 30
0.0
 10
6.0004634656
 20
7.3284852642
 30
0.0
  0
SPLINE
  5
2F5
100
AcDbEntity
  8
0
100
AcDbSpline
 62
7
  6
CONTINUOUS
 70
0
 71
3
 72
28
 73
24
 74
0
 42
0.0000001
 43
0.0000001
 44
0.0000000001
 40
0.0
 40
0.0
 40
0.0
 40
0.0
 40
0.0624571806
 40
0.0937145048
 40
0.1249627483
 40
0.1874092228
 40
0.2498582414
 40
0.2811034949
 40
0.3123489396
 40
0.3748003806
 40
0.4372566302
 40
0.49971843
 40
0.5621844093
 40
0.6246601443
 40
0.6559225998
 40
0.6871885182
 40
0.7184595571
 40
0.749735572
 40
0.8122655118
 40
0.8748100552
 40
0.9061133682
 40
0.9374309332
 40
1.0
 40
1.0
 40
1.0
 40
1.0
 10
5.9798517146
 20
12.5276286095
 30
0.0
 10
5.9765899778
 20
12.5235005182
 30
0.0
 10
5.9721240435
 20
12.5169492944
 30
0.0
 10
5.9671452812
 20
12.5076675226
 30
0.0
 10
5.9628375929
 20
12.4980549501
 30
0.0
 10
5.958752888
 20
12.4855026291
 30
0.0
 10
5.9564980439
 20
12.4724959584
 30
0.0
 10
5.9558230653
 20
12.4619852065
 30
0.0
 10
5.9558995082
 20
12.4514530429
 30
0.0
 10
5.9574122948
 20
12.4383371633
 30
0.0
 10
5.9614517173
 20
12.4230251868
 30
0.0
 10
5.9676265267
 20
12.4084398668
 30
0.0
 10
5.9758016227
 20
12.3948750643
 30
0.0
 10
5.9841407459
 20
12.3846360989
 30
0.0
 10
5.9916119522
 20
12.3772059212
 30
0.0
 10
5.9975940188
 20
12.3720338153
 30
0.0
 10
6.0039199936
 20
12.3672868753
 30
0.0
 10
6.012768483
 20
12.3615544641
 30
0.0
 10
6.0245383839
 20
12.3555472178
 30
0.0
 10
6.0370147445
 20
12.3511903815
 30
0.0
 10
6.0472759256
 20
12.3487351942
 30
0.0
 10
6.0576795054
 20
12.3469761713
 30
0.0
 10
6.0656014742
 20
12.3464438287
 30
0.0
 10
6.0708720839
 20
12.3464438287
 30
0.0
  0
SPLINE
  5
2F6
100
AcDbEntity
  8
0
100
AcDbSpline
 62
7
  6
CONTINUOUS
 70
0
 71
3
 72
27
 73
23
 74
0
 42
0.0000001
 43
0.0000001
 44
0.0000000001
 40
0.0
 40
0.0
 40
0.0
 40
0.0
 40
0.062577881
 40
0.0938939143
 40
0.1251953938
 40
0.1877408352
 40
0.2502684926
 40
0.281541641
 40
0.3128085124
 40
0.3752908279
 40
0.4377630996
 40
0.5002247319
 40
0.5626814505
 40
0.6251385783
 40
0.6875943834
 40
0.718843249
 40
0.7500930628
 40
0.8125539021
 40
0.8750143619
 40
0.9062688718
 40
0.9375315629
 40
1.0
 40
1.0
 40
1.0
 40
1.0
 10
6.0708720839
 20
12.3464438287
 30
0.0
 10
6.0761432384
 20
12.3464438287
 30
0.0
 10
6.0840655672
 20
12.3469758776
 30
0.0
 10
6.0944691216
 20
12.3487354539
 30
0.0
 10
6.1047297211
 20
12.3511904247
 30
0.0
 10
6.1172053276
 20
12.3555472291
 30
0.0
 10
6.1289744613
 20
12.3615537232
 30
0.0
 10
6.1378222121
 20
12.3672857254
 30
0.0
 10
6.1462520465
 20
12.3736096315
 30
0.0
 10
6.1559362509
 20
12.3825871198
 30
0.0
 10
6.1659365177
 20
12.3948680901
 30
0.0
 10
6.1741133475
 20
12.4084314977
 30
0.0
 10
6.1802889722
 20
12.4230146576
 30
0.0
 10
6.1843299784
 20
12.438325724
 30
0.0
 10
6.1858439215
 20
12.4514416835
 30
0.0
 10
6.1859215439
 20
12.4619744896
 30
0.0
 10
6.1852472115
 20
12.4724865626
 30
0.0
 10
6.1829932043
 20
12.4854954769
 30
0.0
 10
6.1789084976
 20
12.4980501682
 30
0.0
 10
6.1746003356
 20
12.5076644565
 30
0.0
 10
6.1696213373
 20
12.5169478476
 30
0.0
 10
6.1651546555
 20
12.523499929
 30
0.0
 10
6.1618924531
 20
12.5276286095
 30
0.0
  0
LINE
  5
2F7
100
AcDbEntity
  8
0
100
AcDbLine
 62
7
  6
CONTINUOUS
 10
5.7130464163
 20
12.7562977814
 11
5.7106434438
 21
12.7560252566
  0
LINE
  5
2F8
100
AcDbEntity
  8
0
100
AcDbLine
 62
7
  6
CONTINUOUS
 10
6.4311007239
 20
12.7560252566
 11
6.4286977514
 21
12.7562977814
  0
SPLINE
  5
2F9
100
AcDbEntity
  8
0
100
AcDbSpline
 62
7
  6
CONTINUOUS
 70
0
 71
3
 72
15
 73
11
 74
0
 42
0.0000001
 43
0.0000001
 44
0.0000000001
 40
0.0
 40
0.0
 40
0.0
 40
0.0
 40
0.1312246823
 40
0.2617916954
 40
0.3909487569
 40
0.5181572376
 40
0.6429183523
 40
0.7648798673
 40
0.8839222914
 40
1.0
 40
1.0
 40
1.0
 40
1.0
 10
6.0708720839
 20
12.6699666546
 30
0.0
 10
6.0774070368
 20
12.6699666546
 30
0.0
 10
6.0904552116
 20
12.6692608059
 30
0.0
 10
6.1097042616
 20
12.6661042744
 30
0.0
 10
6.1282989774
 20
12.6608984516
 30
0.0
 10
6.1459202045
 20
12.6537342167
 30
0.0
 10
6.1622693068
 20
12.6447271399
 30
0.0
 10
6.1770707716
 20
12.6340279719
 30
0.0
 10
6.1900638428
 20
12.6218160737
 30
0.0
 10
6.1974666824
 20
12.6126868809
 30
0.0
 10
6.2007758944
 20
12.6079471669
 30
0.0
  0
SPLINE
  5
2FA
100
AcDbEntity
  8
0
100
AcDbSpline
 62
7
  6
CONTINUOUS
 70
0
 71
3
 72
11
 73
7
 74
0
 42
0.0000001
 43
0.0000001
 44
0.0000000001
 40
0.0
 40
0.0
 40
0.0
 40
0.0
 40
0.2418435306
 40
0.4896658595
 40
0.7427172617
 40
1.0
 40
1.0
 40
1.0
 40
1.0
 10
6.4108720839
 20
12.7475439818
 30
0.0
 10
6.4121106435
 20
12.7485661467
 30
0.0
 10
6.4147552412
 20
12.7504758706
 30
0.0
 10
6.4191062353
 20
12.7528265395
 30
0.0
 10
6.4238239733
 20
12.7546238024
 30
0.0
 10
6.4271320719
 20
12.7554077175
 30
0.0
 10
6.4288157037
 20
12.7556975641
 30
0.0
  0
SPLINE
  5
2FB
100
AcDbEntity
  8
0
100
AcDbSpline
 62
7
  6
CONTINUOUS
 70
0
 71
3
 72
15
 73
11
 74
0
 42
0.0000001
 43
0.0000001
 44
0.0000000001
 40
0.0
 40
0.0
 40
0.0
 40
0.0
 40
0.1160777086
 40
0.2351201327
 40
0.3570816477
 40
0.4818427624
 40
0.6090512431
 40
0.7382083046
 40
0.8687753177
 40
1.0
 40
1.0
 40
1.0
 40
1.0
 10
5.9409682733
 20
12.6079471669
 30
0.0
 10
5.9442774854
 20
12.6126868809
 30
0.0
 10
5.9516803249
 20
12.6218160737
 30
0.0
 10
5.9646733961
 20
12.6340279719
 30
0.0
 10
5.9794748609
 20
12.6447271399
 30
0.0
 10
5.9958239632
 20
12.6537342167
 30
0.0
 10
6.0134451903
 20
12.6608984516
 30
0.0
 10
6.0320399061
 20
12.6661042744
 30
0.0
 10
6.0512889562
 20
12.6692608059
 30
0.0
 10
6.064337131
 20
12.6699666546
 30
0.0
 10
6.0708720839
 20
12.6699666546
 30
0.0
  0
SPLINE
  5
2FC
100
AcDbEntity
  8
0
100
AcDbSpline
 62
7
  6
CONTINUOUS
 70
0
 71
3
 72
15
 73
11
 74
0
 42
0.0000001
 43
0.0000001
 44
0.0000000001
 40
0.0
 40
0.0
 40
0.0
 40
0.0
 40
0.1280283093
 40
0.2535711755
 40
0.3772551638
 40
0.5
 40
0.6227448362
 40
0.7464288245
 40
0.8719716907
 40
1.0
 40
1.0
 40
1.0
 40
1.0
 10
5.9409682733
 20
12.4839081916
 30
0.0
 10
5.9377356544
 20
12.4885382029
 30
0.0
 10
5.931968474
 20
12.4981745142
 30
0.0
 10
5.9256048915
 20
12.5136148682
 30
0.0
 10
5.9217386263
 20
12.5296282831
 30
0.0
 10
5.9204406855
 20
12.5459276792
 30
0.0
 10
5.9217386263
 20
12.5622270754
 30
0.0
 10
5.9256048915
 20
12.5782404903
 30
0.0
 10
5.931968474
 20
12.5936808443
 30
0.0
 10
5.9377356544
 20
12.6033171556
 30
0.0
 10
5.9409682733
 20
12.6079471669
 30
0.0
  0
SPLINE
  5
2FD
100
AcDbEntity
  8
0
100
AcDbSpline
 62
7
  6
CONTINUOUS
 70
0
 71
3
 72
11
 73
7
 74
0
 42
0.0000001
 43
0.0000001
 44
0.0000000001
 40
0.0
 40
0.0
 40
0.0
 40
0.0
 40
0.2419110222
 40
0.4898523014
 40
0.7428057448
 40
1.0
 40
1.0
 40
1.0
 40
1.0
 10
5.7308720839
 20
12.7475439818
 30
0.0
 10
5.7296337419
 20
12.748566321
 30
0.0
 10
5.7269799003
 20
12.7504646305
 30
0.0
 10
5.7226248971
 20
12.7528034238
 30
0.0
 10
5.7179137152
 20
12.7546102105
 30
0.0
 10
5.7146099177
 20
12.7554032369
 30
0.0
 10
5.7129278644
 20
12.7556956114
 30
0.0
  0
SPLINE
  5
2FE
100
AcDbEntity
  8
0
100
AcDbSpline
 62
7
  6
CONTINUOUS
 70
0
 71
3
 72
15
 73
11
 74
0
 42
0.0000001
 43
0.0000001
 44
0.0000000001
 40
0.0
 40
0.0
 40
0.0
 40
0.0
 40
0.1280283093
 40
0.2535711755
 40
0.3772551638
 40
0.5
 40
0.6227448362
 40
0.7464288245
 40
0.8719716907
 40
1.0
 40
1.0
 40
1.0
 40
1.0
 10
6.2007758944
 20
12.6079471669
 30
0.0
 10
6.2040085134
 20
12.6033171556
 30
0.0
 10
6.2097756938
 20
12.5936808443
 30
0.0
 10
6.2161392762
 20
12.5782404903
 30
0.0
 10
6.2200055414
 20
12.5622270754
 30
0.0
 10
6.2213034822
 20
12.5459276792
 30
0.0
 10
6.2200055414
 20
12.5296282831
 30
0.0
 10
6.2161392762
 20
12.5136148682
 30
0.0
 10
6.2097756938
 20
12.4981745142
 30
0.0
 10
6.2040085134
 20
12.4885382029
 30
0.0
 10
6.2007758944
 20
12.4839081916
 30
0.0
  0
SPLINE
  5
2FF
100
AcDbEntity
  8
0
100
AcDbSpline
 62
7
  6
CONTINUOUS
 70
0
 71
3
 72
9
 73
5
 74
0
 42
0.0000001
 43
0.0000001
 44
0.0000000001
 40
0.0
 40
0.0
 40
0.0
 40
0.0
 40
0.2468056929
 40
1.0
 40
1.0
 40
1.0
 40
1.0
 10
6.2007758944
 20
12.4839081916
 30
0.0
 10
6.1996502292
 20
12.4822959253
 30
0.0
 10
6.1949297228
 20
12.475875847
 30
0.0
 10
6.1895908616
 20
12.4699138404
 30
0.0
 10
6.1852956157
 20
12.4657232584
 30
0.0
  0
SPLINE
  5
300
100
AcDbEntity
  8
0
100
AcDbSpline
 62
7
  6
CONTINUOUS
 70
0
 71
3
 72
9
 73
5
 74
0
 42
0.0000001
 43
0.0000001
 44
0.0000000001
 40
0.0
 40
0.0
 40
0.0
 40
0.0
 40
0.2534283513
 40
1.0
 40
1.0
 40
1.0
 40
1.0
 10
5.9564436166
 20
12.4657280738
 30
0.0
 10
5.954998898
 20
12.4671377342
 30
0.0
 10
5.9494254036
 20
12.4728285187
 30
0.0
 10
5.9443723123
 20
12.4790326589
 30
0.0
 10
5.9409682733
 20
12.4839081916
 30
0.0
  0
LINE
  5
301
100
AcDbEntity
  8
0
100
AcDbLine
 62
7
  6
CONTINUOUS
 10
15.7163327322
 20
7.2729393876
 11
15.7166052569
 21
7.2786418288
  0
SPLINE
  5
302
100
AcDbEntity
  8
0
100
AcDbSpline
 62
7
  6
CONTINUOUS
 70
0
 71
3
 72
15
 73
11
 74
0
 42
0.0000001
 43
0.0000001
 44
0.0000000001
 40
0.0
 40
0.0
 40
0.0
 40
0.0
 40
0.1199138587
 40
0.2401885683
 40
0.3615119781
 40
0.4843663853
 40
0.6091763143
 40
0.7364470673
 40
0.8666059605
 40
1.0
 40
1.0
 40
1.0
 40
1.0
 10
13.8236969209
 20
12.1936626964
 30
0.0
 10
13.8180442121
 20
12.1753705241
 30
0.0
 10
13.8086887725
 20
12.1380903327
 30
0.0
 10
13.8006762963
 20
12.0808256316
 30
0.0
 10
13.7986763912
 20
12.0225669591
 30
0.0
 10
13.8025827269
 20
11.9636878999
 30
0.0
 10
13.8123023994
 20
11.9045302033
 30
0.0
 10
13.8276523697
 20
11.8453804771
 30
0.0
 10
13.8484550213
 20
11.7864780136
 30
0.0
 10
13.865609989
 20
11.7480007568
 30
0.0
 10
13.8749926416
 20
11.7288809212
 30
0.0
  0
SPLINE
  5
303
100
AcDbEntity
  8
0
100
AcDbSpline
 62
7
  6
CONTINUOUS
 70
0
 71
3
 72
43
 73
39
 74
0
 42
0.0000001
 43
0.0000001
 44
0.0000000001
 40
0.0
 40
0.0
 40
0.0
 40
0.0
 40
0.0272780173
 40
0.0555859698
 40
0.0849386594
 40
0.1153586783
 40
0.1468302276
 40
0.1793028232
 40
0.2127022752
 40
0.2469350724
 40
0.2818873668
 40
0.3174312895
 40
0.3534269488
 40
0.3897258199
 40
0.4261739633
 40
0.4626143504
 40
0.4988904337
 40
0.5348483308
 40
0.5703406377
 40
0.605228002
 40
0.639384214
 40
0.6726973631
 40
0.7050744973
 40
0.7364449447
 40
0.7667628774
 40
0.7960125264
 40
0.8242085508
 40
0.8514008082
 40
0.8776709411
 40
0.9031343454
 40
0.9156118196
 40
0.9279436239
 40
0.9401504893
 40
0.9522487537
 40
0.9642568497
 40
0.9761978402
 40
0.9881015389
 40
1.0
 40
1.0
 40
1.0
 40
1.0
 10
13.8749926416
 20
11.7288809212
 30
0.0
 10
13.8876830839
 20
11.7030205186
 30
0.0
 10
13.9161830233
 20
11.6515863546
 30
0.0
 10
13.9665065543
 20
11.5772137626
 30
0.0
 10
14.0247781448
 20
11.50459035
 30
0.0
 10
14.0905576003
 20
11.4340689399
 30
0.0
 10
14.1634097637
 20
11.3659706492
 30
0.0
 10
14.242872397
 20
11.3006532288
 30
0.0
 10
14.3284327257
 20
11.2384662195
 30
0.0
 10
14.4195469242
 20
11.1797652435
 30
0.0
 10
14.5156292506
 20
11.124892559
 30
0.0
 10
14.6160588824
 20
11.0741820587
 30
0.0
 10
14.7201833358
 20
11.0279510543
 30
0.0
 10
14.8273196609
 20
10.986487543
 30
0.0
 10
14.9367672782
 20
10.9500646385
 30
0.0
 10
15.0478055784
 20
10.9189142243
 30
0.0
 10
15.1597073573
 20
10.8932458012
 30
0.0
 10
15.2717418361
 20
10.8732322904
 30
0.0
 10
15.3831814246
 20
10.8590093665
 30
0.0
 10
15.4933111825
 20
10.8506879641
 30
0.0
 10
15.6014316989
 20
10.8483340665
 30
0.0
 10
15.7068682759
 20
10.8519948504
 30
0.0
 10
15.8089740986
 20
10.8616818606
 30
0.0
 10
15.9071345252
 20
10.8773881708
 30
0.0
 10
16.0007681028
 20
10.8990911108
 30
0.0
 10
16.0893237803
 20
10.9267536825
 30
0.0
 10
16.1722720864
 20
10.9603377256
 30
0.0
 10
16.2490904276
 20
10.999801277
 30
0.0
 10
16.3192379288
 20
11.0450787267
 30
0.0
 10
16.3720296685
 20
11.0878895308
 30
0.0
 10
16.4101546777
 20
11.1248748192
 30
0.0
 10
16.4365103688
 20
11.1537792761
 30
0.0
 10
16.4607287377
 20
11.183985422
 30
0.0
 10
16.4827340522
 20
11.2154252975
 30
0.0
 10
16.502440796
 20
11.2480284938
 30
0.0
 10
16.5197680168
 20
11.2817270385
 30
0.0
 10
16.5346637169
 20
11.3164412112
 30
0.0
 10
16.5429365075
 20
11.3402027074
 30
0.0
 10
16.546646327
 20
11.3522076877
 30
0.0
  0
SPLINE
  5
304
100
AcDbEntity
  8
0
100
AcDbSpline
 62
7
  6
CONTINUOUS
 70
0
 71
3
 72
15
 73
11
 74
0
 42
0.0000001
 43
0.0000001
 44
0.0000000001
 40
0.0
 40
0.0
 40
0.0
 40
0.0
 40
0.1381070722
 40
0.2714835812
 40
0.4004253211
 40
0.5254218105
 40
0.6471122617
 40
0.7662267154
 40
0.8835672732
 40
1.0
 40
1.0
 40
1.0
 40
1.0
 10
16.6701557958
 20
12.3310556152
 30
0.0
 10
16.6789549703
 20
12.3131247828
 30
0.0
 10
16.6949783776
 20
12.2772312767
 30
0.0
 10
16.7143504064
 20
12.2225904147
 30
0.0
 10
16.7285284962
 20
12.1683242791
 30
0.0
 10
16.7374460766
 20
12.1146562037
 30
0.0
 10
16.7410631376
 20
12.0617904413
 30
0.0
 10
16.7393539803
 20
12.0099292718
 30
0.0
 10
16.732328442
 20
11.9592867204
 30
0.0
 10
16.7240891314
 20
11.926416658
 30
0.0
 10
16.7191173612
 20
11.9103284885
 30
0.0
  0
SPLINE
  5
305
100
AcDbEntity
  8
0
100
AcDbSpline
 62
7
  6
CONTINUOUS
 70
0
 71
3
 72
50
 73
46
 74
0
 42
0.0000001
 43
0.0000001
 44
0.0000000001
 40
0.0
 40
0.0
 40
0.0
 40
0.0
 40
0.0107120922
 40
0.021461557
 40
0.0322853096
 40
0.0432187756
 40
0.0542955864
 40
0.0655474211
 40
0.0770031207
 40
0.0886884698
 40
0.1006266067
 40
0.1128376505
 40
0.1253380429
 40
0.1381414756
 40
0.1512591356
 40
0.1646987937
 40
0.1925557988
 40
0.206983099
 40
0.2217387771
 40
0.2522134662
 40
0.2679241546
 40
0.2839367982
 40
0.3168210017
 40
0.350768701
 40
0.3856605275
 40
0.4213607365
 40
0.4577221532
 40
0.4945871697
 40
0.5317914982
 40
0.5691659117
 40
0.6065389779
 40
0.6437392014
 40
0.6805974957
 40
0.7169495686
 40
0.7526380828
 40
0.7875158941
 40
0.8214474275
 40
0.8543140672
 40
0.8703174789
 40
0.8860184337
 40
0.9164715839
 40
0.9312160411
 40
0.9456333144
 40
0.9734757966
 40
1.0
 40
1.0
 40
1.0
 40
1.0
 10
13.9961703976
 20
12.7517827419
 30
0.0
 10
13.9994922008
 20
12.7625317773
 30
0.0
 10
14.0069285057
 20
12.7838347795
 30
0.0
 10
14.0203912647
 20
12.8149862136
 30
0.0
 10
14.0361504452
 20
12.8453048725
 30
0.0
 10
14.0541720778
 20
12.8747379507
 30
0.0
 10
14.0744240326
 20
12.9032356763
 30
0.0
 10
14.0968742449
 20
12.9307459469
 30
0.0
 10
14.1214806552
 20
12.9572232025
 30
0.0
 10
14.1481977439
 20
12.9826248135
 30
0.0
 10
14.1769810658
 20
13.0069062104
 30
0.0
 10
14.2077819781
 20
13.0300246299
 30
0.0
 10
14.2405442429
 20
13.0519451329
 30
0.0
 10
14.2752117592
 20
13.0726308551
 30
0.0
 10
14.3117283181
 20
13.0920439488
 30
0.0
 10
14.3634086891
 20
13.1164802186
 30
0.0
 10
14.4179689748
 20
13.1378897288
 30
0.0
 10
14.4749644679
 20
13.1563749884
 30
0.0
 10
14.5352836574
 20
13.173380841
 30
0.0
 10
14.5978294572
 20
13.1872688822
 30
0.0
 10
14.6622453308
 20
13.1981790459
 30
0.0
 10
14.7294952004
 20
13.2073083741
 30
0.0
 10
14.8162349248
 20
13.2148719355
 30
0.0
 10
14.9230873462
 20
13.217857986
 30
0.0
 10
15.0328944003
 20
13.2148030548
 30
0.0
 10
15.1449084925
 20
13.2057379775
 30
0.0
 10
15.2583688828
 20
13.1907177008
 30
0.0
 10
15.3725044616
 20
13.1698476929
 30
0.0
 10
15.4865392029
 20
13.1432709749
 30
0.0
 10
15.5996959142
 20
13.1111635156
 30
0.0
 10
15.7112066324
 20
13.0737512035
 30
0.0
 10
15.8203097721
 20
13.0312805636
 30
0.0
 10
15.9262654602
 20
12.9840474054
 30
0.0
 10
16.0283515149
 20
12.93236915
 30
0.0
 10
16.1258734798
 20
12.8765969816
 30
0.0
 10
16.2181715924
 20
12.8171130712
 30
0.0
 10
16.3046129083
 20
12.7543153665
 30
0.0
 10
16.3718747342
 20
12.6990976369
 30
0.0
 10
16.4221740503
 20
12.6535930398
 30
0.0
 10
16.4691246961
 20
12.6082222423
 30
0.0
 10
16.5128492597
 20
12.5614531174
 30
0.0
 10
16.5529710332
 20
12.5133684034
 30
0.0
 10
16.589519001
 20
12.4659316309
 30
0.0
 10
16.6301219658
 20
12.4060745886
 30
0.0
 10
16.6578833256
 20
12.35606428
 30
0.0
 10
16.6701557958
 20
12.3310556152
 30
0.0
  0
SPLINE
  5
306
100
AcDbEntity
  8
03__ASM_ALL_CURVES
100
AcDbSpline
 62
8
  6
PHANTOM
 70
0
 71
3
 72
108
 73
104
 74
0
 42
0.0000001
 43
0.0000001
 44
0.0000000001
 40
0.0
 40
0.0
 40
0.0
 40
0.0
 40
0.03125
 40
0.0625
 40
0.09375
 40
0.109375
 40
0.125
 40
0.140625
 40
0.1484375
 40
0.15625
 40
0.16015625
 40
0.1640625
 40
0.166015625
 40
0.1669921875
 40
0.16796875
 40
0.169921875
 40
0.171875
 40
0.17578125
 40
0.1796875
 40
0.1875
 40
0.1953125
 40
0.203125
 40
0.21875
 40
0.25
 40
0.28125
 40
0.296875
 40
0.3046875
 40
0.3125
 40
0.3203125
 40
0.328125
 40
0.330078125
 40
0.33203125
 40
0.3330078125
 40
0.333984375
 40
0.3359375
 40
0.33984375
 40
0.34375
 40
0.3515625
 40
0.359375
 40
0.375
 40
0.390625
 40
0.40625
 40
0.421875
 40
0.4375
 40
0.453125
 40
0.46875
 40
0.4765625
 40
0.484375
 40
0.48828125
 40
0.4921875
 40
0.49609375
 40
0.498046875
 40
0.4990234375
 40
0.5
 40
0.5009765625
 40
0.501953125
 40
0.50390625
 40
0.5078125
 40
0.51171875
 40
0.515625
 40
0.5234375
 40
0.53125
 40
0.546875
 40
0.5625
 40
0.578125
 40
0.59375
 40
0.609375
 40
0.625
 40
0.640625
 40
0.6484375
 40
0.65625
 40
0.66015625
 40
0.6640625
 40
0.666015625
 40
0.66796875
 40
0.669921875
 40
0.671875
 40
0.6796875
 40
0.6875
 40
0.6953125
 40
0.703125
 40
0.71875
 40
0.75
 40
0.78125
 40
0.796875
 40
0.8046875
 40
0.8125
 40
0.8203125
 40
0.828125
 40
0.830078125
 40
0.83203125
 40
0.8330078125
 40
0.833984375
 40
0.8359375
 40
0.83984375
 40
0.84375
 40
0.8515625
 40
0.859375
 40
0.875
 40
0.890625
 40
0.90625
 40
0.9375
 40
1.0
 40
1.0
 40
1.0
 40
1.0
 10
17.027066931
 20
12.3310556152
 30
0.0
 10
17.020899642
 20
12.3413423079
 30
0.0
 10
17.0085650667
 20
12.3619156933
 30
0.0
 10
16.9900631874
 20
12.3927757715
 30
0.0
 10
16.9746450024
 20
12.4184925031
 30
0.0
 10
16.962310348
 20
12.439065889
 30
0.0
 10
16.9530596478
 20
12.4544959266
 30
0.0
 10
16.9453498066
 20
12.4673542971
 30
0.0
 10
16.9391840067
 20
12.4776409805
 30
0.0
 10
16.9353256615
 20
12.484070187
 30
0.0
 10
16.9322497956
 20
12.489213485
 30
0.0
 10
16.9303027139
 20
12.4924281997
 30
0.0
 10
16.9289891896
 20
12.4946781924
 30
0.0
 10
16.9281612618
 20
12.4959643837
 30
0.0
 10
16.9270419736
 20
12.4972523877
 30
0.0
 10
16.9257426246
 20
12.4988617721
 30
0.0
 10
16.9236079149
 20
12.5014371339
 30
0.0
 10
16.9209586171
 20
12.5046562174
 30
0.0
 10
16.9167090716
 20
12.5098068174
 30
0.0
 10
16.9114008001
 20
12.5162450445
 30
0.0
 10
16.9050293079
 20
12.5239709269
 30
0.0
 10
16.8965345309
 20
12.5342720999
 30
0.0
 10
16.8816684205
 20
12.5522991557
 30
0.0
 10
16.8604312206
 20
12.578052079
 30
0.0
 10
16.8391940953
 20
12.6038050508
 30
0.0
 10
16.8243278806
 20
12.6218320386
 30
0.0
 10
16.8158332676
 20
12.6321333184
 30
0.0
 10
16.8094612722
 20
12.6398588731
 30
0.0
 10
16.8030932358
 20
12.6475859763
 30
0.0
 10
16.7983061083
 20
12.6533769622
 30
0.0
 10
16.7951319532
 20
12.6572443714
 30
0.0
 10
16.7937836999
 20
12.6588457445
 30
0.0
 10
16.7927650237
 20
12.6601502815
 30
0.0
 10
16.7915271929
 20
12.6613691025
 30
0.0
 10
16.7892591648
 20
12.6634622135
 30
0.0
 10
16.7860722514
 20
12.6664731511
 30
0.0
 10
16.7809435002
 20
12.671279039
 30
0.0
 10
16.7745427271
 20
12.6772903749
 30
0.0
 10
16.7642958083
 20
12.6869062902
 30
0.0
 10
16.7514891096
 20
12.6989269468
 30
0.0
 10
16.736120235
 20
12.7133514078
 30
0.0
 10
16.7207515851
 20
12.7277759565
 30
0.0
 10
16.7053828729
 20
12.7422004812
 30
0.0
 10
16.6900141851
 20
12.7566250141
 30
0.0
 10
16.6746454619
 20
12.7710495384
 30
0.0
 10
16.6618382903
 20
12.7830699971
 30
0.0
 10
16.6515923361
 20
12.792686316
 30
0.0
 10
16.6451891082
 20
12.7986966245
 30
0.0
 10
16.6400653958
 20
12.8035046214
 30
0.0
 10
16.6362257057
 20
12.8071113034
 30
0.0
 10
16.6330161208
 20
12.8101146946
 30
0.0
 10
16.6307887283
 20
12.812221341
 30
0.0
 10
16.6294857708
 20
12.8134184676
 30
0.0
 10
16.6285935189
 20
12.8143351059
 30
0.0
 10
16.627376483
 20
12.8151799067
 30
0.0
 10
16.6258670568
 20
12.8163313654
 30
0.0
 10
16.6231727779
 20
12.8183347433
 30
0.0
 10
16.6193514036
 20
12.8212028155
 30
0.0
 10
16.6147539427
 20
12.8246418895
 30
0.0
 10
16.6086281204
 20
12.829228234
 30
0.0
 10
16.6009694299
 20
12.8349608523
 30
0.0
 10
16.5887163147
 20
12.8441332161
 30
0.0
 10
16.5733996493
 20
12.8555986106
 30
0.0
 10
16.5550197691
 20
12.8693571116
 30
0.0
 10
16.5366398499
 20
12.8831155985
 30
0.0
 10
16.5182599687
 20
12.8968741143
 30
0.0
 10
16.4998799743
 20
12.9106325288
 30
0.0
 10
16.4815003947
 20
12.9243913193
 30
0.0
 10
16.4661827902
 20
12.9358558093
 30
0.0
 10
16.4539315907
 20
12.9450300182
 30
0.0
 10
16.4462680247
 20
12.950757941
 30
0.0
 10
16.4401522102
 20
12.9553539237
 30
0.0
 10
16.4362955136
 20
12.9581952805
 30
0.0
 10
16.4332887467
 20
12.9605396726
 30
0.0
 10
16.4308184878
 20
12.962102726
 30
0.0
 10
16.4282879302
 20
12.9636110691
 30
0.0
 10
16.4232578328
 20
12.9666558986
 30
0.0
 10
16.415699659
 20
12.9712113224
 30
0.0
 10
16.40562954
 20
12.9772919768
 30
0.0
 10
16.3955574292
 20
12.983370824
 30
0.0
 10
16.3821286426
 20
12.9914765838
 30
0.0
 10
16.358627946
 20
13.0056613716
 30
0.0
 10
16.3250556614
 20
13.0259254929
 30
0.0
 10
16.2914834299
 20
13.0461896151
 30
0.0
 10
16.2679826589
 20
13.0603744017
 30
0.0
 10
16.2545539892
 20
13.0684801633
 30
0.0
 10
16.2444815198
 20
13.0745590051
 30
0.0
 10
16.234412748
 20
13.0806396797
 30
0.0
 10
16.2268508015
 20
13.0851950469
 30
0.0
 10
16.2218256277
 20
13.0882399503
 30
0.0
 10
16.2197078121
 20
13.0894967675
 30
0.0
 10
16.2180695308
 20
13.0905299641
 30
0.0
 10
16.2162265593
 20
13.0914617035
 30
0.0
 10
16.2129062551
 20
13.0930451081
 30
0.0
 10
16.2082125839
 20
13.0953317096
 30
0.0
 10
16.2006749797
 20
13.0989765273
 30
0.0
 10
16.1912624693
 20
13.1035372555
 30
0.0
 10
16.176197146
 20
13.1108317905
 30
0.0
 10
16.1573673126
 20
13.1199508615
 30
0.0
 10
16.1347707332
 20
13.1308933606
 30
0.0
 10
16.1046422327
 20
13.1454834941
 30
0.0
 10
16.0519172292
 20
13.1710161646
 30
0.0
 10
16.0067244128
 20
13.1929013324
 30
0.0
 10
15.9765958588
 20
13.2074914394
 30
0.0
  0
SPLINE
  5
307
100
AcDbEntity
  8
03__ASM_ALL_CURVES
100
AcDbSpline
 62
8
  6
PHANTOM
 70
0
 71
3
 72
89
 73
85
 74
0
 42
0.0000001
 43
0.0000001
 44
0.0000000001
 40
0.0
 40
0.0
 40
0.0
 40
0.0
 40
0.0625
 40
0.09375
 40
0.109375
 40
0.125
 40
0.140625
 40
0.1484375
 40
0.15625
 40
0.16015625
 40
0.1640625
 40
0.166015625
 40
0.16796875
 40
0.171875
 40
0.1796875
 40
0.1875
 40
0.203125
 40
0.21875
 40
0.25
 40
0.28125
 40
0.296875
 40
0.3125
 40
0.3203125
 40
0.328125
 40
0.33203125
 40
0.333984375
 40
0.3359375
 40
0.33984375
 40
0.34375
 40
0.359375
 40
0.375
 40
0.390625
 40
0.40625
 40
0.421875
 40
0.4375
 40
0.453125
 40
0.46875
 40
0.4765625
 40
0.484375
 40
0.4921875
 40
0.49609375
 40
0.498046875
 40
0.5
 40
0.501953125
 40
0.50390625
 40
0.5078125
 40
0.515625
 40
0.5234375
 40
0.53125
 40
0.546875
 40
0.5625
 40
0.578125
 40
0.59375
 40
0.609375
 40
0.625
 40
0.640625
 40
0.6484375
 40
0.65625
 40
0.66015625
 40
0.6640625
 40
0.666015625
 40
0.66796875
 40
0.671875
 40
0.6796875
 40
0.6875
 40
0.703125
 40
0.71875
 40
0.75
 40
0.78125
 40
0.796875
 40
0.8125
 40
0.8203125
 40
0.828125
 40
0.83203125
 40
0.833984375
 40
0.8359375
 40
0.83984375
 40
0.84375
 40
0.859375
 40
0.875
 40
0.890625
 40
0.90625
 40
0.9375
 40
1.0
 40
1.0
 40
1.0
 40
1.0
 10
15.9765958424
 20
13.2074914465
 30
0.0
 10
15.9509434114
 20
13.2174600353
 30
0.0
 10
15.9124647456
 20
13.2324128986
 30
0.0
 10
15.8675730363
 20
13.2498579752
 30
0.0
 10
15.8419205346
 20
13.2598264913
 30
0.0
 10
15.8226814283
 20
13.2673031559
 30
0.0
 10
15.8066479797
 20
13.2735328261
 30
0.0
 10
15.79382315
 20
13.2785185442
 30
0.0
 10
15.7858032386
 20
13.2816301049
 30
0.0
 10
15.7793973699
 20
13.2841296894
 30
0.0
 10
15.7753707473
 20
13.2856683463
 30
0.0
 10
15.7722020254
 20
13.2869532882
 30
0.0
 10
15.7688413623
 20
13.2880410311
 30
0.0
 10
15.762871037
 20
13.2898529736
 30
0.0
 10
15.7543885227
 20
13.2924892592
 30
0.0
 10
15.740790501
 20
13.2966806047
 30
0.0
 10
15.723801877
 20
13.3019289376
 30
0.0
 10
15.6966150966
 20
13.3103211266
 30
0.0
 10
15.6626333736
 20
13.3208133363
 30
0.0
 10
15.628650868
 20
13.3313040816
 30
0.0
 10
15.6014653399
 20
13.3396986136
 30
0.0
 10
15.5844735852
 20
13.3449410889
 30
0.0
 10
15.5708819815
 20
13.3491444425
 30
0.0
 10
15.5623831288
 20
13.3517501587
 30
0.0
 10
15.5564421489
 20
13.3536170071
 30
0.0
 10
15.5530344471
 20
13.3546167394
 30
0.0
 10
15.5495783232
 20
13.3553639729
 30
0.0
 10
15.5452747191
 20
13.3563843199
 30
0.0
 10
15.5349324473
 20
13.3587621195
 30
0.0
 10
15.5194247611
 20
13.3623586541
 30
0.0
 10
15.4987445755
 20
13.3671369793
 30
0.0
 10
15.4780652663
 20
13.3719198733
 30
0.0
 10
15.4573857223
 20
13.3767015462
 30
0.0
 10
15.4367062414
 20
13.3814835348
 30
0.0
 10
15.4160267426
 20
13.3862654815
 30
0.0
 10
15.3953472523
 20
13.3910472802
 30
0.0
 10
15.3781143305
 20
13.3950326408
 30
0.0
 10
15.3643280204
 20
13.3982197353
 30
0.0
 10
15.3539882138
 20
13.4006133209
 30
0.0
 10
15.3453719436
 20
13.4025975909
 30
0.0
 10
15.3393400928
 20
13.4040069592
 30
0.0
 10
15.3358940417
 20
13.4047804921
 30
0.0
 10
15.3333074729
 20
13.4054502804
 30
0.0
 10
15.3307286655
 20
13.4057774242
 30
0.0
 10
15.3272875483
 20
13.4063331342
 30
0.0
 10
15.3212668547
 20
13.4072499408
 30
0.0
 10
15.3126652043
 20
13.4085887778
 30
0.0
 10
15.3023435062
 20
13.4101829207
 30
0.0
 10
15.2885811433
 20
13.4123127977
 30
0.0
 10
15.2713782238
 20
13.4149736497
 30
0.0
 10
15.2507347048
 20
13.4181673146
 30
0.0
 10
15.2300911939
 20
13.4213608002
 30
0.0
 10
15.209447666
 20
13.4245543604
 30
0.0
 10
15.1888041977
 20
13.4277478013
 30
0.0
 10
15.1681605083
 20
13.4309416452
 30
0.0
 10
15.1509581211
 20
13.4336019376
 30
0.0
 10
15.1371946725
 20
13.4357329561
 30
0.0
 10
15.1285960205
 20
13.4370585035
 30
0.0
 10
15.1217090754
 20
13.4381334592
 30
0.0
 10
15.117423042
 20
13.4387721816
 30
0.0
 10
15.1139522836
 20
13.4393590299
 30
0.0
 10
15.1106346058
 20
13.4396688963
 30
0.0
 10
15.1048997819
 20
13.4400824926
 30
0.0
 10
15.0966700735
 20
13.440740478
 30
0.0
 10
15.0835232749
 20
13.4417557365
 30
0.0
 10
15.0670826775
 20
13.4430376612
 30
0.0
 10
15.0407816859
 20
13.4450815267
 30
0.0
 10
15.0079041117
 20
13.4476390574
 30
0.0
 10
14.975026921
 20
13.4501948106
 30
0.0
 10
14.9487253157
 20
13.4522415202
 30
0.0
 10
14.9322862525
 20
13.4535163349
 30
0.0
 10
14.9191363089
 20
13.4545461689
 30
0.0
 10
14.9109146067
 20
13.455167049
 30
0.0
 10
14.9051654029
 20
13.4556472904
 30
0.0
 10
14.9018707751
 20
13.455850329
 30
0.0
 10
14.8985408606
 20
13.4557844964
 30
0.0
 10
14.8943905287
 20
13.455794107
 30
0.0
 10
14.8844198052
 20
13.4557415333
 30
0.0
 10
14.8694678894
 20
13.4556944421
 30
0.0
 10
14.8495296186
 20
13.455613496
 30
0.0
 10
14.8295919852
 20
13.4555374071
 30
0.0
 10
14.8030082517
 20
13.4554342604
 30
0.0
 10
14.7564868222
 20
13.4552545482
 30
0.0
 10
14.7166112755
 20
13.4551002368
 30
0.0
 10
14.6900275856
 20
13.454997423
 30
0.0
  0
SPLINE
  5
308
100
AcDbEntity
  8
03__ASM_ALL_CURVES
100
AcDbSpline
 62
8
  6
PHANTOM
 70
0
 71
3
 72
86
 73
82
 74
0
 42
0.0000001
 43
0.0000001
 44
0.0000000001
 40
0.0
 40
0.0
 40
0.0
 40
0.0
 40
0.0625
 40
0.09375
 40
0.109375
 40
0.125
 40
0.140625
 40
0.15625
 40
0.16015625
 40
0.1640625
 40
0.16796875
 40
0.171875
 40
0.1796875
 40
0.1875
 40
0.203125
 40
0.21875
 40
0.25
 40
0.28125
 40
0.296875
 40
0.3125
 40
0.3203125
 40
0.328125
 40
0.33203125
 40
0.333984375
 40
0.3359375
 40
0.33984375
 40
0.34375
 40
0.359375
 40
0.375
 40
0.390625
 40
0.40625
 40
0.421875
 40
0.4375
 40
0.453125
 40
0.46875
 40
0.4765625
 40
0.484375
 40
0.4921875
 40
0.49609375
 40
0.498046875
 40
0.5
 40
0.501953125
 40
0.50390625
 40
0.5078125
 40
0.515625
 40
0.5234375
 40
0.53125
 40
0.546875
 40
0.5625
 40
0.578125
 40
0.59375
 40
0.609375
 40
0.625
 40
0.640625
 40
0.65625
 40
0.66015625
 40
0.6640625
 40
0.666015625
 40
0.66796875
 40
0.671875
 40
0.6796875
 40
0.6875
 40
0.703125
 40
0.71875
 40
0.75
 40
0.78125
 40
0.796875
 40
0.8125
 40
0.8203125
 40
0.828125
 40
0.83203125
 40
0.833984375
 40
0.8359375
 40
0.83984375
 40
0.84375
 40
0.859375
 40
0.875
 40
0.890625
 40
0.90625
 40
0.9375
 40
1.0
 40
1.0
 40
1.0
 40
1.0
 10
14.690027557
 20
13.4549974217
 30
0.0
 10
14.670580599
 20
13.453371435
 30
0.0
 10
14.6414101728
 20
13.4509324089
 30
0.0
 10
14.6073779709
 20
13.4480870397
 30
0.0
 10
14.5879310527
 20
13.446460884
 30
0.0
 10
14.5733457119
 20
13.4452419124
 30
0.0
 10
14.5587609525
 20
13.4440204755
 30
0.0
 10
14.5478207529
 20
13.4431113099
 30
0.0
 10
14.5405298215
 20
13.4424944497
 30
0.0
 10
14.5368798292
 20
13.4422052152
 30
0.0
 10
14.5332474365
 20
13.4418413483
 30
0.0
 10
14.528487989
 20
13.4410010775
 30
0.0
 10
14.5225100062
 20
13.4400723298
 30
0.0
 10
14.5129612582
 20
13.4385183823
 30
0.0
 10
14.5010198334
 20
13.4365992182
 30
0.0
 10
14.4819166399
 20
13.4335155287
 30
0.0
 10
14.45803646
 20
13.4296655378
 30
0.0
 10
14.4341571745
 20
13.4258133467
 30
0.0
 10
14.41505255
 20
13.4227331775
 30
0.0
 10
14.4031147026
 20
13.4208052127
 30
0.0
 10
14.3935586208
 20
13.4192693066
 30
0.0
 10
14.3875993081
 20
13.4182946305
 30
0.0
 10
14.383401258
 20
13.4176418859
 30
0.0
 10
14.3810438827
 20
13.4172226889
 30
0.0
 10
14.3788428565
 20
13.41662948
 30
0.0
 10
14.3760381329
 20
13.4159474468
 30
0.0
 10
14.3693507806
 20
13.4142616142
 30
0.0
 10
14.359301278
 20
13.4117534263
 30
0.0
 10
14.3459125013
 20
13.4083974227
 30
0.0
 10
14.3325208957
 20
13.4050445679
 30
0.0
 10
14.3191300453
 20
13.4016908709
 30
0.0
 10
14.3057390032
 20
13.3983373936
 30
0.0
 10
14.2923479727
 20
13.39498388
 30
0.0
 10
14.2789570874
 20
13.3916302918
 30
0.0
 10
14.2677975227
 20
13.388835914
 30
0.0
 10
14.2588709831
 20
13.3865997794
 30
0.0
 10
14.2521730379
 20
13.3849244081
 30
0.0
 10
14.2466010887
 20
13.3835227632
 30
0.0
 10
14.2426817436
 20
13.3825524097
 30
0.0
 10
14.2404717546
 20
13.3819810618
 30
0.0
 10
14.2387307757
 20
13.3816000462
 30
0.0
 10
14.2373089271
 20
13.3810374797
 30
0.0
 10
14.2353018127
 20
13.380350718
 30
0.0
 10
14.2318412268
 20
13.3791193798
 30
0.0
 10
14.2268704175
 20
13.3773757509
 30
0.0
 10
14.2209170526
 20
13.3752767935
 30
0.0
 10
14.2129751785
 20
13.37248049
 30
0.0
 10
14.2030492265
 20
13.3689843202
 30
0.0
 10
14.1911374908
 20
13.364789251
 30
0.0
 10
14.1792259032
 20
13.360594108
 30
0.0
 10
14.1673143164
 20
13.3563989255
 30
0.0
 10
14.1554025782
 20
13.3522039747
 30
0.0
 10
14.1434914449
 20
13.3480081369
 30
0.0
 10
14.1315780433
 20
13.3438156152
 30
0.0
 10
14.1226493433
 20
13.340661941
 30
0.0
 10
14.1166870002
 20
13.3385739268
 30
0.0
 10
14.1142173871
 20
13.3376824407
 30
0.0
 10
14.1122074126
 20
13.3370193607
 30
0.0
 10
14.1103228169
 20
13.3361730293
 30
0.0
 10
14.1070830282
 20
13.3346068064
 30
0.0
 10
14.1024243647
 20
13.3324137684
 30
0.0
 10
14.0949874892
 20
13.3288800813
 30
0.0
 10
14.0856855748
 20
13.3244714763
 30
0.0
 10
14.0708057877
 20
13.3174129362
 30
0.0
 10
14.0522047647
 20
13.3085915361
 30
0.0
 10
14.0336048032
 20
13.2997690013
 30
0.0
 10
14.0187233176
 20
13.2927122768
 30
0.0
 10
14.0094256495
 20
13.2882991328
 30
0.0
 10
14.0019800691
 20
13.2847747505
 30
0.0
 10
13.9973435659
 20
13.2825580251
 30
0.0
 10
13.9940639749
 20
13.2810343474
 30
0.0
 10
13.9922431798
 20
13.2801198187
 30
0.0
 10
13.9906229762
 20
13.2790401076
 30
0.0
 10
13.9885291587
 20
13.2777469289
 30
0.0
 10
13.9835604272
 20
13.2745968306
 30
0.0
 10
13.9760836286
 20
13.2698912007
 30
0.0
 10
13.9661281104
 20
13.2636058722
 30
0.0
 10
13.9561689685
 20
13.2573235277
 30
0.0
 10
13.942891377
 20
13.2489460273
 30
0.0
 10
13.9196549992
 20
13.2342858896
 30
0.0
 10
13.8997383071
 20
13.2217198899
 30
0.0
 10
13.8864604672
 20
13.213342594
 30
0.0
  0
SPLINE
  5
309
100
AcDbEntity
  8
03__ASM_ALL_CURVES
100
AcDbSpline
 62
8
  6
PHANTOM
 70
0
 71
3
 72
54
 73
50
 74
0
 42
0.0000001
 43
0.0000001
 44
0.0000000001
 40
0.0
 40
0.0
 40
0.0
 40
0.0
 40
0.0625
 40
0.125
 40
0.140625
 40
0.15625
 40
0.1640625
 40
0.171875
 40
0.1875
 40
0.21875
 40
0.25
 40
0.28125
 40
0.3125
 40
0.328125
 40
0.3359375
 40
0.34375
 40
0.359375
 40
0.375
 40
0.40625
 40
0.4375
 40
0.453125
 40
0.46875
 40
0.484375
 40
0.4921875
 40
0.5
 40
0.5078125
 40
0.515625
 40
0.53125
 40
0.546875
 40
0.5625
 40
0.59375
 40
0.625
 40
0.640625
 40
0.65625
 40
0.6640625
 40
0.671875
 40
0.6875
 40
0.71875
 40
0.75
 40
0.78125
 40
0.8125
 40
0.828125
 40
0.8359375
 40
0.84375
 40
0.859375
 40
0.875
 40
0.90625
 40
0.9375
 40
1.0
 40
1.0
 40
1.0
 40
1.0
 10
13.8864604441
 20
13.2133425771
 30
0.0
 10
13.8807968201
 20
13.2089324118
 30
0.0
 10
13.8694668296
 20
13.2001136128
 30
0.0
 10
13.856732932
 20
13.190185571
 30
0.0
 10
13.8482256685
 20
13.1835769286
 30
0.0
 10
13.8447075444
 20
13.1808084887
 30
0.0
 10
13.8418310794
 20
13.178628345
 30
0.0
 10
13.8391812221
 20
13.1763216396
 30
0.0
 10
13.8346492909
 20
13.1722260274
 30
0.0
 10
13.8281199175
 20
13.1664064178
 30
0.0
 10
13.8203088327
 20
13.1594073922
 30
0.0
 10
13.8124893927
 20
13.1524203187
 30
0.0
 10
13.8059809072
 20
13.1465708289
 30
0.0
 10
13.8014124222
 20
13.142527507
 30
0.0
 10
13.7988210509
 20
13.1401371371
 30
0.0
 10
13.7963018624
 20
13.1374458767
 30
0.0
 10
13.7931281537
 20
13.1341848266
 30
0.0
 10
13.7880640812
 20
13.1289095648
 30
0.0
 10
13.7817289221
 20
13.1223352486
 30
0.0
 10
13.77539671
 20
13.1157538651
 30
0.0
 10
13.7703279225
 20
13.1104899108
 30
0.0
 10
13.7665336169
 20
13.1065427281
 30
0.0
 10
13.7633486696
 20
13.103250319
 30
0.0
 10
13.7608523316
 20
13.1006234167
 30
0.0
 10
13.7588390343
 20
13.098634019
 30
0.0
 10
13.757364102
 20
13.0967179927
 30
0.0
 10
13.755209467
 20
13.094137663
 30
0.0
 10
13.7525806999
 20
13.090921032
 30
0.0
 10
13.7493985395
 20
13.0870573672
 30
0.0
 10
13.7451654149
 20
13.0819068549
 30
0.0
 10
13.7398699399
 20
13.0754701777
 30
0.0
 10
13.7345785465
 20
13.0690263467
 30
0.0
 10
13.7303388913
 20
13.0638872806
 30
0.0
 10
13.7277034174
 20
13.0606389443
 30
0.0
 10
13.7255623279
 20
13.0581236836
 30
0.0
 10
13.7235406315
 20
13.0553039255
 30
0.0
 10
13.7200581954
 20
13.0502278494
 30
0.0
 10
13.7150537952
 20
13.0430504871
 30
0.0
 10
13.7090631429
 20
13.0344050399
 30
0.0
 10
13.703061165
 20
13.0257713625
 30
0.0
 10
13.6980850789
 20
13.0185645757
 30
0.0
 10
13.6945530931
 20
13.0135399925
 30
0.0
 10
13.6926106763
 20
13.0106378458
 30
0.0
 10
13.690953938
 20
13.0076192421
 30
0.0
 10
13.6887851991
 20
13.0038858622
 30
0.0
 10
13.6853698821
 20
12.9978901701
 30
0.0
 10
13.6810820103
 20
12.9904031884
 30
0.0
 10
13.6742319281
 20
12.9784197322
 30
0.0
 10
13.6690920011
 20
12.9694331042
 30
0.0
 10
13.6656659087
 20
12.9634418047
 30
0.0
  0
SPLINE
  5
30A
100
AcDbEntity
  8
03__ASM_ALL_CURVES
100
AcDbSpline
 62
8
  6
PHANTOM
 70
0
 71
3
 72
89
 73
85
 74
0
 42
0.0000001
 43
0.0000001
 44
0.0000000001
 40
0.0
 40
0.0
 40
0.0
 40
0.0
 40
0.0625
 40
0.09375
 40
0.109375
 40
0.125
 40
0.140625
 40
0.15625
 40
0.16015625
 40
0.1640625
 40
0.166015625
 40
0.16796875
 40
0.171875
 40
0.1796875
 40
0.1875
 40
0.203125
 40
0.21875
 40
0.25
 40
0.28125
 40
0.296875
 40
0.3125
 40
0.3203125
 40
0.328125
 40
0.33203125
 40
0.333984375
 40
0.3359375
 40
0.33984375
 40
0.34375
 40
0.3515625
 40
0.359375
 40
0.375
 40
0.390625
 40
0.40625
 40
0.421875
 40
0.4375
 40
0.453125
 40
0.46875
 40
0.4765625
 40
0.484375
 40
0.4921875
 40
0.49609375
 40
0.498046875
 40
0.5
 40
0.501953125
 40
0.50390625
 40
0.5078125
 40
0.515625
 40
0.5234375
 40
0.53125
 40
0.546875
 40
0.5625
 40
0.578125
 40
0.59375
 40
0.609375
 40
0.625
 40
0.640625
 40
0.6484375
 40
0.65625
 40
0.66015625
 40
0.6640625
 40
0.666015625
 40
0.66796875
 40
0.671875
 40
0.6796875
 40
0.6875
 40
0.703125
 40
0.71875
 40
0.75
 40
0.78125
 40
0.796875
 40
0.8125
 40
0.8203125
 40
0.828125
 40
0.83203125
 40
0.833984375
 40
0.8359375
 40
0.83984375
 40
0.84375
 40
0.859375
 40
0.875
 40
0.890625
 40
0.90625
 40
0.9375
 40
1.0
 40
1.0
 40
1.0
 40
1.0
 10
13.6656659141
 20
12.9634418151
 30
0.0
 10
13.6608270769
 20
12.9516906157
 30
0.0
 10
13.6535687339
 20
12.9340638436
 30
0.0
 10
13.6451009725
 20
12.9134991812
 30
0.0
 10
13.6402618153
 20
12.9017480813
 30
0.0
 10
13.6366336692
 20
12.8929343763
 30
0.0
 10
13.633000854
 20
12.8841221238
 30
0.0
 10
13.6302893338
 20
12.877508862
 30
0.0
 10
13.628461294
 20
12.8731063542
 30
0.0
 10
13.6277299071
 20
12.8712625515
 30
0.0
 10
13.6270741224
 20
12.8698094947
 30
0.0
 10
13.6266768013
 20
12.868276036
 30
0.0
 10
13.6261015776
 20
12.8655551265
 30
0.0
 10
13.6252171735
 20
12.8616876039
 30
0.0
 10
13.6238371426
 20
12.8554886749
 30
0.0
 10
13.6221001094
 20
12.8477437459
 30
0.0
 10
13.6193275907
 20
12.8353497592
 30
0.0
 10
13.6158594127
 20
12.8198580988
 30
0.0
 10
13.6123929348
 20
12.8043657717
 30
0.0
 10
13.609617696
 20
12.7919728519
 30
0.0
 10
13.607887463
 20
12.7842252556
 30
0.0
 10
13.6064934917
 20
12.7780317944
 30
0.0
 10
13.6056445763
 20
12.7741503522
 30
0.0
 10
13.6050056109
 20
12.7714544438
 30
0.0
 10
13.6047104636
 20
12.76988091
 30
0.0
 10
13.6046789258
 20
12.7681830049
 30
0.0
 10
13.6045492442
 20
12.7661032079
 30
0.0
 10
13.6043921947
 20
12.7627517346
 30
0.0
 10
13.6041786117
 20
12.7585705416
 30
0.0
 10
13.6038465318
 20
12.7518760784
 30
0.0
 10
13.6034281194
 20
12.7435095622
 30
0.0
 10
13.6029274455
 20
12.7334690728
 30
0.0
 10
13.6024263878
 20
12.7234287628
 30
0.0
 10
13.6019254445
 20
12.713388405
 30
0.0
 10
13.6014244271
 20
12.7033480589
 30
0.0
 10
13.6009235919
 20
12.693307714
 30
0.0
 10
13.6005056837
 20
12.6849407463
 30
0.0
 10
13.6001725752
 20
12.6782472041
 30
0.0
 10
13.5999194168
 20
12.6732269599
 30
0.0
 10
13.5997190343
 20
12.6690437014
 30
0.0
 10
13.5995579982
 20
12.6661148743
 30
0.0
 10
13.5994984056
 20
12.6644421116
 30
0.0
 10
13.5993623608
 20
12.6631851373
 30
0.0
 10
13.5995755032
 20
12.6619373456
 30
0.0
 10
13.5997378926
 20
12.6602704204
 30
0.0
 10
13.6000788231
 20
12.6573547936
 30
0.0
 10
13.6005361976
 20
12.6531888323
 30
0.0
 10
13.6010977464
 20
12.6481900126
 30
0.0
 10
13.601842042
 20
12.6415248031
 30
0.0
 10
13.6027739342
 20
12.6331933311
 30
0.0
 10
13.6038915501
 20
12.6231955482
 30
0.0
 10
13.6050093486
 20
12.6131977673
 30
0.0
 10
13.6061270712
 20
12.603199995
 30
0.0
 10
13.6072449152
 20
12.5932021863
 30
0.0
 10
13.6083623494
 20
12.5832045145
 30
0.0
 10
13.6092948094
 20
12.5748726954
 30
0.0
 10
13.6100379467
 20
12.568208194
 30
0.0
 10
13.6105088517
 20
12.5640407088
 30
0.0
 10
13.6108708173
 20
12.5607116945
 30
0.0
 10
13.6111307199
 20
12.5586197119
 30
0.0
 10
13.6112615138
 20
12.5569721192
 30
0.0
 10
13.6116738808
 20
12.5552296318
 30
0.0
 10
13.6125263259
 20
12.5521361962
 30
0.0
 10
13.6136758582
 20
12.5477400025
 30
0.0
 10
13.6155532498
 20
12.5406932392
 30
0.0
 10
13.6178869248
 20
12.5318891861
 30
0.0
 10
13.6216281377
 20
12.517800241
 30
0.0
 10
13.626301916
 20
12.5001899066
 30
0.0
 10
13.6309774794
 20
12.4825792595
 30
0.0
 10
13.634715836
 20
12.4684908147
 30
0.0
 10
13.6370566516
 20
12.4596855109
 30
0.0
 10
13.6389194051
 20
12.4526413116
 30
0.0
 10
13.6401062022
 20
12.4482385905
 30
0.0
 10
13.6408917155
 20
12.4451568788
 30
0.0
 10
13.6414113698
 20
12.4433955987
 30
0.0
 10
13.6421976519
 20
12.4416331807
 30
0.0
 10
13.64308937
 20
12.4394305472
 30
0.0
 10
13.6453045013
 20
12.4341439067
 30
0.0
 10
13.6485956942
 20
12.4262140803
 30
0.0
 10
13.6530019577
 20
12.4156409016
 30
0.0
 10
13.6574034045
 20
12.4050677435
 30
0.0
 10
13.6632736809
 20
12.3909701922
 30
0.0
 10
13.6735458768
 20
12.3662994807
 30
0.0
 10
13.6823508862
 20
12.3451531555
 30
0.0
 10
13.6882208325
 20
12.3310556055
 30
0.0
  0
SPLINE
  5
30B
100
AcDbEntity
  8
03__ASM_ALL_CURVES
100
AcDbSpline
 62
8
  6
PHANTOM
 70
0
 71
3
 72
45
 73
41
 74
0
 42
0.0000001
 43
0.0000001
 44
0.0000000001
 40
0.0
 40
0.0
 40
0.0
 40
0.0
 40
0.0625
 40
0.125
 40
0.15625
 40
0.1875
 40
0.25
 40
0.28125
 40
0.3125
 40
0.328125
 40
0.3359375
 40
0.34375
 40
0.359375
 40
0.375
 40
0.40625
 40
0.4375
 40
0.46875
 40
0.484375
 40
0.4921875
 40
0.5
 40
0.5078125
 40
0.515625
 40
0.53125
 40
0.5625
 40
0.59375
 40
0.625
 40
0.640625
 40
0.65625
 40
0.6640625
 40
0.671875
 40
0.6875
 40
0.71875
 40
0.75
 40
0.78125
 40
0.8125
 40
0.828125
 40
0.84375
 40
0.875
 40
0.9375
 40
1.0
 40
1.0
 40
1.0
 40
1.0
 10
13.6882208277
 20
12.3310556152
 30
0.0
 10
13.6902318818
 20
12.3271233128
 30
0.0
 10
13.6942455328
 20
12.3192585321
 30
0.0
 10
13.6993048823
 20
12.3094284365
 30
0.0
 10
13.7032635619
 20
12.3015625112
 30
0.0
 10
13.7075436132
 20
12.293703277
 30
0.0
 10
13.7119180648
 20
12.2858425404
 30
0.0
 10
13.7162517443
 20
12.2779904917
 30
0.0
 10
13.7189835573
 20
12.2730624935
 30
0.0
 10
13.7208558924
 20
12.2696539766
 30
0.0
 10
13.7219872775
 20
12.2676419669
 30
0.0
 10
13.7233499977
 20
12.2653877756
 30
0.0
 10
13.7249741844
 20
12.2626529759
 30
0.0
 10
13.7276171798
 20
12.258230847
 30
0.0
 10
13.730905553
 20
12.2527197988
 30
0.0
 10
13.734858937
 20
12.2460964729
 30
0.0
 10
13.7381494647
 20
12.2405884443
 30
0.0
 10
13.7404579383
 20
12.2367132688
 30
0.0
 10
13.7417695036
 20
12.2345289835
 30
0.0
 10
13.7427744066
 20
12.2328060548
 30
0.0
 10
13.7436981749
 20
12.2314069346
 30
0.0
 10
13.7449581716
 20
12.2294284881
 30
0.0
 10
13.7471499276
 20
12.2260188819
 30
0.0
 10
13.7502883313
 20
12.221120088
 30
0.0
 10
13.7540495206
 20
12.2152551887
 30
0.0
 10
13.7571903974
 20
12.2103594984
 30
0.0
 10
13.7596898208
 20
12.2064559777
 30
0.0
 10
13.7612818793
 20
12.2039878354
 30
0.0
 10
13.7624870402
 20
12.2020783242
 30
0.0
 10
13.7639422097
 20
12.1999315562
 30
0.0
 10
13.7666049299
 20
12.1960645444
 30
0.0
 10
13.7703479477
 20
12.1905973875
 30
0.0
 10
13.7748661964
 20
12.1840143124
 30
0.0
 10
13.7793753249
 20
12.1774297516
 30
0.0
 10
13.7831411433
 20
12.171966309
 30
0.0
 10
13.786138651
 20
12.1675394383
 30
0.0
 10
13.7891901779
 20
12.1633180812
 30
0.0
 10
13.7945554
 20
12.156026266
 30
0.0
 10
13.8022068188
 20
12.1455590925
 30
0.0
 10
13.8083319719
 20
12.1372006816
 30
0.0
 10
13.8113940462
 20
12.1330195601
 30
0.0
  0
SPLINE
  5
30C
100
AcDbEntity
  8
03__ASM_ALL_CURVES
100
AcDbSpline
 62
8
  6
PHANTOM
 70
0
 71
3
 72
37
 73
33
 74
0
 42
0.0000001
 43
0.0000001
 44
0.0000000001
 40
0.0
 40
0.0
 40
0.0
 40
0.0
 40
0.0625
 40
0.125
 40
0.15625
 40
0.171875
 40
0.1875
 40
0.25
 40
0.3125
 40
0.328125
 40
0.34375
 40
0.375
 40
0.4375
 40
0.46875
 40
0.5
 40
0.53125
 40
0.5625
 40
0.625
 40
0.65625
 40
0.671875
 40
0.6875
 40
0.71875
 40
0.75
 40
0.78125
 40
0.8125
 40
0.828125
 40
0.8359375
 40
0.84375
 40
0.859375
 40
0.875
 40
0.9375
 40
1.0
 40
1.0
 40
1.0
 40
1.0
 10
16.5220344758
 20
11.2950091336
 30
0.0
 10
16.5271371757
 20
11.2968112534
 30
0.0
 10
16.5373453939
 20
11.3004131037
 30
0.0
 10
16.5500915756
 20
11.3049273631
 30
0.0
 10
16.5590397949
 20
11.3080653931
 30
0.0
 10
16.5641129038
 20
11.3098926005
 30
0.0
 10
16.5715027026
 20
11.3128197555
 30
0.0
 10
16.582690783
 20
11.3171232827
 30
0.0
 10
16.5937951314
 20
11.3214961156
 30
0.0
 10
16.6012686622
 20
11.3243539648
 30
0.0
 10
16.6060998785
 20
11.3263813891
 30
0.0
 10
16.6144795892
 20
11.3299898472
 30
0.0
 10
16.6241021523
 20
11.3340773559
 30
0.0
 10
16.6336730832
 20
11.338205091
 30
0.0
 10
16.640960427
 20
11.3412166567
 30
0.0
 10
16.6478370047
 20
11.3445450516
 30
0.0
 10
16.6571513831
 20
11.3488706691
 30
0.0
 10
16.6664136453
 20
11.3532360823
 30
0.0
 10
16.6745593743
 20
11.3570250142
 30
0.0
 10
16.6791694212
 20
11.3592230283
 30
0.0
 10
16.6836166105
 20
11.3615410448
 30
0.0
 10
16.6892312287
 20
11.3643970658
 30
0.0
 10
16.695946025
 20
11.3678434859
 30
0.0
 10
16.7026627928
 20
11.3712795255
 30
0.0
 10
16.7082724823
 20
11.3741614977
 30
0.0
 10
16.7121723982
 20
11.3761443474
 30
0.0
 10
16.714443264
 20
11.3773310183
 30
0.0
 10
16.7168736946
 20
11.378719516
 30
0.0
 10
16.7198571918
 20
11.3803861513
 30
0.0
 10
16.7270624852
 20
11.3844428684
 30
0.0
 10
16.7378514152
 20
11.390503899
 30
0.0
 10
16.7474493
 20
11.3959012525
 30
0.0
 10
16.7522472768
 20
11.3985987078
 30
0.0
  0
SPLINE
  5
30D
100
AcDbEntity
  8
03__ASM_ALL_CURVES
100
AcDbSpline
 62
8
  6
PHANTOM
 70
0
 71
3
 72
54
 73
50
 74
0
 42
0.0000001
 43
0.0000001
 44
0.0000000001
 40
0.0
 40
0.0
 40
0.0
 40
0.0
 40
0.0625
 40
0.125
 40
0.140625
 40
0.15625
 40
0.1640625
 40
0.171875
 40
0.1875
 40
0.21875
 40
0.25
 40
0.28125
 40
0.3125
 40
0.328125
 40
0.3359375
 40
0.34375
 40
0.359375
 40
0.375
 40
0.40625
 40
0.4375
 40
0.453125
 40
0.46875
 40
0.484375
 40
0.4921875
 40
0.5
 40
0.5078125
 40
0.515625
 40
0.53125
 40
0.546875
 40
0.5625
 40
0.59375
 40
0.625
 40
0.640625
 40
0.65625
 40
0.6640625
 40
0.671875
 40
0.6875
 40
0.71875
 40
0.75
 40
0.78125
 40
0.8125
 40
0.828125
 40
0.8359375
 40
0.84375
 40
0.859375
 40
0.875
 40
0.90625
 40
0.9375
 40
1.0
 40
1.0
 40
1.0
 40
1.0
 10
16.7522472833
 20
11.3985987117
 30
0.0
 10
16.7585809186
 20
11.4025993199
 30
0.0
 10
16.7712508031
 20
11.4105989079
 30
0.0
 10
16.785492661
 20
11.4196057724
 30
0.0
 10
16.795004386
 20
11.4255996621
 30
0.0
 10
16.7989422835
 20
11.4281128915
 30
0.0
 10
16.8021516573
 20
11.4300866829
 30
0.0
 10
16.805145065
 20
11.4321950226
 30
0.0
 10
16.8102831622
 20
11.435947205
 30
0.0
 10
16.8176758406
 20
11.441274268
 30
0.0
 10
16.8265242733
 20
11.4476830339
 30
0.0
 10
16.8353797684
 20
11.4540797551
 30
0.0
 10
16.842754791
 20
11.4594369296
 30
0.0
 10
16.847923786
 20
11.463136417
 30
0.0
 10
16.8508677572
 20
11.4653290687
 30
0.0
 10
16.8537751397
 20
11.4678179311
 30
0.0
 10
16.8574219035
 20
11.4708275857
 30
0.0
 10
16.8632496749
 20
11.4756997217
 30
0.0
 10
16.8705371271
 20
11.4817704212
 30
0.0
 10
16.8778224408
 20
11.4878481415
 30
0.0
 10
16.8836536337
 20
11.4927090442
 30
0.0
 10
16.8880194858
 20
11.4963543294
 30
0.0
 10
16.8916816118
 20
11.4993939036
 30
0.0
 10
16.8945576857
 20
11.5018213512
 30
0.0
 10
16.8968612724
 20
11.5036534703
 30
0.0
 10
16.8986055476
 20
11.5054415617
 30
0.0
 10
16.901126623
 20
11.5078410614
 30
0.0
 10
16.9042109318
 20
11.5108351716
 30
0.0
 10
16.9079408103
 20
11.5144303065
 30
0.0
 10
16.9129038818
 20
11.5192233026
 30
0.0
 10
16.9191116993
 20
11.5252129188
 30
0.0
 10
16.9253162292
 20
11.5312096975
 30
0.0
 10
16.9302845608
 20
11.5359912335
 30
0.0
 10
16.9333796428
 20
11.5390158298
 30
0.0
 10
16.9358788321
 20
11.5413527514
 30
0.0
 10
16.9382936265
 20
11.5439917857
 30
0.0
 10
16.9424802464
 20
11.5487504892
 30
0.0
 10
16.9484821074
 20
11.5554750229
 30
0.0
 10
16.9556734193
 20
11.5635769122
 30
0.0
 10
16.9628748556
 20
11.5716667885
 30
0.0
 10
16.9688514056
 20
11.5784213547
 30
0.0
 10
16.9730823197
 20
11.5831275013
 30
0.0
 10
16.9754262434
 20
11.5858506267
 30
0.0
 10
16.9774924551
 20
11.5887012929
 30
0.0
 10
16.980170308
 20
11.5922209557
 30
0.0
 10
16.9844017318
 20
11.5978768216
 30
0.0
 10
16.9897092149
 20
11.6049382939
 30
0.0
 10
16.9981909683
 20
11.6162413429
 30
0.0
 10
17.0045545828
 20
11.6247175737
 30
0.0
 10
17.0087964815
 20
11.6303686289
 30
0.0
  0
SPLINE
  5
30E
100
AcDbEntity
  8
03__ASM_ALL_CURVES
100
AcDbSpline
 62
8
  6
PHANTOM
 70
0
 71
3
 72
91
 73
87
 74
0
 42
0.0000001
 43
0.0000001
 44
0.0000000001
 40
0.0
 40
0.0
 40
0.0
 40
0.0
 40
0.0625
 40
0.09375
 40
0.109375
 40
0.125
 40
0.140625
 40
0.1484375
 40
0.15625
 40
0.16015625
 40
0.1640625
 40
0.166015625
 40
0.16796875
 40
0.171875
 40
0.1796875
 40
0.1875
 40
0.203125
 40
0.21875
 40
0.25
 40
0.28125
 40
0.296875
 40
0.3125
 40
0.3203125
 40
0.328125
 40
0.33203125
 40
0.333984375
 40
0.3359375
 40
0.33984375
 40
0.34375
 40
0.3515625
 40
0.359375
 40
0.375
 40
0.390625
 40
0.40625
 40
0.421875
 40
0.4375
 40
0.453125
 40
0.46875
 40
0.4765625
 40
0.484375
 40
0.4921875
 40
0.49609375
 40
0.498046875
 40
0.5
 40
0.501953125
 40
0.50390625
 40
0.5078125
 40
0.515625
 40
0.5234375
 40
0.53125
 40
0.546875
 40
0.5625
 40
0.578125
 40
0.59375
 40
0.609375
 40
0.625
 40
0.640625
 40
0.6484375
 40
0.65625
 40
0.66015625
 40
0.6640625
 40
0.666015625
 40
0.66796875
 40
0.671875
 40
0.6796875
 40
0.6875
 40
0.703125
 40
0.71875
 40
0.75
 40
0.78125
 40
0.796875
 40
0.8125
 40
0.8203125
 40
0.828125
 40
0.83203125
 40
0.833984375
 40
0.8359375
 40
0.83984375
 40
0.84375
 40
0.8515625
 40
0.859375
 40
0.875
 40
0.890625
 40
0.90625
 40
0.9375
 40
1.0
 40
1.0
 40
1.0
 40
1.0
 10
17.0087964733
 20
11.630368617
 30
0.0
 10
17.0159438345
 20
11.6432078157
 30
0.0
 10
17.0266648427
 20
11.6624666254
 30
0.0
 10
17.0391728029
 20
11.6849351958
 30
0.0
 10
17.0463200413
 20
11.6977744375
 30
0.0
 10
17.0516809389
 20
11.7074037047
 30
0.0
 10
17.0561468606
 20
11.7154286165
 30
0.0
 10
17.0597229466
 20
11.7218473739
 30
0.0
 10
17.0619503753
 20
11.7258617663
 30
0.0
 10
17.0637497813
 20
11.7290671676
 30
0.0
 10
17.0648345651
 20
11.7310844904
 30
0.0
 10
17.0657936541
 20
11.732666404
 30
0.0
 10
17.0664195712
 20
11.7343649389
 30
0.0
 10
17.0673601535
 20
11.7373915505
 30
0.0
 10
17.0687845952
 20
11.7416870153
 30
0.0
 10
17.0710185726
 20
11.7485755558
 30
0.0
 10
17.0738265034
 20
11.7571808206
 30
0.0
 10
17.0783105132
 20
11.7709522794
 30
0.0
 10
17.0839187859
 20
11.7881654821
 30
0.0
 10
17.0895248661
 20
11.8053793743
 30
0.0
 10
17.0940123839
 20
11.81914973
 30
0.0
 10
17.0968115448
 20
11.8277577528
 30
0.0
 10
17.0990635005
 20
11.8346406393
 30
0.0
 10
17.1004421744
 20
11.8389504974
 30
0.0
 10
17.1014649605
 20
11.8419512571
 30
0.0
 10
17.1019591104
 20
11.843691231
 30
0.0
 10
17.1021130896
 20
11.8455263407
 30
0.0
 10
17.1024220374
 20
11.8477876535
 30
0.0
 10
17.1028512628
 20
11.8514239581
 30
0.0
 10
17.1034100819
 20
11.8559631056
 30
0.0
 10
17.1042917359
 20
11.8632292254
 30
0.0
 10
17.1053980781
 20
11.8723106797
 30
0.0
 10
17.106723855
 20
11.8832089376
 30
0.0
 10
17.1080501273
 20
11.8941070573
 30
0.0
 10
17.109376252
 20
11.9050052171
 30
0.0
 10
17.1107024715
 20
11.9159033546
 30
0.0
 10
17.1120284595
 20
11.9268015415
 30
0.0
 10
17.1131341421
 20
11.9358832175
 30
0.0
 10
17.1140171419
 20
11.9431488851
 30
0.0
 10
17.1146836149
 20
11.9485972433
 30
0.0
 10
17.1152255761
 20
11.9531403804
 30
0.0
 10
17.1156313105
 20
11.9563150059
 30
0.0
 10
17.1158219974
 20
11.9581377754
 30
0.0
 10
17.1160809646
 20
11.9594803507
 30
0.0
 10
17.1158967044
 20
11.9609165844
 30
0.0
 10
17.1158056269
 20
11.9627988935
 30
0.0
 10
17.1155742089
 20
11.9661081557
 30
0.0
 10
17.115281271
 20
11.9708277152
 30
0.0
 10
17.1149136261
 20
11.9764945929
 30
0.0
 10
17.1144290637
 20
11.9840492399
 30
0.0
 10
17.113821428
 20
11.9934929571
 30
0.0
 10
17.1130930961
 20
12.0048252423
 30
0.0
 10
17.1123645328
 20
12.0161575758
 30
0.0
 10
17.1116360643
 20
12.0274898917
 30
0.0
 10
17.1109074478
 20
12.0388222298
 30
0.0
 10
17.1101793285
 20
12.0501544964
 30
0.0
 10
17.1095710287
 20
12.0595982716
 30
0.0
 10
17.1090878211
 20
12.0671528003
 30
0.0
 10
17.1087780025
 20
12.0718754997
 30
0.0
 10
17.1085480427
 20
12.0756510966
 30
0.0
 10
17.1083634872
 20
12.0780166915
 30
0.0
 10
17.1083093625
 20
12.0798957757
 30
0.0
 10
17.1079138237
 20
12.0818237496
 30
0.0
 10
17.1070630295
 20
12.0852204155
 30
0.0
 10
17.1059303596
 20
12.0900609456
 30
0.0
 10
17.104071842
 20
12.0978124161
 30
0.0
 10
17.1017645364
 20
12.1074994858
 30
0.0
 10
17.0980639538
 20
12.1230000701
 30
0.0
 10
17.0934415628
 20
12.1423753289
 30
0.0
 10
17.0888169399
 20
12.1617508831
 30
0.0
 10
17.0851199283
 20
12.1772509945
 30
0.0
 10
17.082803695
 20
12.1869392465
 30
0.0
 10
17.0809634794
 20
12.1946882935
 30
0.0
 10
17.0797842174
 20
12.199534993
 30
0.0
 10
17.0790171076
 20
12.202920578
 30
0.0
 10
17.0784874284
 20
12.2048663139
 30
0.0
 10
17.0776136929
 20
12.2068539253
 30
0.0
 10
17.0766393277
 20
12.2093241014
 30
0.0
 10
17.075014509
 20
12.2132843961
 30
0.0
 10
17.0730060275
 20
12.2182320208
 30
0.0
 10
17.0697798583
 20
12.2261497537
 30
0.0
 10
17.0657514694
 20
12.2360463937
 30
0.0
 10
17.0609155527
 20
12.2479225869
 30
0.0
 10
17.0544683092
 20
12.2637574327
 30
0.0
 10
17.0431853305
 20
12.2914684495
 30
0.0
 10
17.0335143096
 20
12.315220737
 30
0.0
 10
17.0270669393
 20
12.3310555982
 30
0.0
  0
SPLINE
  5
30F
100
AcDbEntity
  8
0
100
AcDbSpline
 62
7
  6
CONTINUOUS
 70
0
 71
3
 72
37
 73
33
 74
0
 42
0.0000001
 43
0.0000001
 44
0.0000000001
 40
0.0
 40
0.0
 40
0.0
 40
0.0
 40
0.0624055158
 40
0.124816312
 40
0.1560666847
 40
0.1873206829
 40
0.218576578
 40
0.2498361386
 40
0.281100451
 40
0.3123679421
 40
0.343638258
 40
0.3749109248
 40
0.4061857629
 40
0.4374614355
 40
0.4687369437
 40
0.5000104208
 40
0.5312816259
 40
0.5625505679
 40
0.5938159472
 40
0.6250764119
 40
0.6563326193
 40
0.6875860564
 40
0.7188358151
 40
0.7500821792
 40
0.7813252316
 40
0.8125665667
 40
0.8438073058
 40
0.8750468813
 40
0.9062822297
 40
0.9375213738
 40
0.9687716551
 40
1.0
 40
1.0
 40
1.0
 40
1.0
 10
14.7838907873
 20
13.6352892348
 30
0.0
 10
14.7764190862
 20
13.6352892348
 30
0.0
 10
14.7614352111
 20
13.6337953736
 30
0.0
 10
14.7434533252
 20
13.628264939
 30
0.0
 10
14.7299451776
 20
13.6217977917
 30
0.0
 10
14.7203286811
 20
13.6159699129
 30
0.0
 10
14.7113314455
 20
13.6092250353
 30
0.0
 10
14.7030354826
 20
13.6016322497
 30
0.0
 10
14.69551911
 20
13.5932653216
 30
0.0
 10
14.6888507124
 20
13.5842065892
 30
0.0
 10
14.6830921858
 20
13.5745428144
 30
0.0
 10
14.6782953667
 20
13.5643665025
 30
0.0
 10
14.6745036025
 20
13.5537738997
 30
0.0
 10
14.6717520023
 20
13.5428644567
 30
0.0
 10
14.6700648067
 20
13.5317407287
 30
0.0
 10
14.6694594675
 20
13.5205066099
 30
0.0
 10
14.6699406469
 20
13.5092672039
 30
0.0
 10
14.6715079188
 20
13.498128153
 30
0.0
 10
14.6741453667
 20
13.4871941775
 30
0.0
 10
14.6778338475
 20
13.4765701061
 30
0.0
 10
14.6825379253
 20
13.4663565112
 30
0.0
 10
14.6882184894
 20
13.4566533784
 30
0.0
 10
14.6948209343
 20
13.4475537713
 30
0.0
 10
14.7022863361
 20
13.4391491269
 30
0.0
 10
14.7105427005
 20
13.4315214748
 30
0.0
 10
14.7195123212
 20
13.4247477989
 30
0.0
 10
14.7291087576
 20
13.4188966174
 30
0.0
 10
14.7392375377
 20
13.4140261299
 30
0.0
 10
14.7498000254
 20
13.4101866
 30
0.0
 10
14.7606934597
 20
13.4074154572
 30
0.0
 10
14.7718068869
 20
13.4057446296
 30
0.0
 10
14.7792925844
 20
13.4053704959
 30
0.0
 10
14.7830314985
 20
13.4053704959
 30
0.0
  0
SPLINE
  5
310
100
AcDbEntity
  8
0
100
AcDbSpline
 62
7
  6
CONTINUOUS
 70
0
 71
3
 72
15
 73
11
 74
0
 42
0.0000001
 43
0.0000001
 44
0.0000000001
 40
0.0
 40
0.0
 40
0.0
 40
0.0
 40
0.1250542433
 40
0.2501006764
 40
0.3751069146
 40
0.5001022051
 40
0.6250843085
 40
0.7500528617
 40
0.8750339551
 40
1.0
 40
1.0
 40
1.0
 40
1.0
 10
14.8919927372
 20
13.5554216248
 30
0.0
 10
14.8902018073
 20
13.5611380317
 30
0.0
 10
14.8857192756
 20
13.5723104176
 30
0.0
 10
14.8764718232
 20
13.5877989158
 30
0.0
 10
14.864908187
 20
13.6016470087
 30
0.0
 10
14.8513109877
 20
13.6134993414
 30
0.0
 10
14.8360112201
 20
13.6230508868
 30
0.0
 10
14.8193900557
 20
13.6300565095
 30
0.0
 10
14.8018718972
 20
13.6343311966
 30
0.0
 10
14.7898769495
 20
13.6352892348
 30
0.0
 10
14.7838907873
 20
13.6352892348
 30
0.0
  0
SPLINE
  5
311
100
AcDbEntity
  8
0
100
AcDbSpline
 62
7
  6
CONTINUOUS
 70
0
 71
3
 72
15
 73
11
 74
0
 42
0.0000001
 43
0.0000001
 44
0.0000000001
 40
0.0
 40
0.0
 40
0.0
 40
0.0
 40
0.124933948
 40
0.2499385579
 40
0.3749093501
 40
0.4998964317
 40
0.6248959282
 40
0.7499063462
 40
0.8749810985
 40
1.0
 40
1.0
 40
1.0
 40
1.0
 10
14.7830314985
 20
13.4053704959
 30
0.0
 10
14.7872633683
 20
13.4053704959
 30
0.0
 10
14.7957371336
 20
13.4058492534
 30
0.0
 10
14.8082810562
 20
13.4079864996
 30
0.0
 10
14.8205093809
 20
13.4115183069
 30
0.0
 10
14.8322649894
 20
13.4163957418
 30
0.0
 10
14.8434059099
 20
13.4225515253
 30
0.0
 10
14.8537959881
 20
13.4299098374
 30
0.0
 10
14.8633055038
 20
13.4383736725
 30
0.0
 10
14.8689883578
 20
13.444683516
 30
0.0
 10
14.8716444198
 20
13.4479817609
 30
0.0
  0
SPLINE
  5
312
100
AcDbEntity
  8
0
100
AcDbSpline
 62
7
  6
CONTINUOUS
 70
0
 71
3
 72
15
 73
11
 74
0
 42
0.0000001
 43
0.0000001
 44
0.0000000001
 40
0.0
 40
0.0
 40
0.0
 40
0.0
 40
0.1380799318
 40
0.2714583019
 40
0.400424799
 40
0.5254316948
 40
0.647119483
 40
0.7662256933
 40
0.8835644243
 40
1.0
 40
1.0
 40
1.0
 40
1.0
 10
13.9637726567
 20
13.143396784
 30
0.0
 10
13.9649302137
 20
13.1410379308
 30
0.0
 10
13.967038203
 20
13.1363154662
 30
0.0
 10
13.9695869126
 20
13.129125849
 30
0.0
 10
13.971453498
 20
13.1219851105
 30
0.0
 10
13.9726265427
 20
13.1149228376
 30
0.0
 10
13.9731028283
 20
13.107966879
 30
0.0
 10
13.9728777101
 20
13.1011432512
 30
0.0
 10
13.971952453
 20
13.094480075
 30
0.0
 10
13.9708692554
 20
13.0901548364
 30
0.0
 10
13.9702151263
 20
13.0880379026
 30
0.0
  0
SPLINE
  5
313
100
AcDbEntity
  8
0
100
AcDbSpline
 62
7
  6
CONTINUOUS
 70
0
 71
3
 72
15
 73
11
 74
0
 42
0.0000001
 43
0.0000001
 44
0.0000000001
 40
0.0
 40
0.0
 40
0.0
 40
0.0
 40
0.1380799318
 40
0.2714583019
 40
0.400424799
 40
0.5254316948
 40
0.647119483
 40
0.7662256933
 40
0.8835644243
 40
1.0
 40
1.0
 40
1.0
 40
1.0
 10
16.3246933776
 20
13.143396784
 30
0.0
 10
16.3258509347
 20
13.1410379308
 30
0.0
 10
16.3279589239
 20
13.1363154662
 30
0.0
 10
16.3305076336
 20
13.129125849
 30
0.0
 10
16.332374219
 20
13.1219851105
 30
0.0
 10
16.3335472636
 20
13.1149228376
 30
0.0
 10
16.3340235492
 20
13.107966879
 30
0.0
 10
16.333798431
 20
13.1011432512
 30
0.0
 10
16.332873174
 20
13.094480075
 30
0.0
 10
16.3317899763
 20
13.0901548364
 30
0.0
 10
16.3311358472
 20
13.0880379026
 30
0.0
  0
SPLINE
  5
314
100
AcDbEntity
  8
0
100
AcDbSpline
 62
7
  6
CONTINUOUS
 70
0
 71
3
 72
15
 73
11
 74
0
 42
0.0000001
 43
0.0000001
 44
0.0000000001
 40
0.0
 40
0.0
 40
0.0
 40
0.0
 40
0.1380799318
 40
0.2714583019
 40
0.400424799
 40
0.5254316948
 40
0.647119483
 40
0.7662256933
 40
0.8835644243
 40
1.0
 40
1.0
 40
1.0
 40
1.0
 10
17.1065956277
 20
11.5500475227
 30
0.0
 10
17.1077531848
 20
11.5476886695
 30
0.0
 10
17.109861174
 20
11.5429662049
 30
0.0
 10
17.1124098837
 20
11.5357765877
 30
0.0
 10
17.1142764691
 20
11.5286358492
 30
0.0
 10
17.1154495137
 20
11.5215735763
 30
0.0
 10
17.1159257993
 20
11.5146176177
 30
0.0
 10
17.1157006811
 20
11.5077939899
 30
0.0
 10
17.1147754241
 20
11.5011308137
 30
0.0
 10
17.1136922264
 20
11.4968055751
 30
0.0
 10
17.1130380973
 20
11.4946886413
 30
0.0
  0
SPLINE
  5
315
100
AcDbEntity
  8
0
100
AcDbSpline
 62
7
  6
CONTINUOUS
 70
0
 71
3
 72
11
 73
7
 74
0
 42
0.0000001
 43
0.0000001
 44
0.0000000001
 40
0.0
 40
0.0
 40
0.0
 40
0.0
 40
0.2481802455
 40
0.4969577782
 40
0.7472538376
 40
1.0
 40
1.0
 40
1.0
 40
1.0
 10
16.5175392476
 20
13.056178827
 30
0.0
 10
16.5155961387
 20
13.0498909245
 30
0.0
 10
16.5109045888
 20
13.0375316369
 30
0.0
 10
16.5015839038
 20
13.0199897564
 30
0.0
 10
16.4901423547
 20
13.0036066347
 30
0.0
 10
16.481259291
 20
12.9936099745
 30
0.0
 10
16.4765414565
 20
12.9888493221
 30
0.0
  0
SPLINE
  5
316
100
AcDbEntity
  8
0
100
AcDbSpline
 62
7
  6
CONTINUOUS
 70
0
 71
3
 72
11
 73
7
 74
0
 42
0.0000001
 43
0.0000001
 44
0.0000000001
 40
0.0
 40
0.0
 40
0.0
 40
0.0
 40
0.2602449858
 40
0.5137640526
 40
0.7603834124
 40
1.0
 40
1.0
 40
1.0
 40
1.0
 10
16.5043457149
 20
11.2540590294
 30
0.0
 10
16.5370850229
 20
11.2591309809
 30
0.0
 10
16.6015133231
 20
11.2705282791
 30
0.0
 10
16.6959981294
 20
11.2917252255
 30
0.0
 10
16.7868228814
 20
11.316750498
 30
0.0
 10
16.8456136579
 20
11.3362273974
 30
0.0
 10
16.8742950696
 20
11.3466128967
 30
0.0
  0
SPLINE
  5
317
100
AcDbEntity
  8
0
100
AcDbSpline
 62
7
  6
CONTINUOUS
 70
0
 71
3
 72
14
 73
10
 74
0
 42
0.0000001
 43
0.0000001
 44
0.0000000001
 40
0.0
 40
0.0
 40
0.0
 40
0.0
 40
0.2551430554
 40
0.3810157446
 40
0.5059507102
 40
0.6301297898
 40
0.7537410091
 40
0.8769699148
 40
1.0
 40
1.0
 40
1.0
 40
1.0
 10
17.3868219926
 20
11.6859350178
 30
0.0
 10
17.4028707311
 20
11.7054946323
 30
0.0
 10
17.4255446351
 20
11.7358076908
 30
0.0
 10
17.4526659235
 20
11.7780335835
 30
0.0
 10
17.471241147
 20
11.8102650015
 30
0.0
 10
17.4881189041
 20
11.8431636993
 30
0.0
 10
17.503282053
 20
11.8767023761
 30
0.0
 10
17.5167152747
 20
11.9108472214
 30
0.0
 10
17.524511966
 20
11.9340019082
 30
0.0
 10
17.5281140287
 20
11.9456581875
 30
0.0
  0
SPLINE
  5
318
100
AcDbEntity
  8
0
100
AcDbSpline
 62
7
  6
CONTINUOUS
 70
0
 71
3
 72
25
 73
21
 74
0
 42
0.0000001
 43
0.0000001
 44
0.0000000001
 40
0.0
 40
0.0
 40
0.0
 40
0.0
 40
0.0264933157
 40
0.0530251408
 40
0.0796306685
 40
0.1063447848
 40
0.1602253814
 40
0.2149530723
 40
0.2707776907
 40
0.3279228071
 40
0.3865839155
 40
0.4469256886
 40
0.5090815878
 40
0.5731537901
 40
0.6392147231
 40
0.7073084222
 40
0.7774519641
 40
0.8496384524
 40
0.9238379436
 40
1.0
 40
1.0
 40
1.0
 40
1.0
 10
13.3481478351
 20
13.2373654377
 30
0.0
 10
13.3447569984
 20
13.2263926863
 30
0.0
 10
13.3384881022
 20
13.2042673725
 30
0.0
 10
13.3306493675
 20
13.1706373811
 30
0.0
 10
13.3243777645
 20
13.1365814741
 30
0.0
 10
13.3180969137
 20
13.0905230783
 30
0.0
 10
13.3142126202
 20
13.0319010011
 30
0.0
 10
13.3158972821
 20
12.9605502427
 30
0.0
 10
13.3238812502
 20
12.8882063833
 30
0.0
 10
13.338120569
 20
12.8150991708
 30
0.0
 10
13.3585473108
 20
12.74144644
 30
0.0
 10
13.3850791662
 20
12.6674613498
 30
0.0
 10
13.4176213376
 20
12.5933533342
 30
0.0
 10
13.4560623672
 20
12.5193275653
 30
0.0
 10
13.5002799053
 20
12.4455881777
 30
0.0
 10
13.5501377602
 20
12.3723379982
 30
0.0
 10
13.6054845607
 20
12.2997776824
 30
0.0
 10
13.6661580408
 20
12.2281081421
 30
0.0
 10
13.7319778558
 20
12.1575292458
 30
0.0
 10
13.7785712199
 20
12.1119124291
 30
0.0
 10
13.8026500274
 20
12.0893234747
 30
0.0
  0
SPLINE
  5
319
100
AcDbEntity
  8
0
100
AcDbSpline
 62
7
  6
CONTINUOUS
 70
0
 71
3
 72
51
 73
47
 74
0
 42
0.0000001
 43
0.0000001
 44
0.0000000001
 40
0.0
 40
0.0
 40
0.0
 40
0.0
 40
0.0108741689
 40
0.0217841441
 40
0.0327634621
 40
0.0438456402
 40
0.0550628434
 40
0.0664452
 40
0.0780203973
 40
0.0898137047
 40
0.1018477026
 40
0.1141421366
 40
0.1267138891
 40
0.1395769886
 40
0.1662119843
 40
0.1800055846
 40
0.1941195588
 40
0.2233048963
 40
0.2537569979
 40
0.2854277004
 40
0.3182423283
 40
0.3521036051
 40
0.3868952127
 40
0.4224850762
 40
0.4587283377
 40
0.4954701341
 40
0.5325482365
 40
0.5697955587
 40
0.6070426061
 40
0.6441198871
 40
0.6808603304
 40
0.7171017284
 40
0.7526892478
 40
0.7874780697
 40
0.8213361605
 40
0.8541472732
 40
0.8701310879
 40
0.8858184603
 40
0.9012008713
 40
0.9162714745
 40
0.9310250299
 40
0.9454580791
 40
0.9595695975
 40
0.9733618323
 40
0.986837937
 40
1.0
 40
1.0
 40
1.0
 40
1.0
 10
13.4141109082
 20
13.4508220206
 30
0.0
 10
13.4192909491
 20
13.4675846389
 30
0.0
 10
13.4308848662
 20
13.5008026822
 30
0.0
 10
13.4518582399
 20
13.5493723428
 30
0.0
 10
13.4763882581
 20
13.5966269406
 30
0.0
 10
13.5044166175
 20
13.6424737474
 30
0.0
 10
13.5358870548
 20
13.6868277832
 30
0.0
 10
13.5707312774
 20
13.7296118953
 30
0.0
 10
13.6088803113
 20
13.7707514372
 30
0.0
 10
13.6502576468
 20
13.8101792475
 30
0.0
 10
13.6947847453
 20
13.8478319346
 30
0.0
 10
13.7423783477
 20
13.8836507343
 30
0.0
 10
13.7929536864
 20
13.9175822549
 30
0.0
 10
13.8650706527
 20
13.96073332
 30
0.0
 10
13.9420795867
 20
13.999317935
 30
0.0
 10
14.0232123379
 20
14.0334485519
 30
0.0
 10
14.1095921203
 20
14.0655205001
 30
0.0
 10
14.2236116037
 20
14.1000221164
 30
0.0
 10
14.367512202
 20
14.1321320685
 30
0.0
 10
14.5190498098
 20
14.1552220006
 30
0.0
 10
14.6772115041
 20
14.1691553398
 30
0.0
 10
14.8409451781
 20
14.1738528648
 30
0.0
 10
15.0091548552
 20
14.1692920372
 30
0.0
 10
15.1807113527
 20
14.1555097956
 30
0.0
 10
15.3544594583
 20
14.1326032273
 30
0.0
 10
15.5292265536
 20
14.1007298168
 30
0.0
 10
15.7038311157
 20
14.0601068998
 30
0.0
 10
15.8770913781
 20
14.0110104637
 30
0.0
 10
16.0478339183
 20
13.9537733597
 30
0.0
 10
16.2149021925
 20
13.8887829554
 30
0.0
 10
16.3771648449
 20
13.8164782884
 30
0.0
 10
16.5335239516
 20
13.737346578
 30
0.0
 10
16.6829223177
 20
13.6519197282
 30
0.0
 10
16.8243526818
 20
13.560768528
 30
0.0
 10
16.9568579198
 20
13.4645028268
 30
0.0
 10
17.0599917226
 20
13.3798170378
 30
0.0
 10
17.1371498526
 20
13.3100047122
 30
0.0
 10
17.1917469132
 20
13.2572323598
 30
0.0
 10
17.2434813414
 20
13.2036808778
 30
0.0
 10
17.2922658307
 20
13.14943739
 30
0.0
 10
17.3380163479
 20
13.0945905687
 30
0.0
 10
17.380655702
 20
13.0392308666
 30
0.0
 10
17.4201097972
 20
12.9834456189
 30
0.0
 10
17.4563117536
 20
12.9273235027
 30
0.0
 10
17.489192628
 20
12.8709600313
 30
0.0
 10
17.5090929276
 20
12.832843581
 30
0.0
 10
17.5184483426
 20
12.8137792497
 30
0.0
  0
SPLINE
  5
31A
100
AcDbEntity
  8
0
100
AcDbSpline
 62
7
  6
CONTINUOUS
 70
0
 71
3
 72
19
 73
15
 74
0
 42
0.0000001
 43
0.0000001
 44
0.0000000001
 40
0.0
 40
0.0
 40
0.0
 40
0.0
 40
0.1372084688
 40
0.2699118812
 40
0.3984851346
 40
0.523430586
 40
0.5847391581
 40
0.6453671998
 40
0.7054015783
 40
0.7649341735
 40
0.824060879
 40
0.8828810747
 40
0.9414943019
 40
1.0
 40
1.0
 40
1.0
 40
1.0
 10
17.5221486751
 20
12.8061749256
 30
0.0
 10
17.5353993373
 20
12.7787118397
 30
0.0
 10
17.5595244844
 20
12.7237190319
 30
0.0
 10
17.5886250639
 20
12.6399779172
 30
0.0
 10
17.6098764051
 20
12.5567077972
 30
0.0
 10
17.6210194476
 20
12.4875227128
 30
0.0
 10
17.6258232569
 20
12.432849019
 30
0.0
 10
17.627390999
 20
12.3924218431
 30
0.0
 10
17.6269397339
 20
12.3523616962
 30
0.0
 10
17.6244666814
 20
12.3127090321
 30
0.0
 10
17.6199738166
 20
12.2735054925
 30
0.0
 10
17.6134614299
 20
12.2347929545
 30
0.0
 10
17.6049370779
 20
12.1966155538
 30
0.0
 10
17.5979159269
 20
12.1715372129
 30
0.0
 10
17.5940771018
 20
12.1591147704
 30
0.0
  0
SPLINE
  5
31B
100
AcDbEntity
  8
0
100
AcDbSpline
 62
7
  6
CONTINUOUS
 70
0
 71
3
 72
28
 73
24
 74
0
 42
0.0000001
 43
0.0000001
 44
0.0000000001
 40
0.0
 40
0.0
 40
0.0
 40
0.0
 40
0.0256499215
 40
0.0512937311
 40
0.0770400288
 40
0.1029389239
 40
0.1290222677
 40
0.1553552319
 40
0.1820002261
 40
0.2090232733
 40
0.264400717
 40
0.2928895188
 40
0.3219545734
 40
0.3818946849
 40
0.4443383334
 40
0.509209683
 40
0.5762823566
 40
0.6452046373
 40
0.7155272857
 40
0.7867336901
 40
0.8582600651
 40
0.9295411266
 40
1.0
 40
1.0
 40
1.0
 40
1.0
 10
17.2994414977
 20
11.4628295657
 30
0.0
 10
17.2979541313
 20
11.4580164464
 30
0.0
 10
17.2945123034
 20
11.44852878
 30
0.0
 10
17.288001931
 20
11.4348459108
 30
0.0
 10
17.2802016624
 20
11.4217976973
 30
0.0
 10
17.2711922015
 20
11.4094481086
 30
0.0
 10
17.2610456811
 20
11.3978622386
 30
0.0
 10
17.249849357
 20
11.3870779877
 30
0.0
 10
17.2376783235
 20
11.3771145573
 30
0.0
 10
17.2201073843
 20
11.3648407977
 30
0.0
 10
17.2009363554
 20
11.354339972
 30
0.0
 10
17.1805576702
 20
11.3455617104
 30
0.0
 10
17.1588463182
 20
11.3377061628
 30
0.0
 10
17.1300593429
 20
11.3299789365
 30
0.0
 10
17.0937156491
 20
11.32401583
 30
0.0
 10
17.0555918373
 20
11.3212319578
 30
0.0
 10
17.0161021416
 20
11.3215947683
 30
0.0
 10
16.9756920429
 20
11.3250584395
 30
0.0
 10
16.9348378714
 20
11.331555415
 30
0.0
 10
16.8940374415
 20
11.340991367
 30
0.0
 10
16.8537948065
 20
11.3532409301
 30
0.0
 10
16.8146190373
 20
11.3681504248
 30
0.0
 10
16.7893248044
 20
11.379841691
 30
0.0
 10
16.77698214
 20
11.3860991785
 30
0.0
  0
SPLINE
  5
31C
100
AcDbEntity
  8
0
100
AcDbSpline
 62
7
  6
CONTINUOUS
 70
0
 71
3
 72
15
 73
11
 74
0
 42
0.0000001
 43
0.0000001
 44
0.0000000001
 40
0.0
 40
0.0
 40
0.0
 40
0.0
 40
0.1295962616
 40
0.257396191
 40
0.383625556
 40
0.5085293476
 40
0.6323549625
 40
0.7553516151
 40
0.8777969545
 40
1.0
 40
1.0
 40
1.0
 40
1.0
 10
13.9259273645
 20
12.5294373019
 30
0.0
 10
13.9234122801
 20
12.5415721207
 30
0.0
 10
13.9190905318
 20
12.5658196155
 30
0.0
 10
13.9147758841
 20
12.6022702622
 30
0.0
 10
13.9126958726
 20
12.6384692451
 30
0.0
 10
13.9128716611
 20
12.6743482168
 30
0.0
 10
13.915312598
 20
12.7098353951
 30
0.0
 10
13.9200229239
 20
12.7448571498
 30
0.0
 10
13.9270037202
 20
12.7793384131
 30
0.0
 10
13.9331657457
 20
12.8019282202
 30
0.0
 10
13.9366159292
 20
12.8130930179
 30
0.0
  0
LINE
  5
31D
100
AcDbEntity
  8
0
100
AcDbLine
 62
7
  6
CONTINUOUS
 10
15.2121843318
 20
13.7021846711
 11
15.2082975333
 21
13.7059428414
  0
SPLINE
  5
31E
100
AcDbEntity
  8
0
100
AcDbSpline
 62
7
  6
CONTINUOUS
 70
0
 71
3
 72
24
 73
20
 74
0
 42
0.0000001
 43
0.0000001
 44
0.0000000001
 40
0.0
 40
0.0
 40
0.0
 40
0.0
 40
0.0737513837
 40
0.1462991465
 40
0.2173804889
 40
0.2868385538
 40
0.3545493321
 40
0.4204266133
 40
0.4844498486
 40
0.5466564396
 40
0.6071479686
 40
0.6660809194
 40
0.7236687915
 40
0.7801478457
 40
0.8357814626
 40
0.8908307311
 40
0.9182020359
 40
0.9454901379
 40
1.0
 40
1.0
 40
1.0
 40
1.0
 10
13.6341591689
 20
12.9794484398
 30
0.0
 10
13.6257112132
 20
12.9837313867
 30
0.0
 10
13.6091612907
 20
12.9926461148
 30
0.0
 10
13.5852896535
 20
13.0071450683
 30
0.0
 10
13.5626916834
 20
13.0226049475
 30
0.0
 10
13.5415022631
 20
13.038948482
 30
0.0
 10
13.5218421403
 20
13.056105072
 30
0.0
 10
13.5038273261
 20
13.0740076411
 30
0.0
 10
13.4875679362
 20
13.0925922597
 30
0.0
 10
13.4731713042
 20
13.1118006739
 30
0.0
 10
13.4607468677
 20
13.1315764714
 30
0.0
 10
13.4504121871
 20
13.1518619023
 30
0.0
 10
13.4422949956
 20
13.1725851092
 30
0.0
 10
13.4365348757
 20
13.1936504824
 30
0.0
 10
13.4332729066
 20
13.2149192311
 30
0.0
 10
13.4327541303
 20
13.2326925179
 30
0.0
 10
13.4337001854
 20
13.2467593795
 30
0.0
 10
13.4355561297
 20
13.2606634148
 30
0.0
 10
13.4379860136
 20
13.2709259301
 30
0.0
 10
13.4400528934
 20
13.2776143556
 30
0.0
  0
SPLINE
  5
31F
100
AcDbEntity
  8
0
100
AcDbSpline
 62
7
  6
CONTINUOUS
 70
0
 71
3
 72
16
 73
12
 74
0
 42
0.0000001
 43
0.0000001
 44
0.0000000001
 40
0.0
 40
0.0
 40
0.0
 40
0.0
 40
0.111435739
 40
0.2244059028
 40
0.3403494828
 40
0.4605136222
 40
0.5225343916
 40
0.5859707811
 40
0.717375418
 40
0.8552955458
 40
1.0
 40
1.0
 40
1.0
 40
1.0
 10
16.7547552854
 20
11.6054064041
 30
0.0
 10
16.7556298162
 20
11.6082366157
 30
0.0
 10
16.7578091992
 20
11.6138157987
 30
0.0
 10
16.7622826541
 20
11.6217125658
 30
0.0
 10
16.7679366083
 20
11.6291051416
 30
0.0
 10
16.7735339708
 20
11.6347458312
 30
0.0
 10
16.7785260387
 20
11.6389586871
 30
0.0
 10
16.7839882553
 20
11.6430612639
 30
0.0
 10
16.791488025
 20
11.6477846449
 30
0.0
 10
16.80134634
 20
11.6527113957
 30
0.0
 10
16.8083489504
 20
11.6554624151
 30
0.0
 10
16.8119822192
 20
11.6567256618
 30
0.0
  0
SPLINE
  5
320
100
AcDbEntity
  8
0
100
AcDbSpline
 62
7
  6
CONTINUOUS
 70
0
 71
3
 72
23
 73
19
 74
0
 42
0.0000001
 43
0.0000001
 44
0.0000000001
 40
0.0
 40
0.0
 40
0.0
 40
0.0
 40
0.0555749958
 40
0.113746105
 40
0.1742690375
 40
0.236838959
 40
0.3011009604
 40
0.3666643623
 40
0.4331101127
 40
0.5000013955
 40
0.5668929313
 40
0.6333386618
 40
0.6989025411
 40
0.7631650763
 40
0.8257339331
 40
0.8862563921
 40
0.9444277116
 40
1.0
 40
1.0
 40
1.0
 40
1.0
 10
16.8116466741
 20
11.657496534
 30
0.0
 10
16.8172178423
 20
11.6588066691
 30
0.0
 10
16.8287440705
 20
11.6609817126
 30
0.0
 10
16.8466019384
 20
11.6629140626
 30
0.0
 10
16.8652721945
 20
11.6635778232
 30
0.0
 10
16.8845699402
 20
11.6629654002
 30
0.0
 10
16.9043061064
 20
11.6610845341
 30
0.0
 10
16.9242861952
 20
11.6579531239
 30
0.0
 10
16.9443131979
 20
11.6536017144
 30
0.0
 10
16.9641897863
 20
11.6480743052
 30
0.0
 10
16.9837195268
 20
11.6414244275
 30
0.0
 10
17.0027097624
 20
11.6337179823
 30
0.0
 10
17.0209734133
 20
11.6250316431
 30
0.0
 10
17.0383297828
 20
11.6154498358
 30
0.0
 10
17.0546082965
 20
11.6050679752
 30
0.0
 10
17.0696493788
 20
11.5939873385
 30
0.0
 10
17.0833028516
 20
11.5823164847
 30
0.0
 10
17.091592682
 20
11.5740184577
 30
0.0
 10
17.0954531526
 20
11.5697937749
 30
0.0
  0
SPLINE
  5
321
100
AcDbEntity
  8
0
100
AcDbSpline
 62
7
  6
CONTINUOUS
 70
0
 71
3
 72
9
 73
5
 74
0
 42
0.0000001
 43
0.0000001
 44
0.0000000001
 40
0.0
 40
0.0
 40
0.0
 40
0.0
 40
0.5121951728
 40
1.0
 40
1.0
 40
1.0
 40
1.0
 10
17.0948054642
 20
11.5692594156
 30
0.0
 10
17.0970935761
 20
11.5661601831
 30
0.0
 10
17.1013219619
 20
11.5599280657
 30
0.0
 10
17.1049793135
 20
11.5533412248
 30
0.0
 10
17.1065956277
 20
11.5500475227
 30
0.0
  0
SPLINE
  5
322
100
AcDbEntity
  8
0
100
AcDbSpline
 62
7
  6
CONTINUOUS
 70
0
 71
3
 72
16
 73
12
 74
0
 42
0.0000001
 43
0.0000001
 44
0.0000000001
 40
0.0
 40
0.0
 40
0.0
 40
0.0
 40
0.111435739
 40
0.2244059028
 40
0.3403494828
 40
0.4605136222
 40
0.5225343916
 40
0.5859707811
 40
0.717375418
 40
0.8552955458
 40
1.0
 40
1.0
 40
1.0
 40
1.0
 10
15.9728530353
 20
13.1987556655
 30
0.0
 10
15.9737275661
 20
13.2015858771
 30
0.0
 10
15.9759069491
 20
13.2071650601
 30
0.0
 10
15.980380404
 20
13.2150618272
 30
0.0
 10
15.9860343582
 20
13.2224544029
 30
0.0
 10
15.9916317207
 20
13.2280950925
 30
0.0
 10
15.9966237886
 20
13.2323079485
 30
0.0
 10
16.0020860052
 20
13.2364105252
 30
0.0
 10
16.0095857749
 20
13.2411339062
 30
0.0
 10
16.0194440899
 20
13.246060657
 30
0.0
 10
16.0264467003
 20
13.2488116765
 30
0.0
 10
16.0300799691
 20
13.2500749232
 30
0.0
  0
SPLINE
  5
323
100
AcDbEntity
  8
0
100
AcDbSpline
 62
7
  6
CONTINUOUS
 70
0
 71
3
 72
23
 73
19
 74
0
 42
0.0000001
 43
0.0000001
 44
0.0000000001
 40
0.0
 40
0.0
 40
0.0
 40
0.0
 40
0.0555749958
 40
0.113746105
 40
0.1742690375
 40
0.236838959
 40
0.3011009604
 40
0.3666643623
 40
0.4331101127
 40
0.5000013955
 40
0.5668929313
 40
0.6333386618
 40
0.6989025411
 40
0.7631650763
 40
0.8257339331
 40
0.8862563921
 40
0.9444277116
 40
1.0
 40
1.0
 40
1.0
 40
1.0
 10
16.029744424
 20
13.2508457954
 30
0.0
 10
16.0353155922
 20
13.2521559304
 30
0.0
 10
16.0468418204
 20
13.254330974
 30
0.0
 10
16.0646996883
 20
13.256263324
 30
0.0
 10
16.0833699444
 20
13.2569270846
 30
0.0
 10
16.1026676901
 20
13.2563146615
 30
0.0
 10
16.1224038563
 20
13.2544337954
 30
0.0
 10
16.1423839451
 20
13.2513023852
 30
0.0
 10
16.1624109478
 20
13.2469509757
 30
0.0
 10
16.1822875362
 20
13.2414235665
 30
0.0
 10
16.2018172767
 20
13.2347736888
 30
0.0
 10
16.2208075123
 20
13.2270672436
 30
0.0
 10
16.2390711632
 20
13.2183809045
 30
0.0
 10
16.2564275327
 20
13.2087990972
 30
0.0
 10
16.2727060464
 20
13.1984172365
 30
0.0
 10
16.2877471287
 20
13.1873365998
 30
0.0
 10
16.3014006015
 20
13.1756657461
 30
0.0
 10
16.3096904319
 20
13.167367719
 30
0.0
 10
16.3135509025
 20
13.1631430362
 30
0.0
  0
SPLINE
  5
324
100
AcDbEntity
  8
0
100
AcDbSpline
 62
7
  6
CONTINUOUS
 70
0
 71
3
 72
9
 73
5
 74
0
 42
0.0000001
 43
0.0000001
 44
0.0000000001
 40
0.0
 40
0.0
 40
0.0
 40
0.0
 40
0.5121951728
 40
1.0
 40
1.0
 40
1.0
 40
1.0
 10
16.3129032141
 20
13.1626086769
 30
0.0
 10
16.315191326
 20
13.1595094444
 30
0.0
 10
16.3194197118
 20
13.1532773271
 30
0.0
 10
16.3230770634
 20
13.1466904861
 30
0.0
 10
16.3246933776
 20
13.143396784
 30
0.0
  0
SPLINE
  5
325
100
AcDbEntity
  8
0
100
AcDbSpline
 62
7
  6
CONTINUOUS
 70
0
 71
3
 72
23
 73
19
 74
0
 42
0.0000001
 43
0.0000001
 44
0.0000000001
 40
0.0
 40
0.0
 40
0.0
 40
0.0
 40
0.0555749958
 40
0.113746105
 40
0.1742690375
 40
0.236838959
 40
0.3011009604
 40
0.3666643623
 40
0.4331101127
 40
0.5000013955
 40
0.5668929313
 40
0.6333386618
 40
0.6989025411
 40
0.7631650763
 40
0.8257339331
 40
0.8862563921
 40
0.9444277116
 40
1.0
 40
1.0
 40
1.0
 40
1.0
 10
13.668823703
 20
13.2508457954
 30
0.0
 10
13.6743948713
 20
13.2521559304
 30
0.0
 10
13.6859210994
 20
13.254330974
 30
0.0
 10
13.7037789674
 20
13.256263324
 30
0.0
 10
13.7224492234
 20
13.2569270846
 30
0.0
 10
13.7417469692
 20
13.2563146615
 30
0.0
 10
13.7614831353
 20
13.2544337954
 30
0.0
 10
13.7814632241
 20
13.2513023852
 30
0.0
 10
13.8014902268
 20
13.2469509757
 30
0.0
 10
13.8213668153
 20
13.2414235665
 30
0.0
 10
13.8408965557
 20
13.2347736888
 30
0.0
 10
13.8598867914
 20
13.2270672436
 30
0.0
 10
13.8781504423
 20
13.2183809045
 30
0.0
 10
13.8955068117
 20
13.2087990972
 30
0.0
 10
13.9117853255
 20
13.1984172365
 30
0.0
 10
13.9268264078
 20
13.1873365998
 30
0.0
 10
13.9404798805
 20
13.1756657461
 30
0.0
 10
13.948769711
 20
13.167367719
 30
0.0
 10
13.9526301815
 20
13.1631430362
 30
0.0
  0
SPLINE
  5
326
100
AcDbEntity
  8
0
100
AcDbSpline
 62
7
  6
CONTINUOUS
 70
0
 71
3
 72
9
 73
5
 74
0
 42
0.0000001
 43
0.0000001
 44
0.0000000001
 40
0.0
 40
0.0
 40
0.0
 40
0.0
 40
0.5121951728
 40
1.0
 40
1.0
 40
1.0
 40
1.0
 10
13.9519824931
 20
13.1626086769
 30
0.0
 10
13.954270605
 20
13.1595094444
 30
0.0
 10
13.9584989908
 20
13.1532773271
 30
0.0
 10
13.9621563425
 20
13.1466904861
 30
0.0
 10
13.9637726567
 20
13.143396784
 30
0.0
  0
SPLINE
  5
327
100
AcDbEntity
  8
0
100
AcDbSpline
 62
7
  6
CONTINUOUS
 70
0
 71
3
 72
16
 73
12
 74
0
 42
0.0000001
 43
0.0000001
 44
0.0000000001
 40
0.0
 40
0.0
 40
0.0
 40
0.0
 40
0.111435739
 40
0.2244059028
 40
0.3403494828
 40
0.4605136222
 40
0.5225343916
 40
0.5859707811
 40
0.717375418
 40
0.8552955458
 40
1.0
 40
1.0
 40
1.0
 40
1.0
 10
13.6119323144
 20
13.1987556655
 30
0.0
 10
13.6128068451
 20
13.2015858771
 30
0.0
 10
13.6149862281
 20
13.2071650601
 30
0.0
 10
13.6194596831
 20
13.2150618272
 30
0.0
 10
13.6251136373
 20
13.2224544029
 30
0.0
 10
13.6307109997
 20
13.2280950925
 30
0.0
 10
13.6357030676
 20
13.2323079485
 30
0.0
 10
13.6411652842
 20
13.2364105252
 30
0.0
 10
13.6486650539
 20
13.2411339062
 30
0.0
 10
13.658523369
 20
13.246060657
 30
0.0
 10
13.6655259794
 20
13.2488116765
 30
0.0
 10
13.6691592481
 20
13.2500749232
 30
0.0
  0
SPLINE
  5
328
100
AcDbEntity
  8
0
100
AcDbSpline
 62
7
  6
CONTINUOUS
 70
0
 71
3
 72
11
 73
7
 74
0
 42
0.0000001
 43
0.0000001
 44
0.0000000001
 40
0.0
 40
0.0
 40
0.0
 40
0.0
 40
0.2549076814
 40
0.5066072576
 40
0.7548493882
 40
1.0
 40
1.0
 40
1.0
 40
1.0
 10
15.1932587473
 20
13.6919560698
 30
0.0
 10
15.1945427725
 20
13.6933017632
 30
0.0
 10
15.1972851923
 20
13.6958034238
 30
0.0
 10
15.2018971078
 20
13.6988578344
 30
0.0
 10
15.2068946378
 20
13.7010654662
 30
0.0
 10
15.2104152861
 20
13.7019195081
 30
0.0
 10
15.2121843318
 20
13.7021846711
 30
0.0
  0
SPLINE
  5
329
100
AcDbEntity
  8
0
100
AcDbSpline
 62
7
  6
CONTINUOUS
 70
0
 71
3
 72
24
 73
20
 74
0
 42
0.0000001
 43
0.0000001
 44
0.0000000001
 40
0.0
 40
0.0
 40
0.0
 40
0.0
 40
0.0655430607
 40
0.0972489691
 40
0.1282745806
 40
0.1884302718
 40
0.246497059
 40
0.3030484927
 40
0.3587293041
 40
0.4142338941
 40
0.4702726015
 40
0.5275240764
 40
0.5865918098
 40
0.6479863088
 40
0.7121037622
 40
0.7792336948
 40
0.8495522187
 40
0.9231440233
 40
1.0
 40
1.0
 40
1.0
 40
1.0
 10
16.7379352086
 20
11.5343809845
 30
0.0
 10
16.7363023552
 20
11.5377083899
 30
0.0
 10
16.7341059059
 20
11.5427631707
 30
0.0
 10
16.7317441824
 20
11.5496247858
 30
0.0
 10
16.7298405381
 20
11.5563112469
 30
0.0
 10
16.7282164045
 20
11.5646147535
 30
0.0
 10
16.7275155842
 20
11.5744994544
 30
0.0
 10
16.7280936048
 20
11.584141343
 30
0.0
 10
16.7299468337
 20
11.5934748094
 30
0.0
 10
16.7330684116
 20
11.6024335727
 30
0.0
 10
16.7374323039
 20
11.6109562044
 30
0.0
 10
16.7430088617
 20
11.618983815
 30
0.0
 10
16.7497542206
 20
11.626467188
 30
0.0
 10
16.7576236659
 20
11.6333583491
 30
0.0
 10
16.7665621816
 20
11.6396196416
 30
0.0
 10
16.7765137928
 20
11.6452122793
 30
0.0
 10
16.787414398
 20
11.6501069771
 30
0.0
 10
16.7991964213
 20
11.6542723353
 30
0.0
 10
16.8074158812
 20
11.6565016063
 30
0.0
 10
16.8116466741
 20
11.657496534
 30
0.0
  0
SPLINE
  5
32A
100
AcDbEntity
  8
0
100
AcDbSpline
 62
7
  6
CONTINUOUS
 70
0
 71
3
 72
17
 73
13
 74
0
 42
0.0000001
 43
0.0000001
 44
0.0000000001
 40
0.0
 40
0.0
 40
0.0
 40
0.0
 40
0.0606234994
 40
0.1213756518
 40
0.1822968456
 40
0.2434239738
 40
0.3663578266
 40
0.4904622116
 40
0.6158726148
 40
0.7426375445
 40
0.8707204369
 40
1.0
 40
1.0
 40
1.0
 40
1.0
 10
14.9056419023
 20
13.8897659951
 30
0.0
 10
14.8971322979
 20
13.8902204552
 30
0.0
 10
14.8800578918
 20
13.8905436153
 30
0.0
 10
14.8544455303
 20
13.8892718708
 30
0.0
 10
14.828907196
 20
13.886246718
 30
0.0
 10
14.7950408721
 20
13.8798866419
 30
0.0
 10
14.7533573949
 20
13.8675900661
 30
0.0
 10
14.7054039487
 20
13.8462175353
 30
0.0
 10
14.6601567726
 20
13.8185443576
 30
0.0
 10
14.6183427671
 20
13.7850195921
 30
0.0
 10
14.5806315541
 20
13.7461931362
 30
0.0
 10
14.5587022041
 20
13.7172900633
 30
0.0
 10
14.5485992383
 20
13.7021846697
 30
0.0
  0
SPLINE
  5
32B
100
AcDbEntity
  8
0
100
AcDbSpline
 62
7
  6
CONTINUOUS
 70
0
 71
3
 72
43
 73
39
 74
0
 42
0.0000001
 43
0.0000001
 44
0.0000000001
 40
0.0
 40
0.0
 40
0.0
 40
0.0
 40
0.0262489776
 40
0.0511121801
 40
0.0748053156
 40
0.0863227007
 40
0.0976771343
 40
0.1089190816
 40
0.1201014271
 40
0.1312790234
 40
0.1425069451
 40
0.1538390729
 40
0.1653270151
 40
0.1889387906
 40
0.2136891404
 40
0.2398216698
 40
0.2674958002
 40
0.2967912314
 40
0.3277170539
 40
0.3602244
 40
0.3942132562
 40
0.429543169
 40
0.4660406865
 40
0.5035045443
 40
0.5417138067
 40
0.5804317535
 40
0.6194117585
 40
0.6584023408
 40
0.6971514054
 40
0.7354121517
 40
0.772946556
 40
0.8095314582
 40
0.8449645177
 40
0.8790701232
 40
0.9117033959
 40
0.9427614679
 40
0.9721993388
 40
1.0
 40
1.0
 40
1.0
 40
1.0
 10
17.1201755212
 20
11.5343809845
 30
0.0
 10
17.1221872287
 20
11.5302815555
 30
0.0
 10
17.1256544934
 20
11.5220645341
 30
0.0
 10
17.1291156381
 20
11.5094795621
 30
0.0
 10
17.1303951409
 20
11.4990616253
 30
0.0
 10
17.1304097141
 20
11.4909532532
 30
0.0
 10
17.1299336612
 20
11.4850306752
 30
0.0
 10
17.1289721287
 20
11.4792264473
 30
0.0
 10
17.1275262845
 20
11.4735550559
 30
0.0
 10
17.1255992922
 20
11.4680311895
 30
0.0
 10
17.1231974017
 20
11.4626682828
 30
0.0
 10
17.1203258376
 20
11.4574795752
 30
0.0
 10
17.1158412201
 20
11.4507519939
 30
0.0
 10
17.1090338215
 20
11.4428137724
 30
0.0
 10
17.0992134254
 20
11.434295075
 30
0.0
 10
17.0877692389
 20
11.4267598623
 30
0.0
 10
17.0748153189
 20
11.4202744567
 30
0.0
 10
17.0604758201
 20
11.4148933899
 30
0.0
 10
17.044887065
 20
11.4106616782
 30
0.0
 10
17.0281957959
 20
11.4076181139
 30
0.0
 10
17.0105600722
 20
11.4057890278
 30
0.0
 10
16.9921470409
 20
11.4051905765
 30
0.0
 10
16.9731318015
 20
11.4058292941
 30
0.0
 10
16.9536954943
 20
11.4076974675
 30
0.0
 10
16.9340237053
 20
11.4107778453
 30
0.0
 10
16.9143045395
 20
11.4150413407
 30
0.0
 10
16.8947263316
 20
11.4204460482
 30
0.0
 10
16.875476728
 20
11.4269414346
 30
0.0
 10
16.8567397451
 20
11.4344648214
 30
0.0
 10
16.8386944009
 20
11.442943811
 30
0.0
 10
16.8215138661
 20
11.4522985652
 30
0.0
 10
16.8053615978
 20
11.4624384649
 30
0.0
 10
16.7903918096
 20
11.4732676518
 30
0.0
 10
16.7767477696
 20
11.4846841988
 30
0.0
 10
16.7645580268
 20
11.4965785433
 30
0.0
 10
16.7539383544
 20
11.5088425396
 30
0.0
 10
16.7449946093
 20
11.521359053
 30
0.0
 10
16.7400658364
 20
11.5300392216
 30
0.0
 10
16.7379352086
 20
11.5343809845
 30
0.0
  0
SPLINE
  5
32C
100
AcDbEntity
  8
0
100
AcDbSpline
 62
7
  6
CONTINUOUS
 70
0
 71
3
 72
24
 73
20
 74
0
 42
0.0000001
 43
0.0000001
 44
0.0000000001
 40
0.0
 40
0.0
 40
0.0
 40
0.0
 40
0.0655430607
 40
0.0972489691
 40
0.1282745806
 40
0.1884302718
 40
0.246497059
 40
0.3030484927
 40
0.3587293041
 40
0.4142338941
 40
0.4702726015
 40
0.5275240764
 40
0.5865918098
 40
0.6479863088
 40
0.7121037622
 40
0.7792336948
 40
0.8495522187
 40
0.9231440233
 40
1.0
 40
1.0
 40
1.0
 40
1.0
 10
15.9560329585
 20
13.1277302458
 30
0.0
 10
15.9544001051
 20
13.1310576513
 30
0.0
 10
15.9522036558
 20
13.136112432
 30
0.0
 10
15.9498419323
 20
13.1429740471
 30
0.0
 10
15.947938288
 20
13.1496605083
 30
0.0
 10
15.9463141544
 20
13.1579640148
 30
0.0
 10
15.9456133341
 20
13.1678487157
 30
0.0
 10
15.9461913547
 20
13.1774906043
 30
0.0
 10
15.9480445836
 20
13.1868240707
 30
0.0
 10
15.9511661615
 20
13.1957828341
 30
0.0
 10
15.9555300538
 20
13.2043054657
 30
0.0
 10
15.9611066116
 20
13.2123330764
 30
0.0
 10
15.9678519705
 20
13.2198164494
 30
0.0
 10
15.9757214158
 20
13.2267076104
 30
0.0
 10
15.9846599315
 20
13.2329689029
 30
0.0
 10
15.9946115427
 20
13.2385615406
 30
0.0
 10
16.0055121479
 20
13.2434562384
 30
0.0
 10
16.0172941712
 20
13.2476215966
 30
0.0
 10
16.0255136311
 20
13.2498508676
 30
0.0
 10
16.029744424
 20
13.2508457954
 30
0.0
  0
SPLINE
  5
32D
100
AcDbEntity
  8
0
100
AcDbSpline
 62
7
  6
CONTINUOUS
 70
0
 71
3
 72
43
 73
39
 74
0
 42
0.0000001
 43
0.0000001
 44
0.0000000001
 40
0.0
 40
0.0
 40
0.0
 40
0.0
 40
0.0262489776
 40
0.0511121801
 40
0.0748053156
 40
0.0863227007
 40
0.0976771343
 40
0.1089190816
 40
0.1201014271
 40
0.1312790234
 40
0.1425069451
 40
0.1538390729
 40
0.1653270151
 40
0.1889387906
 40
0.2136891404
 40
0.2398216698
 40
0.2674958002
 40
0.2967912314
 40
0.3277170539
 40
0.3602244
 40
0.3942132562
 40
0.429543169
 40
0.4660406865
 40
0.5035045443
 40
0.5417138067
 40
0.5804317535
 40
0.6194117585
 40
0.6584023408
 40
0.6971514054
 40
0.7354121517
 40
0.772946556
 40
0.8095314582
 40
0.8449645177
 40
0.8790701232
 40
0.9117033959
 40
0.9427614679
 40
0.9721993388
 40
1.0
 40
1.0
 40
1.0
 40
1.0
 10
16.3382732711
 20
13.1277302458
 30
0.0
 10
16.3402849786
 20
13.1236308169
 30
0.0
 10
16.3437522433
 20
13.1154137954
 30
0.0
 10
16.347213388
 20
13.1028288234
 30
0.0
 10
16.3484928908
 20
13.0924108867
 30
0.0
 10
16.348507464
 20
13.0843025146
 30
0.0
 10
16.3480314111
 20
13.0783799365
 30
0.0
 10
16.3470698786
 20
13.0725757087
 30
0.0
 10
16.3456240344
 20
13.0669043172
 30
0.0
 10
16.3436970421
 20
13.0613804509
 30
0.0
 10
16.3412951516
 20
13.0560175441
 30
0.0
 10
16.3384235875
 20
13.0508288366
 30
0.0
 10
16.33393897
 20
13.0441012552
 30
0.0
 10
16.3271315714
 20
13.0361630337
 30
0.0
 10
16.3173111753
 20
13.0276443363
 30
0.0
 10
16.3058669888
 20
13.0201091236
 30
0.0
 10
16.2929130688
 20
13.013623718
 30
0.0
 10
16.27857357
 20
13.0082426512
 30
0.0
 10
16.2629848149
 20
13.0040109395
 30
0.0
 10
16.2462935458
 20
13.0009673753
 30
0.0
 10
16.2286578221
 20
12.9991382891
 30
0.0
 10
16.2102447908
 20
12.9985398378
 30
0.0
 10
16.1912295514
 20
12.9991785555
 30
0.0
 10
16.1717932442
 20
13.0010467288
 30
0.0
 10
16.1521214552
 20
13.0041271066
 30
0.0
 10
16.1324022894
 20
13.008390602
 30
0.0
 10
16.1128240815
 20
13.0137953095
 30
0.0
 10
16.0935744779
 20
13.0202906959
 30
0.0
 10
16.074837495
 20
13.0278140828
 30
0.0
 10
16.0567921508
 20
13.0362930724
 30
0.0
 10
16.039611616
 20
13.0456478265
 30
0.0
 10
16.0234593477
 20
13.0557877262
 30
0.0
 10
16.0084895595
 20
13.0666169132
 30
0.0
 10
15.9948455195
 20
13.0780334601
 30
0.0
 10
15.9826557767
 20
13.0899278046
 30
0.0
 10
15.9720361043
 20
13.102191801
 30
0.0
 10
15.9630923592
 20
13.1147083144
 30
0.0
 10
15.9581635863
 20
13.123388483
 30
0.0
 10
15.9560329585
 20
13.1277302458
 30
0.0
  0
SPLINE
  5
32E
100
AcDbEntity
  8
0
100
AcDbSpline
 62
7
  6
CONTINUOUS
 70
0
 71
3
 72
24
 73
20
 74
0
 42
0.0000001
 43
0.0000001
 44
0.0000000001
 40
0.0
 40
0.0
 40
0.0
 40
0.0
 40
0.0655430607
 40
0.0972489691
 40
0.1282745806
 40
0.1884302718
 40
0.246497059
 40
0.3030484927
 40
0.3587293041
 40
0.4142338941
 40
0.4702726015
 40
0.5275240764
 40
0.5865918098
 40
0.6479863088
 40
0.7121037622
 40
0.7792336948
 40
0.8495522187
 40
0.9231440233
 40
1.0
 40
1.0
 40
1.0
 40
1.0
 10
13.5951122376
 20
13.1277302458
 30
0.0
 10
13.5934793842
 20
13.1310576513
 30
0.0
 10
13.5912829349
 20
13.136112432
 30
0.0
 10
13.5889212113
 20
13.1429740471
 30
0.0
 10
13.587017567
 20
13.1496605083
 30
0.0
 10
13.5853934334
 20
13.1579640148
 30
0.0
 10
13.5846926131
 20
13.1678487157
 30
0.0
 10
13.5852706337
 20
13.1774906043
 30
0.0
 10
13.5871238627
 20
13.1868240707
 30
0.0
 10
13.5902454406
 20
13.1957828341
 30
0.0
 10
13.5946093329
 20
13.2043054657
 30
0.0
 10
13.6001858906
 20
13.2123330764
 30
0.0
 10
13.6069312496
 20
13.2198164494
 30
0.0
 10
13.6148006948
 20
13.2267076104
 30
0.0
 10
13.6237392105
 20
13.2329689029
 30
0.0
 10
13.6336908218
 20
13.2385615406
 30
0.0
 10
13.644591427
 20
13.2434562384
 30
0.0
 10
13.6563734503
 20
13.2476215966
 30
0.0
 10
13.6645929102
 20
13.2498508676
 30
0.0
 10
13.668823703
 20
13.2508457954
 30
0.0
  0
SPLINE
  5
32F
100
AcDbEntity
  8
0
100
AcDbSpline
 62
7
  6
CONTINUOUS
 70
0
 71
3
 72
43
 73
39
 74
0
 42
0.0000001
 43
0.0000001
 44
0.0000000001
 40
0.0
 40
0.0
 40
0.0
 40
0.0
 40
0.0262489776
 40
0.0511121801
 40
0.0748053156
 40
0.0863227007
 40
0.0976771343
 40
0.1089190816
 40
0.1201014271
 40
0.1312790234
 40
0.1425069451
 40
0.1538390729
 40
0.1653270151
 40
0.1889387906
 40
0.2136891404
 40
0.2398216698
 40
0.2674958002
 40
0.2967912314
 40
0.3277170539
 40
0.3602244
 40
0.3942132562
 40
0.429543169
 40
0.4660406865
 40
0.5035045443
 40
0.5417138067
 40
0.5804317535
 40
0.6194117585
 40
0.6584023408
 40
0.6971514054
 40
0.7354121517
 40
0.772946556
 40
0.8095314582
 40
0.8449645177
 40
0.8790701232
 40
0.9117033959
 40
0.9427614679
 40
0.9721993388
 40
1.0
 40
1.0
 40
1.0
 40
1.0
 10
13.9773525501
 20
13.1277302458
 30
0.0
 10
13.9793642577
 20
13.1236308169
 30
0.0
 10
13.9828315223
 20
13.1154137954
 30
0.0
 10
13.9862926671
 20
13.1028288234
 30
0.0
 10
13.9875721698
 20
13.0924108867
 30
0.0
 10
13.9875867431
 20
13.0843025146
 30
0.0
 10
13.9871106901
 20
13.0783799365
 30
0.0
 10
13.9861491576
 20
13.0725757087
 30
0.0
 10
13.9847033135
 20
13.0669043172
 30
0.0
 10
13.9827763211
 20
13.0613804509
 30
0.0
 10
13.9803744307
 20
13.0560175441
 30
0.0
 10
13.9775028665
 20
13.0508288366
 30
0.0
 10
13.9730182491
 20
13.0441012552
 30
0.0
 10
13.9662108504
 20
13.0361630337
 30
0.0
 10
13.9563904543
 20
13.0276443363
 30
0.0
 10
13.9449462678
 20
13.0201091236
 30
0.0
 10
13.9319923478
 20
13.013623718
 30
0.0
 10
13.917652849
 20
13.0082426512
 30
0.0
 10
13.9020640939
 20
13.0040109395
 30
0.0
 10
13.8853728248
 20
13.0009673753
 30
0.0
 10
13.8677371011
 20
12.9991382891
 30
0.0
 10
13.8493240698
 20
12.9985398378
 30
0.0
 10
13.8303088304
 20
12.9991785555
 30
0.0
 10
13.8108725232
 20
13.0010467288
 30
0.0
 10
13.7912007342
 20
13.0041271066
 30
0.0
 10
13.7714815685
 20
13.008390602
 30
0.0
 10
13.7519033606
 20
13.0137953095
 30
0.0
 10
13.7326537569
 20
13.0202906959
 30
0.0
 10
13.7139167741
 20
13.0278140828
 30
0.0
 10
13.6958714298
 20
13.0362930724
 30
0.0
 10
13.678690895
 20
13.0456478265
 30
0.0
 10
13.6625386267
 20
13.0557877262
 30
0.0
 10
13.6475688385
 20
13.0666169132
 30
0.0
 10
13.6339247985
 20
13.0780334601
 30
0.0
 10
13.6217350558
 20
13.0899278046
 30
0.0
 10
13.6111153834
 20
13.102191801
 30
0.0
 10
13.6021716383
 20
13.1147083144
 30
0.0
 10
13.5972428653
 20
13.123388483
 30
0.0
 10
13.5951122376
 20
13.1277302458
 30
0.0
  0
SPLINE
  5
330
100
AcDbEntity
  8
0
100
AcDbSpline
 62
7
  6
CONTINUOUS
 70
0
 71
3
 72
12
 73
8
 74
0
 42
0.0000001
 43
0.0000001
 44
0.0000000001
 40
0.0
 40
0.0
 40
0.0
 40
0.0
 40
0.2532187309
 40
0.5038739835
 40
0.6284224943
 40
0.7526159593
 40
1.0
 40
1.0
 40
1.0
 40
1.0
 10
14.5669372714
 20
13.6919560698
 30
0.0
 10
14.565731682
 20
13.6933010586
 30
0.0
 10
14.5631165106
 20
13.695791821
 30
0.0
 10
14.5594002566
 20
13.6983362956
 30
0.0
 10
14.5562229734
 20
13.6999569171
 30
0.0
 10
14.5529354431
 20
13.7012759083
 30
0.0
 10
14.5503440089
 20
13.7019208494
 30
0.0
 10
14.5485992383
 20
13.7021846697
 30
0.0
  0
LINE
  5
331
100
AcDbEntity
  8
0
100
AcDbLine
 62
7
  6
CONTINUOUS
 10
14.5491390032
 20
13.7059428414
 11
14.5485992332
 21
13.7021846711
  0
SPLINE
  5
332
100
AcDbEntity
  8
0
100
AcDbSpline
 62
7
  6
CONTINUOUS
 70
0
 71
3
 72
15
 73
11
 74
0
 42
0.0000001
 43
0.0000001
 44
0.0000000001
 40
0.0
 40
0.0
 40
0.0
 40
0.0
 40
0.1380799318
 40
0.2714583019
 40
0.400424799
 40
0.5254316948
 40
0.647119483
 40
0.7662256933
 40
0.8835644243
 40
1.0
 40
1.0
 40
1.0
 40
1.0
 10
13.6183747839
 20
13.143396784
 30
0.0
 10
13.6172172269
 20
13.1457556372
 30
0.0
 10
13.6151092376
 20
13.1504781018
 30
0.0
 10
13.612560528
 20
13.1576677191
 30
0.0
 10
13.6106939426
 20
13.1648084575
 30
0.0
 10
13.609520898
 20
13.1718707305
 30
0.0
 10
13.6090446124
 20
13.178826689
 30
0.0
 10
13.6092697306
 20
13.1856503168
 30
0.0
 10
13.6101949876
 20
13.192313493
 30
0.0
 10
13.6112781853
 20
13.1966387316
 30
0.0
 10
13.6119323144
 20
13.1987556655
 30
0.0
  0
SPLINE
  5
333
100
AcDbEntity
  8
0
100
AcDbSpline
 62
7
  6
CONTINUOUS
 70
0
 71
3
 72
15
 73
11
 74
0
 42
0.0000001
 43
0.0000001
 44
0.0000000001
 40
0.0
 40
0.0
 40
0.0
 40
0.0
 40
0.1380799318
 40
0.2714583019
 40
0.400424799
 40
0.5254316948
 40
0.647119483
 40
0.7662256933
 40
0.8835644243
 40
1.0
 40
1.0
 40
1.0
 40
1.0
 10
15.9792955049
 20
13.143396784
 30
0.0
 10
15.9781379479
 20
13.1457556372
 30
0.0
 10
15.9760299586
 20
13.1504781018
 30
0.0
 10
15.973481249
 20
13.1576677191
 30
0.0
 10
15.9716146636
 20
13.1648084575
 30
0.0
 10
15.9704416189
 20
13.1718707305
 30
0.0
 10
15.9699653333
 20
13.178826689
 30
0.0
 10
15.9701904515
 20
13.1856503168
 30
0.0
 10
15.9711157086
 20
13.192313493
 30
0.0
 10
15.9721989062
 20
13.1966387316
 30
0.0
 10
15.9728530353
 20
13.1987556655
 30
0.0
  0
SPLINE
  5
334
100
AcDbEntity
  8
0
100
AcDbSpline
 62
7
  6
CONTINUOUS
 70
0
 71
3
 72
40
 73
36
 74
0
 42
0.0000001
 43
0.0000001
 44
0.0000000001
 40
0.0
 40
0.0
 40
0.0
 40
0.0
 40
0.0214497891
 40
0.0431952705
 40
0.0655137236
 40
0.0886454223
 40
0.1005848117
 40
0.1127969381
 40
0.1380942683
 40
0.1646467216
 40
0.1925059423
 40
0.2216861306
 40
0.2521631512
 40
0.2838852816
 40
0.3167719078
 40
0.3507229492
 40
0.3856173804
 40
0.4213209756
 40
0.4576852755
 40
0.4945536147
 40
0.5317610533
 40
0.5691387098
 40
0.6065149976
 40
0.6437183371
 40
0.6805799442
 40
0.7169349657
 40
0.7526267794
 40
0.7875070502
 40
0.8214422126
 40
0.8543116381
 40
0.8860138992
 40
0.9164682137
 40
0.9456299071
 40
0.9734773408
 40
1.0
 40
1.0
 40
1.0
 40
1.0
 10
17.1130380973
 20
11.4946886413
 30
0.0
 10
17.1121630582
 20
11.4918567843
 30
0.0
 10
17.1099821438
 20
11.4862743804
 30
0.0
 10
17.1055050018
 20
11.4783733938
 30
0.0
 10
17.0998460337
 20
11.470977263
 30
0.0
 10
17.0942435716
 20
11.4653343053
 30
0.0
 10
17.0892469042
 20
11.4611200244
 30
0.0
 10
17.0837795074
 20
11.4570161784
 30
0.0
 10
17.0762727398
 20
11.4522918405
 30
0.0
 10
17.0664045976
 20
11.4473646378
 30
0.0
 10
17.055638957
 20
11.4431398505
 30
0.0
 10
17.0440483057
 20
11.4396479097
 30
0.0
 10
17.0317113582
 20
11.4369078108
 30
0.0
 10
17.0187108446
 20
11.4349403741
 30
0.0
 10
17.0051348449
 20
11.4337554193
 30
0.0
 10
16.9910750923
 20
11.433363573
 30
0.0
 10
16.9766268026
 20
11.4337645317
 30
0.0
 10
16.9618882017
 20
11.4349582038
 30
0.0
 10
16.9469590918
 20
11.4369338002
 30
0.0
 10
16.9319413827
 20
11.4396804467
 30
0.0
 10
16.9169367075
 20
11.443176939
 30
0.0
 10
16.9020477775
 20
11.4474019575
 30
0.0
 10
16.8873752196
 20
11.4523243095
 30
0.0
 10
16.8730196802
 20
11.4579128999
 30
0.0
 10
16.8590779517
 20
11.4641273289
 30
0.0
 10
16.8456458758
 20
11.4709277064
 30
0.0
 10
16.8328136658
 20
11.4782654076
 30
0.0
 10
16.8206696876
 20
11.4860929768
 30
0.0
 10
16.8092950255
 20
11.4943551869
 30
0.0
 10
16.7987685748
 20
11.5029984835
 30
0.0
 10
16.7891599098
 20
11.5119618165
 30
0.0
 10
16.7805355644
 20
11.5211875537
 30
0.0
 10
16.7729519725
 20
11.5306139886
 30
0.0
 10
16.7664655295
 20
11.5401773001
 30
0.0
 10
16.7628123202
 20
11.5467573847
 30
0.0
 10
16.761197755
 20
11.5500475227
 30
0.0
  0
SPLINE
  5
335
100
AcDbEntity
  8
0
100
AcDbSpline
 62
7
  6
CONTINUOUS
 70
0
 71
3
 72
9
 73
5
 74
0
 42
0.0000001
 43
0.0000001
 44
0.0000000001
 40
0.0
 40
0.0
 40
0.0
 40
0.0
 40
0.2560986545
 40
1.0
 40
1.0
 40
1.0
 40
1.0
 10
17.0954531526
 20
11.5697937749
 30
0.0
 10
17.0965810687
 20
11.5685594466
 30
0.0
 10
17.1009221242
 20
11.56368263
 30
0.0
 10
17.1050045169
 20
11.5585734985
 30
0.0
 10
17.1078588649
 20
11.5546438604
 30
0.0
  0
SPLINE
  5
336
100
AcDbEntity
  8
0
100
AcDbSpline
 62
7
  6
CONTINUOUS
 70
0
 71
3
 72
9
 73
5
 74
0
 42
0.0000001
 43
0.0000001
 44
0.0000000001
 40
0.0
 40
0.0
 40
0.0
 40
0.0
 40
0.2576559381
 40
1.0
 40
1.0
 40
1.0
 40
1.0
 10
17.1098250605
 20
11.5518740852
 30
0.0
 10
17.1108203497
 20
11.5504388187
 30
0.0
 10
17.114587012
 20
11.5448027884
 30
0.0
 10
17.1179586265
 20
11.5388985408
 30
0.0
 10
17.1201755212
 20
11.5343809845
 30
0.0
  0
SPLINE
  5
337
100
AcDbEntity
  8
0
100
AcDbSpline
 62
7
  6
CONTINUOUS
 70
0
 71
3
 72
15
 73
11
 74
0
 42
0.0000001
 43
0.0000001
 44
0.0000000001
 40
0.0
 40
0.0
 40
0.0
 40
0.0
 40
0.1380799318
 40
0.2714583019
 40
0.400424799
 40
0.5254316948
 40
0.647119483
 40
0.7662256933
 40
0.8835644243
 40
1.0
 40
1.0
 40
1.0
 40
1.0
 10
16.761197755
 20
11.5500475227
 30
0.0
 10
16.760040198
 20
11.5524063759
 30
0.0
 10
16.7579322087
 20
11.5571288405
 30
0.0
 10
16.7553834991
 20
11.5643184577
 30
0.0
 10
16.7535169137
 20
11.5714591962
 30
0.0
 10
16.752343869
 20
11.5785214691
 30
0.0
 10
16.7518675834
 20
11.5854774277
 30
0.0
 10
16.7520927016
 20
11.5923010555
 30
0.0
 10
16.7530179587
 20
11.5989642317
 30
0.0
 10
16.7541011563
 20
11.6032894703
 30
0.0
 10
16.7547552854
 20
11.6054064041
 30
0.0
  0
SPLINE
  5
338
100
AcDbEntity
  8
0
100
AcDbSpline
 62
7
  6
CONTINUOUS
 70
0
 71
3
 72
15
 73
11
 74
0
 42
0.0000001
 43
0.0000001
 44
0.0000000001
 40
0.0
 40
0.0
 40
0.0
 40
0.0
 40
0.1230566036
 40
0.2460336836
 40
0.3692383951
 40
0.4930876136
 40
0.6178866552
 40
0.7438685155
 40
0.8712461939
 40
1.0
 40
1.0
 40
1.0
 40
1.0
 10
14.8478999923
 20
13.6585330319
 30
0.0
 10
14.8539131578
 20
13.6585330319
 30
0.0
 10
14.865953245
 20
13.6576785743
 30
0.0
 10
14.8836439132
 20
13.6538448589
 30
0.0
 10
14.9006496218
 20
13.6475217141
 30
0.0
 10
14.9166717719
 20
13.6388247222
 30
0.0
 10
14.931435224
 20
13.6279020883
 30
0.0
 10
14.9446908311
 20
13.6149452891
 30
0.0
 10
14.9562065323
 20
13.600180593
 30
0.0
 10
14.9625672358
 20
13.589353383
 30
0.0
 10
14.9654011033
 20
13.5837361848
 30
0.0
  0
SPLINE
  5
339
100
AcDbEntity
  8
0
100
AcDbSpline
 62
7
  6
CONTINUOUS
 70
0
 71
3
 72
40
 73
36
 74
0
 42
0.0000001
 43
0.0000001
 44
0.0000000001
 40
0.0
 40
0.0
 40
0.0
 40
0.0
 40
0.0214497891
 40
0.0431952705
 40
0.0655137236
 40
0.0886454223
 40
0.1005848117
 40
0.1127969381
 40
0.1380942683
 40
0.1646467216
 40
0.1925059423
 40
0.2216861306
 40
0.2521631512
 40
0.2838852816
 40
0.3167719078
 40
0.3507229492
 40
0.3856173804
 40
0.4213209756
 40
0.4576852755
 40
0.4945536147
 40
0.5317610533
 40
0.5691387098
 40
0.6065149976
 40
0.6437183371
 40
0.6805799442
 40
0.7169349657
 40
0.7526267794
 40
0.7875070502
 40
0.8214422126
 40
0.8543116381
 40
0.8860138992
 40
0.9164682137
 40
0.9456299071
 40
0.9734773408
 40
1.0
 40
1.0
 40
1.0
 40
1.0
 10
16.3311358472
 20
13.0880379026
 30
0.0
 10
16.3302608081
 20
13.0852060456
 30
0.0
 10
16.3280798937
 20
13.0796236417
 30
0.0
 10
16.3236027517
 20
13.0717226551
 30
0.0
 10
16.3179437836
 20
13.0643265243
 30
0.0
 10
16.3123413215
 20
13.0586835666
 30
0.0
 10
16.3073446541
 20
13.0544692857
 30
0.0
 10
16.3018772573
 20
13.0503654397
 30
0.0
 10
16.2943704897
 20
13.0456411019
 30
0.0
 10
16.2845023475
 20
13.0407138992
 30
0.0
 10
16.2737367069
 20
13.0364891119
 30
0.0
 10
16.2621460556
 20
13.032997171
 30
0.0
 10
16.2498091081
 20
13.0302570722
 30
0.0
 10
16.2368085945
 20
13.0282896355
 30
0.0
 10
16.2232325948
 20
13.0271046807
 30
0.0
 10
16.2091728422
 20
13.0267128343
 30
0.0
 10
16.1947245525
 20
13.027113793
 30
0.0
 10
16.1799859516
 20
13.0283074652
 30
0.0
 10
16.1650568417
 20
13.0302830615
 30
0.0
 10
16.1500391326
 20
13.033029708
 30
0.0
 10
16.1350344574
 20
13.0365262004
 30
0.0
 10
16.1201455273
 20
13.0407512188
 30
0.0
 10
16.1054729695
 20
13.0456735709
 30
0.0
 10
16.0911174301
 20
13.0512621612
 30
0.0
 10
16.0771757016
 20
13.0574765902
 30
0.0
 10
16.0637436257
 20
13.0642769678
 30
0.0
 10
16.0509114157
 20
13.0716146689
 30
0.0
 10
16.0387674375
 20
13.0794422381
 30
0.0
 10
16.0273927753
 20
13.0877044482
 30
0.0
 10
16.0168663247
 20
13.0963477448
 30
0.0
 10
16.0072576597
 20
13.1053110779
 30
0.0
 10
15.9986333143
 20
13.1145368151
 30
0.0
 10
15.9910497224
 20
13.1239632499
 30
0.0
 10
15.9845632794
 20
13.1335265614
 30
0.0
 10
15.9809100701
 20
13.140106646
 30
0.0
 10
15.9792955049
 20
13.143396784
 30
0.0
  0
SPLINE
  5
33A
100
AcDbEntity
  8
0
100
AcDbSpline
 62
7
  6
CONTINUOUS
 70
0
 71
3
 72
15
 73
11
 74
0
 42
0.0000001
 43
0.0000001
 44
0.0000000001
 40
0.0
 40
0.0
 40
0.0
 40
0.0
 40
0.1235880264
 40
0.2470911704
 40
0.3706966233
 40
0.4947486192
 40
0.6195122929
 40
0.7451985842
 40
0.8719731202
 40
1.0
 40
1.0
 40
1.0
 40
1.0
 10
14.8393071045
 20
13.3593456432
 30
0.0
 10
14.834035323
 20
13.3593456432
 30
0.0
 10
14.8234835611
 20
13.3600022873
 30
0.0
 10
14.8079079487
 20
13.362948081
 30
0.0
 10
14.7928003283
 20
13.3678206269
 30
0.0
 10
14.7783661632
 20
13.3745518341
 30
0.0
 10
14.7647932351
 20
13.3830514794
 30
0.0
 10
14.7522611121
 20
13.3932070533
 30
0.0
 10
14.7409347795
 20
13.404882228
 30
0.0
 10
14.7343153363
 20
13.4135392669
 30
0.0
 10
14.7312521488
 20
13.4180604144
 30
0.0
  0
SPLINE
  5
33B
100
AcDbEntity
  8
0
100
AcDbSpline
 62
7
  6
CONTINUOUS
 70
0
 71
3
 72
15
 73
11
 74
0
 42
0.0000001
 43
0.0000001
 44
0.0000000001
 40
0.0
 40
0.0
 40
0.0
 40
0.0
 40
0.1293381225
 40
0.2576045643
 40
0.3845405199
 40
0.5101087334
 40
0.6342967938
 40
0.7571898174
 40
0.8790269672
 40
1.0
 40
1.0
 40
1.0
 40
1.0
 10
14.9611046593
 20
13.4341424904
 30
0.0
 10
14.9579423667
 20
13.4285150334
 30
0.0
 10
14.9509512011
 20
13.4176794731
 30
0.0
 10
14.9385972931
 20
13.4029295081
 30
0.0
 10
14.9246117544
 20
13.3899853819
 30
0.0
 10
14.909238005
 20
13.3790712275
 30
0.0
 10
14.892733899
 20
13.370377295
 30
0.0
 10
14.8753804129
 20
13.3640515193
 30
0.0
 10
14.8574799262
 20
13.3602103035
 30
0.0
 10
14.8453447173
 20
13.3593456432
 30
0.0
 10
14.8393071045
 20
13.3593456432
 30
0.0
  0
SPLINE
  5
33C
100
AcDbEntity
  8
0
100
AcDbSpline
 62
7
  6
CONTINUOUS
 70
0
 71
3
 72
16
 73
12
 74
0
 42
0.0000001
 43
0.0000001
 44
0.0000000001
 40
0.0
 40
0.0
 40
0.0
 40
0.0
 40
0.1225957966
 40
0.2464241303
 40
0.371210796
 40
0.4339337195
 40
0.4968066533
 40
0.6227802787
 40
0.7488461761
 40
0.8747204294
 40
1.0
 40
1.0
 40
1.0
 40
1.0
 10
14.9654011033
 20
13.5837361848
 30
0.0
 10
14.968265533
 20
13.5780584071
 30
0.0
 10
14.9732904545
 20
13.5662600887
 30
0.0
 10
14.9785678549
 20
13.5476935011
 30
0.0
 10
14.9810405018
 20
13.5316887337
 30
0.0
 10
14.9818461565
 20
13.5187189334
 30
0.0
 10
14.9818662339
 20
13.5056623088
 30
0.0
 10
14.9804074484
 20
13.4893491421
 30
0.0
 10
14.976325549
 20
13.4701275358
 30
0.0
 10
14.9699777479
 20
13.4515702616
 30
0.0
 10
14.9642882735
 20
13.4398078902
 30
0.0
 10
14.9611046593
 20
13.4341424904
 30
0.0
  0
SPLINE
  5
33D
100
AcDbEntity
  8
0
100
AcDbSpline
 62
7
  6
CONTINUOUS
 70
0
 71
3
 72
11
 73
7
 74
0
 42
0.0000001
 43
0.0000001
 44
0.0000000001
 40
0.0
 40
0.0
 40
0.0
 40
0.0
 40
0.2539523411
 40
0.5049380374
 40
0.753444981
 40
1.0
 40
1.0
 40
1.0
 40
1.0
 10
14.7722725981
 20
13.6346135119
 30
0.0
 10
14.7778901604
 20
13.6384638334
 30
0.0
 10
14.7896266567
 20
13.6453301954
 30
0.0
 10
14.8084428964
 20
13.6528905036
 30
0.0
 10
14.8279895511
 20
13.6574953983
 30
0.0
 10
14.8412879401
 20
13.6585330319
 30
0.0
 10
14.8478999923
 20
13.6585330319
 30
0.0
  0
SPLINE
  5
33E
100
AcDbEntity
  8
0
100
AcDbSpline
 62
7
  6
CONTINUOUS
 70
0
 71
3
 72
9
 73
5
 74
0
 42
0.0000001
 43
0.0000001
 44
0.0000000001
 40
0.0
 40
0.0
 40
0.0
 40
0.0
 40
0.2560986545
 40
1.0
 40
1.0
 40
1.0
 40
1.0
 10
16.3135509025
 20
13.1631430362
 30
0.0
 10
16.3146788186
 20
13.161908708
 30
0.0
 10
16.3190198741
 20
13.1570318913
 30
0.0
 10
16.3231022668
 20
13.1519227598
 30
0.0
 10
16.3259566148
 20
13.1479931217
 30
0.0
  0
SPLINE
  5
33F
100
AcDbEntity
  8
0
100
AcDbSpline
 62
7
  6
CONTINUOUS
 70
0
 71
3
 72
9
 73
5
 74
0
 42
0.0000001
 43
0.0000001
 44
0.0000000001
 40
0.0
 40
0.0
 40
0.0
 40
0.0
 40
0.2576559381
 40
1.0
 40
1.0
 40
1.0
 40
1.0
 10
16.3279228104
 20
13.1452233465
 30
0.0
 10
16.3289180996
 20
13.14378808
 30
0.0
 10
16.3326847619
 20
13.1381520498
 30
0.0
 10
16.3360563764
 20
13.1322478021
 30
0.0
 10
16.3382732711
 20
13.1277302458
 30
0.0
  0
SPLINE
  5
340
100
AcDbEntity
  8
0
100
AcDbSpline
 62
7
  6
CONTINUOUS
 70
0
 71
3
 72
40
 73
36
 74
0
 42
0.0000001
 43
0.0000001
 44
0.0000000001
 40
0.0
 40
0.0
 40
0.0
 40
0.0
 40
0.0214497891
 40
0.0431952705
 40
0.0655137236
 40
0.0886454223
 40
0.1005848117
 40
0.1127969381
 40
0.1380942683
 40
0.1646467216
 40
0.1925059423
 40
0.2216861306
 40
0.2521631512
 40
0.2838852816
 40
0.3167719078
 40
0.3507229492
 40
0.3856173804
 40
0.4213209756
 40
0.4576852755
 40
0.4945536147
 40
0.5317610533
 40
0.5691387098
 40
0.6065149976
 40
0.6437183371
 40
0.6805799442
 40
0.7169349657
 40
0.7526267794
 40
0.7875070502
 40
0.8214422126
 40
0.8543116381
 40
0.8860138992
 40
0.9164682137
 40
0.9456299071
 40
0.9734773408
 40
1.0
 40
1.0
 40
1.0
 40
1.0
 10
13.9702151263
 20
13.0880379026
 30
0.0
 10
13.9693400871
 20
13.0852060456
 30
0.0
 10
13.9671591727
 20
13.0796236417
 30
0.0
 10
13.9626820307
 20
13.0717226551
 30
0.0
 10
13.9570230626
 20
13.0643265243
 30
0.0
 10
13.9514206006
 20
13.0586835666
 30
0.0
 10
13.9464239332
 20
13.0544692857
 30
0.0
 10
13.9409565363
 20
13.0503654397
 30
0.0
 10
13.9334497688
 20
13.0456411019
 30
0.0
 10
13.9235816265
 20
13.0407138992
 30
0.0
 10
13.912815986
 20
13.0364891119
 30
0.0
 10
13.9012253346
 20
13.032997171
 30
0.0
 10
13.8888883872
 20
13.0302570722
 30
0.0
 10
13.8758878735
 20
13.0282896355
 30
0.0
 10
13.8623118738
 20
13.0271046807
 30
0.0
 10
13.8482521213
 20
13.0267128343
 30
0.0
 10
13.8338038315
 20
13.027113793
 30
0.0
 10
13.8190652306
 20
13.0283074652
 30
0.0
 10
13.8041361207
 20
13.0302830615
 30
0.0
 10
13.7891184117
 20
13.033029708
 30
0.0
 10
13.7741137365
 20
13.0365262004
 30
0.0
 10
13.7592248064
 20
13.0407512188
 30
0.0
 10
13.7445522485
 20
13.0456735709
 30
0.0
 10
13.7301967092
 20
13.0512621612
 30
0.0
 10
13.7162549806
 20
13.0574765902
 30
0.0
 10
13.7028229047
 20
13.0642769678
 30
0.0
 10
13.6899906948
 20
13.0716146689
 30
0.0
 10
13.6778467166
 20
13.0794422381
 30
0.0
 10
13.6664720544
 20
13.0877044482
 30
0.0
 10
13.6559456037
 20
13.0963477448
 30
0.0
 10
13.6463369387
 20
13.1053110779
 30
0.0
 10
13.6377125934
 20
13.1145368151
 30
0.0
 10
13.6301290014
 20
13.1239632499
 30
0.0
 10
13.6236425584
 20
13.1335265614
 30
0.0
 10
13.6199893492
 20
13.140106646
 30
0.0
 10
13.6183747839
 20
13.143396784
 30
0.0
  0
SPLINE
  5
341
100
AcDbEntity
  8
0
100
AcDbSpline
 62
7
  6
CONTINUOUS
 70
0
 71
3
 72
9
 73
5
 74
0
 42
0.0000001
 43
0.0000001
 44
0.0000000001
 40
0.0
 40
0.0
 40
0.0
 40
0.0
 40
0.2560986545
 40
1.0
 40
1.0
 40
1.0
 40
1.0
 10
13.9526301815
 20
13.1631430362
 30
0.0
 10
13.9537580976
 20
13.161908708
 30
0.0
 10
13.9580991531
 20
13.1570318913
 30
0.0
 10
13.9621815458
 20
13.1519227598
 30
0.0
 10
13.9650358938
 20
13.1479931217
 30
0.0
  0
SPLINE
  5
342
100
AcDbEntity
  8
0
100
AcDbSpline
 62
7
  6
CONTINUOUS
 70
0
 71
3
 72
9
 73
5
 74
0
 42
0.0000001
 43
0.0000001
 44
0.0000000001
 40
0.0
 40
0.0
 40
0.0
 40
0.0
 40
0.2576559381
 40
1.0
 40
1.0
 40
1.0
 40
1.0
 10
13.9670020894
 20
13.1452233465
 30
0.0
 10
13.9679973786
 20
13.14378808
 30
0.0
 10
13.971764041
 20
13.1381520498
 30
0.0
 10
13.9751356555
 20
13.1322478021
 30
0.0
 10
13.9773525501
 20
13.1277302458
 30
0.0
  0
ELLIPSE
  5
343
100
AcDbEntity
  8
0
100
AcDbEllipse
 62
7
  6
CONTINUOUS
 10
6.1303672762
 20
6.8880252951
 30
0.0
 11
-0.0
 21
0.7794492777
 31
0.0
 40
0.5623100214
 41
-0.9551650181
 42
0.9551650181
  0
ELLIPSE
  5
344
100
AcDbEntity
  8
0
100
AcDbEllipse
 62
7
  6
CONTINUOUS
 10
15.0160211894
 20
13.4261489057
 30
0.0
 11
-0.3999687612
 21
0.42732226
 31
0.0
 40
0.570948261
 41
4.8372320564
 42
6.7475620926
  0
ENDSEC
  0
SECTION
  2
OBJECTS
  0
DICTIONARY
  5
C
100
AcDbDictionary
280
0
281
1
  3
ACAD_GROUP
350
D
  3
ACAD_MLINESTYLE
350
17
  3
ACAD_LAYOUT
350
1A
  3
ACAD_PLOTSETTINGS
350
19
  3
ACAD_PLOTSTYLENAME
350
E
  0
DICTIONARY
  5
D
102
{ACAD_REACTORS
330
C
102
}
100
AcDbDictionary
280
0
281
1
  0
ACDBDICTIONARYWDFLT
  5
E
102
{ACAD_REACTORS
330
C
102
}
100
AcDbDictionary
281
1
  3
Normal
350
F
100
AcDbDictionaryWithDefault
340
F
  0
DICTIONARY
  5
17
102
{ACAD_REACTORS
330
C
102
}
100
AcDbDictionary
280
0
281
1
  3
Standard
350
18
  0
DICTIONARY
  5
19
102
{ACAD_REACTORS
330
C
102
}
100
AcDbDictionary
281
1
  0
DICTIONARY
  5
1A
102
{ACAD_REACTORS
330
C
102
}
100
AcDbDictionary
281
1
  3
Model
350
345
  3
Layout1
350
346
  0
ACDBPLACEHOLDER
  5
F
102
{ACAD_REACTORS
330
E
102
}
  0
MLINESTYLE
  5
18
102
{ACAD_REACTORS
330
17
102
}
100
AcDbMlineStyle
  2
STANDARD
 70
0
  3

 62
256
 51
90.0
 52
90.0
 71
2
 49
0.5
 62
256
  6
BYLAYER
 49
-0.5
 62
256
  6
BYLAYER
  0
LAYOUT
  5
345
102
{ACAD_REACTORS
330
1A
102
}
100
AcDbPlotSettings
  1

  2
none_device
  4
ANSI_C_(22.00_x_17.00_Inches)
  6

 40
0.0
 41
0.0
 42
0.0
 43
0.0
 44
558.8
 45
431.8
 46
0.0
 47
0.0
 48
0.0
 49
0.0
140
0.0
141
0.0
142
1.0
143
1.0
 70
1024
 72
0
 73
0
 74
0
  7

 75
0
147
1.0
148
0.0
149
0.0
100
AcDbLayout
  1
Model
 70
0
 71
0
 10
0.0
 20
0.0
 11
22.0
 21
17.0
 12
0.0
 22
0.0
 32
0.0
 14
0.0
 24
0.0
 34
0.0
 15
0.0
 25
0.0
 35
0.0
146
0.0
 13
0.0
 23
0.0
 33
0.0
 16
1.0
 26
0.0
 36
0.0
 17
0.0
 27
1.0
 37
0.0
 76
0
330
219
345
0
346
0
  0
LAYOUT
  5
346
102
{ACAD_REACTORS
330
1A
102
}
100
AcDbPlotSettings
  1

  2
none_device
  4
ANSI_C_(22.00_x_17.00_Inches)
  6

 40
0.0
 41
0.0
 42
0.0
 43
0.0
 44
558.8
 45
431.8
 46
0.0
 47
0.0
 48
0.0
 49
0.0
140
0.0
141
0.0
142
1.0
143
1.0
 70
0
 72
0
 73
0
 74
0
  7

 75
0
147
1.0
148
0.0
149
0.0
100
AcDbLayout
  1
Layout1
 70
0
 71
1
 10
0.0
 20
0.0
 11
22.0
 21
17.0
 12
0.0
 22
0.0
 32
0.0
 14
0.0
 24
0.0
 34
0.0
 15
0.0
 25
0.0
 35
0.0
146
0.0
 13
0.0
 23
0.0
 33
0.0
 16
1.0
 26
0.0
 36
0.0
 17
0.0
 27
1.0
 37
0.0
 76
0
330
21A
345
0
346
0
  0
ENDSEC
  0
EOF