999
DXF file: _cgs_temp_output.dxf
999
Pro/ENGINEER 2016360 by Parametric Technology Corporation
  0
SECTION
  2
HEADER
  9
$ACADVER
  1
AC1021
  9
$DWGCODEPAGE
  3
ANSI_1252
  9
$EXTMAX
 10
22.0
 20
17.0
 30
0.0
  9
$EXTMIN
 10
0.0
 20
0.0
 30
0.0
  9
$LIMMIN
 10
0.0
 20
0.0
  9
$LIMMAX
 10
22.0
 20
17.0
  9
$VIEWCTR
 10
11.0
 20
8.5
  9
$VIEWSIZE
 40
17.0
  9
$CLAYER
  8
0
  9
$LTSCALE
 40
1.21
  9
$CELTYPE
  6
BYLAYER
  9
$DIMSCALE
 40
1.0
  9
$DIMASZ
 40
0.1875
  9
$DIMEXO
 40
0.0625
  9
$DIMDLI
 40
0.836
  9
$DIMEXE
 40
0.125
  9
$DIMCEN
 40
0.198
  9
$DIMLFAC
 40
1.0
  9
$DIMBLK
  1
_CLOSED
  9
$DIMALT
 70
0
  9
$DIMALTF
 40
25.4
  9
$DIMTXT
 40
0.15625
  9
$DIMTOL
 70
0
  9
$DIMLIM
 70
0
  9
$DIMTFAC
 40
1.0
  9
$DIMGAP
 40
0.09
  9
$DIMDSEP
 70
46
  9
$AUNITS
 70
0
  9
$PDMODE
 70
3
  9
$PDSIZE
 40
0.3125
  9
$HANDSEED
  5
3C7
  9
$TILEMODE
 70
1
  9
$MEASUREMENT
 70
0
  9
$INSUNITS
 70
1
  0
ENDSEC
  0
SECTION
  2
CLASSES
  0
CLASS
  1
ACDBDICTIONARYWDFLT
  2
AcDbDictionaryWithDefault
  3
AutoCAD 2000
 90
0
 91
1
280
0
281
0
  0
CLASS
  1
ACDBPLACEHOLDER
  2
AcDbPlaceHolder
  3
AutoCAD 2000
 90
0
 91
1
280
0
281
0
  0
CLASS
  1
LAYOUT
  2
AcDbLayout
  3
AutoCAD 2000
 90
0
 91
0
280
0
281
0
  0
ENDSEC
  0
SECTION
  2
TABLES
  0
TABLE
  2
VPORT
  5
8
100
AcDbSymbolTable
 70
2
  0
VPORT
  5
1F4
100
AcDbSymbolTableRecord
100
AcDbViewportTableRecord
  2
*ACTIVE
 70
0
 10
0.0
 20
0.0
 11
1.0
 21
1.0
 12
11.0
 22
8.5
 13
0.0
 23
0.0
 14
1.0
 24
1.0
 15
0.0
 25
0.0
 16
0.0
 26
0.0
 36
1.0
 17
0.0
 27
0.0
 37
0.0
 40
17.0
 41
1.2941176471
 42
50.0
 43
0.0
 44
0.0
 50
0.0
 51
0.0
 71
0
 72
100
 73
1
 74
1
 75
0
 76
0
 77
0
 78
0
  0
ENDTAB
  0
TABLE
  2
LTYPE
  5
5
100
AcDbSymbolTable
 70
6
  0
LTYPE
  5
14
100
AcDbSymbolTableRecord
100
AcDbLinetypeTableRecord
  2
BYBLOCK
 70
0
  3

 72
65
 73
0
 40
0.0
  0
LTYPE
  5
15
100
AcDbSymbolTableRecord
100
AcDbLinetypeTableRecord
  2
BYLAYER
 70
0
  3

 72
65
 73
0
 40
0.0
  0
LTYPE
  5
16
100
AcDbSymbolTableRecord
100
AcDbLinetypeTableRecord
  2
CONTINUOUS
 70
64
  3
Solid line
 72
65
 73
0
 40
0.0
  0
LTYPE
  5
1F5
100
AcDbSymbolTableRecord
100
AcDbLinetypeTableRecord
  2
CENTER
 70
64
  3
____ _ ____ _ ____ _ ____ _ ____ _ ____ _ ____
 72
65
 73
4
 40
0.6
 49
0.375
 74
0
 49
-0.075
 74
0
 49
0.075
 74
0
 49
-0.075
 74
0
  0
LTYPE
  5
1F6
100
AcDbSymbolTableRecord
100
AcDbLinetypeTableRecord
  2
HIDDEN
 70
64
  3
- - - - - - - - - - - - - - - - - - - -
 72
65
 73
2
 40
0.2
 49
0.1
 74
0
 49
-0.1
 74
0
  0
LTYPE
  5
1F7
100
AcDbSymbolTableRecord
100
AcDbLinetypeTableRecord
  2
PHANTOM
 70
64
  3
_____ _ _ _____ _ _ _____ _ _ _____
 72
65
 73
6
 40
0.8
 49
0.45
 74
0
 49
-0.05
 74
0
 49
0.1
 74
0
 49
-0.05
 74
0
 49
0.1
 74
0
 49
-0.05
 74
0
  0
LTYPE
  5
1F8
100
AcDbSymbolTableRecord
100
AcDbLinetypeTableRecord
  2
DOT
 70
64
  3
. . . . . . . . . . . . . . . . . . . .
 72
65
 73
2
 40
0.2
 49
0.1
 74
0
 49
-0.1
 74
0
  0
LTYPE
  5
1F9
100
AcDbSymbolTableRecord
100
AcDbLinetypeTableRecord
  2
DASHED
 70
64
  3
- - - - - - - - - - - - - - - - - - - -
 72
65
 73
2
 40
0.2
 49
0.1
 74
0
 49
-0.1
 74
0
  0
ENDTAB
  0
TABLE
  2
LAYER
  5
2
100
AcDbSymbolTable
 70
36
  0
LAYER
  5
10
100
AcDbSymbolTableRecord
100
AcDbLayerTableRecord
  2
0
 70
0
 62
7
  6
CONTINUOUS
370
-3
390
F
  0
LAYER
  5
1FA
100
AcDbSymbolTableRecord
100
AcDbLayerTableRecord
  2
DEFAULT_1
 70
0
 62
7
  6
CENTER
370
-3
390
F
  0
LAYER
  5
1FB
100
AcDbSymbolTableRecord
100
AcDbLayerTableRecord
  2
DEFAULT_2
 70
0
 62
8
  6
HIDDEN
370
-3
390
F
  0
LAYER
  5
1FC
100
AcDbSymbolTableRecord
100
AcDbLayerTableRecord
  2
DEFAULT_3
 70
0
 62
7
  6
PHANTOM
370
-3
390
F
  0
LAYER
  5
1FD
100
AcDbSymbolTableRecord
100
AcDbLayerTableRecord
  2
01_ALL_DTM_PLN
 70
0
 62
7
  6
CONTINUOUS
370
-3
390
F
  0
LAYER
  5
1FE
100
AcDbSymbolTableRecord
100
AcDbLayerTableRecord
  2
01__ASM_ALL_DTM_PLN
 70
0
 62
7
  6
CONTINUOUS
370
-3
390
F
  0
LAYER
  5
1FF
100
AcDbSymbolTableRecord
100
AcDbLayerTableRecord
  2
01__ASM_DEF_DTM_PLN
 70
0
 62
7
  6
CONTINUOUS
370
-3
390
F
  0
LAYER
  5
200
100
AcDbSymbolTableRecord
100
AcDbLayerTableRecord
  2
01___PRT_ALL_DTM_PLN
 70
0
 62
7
  6
CONTINUOUS
370
-3
390
F
  0
LAYER
  5
201
100
AcDbSymbolTableRecord
100
AcDbLayerTableRecord
  2
01___PRT_DEF_DTM_PLN
 70
0
 62
7
  6
CONTINUOUS
370
-3
390
F
  0
LAYER
  5
202
100
AcDbSymbolTableRecord
100
AcDbLayerTableRecord
  2
02_ALL_AXES
 70
0
 62
7
  6
CONTINUOUS
370
-3
390
F
  0
LAYER
  5
203
100
AcDbSymbolTableRecord
100
AcDbLayerTableRecord
  2
02__ASM_ALL_AXES
 70
0
 62
7
  6
CONTINUOUS
370
-3
390
F
  0
LAYER
  5
204
100
AcDbSymbolTableRecord
100
AcDbLayerTableRecord
  2
02___PRT_ALL_AXES
 70
0
 62
7
  6
CONTINUOUS
370
-3
390
F
  0
LAYER
  5
205
100
AcDbSymbolTableRecord
100
AcDbLayerTableRecord
  2
03_ALL_CURVES
 70
0
 62
7
  6
CONTINUOUS
370
-3
390
F
  0
LAYER
  5
206
100
AcDbSymbolTableRecord
100
AcDbLayerTableRecord
  2
03__ASM_ALL_CURVES
 70
0
 62
7
  6
CONTINUOUS
370
-3
390
F
  0
LAYER
  5
207
100
AcDbSymbolTableRecord
100
AcDbLayerTableRecord
  2
03___PRT_ALL_CURVES
 70
0
 62
7
  6
CONTINUOUS
370
-3
390
F
  0
LAYER
  5
208
100
AcDbSymbolTableRecord
100
AcDbLayerTableRecord
  2
04_ALL_DTM_PNT
 70
0
 62
7
  6
CONTINUOUS
370
-3
390
F
  0
LAYER
  5
209
100
AcDbSymbolTableRecord
100
AcDbLayerTableRecord
  2
04__ASM_ALL_DTM_PNT
 70
0
 62
7
  6
CONTINUOUS
370
-3
390
F
  0
LAYER
  5
20A
100
AcDbSymbolTableRecord
100
AcDbLayerTableRecord
  2
04___PRT_ALL_DTM_PNT
 70
0
 62
7
  6
CONTINUOUS
370
-3
390
F
  0
LAYER
  5
20B
100
AcDbSymbolTableRecord
100
AcDbLayerTableRecord
  2
05_ALL_DTM_CSYS
 70
0
 62
7
  6
CONTINUOUS
370
-3
390
F
  0
LAYER
  5
20C
100
AcDbSymbolTableRecord
100
AcDbLayerTableRecord
  2
05__ASM_ALL_DTM_CSYS
 70
0
 62
7
  6
CONTINUOUS
370
-3
390
F
  0
LAYER
  5
20D
100
AcDbSymbolTableRecord
100
AcDbLayerTableRecord
  2
05__ASM_DEF_DTM_CSYS
 70
0
 62
7
  6
CONTINUOUS
370
-3
390
F
  0
LAYER
  5
20E
100
AcDbSymbolTableRecord
100
AcDbLayerTableRecord
  2
05___PRT_ALL_DTM_CSYS
 70
0
 62
7
  6
CONTINUOUS
370
-3
390
F
  0
LAYER
  5
20F
100
AcDbSymbolTableRecord
100
AcDbLayerTableRecord
  2
05___PRT_DEF_DTM_CSYS
 70
0
 62
7
  6
CONTINUOUS
370
-3
390
F
  0
LAYER
  5
210
100
AcDbSymbolTableRecord
100
AcDbLayerTableRecord
  2
06_ALL_SURFS
 70
0
 62
7
  6
CONTINUOUS
370
-3
390
F
  0
LAYER
  5
211
100
AcDbSymbolTableRecord
100
AcDbLayerTableRecord
  2
06__ASM_ALL_SURFS
 70
0
 62
7
  6
CONTINUOUS
370
-3
390
F
  0
LAYER
  5
212
100
AcDbSymbolTableRecord
100
AcDbLayerTableRecord
  2
06___PRT_ALL_SURFS
 70
0
 62
7
  6
CONTINUOUS
370
-3
390
F
  0
LAYER
  5
213
100
AcDbSymbolTableRecord
100
AcDbLayerTableRecord
  2
07__ASM_ALL_SKELETONS
 70
0
 62
7
  6
CONTINUOUS
370
-3
390
F
  0
LAYER
  5
214
100
AcDbSymbolTableRecord
100
AcDbLayerTableRecord
  2
SHELL
 70
0
 62
7
  6
CONTINUOUS
370
-3
390
F
  0
ENDTAB
  0
TABLE
  2
STYLE
  5
3
100
AcDbSymbolTable
 70
1
  0
STYLE
  5
11
100
AcDbSymbolTableRecord
100
AcDbTextStyleTableRecord
  2
STANDARD
 70
0
 40
0.0
 41
0.8
 50
0.0
 71
0
 42
0.2
  3
txt
  4

  0
STYLE
  5
215
100
AcDbSymbolTableRecord
100
AcDbTextStyleTableRecord
  2
TEXTSTYLE_1
 70
0
 40
0.0
 41
0.8
 50
0.0
 71
0
 42
0.2
  3
gdt
  4

  0
ENDTAB
  0
TABLE
  2
VIEW
  5
6
100
AcDbSymbolTable
 70
0
  0
ENDTAB
  0
TABLE
  2
UCS
  5
7
100
AcDbSymbolTable
 70
0
  0
ENDTAB
  0
TABLE
  2
APPID
  5
9
100
AcDbSymbolTable
 70
1
  0
APPID
  5
216
100
AcDbSymbolTableRecord
100
AcDbRegAppTableRecord
  2
ACAD
 70
0
  0
ENDTAB
  0
TABLE
  2
BLOCK_RECORD
  5
1
100
AcDbSymbolTable
 70
0
  0
BLOCK_RECORD
  5
217
100
AcDbSymbolTableRecord
100
AcDbBlockTableRecord
  2
*Model_Space
  0
BLOCK_RECORD
  5
218
100
AcDbSymbolTableRecord
100
AcDbBlockTableRecord
  2
*Paper_Space
  0
ENDTAB
  0
TABLE
  2
DIMSTYLE
  5
A
100
AcDbSymbolTable
 70
1
100
AcDbDimStyleTable
 71
0
  0
DIMSTYLE
105
219
100
AcDbSymbolTableRecord
100
AcDbDimStyleTableRecord
  2
STANDARD
 70
0
  3

  4

 40
1.0
 41
0.1875
 42
0.0625
 43
0.38
 44
0.125
 45
0.0
 46
0.0
 47
0.0001
 48
0.0001
140
0.15625
141
0.09
142
0.0
143
25.4
144
1.0
145
0.0
146
1.0
147
0.09
 71
0.0
 72
0.0
 73
1
 74
1
 75
0
 76
0
 77
0
 78
4
 79
1
170
0
171
3
172
0
173
0
174
0
175
0
176
0
177
0
178
0
270
2
179
4
271
4
272
4
273
2
274
2
275
0
280
0
281
0
282
0
283
1
284
4
285
0
286
0
287
3
288
0
340
11
278
46
  0
ENDTAB
  0
ENDSEC
  0
SECTION
  2
BLOCKS
  0
BLOCK
  5
20
100
AcDbEntity
  8
0
100
AcDbBlockBegin
  2
*Model_Space
 70
0
 10
0.0
 20
0.0
 30
0.0
  3
*Model_Space
  1

  0
ENDBLK
  5
21
100
AcDbEntity
  8
0
100
AcDbBlockEnd
  0
BLOCK
  5
1C
100
AcDbEntity
  8
0
100
AcDbBlockBegin
  2
*Paper_Space
 70
0
 10
0.0
 20
0.0
 30
0.0
  3
*Paper_Space
  1

  0
ENDBLK
  5
1D
100
AcDbEntity
  8
0
100
AcDbBlockEnd
  0
ENDSEC
  0
SECTION
  2
ENTITIES
  0
MTEXT
  5
21A
100
AcDbEntity
  8
0
100
AcDbMText
 62
7
  6
CONTINUOUS
  7
STANDARD
 71
1
 72
1
 10
15.9560215477
 20
0.9479130325
 30
0.0
 11
1.0
 21
0.0
 31
0.0
 44
0.9
  1
SCALE: 1:1.000
 40
0.3
 41
3.36
  0
LINE
  5
21B
100
AcDbEntity
  8
0
100
AcDbLine
 62
7
  6
CONTINUOUS
 10
0.0
 20
0.0
 11
0.0
 21
17.0
  0
LINE
  5
21C
100
AcDbEntity
  8
0
100
AcDbLine
 62
7
  6
CONTINUOUS
 10
0.0
 20
0.0
 11
22.0
 21
0.0
  0
LINE
  5
21D
100
AcDbEntity
  8
0
100
AcDbLine
 62
7
  6
CONTINUOUS
 10
0.0
 20
17.0
 11
22.0
 21
17.0
  0
LINE
  5
21E
100
AcDbEntity
  8
0
100
AcDbLine
 62
7
  6
CONTINUOUS
 10
22.0
 20
0.0
 11
22.0
 21
17.0
  0
LINE
  5
21F
100
AcDbEntity
  8
0
100
AcDbLine
 62
7
  6
CONTINUOUS
 10
5.9571621954
 20
7.2863120126
 11
6.0277441587
 21
7.3550552824
  0
LINE
  5
220
100
AcDbEntity
  8
0
100
AcDbLine
 62
7
  6
CONTINUOUS
 10
6.2169698165
 20
7.2019655094
 11
6.3035723569
 21
7.2863120126
  0
LINE
  5
221
100
AcDbEntity
  8
0
100
AcDbLine
 62
7
  6
CONTINUOUS
 10
6.2169698165
 20
7.1358113893
 11
6.3035723569
 21
7.2201578925
  0
LINE
  5
222
100
AcDbEntity
  8
0
100
AcDbLine
 62
7
  6
CONTINUOUS
 10
5.0376016777
 20
5.1866988465
 11
5.0496849677
 21
5.2001198968
  0
LINE
  5
223
100
AcDbEntity
  8
0
100
AcDbLine
 62
7
  6
CONTINUOUS
 10
5.0496849677
 20
5.8401198968
 11
5.0376016777
 21
5.853540947
  0
LINE
  5
224
100
AcDbEntity
  8
0
100
AcDbLine
 62
7
  6
CONTINUOUS
 10
5.7703672762
 20
6.9848765674
 11
5.7703672762
 21
7.2948339504
  0
LINE
  5
225
100
AcDbEntity
  8
0
100
AcDbLine
 62
7
  6
CONTINUOUS
 10
7.1468332741
 20
7.0669159806
 11
6.9192124324
 21
6.8392951389
  0
LINE
  5
226
100
AcDbEntity
  8
0
100
AcDbLine
 62
7
  6
CONTINUOUS
 10
4.811192034
 20
4.7312747405
 11
4.5835711923
 21
4.5036538988
  0
LINE
  5
227
100
AcDbEntity
  8
0
100
AcDbLine
 62
7
  6
CONTINUOUS
 10
4.5835711923
 20
6.5365858947
 11
4.811192034
 21
6.308965053
  0
LINE
  5
228
100
AcDbEntity
  8
0
100
AcDbLine
 62
7
  6
CONTINUOUS
 10
6.9192124324
 20
4.2009446546
 11
7.1468332741
 21
3.9733238129
  0
LINE
  5
229
100
AcDbEntity
  8
0
100
AcDbLine
 62
7
  6
CONTINUOUS
 10
5.9571621954
 20
7.2863120126
 11
5.9571621954
 21
7.2201578925
  0
LINE
  5
22A
100
AcDbEntity
  8
0
100
AcDbLine
 62
7
  6
CONTINUOUS
 10
6.0437647358
 20
7.1358113893
 11
6.0437647358
 21
7.2019655094
  0
LINE
  5
22B
100
AcDbEntity
  8
0
100
AcDbLine
 62
7
  6
CONTINUOUS
 10
6.0522422762
 20
6.039274483
 11
6.0522422762
 21
6.0451198968
  0
LINE
  5
22C
100
AcDbEntity
  8
0
100
AcDbLine
 62
7
  6
CONTINUOUS
 10
6.6495218624
 20
5.4419948968
 11
6.6553672762
 21
5.4419948968
  0
LINE
  5
22D
100
AcDbEntity
  8
0
100
AcDbLine
 62
7
  6
CONTINUOUS
 10
6.2084922762
 20
6.039274483
 11
6.2084922762
 21
6.0451198968
  0
LINE
  5
22E
100
AcDbEntity
  8
0
100
AcDbLine
 62
7
  6
CONTINUOUS
 10
6.2169698165
 20
7.2019655094
 11
6.2169698165
 21
7.1358113893
  0
LINE
  5
22F
100
AcDbEntity
  8
0
100
AcDbLine
 62
7
  6
CONTINUOUS
 10
6.3035723569
 20
7.2863120126
 11
6.3035723569
 21
7.2201578925
  0
LINE
  5
230
100
AcDbEntity
  8
0
100
AcDbLine
 62
7
  6
CONTINUOUS
 10
6.6495218624
 20
5.5982448968
 11
6.6553672762
 21
5.5982448968
  0
LINE
  5
231
100
AcDbEntity
  8
0
100
AcDbLine
 62
7
  6
CONTINUOUS
 10
6.4903672762
 20
6.9848765674
 11
6.4903672762
 21
7.2948339504
  0
LINE
  5
232
100
AcDbEntity
  8
0
100
AcDbLine
 62
7
  6
CONTINUOUS
 10
5.1139012782
 20
3.9733238129
 11
5.3415221199
 21
4.2009446546
  0
LINE
  5
233
100
AcDbEntity
  8
0
100
AcDbLine
 62
7
  6
CONTINUOUS
 10
7.4495425183
 20
6.308965053
 11
7.67716336
 21
6.5365858947
  0
LINE
  5
234
100
AcDbEntity
  8
0
100
AcDbLine
 62
7
  6
CONTINUOUS
 10
7.67716336
 20
4.5036538988
 11
7.4495425183
 21
4.7312747405
  0
LINE
  5
235
100
AcDbEntity
  8
0
100
AcDbLine
 62
7
  6
CONTINUOUS
 10
5.3415221199
 20
6.8392951389
 11
5.1139012782
 21
7.0669159806
  0
LINE
  5
236
100
AcDbEntity
  8
0
100
AcDbLine
 62
7
  6
CONTINUOUS
 10
6.6553672762
 20
5.5982449012
 11
6.6553672762
 21
5.4419948923
  0
LINE
  5
237
100
AcDbEntity
  8
0
100
AcDbLine
 62
7
  6
CONTINUOUS
 10
7.2231328747
 20
5.853540947
 11
7.2110495847
 21
5.8401198968
  0
LINE
  5
238
100
AcDbEntity
  8
0
100
AcDbLine
 62
7
  6
CONTINUOUS
 10
6.0522422717
 20
6.0451198968
 11
6.2084922806
 21
6.0451198968
  0
LINE
  5
239
100
AcDbEntity
  8
0
100
AcDbLine
 62
7
  6
CONTINUOUS
 10
7.2110495847
 20
5.2001198968
 11
7.2231328747
 21
5.1866988465
  0
LINE
  5
23A
100
AcDbEntity
  8
0
100
AcDbLine
 62
7
  6
CONTINUOUS
 10
6.0437647358
 20
7.1358113893
 11
5.9571621954
 21
7.2201578925
  0
LINE
  5
23B
100
AcDbEntity
  8
0
100
AcDbLine
 62
7
  6
CONTINUOUS
 10
6.0437647358
 20
7.2019655094
 11
5.9571621954
 21
7.2863120126
  0
LINE
  5
23C
100
AcDbEntity
  8
0
100
AcDbLine
 62
7
  6
CONTINUOUS
 10
6.3035723569
 20
7.2863120126
 11
6.233117727
 21
7.3549312661
  0
LINE
  5
23D
100
AcDbEntity
  8
0
100
AcDbLine
 62
7
  6
CONTINUOUS
 10
6.0437647358
 20
7.1358113893
 11
6.2169698165
 21
7.1358113893
  0
LINE
  5
23E
100
AcDbEntity
  8
0
100
AcDbLine
 62
7
  6
CONTINUOUS
 10
6.0437647358
 20
7.2019655094
 11
6.2169698165
 21
7.2019655094
  0
LINE
  5
23F
100
AcDbEntity
  8
0
100
AcDbLine
 62
7
  6
CONTINUOUS
 10
3.8833720839
 20
12.4872352814
 11
3.8833720839
 21
12.7597352814
  0
LINE
  5
240
100
AcDbEntity
  8
0
100
AcDbLine
 62
7
  6
CONTINUOUS
 10
4.414241043
 20
12.4172352814
 11
4.414241043
 21
12.2047352814
  0
LINE
  5
241
100
AcDbEntity
  8
0
100
AcDbLine
 62
7
  6
CONTINUOUS
 10
4.5708720839
 20
13.2297352814
 11
4.5708720839
 21
12.8297352814
  0
LINE
  5
242
100
AcDbEntity
  8
0
100
AcDbLine
 62
7
  6
CONTINUOUS
 10
6.5858720839
 20
11.9203602814
 11
5.5558720839
 21
11.9203602814
  0
LINE
  5
243
100
AcDbEntity
  8
0
100
AcDbLine
 62
7
  6
CONTINUOUS
 10
5.5458720839
 20
11.9303602814
 11
5.5458720839
 21
12.1547352814
  0
LINE
  5
244
100
AcDbEntity
  8
03__ASM_ALL_CURVES
100
AcDbLine
 62
8
  6
PHANTOM
 10
7.8833720839
 20
12.1547352814
 11
7.6778548273
 21
12.1547352814
  0
LINE
  5
245
100
AcDbEntity
  8
03__ASM_ALL_CURVES
100
AcDbLine
 62
8
  6
PHANTOM
 10
7.1019084084
 20
12.1547352814
 11
6.1844277852
 21
12.1547352814
  0
LINE
  5
246
100
AcDbEntity
  8
03__ASM_ALL_CURVES
100
AcDbLine
 62
8
  6
PHANTOM
 10
5.9573637866
 20
12.1547352814
 11
5.0398357686
 21
12.1547352814
  0
LINE
  5
247
100
AcDbEntity
  8
03__ASM_ALL_CURVES
100
AcDbLine
 62
8
  6
PHANTOM
 10
4.4638893358
 20
12.1547352814
 11
4.2583720839
 21
12.1547352814
  0
LINE
  5
248
100
AcDbEntity
  8
0
100
AcDbLine
 62
7
  6
CONTINUOUS
 10
4.4642442334
 20
12.1547352814
 11
5.9573640921
 21
12.1547352814
  0
LINE
  5
249
100
AcDbEntity
  8
0
100
AcDbLine
 62
7
  6
CONTINUOUS
 10
6.1844275238
 20
12.1547352814
 11
7.6774999333
 21
12.1547352814
  0
LINE
  5
24A
100
AcDbEntity
  8
0
100
AcDbLine
 62
7
  6
CONTINUOUS
 10
6.0708720839
 20
11.9924422916
 11
6.0318095839
 21
12.0149950365
  0
LINE
  5
24B
100
AcDbEntity
  8
0
100
AcDbLine
 62
7
  6
CONTINUOUS
 10
6.1052149888
 20
12.0628253857
 11
6.1099345839
 21
12.0601005263
  0
LINE
  5
24C
100
AcDbEntity
  8
0
100
AcDbLine
 62
7
  6
CONTINUOUS
 10
5.7108720839
 20
12.1747352814
 11
5.7108720839
 21
12.4472352814
  0
LINE
  5
24D
100
AcDbEntity
  8
0
100
AcDbLine
 62
7
  6
CONTINUOUS
 10
5.9563808021
 20
12.1727706546
 11
5.8976670031
 21
12.2568651792
  0
LINE
  5
24E
100
AcDbEntity
  8
0
100
AcDbLine
 62
7
  6
CONTINUOUS
 10
5.8976670031
 20
12.2568651792
 11
5.8976670031
 21
12.301849981
  0
LINE
  5
24F
100
AcDbEntity
  8
0
100
AcDbLine
 62
7
  6
CONTINUOUS
 10
6.1574746242
 20
12.3809041546
 11
5.9842695435
 21
12.3809041546
  0
LINE
  5
250
100
AcDbEntity
  8
0
100
AcDbLine
 62
7
  6
CONTINUOUS
 10
5.9842695435
 20
12.4258889563
 11
6.1574746242
 21
12.4258889563
  0
LINE
  5
251
100
AcDbEntity
  8
0
100
AcDbLine
 62
7
  6
CONTINUOUS
 10
8.238368895
 20
12.4672352814
 11
7.7732462747
 21
12.4672352814
  0
LINE
  5
252
100
AcDbEntity
  8
0
100
AcDbLine
 62
7
  6
CONTINUOUS
 10
7.4125048074
 20
12.4672352814
 11
4.7292393621
 21
12.4672352814
  0
LINE
  5
253
100
AcDbEntity
  8
0
100
AcDbLine
 62
7
  6
CONTINUOUS
 10
4.3684978932
 20
12.4672352814
 11
3.9033720839
 21
12.4672352814
  0
LINE
  5
254
100
AcDbEntity
  8
0
100
AcDbLine
 62
7
  6
CONTINUOUS
 10
5.9842695435
 20
12.3809041546
 11
5.9842695435
 21
12.4258889563
  0
LINE
  5
255
100
AcDbEntity
  8
0
100
AcDbLine
 62
7
  6
CONTINUOUS
 10
6.0318095839
 20
12.0601005263
 11
6.0318095839
 21
12.0149950365
  0
LINE
  5
256
100
AcDbEntity
  8
0
100
AcDbLine
 62
7
  6
CONTINUOUS
 10
6.2440771646
 20
12.2568651792
 11
6.1574746242
 21
12.3809041546
  0
LINE
  5
257
100
AcDbEntity
  8
0
100
AcDbLine
 62
7
  6
CONTINUOUS
 10
6.1574746242
 20
12.4258889563
 11
6.2440771646
 21
12.301849981
  0
LINE
  5
258
100
AcDbEntity
  8
0
100
AcDbLine
 62
7
  6
CONTINUOUS
 10
6.1099345839
 20
12.0149950365
 11
6.1099345839
 21
12.0601005263
  0
LINE
  5
259
100
AcDbEntity
  8
0
100
AcDbLine
 62
7
  6
CONTINUOUS
 10
6.1574746242
 20
12.4258889563
 11
6.1574746242
 21
12.3809041546
  0
LINE
  5
25A
100
AcDbEntity
  8
0
100
AcDbLine
 62
7
  6
CONTINUOUS
 10
5.9842695435
 20
12.4258889563
 11
5.8976670031
 21
12.301849981
  0
LINE
  5
25B
100
AcDbEntity
  8
0
100
AcDbLine
 62
7
  6
CONTINUOUS
 10
5.8976670031
 20
12.2568651792
 11
5.9842695435
 21
12.3809041546
  0
LINE
  5
25C
100
AcDbEntity
  8
0
100
AcDbLine
 62
7
  6
CONTINUOUS
 10
6.2440771646
 20
12.2568651792
 11
6.2440771646
 21
12.301849981
  0
LINE
  5
25D
100
AcDbEntity
  8
0
100
AcDbLine
 62
7
  6
CONTINUOUS
 10
3.9033720839
 20
12.7797352814
 11
8.2383720839
 21
12.7797352814
  0
LINE
  5
25E
100
AcDbEntity
  8
0
100
AcDbLine
 62
7
  6
CONTINUOUS
 10
6.4308720839
 20
12.4472352814
 11
6.4308720839
 21
12.1747352814
  0
LINE
  5
25F
100
AcDbEntity
  8
0
100
AcDbLine
 62
7
  6
CONTINUOUS
 10
6.1854137538
 20
12.1728428246
 11
6.2440771646
 21
12.2568651792
  0
LINE
  5
260
100
AcDbEntity
  8
0
100
AcDbLine
 62
7
  6
CONTINUOUS
 10
6.0318095839
 20
12.0601005263
 11
6.0367205133
 21
12.0629358527
  0
LINE
  5
261
100
AcDbEntity
  8
0
100
AcDbLine
 62
7
  6
CONTINUOUS
 10
6.5958720839
 20
12.1547352814
 11
6.5958720839
 21
11.9303602814
  0
LINE
  5
262
100
AcDbEntity
  8
0
100
AcDbLine
 62
7
  6
CONTINUOUS
 10
6.1099345839
 20
12.0149950365
 11
6.0708720839
 21
11.9924422916
  0
LINE
  5
263
100
AcDbEntity
  8
0
100
AcDbLine
 62
7
  6
CONTINUOUS
 10
4.6208720839
 20
13.2797352814
 11
7.5208720839
 21
13.2797352814
  0
LINE
  5
264
100
AcDbEntity
  8
0
100
AcDbLine
 62
7
  6
CONTINUOUS
 10
7.5708720839
 20
12.8297352814
 11
7.5708720839
 21
13.2297352814
  0
LINE
  5
265
100
AcDbEntity
  8
0
100
AcDbLine
 62
7
  6
CONTINUOUS
 10
7.7275031248
 20
12.4172352814
 11
7.7275031248
 21
12.2047352814
  0
LINE
  5
266
100
AcDbEntity
  8
0
100
AcDbLine
 62
7
  6
CONTINUOUS
 10
8.2583720839
 20
12.7597352814
 11
8.2583720839
 21
12.4872352814
  0
LINE
  5
267
100
AcDbEntity
  8
0
100
AcDbLine
 62
7
  6
CONTINUOUS
 10
15.7200427569
 20
3.2731247044
 11
15.4475427569
 21
3.2731247044
  0
LINE
  5
268
100
AcDbEntity
  8
0
100
AcDbLine
 62
7
  6
CONTINUOUS
 10
15.0614578021
 20
7.4291335746
 11
15.0862655972
 21
7.4460028753
  0
LINE
  5
269
100
AcDbEntity
  8
0
100
AcDbLine
 62
7
  6
CONTINUOUS
 10
15.0931336795
 20
7.1424703171
 11
15.3412116301
 21
7.3111633235
  0
LINE
  5
26A
100
AcDbEntity
  8
0
100
AcDbLine
 62
7
  6
CONTINUOUS
 10
15.1983236994
 20
7.1172557453
 11
15.4272702322
 21
7.2729393876
  0
LINE
  5
26B
100
AcDbEntity
  8
0
100
AcDbLine
 62
7
  6
CONTINUOUS
 10
15.3775427569
 20
3.8039936635
 11
15.1650427569
 21
3.8039936635
  0
LINE
  5
26C
100
AcDbEntity
  8
0
100
AcDbLine
 62
7
  6
CONTINUOUS
 10
15.7900427569
 20
3.9606247044
 11
16.1900427569
 21
3.9606247044
  0
LINE
  5
26D
100
AcDbEntity
  8
0
100
AcDbLine
 62
7
  6
CONTINUOUS
 10
14.8806677569
 20
4.9456276954
 11
14.8806677569
 21
5.9756217135
  0
LINE
  5
26E
100
AcDbEntity
  8
03__ASM_ALL_CURVES
100
AcDbLine
 62
8
  6
PHANTOM
 10
15.1150427569
 20
3.8539775751
 11
15.1150427569
 21
3.6481329171
  0
LINE
  5
26F
100
AcDbEntity
  8
03__ASM_ALL_CURVES
100
AcDbLine
 62
8
  6
PHANTOM
 10
15.1150427569
 20
4.4296337125
 11
15.1150427569
 21
6.4916156943
  0
LINE
  5
270
100
AcDbEntity
  8
0
100
AcDbLine
 62
7
  6
CONTINUOUS
 10
15.1150427569
 20
3.8539968546
 11
15.1150427569
 21
7.0672525526
  0
LINE
  5
271
100
AcDbEntity
  8
03__ASM_ALL_CURVES
100
AcDbLine
 62
8
  6
PHANTOM
 10
15.1150427569
 20
7.0672685085
 11
15.1150427569
 21
7.2696021565
  0
LINE
  5
272
100
AcDbEntity
  8
0
100
AcDbLine
 62
7
  6
CONTINUOUS
 10
14.9527497672
 20
5.4606247044
 11
14.975302512
 21
5.4996872044
  0
LINE
  5
273
100
AcDbEntity
  8
0
100
AcDbLine
 62
7
  6
CONTINUOUS
 10
15.0429607467
 20
5.4606247044
 11
15.0204080018
 21
5.4215622044
  0
LINE
  5
274
100
AcDbEntity
  8
0
100
AcDbLine
 62
7
  6
CONTINUOUS
 10
15.1150427569
 20
4.9356247044
 11
14.8906677569
 21
4.9356247044
  0
LINE
  5
275
100
AcDbEntity
  8
0
100
AcDbLine
 62
7
  6
CONTINUOUS
 10
14.975302512
 20
5.4215622044
 11
14.9527497672
 21
5.4606247044
  0
LINE
  5
276
100
AcDbEntity
  8
0
100
AcDbLine
 62
7
  6
CONTINUOUS
 10
15.0204080018
 20
5.4996872044
 11
15.0429607467
 21
5.4606247044
  0
LINE
  5
277
100
AcDbEntity
  8
0
100
AcDbLine
 62
7
  6
CONTINUOUS
 10
15.4275427569
 20
3.2931278274
 11
15.4275427569
 21
3.7582505136
  0
LINE
  5
278
100
AcDbEntity
  8
0
100
AcDbLine
 62
7
  6
CONTINUOUS
 10
15.4275427569
 20
4.1189919809
 11
15.4275427569
 21
6.8022574262
  0
LINE
  5
279
100
AcDbEntity
  8
0
100
AcDbLine
 62
7
  6
CONTINUOUS
 10
15.4275427569
 20
7.1629988951
 11
15.4275427569
 21
7.6281215814
  0
LINE
  5
27A
100
AcDbEntity
  8
0
100
AcDbLine
 62
7
  6
CONTINUOUS
 10
14.975302512
 20
5.4215622044
 11
15.0204080018
 21
5.4215622044
  0
LINE
  5
27B
100
AcDbEntity
  8
0
100
AcDbLine
 62
7
  6
CONTINUOUS
 10
15.0204080018
 20
5.4996872044
 11
14.975302512
 21
5.4996872044
  0
LINE
  5
27C
100
AcDbEntity
  8
0
100
AcDbLine
 62
7
  6
CONTINUOUS
 10
15.7400427569
 20
7.6281210743
 11
15.7400427569
 21
3.2931283346
  0
LINE
  5
27D
100
AcDbEntity
  8
0
100
AcDbLine
 62
7
  6
CONTINUOUS
 10
14.8906677569
 20
5.9856247044
 11
15.1150427569
 21
5.9856247044
  0
LINE
  5
27E
100
AcDbEntity
  8
0
100
AcDbLine
 62
7
  6
CONTINUOUS
 10
15.0931336795
 20
7.1424703171
 11
15.1245727231
 21
7.0962364294
  0
LINE
  5
27F
100
AcDbEntity
  8
0
100
AcDbLine
 62
7
  6
CONTINUOUS
 10
16.2400427569
 20
6.9106245142
 11
16.2400427569
 21
4.0106248947
  0
LINE
  5
280
100
AcDbEntity
  8
0
100
AcDbLine
 62
7
  6
CONTINUOUS
 10
15.2171726548
 20
7.2268168203
 11
15.2621574565
 21
7.1606627002
  0
LINE
  5
281
100
AcDbEntity
  8
0
100
AcDbLine
 62
7
  6
CONTINUOUS
 10
15.3861964318
 20
7.2450092034
 11
15.3412116301
 21
7.3111633235
  0
LINE
  5
282
100
AcDbEntity
  8
0
100
AcDbLine
 62
7
  6
CONTINUOUS
 10
15.7900427569
 20
6.9606247044
 11
16.1900427569
 21
6.9606247044
  0
LINE
  5
283
100
AcDbEntity
  8
0
100
AcDbLine
 62
7
  6
CONTINUOUS
 10
15.3775427569
 20
7.1172557453
 11
15.1650427569
 21
7.1172557453
  0
LINE
  5
284
100
AcDbEntity
  8
0
100
AcDbLine
 62
7
  6
CONTINUOUS
 10
15.7200427569
 20
7.6481247044
 11
15.4475427569
 21
7.6481247044
  0
LINE
  5
285
100
AcDbEntity
  8
0
100
AcDbLine
 62
7
  6
CONTINUOUS
 10
13.4141109082
 20
13.2732792388
 11
13.3481478351
 21
13.0598226559
  0
LINE
  5
286
100
AcDbEntity
  8
0
100
AcDbLine
 62
7
  6
CONTINUOUS
 10
13.4979876717
 20
13.287548585
 11
13.4400528934
 21
13.1000715738
  0
LINE
  5
287
100
AcDbEntity
  8
0
100
AcDbLine
 62
7
  6
CONTINUOUS
 10
13.9395557239
 20
12.6450634152
 11
13.9366159292
 21
12.6355502361
  0
LINE
  5
288
100
AcDbEntity
  8
0
100
AcDbLine
 62
7
  6
CONTINUOUS
 10
13.9395638092
 20
12.6450361584
 11
13.9396104954
 21
12.644749629
  0
LINE
  5
289
100
AcDbEntity
  8
0
100
AcDbLine
 62
7
  6
CONTINUOUS
 10
14.3243619341
 20
12.6032416705
 11
14.28574268
 21
12.4782697183
  0
LINE
  5
28A
100
AcDbEntity
  8
0
100
AcDbLine
 62
7
  6
CONTINUOUS
 10
14.3310481387
 20
12.5994745706
 11
14.338264083
 21
12.6228253751
  0
LINE
  5
28B
100
AcDbEntity
  8
0
100
AcDbLine
 62
7
  6
CONTINUOUS
 10
14.3176028147
 20
12.5237634582
 11
14.3009661093
 21
12.4699270597
  0
LINE
  5
28C
100
AcDbEntity
  8
0
100
AcDbLine
 62
7
  6
CONTINUOUS
 10
14.7522415603
 20
13.4527092719
 11
14.7681337704
 21
13.4809902502
  0
LWPOLYLINE
  5
28D
100
AcDbEntity
  8
0
100
AcDbPolyline
 62
7
  6
CONTINUOUS
 90
4
 70
0
 10
13.9384765863
 20
12.6476227294
 10
13.9385721993
 20
12.6474967004
 10
13.9392054444
 20
12.6462442529
 10
13.9395638092
 20
12.6450361584
  0
LINE
  5
28E
100
AcDbEntity
  8
0
100
AcDbLine
 62
7
  6
CONTINUOUS
 10
14.5444948818
 20
13.1577491694
 11
14.5542378122
 21
13.4969787681
  0
LINE
  5
28F
100
AcDbEntity
  8
0
100
AcDbLine
 62
7
  6
CONTINUOUS
 10
14.2733942373
 20
11.6731792808
 11
14.2219551435
 21
11.5067223125
  0
LINE
  5
290
100
AcDbEntity
  8
0
100
AcDbLine
 62
7
  6
CONTINUOUS
 10
14.4961929039
 20
12.07209668
 11
14.5000603984
 21
12.0846118966
  0
LINE
  5
291
100
AcDbEntity
  8
0
100
AcDbLine
 62
7
  6
CONTINUOUS
 10
14.9190733264
 20
13.1818028614
 11
15.0031359923
 21
13.3313965558
  0
LINE
  5
292
100
AcDbEntity
  8
0
100
AcDbLine
 62
7
  6
CONTINUOUS
 10
14.9501424083
 20
13.1759186066
 11
15.0342050741
 21
13.3255123009
  0
LINE
  5
293
100
AcDbEntity
  8
0
100
AcDbLine
 62
7
  6
CONTINUOUS
 10
14.8923578847
 20
12.4260167398
 11
14.8017343048
 21
12.1327587281
  0
LINE
  5
294
100
AcDbEntity
  8
0
100
AcDbLine
 62
7
  6
CONTINUOUS
 10
16.77698214
 20
11.2085563967
 11
16.4978955748
 21
11.3500477809
  0
LINE
  5
295
100
AcDbEntity
  8
0
100
AcDbLine
 62
7
  6
CONTINUOUS
 10
13.9404304007
 20
12.646632184
 11
13.6341591689
 21
12.801905658
  0
LINE
  5
296
100
AcDbEntity
  8
0
100
AcDbLine
 62
7
  6
CONTINUOUS
 10
14.3009661093
 20
12.4699270597
 11
14.28574268
 21
12.4782697183
  0
LINE
  5
297
100
AcDbEntity
  8
0
100
AcDbLine
 62
7
  6
CONTINUOUS
 10
14.546532005
 20
13.1483641369
 11
14.5893579647
 21
13.0610940065
  0
LINE
  5
298
100
AcDbEntity
  8
0
100
AcDbLine
 62
7
  6
CONTINUOUS
 10
14.4891574391
 20
12.0637540214
 11
14.4961929039
 21
12.07209668
  0
LINE
  5
299
100
AcDbEntity
  8
0
100
AcDbLine
 62
7
  6
CONTINUOUS
 10
15.8302087119
 20
12.0551012437
 11
15.8025768821
 21
12.0551012437
  0
LINE
  5
29A
100
AcDbEntity
  8
0
100
AcDbLine
 62
7
  6
CONTINUOUS
 10
15.823752274
 20
12.0970490551
 11
15.804332982
 21
12.0970490551
  0
LINE
  5
29B
100
AcDbEntity
  8
0
100
AcDbLine
 62
7
  6
CONTINUOUS
 10
15.8192901918
 20
12.0197688998
 11
15.8019152339
 21
12.0263843672
  0
LINE
  5
29C
100
AcDbEntity
  8
0
100
AcDbLine
 62
7
  6
CONTINUOUS
 10
14.7291836729
 20
13.241975917
 11
14.7595408826
 21
13.1818028614
  0
LINE
  5
29D
100
AcDbEntity
  8
0
100
AcDbLine
 62
7
  6
CONTINUOUS
 10
15.1386100671
 20
12.4057281165
 11
15.1477613231
 21
12.3870798174
  0
LINE
  5
29E
100
AcDbEntity
  8
0
100
AcDbLine
 62
7
  6
CONTINUOUS
 10
15.1386100671
 20
12.4057281165
 11
15.127691547
 21
12.3703957725
  0
LINE
  5
29F
100
AcDbEntity
  8
0
100
AcDbLine
 62
7
  6
CONTINUOUS
 10
15.1403425872
 20
12.3630727792
 11
15.1477613231
 21
12.3870798174
  0
LINE
  5
2A0
100
AcDbEntity
  8
0
100
AcDbLine
 62
7
  6
CONTINUOUS
 10
15.1996494372
 20
12.3703957725
 11
15.2105679572
 21
12.4057281165
  0
LINE
  5
2A1
100
AcDbEntity
  8
0
100
AcDbLine
 62
7
  6
CONTINUOUS
 10
15.8063773161
 20
12.1036645225
 11
15.823752274
 21
12.0970490551
  0
LINE
  5
2A2
100
AcDbEntity
  8
0
100
AcDbLine
 62
7
  6
CONTINUOUS
 10
15.158211232
 20
12.3527296006
 11
15.127691547
 21
12.3703957725
  0
LINE
  5
2A3
100
AcDbEntity
  8
0
100
AcDbLine
 62
7
  6
CONTINUOUS
 10
15.2070681731
 20
12.3944028108
 11
15.1891995282
 21
12.4047459894
  0
LINE
  5
2A4
100
AcDbEntity
  8
0
100
AcDbLine
 62
7
  6
CONTINUOUS
 10
15.1800482722
 20
12.4233942884
 11
15.2105679572
 21
12.4057281165
  0
LINE
  5
2A5
100
AcDbEntity
  8
0
100
AcDbLine
 62
7
  6
CONTINUOUS
 10
15.1891995282
 20
12.4047459894
 11
15.1800482722
 21
12.4233942884
  0
LINE
  5
2A6
100
AcDbEntity
  8
0
100
AcDbLine
 62
7
  6
CONTINUOUS
 10
15.1386100671
 20
12.4057281165
 11
15.1800482722
 21
12.4233942884
  0
LINE
  5
2A7
100
AcDbEntity
  8
0
100
AcDbLine
 62
7
  6
CONTINUOUS
 10
15.1891995282
 20
12.4047459894
 11
15.1477613231
 21
12.3870798174
  0
LINE
  5
2A8
100
AcDbEntity
  8
0
100
AcDbLine
 62
7
  6
CONTINUOUS
 10
15.1996494372
 20
12.3703957725
 11
15.158211232
 21
12.3527296006
  0
LINE
  5
2A9
100
AcDbEntity
  8
0
100
AcDbLine
 62
7
  6
CONTINUOUS
 10
15.0031359923
 20
13.3313965558
 11
14.9276662143
 21
13.4809902502
  0
LINE
  5
2AA
100
AcDbEntity
  8
0
100
AcDbLine
 62
7
  6
CONTINUOUS
 10
14.9587352961
 20
13.4751059953
 11
15.0342050741
 21
13.3255123009
  0
LINE
  5
2AB
100
AcDbEntity
  8
0
100
AcDbLine
 62
7
  6
CONTINUOUS
 10
15.8019152339
 20
12.0263843672
 11
15.795458796
 21
12.0683321786
  0
LINE
  5
2AC
100
AcDbEntity
  8
0
100
AcDbLine
 62
7
  6
CONTINUOUS
 10
15.8025768821
 20
12.0551012437
 11
15.7988509114
 21
12.0793090681
  0
LINE
  5
2AD
100
AcDbEntity
  8
0
100
AcDbLine
 62
7
  6
CONTINUOUS
 10
15.823752274
 20
12.0970490551
 11
15.8302087119
 21
12.0551012437
  0
LINE
  5
2AE
100
AcDbEntity
  8
0
100
AcDbLine
 62
7
  6
CONTINUOUS
 10
15.8063773161
 20
12.1036645225
 11
15.795458796
 21
12.0683321786
  0
LINE
  5
2AF
100
AcDbEntity
  8
0
100
AcDbLine
 62
7
  6
CONTINUOUS
 10
15.7991847667
 20
12.0441243542
 11
15.8025768821
 21
12.0551012437
  0
LINE
  5
2B0
100
AcDbEntity
  8
0
100
AcDbLine
 62
7
  6
CONTINUOUS
 10
15.8192901918
 20
12.0197688998
 11
15.8302087119
 21
12.0551012437
  0
LINE
  5
2B1
100
AcDbEntity
  8
0
100
AcDbLine
 62
7
  6
CONTINUOUS
 10
15.8955497711
 20
12.1160069998
 11
15.8049261913
 21
11.822748988
  0
LINE
  5
2B2
100
AcDbEntity
  8
0
100
AcDbLine
 62
7
  6
CONTINUOUS
 10
16.4765414565
 20
12.8113065403
 11
16.3338573242
 21
12.6673274413
  0
LINE
  5
2B3
100
AcDbEntity
  8
0
100
AcDbLine
 62
7
  6
CONTINUOUS
 10
15.0372248424
 20
11.358927036
 11
14.8975229857
 21
11.217957279
  0
LINE
  5
2B4
100
AcDbEntity
  8
0
100
AcDbLine
 62
7
  6
CONTINUOUS
 10
14.7906099644
 20
13.1759186066
 11
14.7595408826
 21
13.1818028614
  0
LINE
  5
2B5
100
AcDbEntity
  8
0
100
AcDbLine
 62
7
  6
CONTINUOUS
 10
14.7906099644
 20
13.1759186066
 11
14.9501424083
 21
13.1759186066
  0
LINE
  5
2B6
100
AcDbEntity
  8
0
100
AcDbLine
 62
7
  6
CONTINUOUS
 10
14.7595408826
 20
13.1818028614
 11
14.9190733264
 21
13.1818028614
  0
LINE
  5
2B7
100
AcDbEntity
  8
0
100
AcDbLine
 62
7
  6
CONTINUOUS
 10
14.9190733264
 20
13.1818028614
 11
14.9501424083
 21
13.1759186066
  0
LINE
  5
2B8
100
AcDbEntity
  8
0
100
AcDbLine
 62
7
  6
CONTINUOUS
 10
15.0031359923
 20
13.3313965558
 11
15.0342050741
 21
13.3255123009
  0
LINE
  5
2B9
100
AcDbEntity
  8
0
100
AcDbLine
 62
7
  6
CONTINUOUS
 10
16.5689783413
 20
13.0450930135
 11
16.5175392476
 21
12.8786360452
  0
LWPOLYLINE
  5
2BA
100
AcDbEntity
  8
0
100
AcDbPolyline
 62
7
  6
CONTINUOUS
 90
3
 70
0
 10
15.0371985798
 20
11.3589530624
 10
15.0372485076
 20
11.3589855066
 10
15.0373157606
 20
11.3590187794
  0
LINE
  5
2BB
100
AcDbEntity
  8
0
100
AcDbLine
 62
7
  6
CONTINUOUS
 10
15.0371946534
 20
11.3589519754
 11
15.0372720232
 21
11.3589999425
  0
LINE
  5
2BC
100
AcDbEntity
  8
0
100
AcDbLine
 62
7
  6
CONTINUOUS
 10
14.9587352961
 20
13.4751059953
 11
14.9276662143
 21
13.4809902502
  0
LINE
  5
2BD
100
AcDbEntity
  8
0
100
AcDbLine
 62
7
  6
CONTINUOUS
 10
14.9276662143
 20
13.4809902502
 11
14.7681337704
 21
13.4809902502
  0
LINE
  5
2BE
100
AcDbEntity
  8
0
100
AcDbLine
 62
7
  6
CONTINUOUS
 10
16.8543175557
 20
11.9162650899
 11
16.8028784619
 21
11.7498081216
  0
LINE
  5
2BF
100
AcDbEntity
  8
0
100
AcDbLine
 62
7
  6
CONTINUOUS
 10
16.7994300652
 20
11.7390638806
 11
16.7993104745
 21
11.7387008403
  0
LINE
  5
2C0
100
AcDbEntity
  8
0
100
AcDbLine
 62
7
  6
CONTINUOUS
 10
17.3573762759
 20
11.4727637951
 11
17.2994414977
 21
11.2852867839
  0
LINE
  5
2C1
100
AcDbEntity
  8
0
100
AcDbLine
 62
7
  6
CONTINUOUS
 10
17.3868219926
 20
11.5083922361
 11
17.3868196991
 21
11.5083894416
  0
LINE
  5
2C2
100
AcDbEntity
  8
0
100
AcDbLine
 62
7
  6
CONTINUOUS
 10
17.5940771018
 20
11.9815719886
 11
17.5281140287
 21
11.7681154057
  0
LINE
  5
2C3
100
AcDbEntity
  8
0
100
AcDbLine
 62
7
  6
CONTINUOUS
 10
17.356263206
 20
11.4691618994
 11
17.3765553963
 21
11.4954998603
  0
LINE
  5
2C4
100
AcDbEntity
  8
0
100
AcDbLine
 62
7
  6
CONTINUOUS
 10
17.3765553963
 20
11.4954998603
 11
17.3868183812
 21
11.5083875714
  0
ARC
  5
2C5
100
AcDbEntity
  8
0
100
AcDbCircle
 62
7
  6
CONTINUOUS
 10
4.8487362353
 20
4.2384888559
 40
0.375
100
AcDbArc
 50
135.0
 51
315.0
  0
CIRCLE
  5
2C6
100
AcDbEntity
  8
0
100
AcDbCircle
 62
7
  6
CONTINUOUS
 10
4.8487362353
 20
4.2384888559
 40
0.2075
  0
CIRCLE
  5
2C7
100
AcDbEntity
  8
0
100
AcDbCircle
 62
7
  6
CONTINUOUS
 10
4.8487362353
 20
4.2384888559
 40
0.1875
  0
ARC
  5
2C8
100
AcDbEntity
  8
0
100
AcDbCircle
 62
7
  6
CONTINUOUS
 10
5.376877459
 20
4.1655893156
 40
0.05
100
AcDbArc
 50
60.9139606862
 51
135.0
  0
ARC
  5
2C9
100
AcDbEntity
  8
0
100
AcDbCircle
 62
7
  6
CONTINUOUS
 10
4.775836695
 20
4.7666300796
 40
0.05
100
AcDbArc
 50
315.0
 51
29.0860393138
  0
ARC
  5
2CA
100
AcDbEntity
  8
0
100
AcDbCircle
 62
7
  6
CONTINUOUS
 10
4.8487362353
 20
6.8017509377
 40
0.375
100
AcDbArc
 50
45.0
 51
225.0
  0
CIRCLE
  5
2CB
100
AcDbEntity
  8
0
100
AcDbCircle
 62
7
  6
CONTINUOUS
 10
4.8487362353
 20
6.8017509377
 40
0.2075
  0
CIRCLE
  5
2CC
100
AcDbEntity
  8
0
100
AcDbCircle
 62
7
  6
CONTINUOUS
 10
4.8487362353
 20
6.8017509377
 40
0.1875
  0
ARC
  5
2CD
100
AcDbEntity
  8
0
100
AcDbCircle
 62
7
  6
CONTINUOUS
 10
6.0936660465
 20
7.222612315
 40
0.1415084728
100
AcDbArc
 50
118.5609254404
 51
120.2812168115
  0
ARC
  5
2CE
100
AcDbEntity
  8
0
100
AcDbCircle
 62
7
  6
CONTINUOUS
 10
5.376877459
 20
6.8746504779
 40
0.05
100
AcDbArc
 50
225.0
 51
299.0860393138
  0
ARC
  5
2CF
100
AcDbEntity
  8
0
100
AcDbCircle
 62
7
  6
CONTINUOUS
 10
4.775836695
 20
6.2736097139
 40
0.05
100
AcDbArc
 50
330.9139606862
 51
45.0
  0
ARC
  5
2D0
100
AcDbEntity
  8
0
100
AcDbCircle
 62
7
  6
CONTINUOUS
 10
5.7503672762
 20
6.9918535683
 40
0.02
100
AcDbArc
 50
284.4775121859
 51
360.0
  0
CIRCLE
  5
2D1
100
AcDbEntity
  8
0
100
AcDbCircle
 62
7
  6
CONTINUOUS
 10
6.1303672762
 20
5.5201198968
 40
2.1875
  0
CIRCLE
  5
2D2
100
AcDbEntity
  8
03__ASM_ALL_CURVES
100
AcDbCircle
 62
8
  6
PHANTOM
 10
6.1303672762
 20
5.5201198968
 40
1.8125
  0
ARC
  5
2D3
100
AcDbEntity
  8
0
100
AcDbCircle
 62
7
  6
CONTINUOUS
 10
6.1303672762
 20
5.5201198968
 40
1.5
100
AcDbArc
 50
330.9139606862
 51
29.0860393138
  0
ARC
  5
2D4
100
AcDbEntity
  8
0
100
AcDbCircle
 62
7
  6
CONTINUOUS
 10
6.1303672762
 20
5.5201198968
 40
1.5
100
AcDbArc
 50
150.9139606862
 51
209.0860393138
  0
ARC
  5
2D5
100
AcDbEntity
  8
0
100
AcDbCircle
 62
7
  6
CONTINUOUS
 10
6.1303672762
 20
5.5201198968
 40
1.5
100
AcDbArc
 50
240.9139606862
 51
299.0860393138
  0
ARC
  5
2D6
100
AcDbEntity
  8
0
100
AcDbCircle
 62
7
  6
CONTINUOUS
 10
6.1303672762
 20
5.5201198968
 40
1.5
100
AcDbArc
 50
60.9139606862
 51
75.5224878141
  0
ARC
  5
2D7
100
AcDbEntity
  8
0
100
AcDbCircle
 62
7
  6
CONTINUOUS
 10
6.1303672762
 20
5.5201198968
 40
1.5
100
AcDbArc
 50
104.4775121859
 51
119.0860393138
  0
CIRCLE
  5
2D8
100
AcDbEntity
  8
0
100
AcDbCircle
 62
7
  6
CONTINUOUS
 10
6.1303672762
 20
5.5201198968
 40
1.1425
  0
ARC
  5
2D9
100
AcDbEntity
  8
0
100
AcDbCircle
 62
7
  6
CONTINUOUS
 10
6.1303672762
 20
5.5201198968
 40
1.12706444
100
AcDbArc
 50
343.5054925163
 51
16.4945074837
  0
ARC
  5
2DA
100
AcDbEntity
  8
0
100
AcDbCircle
 62
7
  6
CONTINUOUS
 10
6.1303672762
 20
5.5201198968
 40
1.12706444
100
AcDbArc
 50
163.5054925163
 51
196.4945074837
  0
CIRCLE
  5
2DB
100
AcDbEntity
  8
0
100
AcDbCircle
 62
7
  6
CONTINUOUS
 10
6.1303672762
 20
5.5201198968
 40
1.1125
  0
CIRCLE
  5
2DC
100
AcDbEntity
  8
0
100
AcDbCircle
 62
7
  6
CONTINUOUS
 10
6.1303672762
 20
5.5201198968
 40
0.525
  0
CIRCLE
  5
2DD
100
AcDbEntity
  8
0
100
AcDbCircle
 62
7
  6
CONTINUOUS
 10
6.1303672762
 20
5.5201198968
 40
0.4475
  0
CIRCLE
  5
2DE
100
AcDbEntity
  8
03__ASM_ALL_CURVES
100
AcDbCircle
 62
8
  6
HIDDEN
 10
6.1303672762
 20
5.5201198968
 40
0.4375
  0
CIRCLE
  5
2DF
100
AcDbEntity
  8
0
100
AcDbCircle
 62
7
  6
CONTINUOUS
 10
6.1303672762
 20
5.5201198968
 40
0.4375
  0
ARC
  5
2E0
100
AcDbEntity
  8
0
100
AcDbCircle
 62
7
  6
CONTINUOUS
 10
7.4119983171
 20
4.2384888559
 40
0.375
100
AcDbArc
 50
225.0
 51
45.0
  0
CIRCLE
  5
2E1
100
AcDbEntity
  8
0
100
AcDbCircle
 62
7
  6
CONTINUOUS
 10
7.4119983171
 20
4.2384888559
 40
0.2075
  0
CIRCLE
  5
2E2
100
AcDbEntity
  8
0
100
AcDbCircle
 62
7
  6
CONTINUOUS
 10
7.4119983171
 20
4.2384888559
 40
0.1875
  0
ARC
  5
2E3
100
AcDbEntity
  8
0
100
AcDbCircle
 62
7
  6
CONTINUOUS
 10
6.8838570934
 20
4.1655893156
 40
0.05
100
AcDbArc
 50
45.0
 51
119.0860393138
  0
ARC
  5
2E4
100
AcDbEntity
  8
0
100
AcDbCircle
 62
7
  6
CONTINUOUS
 10
7.4848978574
 20
4.7666300796
 40
0.05
100
AcDbArc
 50
150.9139606862
 51
225.0
  0
ARC
  5
2E5
100
AcDbEntity
  8
0
100
AcDbCircle
 62
7
  6
CONTINUOUS
 10
7.4119983171
 20
6.8017509377
 40
0.375
100
AcDbArc
 50
315.0
 51
135.0
  0
CIRCLE
  5
2E6
100
AcDbEntity
  8
0
100
AcDbCircle
 62
7
  6
CONTINUOUS
 10
7.4119983171
 20
6.8017509377
 40
0.2075
  0
CIRCLE
  5
2E7
100
AcDbEntity
  8
0
100
AcDbCircle
 62
7
  6
CONTINUOUS
 10
7.4119983171
 20
6.8017509377
 40
0.1875
  0
ARC
  5
2E8
100
AcDbEntity
  8
0
100
AcDbCircle
 62
7
  6
CONTINUOUS
 10
6.166505913
 20
7.2216125262
 40
0.1426555538
100
AcDbArc
 50
59.7621511362
 51
61.3488467717
  0
ARC
  5
2E9
100
AcDbEntity
  8
0
100
AcDbCircle
 62
7
  6
CONTINUOUS
 10
7.4848978574
 20
6.2736097139
 40
0.05
100
AcDbArc
 50
135.0
 51
209.0860393138
  0
ARC
  5
2EA
100
AcDbEntity
  8
0
100
AcDbCircle
 62
7
  6
CONTINUOUS
 10
6.8838570934
 20
6.8746504779
 40
0.05
100
AcDbArc
 50
240.9139606862
 51
315.0
  0
ARC
  5
2EB
100
AcDbEntity
  8
0
100
AcDbCircle
 62
7
  6
CONTINUOUS
 10
6.5103672762
 20
6.9918535683
 40
0.02
100
AcDbArc
 50
195.1044975628
 51
255.5224878141
  0
ARC
  5
2EC
100
AcDbEntity
  8
0
100
AcDbCircle
 62
7
  6
CONTINUOUS
 10
4.364241043
 20
12.4172352814
 40
0.05
100
AcDbArc
 50
0.0
 51
90.0
  0
ARC
  5
2ED
100
AcDbEntity
  8
0
100
AcDbCircle
 62
7
  6
CONTINUOUS
 10
4.464241043
 20
12.2047352814
 40
0.05
100
AcDbArc
 50
180.0
 51
270.0
  0
ARC
  5
2EE
100
AcDbEntity
  8
0
100
AcDbCircle
 62
7
  6
CONTINUOUS
 10
5.706065401
 20
12.4271568703
 40
0.0400682795
100
AcDbArc
 50
80.1383769685
 51
83.4392757419
  0
ARC
  5
2EF
100
AcDbEntity
  8
0
100
AcDbCircle
 62
7
  6
CONTINUOUS
 10
3.9033720839
 20
12.4872352814
 40
0.02
100
AcDbArc
 50
180.0
 51
270.0
  0
ARC
  5
2F0
100
AcDbEntity
  8
0
100
AcDbCircle
 62
7
  6
CONTINUOUS
 10
5.7308720839
 20
12.1747352814
 40
0.02
100
AcDbArc
 50
180.0
 51
270.0
  0
ARC
  5
2F1
100
AcDbEntity
  8
0
100
AcDbCircle
 62
7
  6
CONTINUOUS
 10
5.6908720839
 20
12.4472352814
 40
0.02
100
AcDbArc
 50
0.0
 51
90.0
  0
ARC
  5
2F2
100
AcDbEntity
  8
0
100
AcDbCircle
 62
7
  6
CONTINUOUS
 10
5.5558720839
 20
11.9303602814
 40
0.01
100
AcDbArc
 50
180.0
 51
270.0
  0
ARC
  5
2F3
100
AcDbEntity
  8
0
100
AcDbCircle
 62
7
  6
CONTINUOUS
 10
4.6208720839
 20
13.2297352814
 40
0.05
100
AcDbArc
 50
90.0
 51
180.0
  0
ARC
  5
2F4
100
AcDbEntity
  8
0
100
AcDbCircle
 62
7
  6
CONTINUOUS
 10
4.5208720839
 20
12.8297352814
 40
0.05
100
AcDbArc
 50
270.0
 51
360.0
  0
ARC
  5
2F5
100
AcDbEntity
  8
0
100
AcDbCircle
 62
7
  6
CONTINUOUS
 10
3.9033720839
 20
12.7597352814
 40
0.02
100
AcDbArc
 50
90.0
 51
180.0
  0
ARC
  5
2F6
100
AcDbEntity
  8
0
100
AcDbCircle
 62
7
  6
CONTINUOUS
 10
6.0708720839
 20
12.0375477814
 40
0.078125
100
AcDbArc
 50
148.3780040184
 51
31.6197611413
  0
ARC
  5
2F7
100
AcDbEntity
  8
0
100
AcDbCircle
 62
7
  6
CONTINUOUS
 10
7.6775031248
 20
12.2047352814
 40
0.05
100
AcDbArc
 50
270.0
 51
360.0
  0
ARC
  5
2F8
100
AcDbEntity
  8
0
100
AcDbCircle
 62
7
  6
CONTINUOUS
 10
7.7775031248
 20
12.4172352814
 40
0.05
100
AcDbArc
 50
90.0
 51
180.0
  0
ARC
  5
2F9
100
AcDbEntity
  8
0
100
AcDbCircle
 62
7
  6
CONTINUOUS
 10
6.4358076101
 20
12.4260107044
 40
0.0412216612
100
AcDbArc
 50
96.5566065039
 51
99.765568258
  0
ARC
  5
2FA
100
AcDbEntity
  8
0
100
AcDbCircle
 62
7
  6
CONTINUOUS
 10
8.2383720839
 20
12.4872352814
 40
0.02
100
AcDbArc
 50
270.0
 51
360.0
  0
ARC
  5
2FB
100
AcDbEntity
  8
0
100
AcDbCircle
 62
7
  6
CONTINUOUS
 10
6.4108720839
 20
12.1747352814
 40
0.02
100
AcDbArc
 50
270.0
 51
360.0
  0
ARC
  5
2FC
100
AcDbEntity
  8
0
100
AcDbCircle
 62
7
  6
CONTINUOUS
 10
6.4508720839
 20
12.4472352814
 40
0.02
100
AcDbArc
 50
90.0
 51
180.0
  0
ARC
  5
2FD
100
AcDbEntity
  8
0
100
AcDbCircle
 62
7
  6
CONTINUOUS
 10
6.5858720839
 20
11.9303602814
 40
0.01
100
AcDbArc
 50
270.0
 51
360.0
  0
ARC
  5
2FE
100
AcDbEntity
  8
0
100
AcDbCircle
 62
7
  6
CONTINUOUS
 10
7.5208720839
 20
13.2297352814
 40
0.05
100
AcDbArc
 50
0.0
 51
90.0
  0
ARC
  5
2FF
100
AcDbEntity
  8
0
100
AcDbCircle
 62
7
  6
CONTINUOUS
 10
7.6208720839
 20
12.8297352814
 40
0.05
100
AcDbArc
 50
180.0
 51
270.0
  0
ARC
  5
300
100
AcDbEntity
  8
0
100
AcDbCircle
 62
7
  6
CONTINUOUS
 10
8.2383720839
 20
12.7597352814
 40
0.02
100
AcDbArc
 50
0.0
 51
90.0
  0
ARC
  5
301
100
AcDbEntity
  8
0
100
AcDbCircle
 62
7
  6
CONTINUOUS
 10
15.1176888043
 20
7.3464409244
 40
0.1
100
AcDbArc
 50
124.2157021324
 51
234.6180882445
  0
ARC
  5
302
100
AcDbEntity
  8
0
100
AcDbCircle
 62
7
  6
CONTINUOUS
 10
15.1424965994
 20
7.363310225
 40
0.1
100
AcDbArc
 50
13.8133160204
 51
124.2157021324
  0
ARC
  5
303
100
AcDbEntity
  8
0
100
AcDbCircle
 62
7
  6
CONTINUOUS
 10
15.3367123627
 20
7.4110620552
 40
0.1
100
AcDbArc
 50
193.8133160204
 51
272.5787609159
  0
ARC
  5
304
100
AcDbEntity
  8
0
100
AcDbCircle
 62
7
  6
CONTINUOUS
 10
15.0018840427
 20
7.1833787976
 40
0.1
100
AcDbArc
 50
335.852643349
 51
54.6180882445
  0
CIRCLE
  5
305
100
AcDbEntity
  8
0
100
AcDbCircle
 62
7
  6
CONTINUOUS
 10
14.9978552569
 20
5.4606247044
 40
0.078125
  0
ARC
  5
306
100
AcDbEntity
  8
0
100
AcDbCircle
 62
7
  6
CONTINUOUS
 10
15.1650427569
 20
7.0672557453
 40
0.05
100
AcDbArc
 50
90.0
 51
180.0
  0
ARC
  5
307
100
AcDbEntity
  8
0
100
AcDbCircle
 62
7
  6
CONTINUOUS
 10
15.3775427569
 20
7.1672557453
 40
0.05
100
AcDbArc
 50
270.0
 51
360.0
  0
ARC
  5
308
100
AcDbEntity
  8
0
100
AcDbCircle
 62
7
  6
CONTINUOUS
 10
15.3775427569
 20
3.7539936635
 40
0.05
100
AcDbArc
 50
0.0
 51
90.0
  0
ARC
  5
309
100
AcDbEntity
  8
0
100
AcDbCircle
 62
7
  6
CONTINUOUS
 10
15.1650427569
 20
3.8539936635
 40
0.05
100
AcDbArc
 50
180.0
 51
270.0
  0
ARC
  5
30A
100
AcDbEntity
  8
0
100
AcDbCircle
 62
7
  6
CONTINUOUS
 10
15.7900427569
 20
7.0106247044
 40
0.05
100
AcDbArc
 50
180.0
 51
270.0
  0
ARC
  5
30B
100
AcDbEntity
  8
0
100
AcDbCircle
 62
7
  6
CONTINUOUS
 10
15.7900427569
 20
3.9106247044
 40
0.05
100
AcDbArc
 50
90.0
 51
180.0
  0
ARC
  5
30C
100
AcDbEntity
  8
0
100
AcDbCircle
 62
7
  6
CONTINUOUS
 10
16.1900427569
 20
4.0106247044
 40
0.05
100
AcDbArc
 50
270.0
 51
360.0
  0
ARC
  5
30D
100
AcDbEntity
  8
0
100
AcDbCircle
 62
7
  6
CONTINUOUS
 10
16.1900427569
 20
6.9106247044
 40
0.05
100
AcDbArc
 50
0.0
 51
90.0
  0
ARC
  5
30E
100
AcDbEntity
  8
0
100
AcDbCircle
 62
7
  6
CONTINUOUS
 10
15.4475427569
 20
7.6281247044
 40
0.02
100
AcDbArc
 50
90.0
 51
180.0
  0
ARC
  5
30F
100
AcDbEntity
  8
0
100
AcDbCircle
 62
7
  6
CONTINUOUS
 10
15.4475427569
 20
3.2931247044
 40
0.02
100
AcDbArc
 50
180.0
 51
270.0
  0
ARC
  5
310
100
AcDbEntity
  8
0
100
AcDbCircle
 62
7
  6
CONTINUOUS
 10
15.7200427569
 20
7.6281247044
 40
0.02
100
AcDbArc
 50
0.0
 51
90.0
  0
ARC
  5
311
100
AcDbEntity
  8
0
100
AcDbCircle
 62
7
  6
CONTINUOUS
 10
15.7200427569
 20
3.2931247044
 40
0.02
100
AcDbArc
 50
270.0
 51
360.0
  0
ARC
  5
312
100
AcDbEntity
  8
0
100
AcDbCircle
 62
7
  6
CONTINUOUS
 10
14.8906677569
 20
5.9756247044
 40
0.01
100
AcDbArc
 50
90.0
 51
180.0
  0
ARC
  5
313
100
AcDbEntity
  8
0
100
AcDbCircle
 62
7
  6
CONTINUOUS
 10
14.8906677569
 20
4.9456247044
 40
0.01
100
AcDbArc
 50
180.0
 51
270.0
  0
ARC
  5
314
100
AcDbEntity
  8
0
100
AcDbCircle
 62
7
  6
CONTINUOUS
 10
15.1199661906
 20
11.3844188738
 40
2.5665406313
100
AcDbArc
 50
66.3900877967
 51
79.1688163269
  0
ARC
  5
315
100
AcDbEntity
  8
0
100
AcDbCircle
 62
7
  6
CONTINUOUS
 10
16.3778781185
 20
12.0765222782
 40
1.2705039985
100
AcDbArc
 50
25.7572816748
 51
26.1386597317
  0
ARC
  5
316
100
AcDbEntity
  8
0
100
AcDbCircle
 62
7
  6
CONTINUOUS
 10
16.3008976546
 20
11.9049325083
 40
0.5254029941
100
AcDbArc
 50
341.5970041542
 51
342.8275676463
  0
ARC
  5
317
100
AcDbEntity
  8
0
100
AcDbCircle
 62
7
  6
CONTINUOUS
 10
15.1436606149
 20
11.8274132144
 40
0.4191533277
100
AcDbArc
 50
102.4569094207
 51
103.2342150104
  0
ARC
  5
318
100
AcDbEntity
  8
0
100
AcDbCircle
 62
7
  6
CONTINUOUS
 10
15.352346739
 20
11.765358205
 40
0.4164512224
100
AcDbArc
 50
42.4224472333
 51
42.6719311306
  0
ARC
  5
319
100
AcDbEntity
  8
0
100
AcDbCircle
 62
7
  6
CONTINUOUS
 10
14.6802985361
 20
12.4915305966
 40
0.3655509892
100
AcDbArc
 50
157.8735916362
 51
162.825017127
  0
ARC
  5
31A
100
AcDbEntity
  8
0
100
AcDbCircle
 62
7
  6
CONTINUOUS
 10
16.1078883524
 20
12.0503791856
 40
0.3652505586
100
AcDbArc
 50
342.8291616869
 51
346.9561137674
  0
ARC
  5
31B
100
AcDbEntity
  8
0
100
AcDbCircle
 62
7
  6
CONTINUOUS
 10
15.0997855642
 20
12.1106524382
 40
0.3116547837
100
AcDbArc
 50
206.1398985421
 51
207.2570174424
  0
ARC
  5
31C
100
AcDbEntity
  8
0
100
AcDbCircle
 62
7
  6
CONTINUOUS
 10
15.472697945
 20
11.8518742941
 40
0.267806956
100
AcDbArc
 50
26.1542176732
 51
28.271681707
  0
ARC
  5
31D
100
AcDbEntity
  8
0
100
AcDbCircle
 62
7
  6
CONTINUOUS
 10
15.4843935669
 20
11.8688349335
 40
0.2471908706
100
AcDbArc
 50
23.8138811141
 51
26.1438808699
  0
ARC
  5
31E
100
AcDbEntity
  8
0
100
AcDbCircle
 62
7
  6
CONTINUOUS
 10
16.2000057641
 20
12.8789581514
 40
0.1556741383
100
AcDbArc
 50
34.7449198149
 51
35.9950986311
  0
ARC
  5
31F
100
AcDbEntity
  8
0
100
AcDbCircle
 62
7
  6
CONTINUOUS
 10
14.6209872933
 20
11.2856088901
 40
0.1556741383
100
AcDbArc
 50
34.7449198148
 51
35.9950986312
  0
ARC
  5
320
100
AcDbEntity
  8
0
100
AcDbCircle
 62
7
  6
CONTINUOUS
 10
16.9819080142
 20
11.2856088901
 40
0.1556741383
100
AcDbArc
 50
34.7449198149
 51
35.9950986312
  0
ARC
  5
321
100
AcDbEntity
  8
0
100
AcDbCircle
 62
7
  6
CONTINUOUS
 10
13.8390850432
 20
12.8789581514
 40
0.1556741383
100
AcDbArc
 50
34.7449198148
 51
35.9950986312
  0
ARC
  5
322
100
AcDbEntity
  8
0
100
AcDbCircle
 62
7
  6
CONTINUOUS
 10
14.610195889
 20
11.3002488946
 40
0.1538352364
100
AcDbArc
 50
36.4828750667
 51
39.8440503456
  0
ARC
  5
323
100
AcDbEntity
  8
0
100
AcDbCircle
 62
7
  6
CONTINUOUS
 10
16.97111661
 20
11.3002488946
 40
0.1538352364
100
AcDbArc
 50
36.4828750667
 51
39.8440503456
  0
ARC
  5
324
100
AcDbEntity
  8
0
100
AcDbCircle
 62
7
  6
CONTINUOUS
 10
16.1892143599
 20
12.8935981559
 40
0.1538352364
100
AcDbArc
 50
36.4828750667
 51
39.8440503457
  0
ARC
  5
325
100
AcDbEntity
  8
0
100
AcDbCircle
 62
7
  6
CONTINUOUS
 10
13.8282936389
 20
12.8935981559
 40
0.1538352364
100
AcDbArc
 50
36.4828750667
 51
39.8440503456
  0
ARC
  5
326
100
AcDbEntity
  8
0
100
AcDbCircle
 62
7
  6
CONTINUOUS
 10
14.500313172
 20
11.3374514606
 40
0.1500450686
100
AcDbArc
 50
106.450242068
 51
109.162341337
  0
ARC
  5
327
100
AcDbEntity
  8
0
100
AcDbCircle
 62
7
  6
CONTINUOUS
 10
16.8612338929
 20
11.3374514606
 40
0.1500450686
100
AcDbArc
 50
106.4502420679
 51
109.162341337
  0
ARC
  5
328
100
AcDbEntity
  8
0
100
AcDbCircle
 62
7
  6
CONTINUOUS
 10
16.0793316428
 20
12.930800722
 40
0.1500450686
100
AcDbArc
 50
106.4502420679
 51
109.162341337
  0
ARC
  5
329
100
AcDbEntity
  8
0
100
AcDbCircle
 62
7
  6
CONTINUOUS
 10
13.7184109219
 20
12.930800722
 40
0.1500450686
100
AcDbArc
 50
106.4502420679
 51
109.162341337
  0
ARC
  5
32A
100
AcDbEntity
  8
0
100
AcDbCircle
 62
7
  6
CONTINUOUS
 10
14.5644981278
 20
13.1571773501
 40
0.0200114175
100
AcDbArc
 50
178.3625701029
 51
206.1229997396
  0
SPLINE
  5
32B
100
AcDbEntity
  8
0
100
AcDbSpline
 62
7
  6
CONTINUOUS
 70
0
 71
3
 72
25
 73
21
 74
0
 42
0.0000001
 43
0.0000001
 44
0.0000000001
 40
0.0
 40
0.0
 40
0.0
 40
0.0
 40
0.0626404419
 40
0.1252379537
 40
0.187729777
 40
0.2501603931
 40
0.3125660494
 40
0.3749748108
 40
0.4374011079
 40
0.4998497468
 40
0.5623217723
 40
0.624815356
 40
0.6560850253
 40
0.6873576215
 40
0.7186327893
 40
0.7499100894
 40
0.8124354737
 40
0.8749600667
 40
0.9374922771
 40
1.0
 40
1.0
 40
1.0
 40
1.0
 10
6.1303672762
 20
7.5228054174
 30
0.0
 10
6.1257435498
 20
7.5228054174
 30
0.0
 10
6.1164912483
 20
7.5222984809
 30
0.0
 10
6.1027953232
 20
7.5200190957
 30
0.0
 10
6.0894544429
 20
7.5162174182
 30
0.0
 10
6.0766537644
 20
7.5109052161
 30
0.0
 10
6.0645807838
 20
7.5041075537
 30
0.0
 10
6.0534297125
 20
7.4958821973
 30
0.0
 10
6.0433923146
 20
7.4863228849
 30
0.0
 10
6.0346506944
 20
7.4755579586
 30
0.0
 10
6.0273683229
 20
7.4637513176
 30
0.0
 10
6.0226303614
 20
7.4531977244
 30
0.0
 10
6.0196941809
 20
7.4444420691
 30
0.0
 10
6.0179287157
 20
7.4377405012
 30
0.0
 10
6.0166082109
 20
7.430936682
 30
0.0
 10
6.0154505139
 20
7.4217714984
 30
0.0
 10
6.0151440859
 20
7.4101998298
 30
0.0
 10
6.016611639
 20
7.396391461
 30
0.0
 10
6.019884655
 20
7.3828993803
 30
0.0
 10
6.0232304815
 20
7.3742638972
 30
0.0
 10
6.0251755964
 20
7.3700800142
 30
0.0
  0
SPLINE
  5
32C
100
AcDbEntity
  8
0
100
AcDbSpline
 62
7
  6
CONTINUOUS
 70
0
 71
3
 72
26
 73
22
 74
0
 42
0.0000001
 43
0.0000001
 44
0.0000000001
 40
0.0
 40
0.0
 40
0.0
 40
0.0
 40
0.0624904568
 40
0.1250032114
 40
0.1875098273
 40
0.2500224633
 40
0.2812961302
 40
0.3125696805
 40
0.3438423425
 40
0.3751134312
 40
0.437615261
 40
0.5000994543
 40
0.5313505494
 40
0.5625948055
 40
0.6250354338
 40
0.687450615
 40
0.7498612749
 40
0.8122936671
 40
0.8747812706
 40
0.9373724844
 40
1.0
 40
1.0
 40
1.0
 40
1.0
 10
6.2355589559
 20
7.3700800142
 30
0.0
 10
6.2375035956
 20
7.3742628749
 30
0.0
 10
6.2408486918
 20
7.3828960207
 30
0.0
 10
6.2441215899
 20
7.3963844065
 30
0.0
 10
6.2455898156
 20
7.4101893844
 30
0.0
 10
6.2452849515
 20
7.4217589065
 30
0.0
 10
6.2441284274
 20
7.4309231998
 30
0.0
 10
6.2428087458
 20
7.4377270099
 30
0.0
 10
6.2410443504
 20
7.4444290653
 30
0.0
 10
6.2381086352
 20
7.4531860353
 30
0.0
 10
6.2333721542
 20
7.4637417104
 30
0.0
 10
6.2272989648
 20
7.4735864316
 30
0.0
 10
6.2217158809
 20
7.4809377654
 30
0.0
 10
6.2156727171
 20
7.4879114433
 30
0.0
 10
6.2073057485
 20
7.4958827851
 30
0.0
 10
6.1961524007
 20
7.50410765
 30
0.0
 10
6.1840782591
 20
7.5109064718
 30
0.0
 10
6.1712768829
 20
7.516218594
 30
0.0
 10
6.157936084
 20
7.5200198476
 30
0.0
 10
6.1442413608
 20
7.5222985392
 30
0.0
 10
6.1349901958
 20
7.5228054174
 30
0.0
 10
6.1303672762
 20
7.5228054174
 30
0.0
  0
SPLINE
  5
32D
100
AcDbEntity
  8
0
100
AcDbSpline
 62
7
  6
CONTINUOUS
 70
0
 71
3
 72
40
 73
36
 74
0
 42
0.0000001
 43
0.0000001
 44
0.0000000001
 40
0.0
 40
0.0
 40
0.0
 40
0.0
 40
0.014618686
 40
0.0239216784
 40
0.0265976993
 40
0.0274443933
 40
0.0279662763
 40
0.0281675487
 40
0.0282828209
 40
0.028710358
 40
0.0294461345
 40
0.0318264688
 40
0.0353926507
 40
0.0401146255
 40
0.0459635256
 40
0.0529117312
 40
0.0609329333
 40
0.080087995
 40
0.1031428008
 40
0.1297557977
 40
0.1595963517
 40
0.1923488737
 40
0.2277155606
 40
0.2654059403
 40
0.3051155762
 40
0.346541693
 40
0.4333533203
 40
0.4781967754
 40
0.5236213304
 40
0.6148635408
 40
0.7043098882
 40
0.7891037911
 40
0.8671727587
 40
0.9377399118
 40
1.0
 40
1.0
 40
1.0
 40
1.0
 10
6.0244008353
 20
7.3415899
 30
0.0
 10
6.0242953614
 20
7.3414808455
 30
0.0
 10
6.0241263054
 20
7.3413016281
 30
0.0
 10
6.0239401492
 20
7.3410911436
 30
0.0
 10
6.023857576
 20
7.3409932923
 30
0.0
 10
6.0238284385
 20
7.3409576861
 30
0.0
 10
6.0238213531
 20
7.3409491197
 30
0.0
 10
6.0238116721
 20
7.3409369811
 30
0.0
 10
6.0238182317
 20
7.3409459173
 30
0.0
 10
6.0238246718
 20
7.340954386
 30
0.0
 10
6.0238478602
 20
7.3409858103
 30
0.0
 10
6.0238873478
 20
7.341040468
 30
0.0
 10
6.0239513042
 20
7.3411320787
 30
0.0
 10
6.0240330042
 20
7.34125346
 30
0.0
 10
6.0241319434
 20
7.341406191
 30
0.0
 10
6.02424604
 20
7.3415896178
 30
0.0
 10
6.0244274308
 20
7.3418938384
 30
0.0
 10
6.0246804076
 20
7.3423497994
 30
0.0
 10
6.0250039828
 20
7.3429867253
 30
0.0
 10
6.0253518103
 20
7.3437351744
 30
0.0
 10
6.025711944
 20
7.3445882743
 30
0.0
 10
6.026072651
 20
7.34553904
 30
0.0
 10
6.0264217411
 20
7.3465805039
 30
0.0
 10
6.0267486402
 20
7.3477045472
 30
0.0
 10
6.0270476942
 20
7.3489012621
 30
0.0
 10
6.0274060457
 20
7.3506073228
 30
0.0
 10
6.0276736843
 20
7.3523858043
 30
0.0
 10
6.027836056
 20
7.3542168384
 30
0.0
 10
6.0279221682
 20
7.3560991132
 30
0.0
 10
6.0278918039
 20
7.3584479554
 30
0.0
 10
6.0276575679
 20
7.3611955244
 30
0.0
 10
6.0272410813
 20
7.3637835039
 30
0.0
 10
6.0266620174
 20
7.3661385784
 30
0.0
 10
6.0259770974
 20
7.3682194327
 30
0.0
 10
6.0254479957
 20
7.3694940917
 30
0.0
 10
6.0251755964
 20
7.3700800142
 30
0.0
  0
SPLINE
  5
32E
100
AcDbEntity
  8
0
100
AcDbSpline
 62
7
  6
CONTINUOUS
 70
0
 71
3
 72
20
 73
16
 74
0
 42
0.0000001
 43
0.0000001
 44
0.0000000001
 40
0.0
 40
0.0
 40
0.0
 40
0.0
 40
0.1078639994
 40
0.2357030064
 40
0.3797141108
 40
0.4552271165
 40
0.5311522039
 40
0.6060839662
 40
0.6787138427
 40
0.74791127
 40
0.8125035086
 40
0.871242311
 40
0.9228492163
 40
0.9661621853
 40
1.0
 40
1.0
 40
1.0
 40
1.0
 10
6.2355589559
 20
7.3700800142
 30
0.0
 10
6.2351159795
 20
7.3691271853
 30
0.0
 10
6.2342870307
 20
7.3669791606
 30
0.0
 10
6.2333634124
 20
7.3633882715
 30
0.0
 10
6.2329415393
 20
7.360021366
 30
0.0
 10
6.232820668
 20
7.3571447863
 30
0.0
 10
6.232852974
 20
7.3549385095
 30
0.0
 10
6.2330149082
 20
7.3527659189
 30
0.0
 10
6.2333141438
 20
7.3506740713
 30
0.0
 10
6.2337226389
 20
7.3487039175
 30
0.0
 10
6.2342104324
 20
7.3468918745
 30
0.0
 10
6.2347469948
 20
7.3452733044
 30
0.0
 10
6.2353056982
 20
7.343883522
 30
0.0
 10
6.2358430191
 20
7.3427494209
 30
0.0
 10
6.2362007727
 20
7.3420879986
 30
0.0
 10
6.2363662015
 20
7.3418028812
 30
0.0
  0
SPLINE
  5
32F
100
AcDbEntity
  8
0
100
AcDbSpline
 62
7
  6
CONTINUOUS
 70
0
 71
3
 72
23
 73
19
 74
0
 42
0.0000001
 43
0.0000001
 44
0.0000000001
 40
0.0
 40
0.0
 40
0.0
 40
0.0
 40
0.0699352566
 40
0.1372297989
 40
0.2020245142
 40
0.2645584378
 40
0.3251842092
 40
0.3843162866
 40
0.4424210425
 40
0.5
 40
0.5575789575
 40
0.6156837134
 40
0.6748157908
 40
0.7354415622
 40
0.7979754858
 40
0.8627702011
 40
0.9300647434
 40
1.0
 40
1.0
 40
1.0
 40
1.0
 10
6.2602710867
 20
7.3284852642
 30
0.0
 10
6.2618738466
 20
7.3269242571
 30
0.0
 10
6.2649066378
 20
7.3237427418
 30
0.0
 10
6.2689750397
 20
7.3187113697
 30
0.0
 10
6.2724528348
 20
7.3135363194
 30
0.0
 10
6.275320505
 20
7.3082402558
 30
0.0
 10
6.2775666067
 20
7.3028468337
 30
0.0
 10
6.2791788831
 20
7.2973779149
 30
0.0
 10
6.280149965
 20
7.2918579555
 30
0.0
 10
6.2804752163
 20
7.2863120126
 30
0.0
 10
6.280149965
 20
7.2807660698
 30
0.0
 10
6.2791788831
 20
7.2752461104
 30
0.0
 10
6.2775666067
 20
7.2697771916
 30
0.0
 10
6.275320505
 20
7.2643837695
 30
0.0
 10
6.2724528348
 20
7.2590877059
 30
0.0
 10
6.2689750397
 20
7.2539126556
 30
0.0
 10
6.2649066378
 20
7.2488812835
 30
0.0
 10
6.2618738466
 20
7.2456997682
 30
0.0
 10
6.2602710867
 20
7.244138761
 30
0.0
  0
SPLINE
  5
330
100
AcDbEntity
  8
0
100
AcDbSpline
 62
7
  6
CONTINUOUS
 70
0
 71
3
 72
15
 73
11
 74
0
 42
0.0000001
 43
0.0000001
 44
0.0000000001
 40
0.0
 40
0.0
 40
0.0
 40
0.0
 40
0.1020270188
 40
0.2121151594
 40
0.3299077287
 40
0.4547287515
 40
0.5855231709
 40
0.7209822874
 40
0.8596983678
 40
1.0
 40
1.0
 40
1.0
 40
1.0
 10
6.2602710867
 20
7.244138761
 30
0.0
 10
6.2568694052
 20
7.2408256949
 30
0.0
 10
6.2492517311
 20
7.234486069
 30
0.0
 10
6.236262705
 20
7.2262363212
 30
0.0
 10
6.2214890068
 20
7.2190118589
 30
0.0
 10
6.205182885
 20
7.2129299268
 30
0.0
 10
6.1876142609
 20
7.2080914568
 30
0.0
 10
6.1690774497
 20
7.2045747117
 30
0.0
 10
6.1498880156
 20
7.2024419831
 30
0.0
 10
6.1368970787
 20
7.2019655094
 30
0.0
 10
6.1303672762
 20
7.2019655094
 30
0.0
  0
SPLINE
  5
331
100
AcDbEntity
  8
0
100
AcDbSpline
 62
7
  6
CONTINUOUS
 70
0
 71
3
 72
15
 73
11
 74
0
 42
0.0000001
 43
0.0000001
 44
0.0000000001
 40
0.0
 40
0.0
 40
0.0
 40
0.0
 40
0.1403016322
 40
0.2790177126
 40
0.4144768291
 40
0.5452712485
 40
0.6700922713
 40
0.7878848406
 40
0.8979729812
 40
1.0
 40
1.0
 40
1.0
 40
1.0
 10
6.1303672762
 20
7.2019655094
 30
0.0
 10
6.1238374737
 20
7.2019655094
 30
0.0
 10
6.1108465368
 20
7.2024419831
 30
0.0
 10
6.0916571026
 20
7.2045747117
 30
0.0
 10
6.0731202914
 20
7.2080914568
 30
0.0
 10
6.0555516673
 20
7.2129299268
 30
0.0
 10
6.0392455455
 20
7.2190118589
 30
0.0
 10
6.0244718473
 20
7.2262363212
 30
0.0
 10
6.0114828212
 20
7.234486069
 30
0.0
 10
6.0038651472
 20
7.2408256949
 30
0.0
 10
6.0004634656
 20
7.244138761
 30
0.0
  0
SPLINE
  5
332
100
AcDbEntity
  8
0
100
AcDbSpline
 62
7
  6
CONTINUOUS
 70
0
 71
3
 72
9
 73
5
 74
0
 42
0.0000001
 43
0.0000001
 44
0.0000000001
 40
0.0
 40
0.0
 40
0.0
 40
0.0
 40
0.517810618
 40
1.0
 40
1.0
 40
1.0
 40
1.0
 10
6.2383459325
 20
7.344858697
 30
0.0
 10
6.2424335943
 20
7.3424750288
 30
0.0
 10
6.250099824
 20
7.3374636152
 30
0.0
 10
6.2571144606
 20
7.3315596587
 30
0.0
 10
6.2602710867
 20
7.3284852642
 30
0.0
  0
SPLINE
  5
333
100
AcDbEntity
  8
0
100
AcDbSpline
 62
7
  6
CONTINUOUS
 70
0
 71
3
 72
9
 73
5
 74
0
 42
0.0000001
 43
0.0000001
 44
0.0000000001
 40
0.0
 40
0.0
 40
0.0
 40
0.0
 40
0.4822384731
 40
1.0
 40
1.0
 40
1.0
 40
1.0
 10
6.0004634656
 20
7.3284852642
 30
0.0
 10
6.0036101035
 20
7.3315499308
 30
0.0
 10
6.0106003724
 20
7.3374360724
 30
0.0
 10
6.0182387842
 20
7.342435201
 30
0.0
 10
6.0223111702
 20
7.3448134996
 30
0.0
  0
SPLINE
  5
334
100
AcDbEntity
  8
0
100
AcDbSpline
 62
7
  6
CONTINUOUS
 70
0
 71
3
 72
9
 73
5
 74
0
 42
0.0000001
 43
0.0000001
 44
0.0000000001
 40
0.0
 40
0.0
 40
0.0
 40
0.0
 40
0.4740453533
 40
1.0
 40
1.0
 40
1.0
 40
1.0
 10
6.4703672762
 20
7.326667313
 30
0.0
 10
6.4732827328
 20
7.3283032769
 30
0.0
 10
6.4798953839
 20
7.330955572
 30
0.0
 10
6.4868980295
 20
7.332145483
 30
0.0
 10
6.4905959162
 20
7.3324345799
 30
0.0
  0
SPLINE
  5
335
100
AcDbEntity
  8
0
100
AcDbSpline
 62
7
  6
CONTINUOUS
 70
0
 71
3
 72
23
 73
19
 74
0
 42
0.0000001
 43
0.0000001
 44
0.0000000001
 40
0.0
 40
0.0
 40
0.0
 40
0.0
 40
0.0699352566
 40
0.1372297989
 40
0.2020245142
 40
0.2645584378
 40
0.3251842092
 40
0.3843162866
 40
0.4424210425
 40
0.5
 40
0.5575789575
 40
0.6156837134
 40
0.6748157908
 40
0.7354415622
 40
0.7979754858
 40
0.8627702011
 40
0.9300647434
 40
1.0
 40
1.0
 40
1.0
 40
1.0
 10
6.0004634656
 20
7.244138761
 30
0.0
 10
5.9988607058
 20
7.2456997682
 30
0.0
 10
5.9958279146
 20
7.2488812835
 30
0.0
 10
5.9917595126
 20
7.2539126556
 30
0.0
 10
5.9882817175
 20
7.2590877059
 30
0.0
 10
5.9854140473
 20
7.2643837695
 30
0.0
 10
5.9831679457
 20
7.2697771916
 30
0.0
 10
5.9815556692
 20
7.2752461104
 30
0.0
 10
5.9805845873
 20
7.2807660698
 30
0.0
 10
5.980259336
 20
7.2863120126
 30
0.0
 10
5.9805845873
 20
7.2918579555
 30
0.0
 10
5.9815556692
 20
7.2973779149
 30
0.0
 10
5.9831679457
 20
7.3028468337
 30
0.0
 10
5.9854140473
 20
7.3082402558
 30
0.0
 10
5.9882817175
 20
7.3135363194
 30
0.0
 10
5.9917595126
 20
7.3187113697
 30
0.0
 10
5.9958279146
 20
7.3237427418
 30
0.0
 10
5.9988607058
 20
7.3269242571
 30
0.0
 10
6.0004634656
 20
7.3284852642
 30
0.0
  0
SPLINE
  5
336
100
AcDbEntity
  8
0
100
AcDbSpline
 62
7
  6
CONTINUOUS
 70
0
 71
3
 72
11
 73
7
 74
0
 42
0.0000001
 43
0.0000001
 44
0.0000000001
 40
0.0
 40
0.0
 40
0.0
 40
0.0
 40
0.2293727581
 40
0.4745193668
 40
0.7326312331
 40
1.0
 40
1.0
 40
1.0
 40
1.0
 10
5.7903672762
 20
7.326667313
 30
0.0
 10
5.788954934
 20
7.3274601953
 30
0.0
 10
5.785919523
 20
7.3289022521
 30
0.0
 10
5.7810201054
 20
7.3305916422
 30
0.0
 10
5.7757091372
 20
7.3318199867
 30
0.0
 10
5.7720208835
 20
7.3322874138
 30
0.0
 10
5.7701386416
 20
7.3324345791
 30
0.0
  0
LINE
  5
337
100
AcDbEntity
  8
0
100
AcDbLine
 62
7
  6
CONTINUOUS
 10
6.4905959162
 20
7.3324345799
 11
6.4881929437
 21
7.3381370211
  0
SPLINE
  5
338
100
AcDbEntity
  8
0
100
AcDbSpline
 62
7
  6
CONTINUOUS
 70
0
 71
3
 72
15
 73
11
 74
0
 42
0.0000001
 43
0.0000001
 44
0.0000000001
 40
0.0
 40
0.0
 40
0.0
 40
0.0
 40
0.1079928795
 40
0.2214898078
 40
0.3402762217
 40
0.464081813
 40
0.5924943131
 40
0.7250109826
 40
0.8610587209
 40
1.0
 40
1.0
 40
1.0
 40
1.0
 10
6.4905959162
 20
7.3324345799
 30
0.0
 10
6.483105743
 20
7.3385114339
 30
0.0
 10
6.4671518648
 20
7.350258278
 30
0.0
 10
6.4412527878
 20
7.3662157395
 30
0.0
 10
6.4129766851
 20
7.3808344807
 30
0.0
 10
6.3825441487
 20
7.39400365
 30
0.0
 10
6.3501841736
 20
7.4056256177
 30
0.0
 10
6.31614347
 20
7.4156121472
 30
0.0
 10
6.2806828364
 20
7.4238867069
 30
0.0
 10
6.2564876011
 20
7.4281823954
 30
0.0
 10
6.2442177947
 20
7.4300382685
 30
0.0
  0
SPLINE
  5
339
100
AcDbEntity
  8
0
100
AcDbSpline
 62
7
  6
CONTINUOUS
 70
0
 71
3
 72
15
 73
11
 74
0
 42
0.0000001
 43
0.0000001
 44
0.0000000001
 40
0.0
 40
0.0
 40
0.0
 40
0.0
 40
0.1389409926
 40
0.2749881833
 40
0.4075042358
 40
0.5359162309
 40
0.6597215917
 40
0.7785081952
 40
0.8920058332
 40
1.0
 40
1.0
 40
1.0
 40
1.0
 10
6.0164796431
 20
7.4300326538
 30
0.0
 10
6.0042116762
 20
7.4281764107
 30
0.0
 10
5.9800201171
 20
7.4238801437
 30
0.0
 10
5.9445649474
 20
7.4156051937
 30
0.0
 10
5.9105295551
 20
7.4056187503
 30
0.0
 10
5.8781746334
 20
7.3939973269
 30
0.0
 10
5.8477467918
 20
7.3808291356
 30
0.0
 10
5.8194749332
 20
7.3662117738
 30
0.0
 10
5.7935795654
 20
7.3502560525
 30
0.0
 10
5.7776278552
 20
7.3385106545
 30
0.0
 10
5.7701386416
 20
7.3324345791
 30
0.0
  0
LINE
  5
33A
100
AcDbEntity
  8
0
100
AcDbLine
 62
7
  6
CONTINUOUS
 10
5.7725416086
 20
7.3381370211
 11
5.7701386361
 21
7.3324345799
  0
SPLINE
  5
33B
100
AcDbEntity
  8
0
100
AcDbSpline
 62
7
  6
CONTINUOUS
 70
0
 71
3
 72
28
 73
24
 74
0
 42
0.0000001
 43
0.0000001
 44
0.0000000001
 40
0.0
 40
0.0
 40
0.0
 40
0.0
 40
0.0624571806
 40
0.0937145048
 40
0.1249627483
 40
0.1874092228
 40
0.2498582414
 40
0.2811034949
 40
0.3123489396
 40
0.3748003806
 40
0.4372566302
 40
0.49971843
 40
0.5621844093
 40
0.6246601443
 40
0.6559225998
 40
0.6871885182
 40
0.7184595571
 40
0.749735572
 40
0.8122655118
 40
0.8748100552
 40
0.9061133682
 40
0.9374309332
 40
1.0
 40
1.0
 40
1.0
 40
1.0
 10
5.9798517146
 20
12.2385661095
 30
0.0
 10
5.9765899778
 20
12.2344380182
 30
0.0
 10
5.9721240435
 20
12.2278867944
 30
0.0
 10
5.9671452812
 20
12.2186050226
 30
0.0
 10
5.9628375929
 20
12.2089924501
 30
0.0
 10
5.958752888
 20
12.1964401291
 30
0.0
 10
5.9564980439
 20
12.1834334584
 30
0.0
 10
5.9558230653
 20
12.1729227065
 30
0.0
 10
5.9558995082
 20
12.1623905429
 30
0.0
 10
5.9574122948
 20
12.1492746633
 30
0.0
 10
5.9614517173
 20
12.1339626868
 30
0.0
 10
5.9676265267
 20
12.1193773668
 30
0.0
 10
5.9758016227
 20
12.1058125643
 30
0.0
 10
5.9841407459
 20
12.0955735989
 30
0.0
 10
5.9916119522
 20
12.0881434212
 30
0.0
 10
5.9975940188
 20
12.0829713153
 30
0.0
 10
6.0039199936
 20
12.0782243753
 30
0.0
 10
6.012768483
 20
12.0724919641
 30
0.0
 10
6.0245383839
 20
12.0664847178
 30
0.0
 10
6.0370147445
 20
12.0621278815
 30
0.0
 10
6.0472759256
 20
12.0596726942
 30
0.0
 10
6.0576795054
 20
12.0579136713
 30
0.0
 10
6.0656014742
 20
12.0573813287
 30
0.0
 10
6.0708720839
 20
12.0573813287
 30
0.0
  0
SPLINE
  5
33C
100
AcDbEntity
  8
0
100
AcDbSpline
 62
7
  6
CONTINUOUS
 70
0
 71
3
 72
27
 73
23
 74
0
 42
0.0000001
 43
0.0000001
 44
0.0000000001
 40
0.0
 40
0.0
 40
0.0
 40
0.0
 40
0.062577881
 40
0.0938939143
 40
0.1251953938
 40
0.1877408352
 40
0.2502684926
 40
0.281541641
 40
0.3128085124
 40
0.3752908279
 40
0.4377630996
 40
0.5002247319
 40
0.5626814505
 40
0.6251385783
 40
0.6875943834
 40
0.718843249
 40
0.7500930628
 40
0.8125539021
 40
0.8750143619
 40
0.9062688718
 40
0.9375315629
 40
1.0
 40
1.0
 40
1.0
 40
1.0
 10
6.0708720839
 20
12.0573813287
 30
0.0
 10
6.0761432384
 20
12.0573813287
 30
0.0
 10
6.0840655672
 20
12.0579133776
 30
0.0
 10
6.0944691216
 20
12.0596729539
 30
0.0
 10
6.1047297211
 20
12.0621279247
 30
0.0
 10
6.1172053276
 20
12.0664847291
 30
0.0
 10
6.1289744613
 20
12.0724912232
 30
0.0
 10
6.1378222121
 20
12.0782232254
 30
0.0
 10
6.1462520465
 20
12.0845471315
 30
0.0
 10
6.1559362509
 20
12.0935246198
 30
0.0
 10
6.1659365177
 20
12.1058055901
 30
0.0
 10
6.1741133475
 20
12.1193689977
 30
0.0
 10
6.1802889722
 20
12.1339521576
 30
0.0
 10
6.1843299784
 20
12.149263224
 30
0.0
 10
6.1858439215
 20
12.1623791835
 30
0.0
 10
6.1859215439
 20
12.1729119896
 30
0.0
 10
6.1852472115
 20
12.1834240626
 30
0.0
 10
6.1829932043
 20
12.1964329769
 30
0.0
 10
6.1789084976
 20
12.2089876682
 30
0.0
 10
6.1746003356
 20
12.2186019565
 30
0.0
 10
6.1696213373
 20
12.2278853476
 30
0.0
 10
6.1651546555
 20
12.234437429
 30
0.0
 10
6.1618924531
 20
12.2385661095
 30
0.0
  0
LINE
  5
33D
100
AcDbEntity
  8
0
100
AcDbLine
 62
7
  6
CONTINUOUS
 10
5.7130464163
 20
12.4672352814
 11
5.7106434438
 21
12.4669627566
  0
LINE
  5
33E
100
AcDbEntity
  8
0
100
AcDbLine
 62
7
  6
CONTINUOUS
 10
6.4311007239
 20
12.4669627566
 11
6.4286977514
 21
12.4672352814
  0
SPLINE
  5
33F
100
AcDbEntity
  8
0
100
AcDbSpline
 62
7
  6
CONTINUOUS
 70
0
 71
3
 72
15
 73
11
 74
0
 42
0.0000001
 43
0.0000001
 44
0.0000000001
 40
0.0
 40
0.0
 40
0.0
 40
0.0
 40
0.1312246823
 40
0.2617916954
 40
0.3909487569
 40
0.5181572376
 40
0.6429183523
 40
0.7648798673
 40
0.8839222914
 40
1.0
 40
1.0
 40
1.0
 40
1.0
 10
6.0708720839
 20
12.3809041546
 30
0.0
 10
6.0774070368
 20
12.3809041546
 30
0.0
 10
6.0904552116
 20
12.3801983059
 30
0.0
 10
6.1097042616
 20
12.3770417744
 30
0.0
 10
6.1282989774
 20
12.3718359516
 30
0.0
 10
6.1459202045
 20
12.3646717167
 30
0.0
 10
6.1622693068
 20
12.3556646399
 30
0.0
 10
6.1770707716
 20
12.3449654719
 30
0.0
 10
6.1900638428
 20
12.3327535737
 30
0.0
 10
6.1974666824
 20
12.3236243809
 30
0.0
 10
6.2007758944
 20
12.3188846669
 30
0.0
  0
SPLINE
  5
340
100
AcDbEntity
  8
0
100
AcDbSpline
 62
7
  6
CONTINUOUS
 70
0
 71
3
 72
11
 73
7
 74
0
 42
0.0000001
 43
0.0000001
 44
0.0000000001
 40
0.0
 40
0.0
 40
0.0
 40
0.0
 40
0.2418435306
 40
0.4896658595
 40
0.7427172617
 40
1.0
 40
1.0
 40
1.0
 40
1.0
 10
6.4108720839
 20
12.4584814818
 30
0.0
 10
6.4121106435
 20
12.4595036467
 30
0.0
 10
6.4147552412
 20
12.4614133706
 30
0.0
 10
6.4191062353
 20
12.4637640395
 30
0.0
 10
6.4238239733
 20
12.4655613024
 30
0.0
 10
6.4271320719
 20
12.4663452175
 30
0.0
 10
6.4288157037
 20
12.4666350641
 30
0.0
  0
SPLINE
  5
341
100
AcDbEntity
  8
0
100
AcDbSpline
 62
7
  6
CONTINUOUS
 70
0
 71
3
 72
15
 73
11
 74
0
 42
0.0000001
 43
0.0000001
 44
0.0000000001
 40
0.0
 40
0.0
 40
0.0
 40
0.0
 40
0.1160777086
 40
0.2351201327
 40
0.3570816477
 40
0.4818427624
 40
0.6090512431
 40
0.7382083046
 40
0.8687753177
 40
1.0
 40
1.0
 40
1.0
 40
1.0
 10
5.9409682733
 20
12.3188846669
 30
0.0
 10
5.9442774854
 20
12.3236243809
 30
0.0
 10
5.9516803249
 20
12.3327535737
 30
0.0
 10
5.9646733961
 20
12.3449654719
 30
0.0
 10
5.9794748609
 20
12.3556646399
 30
0.0
 10
5.9958239632
 20
12.3646717167
 30
0.0
 10
6.0134451903
 20
12.3718359516
 30
0.0
 10
6.0320399061
 20
12.3770417744
 30
0.0
 10
6.0512889562
 20
12.3801983059
 30
0.0
 10
6.064337131
 20
12.3809041546
 30
0.0
 10
6.0708720839
 20
12.3809041546
 30
0.0
  0
SPLINE
  5
342
100
AcDbEntity
  8
0
100
AcDbSpline
 62
7
  6
CONTINUOUS
 70
0
 71
3
 72
15
 73
11
 74
0
 42
0.0000001
 43
0.0000001
 44
0.0000000001
 40
0.0
 40
0.0
 40
0.0
 40
0.0
 40
0.0383797871
 40
0.1471091658
 40
0.3091134382
 40
0.5000097048
 40
0.6909047485
 40
0.8529005347
 40
0.9616227865
 40
1.0
 40
1.0
 40
1.0
 40
1.0
 10
6.5958720839
 20
12.1156727814
 30
0.0
 10
6.5955767872
 20
12.1136884678
 30
0.0
 10
6.5944862148
 20
12.1060763758
 30
0.0
 10
6.5925306187
 20
12.0900345672
 30
0.0
 10
6.590559781
 20
12.0659755772
 30
0.0
 10
6.58973848
 20
12.0375463223
 30
0.0
 10
6.5905599407
 20
12.0091175166
 30
0.0
 10
6.5925307958
 20
11.9850594127
 30
0.0
 10
6.5944862978
 20
11.9690185507
 30
0.0
 10
6.5955768052
 20
11.9614069616
 30
0.0
 10
6.5958720839
 20
11.9594227814
 30
0.0
  0
SPLINE
  5
343
100
AcDbEntity
  8
0
100
AcDbSpline
 62
7
  6
CONTINUOUS
 70
0
 71
3
 72
15
 73
11
 74
0
 42
0.0000001
 43
0.0000001
 44
0.0000000001
 40
0.0
 40
0.0
 40
0.0
 40
0.0
 40
0.1280283093
 40
0.2535711755
 40
0.3772551638
 40
0.5
 40
0.6227448362
 40
0.7464288245
 40
0.8719716907
 40
1.0
 40
1.0
 40
1.0
 40
1.0
 10
5.9409682733
 20
12.1948456916
 30
0.0
 10
5.9377356544
 20
12.1994757029
 30
0.0
 10
5.931968474
 20
12.2091120142
 30
0.0
 10
5.9256048915
 20
12.2245523682
 30
0.0
 10
5.9217386263
 20
12.2405657831
 30
0.0
 10
5.9204406855
 20
12.2568651792
 30
0.0
 10
5.9217386263
 20
12.2731645754
 30
0.0
 10
5.9256048915
 20
12.2891779903
 30
0.0
 10
5.931968474
 20
12.3046183443
 30
0.0
 10
5.9377356544
 20
12.3142546556
 30
0.0
 10
5.9409682733
 20
12.3188846669
 30
0.0
  0
SPLINE
  5
344
100
AcDbEntity
  8
0
100
AcDbSpline
 62
7
  6
CONTINUOUS
 70
0
 71
3
 72
11
 73
7
 74
0
 42
0.0000001
 43
0.0000001
 44
0.0000000001
 40
0.0
 40
0.0
 40
0.0
 40
0.0
 40
0.2419110222
 40
0.4898523014
 40
0.7428057448
 40
1.0
 40
1.0
 40
1.0
 40
1.0
 10
5.7308720839
 20
12.4584814818
 30
0.0
 10
5.7296337419
 20
12.459503821
 30
0.0
 10
5.7269799003
 20
12.4614021305
 30
0.0
 10
5.7226248971
 20
12.4637409238
 30
0.0
 10
5.7179137152
 20
12.4655477105
 30
0.0
 10
5.7146099177
 20
12.4663407369
 30
0.0
 10
5.7129278644
 20
12.4666331114
 30
0.0
  0
SPLINE
  5
345
100
AcDbEntity
  8
0
100
AcDbSpline
 62
7
  6
CONTINUOUS
 70
0
 71
3
 72
15
 73
11
 74
0
 42
0.0000001
 43
0.0000001
 44
0.0000000001
 40
0.0
 40
0.0
 40
0.0
 40
0.0
 40
0.1280283093
 40
0.2535711755
 40
0.3772551638
 40
0.5
 40
0.6227448362
 40
0.7464288245
 40
0.8719716907
 40
1.0
 40
1.0
 40
1.0
 40
1.0
 10
6.2007758944
 20
12.3188846669
 30
0.0
 10
6.2040085134
 20
12.3142546556
 30
0.0
 10
6.2097756938
 20
12.3046183443
 30
0.0
 10
6.2161392762
 20
12.2891779903
 30
0.0
 10
6.2200055414
 20
12.2731645754
 30
0.0
 10
6.2213034822
 20
12.2568651792
 30
0.0
 10
6.2200055414
 20
12.2405657831
 30
0.0
 10
6.2161392762
 20
12.2245523682
 30
0.0
 10
6.2097756938
 20
12.2091120142
 30
0.0
 10
6.2040085134
 20
12.1994757029
 30
0.0
 10
6.2007758944
 20
12.1948456916
 30
0.0
  0
SPLINE
  5
346
100
AcDbEntity
  8
0
100
AcDbSpline
 62
7
  6
CONTINUOUS
 70
0
 71
3
 72
9
 73
5
 74
0
 42
0.0000001
 43
0.0000001
 44
0.0000000001
 40
0.0
 40
0.0
 40
0.0
 40
0.0
 40
0.2468056929
 40
1.0
 40
1.0
 40
1.0
 40
1.0
 10
6.2007758944
 20
12.1948456916
 30
0.0
 10
6.1996502292
 20
12.1932334253
 30
0.0
 10
6.1949297228
 20
12.186813347
 30
0.0
 10
6.1895908616
 20
12.1808513404
 30
0.0
 10
6.1852956157
 20
12.1766607584
 30
0.0
  0
SPLINE
  5
347
100
AcDbEntity
  8
0
100
AcDbSpline
 62
7
  6
CONTINUOUS
 70
0
 71
3
 72
9
 73
5
 74
0
 42
0.0000001
 43
0.0000001
 44
0.0000000001
 40
0.0
 40
0.0
 40
0.0
 40
0.0
 40
0.2534283513
 40
1.0
 40
1.0
 40
1.0
 40
1.0
 10
5.9564436166
 20
12.1766655738
 30
0.0
 10
5.954998898
 20
12.1780752342
 30
0.0
 10
5.9494254036
 20
12.1837660187
 30
0.0
 10
5.9443723123
 20
12.1899701589
 30
0.0
 10
5.9409682733
 20
12.1948456916
 30
0.0
  0
LINE
  5
348
100
AcDbEntity
  8
0
100
AcDbLine
 62
7
  6
CONTINUOUS
 10
15.4272702322
 20
7.2729393876
 11
15.4275427569
 21
7.2786418288
  0
SPLINE
  5
349
100
AcDbEntity
  8
0
100
AcDbSpline
 62
7
  6
CONTINUOUS
 70
0
 71
3
 72
15
 73
11
 74
0
 42
0.0000001
 43
0.0000001
 44
0.0000000001
 40
0.0
 40
0.0
 40
0.0
 40
0.0
 40
0.0383785016
 40
0.1471045143
 40
0.3091062997
 40
0.5000002266
 40
0.6908939564
 40
0.8528957924
 40
0.961621545
 40
1.0
 40
1.0
 40
1.0
 40
1.0
 10
15.0759802569
 20
5.9856247044
 30
0.0
 10
15.0739960091
 20
5.9853294209
 30
0.0
 10
15.0663841561
 20
5.9842388876
 30
0.0
 10
15.050342722
 20
5.982283292
 30
0.0
 10
15.0262841666
 20
5.9803123639
 30
0.0
 10
14.9978552317
 20
5.9794909315
 30
0.0
 10
14.9694262942
 20
5.9803123671
 30
0.0
 10
14.9453677602
 20
5.9822832956
 30
0.0
 10
14.9293263395
 20
5.9842388903
 30
0.0
 10
14.9217145024
 20
5.9853294213
 30
0.0
 10
14.9197302569
 20
5.9856247044
 30
0.0
  0
SPLINE
  5
34A
100
AcDbEntity
  8
03__ASM_ALL_CURVES
100
AcDbSpline
 62
8
  6
PHANTOM
 70
0
 71
3
 72
108
 73
104
 74
0
 42
0.0000001
 43
0.0000001
 44
0.0000000001
 40
0.0
 40
0.0
 40
0.0
 40
0.0
 40
0.03125
 40
0.0625
 40
0.09375
 40
0.109375
 40
0.125
 40
0.140625
 40
0.1484375
 40
0.15625
 40
0.16015625
 40
0.1640625
 40
0.166015625
 40
0.1669921875
 40
0.16796875
 40
0.169921875
 40
0.171875
 40
0.17578125
 40
0.1796875
 40
0.1875
 40
0.1953125
 40
0.203125
 40
0.21875
 40
0.25
 40
0.28125
 40
0.296875
 40
0.3046875
 40
0.3125
 40
0.3203125
 40
0.328125
 40
0.330078125
 40
0.33203125
 40
0.3330078125
 40
0.333984375
 40
0.3359375
 40
0.33984375
 40
0.34375
 40
0.3515625
 40
0.359375
 40
0.375
 40
0.390625
 40
0.40625
 40
0.421875
 40
0.4375
 40
0.453125
 40
0.46875
 40
0.4765625
 40
0.484375
 40
0.48828125
 40
0.4921875
 40
0.49609375
 40
0.498046875
 40
0.4990234375
 40
0.5
 40
0.5009765625
 40
0.501953125
 40
0.50390625
 40
0.5078125
 40
0.51171875
 40
0.515625
 40
0.5234375
 40
0.53125
 40
0.546875
 40
0.5625
 40
0.578125
 40
0.59375
 40
0.609375
 40
0.625
 40
0.640625
 40
0.6484375
 40
0.65625
 40
0.66015625
 40
0.6640625
 40
0.666015625
 40
0.66796875
 40
0.669921875
 40
0.671875
 40
0.6796875
 40
0.6875
 40
0.6953125
 40
0.703125
 40
0.71875
 40
0.75
 40
0.78125
 40
0.796875
 40
0.8046875
 40
0.8125
 40
0.8203125
 40
0.828125
 40
0.830078125
 40
0.83203125
 40
0.8330078125
 40
0.833984375
 40
0.8359375
 40
0.83984375
 40
0.84375
 40
0.8515625
 40
0.859375
 40
0.875
 40
0.890625
 40
0.90625
 40
0.9375
 40
1.0
 40
1.0
 40
1.0
 40
1.0
 10
17.027066931
 20
12.1535128334
 30
0.0
 10
17.020899642
 20
12.1637995261
 30
0.0
 10
17.0085650667
 20
12.1843729115
 30
0.0
 10
16.9900631874
 20
12.2152329897
 30
0.0
 10
16.9746450024
 20
12.2409497213
 30
0.0
 10
16.962310348
 20
12.2615231072
 30
0.0
 10
16.9530596478
 20
12.2769531448
 30
0.0
 10
16.9453498066
 20
12.2898115153
 30
0.0
 10
16.9391840067
 20
12.3000981987
 30
0.0
 10
16.9353256615
 20
12.3065274053
 30
0.0
 10
16.9322497956
 20
12.3116707032
 30
0.0
 10
16.9303027139
 20
12.3148854179
 30
0.0
 10
16.9289891896
 20
12.3171354106
 30
0.0
 10
16.9281612618
 20
12.318421602
 30
0.0
 10
16.9270419736
 20
12.319709606
 30
0.0
 10
16.9257426246
 20
12.3213189903
 30
0.0
 10
16.9236079149
 20
12.3238943521
 30
0.0
 10
16.9209586171
 20
12.3271134356
 30
0.0
 10
16.9167090716
 20
12.3322640356
 30
0.0
 10
16.9114008001
 20
12.3387022627
 30
0.0
 10
16.9050293079
 20
12.3464281451
 30
0.0
 10
16.8965345309
 20
12.3567293181
 30
0.0
 10
16.8816684205
 20
12.3747563739
 30
0.0
 10
16.8604312206
 20
12.4005092972
 30
0.0
 10
16.8391940953
 20
12.426262269
 30
0.0
 10
16.8243278806
 20
12.4442892569
 30
0.0
 10
16.8158332676
 20
12.4545905366
 30
0.0
 10
16.8094612722
 20
12.4623160913
 30
0.0
 10
16.8030932358
 20
12.4700431945
 30
0.0
 10
16.7983061083
 20
12.4758341804
 30
0.0
 10
16.7951319532
 20
12.4797015896
 30
0.0
 10
16.7937836999
 20
12.4813029627
 30
0.0
 10
16.7927650237
 20
12.4826074998
 30
0.0
 10
16.7915271929
 20
12.4838263207
 30
0.0
 10
16.7892591648
 20
12.4859194317
 30
0.0
 10
16.7860722514
 20
12.4889303693
 30
0.0
 10
16.7809435002
 20
12.4937362572
 30
0.0
 10
16.7745427271
 20
12.4997475931
 30
0.0
 10
16.7642958083
 20
12.5093635084
 30
0.0
 10
16.7514891096
 20
12.521384165
 30
0.0
 10
16.736120235
 20
12.535808626
 30
0.0
 10
16.7207515851
 20
12.5502331747
 30
0.0
 10
16.7053828729
 20
12.5646576994
 30
0.0
 10
16.6900141851
 20
12.5790822323
 30
0.0
 10
16.6746454619
 20
12.5935067566
 30
0.0
 10
16.6618382903
 20
12.6055272153
 30
0.0
 10
16.6515923361
 20
12.6151435342
 30
0.0
 10
16.6451891082
 20
12.6211538427
 30
0.0
 10
16.6400653958
 20
12.6259618396
 30
0.0
 10
16.6362257057
 20
12.6295685216
 30
0.0
 10
16.6330161208
 20
12.6325719128
 30
0.0
 10
16.6307887283
 20
12.6346785592
 30
0.0
 10
16.6294857708
 20
12.6358756859
 30
0.0
 10
16.6285935189
 20
12.6367923241
 30
0.0
 10
16.627376483
 20
12.6376371249
 30
0.0
 10
16.6258670568
 20
12.6387885836
 30
0.0
 10
16.6231727779
 20
12.6407919615
 30
0.0
 10
16.6193514036
 20
12.6436600337
 30
0.0
 10
16.6147539427
 20
12.6470991077
 30
0.0
 10
16.6086281204
 20
12.6516854522
 30
0.0
 10
16.6009694299
 20
12.6574180705
 30
0.0
 10
16.5887163147
 20
12.6665904343
 30
0.0
 10
16.5733996493
 20
12.6780558288
 30
0.0
 10
16.5550197691
 20
12.6918143298
 30
0.0
 10
16.5366398499
 20
12.7055728168
 30
0.0
 10
16.5182599687
 20
12.7193313325
 30
0.0
 10
16.4998799743
 20
12.733089747
 30
0.0
 10
16.4815003947
 20
12.7468485375
 30
0.0
 10
16.4661827902
 20
12.7583130275
 30
0.0
 10
16.4539315907
 20
12.7674872364
 30
0.0
 10
16.4462680247
 20
12.7732151592
 30
0.0
 10
16.4401522102
 20
12.7778111419
 30
0.0
 10
16.4362955136
 20
12.7806524987
 30
0.0
 10
16.4332887467
 20
12.7829968908
 30
0.0
 10
16.4308184878
 20
12.7845599442
 30
0.0
 10
16.4282879302
 20
12.7860682874
 30
0.0
 10
16.4232578328
 20
12.7891131168
 30
0.0
 10
16.415699659
 20
12.7936685406
 30
0.0
 10
16.40562954
 20
12.799749195
 30
0.0
 10
16.3955574292
 20
12.8058280422
 30
0.0
 10
16.3821286426
 20
12.813933802
 30
0.0
 10
16.358627946
 20
12.8281185898
 30
0.0
 10
16.3250556614
 20
12.8483827111
 30
0.0
 10
16.2914834299
 20
12.8686468333
 30
0.0
 10
16.2679826589
 20
12.8828316199
 30
0.0
 10
16.2545539892
 20
12.8909373815
 30
0.0
 10
16.2444815198
 20
12.8970162233
 30
0.0
 10
16.234412748
 20
12.9030968979
 30
0.0
 10
16.2268508015
 20
12.9076522651
 30
0.0
 10
16.2218256277
 20
12.9106971685
 30
0.0
 10
16.2197078121
 20
12.9119539857
 30
0.0
 10
16.2180695308
 20
12.9129871823
 30
0.0
 10
16.2162265593
 20
12.9139189217
 30
0.0
 10
16.2129062551
 20
12.9155023263
 30
0.0
 10
16.2082125839
 20
12.9177889279
 30
0.0
 10
16.2006749797
 20
12.9214337455
 30
0.0
 10
16.1912624693
 20
12.9259944738
 30
0.0
 10
16.176197146
 20
12.9332890087
 30
0.0
 10
16.1573673126
 20
12.9424080798
 30
0.0
 10
16.1347707332
 20
12.9533505788
 30
0.0
 10
16.1046422327
 20
12.9679407123
 30
0.0
 10
16.0519172292
 20
12.9934733828
 30
0.0
 10
16.0067244128
 20
13.0153585506
 30
0.0
 10
15.9765958588
 20
13.0299486576
 30
0.0
  0
SPLINE
  5
34B
100
AcDbEntity
  8
03__ASM_ALL_CURVES
100
AcDbSpline
 62
8
  6
PHANTOM
 70
0
 71
3
 72
89
 73
85
 74
0
 42
0.0000001
 43
0.0000001
 44
0.0000000001
 40
0.0
 40
0.0
 40
0.0
 40
0.0
 40
0.0625
 40
0.09375
 40
0.109375
 40
0.125
 40
0.140625
 40
0.1484375
 40
0.15625
 40
0.16015625
 40
0.1640625
 40
0.166015625
 40
0.16796875
 40
0.171875
 40
0.1796875
 40
0.1875
 40
0.203125
 40
0.21875
 40
0.25
 40
0.28125
 40
0.296875
 40
0.3125
 40
0.3203125
 40
0.328125
 40
0.33203125
 40
0.333984375
 40
0.3359375
 40
0.33984375
 40
0.34375
 40
0.359375
 40
0.375
 40
0.390625
 40
0.40625
 40
0.421875
 40
0.4375
 40
0.453125
 40
0.46875
 40
0.4765625
 40
0.484375
 40
0.4921875
 40
0.49609375
 40
0.498046875
 40
0.5
 40
0.501953125
 40
0.50390625
 40
0.5078125
 40
0.515625
 40
0.5234375
 40
0.53125
 40
0.546875
 40
0.5625
 40
0.578125
 40
0.59375
 40
0.609375
 40
0.625
 40
0.640625
 40
0.6484375
 40
0.65625
 40
0.66015625
 40
0.6640625
 40
0.666015625
 40
0.66796875
 40
0.671875
 40
0.6796875
 40
0.6875
 40
0.703125
 40
0.71875
 40
0.75
 40
0.78125
 40
0.796875
 40
0.8125
 40
0.8203125
 40
0.828125
 40
0.83203125
 40
0.833984375
 40
0.8359375
 40
0.83984375
 40
0.84375
 40
0.859375
 40
0.875
 40
0.890625
 40
0.90625
 40
0.9375
 40
1.0
 40
1.0
 40
1.0
 40
1.0
 10
15.9765958424
 20
13.0299486647
 30
0.0
 10
15.9509434114
 20
13.0399172535
 30
0.0
 10
15.9124647456
 20
13.0548701168
 30
0.0
 10
15.8675730363
 20
13.0723151934
 30
0.0
 10
15.8419205346
 20
13.0822837095
 30
0.0
 10
15.8226814283
 20
13.0897603741
 30
0.0
 10
15.8066479797
 20
13.0959900443
 30
0.0
 10
15.79382315
 20
13.1009757624
 30
0.0
 10
15.7858032386
 20
13.1040873231
 30
0.0
 10
15.7793973699
 20
13.1065869077
 30
0.0
 10
15.7753707473
 20
13.1081255645
 30
0.0
 10
15.7722020254
 20
13.1094105064
 30
0.0
 10
15.7688413623
 20
13.1104982493
 30
0.0
 10
15.762871037
 20
13.1123101918
 30
0.0
 10
15.7543885227
 20
13.1149464774
 30
0.0
 10
15.740790501
 20
13.1191378229
 30
0.0
 10
15.723801877
 20
13.1243861558
 30
0.0
 10
15.6966150966
 20
13.1327783448
 30
0.0
 10
15.6626333736
 20
13.1432705545
 30
0.0
 10
15.628650868
 20
13.1537612998
 30
0.0
 10
15.6014653399
 20
13.1621558318
 30
0.0
 10
15.5844735852
 20
13.1673983071
 30
0.0
 10
15.5708819815
 20
13.1716016607
 30
0.0
 10
15.5623831288
 20
13.1742073769
 30
0.0
 10
15.5564421489
 20
13.1760742253
 30
0.0
 10
15.5530344471
 20
13.1770739577
 30
0.0
 10
15.5495783232
 20
13.1778211911
 30
0.0
 10
15.5452747191
 20
13.1788415381
 30
0.0
 10
15.5349324473
 20
13.1812193378
 30
0.0
 10
15.5194247611
 20
13.1848158723
 30
0.0
 10
15.4987445755
 20
13.1895941975
 30
0.0
 10
15.4780652663
 20
13.1943770915
 30
0.0
 10
15.4573857223
 20
13.1991587644
 30
0.0
 10
15.4367062414
 20
13.2039407531
 30
0.0
 10
15.4160267426
 20
13.2087226998
 30
0.0
 10
15.3953472523
 20
13.2135044985
 30
0.0
 10
15.3781143305
 20
13.217489859
 30
0.0
 10
15.3643280204
 20
13.2206769536
 30
0.0
 10
15.3539882138
 20
13.2230705391
 30
0.0
 10
15.3453719436
 20
13.2250548091
 30
0.0
 10
15.3393400928
 20
13.2264641774
 30
0.0
 10
15.3358940417
 20
13.2272377103
 30
0.0
 10
15.3333074729
 20
13.2279074986
 30
0.0
 10
15.3307286655
 20
13.2282346424
 30
0.0
 10
15.3272875483
 20
13.2287903524
 30
0.0
 10
15.3212668547
 20
13.229707159
 30
0.0
 10
15.3126652043
 20
13.231045996
 30
0.0
 10
15.3023435062
 20
13.2326401389
 30
0.0
 10
15.2885811433
 20
13.2347700159
 30
0.0
 10
15.2713782238
 20
13.2374308679
 30
0.0
 10
15.2507347048
 20
13.2406245328
 30
0.0
 10
15.2300911939
 20
13.2438180184
 30
0.0
 10
15.209447666
 20
13.2470115786
 30
0.0
 10
15.1888041977
 20
13.2502050195
 30
0.0
 10
15.1681605083
 20
13.2533988634
 30
0.0
 10
15.1509581211
 20
13.2560591559
 30
0.0
 10
15.1371946725
 20
13.2581901743
 30
0.0
 10
15.1285960205
 20
13.2595157217
 30
0.0
 10
15.1217090754
 20
13.2605906774
 30
0.0
 10
15.117423042
 20
13.2612293998
 30
0.0
 10
15.1139522836
 20
13.2618162481
 30
0.0
 10
15.1106346058
 20
13.2621261145
 30
0.0
 10
15.1048997819
 20
13.2625397108
 30
0.0
 10
15.0966700735
 20
13.2631976962
 30
0.0
 10
15.0835232749
 20
13.2642129547
 30
0.0
 10
15.0670826775
 20
13.2654948794
 30
0.0
 10
15.0407816859
 20
13.267538745
 30
0.0
 10
15.0079041117
 20
13.2700962756
 30
0.0
 10
14.975026921
 20
13.2726520288
 30
0.0
 10
14.9487253157
 20
13.2746987384
 30
0.0
 10
14.9322862525
 20
13.2759735531
 30
0.0
 10
14.9191363089
 20
13.2770033871
 30
0.0
 10
14.9109146067
 20
13.2776242672
 30
0.0
 10
14.9051654029
 20
13.2781045086
 30
0.0
 10
14.9018707751
 20
13.2783075472
 30
0.0
 10
14.8985408606
 20
13.2782417146
 30
0.0
 10
14.8943905287
 20
13.2782513252
 30
0.0
 10
14.8844198052
 20
13.2781987516
 30
0.0
 10
14.8694678894
 20
13.2781516604
 30
0.0
 10
14.8495296186
 20
13.2780707142
 30
0.0
 10
14.8295919852
 20
13.2779946253
 30
0.0
 10
14.8030082517
 20
13.2778914786
 30
0.0
 10
14.7564868222
 20
13.2777117664
 30
0.0
 10
14.7166112755
 20
13.277557455
 30
0.0
 10
14.6900275856
 20
13.2774546412
 30
0.0
  0
SPLINE
  5
34C
100
AcDbEntity
  8
03__ASM_ALL_CURVES
100
AcDbSpline
 62
8
  6
PHANTOM
 70
0
 71
3
 72
86
 73
82
 74
0
 42
0.0000001
 43
0.0000001
 44
0.0000000001
 40
0.0
 40
0.0
 40
0.0
 40
0.0
 40
0.0625
 40
0.09375
 40
0.109375
 40
0.125
 40
0.140625
 40
0.15625
 40
0.16015625
 40
0.1640625
 40
0.16796875
 40
0.171875
 40
0.1796875
 40
0.1875
 40
0.203125
 40
0.21875
 40
0.25
 40
0.28125
 40
0.296875
 40
0.3125
 40
0.3203125
 40
0.328125
 40
0.33203125
 40
0.333984375
 40
0.3359375
 40
0.33984375
 40
0.34375
 40
0.359375
 40
0.375
 40
0.390625
 40
0.40625
 40
0.421875
 40
0.4375
 40
0.453125
 40
0.46875
 40
0.4765625
 40
0.484375
 40
0.4921875
 40
0.49609375
 40
0.498046875
 40
0.5
 40
0.501953125
 40
0.50390625
 40
0.5078125
 40
0.515625
 40
0.5234375
 40
0.53125
 40
0.546875
 40
0.5625
 40
0.578125
 40
0.59375
 40
0.609375
 40
0.625
 40
0.640625
 40
0.65625
 40
0.66015625
 40
0.6640625
 40
0.666015625
 40
0.66796875
 40
0.671875
 40
0.6796875
 40
0.6875
 40
0.703125
 40
0.71875
 40
0.75
 40
0.78125
 40
0.796875
 40
0.8125
 40
0.8203125
 40
0.828125
 40
0.83203125
 40
0.833984375
 40
0.8359375
 40
0.83984375
 40
0.84375
 40
0.859375
 40
0.875
 40
0.890625
 40
0.90625
 40
0.9375
 40
1.0
 40
1.0
 40
1.0
 40
1.0
 10
14.690027557
 20
13.2774546399
 30
0.0
 10
14.670580599
 20
13.2758286532
 30
0.0
 10
14.6414101728
 20
13.2733896271
 30
0.0
 10
14.6073779709
 20
13.2705442579
 30
0.0
 10
14.5879310527
 20
13.2689181022
 30
0.0
 10
14.5733457119
 20
13.2676991306
 30
0.0
 10
14.5587609525
 20
13.2664776937
 30
0.0
 10
14.5478207529
 20
13.2655685281
 30
0.0
 10
14.5405298215
 20
13.2649516679
 30
0.0
 10
14.5368798292
 20
13.2646624334
 30
0.0
 10
14.5332474365
 20
13.2642985665
 30
0.0
 10
14.528487989
 20
13.2634582957
 30
0.0
 10
14.5225100062
 20
13.262529548
 30
0.0
 10
14.5129612582
 20
13.2609756006
 30
0.0
 10
14.5010198334
 20
13.2590564364
 30
0.0
 10
14.4819166399
 20
13.2559727469
 30
0.0
 10
14.45803646
 20
13.252122756
 30
0.0
 10
14.4341571745
 20
13.2482705649
 30
0.0
 10
14.41505255
 20
13.2451903957
 30
0.0
 10
14.4031147026
 20
13.2432624309
 30
0.0
 10
14.3935586208
 20
13.2417265248
 30
0.0
 10
14.3875993081
 20
13.2407518487
 30
0.0
 10
14.383401258
 20
13.2400991041
 30
0.0
 10
14.3810438827
 20
13.2396799071
 30
0.0
 10
14.3788428565
 20
13.2390866982
 30
0.0
 10
14.3760381329
 20
13.2384046651
 30
0.0
 10
14.3693507806
 20
13.2367188324
 30
0.0
 10
14.359301278
 20
13.2342106445
 30
0.0
 10
14.3459125013
 20
13.2308546409
 30
0.0
 10
14.3325208957
 20
13.2275017861
 30
0.0
 10
14.3191300453
 20
13.2241480891
 30
0.0
 10
14.3057390032
 20
13.2207946118
 30
0.0
 10
14.2923479727
 20
13.2174410982
 30
0.0
 10
14.2789570874
 20
13.21408751
 30
0.0
 10
14.2677975227
 20
13.2112931322
 30
0.0
 10
14.2588709831
 20
13.2090569976
 30
0.0
 10
14.2521730379
 20
13.2073816263
 30
0.0
 10
14.2466010887
 20
13.2059799814
 30
0.0
 10
14.2426817436
 20
13.2050096279
 30
0.0
 10
14.2404717546
 20
13.20443828
 30
0.0
 10
14.2387307757
 20
13.2040572644
 30
0.0
 10
14.2373089271
 20
13.2034946979
 30
0.0
 10
14.2353018127
 20
13.2028079362
 30
0.0
 10
14.2318412268
 20
13.201576598
 30
0.0
 10
14.2268704175
 20
13.1998329691
 30
0.0
 10
14.2209170526
 20
13.1977340117
 30
0.0
 10
14.2129751785
 20
13.1949377082
 30
0.0
 10
14.2030492265
 20
13.1914415384
 30
0.0
 10
14.1911374908
 20
13.1872464692
 30
0.0
 10
14.1792259032
 20
13.1830513262
 30
0.0
 10
14.1673143164
 20
13.1788561438
 30
0.0
 10
14.1554025782
 20
13.1746611929
 30
0.0
 10
14.1434914449
 20
13.1704653552
 30
0.0
 10
14.1315780433
 20
13.1662728334
 30
0.0
 10
14.1226493433
 20
13.1631191592
 30
0.0
 10
14.1166870002
 20
13.161031145
 30
0.0
 10
14.1142173871
 20
13.1601396589
 30
0.0
 10
14.1122074126
 20
13.159476579
 30
0.0
 10
14.1103228169
 20
13.1586302475
 30
0.0
 10
14.1070830282
 20
13.1570640246
 30
0.0
 10
14.1024243647
 20
13.1548709866
 30
0.0
 10
14.0949874892
 20
13.1513372995
 30
0.0
 10
14.0856855748
 20
13.1469286945
 30
0.0
 10
14.0708057877
 20
13.1398701544
 30
0.0
 10
14.0522047647
 20
13.1310487543
 30
0.0
 10
14.0336048032
 20
13.1222262195
 30
0.0
 10
14.0187233176
 20
13.115169495
 30
0.0
 10
14.0094256495
 20
13.1107563511
 30
0.0
 10
14.0019800691
 20
13.1072319688
 30
0.0
 10
13.9973435659
 20
13.1050152433
 30
0.0
 10
13.9940639749
 20
13.1034915656
 30
0.0
 10
13.9922431798
 20
13.1025770369
 30
0.0
 10
13.9906229762
 20
13.1014973259
 30
0.0
 10
13.9885291587
 20
13.1002041471
 30
0.0
 10
13.9835604272
 20
13.0970540488
 30
0.0
 10
13.9760836286
 20
13.0923484189
 30
0.0
 10
13.9661281104
 20
13.0860630904
 30
0.0
 10
13.9561689685
 20
13.079780746
 30
0.0
 10
13.942891377
 20
13.0714032455
 30
0.0
 10
13.9196549992
 20
13.0567431078
 30
0.0
 10
13.8997383071
 20
13.0441771081
 30
0.0
 10
13.8864604672
 20
13.0357998122
 30
0.0
  0
SPLINE
  5
34D
100
AcDbEntity
  8
03__ASM_ALL_CURVES
100
AcDbSpline
 62
8
  6
PHANTOM
 70
0
 71
3
 72
54
 73
50
 74
0
 42
0.0000001
 43
0.0000001
 44
0.0000000001
 40
0.0
 40
0.0
 40
0.0
 40
0.0
 40
0.0625
 40
0.125
 40
0.140625
 40
0.15625
 40
0.1640625
 40
0.171875
 40
0.1875
 40
0.21875
 40
0.25
 40
0.28125
 40
0.3125
 40
0.328125
 40
0.3359375
 40
0.34375
 40
0.359375
 40
0.375
 40
0.40625
 40
0.4375
 40
0.453125
 40
0.46875
 40
0.484375
 40
0.4921875
 40
0.5
 40
0.5078125
 40
0.515625
 40
0.53125
 40
0.546875
 40
0.5625
 40
0.59375
 40
0.625
 40
0.640625
 40
0.65625
 40
0.6640625
 40
0.671875
 40
0.6875
 40
0.71875
 40
0.75
 40
0.78125
 40
0.8125
 40
0.828125
 40
0.8359375
 40
0.84375
 40
0.859375
 40
0.875
 40
0.90625
 40
0.9375
 40
1.0
 40
1.0
 40
1.0
 40
1.0
 10
13.8864604441
 20
13.0357997954
 30
0.0
 10
13.8807968201
 20
13.03138963
 30
0.0
 10
13.8694668296
 20
13.022570831
 30
0.0
 10
13.856732932
 20
13.0126427892
 30
0.0
 10
13.8482256685
 20
13.0060341469
 30
0.0
 10
13.8447075444
 20
13.0032657069
 30
0.0
 10
13.8418310794
 20
13.0010855632
 30
0.0
 10
13.8391812221
 20
12.9987788578
 30
0.0
 10
13.8346492909
 20
12.9946832456
 30
0.0
 10
13.8281199175
 20
12.988863636
 30
0.0
 10
13.8203088327
 20
12.9818646104
 30
0.0
 10
13.8124893927
 20
12.9748775369
 30
0.0
 10
13.8059809072
 20
12.9690280471
 30
0.0
 10
13.8014124222
 20
12.9649847252
 30
0.0
 10
13.7988210509
 20
12.9625943553
 30
0.0
 10
13.7963018624
 20
12.9599030949
 30
0.0
 10
13.7931281537
 20
12.9566420448
 30
0.0
 10
13.7880640812
 20
12.951366783
 30
0.0
 10
13.7817289221
 20
12.9447924668
 30
0.0
 10
13.77539671
 20
12.9382110834
 30
0.0
 10
13.7703279225
 20
12.9329471291
 30
0.0
 10
13.7665336169
 20
12.9289999464
 30
0.0
 10
13.7633486696
 20
12.9257075372
 30
0.0
 10
13.7608523316
 20
12.9230806349
 30
0.0
 10
13.7588390343
 20
12.9210912372
 30
0.0
 10
13.757364102
 20
12.9191752109
 30
0.0
 10
13.755209467
 20
12.9165948812
 30
0.0
 10
13.7525806999
 20
12.9133782502
 30
0.0
 10
13.7493985395
 20
12.9095145854
 30
0.0
 10
13.7451654149
 20
12.9043640731
 30
0.0
 10
13.7398699399
 20
12.8979273959
 30
0.0
 10
13.7345785465
 20
12.8914835649
 30
0.0
 10
13.7303388913
 20
12.8863444988
 30
0.0
 10
13.7277034174
 20
12.8830961625
 30
0.0
 10
13.7255623279
 20
12.8805809018
 30
0.0
 10
13.7235406315
 20
12.8777611437
 30
0.0
 10
13.7200581954
 20
12.8726850677
 30
0.0
 10
13.7150537952
 20
12.8655077053
 30
0.0
 10
13.7090631429
 20
12.8568622581
 30
0.0
 10
13.703061165
 20
12.8482285807
 30
0.0
 10
13.6980850789
 20
12.8410217939
 30
0.0
 10
13.6945530931
 20
12.8359972108
 30
0.0
 10
13.6926106763
 20
12.833095064
 30
0.0
 10
13.690953938
 20
12.8300764603
 30
0.0
 10
13.6887851991
 20
12.8263430804
 30
0.0
 10
13.6853698821
 20
12.8203473883
 30
0.0
 10
13.6810820103
 20
12.8128604066
 30
0.0
 10
13.6742319281
 20
12.8008769504
 30
0.0
 10
13.6690920011
 20
12.7918903225
 30
0.0
 10
13.6656659087
 20
12.7858990229
 30
0.0
  0
SPLINE
  5
34E
100
AcDbEntity
  8
03__ASM_ALL_CURVES
100
AcDbSpline
 62
8
  6
PHANTOM
 70
0
 71
3
 72
89
 73
85
 74
0
 42
0.0000001
 43
0.0000001
 44
0.0000000001
 40
0.0
 40
0.0
 40
0.0
 40
0.0
 40
0.0625
 40
0.09375
 40
0.109375
 40
0.125
 40
0.140625
 40
0.15625
 40
0.16015625
 40
0.1640625
 40
0.166015625
 40
0.16796875
 40
0.171875
 40
0.1796875
 40
0.1875
 40
0.203125
 40
0.21875
 40
0.25
 40
0.28125
 40
0.296875
 40
0.3125
 40
0.3203125
 40
0.328125
 40
0.33203125
 40
0.333984375
 40
0.3359375
 40
0.33984375
 40
0.34375
 40
0.3515625
 40
0.359375
 40
0.375
 40
0.390625
 40
0.40625
 40
0.421875
 40
0.4375
 40
0.453125
 40
0.46875
 40
0.4765625
 40
0.484375
 40
0.4921875
 40
0.49609375
 40
0.498046875
 40
0.5
 40
0.501953125
 40
0.50390625
 40
0.5078125
 40
0.515625
 40
0.5234375
 40
0.53125
 40
0.546875
 40
0.5625
 40
0.578125
 40
0.59375
 40
0.609375
 40
0.625
 40
0.640625
 40
0.6484375
 40
0.65625
 40
0.66015625
 40
0.6640625
 40
0.666015625
 40
0.66796875
 40
0.671875
 40
0.6796875
 40
0.6875
 40
0.703125
 40
0.71875
 40
0.75
 40
0.78125
 40
0.796875
 40
0.8125
 40
0.8203125
 40
0.828125
 40
0.83203125
 40
0.833984375
 40
0.8359375
 40
0.83984375
 40
0.84375
 40
0.859375
 40
0.875
 40
0.890625
 40
0.90625
 40
0.9375
 40
1.0
 40
1.0
 40
1.0
 40
1.0
 10
13.6656659141
 20
12.7858990333
 30
0.0
 10
13.6608270769
 20
12.7741478339
 30
0.0
 10
13.6535687339
 20
12.7565210618
 30
0.0
 10
13.6451009725
 20
12.7359563994
 30
0.0
 10
13.6402618153
 20
12.7242052995
 30
0.0
 10
13.6366336692
 20
12.7153915945
 30
0.0
 10
13.633000854
 20
12.706579342
 30
0.0
 10
13.6302893338
 20
12.6999660802
 30
0.0
 10
13.628461294
 20
12.6955635724
 30
0.0
 10
13.6277299071
 20
12.6937197697
 30
0.0
 10
13.6270741224
 20
12.6922667129
 30
0.0
 10
13.6266768013
 20
12.6907332542
 30
0.0
 10
13.6261015776
 20
12.6880123447
 30
0.0
 10
13.6252171735
 20
12.6841448221
 30
0.0
 10
13.6238371426
 20
12.6779458931
 30
0.0
 10
13.6221001094
 20
12.6702009641
 30
0.0
 10
13.6193275907
 20
12.6578069774
 30
0.0
 10
13.6158594127
 20
12.642315317
 30
0.0
 10
13.6123929348
 20
12.6268229899
 30
0.0
 10
13.609617696
 20
12.6144300701
 30
0.0
 10
13.607887463
 20
12.6066824738
 30
0.0
 10
13.6064934917
 20
12.6004890126
 30
0.0
 10
13.6056445763
 20
12.5966075704
 30
0.0
 10
13.6050056109
 20
12.5939116621
 30
0.0
 10
13.6047104636
 20
12.5923381282
 30
0.0
 10
13.6046789258
 20
12.5906402231
 30
0.0
 10
13.6045492442
 20
12.5885604262
 30
0.0
 10
13.6043921947
 20
12.5852089529
 30
0.0
 10
13.6041786117
 20
12.5810277598
 30
0.0
 10
13.6038465318
 20
12.5743332966
 30
0.0
 10
13.6034281194
 20
12.5659667804
 30
0.0
 10
13.6029274455
 20
12.555926291
 30
0.0
 10
13.6024263878
 20
12.545885981
 30
0.0
 10
13.6019254445
 20
12.5358456232
 30
0.0
 10
13.6014244271
 20
12.5258052771
 30
0.0
 10
13.6009235919
 20
12.5157649322
 30
0.0
 10
13.6005056837
 20
12.5073979645
 30
0.0
 10
13.6001725752
 20
12.5007044223
 30
0.0
 10
13.5999194168
 20
12.4956841781
 30
0.0
 10
13.5997190343
 20
12.4915009196
 30
0.0
 10
13.5995579982
 20
12.4885720925
 30
0.0
 10
13.5994984056
 20
12.4868993298
 30
0.0
 10
13.5993623608
 20
12.4856423555
 30
0.0
 10
13.5995755032
 20
12.4843945638
 30
0.0
 10
13.5997378926
 20
12.4827276386
 30
0.0
 10
13.6000788231
 20
12.4798120118
 30
0.0
 10
13.6005361976
 20
12.4756460505
 30
0.0
 10
13.6010977464
 20
12.4706472308
 30
0.0
 10
13.601842042
 20
12.4639820213
 30
0.0
 10
13.6027739342
 20
12.4556505493
 30
0.0
 10
13.6038915501
 20
12.4456527664
 30
0.0
 10
13.6050093486
 20
12.4356549855
 30
0.0
 10
13.6061270712
 20
12.4256572132
 30
0.0
 10
13.6072449152
 20
12.4156594045
 30
0.0
 10
13.6083623494
 20
12.4056617327
 30
0.0
 10
13.6092948094
 20
12.3973299136
 30
0.0
 10
13.6100379467
 20
12.3906654122
 30
0.0
 10
13.6105088517
 20
12.386497927
 30
0.0
 10
13.6108708173
 20
12.3831689127
 30
0.0
 10
13.6111307199
 20
12.3810769301
 30
0.0
 10
13.6112615138
 20
12.3794293374
 30
0.0
 10
13.6116738808
 20
12.37768685
 30
0.0
 10
13.6125263259
 20
12.3745934144
 30
0.0
 10
13.6136758582
 20
12.3701972207
 30
0.0
 10
13.6155532498
 20
12.3631504574
 30
0.0
 10
13.6178869248
 20
12.3543464043
 30
0.0
 10
13.6216281377
 20
12.3402574592
 30
0.0
 10
13.626301916
 20
12.3226471248
 30
0.0
 10
13.6309774794
 20
12.3050364777
 30
0.0
 10
13.634715836
 20
12.2909480329
 30
0.0
 10
13.6370566516
 20
12.2821427291
 30
0.0
 10
13.6389194051
 20
12.2750985298
 30
0.0
 10
13.6401062022
 20
12.2706958087
 30
0.0
 10
13.6408917155
 20
12.267614097
 30
0.0
 10
13.6414113698
 20
12.2658528169
 30
0.0
 10
13.6421976519
 20
12.2640903989
 30
0.0
 10
13.64308937
 20
12.2618877654
 30
0.0
 10
13.6453045013
 20
12.2566011249
 30
0.0
 10
13.6485956942
 20
12.2486712985
 30
0.0
 10
13.6530019577
 20
12.2380981198
 30
0.0
 10
13.6574034045
 20
12.2275249617
 30
0.0
 10
13.6632736809
 20
12.2134274104
 30
0.0
 10
13.6735458768
 20
12.1887566989
 30
0.0
 10
13.6823508862
 20
12.1676103737
 30
0.0
 10
13.6882208325
 20
12.1535128237
 30
0.0
  0
SPLINE
  5
34F
100
AcDbEntity
  8
03__ASM_ALL_CURVES
100
AcDbSpline
 62
8
  6
PHANTOM
 70
0
 71
3
 72
110
 73
106
 74
0
 42
0.0000001
 43
0.0000001
 44
0.0000000001
 40
0.0
 40
0.0
 40
0.0
 40
0.0
 40
0.03125
 40
0.0625
 40
0.09375
 40
0.109375
 40
0.125
 40
0.140625
 40
0.1484375
 40
0.15625
 40
0.16015625
 40
0.1640625
 40
0.166015625
 40
0.1669921875
 40
0.16796875
 40
0.169921875
 40
0.171875
 40
0.17578125
 40
0.1796875
 40
0.1875
 40
0.1953125
 40
0.203125
 40
0.21875
 40
0.25
 40
0.28125
 40
0.296875
 40
0.3046875
 40
0.3125
 40
0.3203125
 40
0.32421875
 40
0.328125
 40
0.330078125
 40
0.33203125
 40
0.3330078125
 40
0.333984375
 40
0.3359375
 40
0.33984375
 40
0.34375
 40
0.3515625
 40
0.359375
 40
0.375
 40
0.390625
 40
0.40625
 40
0.421875
 40
0.4375
 40
0.453125
 40
0.46875
 40
0.4765625
 40
0.484375
 40
0.48828125
 40
0.4921875
 40
0.49609375
 40
0.498046875
 40
0.4990234375
 40
0.5
 40
0.5009765625
 40
0.501953125
 40
0.50390625
 40
0.5078125
 40
0.51171875
 40
0.515625
 40
0.5234375
 40
0.53125
 40
0.546875
 40
0.5625
 40
0.578125
 40
0.59375
 40
0.609375
 40
0.625
 40
0.640625
 40
0.6484375
 40
0.65625
 40
0.66015625
 40
0.6640625
 40
0.666015625
 40
0.6669921875
 40
0.66796875
 40
0.669921875
 40
0.671875
 40
0.6796875
 40
0.6875
 40
0.6953125
 40
0.703125
 40
0.71875
 40
0.75
 40
0.78125
 40
0.796875
 40
0.8046875
 40
0.8125
 40
0.8203125
 40
0.828125
 40
0.830078125
 40
0.83203125
 40
0.8330078125
 40
0.833984375
 40
0.8359375
 40
0.83984375
 40
0.84375
 40
0.8515625
 40
0.859375
 40
0.875
 40
0.890625
 40
0.90625
 40
0.9375
 40
1.0
 40
1.0
 40
1.0
 40
1.0
 10
13.6882208277
 20
12.1535128334
 30
0.0
 10
13.6952656884
 20
12.1420119492
 30
0.0
 10
13.7093554066
 20
12.1190101806
 30
0.0
 10
13.7304900023
 20
12.0845075298
 30
0.0
 10
13.7481021117
 20
12.0557553145
 30
0.0
 10
13.7621919188
 20
12.0327535563
 30
0.0
 10
13.7727589479
 20
12.0155021992
 30
0.0
 10
13.781565843
 20
12.0011261908
 30
0.0
 10
13.788609032
 20
11.9896251091
 30
0.0
 10
13.793016324
 20
11.9824375594
 30
0.0
 10
13.7965300222
 20
11.9766860851
 30
0.0
 10
13.7987537725
 20
11.9730946867
 30
0.0
 10
13.8002549056
 20
11.9705741483
 30
0.0
 10
13.8011995187
 20
11.9691441037
 30
0.0
 10
13.8024712054
 20
11.9677527216
 30
0.0
 10
13.8039488245
 20
11.9660002561
 30
0.0
 10
13.8063755999
 20
11.9632037092
 30
0.0
 10
13.8093876399
 20
11.9597054926
 30
0.0
 10
13.8142188808
 20
11.9541097616
 30
0.0
 10
13.8202538228
 20
11.9471146123
 30
0.0
 10
13.8274975119
 20
11.9387206409
 30
0.0
 10
13.8371551503
 20
11.9275286065
 30
0.0
 10
13.8540563052
 20
11.9079425806
 30
0.0
 10
13.8782006491
 20
11.8799625224
 30
0.0
 10
13.9023450972
 20
11.8519824834
 30
0.0
 10
13.9192461062
 20
11.8323964305
 30
0.0
 10
13.9289039738
 20
11.8212044385
 30
0.0
 10
13.9361469599
 20
11.8128103372
 30
0.0
 10
13.9421841018
 20
11.8058155946
 30
0.0
 10
13.9470108543
 20
11.8002190337
 30
0.0
 10
13.9500343171
 20
11.7967229291
 30
0.0
 10
13.9524376457
 20
11.7939220469
 30
0.0
 10
13.9539749589
 20
11.7921806189
 30
0.0
 10
13.9551241111
 20
11.7907665801
 30
0.0
 10
13.9565678705
 20
11.7894288281
 30
0.0
 10
13.9592313071
 20
11.7871232006
 30
0.0
 10
13.9629648112
 20
11.7838109569
 30
0.0
 10
13.9689783224
 20
11.7785217002
 30
0.0
 10
13.9764815479
 20
11.7719065912
 30
0.0
 10
13.9884943453
 20
11.7613243943
 30
0.0
 10
14.0035077216
 20
11.7480959696
 30
0.0
 10
14.0215248967
 20
11.7322221509
 30
0.0
 10
14.0395417701
 20
11.716348254
 30
0.0
 10
14.0575587266
 20
11.700474379
 30
0.0
 10
14.0755756529
 20
11.6846004946
 30
0.0
 10
14.0935926165
 20
11.6687266257
 30
0.0
 10
14.1086066537
 20
11.6554983581
 30
0.0
 10
14.1206181029
 20
11.6449158406
 30
0.0
 10
14.1281247594
 20
11.6383015475
 30
0.0
 10
14.134131228
 20
11.6330106161
 30
0.0
 10
14.138632949
 20
11.6290410401
 30
0.0
 10
14.1423943415
 20
11.6257374418
 30
0.0
 10
14.1450077733
 20
11.6234163241
 30
0.0
 10
14.1465316776
 20
11.6221033977
 30
0.0
 10
14.1475886454
 20
11.6210808798
 30
0.0
 10
14.1489741974
 20
11.620202941
 30
0.0
 10
14.1507069862
 20
11.6189819252
 30
0.0
 10
14.1537927673
 20
11.6168686441
 30
0.0
 10
14.1581731076
 20
11.6138373868
 30
0.0
 10
14.1634414659
 20
11.610205136
 30
0.0
 10
14.1704617697
 20
11.6053602986
 30
0.0
 10
14.1792385787
 20
11.5993048806
 30
0.0
 10
14.1932806742
 20
11.5896158603
 30
0.0
 10
14.210833568
 20
11.5775047057
 30
0.0
 10
14.2318969219
 20
11.5629712677
 30
0.0
 10
14.2529603113
 20
11.5484378464
 30
0.0
 10
14.2740236772
 20
11.5339044108
 30
0.0
 10
14.2950871019
 20
11.5193710157
 30
0.0
 10
14.3161503146
 20
11.5048374728
 30
0.0
 10
14.3337036498
 20
11.4927266461
 30
0.0
 10
14.3477448447
 20
11.4830369569
 30
0.0
 10
14.3565239458
 20
11.4769832412
 30
0.0
 10
14.3635395448
 20
11.4721349094
 30
0.0
 10
14.3679418215
 20
11.4691169303
 30
0.0
 10
14.3709882882
 20
11.4669798378
 30
0.0
 10
14.3727840859
 20
11.4657969858
 30
0.0
 10
14.3747868886
 20
11.4647585549
 30
0.0
 10
14.3772196368
 20
11.4634111525
 30
0.0
 10
14.3831164673
 20
11.4602180154
 30
0.0
 10
14.3919372537
 20
11.4554112454
 30
0.0
 10
14.4037122821
 20
11.4490119719
 30
0.0
 10
14.4154835709
 20
11.4426100894
 30
0.0
 10
14.4311799273
 20
11.4340751564
 30
0.0
 10
14.4586479402
 20
11.4191385966
 30
0.0
 10
14.4978883023
 20
11.3978009013
 30
0.0
 10
14.5371284529
 20
11.3764630304
 30
0.0
 10
14.564596762
 20
11.3615267165
 30
0.0
 10
14.5802926529
 20
11.3529913971
 30
0.0
 10
14.5920653698
 20
11.3465907003
 30
0.0
 10
14.6038350349
 20
11.3401869737
 30
0.0
 10
14.6126708401
 20
11.3353926738
 30
0.0
 10
14.61854807
 20
11.3321832623
 30
0.0
 10
14.6210167172
 20
11.330865667
 30
0.0
 10
14.6229454422
 20
11.3297657291
 30
0.0
 10
14.6250430972
 20
11.3288335102
 30
0.0
 10
14.6287924822
 20
11.3272800533
 30
0.0
 10
14.6341077951
 20
11.3250201712
 30
0.0
 10
14.6426351812
 20
11.3214270814
 30
0.0
 10
14.6532865779
 20
11.3169279393
 30
0.0
 10
14.6703331921
 20
11.3097336601
 30
0.0
 10
14.6916399572
 20
11.3007393193
 30
0.0
 10
14.7172087185
 20
11.2899467488
 30
0.0
 10
14.7513001758
 20
11.2755564321
 30
0.0
 10
14.8109603313
 20
11.2503734822
 30
0.0
 10
14.8620975713
 20
11.2287880607
 30
0.0
 10
14.8961890727
 20
11.2143977877
 30
0.0
  0
SPLINE
  5
350
100
AcDbEntity
  8
03__ASM_ALL_CURVES
100
AcDbSpline
 62
8
  6
PHANTOM
 70
0
 71
3
 72
123
 73
119
 74
0
 42
0.0000001
 43
0.0000001
 44
0.0000000001
 40
0.0
 40
0.0
 40
0.0
 40
0.0
 40
0.03125
 40
0.0625
 40
0.09375
 40
0.109375
 40
0.125
 40
0.140625
 40
0.1484375
 40
0.15625
 40
0.16015625
 40
0.1640625
 40
0.166015625
 40
0.1669921875
 40
0.16796875
 40
0.169921875
 40
0.171875
 40
0.17578125
 40
0.1796875
 40
0.1875
 40
0.1953125
 40
0.203125
 40
0.21875
 40
0.25
 40
0.28125
 40
0.296875
 40
0.3046875
 40
0.3125
 40
0.3203125
 40
0.32421875
 40
0.328125
 40
0.330078125
 40
0.33203125
 40
0.3330078125
 40
0.333984375
 40
0.3359375
 40
0.33984375
 40
0.34375
 40
0.3515625
 40
0.359375
 40
0.375
 40
0.390625
 40
0.40625
 40
0.421875
 40
0.4375
 40
0.453125
 40
0.4609375
 40
0.46875
 40
0.4765625
 40
0.484375
 40
0.48828125
 40
0.4921875
 40
0.49609375
 40
0.498046875
 40
0.4990234375
 40
0.5
 40
0.5009765625
 40
0.501953125
 40
0.50390625
 40
0.5078125
 40
0.51171875
 40
0.515625
 40
0.5234375
 40
0.53125
 40
0.5390625
 40
0.546875
 40
0.5625
 40
0.578125
 40
0.59375
 40
0.609375
 40
0.625
 40
0.640625
 40
0.6484375
 40
0.65234375
 40
0.65625
 40
0.66015625
 40
0.6640625
 40
0.6650390625
 40
0.666015625
 40
0.6665039062
 40
0.6669921875
 40
0.66796875
 40
0.669921875
 40
0.671875
 40
0.67578125
 40
0.6796875
 40
0.6875
 40
0.6953125
 40
0.703125
 40
0.71875
 40
0.75
 40
0.765625
 40
0.78125
 40
0.796875
 40
0.8046875
 40
0.8125
 40
0.8203125
 40
0.82421875
 40
0.828125
 40
0.830078125
 40
0.83203125
 40
0.8330078125
 40
0.8334960938
 40
0.833984375
 40
0.8349609375
 40
0.8359375
 40
0.83984375
 40
0.84375
 40
0.84765625
 40
0.8515625
 40
0.859375
 40
0.875
 40
0.890625
 40
0.90625
 40
0.921875
 40
0.9375
 40
0.96875
 40
1.0
 40
1.0
 40
1.0
 40
1.0
 10
14.8961890466
 20
11.2143977973
 30
0.0
 10
14.9173389742
 20
11.2079593065
 30
0.0
 10
14.9596388289
 20
11.1950823219
 30
0.0
 10
15.023088613
 20
11.1757668625
 30
0.0
 10
15.0759634271
 20
11.1596705954
 30
0.0
 10
15.1182632918
 20
11.1467936952
 30
0.0
 10
15.1499881537
 20
11.1371357103
 30
0.0
 10
15.176425655
 20
11.1290883746
 30
0.0
 10
15.1975753951
 20
11.1226482967
 30
0.0
 10
15.2107945768
 20
11.1186282791
 30
0.0
 10
15.2213685615
 20
11.1154007427
 30
0.0
 10
15.2279804064
 20
11.1134098226
 30
0.0
 10
15.2326024762
 20
11.1119634897
 30
0.0
 10
15.2352533932
 20
11.1112194504
 30
0.0
 10
15.2379409804
 20
11.1107859622
 30
0.0
 10
15.2412879085
 20
11.1101377697
 30
0.0
 10
15.2466500104
 20
11.1091600851
 30
0.0
 10
15.2533502352
 20
11.1079176328
 30
0.0
 10
15.2640719376
 20
11.1059410808
 30
0.0
 10
15.2774736049
 20
11.1034664892
 30
0.0
 10
15.2935558028
 20
11.1004986492
 30
0.0
 10
15.3149986646
 20
11.0965409465
 30
0.0
 10
15.3525237048
 20
11.08961524
 30
0.0
 10
15.406130889
 20
11.0797212167
 30
0.0
 10
15.4597380761
 20
11.0698273006
 30
0.0
 10
15.4972631123
 20
11.0629014441
 30
0.0
 10
15.5187059803
 20
11.0589439773
 30
0.0
 10
15.5347881594
 20
11.0559754135
 30
0.0
 10
15.5481898856
 20
11.0535030869
 30
0.0
 10
15.5589114678
 20
11.0515219138
 30
0.0
 10
15.5656119985
 20
11.0502912219
 30
0.0
 10
15.5709734724
 20
11.0492893974
 30
0.0
 10
15.5743219993
 20
11.0487026638
 30
0.0
 10
15.5770063048
 20
11.0481430185
 30
0.0
 10
15.5796705897
 20
11.0479128815
 30
0.0
 10
15.5843237879
 20
11.0476632123
 30
0.0
 10
15.5909760664
 20
11.0472266775
 30
0.0
 10
15.6016170002
 20
11.046572854
 30
0.0
 10
15.614919096
 20
11.0457402924
 30
0.0
 10
15.6362019303
 20
11.0444167351
 30
0.0
 10
15.6628056512
 20
11.0427593576
 30
0.0
 10
15.69473004
 20
11.0407717611
 30
0.0
 10
15.7266544491
 20
11.0387838281
 30
0.0
 10
15.7585788533
 20
11.0367959845
 30
0.0
 10
15.790503257
 20
11.0348081198
 30
0.0
 10
15.8171069323
 20
11.0331515619
 30
0.0
 10
15.8383898594
 20
11.0318263356
 30
0.0
 10
15.854352091
 20
11.0308323582
 30
0.0
 10
15.8703141839
 20
11.0298386015
 30
0.0
 10
15.8836163601
 20
11.0290097833
 30
0.0
 10
15.8942571334
 20
11.0283482686
 30
0.0
 10
15.9022403571
 20
11.0278479255
 30
0.0
 10
15.9088846342
 20
11.027444355
 30
0.0
 10
15.9135521311
 20
11.027135594
 30
0.0
 10
15.9161935042
 20
11.0270001644
 30
0.0
 10
15.9182471228
 20
11.0267830798
 30
0.0
 10
15.9200232706
 20
11.0270075422
 30
0.0
 10
15.9224882526
 20
11.0271528088
 30
0.0
 10
15.9267568773
 20
11.0274787846
 30
0.0
 10
15.9328784881
 20
11.0279069478
 30
0.0
 10
15.9402143299
 20
11.0284368021
 30
0.0
 10
15.9499989774
 20
11.0291376649
 30
0.0
 10
15.9622285771
 20
11.0300156684
 30
0.0
 10
15.9769046152
 20
11.0310684474
 30
0.0
 10
15.9915805146
 20
11.0321214471
 30
0.0
 10
16.011148429
 20
11.0335253696
 30
0.0
 10
16.0356083053
 20
11.0352802994
 30
0.0
 10
16.0649601643
 20
11.0373862031
 30
0.0
 10
16.09431202
 20
11.0394921121
 30
0.0
 10
16.1236638815
 20
11.0415980122
 30
0.0
 10
16.1530157231
 20
11.0437039425
 30
0.0
 10
16.1774756526
 20
11.045458791
 30
0.0
 10
16.1945974828
 20
11.0466873681
 30
0.0
 10
16.2043815738
 20
11.0473891261
 30
0.0
 10
16.2117191124
 20
11.0479162503
 30
0.0
 10
16.2190586754
 20
11.0484402951
 30
0.0
 10
16.2245576717
 20
11.0488419625
 30
0.0
 10
16.2282324966
 20
11.0490963134
 30
0.0
 10
16.229750538
 20
11.0492222737
 30
0.0
 10
16.2309956139
 20
11.0492764307
 30
0.0
 10
16.2321286272
 20
11.0495010481
 30
0.0
 10
16.2340593334
 20
11.0499733285
 30
0.0
 10
16.236844651
 20
11.0506066922
 30
0.0
 10
16.2412859776
 20
11.0516431671
 30
0.0
 10
16.2468428341
 20
11.0529308537
 30
0.0
 10
16.2557308992
 20
11.0549955715
 30
0.0
 10
16.2668419774
 20
11.0575749526
 30
0.0
 10
16.2801748445
 20
11.0606708587
 30
0.0
 10
16.2979521496
 20
11.0647985073
 30
0.0
 10
16.3290623641
 20
11.0720219977
 30
0.0
 10
16.3646169236
 20
11.0802773709
 30
0.0
 10
16.4001714763
 20
11.0885327569
 30
0.0
 10
16.4268373827
 20
11.0947243023
 30
0.0
 10
16.4490590015
 20
11.0998838986
 30
0.0
 10
16.4668362282
 20
11.1040116323
 30
0.0
 10
16.4801693351
 20
11.1071072778
 30
0.0
 10
16.491279663
 20
11.1096874744
 30
0.0
 10
16.5001692588
 20
11.1117505282
 30
0.0
 10
16.5057222196
 20
11.1130424497
 30
0.0
 10
16.5101715427
 20
11.1140702317
 30
0.0
 10
16.5129365017
 20
11.1147257271
 30
0.0
 10
16.5149037745
 20
11.1151582565
 30
0.0
 10
16.5159781738
 20
11.115446592
 30
0.0
 10
16.5168651654
 20
11.1158900162
 30
0.0
 10
16.5180379617
 20
11.1163912864
 30
0.0
 10
16.5207999511
 20
11.1176379646
 30
0.0
 10
16.5249650789
 20
11.1194896569
 30
0.0
 10
16.5305059262
 20
11.1219690538
 30
0.0
 10
16.5360501591
 20
11.1244456489
 30
0.0
 10
16.5434412887
 20
11.1277487531
 30
0.0
 10
16.5563763156
 20
11.13352873
 30
0.0
 10
16.5748546379
 20
11.141786078
 30
0.0
 10
16.5970287479
 20
11.1516947935
 30
0.0
 10
16.6192028249
 20
11.1616035364
 30
0.0
 10
16.6413769108
 20
11.1715122719
 30
0.0
 10
16.6709423554
 20
11.1847239218
 30
0.0
 10
16.7078991624
 20
11.2012384834
 30
0.0
 10
16.7374646076
 20
11.2144501329
 30
0.0
 10
16.7522473303
 20
11.2210559576
 30
0.0
  0
SPLINE
  5
351
100
AcDbEntity
  8
03__ASM_ALL_CURVES
100
AcDbSpline
 62
8
  6
PHANTOM
 70
0
 71
3
 72
54
 73
50
 74
0
 42
0.0000001
 43
0.0000001
 44
0.0000000001
 40
0.0
 40
0.0
 40
0.0
 40
0.0
 40
0.0625
 40
0.125
 40
0.140625
 40
0.15625
 40
0.1640625
 40
0.171875
 40
0.1875
 40
0.21875
 40
0.25
 40
0.28125
 40
0.3125
 40
0.328125
 40
0.3359375
 40
0.34375
 40
0.359375
 40
0.375
 40
0.40625
 40
0.4375
 40
0.453125
 40
0.46875
 40
0.484375
 40
0.4921875
 40
0.5
 40
0.5078125
 40
0.515625
 40
0.53125
 40
0.546875
 40
0.5625
 40
0.59375
 40
0.625
 40
0.640625
 40
0.65625
 40
0.6640625
 40
0.671875
 40
0.6875
 40
0.71875
 40
0.75
 40
0.78125
 40
0.8125
 40
0.828125
 40
0.8359375
 40
0.84375
 40
0.859375
 40
0.875
 40
0.90625
 40
0.9375
 40
1.0
 40
1.0
 40
1.0
 40
1.0
 10
16.7522472833
 20
11.2210559299
 30
0.0
 10
16.7585809186
 20
11.2250565381
 30
0.0
 10
16.7712508031
 20
11.2330561261
 30
0.0
 10
16.785492661
 20
11.2420629906
 30
0.0
 10
16.795004386
 20
11.2480568803
 30
0.0
 10
16.7989422835
 20
11.2505701097
 30
0.0
 10
16.8021516573
 20
11.2525439011
 30
0.0
 10
16.805145065
 20
11.2546522408
 30
0.0
 10
16.8102831622
 20
11.2584044232
 30
0.0
 10
16.8176758406
 20
11.2637314863
 30
0.0
 10
16.8265242733
 20
11.2701402521
 30
0.0
 10
16.8353797684
 20
11.2765369733
 30
0.0
 10
16.842754791
 20
11.2818941478
 30
0.0
 10
16.847923786
 20
11.2855936352
 30
0.0
 10
16.8508677572
 20
11.2877862869
 30
0.0
 10
16.8537751397
 20
11.2902751494
 30
0.0
 10
16.8574219035
 20
11.293284804
 30
0.0
 10
16.8632496749
 20
11.2981569399
 30
0.0
 10
16.8705371271
 20
11.3042276394
 30
0.0
 10
16.8778224408
 20
11.3103053597
 30
0.0
 10
16.8836536337
 20
11.3151662624
 30
0.0
 10
16.8880194858
 20
11.3188115476
 30
0.0
 10
16.8916816118
 20
11.3218511218
 30
0.0
 10
16.8945576857
 20
11.3242785694
 30
0.0
 10
16.8968612724
 20
11.3261106885
 30
0.0
 10
16.8986055476
 20
11.3278987799
 30
0.0
 10
16.901126623
 20
11.3302982796
 30
0.0
 10
16.9042109318
 20
11.3332923898
 30
0.0
 10
16.9079408103
 20
11.3368875247
 30
0.0
 10
16.9129038818
 20
11.3416805209
 30
0.0
 10
16.9191116993
 20
11.347670137
 30
0.0
 10
16.9253162292
 20
11.3536669157
 30
0.0
 10
16.9302845608
 20
11.3584484517
 30
0.0
 10
16.9333796428
 20
11.361473048
 30
0.0
 10
16.9358788321
 20
11.3638099696
 30
0.0
 10
16.9382936265
 20
11.3664490039
 30
0.0
 10
16.9424802464
 20
11.3712077074
 30
0.0
 10
16.9484821074
 20
11.3779322411
 30
0.0
 10
16.9556734193
 20
11.3860341304
 30
0.0
 10
16.9628748556
 20
11.3941240068
 30
0.0
 10
16.9688514056
 20
11.4008785729
 30
0.0
 10
16.9730823197
 20
11.4055847196
 30
0.0
 10
16.9754262434
 20
11.4083078449
 30
0.0
 10
16.9774924551
 20
11.4111585111
 30
0.0
 10
16.980170308
 20
11.4146781739
 30
0.0
 10
16.9844017318
 20
11.4203340398
 30
0.0
 10
16.9897092149
 20
11.4273955121
 30
0.0
 10
16.9981909683
 20
11.4386985611
 30
0.0
 10
17.0045545828
 20
11.4471747919
 30
0.0
 10
17.0087964815
 20
11.4528258471
 30
0.0
  0
SPLINE
  5
352
100
AcDbEntity
  8
03__ASM_ALL_CURVES
100
AcDbSpline
 62
8
  6
PHANTOM
 70
0
 71
3
 72
91
 73
87
 74
0
 42
0.0000001
 43
0.0000001
 44
0.0000000001
 40
0.0
 40
0.0
 40
0.0
 40
0.0
 40
0.0625
 40
0.09375
 40
0.109375
 40
0.125
 40
0.140625
 40
0.1484375
 40
0.15625
 40
0.16015625
 40
0.1640625
 40
0.166015625
 40
0.16796875
 40
0.171875
 40
0.1796875
 40
0.1875
 40
0.203125
 40
0.21875
 40
0.25
 40
0.28125
 40
0.296875
 40
0.3125
 40
0.3203125
 40
0.328125
 40
0.33203125
 40
0.333984375
 40
0.3359375
 40
0.33984375
 40
0.34375
 40
0.3515625
 40
0.359375
 40
0.375
 40
0.390625
 40
0.40625
 40
0.421875
 40
0.4375
 40
0.453125
 40
0.46875
 40
0.4765625
 40
0.484375
 40
0.4921875
 40
0.49609375
 40
0.498046875
 40
0.5
 40
0.501953125
 40
0.50390625
 40
0.5078125
 40
0.515625
 40
0.5234375
 40
0.53125
 40
0.546875
 40
0.5625
 40
0.578125
 40
0.59375
 40
0.609375
 40
0.625
 40
0.640625
 40
0.6484375
 40
0.65625
 40
0.66015625
 40
0.6640625
 40
0.666015625
 40
0.66796875
 40
0.671875
 40
0.6796875
 40
0.6875
 40
0.703125
 40
0.71875
 40
0.75
 40
0.78125
 40
0.796875
 40
0.8125
 40
0.8203125
 40
0.828125
 40
0.83203125
 40
0.833984375
 40
0.8359375
 40
0.83984375
 40
0.84375
 40
0.8515625
 40
0.859375
 40
0.875
 40
0.890625
 40
0.90625
 40
0.9375
 40
1.0
 40
1.0
 40
1.0
 40
1.0
 10
17.0087964733
 20
11.4528258352
 30
0.0
 10
17.0159438345
 20
11.4656650339
 30
0.0
 10
17.0266648427
 20
11.4849238437
 30
0.0
 10
17.0391728029
 20
11.507392414
 30
0.0
 10
17.0463200413
 20
11.5202316557
 30
0.0
 10
17.0516809389
 20
11.5298609229
 30
0.0
 10
17.0561468606
 20
11.5378858348
 30
0.0
 10
17.0597229466
 20
11.5443045921
 30
0.0
 10
17.0619503753
 20
11.5483189845
 30
0.0
 10
17.0637497813
 20
11.5515243858
 30
0.0
 10
17.0648345651
 20
11.5535417086
 30
0.0
 10
17.0657936541
 20
11.5551236222
 30
0.0
 10
17.0664195712
 20
11.5568221571
 30
0.0
 10
17.0673601535
 20
11.5598487687
 30
0.0
 10
17.0687845952
 20
11.5641442336
 30
0.0
 10
17.0710185726
 20
11.571032774
 30
0.0
 10
17.0738265034
 20
11.5796380388
 30
0.0
 10
17.0783105132
 20
11.5934094976
 30
0.0
 10
17.0839187859
 20
11.6106227003
 30
0.0
 10
17.0895248661
 20
11.6278365925
 30
0.0
 10
17.0940123839
 20
11.6416069482
 30
0.0
 10
17.0968115448
 20
11.650214971
 30
0.0
 10
17.0990635005
 20
11.6570978575
 30
0.0
 10
17.1004421744
 20
11.6614077157
 30
0.0
 10
17.1014649605
 20
11.6644084753
 30
0.0
 10
17.1019591104
 20
11.6661484492
 30
0.0
 10
17.1021130896
 20
11.6679835589
 30
0.0
 10
17.1024220374
 20
11.6702448717
 30
0.0
 10
17.1028512628
 20
11.6738811763
 30
0.0
 10
17.1034100819
 20
11.6784203238
 30
0.0
 10
17.1042917359
 20
11.6856864437
 30
0.0
 10
17.1053980781
 20
11.6947678979
 30
0.0
 10
17.106723855
 20
11.7056661558
 30
0.0
 10
17.1080501273
 20
11.7165642755
 30
0.0
 10
17.109376252
 20
11.7274624354
 30
0.0
 10
17.1107024715
 20
11.7383605728
 30
0.0
 10
17.1120284595
 20
11.7492587597
 30
0.0
 10
17.1131341421
 20
11.7583404357
 30
0.0
 10
17.1140171419
 20
11.7656061033
 30
0.0
 10
17.1146836149
 20
11.7710544615
 30
0.0
 10
17.1152255761
 20
11.7755975986
 30
0.0
 10
17.1156313105
 20
11.7787722241
 30
0.0
 10
17.1158219974
 20
11.7805949936
 30
0.0
 10
17.1160809646
 20
11.7819375689
 30
0.0
 10
17.1158967044
 20
11.7833738026
 30
0.0
 10
17.1158056269
 20
11.7852561117
 30
0.0
 10
17.1155742089
 20
11.7885653739
 30
0.0
 10
17.115281271
 20
11.7932849334
 30
0.0
 10
17.1149136261
 20
11.7989518111
 30
0.0
 10
17.1144290637
 20
11.8065064582
 30
0.0
 10
17.113821428
 20
11.8159501753
 30
0.0
 10
17.1130930961
 20
11.8272824606
 30
0.0
 10
17.1123645328
 20
11.838614794
 30
0.0
 10
17.1116360643
 20
11.8499471099
 30
0.0
 10
17.1109074478
 20
11.861279448
 30
0.0
 10
17.1101793285
 20
11.8726117146
 30
0.0
 10
17.1095710287
 20
11.8820554899
 30
0.0
 10
17.1090878211
 20
11.8896100185
 30
0.0
 10
17.1087780025
 20
11.8943327179
 30
0.0
 10
17.1085480427
 20
11.8981083148
 30
0.0
 10
17.1083634872
 20
11.9004739098
 30
0.0
 10
17.1083093625
 20
11.9023529939
 30
0.0
 10
17.1079138237
 20
11.9042809679
 30
0.0
 10
17.1070630295
 20
11.9076776337
 30
0.0
 10
17.1059303596
 20
11.9125181638
 30
0.0
 10
17.104071842
 20
11.9202696343
 30
0.0
 10
17.1017645364
 20
11.9299567041
 30
0.0
 10
17.0980639538
 20
11.9454572883
 30
0.0
 10
17.0934415628
 20
11.9648325471
 30
0.0
 10
17.0888169399
 20
11.9842081014
 30
0.0
 10
17.0851199283
 20
11.9997082128
 30
0.0
 10
17.082803695
 20
12.0093964647
 30
0.0
 10
17.0809634794
 20
12.0171455117
 30
0.0
 10
17.0797842174
 20
12.0219922112
 30
0.0
 10
17.0790171076
 20
12.0253777962
 30
0.0
 10
17.0784874284
 20
12.0273235321
 30
0.0
 10
17.0776136929
 20
12.0293111435
 30
0.0
 10
17.0766393277
 20
12.0317813197
 30
0.0
 10
17.075014509
 20
12.0357416143
 30
0.0
 10
17.0730060275
 20
12.040689239
 30
0.0
 10
17.0697798583
 20
12.0486069719
 30
0.0
 10
17.0657514694
 20
12.0585036119
 30
0.0
 10
17.0609155527
 20
12.0703798051
 30
0.0
 10
17.0544683092
 20
12.0862146509
 30
0.0
 10
17.0431853305
 20
12.1139256677
 30
0.0
 10
17.0335143096
 20
12.1376779552
 30
0.0
 10
17.0270669393
 20
12.1535128164
 30
0.0
  0
LINE
  5
353
100
AcDbEntity
  8
03__ASM_ALL_CURVES
100
AcDbLine
 62
8
  6
HIDDEN
 10
15.7038737697
 20
11.9699205889
 11
15.701266208
 21
11.975086102
  0
LINE
  5
354
100
AcDbEntity
  8
03__ASM_ALL_CURVES
100
AcDbLine
 62
8
  6
HIDDEN
 10
15.7012662082
 20
11.9750861018
 11
15.697931752
 21
11.9813088558
  0
SPLINE
  5
355
100
AcDbEntity
  8
03__ASM_ALL_CURVES
100
AcDbSpline
 62
8
  6
HIDDEN
 70
0
 71
3
 72
27
 73
23
 74
0
 42
0.0000001
 43
0.0000001
 44
0.0000000001
 40
0.0
 40
0.0
 40
0.0
 40
0.0
 40
0.0625
 40
0.125
 40
0.15625
 40
0.1875
 40
0.25
 40
0.3125
 40
0.375
 40
0.4375
 40
0.46875
 40
0.5
 40
0.53125
 40
0.5625
 40
0.625
 40
0.65625
 40
0.6875
 40
0.75
 40
0.8125
 40
0.84375
 40
0.875
 40
1.0
 40
1.0
 40
1.0
 40
1.0
 10
15.6979317521
 20
11.9813088556
 30
0.0
 10
15.6972462248
 20
11.9824933315
 30
0.0
 10
15.6958823571
 20
11.9848562387
 30
0.0
 10
15.6941415882
 20
11.9878400964
 30
0.0
 10
15.6928244351
 20
11.9901637126
 30
0.0
 10
15.6912341812
 20
11.9927170297
 30
0.0
 10
15.6891394511
 20
11.9959860897
 30
0.0
 10
15.6867242711
 20
11.9998811581
 30
0.0
 10
15.6840861667
 20
12.0037635789
 30
0.0
 10
15.6818393881
 20
12.0070066589
 30
0.0
 10
15.6800566796
 20
12.0095716168
 30
0.0
 10
15.67870452
 20
12.011579216
 30
0.0
 10
15.6774055161
 20
12.0132660451
 30
0.0
 10
15.6756599072
 20
12.0156238249
 30
0.0
 10
15.6738896088
 20
12.0179710987
 30
0.0
 10
15.6722035817
 20
12.0202683847
 30
0.0
 10
15.6702133889
 20
12.0227796299
 30
0.0
 10
15.6676142329
 20
12.0259950791
 30
0.0
 10
15.6650785046
 20
12.0291770424
 30
0.0
 10
15.6629868275
 20
12.031741865
 30
0.0
 10
15.6595603453
 20
12.0356591824
 30
0.0
 10
15.6567801952
 20
12.0389053627
 30
0.0
 10
15.6545319946
 20
12.0415081472
 30
0.0
  0
LINE
  5
356
100
AcDbEntity
  8
03__ASM_ALL_CURVES
100
AcDbLine
 62
8
  6
HIDDEN
 10
15.6545319935
 20
12.0415081484
 11
15.6489165695
 21
12.0476532993
  0
SPLINE
  5
357
100
AcDbEntity
  8
03__ASM_ALL_CURVES
100
AcDbSpline
 62
8
  6
HIDDEN
 70
0
 71
3
 72
115
 73
111
 74
0
 42
0.0000001
 43
0.0000001
 44
0.0000000001
 40
0.0
 40
0.0
 40
0.0
 40
0.0
 40
0.03125
 40
0.0625
 40
0.078125
 40
0.09375
 40
0.1015625
 40
0.109375
 40
0.1171875
 40
0.12109375
 40
0.123046875
 40
0.125
 40
0.126953125
 40
0.12890625
 40
0.1328125
 40
0.140625
 40
0.1484375
 40
0.15625
 40
0.171875
 40
0.1875
 40
0.203125
 40
0.21875
 40
0.2265625
 40
0.234375
 40
0.2421875
 40
0.24609375
 40
0.248046875
 40
0.25
 40
0.251953125
 40
0.25390625
 40
0.2578125
 40
0.265625
 40
0.2734375
 40
0.28125
 40
0.296875
 40
0.3125
 40
0.328125
 40
0.34375
 40
0.3515625
 40
0.359375
 40
0.3671875
 40
0.37109375
 40
0.375
 40
0.37890625
 40
0.3828125
 40
0.390625
 40
0.3984375
 40
0.40625
 40
0.421875
 40
0.4375
 40
0.453125
 40
0.46875
 40
0.484375
 40
0.4921875
 40
0.49609375
 40
0.5
 40
0.50390625
 40
0.5078125
 40
0.515625
 40
0.53125
 40
0.546875
 40
0.5625
 40
0.578125
 40
0.59375
 40
0.6015625
 40
0.609375
 40
0.6171875
 40
0.62109375
 40
0.625
 40
0.62890625
 40
0.6328125
 40
0.640625
 40
0.6484375
 40
0.65625
 40
0.671875
 40
0.6875
 40
0.703125
 40
0.71875
 40
0.7265625
 40
0.734375
 40
0.7421875
 40
0.74609375
 40
0.748046875
 40
0.75
 40
0.751953125
 40
0.75390625
 40
0.7578125
 40
0.765625
 40
0.7734375
 40
0.78125
 40
0.796875
 40
0.8125
 40
0.828125
 40
0.84375
 40
0.8515625
 40
0.859375
 40
0.8671875
 40
0.87109375
 40
0.873046875
 40
0.875
 40
0.876953125
 40
0.87890625
 40
0.8828125
 40
0.890625
 40
0.8984375
 40
0.90625
 40
0.921875
 40
0.9375
 40
0.96875
 40
1.0
 40
1.0
 40
1.0
 40
1.0
 10
15.6489165693
 20
12.0476532994
 30
0.0
 10
15.6443407517
 20
12.0518181004
 30
0.0
 10
15.6351890965
 20
12.0601476937
 30
0.0
 10
15.6237496273
 20
12.0705597287
 30
0.0
 10
15.6145978424
 20
12.0788892654
 30
0.0
 10
15.6088784507
 20
12.0840954324
 30
0.0
 10
15.6043018523
 20
12.0882598932
 30
0.0
 10
15.6008723745
 20
12.0913845333
 30
0.0
 10
15.5980050253
 20
12.093984282
 30
0.0
 10
15.5960164281
 20
12.0958121876
 30
0.0
 10
15.5948511268
 20
12.0968440865
 30
0.0
 10
15.5940587317
 20
12.0976535576
 30
0.0
 10
15.5929544933
 20
12.0983271501
 30
0.0
 10
15.5915909498
 20
12.0992726695
 30
0.0
 10
15.5891540686
 20
12.1009052457
 30
0.0
 10
15.5856993059
 20
12.1032490426
 30
0.0
 10
15.5815422492
 20
12.106056657
 30
0.0
 10
15.5760034697
 20
12.1098018698
 30
0.0
 10
15.5690786287
 20
12.114482788
 30
0.0
 10
15.5607694354
 20
12.1201001691
 30
0.0
 10
15.5524599647
 20
12.1257173898
 30
0.0
 10
15.5455358171
 20
12.1303987088
 30
0.0
 10
15.5399956507
 20
12.1341431201
 30
0.0
 10
15.5358428242
 20
12.1369531792
 30
0.0
 10
15.5323748277
 20
12.1392893279
 30
0.0
 10
15.5299615709
 20
12.1409355573
 30
0.0
 10
15.5285601752
 20
12.1418592009
 30
0.0
 10
15.5275722066
 20
12.1425999887
 30
0.0
 10
15.5263431211
 20
12.1431570854
 30
0.0
 10
15.5247884447
 20
12.1439639545
 30
0.0
 10
15.5220285752
 20
12.1453461223
 30
0.0
 10
15.5181063911
 20
12.1473362552
 30
0.0
 10
15.5133910017
 20
12.1497177347
 30
0.0
 10
15.5071068769
 20
12.1528953716
 30
0.0
 10
15.4992506834
 20
12.1568666359
 30
0.0
 10
15.4898236395
 20
12.1616324095
 30
0.0
 10
15.4803967025
 20
12.1663984083
 30
0.0
 10
15.4725402421
 20
12.1703691094
 30
0.0
 10
15.4662566511
 20
12.1735478727
 30
0.0
 10
15.4615396335
 20
12.1759259166
 30
0.0
 10
15.457622543
 20
12.1779267974
 30
0.0
 10
15.4544580148
 20
12.1794844903
 30
0.0
 10
15.4521689314
 20
12.1807702887
 30
0.0
 10
15.449558025
 20
12.1816074781
 30
0.0
 10
15.4461892333
 20
12.1828804356
 30
0.0
 10
15.4419396742
 20
12.1844178683
 30
0.0
 10
15.4368567118
 20
12.1862857983
 30
0.0
 10
15.430073665
 20
12.1887683443
 30
0.0
 10
15.4215968122
 20
12.1918742051
 30
0.0
 10
15.411423847
 20
12.1956004229
 30
0.0
 10
15.4012507199
 20
12.1993256162
 30
0.0
 10
15.3910789823
 20
12.2030557227
 30
0.0
 10
15.3825980374
 20
12.2061486212
 30
0.0
 10
15.3766702117
 20
12.2083441002
 30
0.0
 10
15.3732690848
 20
12.2095511166
 30
0.0
 10
15.3707571087
 20
12.2105903078
 30
0.0
 10
15.3680965555
 20
12.2111175551
 30
0.0
 10
15.3646009766
 20
12.2119991233
 30
0.0
 10
15.3584595668
 20
12.2134586676
 30
0.0
 10
15.3496987507
 20
12.2155872297
 30
0.0
 10
15.3391803567
 20
12.2181228814
 30
0.0
 10
15.3286634191
 20
12.2206634262
 30
0.0
 10
15.3181460707
 20
12.2232030218
 30
0.0
 10
15.3093817694
 20
12.2253184377
 30
0.0
 10
15.3023701599
 20
12.227013438
 30
0.0
 10
15.2971118648
 20
12.2282772338
 30
0.0
 10
15.2927286491
 20
12.2293541334
 30
0.0
 10
15.289224998
 20
12.2301624129
 30
0.0
 10
15.2865892773
 20
12.2309141015
 30
0.0
 10
15.283984025
 20
12.231110494
 30
0.0
 10
15.2804997122
 20
12.2315663229
 30
0.0
 10
15.2761479727
 20
12.2320695581
 30
0.0
 10
15.2709243225
 20
12.2327019263
 30
0.0
 10
15.263960001
 20
12.2335351344
 30
0.0
 10
15.255254415
 20
12.2345800505
 30
0.0
 10
15.2448077777
 20
12.2358325253
 30
0.0
 10
15.2343611711
 20
12.2370852485
 30
0.0
 10
15.2256555083
 20
12.2381295438
 30
0.0
 10
15.2186913403
 20
12.2389639935
 30
0.0
 10
15.2134672221
 20
12.2395925748
 30
0.0
 10
15.2091169467
 20
12.240107657
 30
0.0
 10
15.2060655595
 20
12.2404853586
 30
0.0
 10
15.2043315817
 20
12.240674419
 30
0.0
 10
15.203003852
 20
12.2408916232
 30
0.0
 10
15.2017802716
 20
12.2408205764
 30
0.0
 10
15.2001125026
 20
12.2408263925
 30
0.0
 10
15.197210833
 20
12.2407897249
 30
0.0
 10
15.1930567414
 20
12.2407618341
 30
0.0
 10
15.1880756195
 20
12.2407178818
 30
0.0
 10
15.1814327998
 20
12.2406629418
 30
0.0
 10
15.1731297339
 20
12.2405930014
 30
0.0
 10
15.1631658384
 20
12.2405096523
 30
0.0
 10
15.1532020745
 20
12.2404260106
 30
0.0
 10
15.1448986797
 20
12.2403568017
 30
0.0
 10
15.1382565177
 20
12.2403003987
 30
0.0
 10
15.1332733896
 20
12.2402609088
 30
0.0
 10
15.1291255742
 20
12.2402190575
 30
0.0
 10
15.1262127007
 20
12.2402073116
 30
0.0
 10
15.1245628831
 20
12.2401731968
 30
0.0
 10
15.1232841616
 20
12.2402248051
 30
0.0
 10
15.1221635329
 20
12.2399813371
 30
0.0
 10
15.1206142167
 20
12.239759639
 30
0.0
 10
15.1179286063
 20
12.2393237121
 30
0.0
 10
15.1140785875
 20
12.238726031
 30
0.0
 10
15.1094643145
 20
12.2379980823
 30
0.0
 10
15.1033099423
 20
12.2370312323
 30
0.0
 10
15.0956176646
 20
12.2358213862
 30
0.0
 10
15.0833096359
 20
12.2338863502
 30
0.0
 10
15.0679247328
 20
12.2314673073
 30
0.0
 10
15.0556167699
 20
12.2295321485
 30
0.0
 10
15.0494627935
 20
12.2285645596
 30
0.0
  0
SPLINE
  5
358
100
AcDbEntity
  8
03__ASM_ALL_CURVES
100
AcDbSpline
 62
8
  6
HIDDEN
 70
0
 71
3
 72
53
 73
49
 74
0
 42
0.0000001
 43
0.0000001
 44
0.0000000001
 40
0.0
 40
0.0
 40
0.0
 40
0.0
 40
0.0625
 40
0.09375
 40
0.125
 40
0.140625
 40
0.15625
 40
0.1640625
 40
0.171875
 40
0.1875
 40
0.21875
 40
0.25
 40
0.28125
 40
0.3125
 40
0.328125
 40
0.3359375
 40
0.34375
 40
0.359375
 40
0.375
 40
0.4375
 40
0.46875
 40
0.484375
 40
0.4921875
 40
0.5
 40
0.5078125
 40
0.515625
 40
0.53125
 40
0.5625
 40
0.625
 40
0.640625
 40
0.65625
 40
0.6640625
 40
0.671875
 40
0.6796875
 40
0.6875
 40
0.71875
 40
0.75
 40
0.78125
 40
0.8125
 40
0.8203125
 40
0.828125
 40
0.8359375
 40
0.84375
 40
0.859375
 40
0.875
 40
0.90625
 40
0.9375
 40
1.0
 40
1.0
 40
1.0
 40
1.0
 10
15.0494627795
 20
12.2285645562
 30
0.0
 10
15.044757493
 20
12.2271429009
 30
0.0
 10
15.0377000592
 20
12.2250097667
 30
0.0
 10
15.0282881633
 20
12.222168193
 30
0.0
 10
15.0224098622
 20
12.2203867819
 30
0.0
 10
15.0176977963
 20
12.2189740278
 30
0.0
 10
15.0147742507
 20
12.2180628332
 30
0.0
 10
15.0123861809
 20
12.2173985199
 30
0.0
 10
15.0101778482
 20
12.2164982156
 30
0.0
 10
15.0063968362
 20
12.2148129938
 30
0.0
 10
15.0009512388
 20
12.2124632152
 30
0.0
 10
14.9944374324
 20
12.2096173301
 30
0.0
 10
14.9879106269
 20
12.2067837585
 30
0.0
 10
14.9824975273
 20
12.2044031964
 30
0.0
 10
14.9786596441
 20
12.2027718457
 30
0.0
 10
14.9765423053
 20
12.2017853477
 30
0.0
 10
14.974710122
 20
12.2005944671
 30
0.0
 10
14.9723223548
 20
12.199175769
 30
0.0
 10
14.9666726122
 20
12.1957129756
 30
0.0
 10
14.9600477853
 20
12.1916963348
 30
0.0
 10
14.9534525536
 20
12.1876605178
 30
0.0
 10
14.9501306212
 20
12.1856574027
 30
0.0
 10
14.9482698317
 20
12.1844901448
 30
0.0
 10
14.9467688145
 20
12.1836783369
 30
0.0
 10
14.9456707689
 20
12.1826232972
 30
0.0
 10
14.9440661389
 20
12.1813014226
 30
0.0
 10
14.9413236123
 20
12.1789485804
 30
0.0
 10
14.9357896354
 20
12.1742721998
 30
0.0
 10
14.9302868978
 20
12.169578243
 30
0.0
 10
14.9255382698
 20
12.1655715834
 30
0.0
 10
14.9235981251
 20
12.163882625
 30
0.0
 10
14.9219569281
 20
12.1625766256
 30
0.0
 10
14.9209702041
 20
12.1614733342
 30
0.0
 10
14.9200519108
 20
12.1603353498
 30
0.0
 10
14.9181801152
 20
12.158077232
 30
0.0
 10
14.9153873278
 20
12.154682487
 30
0.0
 10
14.9116545312
 20
12.1501608228
 30
0.0
 10
14.9079262551
 20
12.1456366545
 30
0.0
 10
14.9051232964
 20
12.1422475435
 30
0.0
 10
14.9032644974
 20
12.1399822267
 30
0.0
 10
14.9023176683
 20
12.1388600488
 30
0.0
 10
14.9014385895
 20
12.1376971307
 30
0.0
 10
14.9005888467
 20
12.1359527262
 30
0.0
 10
14.8994162918
 20
12.1338385936
 30
0.0
 10
14.8976018887
 20
12.1304188883
 30
0.0
 10
14.8953127548
 20
12.1261569629
 30
0.0
 10
14.891662003
 20
12.1193307489
 30
0.0
 10
14.8889212701
 20
12.1142126934
 30
0.0
 10
14.887094708
 20
12.1108002998
 30
0.0
  0
SPLINE
  5
359
100
AcDbEntity
  8
03__ASM_ALL_CURVES
100
AcDbSpline
 62
8
  6
HIDDEN
 70
0
 71
3
 72
47
 73
43
 74
0
 42
0.0000001
 43
0.0000001
 44
0.0000000001
 40
0.0
 40
0.0
 40
0.0
 40
0.0
 40
0.0625
 40
0.125
 40
0.140625
 40
0.15625
 40
0.1640625
 40
0.171875
 40
0.1875
 40
0.21875
 40
0.25
 40
0.28125
 40
0.3125
 40
0.328125
 40
0.3359375
 40
0.34375
 40
0.359375
 40
0.375
 40
0.4375
 40
0.46875
 40
0.484375
 40
0.5
 40
0.515625
 40
0.53125
 40
0.5625
 40
0.625
 40
0.640625
 40
0.65625
 40
0.6640625
 40
0.671875
 40
0.6875
 40
0.71875
 40
0.75
 40
0.78125
 40
0.8125
 40
0.828125
 40
0.8359375
 40
0.84375
 40
0.859375
 40
0.875
 40
0.9375
 40
1.0
 40
1.0
 40
1.0
 40
1.0
 10
14.8870947054
 20
12.1108002933
 30
0.0
 10
14.8862359416
 20
12.1080924484
 30
0.0
 10
14.8845157913
 20
12.1026775019
 30
0.0
 10
14.8825924245
 20
12.0965823424
 30
0.0
 10
14.8812929684
 20
12.0925237803
 30
0.0
 10
14.880776936
 20
12.0908255125
 30
0.0
 10
14.8803048528
 20
12.0894836911
 30
0.0
 10
14.8800494723
 20
12.0880804586
 30
0.0
 10
14.8797033045
 20
12.0855962535
 30
0.0
 10
14.8791557508
 20
12.0820623959
 30
0.0
 10
14.8785229401
 20
12.077814987
 30
0.0
 10
14.8778779598
 20
12.0735706866
 30
0.0
 10
14.8773608301
 20
12.0700290576
 30
0.0
 10
14.8769614204
 20
12.0675584524
 30
0.0
 10
14.8767912268
 20
12.0661334601
 30
0.0
 10
14.8768394746
 20
12.0646587242
 30
0.0
 10
14.8768252309
 20
12.0628322883
 30
0.0
 10
14.8768514356
 20
12.0584350273
 30
0.0
 10
14.8768732949
 20
12.053307547
 30
0.0
 10
14.8768684519
 20
12.048184182
 30
0.0
 10
14.8769174344
 20
12.0452476677
 30
0.0
 10
14.8768065509
 20
12.0430707377
 30
0.0
 10
14.8772602736
 20
12.0407964233
 30
0.0
 10
14.8776684089
 20
12.0377979615
 30
0.0
 10
14.8784732213
 20
12.0325349456
 30
0.0
 10
14.8792512548
 20
12.0272770388
 30
0.0
 10
14.879910827
 20
12.0227705332
 30
0.0
 10
14.8802105901
 20
12.0208899368
 30
0.0
 10
14.8803912728
 20
12.0193923583
 30
0.0
 10
14.8807885132
 20
12.0178694938
 30
0.0
 10
14.8815843788
 20
12.0151927251
 30
0.0
 10
14.8826683381
 20
12.0113749371
 30
0.0
 10
14.8839932889
 20
12.006790859
 30
0.0
 10
14.8853062277
 20
12.0022078432
 30
0.0
 10
14.8864202169
 20
11.9983873994
 30
0.0
 10
14.8871635301
 20
11.9957152784
 30
0.0
 10
14.8876448543
 20
11.9941849776
 30
0.0
 10
14.888339129
 20
11.9926419804
 30
0.0
 10
14.8891341835
 20
11.9907175736
 30
0.0
 10
14.8911022367
 20
11.9860954248
 30
0.0
 10
14.894028946
 20
11.9791637141
 30
0.0
 10
14.8966407747
 20
11.9730015788
 30
0.0
 10
14.8979454004
 20
11.9699205881
 30
0.0
  0
SPLINE
  5
35A
100
AcDbEntity
  8
03__ASM_ALL_CURVES
100
AcDbSpline
 62
8
  6
HIDDEN
 70
0
 71
3
 72
167
 73
163
 74
0
 42
0.0000001
 43
0.0000001
 44
0.0000000001
 40
0.0
 40
0.0
 40
0.0
 40
0.0
 40
0.015625
 40
0.03125
 40
0.046875
 40
0.0546875
 40
0.0625
 40
0.0703125
 40
0.07421875
 40
0.076171875
 40
0.0771484375
 40
0.078125
 40
0.080078125
 40
0.08203125
 40
0.0859375
 40
0.08984375
 40
0.09375
 40
0.1015625
 40
0.109375
 40
0.125
 40
0.1328125
 40
0.140625
 40
0.1484375
 40
0.150390625
 40
0.15234375
 40
0.154296875
 40
0.15625
 40
0.16015625
 40
0.1640625
 40
0.171875
 40
0.1796875
 40
0.1875
 40
0.203125
 40
0.21875
 40
0.22265625
 40
0.2265625
 40
0.228515625
 40
0.23046875
 40
0.232421875
 40
0.234375
 40
0.23828125
 40
0.2421875
 40
0.25
 40
0.2578125
 40
0.265625
 40
0.28125
 40
0.2890625
 40
0.296875
 40
0.30078125
 40
0.3046875
 40
0.30859375
 40
0.310546875
 40
0.3125
 40
0.31640625
 40
0.3203125
 40
0.328125
 40
0.34375
 40
0.359375
 40
0.3671875
 40
0.375
 40
0.37890625
 40
0.3828125
 40
0.384765625
 40
0.38671875
 40
0.390625
 40
0.3984375
 40
0.40625
 40
0.421875
 40
0.4375
 40
0.4453125
 40
0.453125
 40
0.45703125
 40
0.458984375
 40
0.4609375
 40
0.46484375
 40
0.46875
 40
0.4765625
 40
0.484375
 40
0.5
 40
0.515625
 40
0.5234375
 40
0.53125
 40
0.53515625
 40
0.5390625
 40
0.541015625
 40
0.54296875
 40
0.546875
 40
0.5546875
 40
0.5625
 40
0.578125
 40
0.59375
 40
0.6015625
 40
0.609375
 40
0.61328125
 40
0.615234375
 40
0.6171875
 40
0.62109375
 40
0.625
 40
0.6328125
 40
0.640625
 40
0.65625
 40
0.6640625
 40
0.671875
 40
0.6796875
 40
0.68359375
 40
0.6875
 40
0.689453125
 40
0.69140625
 40
0.6923828125
 40
0.693359375
 40
0.6953125
 40
0.69921875
 40
0.703125
 40
0.7109375
 40
0.71875
 40
0.734375
 40
0.7421875
 40
0.75
 40
0.7578125
 40
0.76171875
 40
0.765625
 40
0.767578125
 40
0.76953125
 40
0.7705078125
 40
0.771484375
 40
0.7734375
 40
0.77734375
 40
0.78125
 40
0.7890625
 40
0.796875
 40
0.8125
 40
0.8203125
 40
0.828125
 40
0.8359375
 40
0.83984375
 40
0.841796875
 40
0.84375
 40
0.845703125
 40
0.84765625
 40
0.849609375
 40
0.8515625
 40
0.859375
 40
0.8671875
 40
0.875
 40
0.890625
 40
0.8984375
 40
0.90625
 40
0.91015625
 40
0.9140625
 40
0.91796875
 40
0.919921875
 40
0.921875
 40
0.9228515625
 40
0.923828125
 40
0.92578125
 40
0.9296875
 40
0.9375
 40
0.9453125
 40
0.953125
 40
0.96875
 40
0.984375
 40
1.0
 40
1.0
 40
1.0
 40
1.0
 10
14.8979454
 20
11.9699205889
 30
0.0
 10
14.9003698236
 20
11.9661550852
 30
0.0
 10
14.9052186798
 20
11.9586240792
 30
0.0
 10
14.9124919114
 20
11.9473275621
 30
0.0
 10
14.9185530915
 20
11.9379138211
 30
0.0
 10
14.9234016928
 20
11.9303827764
 30
0.0
 10
14.9270390798
 20
11.9247346347
 30
0.0
 10
14.9300672582
 20
11.9200273989
 30
0.0
 10
14.9321928263
 20
11.916733219
 30
0.0
 10
14.933247627
 20
11.9150849198
 30
0.0
 10
14.9338632213
 20
11.914144981
 30
0.0
 10
14.9347941557
 20
11.9132528071
 30
0.0
 10
14.9358498509
 20
11.912121235
 30
0.0
 10
14.9375993093
 20
11.9103198603
 30
0.0
 10
14.9397654278
 20
11.9080650058
 30
0.0
 10
14.9423736323
 20
11.9053605228
 30
0.0
 10
14.9458481426
 20
11.9017540764
 30
0.0
 10
14.9501923426
 20
11.8972461798
 30
0.0
 10
14.957142456
 20
11.8900334507
 30
0.0
 10
14.9640928101
 20
11.8828207722
 30
0.0
 10
14.9710428971
 20
11.8756080129
 30
0.0
 10
14.9762560232
 20
11.8701986353
 30
0.0
 10
14.9801642852
 20
11.8661410568
 30
0.0
 10
14.9827722555
 20
11.8634368533
 30
0.0
 10
14.9840718436
 20
11.8620832357
 30
0.0
 10
14.9853885274
 20
11.8607355115
 30
0.0
 10
14.9876845134
 20
11.8591248403
 30
0.0
 10
14.9903694594
 20
11.8570477136
 30
0.0
 10
14.9947687918
 20
11.8537599629
 30
0.0
 10
15.0002324626
 20
11.8496380349
 30
0.0
 10
15.0068041135
 20
11.8446969935
 30
0.0
 10
15.0155607254
 20
11.8381069315
 30
0.0
 10
15.0265102951
 20
11.8298712242
 30
0.0
 10
15.0363574981
 20
11.8224546125
 30
0.0
 10
15.0429327473
 20
11.8175167281
 30
0.0
 10
15.0456570806
 20
11.815449647
 30
0.0
 10
15.0478723519
 20
11.8138184401
 30
0.0
 10
15.0494356039
 20
11.8125334386
 30
0.0
 10
15.0513737592
 20
11.8114835932
 30
0.0
 10
15.0539139195
 20
11.8100561712
 30
0.0
 10
15.0571042016
 20
11.8082813536
 30
0.0
 10
15.0622002239
 20
11.8054363586
 30
0.0
 10
15.0685731425
 20
11.8018819272
 30
0.0
 10
15.0762194129
 20
11.79761584
 30
0.0
 10
15.0864148436
 20
11.7919279618
 30
0.0
 10
15.0966103167
 20
11.7862401939
 30
0.0
 10
15.10680536
 20
11.7805519165
 30
0.0
 10
15.1131783014
 20
11.7769979248
 30
0.0
 10
15.1182742676
 20
11.7741520229
 30
0.0
 10
15.1221027792
 20
11.7720250133
 30
0.0
 10
15.1252724102
 20
11.7702289109
 30
0.0
 10
15.1281160784
 20
11.7691414425
 30
0.0
 10
15.1309059643
 20
11.7679929529
 30
0.0
 10
15.1344117346
 20
11.7665782326
 30
0.0
 10
15.1400106888
 20
11.7643030156
 30
0.0
 10
15.1498136679
 20
11.7603268706
 30
0.0
 10
15.1638152454
 20
11.7546433934
 30
0.0
 10
15.177818376
 20
11.7489625492
 30
0.0
 10
15.1890192958
 20
11.7444141707
 30
0.0
 10
15.1960230558
 20
11.7415793754
 30
0.0
 10
15.2016188156
 20
11.739293406
 30
0.0
 10
15.2051326935
 20
11.7379060373
 30
0.0
 10
15.2079059406
 20
11.7367014065
 30
0.0
 10
15.2108789007
 20
11.7359965738
 30
0.0
 10
15.215988543
 20
11.734530283
 30
0.0
 10
15.2233365751
 20
11.7325570561
 30
0.0
 10
15.2350662941
 20
11.7293320461
 30
0.0
 10
15.2497377641
 20
11.7253237378
 30
0.0
 10
15.2644058644
 20
11.7213084217
 30
0.0
 10
15.2761409748
 20
11.7180946243
 30
0.0
 10
15.2834755284
 20
11.7160933661
 30
0.0
 10
15.2886093478
 20
11.7146773562
 30
0.0
 10
15.291543557
 20
11.7138919339
 30
0.0
 10
15.2944755142
 20
11.7130173703
 30
0.0
 10
15.2981566029
 20
11.7125630678
 30
0.0
 10
15.3040418151
 20
11.7116568524
 30
0.0
 10
15.3113998733
 20
11.7105855141
 30
0.0
 10
15.3231719509
 20
11.7088368778
 30
0.0
 10
15.3378869924
 20
11.7066640715
 30
0.0
 10
15.3526032753
 20
11.7044824277
 30
0.0
 10
15.3643733668
 20
11.7027479315
 30
0.0
 10
15.3717363903
 20
11.7016412429
 30
0.0
 10
15.3776114236
 20
11.7008074956
 30
0.0
 10
15.3813184251
 20
11.7001687087
 30
0.0
 10
15.3841239315
 20
11.7001943979
 30
0.0
 10
15.3869573587
 20
11.7001264816
 30
0.0
 10
15.3919028536
 20
11.7000512276
 30
0.0
 10
15.3989745948
 20
11.6999210324
 30
0.0
 10
15.4102858173
 20
11.6997250578
 30
0.0
 10
15.4244245781
 20
11.6994783149
 30
0.0
 10
15.4385688621
 20
11.6992232485
 30
0.0
 10
15.4498712476
 20
11.6990405915
 30
0.0
 10
15.4569650812
 20
11.6988771023
 30
0.0
 10
15.4618709479
 20
11.6988615694
 30
0.0
 10
15.4647678907
 20
11.6986979329
 30
0.0
 10
15.4673132591
 20
11.699115659
 30
0.0
 10
15.4705782699
 20
11.6995000715
 30
0.0
 10
15.4757557345
 20
11.7001921105
 30
0.0
 10
15.4822435082
 20
11.7010307969
 30
0.0
 10
15.4926150171
 20
11.7023874567
 30
0.0
 10
15.5029890834
 20
11.7037399063
 30
0.0
 10
15.513362174
 20
11.7050939155
 30
0.0
 10
15.5211423619
 20
11.7061089536
 30
0.0
 10
15.527625025
 20
11.7069557316
 30
0.0
 10
15.5328129549
 20
11.7076311975
 30
0.0
 10
15.5360513259
 20
11.7080577985
 30
0.0
 10
15.5386513772
 20
11.7083889248
 30
0.0
 10
15.5402550658
 20
11.7086190476
 30
0.0
 10
15.5415869023
 20
11.7087500792
 30
0.0
 10
15.542660832
 20
11.7091610754
 30
0.0
 10
15.5446603567
 20
11.7097498952
 30
0.0
 10
15.5474541334
 20
11.7106591148
 30
0.0
 10
15.5519592093
 20
11.712075837
 30
0.0
 10
15.5575785541
 20
11.7138597651
 30
0.0
 10
15.5665762398
 20
11.716706746
 30
0.0
 10
15.5755719216
 20
11.7195558705
 30
0.0
 10
15.5845685645
 20
11.7224040422
 30
0.0
 10
15.5913151673
 20
11.7245408857
 30
0.0
 10
15.5969398672
 20
11.7263196031
 30
0.0
 10
15.6014339927
 20
11.727746985
 30
0.0
 10
15.6042556416
 20
11.7286290715
 30
0.0
 10
15.6064836003
 20
11.7293577039
 30
0.0
 10
15.6079430652
 20
11.7297607047
 30
0.0
 10
15.6088051366
 20
11.7303220424
 30
0.0
 10
15.6097204886
 20
11.7308417085
 30
0.0
 10
15.6112975335
 20
11.7317705371
 30
0.0
 10
15.6135634052
 20
11.7330873065
 30
0.0
 10
15.6171815631
 20
11.7351997975
 30
0.0
 10
15.6217067342
 20
11.7378384756
 30
0.0
 10
15.6289456499
 20
11.7420614287
 30
0.0
 10
15.6361847986
 20
11.7462841672
 30
0.0
 10
15.6434242668
 20
11.7505067483
 30
0.0
 10
15.6488526764
 20
11.753674371
 30
0.0
 10
15.6533801895
 20
11.7563118326
 30
0.0
 10
15.6565419094
 20
11.7581624255
 30
0.0
 10
15.6583603794
 20
11.7592130834
 30
0.0
 10
15.6596910673
 20
11.7600202997
 30
0.0
 10
15.6611485273
 20
11.7607540362
 30
0.0
 10
15.6621320634
 20
11.7617624691
 30
0.0
 10
15.663099115
 20
11.7627804569
 30
0.0
 10
15.6650416978
 20
11.7648115174
 30
0.0
 10
15.6679520106
 20
11.7678601725
 30
0.0
 10
15.6718344626
 20
11.7719238667
 30
0.0
 10
15.6770103429
 20
11.7773425431
 30
0.0
 10
15.6821864873
 20
11.7827610728
 30
0.0
 10
15.6873623813
 20
11.7881797296
 30
0.0
 10
15.6905977208
 20
11.7915661945
 30
0.0
 10
15.6931850813
 20
11.7942758041
 30
0.0
 10
15.6951280914
 20
11.7963068159
 30
0.0
 10
15.6967393472
 20
11.7980031278
 30
0.0
 10
15.6980461133
 20
11.79935165
 30
0.0
 10
15.698822398
 20
11.8002138939
 30
0.0
 10
15.6995360512
 20
11.8008592187
 30
0.0
 10
15.6999115583
 20
11.8016668907
 30
0.0
 10
15.7005445803
 20
11.8030918951
 30
0.0
 10
15.7018277456
 20
11.8059336836
 30
0.0
 10
15.7036518875
 20
11.809997679
 30
0.0
 10
15.7058446894
 20
11.814872634
 30
0.0
 10
15.7087670868
 20
11.8213732166
 30
0.0
 10
15.712420543
 20
11.8294987243
 30
0.0
 10
15.7168044925
 20
11.8392494285
 30
0.0
 10
15.7197271632
 20
11.8457498798
 30
0.0
 10
15.7211884939
 20
11.8490001078
 30
0.0
  0
SPLINE
  5
35B
100
AcDbEntity
  8
03__ASM_ALL_CURVES
100
AcDbSpline
 62
8
  6
HIDDEN
 70
0
 71
3
 72
40
 73
36
 74
0
 42
0.0000001
 43
0.0000001
 44
0.0000000001
 40
0.0
 40
0.0
 40
0.0
 40
0.0
 40
0.0625
 40
0.125
 40
0.15625
 40
0.171875
 40
0.1875
 40
0.21875
 40
0.25
 40
0.28125
 40
0.3125
 40
0.328125
 40
0.34375
 40
0.375
 40
0.4375
 40
0.46875
 40
0.484375
 40
0.5
 40
0.515625
 40
0.53125
 40
0.5625
 40
0.625
 40
0.65625
 40
0.671875
 40
0.6875
 40
0.71875
 40
0.75
 40
0.78125
 40
0.8125
 40
0.828125
 40
0.84375
 40
0.859375
 40
0.875
 40
0.9375
 40
1.0
 40
1.0
 40
1.0
 40
1.0
 10
15.7211884951
 20
11.8490001128
 30
0.0
 10
15.7215933484
 20
11.8512707411
 30
0.0
 10
15.7224083854
 20
11.8558086031
 30
0.0
 10
15.7234005291
 20
11.8614979037
 30
0.0
 10
15.7241440037
 20
11.8654492258
 30
0.0
 10
15.7244928866
 20
11.867755498
 30
0.0
 10
15.7245555265
 20
11.870243969
 30
0.0
 10
15.7247327542
 20
11.8732918982
 30
0.0
 10
15.7248999383
 20
11.8769768811
 30
0.0
 10
15.7250907942
 20
11.8806522474
 30
0.0
 10
15.7252088422
 20
11.8837242183
 30
0.0
 10
15.7253898414
 20
11.8861646058
 30
0.0
 10
15.7252573964
 20
11.8886664176
 30
0.0
 10
15.7248813707
 20
11.8930728921
 30
0.0
 10
15.7245045499
 20
11.898098036
 30
0.0
 10
15.7241801562
 20
11.9024951538
 30
0.0
 10
15.7239591993
 20
11.9050130057
 30
0.0
 10
15.7238987276
 20
11.9068857218
 30
0.0
 10
15.7234350664
 20
11.9088185223
 30
0.0
 10
15.7229571838
 20
11.9113746618
 30
0.0
 10
15.7220585634
 20
11.9158573529
 30
0.0
 10
15.7210379489
 20
11.9209784322
 30
0.0
 10
15.720190489
 20
11.9254551698
 30
0.0
 10
15.7196249027
 20
11.9280215152
 30
0.0
 10
15.7187499754
 20
11.9306193172
 30
0.0
 10
15.7177632596
 20
11.9338554802
 30
0.0
 10
15.7165298842
 20
11.9377449202
 30
0.0
 10
15.7153226652
 20
11.9416279258
 30
0.0
 10
15.7142705583
 20
11.9448801748
 30
0.0
 10
15.7135264132
 20
11.9474458048
 30
0.0
 10
15.7127033377
 20
11.9494686883
 30
0.0
 10
15.7118060714
 20
11.9515192086
 30
0.0
 10
15.7100497116
 20
11.9556060294
 30
0.0
 10
15.7073990099
 20
11.961742281
 30
0.0
 10
15.705049398
 20
11.9671942804
 30
0.0
 10
15.7038737712
 20
11.9699205859
 30
0.0
  0
SPLINE
  5
35C
100
AcDbEntity
  8
0
100
AcDbSpline
 62
7
  6
CONTINUOUS
 70
0
 71
3
 72
37
 73
33
 74
0
 42
0.0000001
 43
0.0000001
 44
0.0000000001
 40
0.0
 40
0.0
 40
0.0
 40
0.0
 40
0.0624055158
 40
0.124816312
 40
0.1560666847
 40
0.1873206829
 40
0.218576578
 40
0.2498361386
 40
0.281100451
 40
0.3123679421
 40
0.343638258
 40
0.3749109248
 40
0.4061857629
 40
0.4374614355
 40
0.4687369437
 40
0.5000104208
 40
0.5312816259
 40
0.5625505679
 40
0.5938159472
 40
0.6250764119
 40
0.6563326193
 40
0.6875860564
 40
0.7188358151
 40
0.7500821792
 40
0.7813252316
 40
0.8125665667
 40
0.8438073058
 40
0.8750468813
 40
0.9062822297
 40
0.9375213738
 40
0.9687716551
 40
1.0
 40
1.0
 40
1.0
 40
1.0
 10
14.7838907873
 20
13.457746453
 30
0.0
 10
14.7764190862
 20
13.457746453
 30
0.0
 10
14.7614352111
 20
13.4562525918
 30
0.0
 10
14.7434533252
 20
13.4507221572
 30
0.0
 10
14.7299451776
 20
13.4442550099
 30
0.0
 10
14.7203286811
 20
13.4384271312
 30
0.0
 10
14.7113314455
 20
13.4316822535
 30
0.0
 10
14.7030354826
 20
13.4240894679
 30
0.0
 10
14.69551911
 20
13.4157225398
 30
0.0
 10
14.6888507124
 20
13.4066638074
 30
0.0
 10
14.6830921858
 20
13.3970000327
 30
0.0
 10
14.6782953667
 20
13.3868237208
 30
0.0
 10
14.6745036025
 20
13.3762311179
 30
0.0
 10
14.6717520023
 20
13.3653216749
 30
0.0
 10
14.6700648067
 20
13.3541979469
 30
0.0
 10
14.6694594675
 20
13.3429638281
 30
0.0
 10
14.6699406469
 20
13.3317244222
 30
0.0
 10
14.6715079188
 20
13.3205853712
 30
0.0
 10
14.6741453667
 20
13.3096513957
 30
0.0
 10
14.6778338475
 20
13.2990273243
 30
0.0
 10
14.6825379253
 20
13.2888137294
 30
0.0
 10
14.6882184894
 20
13.2791105966
 30
0.0
 10
14.6948209343
 20
13.2700109895
 30
0.0
 10
14.7022863361
 20
13.2616063451
 30
0.0
 10
14.7105427005
 20
13.253978693
 30
0.0
 10
14.7195123212
 20
13.2472050172
 30
0.0
 10
14.7291087576
 20
13.2413538356
 30
0.0
 10
14.7392375377
 20
13.2364833481
 30
0.0
 10
14.7498000254
 20
13.2326438182
 30
0.0
 10
14.7606934597
 20
13.2298726754
 30
0.0
 10
14.7718068869
 20
13.2282018479
 30
0.0
 10
14.7792925844
 20
13.2278277141
 30
0.0
 10
14.7830314985
 20
13.2278277141
 30
0.0
  0
SPLINE
  5
35D
100
AcDbEntity
  8
0
100
AcDbSpline
 62
7
  6
CONTINUOUS
 70
0
 71
3
 72
15
 73
11
 74
0
 42
0.0000001
 43
0.0000001
 44
0.0000000001
 40
0.0
 40
0.0
 40
0.0
 40
0.0
 40
0.1250542433
 40
0.2501006764
 40
0.3751069146
 40
0.5001022051
 40
0.6250843085
 40
0.7500528617
 40
0.8750339551
 40
1.0
 40
1.0
 40
1.0
 40
1.0
 10
14.8919927372
 20
13.377878843
 30
0.0
 10
14.8902018073
 20
13.3835952499
 30
0.0
 10
14.8857192756
 20
13.3947676358
 30
0.0
 10
14.8764718232
 20
13.410256134
 30
0.0
 10
14.864908187
 20
13.4241042269
 30
0.0
 10
14.8513109877
 20
13.4359565597
 30
0.0
 10
14.8360112201
 20
13.445508105
 30
0.0
 10
14.8193900557
 20
13.4525137277
 30
0.0
 10
14.8018718972
 20
13.4567884148
 30
0.0
 10
14.7898769495
 20
13.457746453
 30
0.0
 10
14.7838907873
 20
13.457746453
 30
0.0
  0
SPLINE
  5
35E
100
AcDbEntity
  8
0
100
AcDbSpline
 62
7
  6
CONTINUOUS
 70
0
 71
3
 72
15
 73
11
 74
0
 42
0.0000001
 43
0.0000001
 44
0.0000000001
 40
0.0
 40
0.0
 40
0.0
 40
0.0
 40
0.124933948
 40
0.2499385579
 40
0.3749093501
 40
0.4998964317
 40
0.6248959282
 40
0.7499063462
 40
0.8749810985
 40
1.0
 40
1.0
 40
1.0
 40
1.0
 10
14.7830314985
 20
13.2278277141
 30
0.0
 10
14.7872633683
 20
13.2278277141
 30
0.0
 10
14.7957371336
 20
13.2283064716
 30
0.0
 10
14.8082810562
 20
13.2304437178
 30
0.0
 10
14.8205093809
 20
13.2339755251
 30
0.0
 10
14.8322649894
 20
13.23885296
 30
0.0
 10
14.8434059099
 20
13.2450087436
 30
0.0
 10
14.8537959881
 20
13.2523670556
 30
0.0
 10
14.8633055038
 20
13.2608308908
 30
0.0
 10
14.8689883578
 20
13.2671407342
 30
0.0
 10
14.8716444198
 20
13.2704389792
 30
0.0
  0
SPLINE
  5
35F
100
AcDbEntity
  8
0
100
AcDbSpline
 62
7
  6
CONTINUOUS
 70
0
 71
3
 72
30
 73
26
 74
0
 42
0.0000001
 43
0.0000001
 44
0.0000000001
 40
0.0
 40
0.0
 40
0.0
 40
0.0
 40
0.0155004549
 40
0.0315031131
 40
0.0484549176
 40
0.0667105944
 40
0.0865321995
 40
0.1080863546
 40
0.1314700718
 40
0.1567206613
 40
0.1838237786
 40
0.2127344963
 40
0.2433703976
 40
0.2756273842
 40
0.3444738724
 40
0.4180935671
 40
0.4950926871
 40
0.5739526422
 40
0.6530877977
 40
0.7309024008
 40
0.8058515182
 40
0.8764823835
 40
0.9415458844
 40
0.9716643915
 40
1.0
 40
1.0
 40
1.0
 40
1.0
 10
15.812833754
 20
11.9835919291
 30
0.0
 10
15.8136198093
 20
11.98359198
 30
0.0
 10
15.8152216374
 20
11.9837531254
 30
0.0
 10
15.8175857655
 20
11.98447108
 30
0.0
 10
15.819910624
 20
11.9856547437
 30
0.0
 10
15.822183139
 20
11.9872901979
 30
0.0
 10
15.8243920136
 20
11.9893660449
 30
0.0
 10
15.8265283298
 20
11.9918675437
 30
0.0
 10
15.8285808684
 20
11.9947808504
 30
0.0
 10
15.8305386438
 20
11.9980891888
 30
0.0
 10
15.8323917598
 20
12.0017732301
 30
0.0
 10
15.8341282823
 20
12.0058122119
 30
0.0
 10
15.8357393352
 20
12.0101821966
 30
0.0
 10
15.8377500649
 20
12.0165553355
 30
0.0
 10
15.8398581551
 20
12.0251722148
 30
0.0
 10
15.8417088193
 20
12.0361551184
 30
0.0
 10
15.8428875899
 20
12.0477404403
 30
0.0
 10
15.8433659449
 20
12.0596549669
 30
0.0
 10
15.8431322201
 20
12.0716181661
 30
0.0
 10
15.8421919932
 20
12.0833479717
 30
0.0
 10
15.8405678131
 20
12.0945683088
 30
0.0
 10
15.8382998788
 20
12.1050162425
 30
0.0
 10
15.8358588153
 20
12.1130760433
 30
0.0
 10
15.8335982747
 20
12.1189202601
 30
0.0
 10
15.8323782227
 20
12.1216241318
 30
0.0
 10
15.8317451855
 20
12.122914126
 30
0.0
  0
SPLINE
  5
360
100
AcDbEntity
  8
0
100
AcDbSpline
 62
7
  6
CONTINUOUS
 70
0
 71
3
 72
15
 73
11
 74
0
 42
0.0000001
 43
0.0000001
 44
0.0000000001
 40
0.0
 40
0.0
 40
0.0
 40
0.0
 40
0.1381392848
 40
0.2714991679
 40
0.4004169898
 40
0.52541489
 40
0.6471149964
 40
0.7662299395
 40
0.8835675161
 40
1.0
 40
1.0
 40
1.0
 40
1.0
 10
16.409956065
 20
12.1535128334
 30
0.0
 10
16.4170124947
 20
12.1391333417
 30
0.0
 10
16.4298620462
 20
12.1103547306
 30
0.0
 10
16.4453913629
 20
12.066546247
 30
0.0
 10
16.4567562144
 20
12.0230421864
 30
0.0
 10
16.463905353
 20
11.9800149842
 30
0.0
 10
16.4668071027
 20
11.9376284181
 30
0.0
 10
16.4654379426
 20
11.8960474382
 30
0.0
 10
16.4598021787
 20
11.8554452761
 30
0.0
 10
16.453197731
 20
11.8290916428
 30
0.0
 10
16.4492119084
 20
11.8161927994
 30
0.0
  0
SPLINE
  5
361
100
AcDbEntity
  8
0
100
AcDbSpline
 62
7
  6
CONTINUOUS
 70
0
 71
3
 72
23
 73
19
 74
0
 42
0.0000001
 43
0.0000001
 44
0.0000000001
 40
0.0
 40
0.0
 40
0.0
 40
0.0
 40
0.0558829978
 40
0.1142941168
 40
0.1749866812
 40
0.2376572532
 40
0.301956742
 40
0.367501351
 40
0.4338819554
 40
0.5006726728
 40
0.5674397094
 40
0.6337500188
 40
0.6991793794
 40
0.763320693
 40
0.8257934621
 40
0.8862530512
 40
0.9444019721
 40
1.0
 40
1.0
 40
1.0
 40
1.0
 10
15.0532470175
 20
12.236699048
 30
0.0
 10
15.0652295099
 20
12.2393465446
 30
0.0
 10
15.0899795769
 20
12.2437033942
 30
0.0
 10
15.1282546678
 20
12.2474494537
 30
0.0
 10
15.1681879224
 20
12.2485255316
 30
0.0
 10
15.2093938469
 20
12.2469211966
 30
0.0
 10
15.2514787208
 20
12.2426527422
 30
0.0
 10
15.2940383924
 20
12.2357615062
 30
0.0
 10
15.3366640618
 20
12.2263137111
 30
0.0
 10
15.3789457397
 20
12.2143997502
 30
0.0
 10
15.4204768163
 20
12.2001344783
 30
0.0
 10
15.4608580173
 20
12.1836553037
 30
0.0
 10
15.4997011575
 20
12.1651206278
 30
0.0
 10
15.5366329011
 20
12.1447079893
 30
0.0
 10
15.5712985075
 20
12.1226134321
 30
0.0
 10
15.603366771
 20
12.0990477525
 30
0.0
 10
15.6325281212
 20
12.0742380627
 30
0.0
 10
15.6502659728
 20
12.0566052434
 30
0.0
 10
15.6585411399
 20
12.0476286595
 30
0.0
  0
SPLINE
  5
362
100
AcDbEntity
  8
0
100
AcDbSpline
 62
7
  6
CONTINUOUS
 70
0
 71
3
 72
11
 73
7
 74
0
 42
0.0000001
 43
0.0000001
 44
0.0000000001
 40
0.0
 40
0.0
 40
0.0
 40
0.0
 40
0.2635787829
 40
0.5181117712
 40
0.7635832422
 40
1.0
 40
1.0
 40
1.0
 40
1.0
 10
15.6597502122
 20
12.0461820678
 30
0.0
 10
15.6645540824
 20
12.04069795
 30
0.0
 10
15.6736981944
 20
12.0296508911
 30
0.0
 10
15.6861596896
 20
12.012581149
 30
0.0
 10
15.6970763097
 20
11.995366578
 30
0.0
 10
15.7034135968
 20
11.9836243849
 30
0.0
 10
15.7062944329
 20
11.977753858
 30
0.0
  0
SPLINE
  5
363
100
AcDbEntity
  8
0
100
AcDbSpline
 62
7
  6
CONTINUOUS
 70
0
 71
3
 72
16
 73
12
 74
0
 42
0.0000001
 43
0.0000001
 44
0.0000000001
 40
0.0
 40
0.0
 40
0.0
 40
0.0
 40
0.1174780011
 40
0.2357241059
 40
0.3555110856
 40
0.4775494445
 40
0.5396309947
 40
0.6025124741
 40
0.7309291045
 40
0.8633204893
 40
1.0
 40
1.0
 40
1.0
 40
1.0
 10
14.8017343048
 20
12.1327587281
 30
0.0
 10
14.7998339794
 20
12.1266092726
 30
0.0
 10
14.796687417
 20
12.1140531078
 30
0.0
 10
14.7939979743
 20
12.0947264953
 30
0.0
 10
14.7933421509
 20
12.074974907
 30
0.0
 10
14.7944723021
 20
12.0583338029
 30
0.0
 10
14.7963573385
 20
12.0449288003
 30
0.0
 10
14.798932077
 20
12.0312829497
 30
0.0
 10
14.8034138817
 20
12.0140979849
 30
0.0
 10
14.810692566
 20
11.9935486157
 30
0.0
 10
14.8167075613
 20
11.9800710013
 30
0.0
 10
14.8200065196
 20
11.9733484309
 30
0.0
  0
SPLINE
  5
364
100
AcDbEntity
  8
0
100
AcDbSpline
 62
7
  6
CONTINUOUS
 70
0
 71
3
 72
42
 73
38
 74
0
 42
0.0000001
 43
0.0000001
 44
0.0000000001
 40
0.0
 40
0.0
 40
0.0
 40
0.0
 40
0.0269521018
 40
0.055128364
 40
0.0845360197
 40
0.1151646048
 40
0.1469650645
 40
0.1798632709
 40
0.2137647131
 40
0.2485550832
 40
0.2841050957
 40
0.3202731312
 40
0.3569074762
 40
0.3938496766
 40
0.4309365313
 40
0.4680027293
 40
0.5048833643
 40
0.5414160509
 40
0.5774438781
 40
0.6128174501
 40
0.6473977089
 40
0.681059145
 40
0.7136919099
 40
0.7452058706
 40
0.775534036
 40
0.8046354768
 40
0.8325005931
 40
0.845979343
 40
0.8591615252
 40
0.8846664497
 40
0.9091266432
 40
0.9326871595
 40
0.9555328687
 40
0.9667603779
 40
0.9778929009
 40
0.988961947
 40
1.0
 40
1.0
 40
1.0
 40
1.0
 10
14.8227365987
 20
11.9679199089
 30
0.0
 10
14.8274940846
 20
11.9586838262
 30
0.0
 10
14.8381561799
 20
11.9402605114
 30
0.0
 10
14.8568917242
 20
11.9135557386
 30
0.0
 10
14.8785899678
 20
11.8873315314
 30
0.0
 10
14.9030991644
 20
11.8617477568
 30
0.0
 10
14.9302584857
 20
11.8369578783
 30
0.0
 10
14.9598882348
 20
11.8131163218
 30
0.0
 10
14.9917937028
 20
11.7903739168
 30
0.0
 10
15.0257642194
 20
11.7688751496
 30
0.0
 10
15.0615754454
 20
11.7487589263
 30
0.0
 10
15.0989906685
 20
11.7301571311
 30
0.0
 10
15.1377611056
 20
11.7131907659
 30
0.0
 10
15.1776291907
 20
11.6979720325
 30
0.0
 10
15.2183298675
 20
11.6846023825
 30
0.0
 10
15.2595918727
 20
11.673169609
 30
0.0
 10
15.3011408561
 20
11.6637505569
 30
0.0
 10
15.3427007961
 20
11.6564087693
 30
0.0
 10
15.3839959112
 20
11.6511928117
 30
0.0
 10
15.4247533251
 20
11.6481394261
 30
0.0
 10
15.4647046352
 20
11.6472708535
 30
0.0
 10
15.5035880383
 20
11.6485947214
 30
0.0
 10
15.5411502937
 20
11.6521075786
 30
0.0
 10
15.5771480739
 20
11.657791972
 30
0.0
 10
15.6113503849
 20
11.6656187635
 30
0.0
 10
15.6435357029
 20
11.6755492698
 30
0.0
 10
15.6687820467
 20
11.685648108
 30
0.0
 10
15.6877304897
 20
11.6947598015
 30
0.0
 10
15.7054298603
 20
11.7043164873
 30
0.0
 10
15.7259880562
 20
11.7174357826
 30
0.0
 10
15.7481435039
 20
11.7352071481
 30
0.0
 10
15.7673385846
 20
11.7547378942
 30
0.0
 10
15.7808048379
 20
11.7724971166
 30
0.0
 10
15.7898670858
 20
11.7873946741
 30
0.0
 10
15.7957893612
 20
11.7988516658
 30
0.0
 10
15.8008613897
 20
11.8106290587
 30
0.0
 10
15.8036699448
 20
11.8186837729
 30
0.0
 10
15.8049261913
 20
11.822748988
 30
0.0
  0
SPLINE
  5
365
100
AcDbEntity
  8
0
100
AcDbSpline
 62
7
  6
CONTINUOUS
 70
0
 71
3
 72
18
 73
14
 74
0
 42
0.0000001
 43
0.0000001
 44
0.0000000001
 40
0.0
 40
0.0
 40
0.0
 40
0.0
 40
0.0542952167
 40
0.1088335711
 40
0.1638520018
 40
0.2195780041
 40
0.2762242993
 40
0.3339847016
 40
0.4534574388
 40
0.5791979465
 40
0.7119703076
 40
0.852198497
 40
1.0
 40
1.0
 40
1.0
 40
1.0
 10
14.8853337528
 20
12.1069245447
 30
0.0
 10
14.8864883495
 20
12.110661186
 30
0.0
 10
14.889111075
 20
12.1180598611
 30
0.0
 10
14.8939533276
 20
12.1288367423
 30
0.0
 10
14.8996950031
 20
12.1392808521
 30
0.0
 10
14.9063238643
 20
12.1493668963
 30
0.0
 10
14.913824476
 20
12.1590732648
 30
0.0
 10
14.9250865938
 20
12.1716195216
 30
0.0
 10
14.9413753828
 20
12.1862540915
 30
0.0
 10
14.9638442547
 20
12.2017446455
 30
0.0
 10
14.9892580293
 20
12.2152505414
 30
0.0
 10
15.0173884397
 20
12.2266623195
 30
0.0
 10
15.0372820249
 20
12.2326612308
 30
0.0
 10
15.0475916662
 20
12.2353175112
 30
0.0
  0
SPLINE
  5
366
100
AcDbEntity
  8
0
100
AcDbSpline
 62
7
  6
CONTINUOUS
 70
0
 71
3
 72
15
 73
11
 74
0
 42
0.0000001
 43
0.0000001
 44
0.0000000001
 40
0.0
 40
0.0
 40
0.0
 40
0.0
 40
0.1380799318
 40
0.2714583019
 40
0.400424799
 40
0.5254316948
 40
0.647119483
 40
0.7662256933
 40
0.8835644243
 40
1.0
 40
1.0
 40
1.0
 40
1.0
 10
13.9637726567
 20
12.9658540022
 30
0.0
 10
13.9649302137
 20
12.963495149
 30
0.0
 10
13.967038203
 20
12.9587726845
 30
0.0
 10
13.9695869126
 20
12.9515830672
 30
0.0
 10
13.971453498
 20
12.9444423288
 30
0.0
 10
13.9726265427
 20
12.9373800558
 30
0.0
 10
13.9731028283
 20
12.9304240972
 30
0.0
 10
13.9728777101
 20
12.9236004694
 30
0.0
 10
13.971952453
 20
12.9169372932
 30
0.0
 10
13.9708692554
 20
12.9126120546
 30
0.0
 10
13.9702151263
 20
12.9104951208
 30
0.0
  0
SPLINE
  5
367
100
AcDbEntity
  8
0
100
AcDbSpline
 62
7
  6
CONTINUOUS
 70
0
 71
3
 72
15
 73
11
 74
0
 42
0.0000001
 43
0.0000001
 44
0.0000000001
 40
0.0
 40
0.0
 40
0.0
 40
0.0
 40
0.1127915965
 40
0.2270844731
 40
0.3442429784
 40
0.4653769513
 40
0.5912428547
 40
0.7222855946
 40
0.858669437
 40
1.0
 40
1.0
 40
1.0
 40
1.0
 10
15.2392650242
 20
12.422479337
 30
0.0
 10
15.2382565942
 20
12.4245340716
 30
0.0
 10
15.235870123
 20
12.428506329
 30
0.0
 10
15.2313060277
 20
12.4338343159
 30
0.0
 10
15.2258197812
 20
12.4384730961
 30
0.0
 10
15.219499244
 20
12.4423520696
 30
0.0
 10
15.2124431878
 20
12.4454213929
 30
0.0
 10
15.2047545815
 20
12.4476382092
 30
0.0
 10
15.1965499896
 20
12.4489719423
 30
0.0
 10
15.1909091758
 20
12.4492593593
 30
0.0
 10
15.1880411836
 20
12.4492593593
 30
0.0
  0
SPLINE
  5
368
100
AcDbEntity
  8
0
100
AcDbSpline
 62
7
  6
CONTINUOUS
 70
0
 71
3
 72
15
 73
11
 74
0
 42
0.0000001
 43
0.0000001
 44
0.0000000001
 40
0.0
 40
0.0
 40
0.0
 40
0.0
 40
0.1380799318
 40
0.2714583019
 40
0.400424799
 40
0.5254316948
 40
0.647119483
 40
0.7662256933
 40
0.8835644243
 40
1.0
 40
1.0
 40
1.0
 40
1.0
 10
16.3246933776
 20
12.9658540022
 30
0.0
 10
16.3258509347
 20
12.963495149
 30
0.0
 10
16.3279589239
 20
12.9587726845
 30
0.0
 10
16.3305076336
 20
12.9515830672
 30
0.0
 10
16.332374219
 20
12.9444423288
 30
0.0
 10
16.3335472636
 20
12.9373800558
 30
0.0
 10
16.3340235492
 20
12.9304240972
 30
0.0
 10
16.333798431
 20
12.9236004694
 30
0.0
 10
16.332873174
 20
12.9169372932
 30
0.0
 10
16.3317899763
 20
12.9126120546
 30
0.0
 10
16.3311358472
 20
12.9104951208
 30
0.0
  0
SPLINE
  5
369
100
AcDbEntity
  8
0
100
AcDbSpline
 62
7
  6
CONTINUOUS
 70
0
 71
3
 72
15
 73
11
 74
0
 42
0.0000001
 43
0.0000001
 44
0.0000000001
 40
0.0
 40
0.0
 40
0.0
 40
0.0
 40
0.1380799318
 40
0.2714583019
 40
0.400424799
 40
0.5254316948
 40
0.647119483
 40
0.7662256933
 40
0.8835644243
 40
1.0
 40
1.0
 40
1.0
 40
1.0
 10
17.1065956277
 20
11.3725047409
 30
0.0
 10
17.1077531848
 20
11.3701458877
 30
0.0
 10
17.109861174
 20
11.3654234231
 30
0.0
 10
17.1124098837
 20
11.3582338059
 30
0.0
 10
17.1142764691
 20
11.3510930674
 30
0.0
 10
17.1154495137
 20
11.3440307945
 30
0.0
 10
17.1159257993
 20
11.3370748359
 30
0.0
 10
17.1157006811
 20
11.3302512081
 30
0.0
 10
17.1147754241
 20
11.3235880319
 30
0.0
 10
17.1136922264
 20
11.3192627933
 30
0.0
 10
17.1130380973
 20
11.3171458595
 30
0.0
  0
SPLINE
  5
36A
100
AcDbEntity
  8
0
100
AcDbSpline
 62
7
  6
CONTINUOUS
 70
0
 71
3
 72
15
 73
11
 74
0
 42
0.0000001
 43
0.0000001
 44
0.0000000001
 40
0.0
 40
0.0
 40
0.0
 40
0.0
 40
0.1164323653
 40
0.2337698259
 40
0.3528846814
 40
0.4745847166
 40
0.5995825488
 40
0.7285004558
 40
0.8618606294
 40
1.0
 40
1.0
 40
1.0
 40
1.0
 10
14.3310484209
 20
12.5994744836
 30
0.0
 10
14.3271672615
 20
12.5869143539
 30
0.0
 10
14.3207362345
 20
12.5612527474
 30
0.0
 10
14.3152484589
 20
12.5217167614
 30
0.0
 10
14.3139152476
 20
12.4812276555
 30
0.0
 10
14.3167407788
 20
12.4399541087
 30
0.0
 10
14.3237021852
 20
12.3980567288
 30
0.0
 10
14.3347686032
 20
12.3556949672
 30
0.0
 10
14.3498901796
 20
12.3130367718
 30
0.0
 10
14.3624023274
 20
12.2850137905
 30
0.0
 10
14.3692734721
 20
12.2710118698
 30
0.0
  0
SPLINE
  5
36B
100
AcDbEntity
  8
0
100
AcDbSpline
 62
7
  6
CONTINUOUS
 70
0
 71
3
 72
15
 73
11
 74
0
 42
0.0000001
 43
0.0000001
 44
0.0000000001
 40
0.0
 40
0.0
 40
0.0
 40
0.0
 40
0.1380799318
 40
0.2714583019
 40
0.400424799
 40
0.5254316948
 40
0.647119483
 40
0.7662256933
 40
0.8835644243
 40
1.0
 40
1.0
 40
1.0
 40
1.0
 10
14.7456749068
 20
11.3725047409
 30
0.0
 10
14.7468324638
 20
11.3701458877
 30
0.0
 10
14.7489404531
 20
11.3654234231
 30
0.0
 10
14.7514891627
 20
11.3582338059
 30
0.0
 10
14.7533557481
 20
11.3510930674
 30
0.0
 10
14.7545287928
 20
11.3440307945
 30
0.0
 10
14.7550050784
 20
11.3370748359
 30
0.0
 10
14.7547799602
 20
11.3302512081
 30
0.0
 10
14.7538547031
 20
11.3235880319
 30
0.0
 10
14.7527715055
 20
11.3192627933
 30
0.0
 10
14.7521173764
 20
11.3171458595
 30
0.0
  0
SPLINE
  5
36C
100
AcDbEntity
  8
0
100
AcDbSpline
 62
7
  6
CONTINUOUS
 70
0
 71
3
 72
11
 73
7
 74
0
 42
0.0000001
 43
0.0000001
 44
0.0000000001
 40
0.0
 40
0.0
 40
0.0
 40
0.0
 40
0.2481802455
 40
0.4969577782
 40
0.7472538376
 40
1.0
 40
1.0
 40
1.0
 40
1.0
 10
16.5175392476
 20
12.8786360452
 30
0.0
 10
16.5155961387
 20
12.8723481427
 30
0.0
 10
16.5109045888
 20
12.8599888551
 30
0.0
 10
16.5015839038
 20
12.8424469746
 30
0.0
 10
16.4901423547
 20
12.8260638529
 30
0.0
 10
16.481259291
 20
12.8160671928
 30
0.0
 10
16.4765414565
 20
12.8113065403
 30
0.0
  0
SPLINE
  5
36D
100
AcDbEntity
  8
0
100
AcDbSpline
 62
7
  6
CONTINUOUS
 70
0
 71
3
 72
23
 73
19
 74
0
 42
0.0000001
 43
0.0000001
 44
0.0000000001
 40
0.0
 40
0.0
 40
0.0
 40
0.0
 40
0.0679179554
 40
0.1358442369
 40
0.2036059131
 40
0.2710329371
 40
0.3379572871
 40
0.4042151204
 40
0.4696480732
 40
0.5341045845
 40
0.5974416631
 40
0.6595263654
 40
0.7202373499
 40
0.7794668148
 40
0.8371225447
 40
0.8931297541
 40
0.9474332439
 40
1.0
 40
1.0
 40
1.0
 40
1.0
 10
14.9325021824
 20
11.2531132103
 30
0.0
 10
14.9747851645
 20
11.2383152861
 30
0.0
 10
15.059888484
 20
11.210213994
 30
0.0
 10
15.1888433552
 20
11.1726239627
 30
0.0
 10
15.3187350993
 20
11.1396976083
 30
0.0
 10
15.4490716263
 20
11.1115601778
 30
0.0
 10
15.5793628075
 20
11.0883179577
 30
0.0
 10
15.7091180002
 20
11.0700588655
 30
0.0
 10
15.8378494137
 20
11.0568527067
 30
0.0
 10
15.9650737152
 20
11.0487510094
 30
0.0
 10
16.0903139328
 20
11.0457855051
 30
0.0
 10
16.2131015077
 20
11.047969535
 30
0.0
 10
16.3329779239
 20
11.0552984607
 30
0.0
 10
16.4494967088
 20
11.0677492442
 30
0.0
 10
16.562224565
 20
11.0852801467
 30
0.0
 10
16.6707450232
 20
11.1078335033
 30
0.0
 10
16.7746509208
 20
11.1353332553
 30
0.0
 10
16.8416942653
 20
11.157265409
 30
0.0
 10
16.8742950696
 20
11.1690701149
 30
0.0
  0
SPLINE
  5
36E
100
AcDbEntity
  8
0
100
AcDbSpline
 62
7
  6
CONTINUOUS
 70
0
 71
3
 72
14
 73
10
 74
0
 42
0.0000001
 43
0.0000001
 44
0.0000000001
 40
0.0
 40
0.0
 40
0.0
 40
0.0
 40
0.2551430554
 40
0.3810157446
 40
0.5059507102
 40
0.6301297898
 40
0.7537410091
 40
0.8769699148
 40
1.0
 40
1.0
 40
1.0
 40
1.0
 10
17.3868219926
 20
11.5083922361
 30
0.0
 10
17.4028707311
 20
11.5279518505
 30
0.0
 10
17.4255446351
 20
11.558264909
 30
0.0
 10
17.4526659235
 20
11.6004908017
 30
0.0
 10
17.471241147
 20
11.6327222197
 30
0.0
 10
17.4881189041
 20
11.6656209175
 30
0.0
 10
17.503282053
 20
11.6991595943
 30
0.0
 10
17.5167152747
 20
11.7333044397
 30
0.0
 10
17.524511966
 20
11.7564591264
 30
0.0
 10
17.5281140287
 20
11.7681154057
 30
0.0
  0
SPLINE
  5
36F
100
AcDbEntity
  8
0
100
AcDbSpline
 62
7
  6
CONTINUOUS
 70
0
 71
3
 72
32
 73
28
 74
0
 42
0.0000001
 43
0.0000001
 44
0.0000000001
 40
0.0
 40
0.0
 40
0.0
 40
0.0
 40
0.0246423456
 40
0.0493463754
 40
0.0741693855
 40
0.0991688695
 40
0.1244011698
 40
0.1499199337
 40
0.175775506
 40
0.2020145766
 40
0.2286803071
 40
0.2558118441
 40
0.2834441668
 40
0.31160795
 40
0.3696174452
 40
0.4300178922
 40
0.4929066737
 40
0.5583219837
 40
0.5919787477
 40
0.6262572225
 40
0.6611482927
 40
0.6966397111
 40
0.7327172671
 40
0.7693642232
 40
0.8442830104
 40
0.9212266682
 40
1.0
 40
1.0
 40
1.0
 40
1.0
 10
13.3481478351
 20
13.0598226559
 30
0.0
 10
13.3436508686
 20
13.045270467
 30
0.0
 10
13.3355565993
 20
13.015839234
 30
0.0
 10
13.3261741633
 20
12.9709375566
 30
0.0
 10
13.3195585038
 20
12.9253211567
 30
0.0
 10
13.3157168873
 20
12.8790614684
 30
0.0
 10
13.3146494708
 20
12.8322253576
 30
0.0
 10
13.3163557626
 20
12.7848797412
 30
0.0
 10
13.3208249199
 20
12.7370907452
 30
0.0
 10
13.3280484423
 20
12.6889241256
 30
0.0
 10
13.3380091098
 20
12.6404441006
 30
0.0
 10
13.3506884824
 20
12.5917142303
 30
0.0
 10
13.3660659041
 20
12.5427963542
 30
0.0
 10
13.3903673753
 20
12.4767612269
 30
0.0
 10
13.4275727173
 20
12.394013428
 30
0.0
 10
13.4820844319
 20
12.2959702996
 30
0.0
 10
13.546595122
 20
12.1986684033
 30
0.0
 10
13.6078104831
 20
12.1193525352
 30
0.0
 10
13.6613332962
 20
12.0566578481
 30
0.0
 10
13.7041318267
 20
12.009657225
 30
0.0
 10
13.7491481111
 20
11.9631860415
 30
0.0
 10
13.79632392
 20
11.9172996611
 30
0.0
 10
13.845600273
 20
11.8720561907
 30
0.0
 10
13.91452058
 20
11.8122266731
 30
0.0
 10
14.0055946698
 20
11.7394577579
 30
0.0
 10
14.1213918778
 20
11.6562235927
 30
0.0
 10
14.2022072568
 20
11.6038727456
 30
0.0
 10
14.2436678874
 20
11.5783456216
 30
0.0
  0
SPLINE
  5
370
100
AcDbEntity
  8
0
100
AcDbSpline
 62
7
  6
CONTINUOUS
 70
0
 71
3
 72
51
 73
47
 74
0
 42
0.0000001
 43
0.0000001
 44
0.0000000001
 40
0.0
 40
0.0
 40
0.0
 40
0.0
 40
0.0108741689
 40
0.0217841441
 40
0.0327634621
 40
0.0438456402
 40
0.0550628434
 40
0.0664452
 40
0.0780203973
 40
0.0898137047
 40
0.1018477026
 40
0.1141421366
 40
0.1267138891
 40
0.1395769886
 40
0.1662119843
 40
0.1800055846
 40
0.1941195588
 40
0.2233048963
 40
0.2537569979
 40
0.2854277004
 40
0.3182423283
 40
0.3521036051
 40
0.3868952127
 40
0.4224850762
 40
0.4587283377
 40
0.4954701341
 40
0.5325482365
 40
0.5697955587
 40
0.6070426061
 40
0.6441198871
 40
0.6808603304
 40
0.7171017284
 40
0.7526892478
 40
0.7874780697
 40
0.8213361605
 40
0.8541472732
 40
0.8701310879
 40
0.8858184603
 40
0.9012008713
 40
0.9162714745
 40
0.9310250299
 40
0.9454580791
 40
0.9595695975
 40
0.9733618323
 40
0.986837937
 40
1.0
 40
1.0
 40
1.0
 40
1.0
 10
13.4141109082
 20
13.2732792388
 30
0.0
 10
13.4192909491
 20
13.2900418571
 30
0.0
 10
13.4308848662
 20
13.3232599005
 30
0.0
 10
13.4518582399
 20
13.371829561
 30
0.0
 10
13.4763882581
 20
13.4190841588
 30
0.0
 10
13.5044166175
 20
13.4649309656
 30
0.0
 10
13.5358870548
 20
13.5092850014
 30
0.0
 10
13.5707312774
 20
13.5520691135
 30
0.0
 10
13.6088803113
 20
13.5932086554
 30
0.0
 10
13.6502576468
 20
13.6326364657
 30
0.0
 10
13.6947847453
 20
13.6702891528
 30
0.0
 10
13.7423783477
 20
13.7061079525
 30
0.0
 10
13.7929536864
 20
13.7400394731
 30
0.0
 10
13.8650706527
 20
13.7831905383
 30
0.0
 10
13.9420795867
 20
13.8217751532
 30
0.0
 10
14.0232123379
 20
13.8559057701
 30
0.0
 10
14.1095921203
 20
13.8879777183
 30
0.0
 10
14.2236116037
 20
13.9224793346
 30
0.0
 10
14.367512202
 20
13.9545892867
 30
0.0
 10
14.5190498098
 20
13.9776792188
 30
0.0
 10
14.6772115041
 20
13.991612558
 30
0.0
 10
14.8409451781
 20
13.996310083
 30
0.0
 10
15.0091548552
 20
13.9917492554
 30
0.0
 10
15.1807113527
 20
13.9779670138
 30
0.0
 10
15.3544594583
 20
13.9550604455
 30
0.0
 10
15.5292265536
 20
13.923187035
 30
0.0
 10
15.7038311157
 20
13.882564118
 30
0.0
 10
15.8770913781
 20
13.8334676819
 30
0.0
 10
16.0478339183
 20
13.7762305779
 30
0.0
 10
16.2149021925
 20
13.7112401736
 30
0.0
 10
16.3771648449
 20
13.6389355067
 30
0.0
 10
16.5335239516
 20
13.5598037962
 30
0.0
 10
16.6829223177
 20
13.4743769465
 30
0.0
 10
16.8243526818
 20
13.3832257462
 30
0.0
 10
16.9568579198
 20
13.286960045
 30
0.0
 10
17.0599917226
 20
13.202274256
 30
0.0
 10
17.1371498526
 20
13.1324619304
 30
0.0
 10
17.1917469132
 20
13.079689578
 30
0.0
 10
17.2434813414
 20
13.0261380961
 30
0.0
 10
17.2922658307
 20
12.9718946082
 30
0.0
 10
17.3380163479
 20
12.9170477869
 30
0.0
 10
17.380655702
 20
12.8616880849
 30
0.0
 10
17.4201097972
 20
12.8059028371
 30
0.0
 10
17.4563117536
 20
12.7497807209
 30
0.0
 10
17.489192628
 20
12.6934172495
 30
0.0
 10
17.5090929276
 20
12.6553007992
 30
0.0
 10
17.5184483426
 20
12.6362364679
 30
0.0
  0
SPLINE
  5
371
100
AcDbEntity
  8
0
100
AcDbSpline
 62
7
  6
CONTINUOUS
 70
0
 71
3
 72
19
 73
15
 74
0
 42
0.0000001
 43
0.0000001
 44
0.0000000001
 40
0.0
 40
0.0
 40
0.0
 40
0.0
 40
0.1372084688
 40
0.2699118812
 40
0.3984851346
 40
0.523430586
 40
0.5847391581
 40
0.6453671998
 40
0.7054015783
 40
0.7649341735
 40
0.824060879
 40
0.8828810747
 40
0.9414943019
 40
1.0
 40
1.0
 40
1.0
 40
1.0
 10
17.5221486751
 20
12.6286321438
 30
0.0
 10
17.5353993373
 20
12.6011690579
 30
0.0
 10
17.5595244844
 20
12.5461762501
 30
0.0
 10
17.5886250639
 20
12.4624351354
 30
0.0
 10
17.6098764051
 20
12.3791650154
 30
0.0
 10
17.6210194476
 20
12.309979931
 30
0.0
 10
17.6258232569
 20
12.2553062372
 30
0.0
 10
17.627390999
 20
12.2148790614
 30
0.0
 10
17.6269397339
 20
12.1748189144
 30
0.0
 10
17.6244666814
 20
12.1351662503
 30
0.0
 10
17.6199738166
 20
12.0959627107
 30
0.0
 10
17.6134614299
 20
12.0572501727
 30
0.0
 10
17.6049370779
 20
12.0190727721
 30
0.0
 10
17.5979159269
 20
11.9939944311
 30
0.0
 10
17.5940771018
 20
11.9815719886
 30
0.0
  0
SPLINE
  5
372
100
AcDbEntity
  8
0
100
AcDbSpline
 62
7
  6
CONTINUOUS
 70
0
 71
3
 72
28
 73
24
 74
0
 42
0.0000001
 43
0.0000001
 44
0.0000000001
 40
0.0
 40
0.0
 40
0.0
 40
0.0
 40
0.0256499215
 40
0.0512937311
 40
0.0770400288
 40
0.1029389239
 40
0.1290222677
 40
0.1553552319
 40
0.1820002261
 40
0.2090232733
 40
0.264400717
 40
0.2928895188
 40
0.3219545734
 40
0.3818946849
 40
0.4443383334
 40
0.509209683
 40
0.5762823566
 40
0.6452046373
 40
0.7155272857
 40
0.7867336901
 40
0.8582600651
 40
0.9295411266
 40
1.0
 40
1.0
 40
1.0
 40
1.0
 10
17.2994414977
 20
11.2852867839
 30
0.0
 10
17.2979541313
 20
11.2804736646
 30
0.0
 10
17.2945123034
 20
11.2709859982
 30
0.0
 10
17.288001931
 20
11.257303129
 30
0.0
 10
17.2802016624
 20
11.2442549155
 30
0.0
 10
17.2711922015
 20
11.2319053269
 30
0.0
 10
17.2610456811
 20
11.2203194568
 30
0.0
 10
17.249849357
 20
11.2095352059
 30
0.0
 10
17.2376783235
 20
11.1995717755
 30
0.0
 10
17.2201073843
 20
11.1872980159
 30
0.0
 10
17.2009363554
 20
11.1767971903
 30
0.0
 10
17.1805576702
 20
11.1680189287
 30
0.0
 10
17.1588463182
 20
11.1601633811
 30
0.0
 10
17.1300593429
 20
11.1524361547
 30
0.0
 10
17.0937156491
 20
11.1464730482
 30
0.0
 10
17.0555918373
 20
11.143689176
 30
0.0
 10
17.0161021416
 20
11.1440519866
 30
0.0
 10
16.9756920429
 20
11.1475156577
 30
0.0
 10
16.9348378714
 20
11.1540126332
 30
0.0
 10
16.8940374415
 20
11.1634485852
 30
0.0
 10
16.8537948065
 20
11.1756981483
 30
0.0
 10
16.8146190373
 20
11.190607643
 30
0.0
 10
16.7893248044
 20
11.2022989093
 30
0.0
 10
16.77698214
 20
11.2085563967
 30
0.0
  0
SPLINE
  5
373
100
AcDbEntity
  8
0
100
AcDbSpline
 62
7
  6
CONTINUOUS
 70
0
 71
3
 72
20
 73
16
 74
0
 42
0.0000001
 43
0.0000001
 44
0.0000000001
 40
0.0
 40
0.0
 40
0.0
 40
0.0
 40
0.0237564712
 40
0.0564767297
 40
0.0977070095
 40
0.1464390192
 40
0.2016622245
 40
0.2624208403
 40
0.3278171336
 40
0.3970002088
 40
0.5435921898
 40
0.6964873945
 40
0.8503712301
 40
0.9260982499
 40
1.0
 40
1.0
 40
1.0
 40
1.0
 10
16.4264165662
 20
11.3595903777
 30
0.0
 10
16.4269480723
 20
11.3598349788
 30
0.0
 10
16.4282421305
 20
11.3603502828
 30
0.0
 10
16.4305420874
 20
11.3610651459
 30
0.0
 10
16.4334880983
 20
11.3617479148
 30
0.0
 10
16.4370200517
 20
11.362321458
 30
0.0
 10
16.4410601527
 20
11.3627151965
 30
0.0
 10
16.4455262488
 20
11.3628884149
 30
0.0
 10
16.4503388867
 20
11.3628083886
 30
0.0
 10
16.4572499622
 20
11.3623322646
 30
0.0
 10
16.4662503211
 20
11.361019788
 30
0.0
 10
16.4771168618
 20
11.3583895261
 30
0.0
 10
16.486049228
 20
11.3553504062
 30
0.0
 10
16.4929433028
 20
11.3524556282
 30
0.0
 10
16.4962721895
 20
11.3508708052
 30
0.0
 10
16.4978955748
 20
11.3500477809
 30
0.0
  0
SPLINE
  5
374
100
AcDbEntity
  8
0
100
AcDbSpline
 62
7
  6
CONTINUOUS
 70
0
 71
3
 72
23
 73
19
 74
0
 42
0.0000001
 43
0.0000001
 44
0.0000000001
 40
0.0
 40
0.0
 40
0.0
 40
0.0
 40
0.0519156249
 40
0.1055359971
 40
0.1608562358
 40
0.2178690366
 40
0.2765310762
 40
0.3367762589
 40
0.3985194682
 40
0.4616561563
 40
0.5260657225
 40
0.591613792
 40
0.6581536577
 40
0.7255291776
 40
0.7935748259
 40
0.8621180158
 40
0.9309913046
 40
1.0
 40
1.0
 40
1.0
 40
1.0
 10
16.4264165662
 20
11.3595903777
 30
0.0
 10
16.4049976764
 20
11.3497333219
 30
0.0
 10
16.3607407488
 20
11.3312202677
 30
0.0
 10
16.291631865
 20
11.3073996869
 30
0.0
 10
16.2189906472
 20
11.2871422121
 30
0.0
 10
16.1430968685
 20
11.2704973595
 30
0.0
 10
16.0642284891
 20
11.2575057831
 30
0.0
 10
15.9826810655
 20
11.2482001349
 30
0.0
 10
15.8987610437
 20
11.2426027227
 30
0.0
 10
15.8127857886
 20
11.240724724
 30
0.0
 10
15.7250829814
 20
11.242565022
 30
0.0
 10
15.6359890858
 20
11.2481108736
 30
0.0
 10
15.5458476887
 20
11.257336112
 30
0.0
 10
15.4550084728
 20
11.2702010151
 30
0.0
 10
15.3638259939
 20
11.2866526385
 30
0.0
 10
15.2726531534
 20
11.3066252417
 30
0.0
 10
15.1818527497
 20
11.3300392126
 30
0.0
 10
15.1218093216
 20
11.347877917
 30
0.0
 10
15.0919334219
 20
11.3573490775
 30
0.0
  0
LINE
  5
375
100
AcDbEntity
  8
0
100
AcDbLine
 62
7
  6
CONTINUOUS
 10
15.0372720232
 20
11.3589999425
 11
15.0390290882
 21
11.3598664342
  0
SPLINE
  5
376
100
AcDbEntity
  8
0
100
AcDbSpline
 62
7
  6
CONTINUOUS
 70
0
 71
3
 72
18
 73
14
 74
0
 42
0.0000001
 43
0.0000001
 44
0.0000000001
 40
0.0
 40
0.0
 40
0.0
 40
0.0
 40
0.0277114096
 40
0.062466126
 40
0.1038445828
 40
0.1513365241
 40
0.2043357453
 40
0.2622593654
 40
0.3906208098
 40
0.5322052735
 40
0.6831911338
 40
0.840267399
 40
1.0
 40
1.0
 40
1.0
 40
1.0
 10
15.0390290882
 20
11.3598664342
 30
0.0
 10
15.039488165
 20
11.3600569977
 30
0.0
 10
15.0405392069
 20
11.3604476951
 30
0.0
 10
15.0423203822
 20
11.3609957085
 30
0.0
 10
15.0444746019
 20
11.3615264289
 30
0.0
 10
15.0469750703
 20
11.3620044933
 30
0.0
 10
15.0497898875
 20
11.3624011523
 30
0.0
 10
15.0540651761
 20
11.3627951125
 30
0.0
 10
15.0599523642
 20
11.3629348933
 30
0.0
 10
15.0674975896
 20
11.3625043569
 30
0.0
 10
15.0755000559
 20
11.3614422606
 30
0.0
 10
15.0837242489
 20
11.3597458116
 30
0.0
 10
15.089202266
 20
11.3582148997
 30
0.0
 10
15.0919334219
 20
11.3573490775
 30
0.0
  0
SPLINE
  5
377
100
AcDbEntity
  8
0
100
AcDbSpline
 62
7
  6
CONTINUOUS
 70
0
 71
3
 72
42
 73
38
 74
0
 42
0.0000001
 43
0.0000001
 44
0.0000000001
 40
0.0
 40
0.0
 40
0.0
 40
0.0
 40
0.0267014855
 40
0.0539567452
 40
0.0819164329
 40
0.1106956129
 40
0.1403814816
 40
0.1710244853
 40
0.2026352395
 40
0.2351861839
 40
0.2686165913
 40
0.3028341121
 40
0.3377230015
 40
0.3731459383
 40
0.4089507503
 40
0.4449744868
 40
0.4810480082
 40
0.5170012289
 40
0.5526667597
 40
0.5878859509
 40
0.6225117615
 40
0.6564154724
 40
0.6894904153
 40
0.7216566669
 40
0.7528672249
 40
0.7831090635
 40
0.8124103362
 40
0.8408356588
 40
0.8684885152
 40
0.8954961488
 40
0.9220072876
 40
0.9351337339
 40
0.9481900556
 40
0.9611844486
 40
0.9741306053
 40
0.9870571961
 40
1.0
 40
1.0
 40
1.0
 40
1.0
 10
14.8975229857
 20
11.217957279
 30
0.0
 10
14.8919160432
 20
11.2122994493
 30
0.0
 10
14.8798323289
 20
11.2015919539
 30
0.0
 10
14.8597139358
 20
11.1876344675
 30
0.0
 10
14.8376655744
 20
11.175635372
 30
0.0
 10
14.8138860476
 20
11.1655771767
 30
0.0
 10
14.7885467441
 20
11.1574375923
 30
0.0
 10
14.761811475
 20
11.151193655
 30
0.0
 10
14.733843705
 20
11.1468311236
 30
0.0
 10
14.704816011
 20
11.1443358672
 30
0.0
 10
14.6749125859
 20
11.1436960189
 30
0.0
 10
14.6443299459
 20
11.1448934894
 30
0.0
 10
14.6132764548
 20
11.1479060579
 30
0.0
 10
14.5819697475
 20
11.1527017504
 30
0.0
 10
14.5506344021
 20
11.1592383801
 30
0.0
 10
14.5194993651
 20
11.1674653313
 30
0.0
 10
14.4887937629
 20
11.1773186189
 30
0.0
 10
14.4587453038
 20
11.1887266598
 30
0.0
 10
14.4295762764
 20
11.201608
 30
0.0
 10
14.4015009374
 20
11.2158728106
 30
0.0
 10
14.3747243624
 20
11.2314279081
 30
0.0
 10
14.3494384471
 20
11.2481743717
 30
0.0
 10
14.3258231496
 20
11.2660147926
 30
0.0
 10
14.3040447501
 20
11.2848532713
 30
0.0
 10
14.2842582485
 20
11.3045989515
 30
0.0
 10
14.2666104819
 20
11.3251685781
 30
0.0
 10
14.2512452996
 20
11.3464846308
 30
0.0
 10
14.2383123384
 20
11.3684733927
 30
0.0
 10
14.2279733298
 20
11.3910526314
 30
0.0
 10
14.220408317
 20
11.4141120182
 30
0.0
 10
14.2165591488
 20
11.4336783244
 30
0.0
 10
14.2150800134
 20
11.4493383421
 30
0.0
 10
14.2147768941
 20
11.4610311953
 30
0.0
 10
14.2152888636
 20
11.4726629693
 30
0.0
 10
14.2166314807
 20
11.4841900901
 30
0.0
 10
14.218808849
 20
11.4955728844
 30
0.0
 10
14.2208151803
 20
11.5030333902
 30
0.0
 10
14.2219551435
 20
11.5067223125
 30
0.0
  0
SPLINE
  5
378
100
AcDbEntity
  8
0
100
AcDbSpline
 62
7
  6
CONTINUOUS
 70
0
 71
3
 72
15
 73
11
 74
0
 42
0.0000001
 43
0.0000001
 44
0.0000000001
 40
0.0
 40
0.0
 40
0.0
 40
0.0
 40
0.1872408719
 40
0.3600531563
 40
0.5166843548
 40
0.6553979027
 40
0.7744154991
 40
0.8722261749
 40
0.9476875212
 40
1.0
 40
1.0
 40
1.0
 40
1.0
 10
14.3873837633
 20
11.7147211297
 30
0.0
 10
14.3882314046
 20
11.7140765252
 30
0.0
 10
14.3898353024
 20
11.7128021801
 30
0.0
 10
14.392052649
 20
11.7108722989
 30
0.0
 10
14.3939748199
 20
11.7090282726
 30
0.0
 10
14.3955914347
 20
11.7073121492
 30
0.0
 10
14.3968982801
 20
11.7057677028
 30
0.0
 10
14.3978969836
 20
11.7044376012
 30
0.0
 10
14.3986067864
 20
11.7033679666
 30
0.0
 10
14.3989692109
 20
11.7027373539
 30
0.0
 10
14.3991066874
 20
11.7024735032
 30
0.0
  0
SPLINE
  5
379
100
AcDbEntity
  8
0
100
AcDbSpline
 62
7
  6
CONTINUOUS
 70
0
 71
3
 72
26
 73
22
 74
0
 42
0.0000001
 43
0.0000001
 44
0.0000000001
 40
0.0
 40
0.0
 40
0.0
 40
0.0
 40
0.076479407
 40
0.1511052711
 40
0.223753731
 40
0.294359179
 40
0.3628726574
 40
0.4292765391
 40
0.4935895143
 40
0.5558667796
 40
0.6162020101
 40
0.6747290128
 40
0.7316210023
 40
0.7870872392
 40
0.8413719296
 40
0.8681645968
 40
0.8947655982
 40
0.9212099792
 40
0.9475352492
 40
0.9737837166
 40
1.0
 40
1.0
 40
1.0
 40
1.0
 10
14.3873837633
 20
11.7147211297
 30
0.0
 10
14.3652690436
 20
11.7315386782
 30
0.0
 10
14.3223045381
 20
11.7657399182
 30
0.0
 10
14.2611379245
 20
11.8193180833
 30
0.0
 10
14.2042396247
 20
11.8743890295
 30
0.0
 10
14.1518321784
 20
11.9307575718
 30
0.0
 10
14.1041172282
 20
11.9882362447
 30
0.0
 10
14.0612863165
 20
12.0466348778
 30
0.0
 10
14.0235178638
 20
12.1057634649
 30
0.0
 10
13.9909791625
 20
12.1654311013
 30
0.0
 10
13.9638286844
 20
12.225443557
 30
0.0
 10
13.9422175319
 20
12.2855989467
 30
0.0
 10
13.9262891447
 20
12.3456834922
 30
0.0
 10
13.9161735979
 20
12.4054575643
 30
0.0
 10
13.912668712
 20
12.4550266202
 30
0.0
 10
13.9129084016
 20
12.4941571769
 30
0.0
 10
13.9145905164
 20
12.5231251531
 30
0.0
 10
13.9177775294
 20
12.5517951772
 30
0.0
 10
13.9224727634
 20
12.5801280073
 30
0.0
 10
13.9286717535
 20
12.608084574
 30
0.0
 10
13.9338040894
 20
12.6264511191
 30
0.0
 10
13.9366159292
 20
12.6355502361
 30
0.0
  0
LINE
  5
37A
100
AcDbEntity
  8
0
100
AcDbLine
 62
7
  6
CONTINUOUS
 10
15.2121843318
 20
13.5246418893
 11
15.2082975333
 21
13.5284000596
  0
SPLINE
  5
37B
100
AcDbEntity
  8
0
100
AcDbSpline
 62
7
  6
CONTINUOUS
 70
0
 71
3
 72
24
 73
20
 74
0
 42
0.0000001
 43
0.0000001
 44
0.0000000001
 40
0.0
 40
0.0
 40
0.0
 40
0.0
 40
0.0737513837
 40
0.1462991465
 40
0.2173804889
 40
0.2868385538
 40
0.3545493321
 40
0.4204266133
 40
0.4844498486
 40
0.5466564396
 40
0.6071479686
 40
0.6660809194
 40
0.7236687915
 40
0.7801478457
 40
0.8357814626
 40
0.8908307311
 40
0.9182020359
 40
0.9454901379
 40
1.0
 40
1.0
 40
1.0
 40
1.0
 10
13.6341591689
 20
12.801905658
 30
0.0
 10
13.6257112132
 20
12.8061886049
 30
0.0
 10
13.6091612907
 20
12.815103333
 30
0.0
 10
13.5852896535
 20
12.8296022865
 30
0.0
 10
13.5626916834
 20
12.8450621657
 30
0.0
 10
13.5415022631
 20
12.8614057002
 30
0.0
 10
13.5218421403
 20
12.8785622902
 30
0.0
 10
13.5038273261
 20
12.8964648593
 30
0.0
 10
13.4875679362
 20
12.9150494779
 30
0.0
 10
13.4731713042
 20
12.9342578922
 30
0.0
 10
13.4607468677
 20
12.9540336896
 30
0.0
 10
13.4504121871
 20
12.9743191205
 30
0.0
 10
13.4422949956
 20
12.9950423274
 30
0.0
 10
13.4365348757
 20
13.0161077006
 30
0.0
 10
13.4332729066
 20
13.0373764494
 30
0.0
 10
13.4327541303
 20
13.0551497361
 30
0.0
 10
13.4337001854
 20
13.0692165978
 30
0.0
 10
13.4355561297
 20
13.0831206331
 30
0.0
 10
13.4379860136
 20
13.0933831483
 30
0.0
 10
13.4400528934
 20
13.1000715738
 30
0.0
  0
SPLINE
  5
37C
100
AcDbEntity
  8
0
100
AcDbSpline
 62
7
  6
CONTINUOUS
 70
0
 71
3
 72
48
 73
44
 74
0
 42
0.0000001
 43
0.0000001
 44
0.0000000001
 40
0.0
 40
0.0
 40
0.0
 40
0.0
 40
0.0265285012
 40
0.054366545
 40
0.0835224423
 40
0.1139773004
 40
0.1456772845
 40
0.1785439155
 40
0.2124760559
 40
0.2473540436
 40
0.2830429137
 40
0.3193951891
 40
0.3562537585
 40
0.3934542685
 40
0.4308276129
 40
0.4682023239
 40
0.505406906
 40
0.542272201
 40
0.5786337889
 40
0.6143343849
 40
0.6492263556
 40
0.6831744368
 40
0.7160587687
 40
0.7477780544
 40
0.7782530678
 40
0.7930088256
 40
0.8074361237
 40
0.8215329382
 40
0.8352998385
 40
0.8487394952
 40
0.8618571426
 40
0.8746608865
 40
0.8871613226
 40
0.8993723389
 40
0.9113106689
 40
0.9229961453
 40
0.9344518837
 40
0.945703769
 40
0.9567807644
 40
0.9677143182
 40
0.9785381285
 40
0.9892877755
 40
1.0
 40
1.0
 40
1.0
 40
1.0
 10
14.3692734721
 20
12.2710118698
 30
0.0
 10
14.3788560918
 20
12.251484544
 30
0.0
 10
14.4005270823
 20
12.2124392215
 30
0.0
 10
14.4390196689
 20
12.1557037716
 30
0.0
 10
14.48400978
 20
12.0997773197
 30
0.0
 10
14.5351814539
 20
12.0450388011
 30
0.0
 10
14.5921914383
 20
11.9918511878
 30
0.0
 10
14.6546517221
 20
11.940572074
 30
0.0
 10
14.7221389724
 20
11.8915465037
 30
0.0
 10
14.7941952429
 20
11.8451059943
 30
0.0
 10
14.8703312838
 20
11.8015651883
 30
0.0
 10
14.9500299976
 20
11.7612199075
 30
0.0
 10
15.0327495095
 20
11.724344294
 30
0.0
 10
15.1179270839
 20
11.6911888899
 30
0.0
 10
15.2049831243
 20
11.6619792659
 30
0.0
 10
15.2933251667
 20
11.636914289
 30
0.0
 10
15.3823520332
 20
11.6161648427
 30
0.0
 10
15.4714578916
 20
11.5998719705
 30
0.0
 10
15.5600366563
 20
11.588146311
 30
0.0
 10
15.6474861811
 20
11.5810676513
 30
0.0
 10
15.733212516
 20
11.5786844499
 30
0.0
 10
15.8166336577
 20
11.581013672
 30
0.0
 10
15.8971853083
 20
11.5880403312
 30
0.0
 10
15.9743191863
 20
11.5997179445
 30
0.0
 10
16.035971794
 20
11.6134065618
 30
0.0
 10
16.0830625555
 20
11.6266828143
 30
0.0
 10
16.1168275608
 20
11.6376343783
 30
0.0
 10
16.1493586956
 20
11.6496699438
 30
0.0
 10
16.1806014271
 20
11.6627678035
 30
0.0
 10
16.210502228
 20
11.6769065855
 30
0.0
 10
16.2390096465
 20
11.6920633729
 30
0.0
 10
16.2660758326
 20
11.7082110631
 30
0.0
 10
16.2916532257
 20
11.7253247919
 30
0.0
 10
16.3156986908
 20
11.7433744043
 30
0.0
 10
16.3381705968
 20
11.7623300804
 30
0.0
 10
16.3590289841
 20
11.7821609808
 30
0.0
 10
16.3782390371
 20
11.8028320101
 30
0.0
 10
16.3957650702
 20
11.8243100349
 30
0.0
 10
16.4115771676
 20
11.8465573169
 30
0.0
 10
16.4256471426
 20
11.8695356779
 30
0.0
 10
16.4379482603
 20
11.8932066449
 30
0.0
 10
16.4484602325
 20
11.9175259946
 30
0.0
 10
16.4542660866
 20
11.9341573621
 30
0.0
 10
16.4568592349
 20
11.942549256
 30
0.0
  0
SPLINE
  5
37D
100
AcDbEntity
  8
0
100
AcDbSpline
 62
7
  6
CONTINUOUS
 70
0
 71
3
 72
22
 73
18
 74
0
 42
0.0000001
 43
0.0000001
 44
0.0000000001
 40
0.0
 40
0.0
 40
0.0
 40
0.0
 40
0.0653599254
 40
0.1326542012
 40
0.2013279323
 40
0.270858762
 40
0.4098877226
 40
0.4783494867
 40
0.5453060825
 40
0.610286201
 40
0.6729252637
 40
0.7329967241
 40
0.7904468345
 40
0.845417762
 40
0.898263213
 40
0.9495462889
 40
1.0
 40
1.0
 40
1.0
 40
1.0
 10
15.1880411836
 20
12.4492593593
 30
0.0
 10
15.1847385815
 20
12.4492593593
 30
0.0
 10
15.1780305953
 20
12.4488663429
 30
0.0
 10
15.1679804343
 20
12.4471828153
 30
0.0
 10
15.1579505385
 20
12.4444225037
 30
0.0
 10
15.1448628456
 20
12.4393819834
 30
0.0
 10
15.1325735472
 20
12.4324572719
 30
0.0
 10
15.1216248833
 20
12.4239164113
 30
0.0
 10
15.114310978
 20
12.4168845149
 30
0.0
 10
15.1079921119
 20
12.4093255429
 30
0.0
 10
15.1027826303
 20
12.4013727853
 30
0.0
 10
15.0987797117
 20
12.3931674738
 30
0.0
 10
15.0960589024
 20
12.384855372
 30
0.0
 10
15.0946762282
 20
12.376584883
 30
0.0
 10
15.0946674605
 20
12.3685059256
 30
0.0
 10
15.0960398552
 20
12.3607748491
 30
0.0
 10
15.0978712597
 20
12.3559331786
 30
0.0
 10
15.0989944801
 20
12.353644552
 30
0.0
  0
SPLINE
  5
37E
100
AcDbEntity
  8
0
100
AcDbSpline
 62
7
  6
CONTINUOUS
 70
0
 71
3
 72
16
 73
12
 74
0
 42
0.0000001
 43
0.0000001
 44
0.0000000001
 40
0.0
 40
0.0
 40
0.0
 40
0.0
 40
0.111435739
 40
0.2244059028
 40
0.3403494828
 40
0.4605136222
 40
0.5225343916
 40
0.5859707811
 40
0.717375418
 40
0.8552955458
 40
1.0
 40
1.0
 40
1.0
 40
1.0
 10
14.3938345645
 20
11.4278636223
 30
0.0
 10
14.3947090952
 20
11.4306938339
 30
0.0
 10
14.3968884782
 20
11.4362730169
 30
0.0
 10
14.4013619332
 20
11.444169784
 30
0.0
 10
14.4070158874
 20
11.4515623598
 30
0.0
 10
14.4126132498
 20
11.4572030494
 30
0.0
 10
14.4176053177
 20
11.4614159053
 30
0.0
 10
14.4230675343
 20
11.4655184821
 30
0.0
 10
14.430567304
 20
11.4702418631
 30
0.0
 10
14.4404256191
 20
11.4751686139
 30
0.0
 10
14.4474282295
 20
11.4779196334
 30
0.0
 10
14.4510614982
 20
11.47918288
 30
0.0
  0
SPLINE
  5
37F
100
AcDbEntity
  8
0
100
AcDbSpline
 62
7
  6
CONTINUOUS
 70
0
 71
3
 72
23
 73
19
 74
0
 42
0.0000001
 43
0.0000001
 44
0.0000000001
 40
0.0
 40
0.0
 40
0.0
 40
0.0
 40
0.0555749958
 40
0.113746105
 40
0.1742690375
 40
0.236838959
 40
0.3011009604
 40
0.3666643623
 40
0.4331101127
 40
0.5000013955
 40
0.5668929313
 40
0.6333386618
 40
0.6989025411
 40
0.7631650763
 40
0.8257339331
 40
0.8862563921
 40
0.9444277116
 40
1.0
 40
1.0
 40
1.0
 40
1.0
 10
14.4507259531
 20
11.4799537523
 30
0.0
 10
14.4562971214
 20
11.4812638873
 30
0.0
 10
14.4678233495
 20
11.4834389308
 30
0.0
 10
14.4856812175
 20
11.4853712808
 30
0.0
 10
14.5043514736
 20
11.4860350415
 30
0.0
 10
14.5236492193
 20
11.4854226184
 30
0.0
 10
14.5433853854
 20
11.4835417523
 30
0.0
 10
14.5633654742
 20
11.4804103421
 30
0.0
 10
14.5833924769
 20
11.4760589326
 30
0.0
 10
14.6032690654
 20
11.4705315234
 30
0.0
 10
14.6227988058
 20
11.4638816457
 30
0.0
 10
14.6417890415
 20
11.4561752005
 30
0.0
 10
14.6600526924
 20
11.4474888613
 30
0.0
 10
14.6774090618
 20
11.4379070541
 30
0.0
 10
14.6936875756
 20
11.4275251934
 30
0.0
 10
14.7087286579
 20
11.4164445567
 30
0.0
 10
14.7223821306
 20
11.404773703
 30
0.0
 10
14.7306719611
 20
11.3964756759
 30
0.0
 10
14.7345324316
 20
11.3922509931
 30
0.0
  0
SPLINE
  5
380
100
AcDbEntity
  8
0
100
AcDbSpline
 62
7
  6
CONTINUOUS
 70
0
 71
3
 72
9
 73
5
 74
0
 42
0.0000001
 43
0.0000001
 44
0.0000000001
 40
0.0
 40
0.0
 40
0.0
 40
0.0
 40
0.5121951728
 40
1.0
 40
1.0
 40
1.0
 40
1.0
 10
14.7338847432
 20
11.3917166338
 30
0.0
 10
14.7361728551
 20
11.3886174013
 30
0.0
 10
14.740401241
 20
11.3823852839
 30
0.0
 10
14.7440585926
 20
11.375798443
 30
0.0
 10
14.7456749068
 20
11.3725047409
 30
0.0
  0
SPLINE
  5
381
100
AcDbEntity
  8
0
100
AcDbSpline
 62
7
  6
CONTINUOUS
 70
0
 71
3
 72
16
 73
12
 74
0
 42
0.0000001
 43
0.0000001
 44
0.0000000001
 40
0.0
 40
0.0
 40
0.0
 40
0.0
 40
0.111435739
 40
0.2244059028
 40
0.3403494828
 40
0.4605136222
 40
0.5225343916
 40
0.5859707811
 40
0.717375418
 40
0.8552955458
 40
1.0
 40
1.0
 40
1.0
 40
1.0
 10
16.7547552854
 20
11.4278636223
 30
0.0
 10
16.7556298162
 20
11.4306938339
 30
0.0
 10
16.7578091992
 20
11.4362730169
 30
0.0
 10
16.7622826541
 20
11.444169784
 30
0.0
 10
16.7679366083
 20
11.4515623598
 30
0.0
 10
16.7735339708
 20
11.4572030494
 30
0.0
 10
16.7785260387
 20
11.4614159053
 30
0.0
 10
16.7839882553
 20
11.4655184821
 30
0.0
 10
16.791488025
 20
11.4702418631
 30
0.0
 10
16.80134634
 20
11.4751686139
 30
0.0
 10
16.8083489504
 20
11.4779196334
 30
0.0
 10
16.8119822192
 20
11.47918288
 30
0.0
  0
SPLINE
  5
382
100
AcDbEntity
  8
0
100
AcDbSpline
 62
7
  6
CONTINUOUS
 70
0
 71
3
 72
23
 73
19
 74
0
 42
0.0000001
 43
0.0000001
 44
0.0000000001
 40
0.0
 40
0.0
 40
0.0
 40
0.0
 40
0.0555749958
 40
0.113746105
 40
0.1742690375
 40
0.236838959
 40
0.3011009604
 40
0.3666643623
 40
0.4331101127
 40
0.5000013955
 40
0.5668929313
 40
0.6333386618
 40
0.6989025411
 40
0.7631650763
 40
0.8257339331
 40
0.8862563921
 40
0.9444277116
 40
1.0
 40
1.0
 40
1.0
 40
1.0
 10
16.8116466741
 20
11.4799537523
 30
0.0
 10
16.8172178423
 20
11.4812638873
 30
0.0
 10
16.8287440705
 20
11.4834389308
 30
0.0
 10
16.8466019384
 20
11.4853712808
 30
0.0
 10
16.8652721945
 20
11.4860350415
 30
0.0
 10
16.8845699402
 20
11.4854226184
 30
0.0
 10
16.9043061064
 20
11.4835417523
 30
0.0
 10
16.9242861952
 20
11.4804103421
 30
0.0
 10
16.9443131979
 20
11.4760589326
 30
0.0
 10
16.9641897863
 20
11.4705315234
 30
0.0
 10
16.9837195268
 20
11.4638816457
 30
0.0
 10
17.0027097624
 20
11.4561752005
 30
0.0
 10
17.0209734133
 20
11.4474888613
 30
0.0
 10
17.0383297828
 20
11.4379070541
 30
0.0
 10
17.0546082965
 20
11.4275251934
 30
0.0
 10
17.0696493788
 20
11.4164445567
 30
0.0
 10
17.0833028516
 20
11.404773703
 30
0.0
 10
17.091592682
 20
11.3964756759
 30
0.0
 10
17.0954531526
 20
11.3922509931
 30
0.0
  0
SPLINE
  5
383
100
AcDbEntity
  8
0
100
AcDbSpline
 62
7
  6
CONTINUOUS
 70
0
 71
3
 72
14
 73
10
 74
0
 42
0.0000001
 43
0.0000001
 44
0.0000000001
 40
0.0
 40
0.0
 40
0.0
 40
0.0
 40
0.2691240733
 40
0.3976044319
 40
0.5225757677
 40
0.644620433
 40
0.7643885787
 40
0.8825920711
 40
1.0
 40
1.0
 40
1.0
 40
1.0
 10
15.7105390699
 20
11.968642438
 30
0.0
 10
15.714996372
 20
11.958535203
 30
0.0
 10
15.7205653444
 20
11.9431036865
 30
0.0
 10
15.7252945555
 20
11.9221617058
 30
0.0
 10
15.7273828834
 20
11.9068697309
 30
0.0
 10
15.7280538123
 20
11.8918082482
 30
0.0
 10
15.7273066947
 20
11.8770264582
 30
0.0
 10
15.7251394576
 20
11.8625783323
 30
0.0
 10
15.7227494467
 20
11.8531874909
 30
0.0
 10
15.7213267433
 20
11.8485831714
 30
0.0
  0
SPLINE
  5
384
100
AcDbEntity
  8
0
100
AcDbSpline
 62
7
  6
CONTINUOUS
 70
0
 71
3
 72
9
 73
5
 74
0
 42
0.0000001
 43
0.0000001
 44
0.0000000001
 40
0.0
 40
0.0
 40
0.0
 40
0.0
 40
0.5121951728
 40
1.0
 40
1.0
 40
1.0
 40
1.0
 10
17.0948054642
 20
11.3917166338
 30
0.0
 10
17.0970935761
 20
11.3886174013
 30
0.0
 10
17.1013219619
 20
11.3823852839
 30
0.0
 10
17.1049793135
 20
11.375798443
 30
0.0
 10
17.1065956277
 20
11.3725047409
 30
0.0
  0
SPLINE
  5
385
100
AcDbEntity
  8
0
100
AcDbSpline
 62
7
  6
CONTINUOUS
 70
0
 71
3
 72
15
 73
11
 74
0
 42
0.0000001
 43
0.0000001
 44
0.0000000001
 40
0.0
 40
0.0
 40
0.0
 40
0.0
 40
0.1638769943
 40
0.3154014061
 40
0.4544103583
 40
0.5813543862
 40
0.697307637
 40
0.8039791898
 40
0.9038213287
 40
1.0
 40
1.0
 40
1.0
 40
1.0
 10
15.8317451855
 20
12.122914126
 30
0.0
 10
15.8311039746
 20
12.1242207763
 30
0.0
 10
15.8297868558
 20
12.1266963614
 30
0.0
 10
15.8276157803
 20
12.1301041395
 30
0.0
 10
15.825338184
 20
12.1330381174
 30
0.0
 10
15.8229684994
 20
12.1354766121
 30
0.0
 10
15.8205196236
 20
12.1374028946
 30
0.0
 10
15.8180025513
 20
12.138799471
 30
0.0
 10
15.8154344234
 20
12.1396502398
 30
0.0
 10
15.8136879816
 20
12.1398415487
 30
0.0
 10
15.812833754
 20
12.1398414932
 30
0.0
  0
SPLINE
  5
386
100
AcDbEntity
  8
0
100
AcDbSpline
 62
7
  6
CONTINUOUS
 70
0
 71
3
 72
16
 73
12
 74
0
 42
0.0000001
 43
0.0000001
 44
0.0000000001
 40
0.0
 40
0.0
 40
0.0
 40
0.0
 40
0.111435739
 40
0.2244059028
 40
0.3403494828
 40
0.4605136222
 40
0.5225343916
 40
0.5859707811
 40
0.717375418
 40
0.8552955458
 40
1.0
 40
1.0
 40
1.0
 40
1.0
 10
15.9728530353
 20
13.0212128837
 30
0.0
 10
15.9737275661
 20
13.0240430953
 30
0.0
 10
15.9759069491
 20
13.0296222783
 30
0.0
 10
15.980380404
 20
13.0375190454
 30
0.0
 10
15.9860343582
 20
13.0449116211
 30
0.0
 10
15.9916317207
 20
13.0505523107
 30
0.0
 10
15.9966237886
 20
13.0547651667
 30
0.0
 10
16.0020860052
 20
13.0588677434
 30
0.0
 10
16.0095857749
 20
13.0635911244
 30
0.0
 10
16.0194440899
 20
13.0685178752
 30
0.0
 10
16.0264467003
 20
13.0712688947
 30
0.0
 10
16.0300799691
 20
13.0725321414
 30
0.0
  0
SPLINE
  5
387
100
AcDbEntity
  8
0
100
AcDbSpline
 62
7
  6
CONTINUOUS
 70
0
 71
3
 72
23
 73
19
 74
0
 42
0.0000001
 43
0.0000001
 44
0.0000000001
 40
0.0
 40
0.0
 40
0.0
 40
0.0
 40
0.0555749958
 40
0.113746105
 40
0.1742690375
 40
0.236838959
 40
0.3011009604
 40
0.3666643623
 40
0.4331101127
 40
0.5000013955
 40
0.5668929313
 40
0.6333386618
 40
0.6989025411
 40
0.7631650763
 40
0.8257339331
 40
0.8862563921
 40
0.9444277116
 40
1.0
 40
1.0
 40
1.0
 40
1.0
 10
16.029744424
 20
13.0733030136
 30
0.0
 10
16.0353155922
 20
13.0746131486
 30
0.0
 10
16.0468418204
 20
13.0767881922
 30
0.0
 10
16.0646996883
 20
13.0787205422
 30
0.0
 10
16.0833699444
 20
13.0793843028
 30
0.0
 10
16.1026676901
 20
13.0787718797
 30
0.0
 10
16.1224038563
 20
13.0768910136
 30
0.0
 10
16.1423839451
 20
13.0737596034
 30
0.0
 10
16.1624109478
 20
13.069408194
 30
0.0
 10
16.1822875362
 20
13.0638807848
 30
0.0
 10
16.2018172767
 20
13.057230907
 30
0.0
 10
16.2208075123
 20
13.0495244618
 30
0.0
 10
16.2390711632
 20
13.0408381227
 30
0.0
 10
16.2564275327
 20
13.0312563154
 30
0.0
 10
16.2727060464
 20
13.0208744547
 30
0.0
 10
16.2877471287
 20
13.009793818
 30
0.0
 10
16.3014006015
 20
12.9981229643
 30
0.0
 10
16.3096904319
 20
12.9898249373
 30
0.0
 10
16.3135509025
 20
12.9856002544
 30
0.0
  0
SPLINE
  5
388
100
AcDbEntity
  8
0
100
AcDbSpline
 62
7
  6
CONTINUOUS
 70
0
 71
3
 72
9
 73
5
 74
0
 42
0.0000001
 43
0.0000001
 44
0.0000000001
 40
0.0
 40
0.0
 40
0.0
 40
0.0
 40
0.5121951728
 40
1.0
 40
1.0
 40
1.0
 40
1.0
 10
16.3129032141
 20
12.9850658951
 30
0.0
 10
16.315191326
 20
12.9819666626
 30
0.0
 10
16.3194197118
 20
12.9757345453
 30
0.0
 10
16.3230770634
 20
12.9691477043
 30
0.0
 10
16.3246933776
 20
12.9658540022
 30
0.0
  0
SPLINE
  5
389
100
AcDbEntity
  8
0
100
AcDbSpline
 62
7
  6
CONTINUOUS
 70
0
 71
3
 72
48
 73
44
 74
0
 42
0.0000001
 43
0.0000001
 44
0.0000000001
 40
0.0
 40
0.0
 40
0.0
 40
0.0
 40
0.0107122278
 40
0.0214618764
 40
0.0322856863
 40
0.0432192378
 40
0.054296227
 40
0.0655481016
 40
0.0770038236
 40
0.0886892828
 40
0.1006276007
 40
0.1128386082
 40
0.1253390443
 40
0.138142794
 40
0.15126045
 40
0.1647001188
 40
0.1784670279
 40
0.192563849
 40
0.206991149
 40
0.2217469046
 40
0.2522219102
 40
0.2839411902
 40
0.3168255178
 40
0.3507735901
 40
0.3856655474
 40
0.4213661311
 40
0.4577277107
 40
0.4945930002
 40
0.5317975748
 40
0.5691722688
 40
0.6065455936
 40
0.6437461056
 40
0.6806047055
 40
0.7169570141
 40
0.752645899
 40
0.7875238809
 40
0.8214560049
 40
0.8543226187
 40
0.8860225906
 40
0.9164774461
 40
0.9456333495
 40
0.973471456
 40
1.0
 40
1.0
 40
1.0
 40
1.0
 10
14.2660758503
 20
12.4908328674
 30
0.0
 10
14.2687389261
 20
12.4994510626
 30
0.0
 10
14.2747013514
 20
12.5165309177
 30
0.0
 10
14.2854967899
 20
12.5415060749
 30
0.0
 10
14.2981296208
 20
12.5658153607
 30
0.0
 10
14.312579015
 20
12.5894133514
 30
0.0
 10
14.3288174876
 20
12.6122605534
 30
0.0
 10
14.3468161211
 20
12.6343177343
 30
0.0
 10
14.3665441633
 20
12.6555461654
 30
0.0
 10
14.3879649894
 20
12.6759118128
 30
0.0
 10
14.4110428603
 20
12.6953786255
 30
0.0
 10
14.4357367112
 20
12.7139149814
 30
0.0
 10
14.4620038332
 20
12.7314901978
 30
0.0
 10
14.489799899
 20
12.7480733456
 30
0.0
 10
14.5190760689
 20
12.7636388812
 30
0.0
 10
14.5497832099
 20
12.7781589361
 30
0.0
 10
14.5818684574
 20
12.7916100192
 30
0.0
 10
14.6152768509
 20
12.8039701424
 30
0.0
 10
14.649952377
 20
12.8152170344
 30
0.0
 10
14.6983129932
 20
12.8288513039
 30
0.0
 10
14.7616281298
 20
12.8429090522
 30
0.0
 10
14.8408420071
 20
12.8549015686
 30
0.0
 10
14.9235658206
 20
12.8621177148
 30
0.0
 10
15.0092364985
 20
12.8645097565
 30
0.0
 10
15.0972745261
 20
12.8620623009
 30
0.0
 10
15.1870822125
 20
12.8547927659
 30
0.0
 10
15.2780495973
 20
12.8427509195
 30
0.0
 10
15.3695582942
 20
12.8260187016
 30
0.0
 10
15.4609858644
 20
12.8047097412
 30
0.0
 10
15.5517101323
 20
12.7789688784
 30
0.0
 10
15.6411137282
 20
12.748971602
 30
0.0
 10
15.7285882396
 20
12.7149221246
 30
0.0
 10
15.8135384479
 20
12.6770521065
 30
0.0
 10
15.8953864067
 20
12.6356188469
 30
0.0
 10
15.9735755892
 20
12.5909038958
 30
0.0
 10
16.0475749495
 20
12.5432110686
 30
0.0
 10
16.116882058
 20
12.4928634854
 30
0.0
 10
16.181026643
 20
12.4402015996
 30
0.0
 10
16.2395739708
 20
12.3855797482
 30
0.0
 10
16.2921255613
 20
12.3293651511
 30
0.0
 10
16.3383289462
 20
12.271930544
 30
0.0
 10
16.377859585
 20
12.2136650697
 30
0.0
 10
16.4001150218
 20
12.1735667711
 30
0.0
 10
16.409956065
 20
12.1535128334
 30
0.0
  0
SPLINE
  5
38A
100
AcDbEntity
  8
0
100
AcDbSpline
 62
7
  6
CONTINUOUS
 70
0
 71
3
 72
23
 73
19
 74
0
 42
0.0000001
 43
0.0000001
 44
0.0000000001
 40
0.0
 40
0.0
 40
0.0
 40
0.0
 40
0.0555749958
 40
0.113746105
 40
0.1742690375
 40
0.236838959
 40
0.3011009604
 40
0.3666643623
 40
0.4331101127
 40
0.5000013955
 40
0.5668929313
 40
0.6333386618
 40
0.6989025411
 40
0.7631650763
 40
0.8257339331
 40
0.8862563921
 40
0.9444277116
 40
1.0
 40
1.0
 40
1.0
 40
1.0
 10
13.668823703
 20
13.0733030136
 30
0.0
 10
13.6743948713
 20
13.0746131486
 30
0.0
 10
13.6859210994
 20
13.0767881922
 30
0.0
 10
13.7037789674
 20
13.0787205422
 30
0.0
 10
13.7224492234
 20
13.0793843028
 30
0.0
 10
13.7417469692
 20
13.0787718797
 30
0.0
 10
13.7614831353
 20
13.0768910136
 30
0.0
 10
13.7814632241
 20
13.0737596034
 30
0.0
 10
13.8014902268
 20
13.069408194
 30
0.0
 10
13.8213668153
 20
13.0638807848
 30
0.0
 10
13.8408965557
 20
13.057230907
 30
0.0
 10
13.8598867914
 20
13.0495244618
 30
0.0
 10
13.8781504423
 20
13.0408381227
 30
0.0
 10
13.8955068117
 20
13.0312563154
 30
0.0
 10
13.9117853255
 20
13.0208744547
 30
0.0
 10
13.9268264078
 20
13.009793818
 30
0.0
 10
13.9404798805
 20
12.9981229643
 30
0.0
 10
13.948769711
 20
12.9898249373
 30
0.0
 10
13.9526301815
 20
12.9856002544
 30
0.0
  0
SPLINE
  5
38B
100
AcDbEntity
  8
0
100
AcDbSpline
 62
7
  6
CONTINUOUS
 70
0
 71
3
 72
9
 73
5
 74
0
 42
0.0000001
 43
0.0000001
 44
0.0000000001
 40
0.0
 40
0.0
 40
0.0
 40
0.0
 40
0.5121951728
 40
1.0
 40
1.0
 40
1.0
 40
1.0
 10
13.9519824931
 20
12.9850658951
 30
0.0
 10
13.954270605
 20
12.9819666626
 30
0.0
 10
13.9584989908
 20
12.9757345453
 30
0.0
 10
13.9621563425
 20
12.9691477043
 30
0.0
 10
13.9637726567
 20
12.9658540022
 30
0.0
  0
SPLINE
  5
38C
100
AcDbEntity
  8
0
100
AcDbSpline
 62
7
  6
CONTINUOUS
 70
0
 71
3
 72
16
 73
12
 74
0
 42
0.0000001
 43
0.0000001
 44
0.0000000001
 40
0.0
 40
0.0
 40
0.0
 40
0.0
 40
0.111435739
 40
0.2244059028
 40
0.3403494828
 40
0.4605136222
 40
0.5225343916
 40
0.5859707811
 40
0.717375418
 40
0.8552955458
 40
1.0
 40
1.0
 40
1.0
 40
1.0
 10
13.6119323144
 20
13.0212128837
 30
0.0
 10
13.6128068451
 20
13.0240430953
 30
0.0
 10
13.6149862281
 20
13.0296222783
 30
0.0
 10
13.6194596831
 20
13.0375190454
 30
0.0
 10
13.6251136373
 20
13.0449116211
 30
0.0
 10
13.6307109997
 20
13.0505523107
 30
0.0
 10
13.6357030676
 20
13.0547651667
 30
0.0
 10
13.6411652842
 20
13.0588677434
 30
0.0
 10
13.6486650539
 20
13.0635911244
 30
0.0
 10
13.658523369
 20
13.0685178752
 30
0.0
 10
13.6655259794
 20
13.0712688947
 30
0.0
 10
13.6691592481
 20
13.0725321414
 30
0.0
  0
SPLINE
  5
38D
100
AcDbEntity
  8
0
100
AcDbSpline
 62
7
  6
CONTINUOUS
 70
0
 71
3
 72
24
 73
20
 74
0
 42
0.0000001
 43
0.0000001
 44
0.0000000001
 40
0.0
 40
0.0
 40
0.0
 40
0.0
 40
0.0655430607
 40
0.0972489691
 40
0.1282745806
 40
0.1884302718
 40
0.246497059
 40
0.3030484927
 40
0.3587293041
 40
0.4142338941
 40
0.4702726015
 40
0.5275240764
 40
0.5865918098
 40
0.6479863088
 40
0.7121037622
 40
0.7792336948
 40
0.8495522187
 40
0.9231440233
 40
1.0
 40
1.0
 40
1.0
 40
1.0
 10
14.3770144877
 20
11.3568382027
 30
0.0
 10
14.3753816343
 20
11.3601656081
 30
0.0
 10
14.373185185
 20
11.3652203889
 30
0.0
 10
14.3708234615
 20
11.372082004
 30
0.0
 10
14.3689198171
 20
11.3787684651
 30
0.0
 10
14.3672956835
 20
11.3870719717
 30
0.0
 10
14.3665948632
 20
11.3969566726
 30
0.0
 10
14.3671728838
 20
11.4065985612
 30
0.0
 10
14.3690261128
 20
11.4159320276
 30
0.0
 10
14.3721476907
 20
11.4248907909
 30
0.0
 10
14.376511583
 20
11.4334134226
 30
0.0
 10
14.3820881407
 20
11.4414410332
 30
0.0
 10
14.3888334997
 20
11.4489244063
 30
0.0
 10
14.3967029449
 20
11.4558155673
 30
0.0
 10
14.4056414606
 20
11.4620768598
 30
0.0
 10
14.4155930719
 20
11.4676694975
 30
0.0
 10
14.4264936771
 20
11.4725641953
 30
0.0
 10
14.4382757004
 20
11.4767295535
 30
0.0
 10
14.4464951603
 20
11.4789588245
 30
0.0
 10
14.4507259531
 20
11.4799537523
 30
0.0
  0
SPLINE
  5
38E
100
AcDbEntity
  8
0
100
AcDbSpline
 62
7
  6
CONTINUOUS
 70
0
 71
3
 72
43
 73
39
 74
0
 42
0.0000001
 43
0.0000001
 44
0.0000000001
 40
0.0
 40
0.0
 40
0.0
 40
0.0
 40
0.0262489776
 40
0.0511121801
 40
0.0748053156
 40
0.0863227007
 40
0.0976771343
 40
0.1089190816
 40
0.1201014271
 40
0.1312790234
 40
0.1425069451
 40
0.1538390729
 40
0.1653270151
 40
0.1889387906
 40
0.2136891404
 40
0.2398216698
 40
0.2674958002
 40
0.2967912314
 40
0.3277170539
 40
0.3602244
 40
0.3942132562
 40
0.429543169
 40
0.4660406865
 40
0.5035045443
 40
0.5417138067
 40
0.5804317535
 40
0.6194117585
 40
0.6584023408
 40
0.6971514054
 40
0.7354121517
 40
0.772946556
 40
0.8095314582
 40
0.8449645177
 40
0.8790701232
 40
0.9117033959
 40
0.9427614679
 40
0.9721993388
 40
1.0
 40
1.0
 40
1.0
 40
1.0
 10
14.7592548002
 20
11.3568382027
 30
0.0
 10
14.7612665078
 20
11.3527387737
 30
0.0
 10
14.7647337724
 20
11.3445217523
 30
0.0
 10
14.7681949172
 20
11.3319367803
 30
0.0
 10
14.7694744199
 20
11.3215188435
 30
0.0
 10
14.7694889932
 20
11.3134104715
 30
0.0
 10
14.7690129402
 20
11.3074878934
 30
0.0
 10
14.7680514077
 20
11.3016836655
 30
0.0
 10
14.7666055636
 20
11.2960122741
 30
0.0
 10
14.7646785712
 20
11.2904884077
 30
0.0
 10
14.7622766808
 20
11.285125501
 30
0.0
 10
14.7594051166
 20
11.2799367935
 30
0.0
 10
14.7549204992
 20
11.2732092121
 30
0.0
 10
14.7481131005
 20
11.2652709906
 30
0.0
 10
14.7382927044
 20
11.2567522932
 30
0.0
 10
14.7268485179
 20
11.2492170805
 30
0.0
 10
14.7138945979
 20
11.2427316749
 30
0.0
 10
14.6995550991
 20
11.2373506081
 30
0.0
 10
14.683966344
 20
11.2331188964
 30
0.0
 10
14.6672750749
 20
11.2300753321
 30
0.0
 10
14.6496393512
 20
11.228246246
 30
0.0
 10
14.6312263199
 20
11.2276477947
 30
0.0
 10
14.6122110805
 20
11.2282865124
 30
0.0
 10
14.5927747733
 20
11.2301546857
 30
0.0
 10
14.5731029843
 20
11.2332350635
 30
0.0
 10
14.5533838186
 20
11.2374985589
 30
0.0
 10
14.5338056107
 20
11.2429032664
 30
0.0
 10
14.514556007
 20
11.2493986528
 30
0.0
 10
14.4958190242
 20
11.2569220396
 30
0.0
 10
14.4777736799
 20
11.2654010293
 30
0.0
 10
14.4605931451
 20
11.2747557834
 30
0.0
 10
14.4444408768
 20
11.2848956831
 30
0.0
 10
14.4294710886
 20
11.29572487
 30
0.0
 10
14.4158270486
 20
11.307141417
 30
0.0
 10
14.4036373059
 20
11.3190357615
 30
0.0
 10
14.3930176335
 20
11.3312997579
 30
0.0
 10
14.3840738884
 20
11.3438162712
 30
0.0
 10
14.3791451154
 20
11.3524964399
 30
0.0
 10
14.3770144877
 20
11.3568382027
 30
0.0
  0
SPLINE
  5
38F
100
AcDbEntity
  8
0
100
AcDbSpline
 62
7
  6
CONTINUOUS
 70
0
 71
3
 72
24
 73
20
 74
0
 42
0.0000001
 43
0.0000001
 44
0.0000000001
 40
0.0
 40
0.0
 40
0.0
 40
0.0
 40
0.0655430607
 40
0.0972489691
 40
0.1282745806
 40
0.1884302718
 40
0.246497059
 40
0.3030484927
 40
0.3587293041
 40
0.4142338941
 40
0.4702726015
 40
0.5275240764
 40
0.5865918098
 40
0.6479863088
 40
0.7121037622
 40
0.7792336948
 40
0.8495522187
 40
0.9231440233
 40
1.0
 40
1.0
 40
1.0
 40
1.0
 10
16.7379352086
 20
11.3568382027
 30
0.0
 10
16.7363023552
 20
11.3601656081
 30
0.0
 10
16.7341059059
 20
11.3652203889
 30
0.0
 10
16.7317441824
 20
11.372082004
 30
0.0
 10
16.7298405381
 20
11.3787684651
 30
0.0
 10
16.7282164045
 20
11.3870719717
 30
0.0
 10
16.7275155842
 20
11.3969566726
 30
0.0
 10
16.7280936048
 20
11.4065985612
 30
0.0
 10
16.7299468337
 20
11.4159320276
 30
0.0
 10
16.7330684116
 20
11.4248907909
 30
0.0
 10
16.7374323039
 20
11.4334134226
 30
0.0
 10
16.7430088617
 20
11.4414410332
 30
0.0
 10
16.7497542206
 20
11.4489244063
 30
0.0
 10
16.7576236659
 20
11.4558155673
 30
0.0
 10
16.7665621816
 20
11.4620768598
 30
0.0
 10
16.7765137928
 20
11.4676694975
 30
0.0
 10
16.787414398
 20
11.4725641953
 30
0.0
 10
16.7991964213
 20
11.4767295535
 30
0.0
 10
16.8074158812
 20
11.4789588245
 30
0.0
 10
16.8116466741
 20
11.4799537523
 30
0.0
  0
SPLINE
  5
390
100
AcDbEntity
  8
0
100
AcDbSpline
 62
7
  6
CONTINUOUS
 70
0
 71
3
 72
43
 73
39
 74
0
 42
0.0000001
 43
0.0000001
 44
0.0000000001
 40
0.0
 40
0.0
 40
0.0
 40
0.0
 40
0.0262489776
 40
0.0511121801
 40
0.0748053156
 40
0.0863227007
 40
0.0976771343
 40
0.1089190816
 40
0.1201014271
 40
0.1312790234
 40
0.1425069451
 40
0.1538390729
 40
0.1653270151
 40
0.1889387906
 40
0.2136891404
 40
0.2398216698
 40
0.2674958002
 40
0.2967912314
 40
0.3277170539
 40
0.3602244
 40
0.3942132562
 40
0.429543169
 40
0.4660406865
 40
0.5035045443
 40
0.5417138067
 40
0.5804317535
 40
0.6194117585
 40
0.6584023408
 40
0.6971514054
 40
0.7354121517
 40
0.772946556
 40
0.8095314582
 40
0.8449645177
 40
0.8790701232
 40
0.9117033959
 40
0.9427614679
 40
0.9721993388
 40
1.0
 40
1.0
 40
1.0
 40
1.0
 10
17.1201755212
 20
11.3568382027
 30
0.0
 10
17.1221872287
 20
11.3527387737
 30
0.0
 10
17.1256544934
 20
11.3445217523
 30
0.0
 10
17.1291156381
 20
11.3319367803
 30
0.0
 10
17.1303951409
 20
11.3215188435
 30
0.0
 10
17.1304097141
 20
11.3134104715
 30
0.0
 10
17.1299336612
 20
11.3074878934
 30
0.0
 10
17.1289721287
 20
11.3016836655
 30
0.0
 10
17.1275262845
 20
11.2960122741
 30
0.0
 10
17.1255992922
 20
11.2904884077
 30
0.0
 10
17.1231974017
 20
11.285125501
 30
0.0
 10
17.1203258376
 20
11.2799367935
 30
0.0
 10
17.1158412201
 20
11.2732092121
 30
0.0
 10
17.1090338215
 20
11.2652709906
 30
0.0
 10
17.0992134254
 20
11.2567522932
 30
0.0
 10
17.0877692389
 20
11.2492170805
 30
0.0
 10
17.0748153189
 20
11.2427316749
 30
0.0
 10
17.0604758201
 20
11.2373506081
 30
0.0
 10
17.044887065
 20
11.2331188964
 30
0.0
 10
17.0281957959
 20
11.2300753321
 30
0.0
 10
17.0105600722
 20
11.228246246
 30
0.0
 10
16.9921470409
 20
11.2276477947
 30
0.0
 10
16.9731318015
 20
11.2282865124
 30
0.0
 10
16.9536954943
 20
11.2301546857
 30
0.0
 10
16.9340237053
 20
11.2332350635
 30
0.0
 10
16.9143045395
 20
11.2374985589
 30
0.0
 10
16.8947263316
 20
11.2429032664
 30
0.0
 10
16.875476728
 20
11.2493986528
 30
0.0
 10
16.8567397451
 20
11.2569220396
 30
0.0
 10
16.8386944009
 20
11.2654010293
 30
0.0
 10
16.8215138661
 20
11.2747557834
 30
0.0
 10
16.8053615978
 20
11.2848956831
 30
0.0
 10
16.7903918096
 20
11.29572487
 30
0.0
 10
16.7767477696
 20
11.307141417
 30
0.0
 10
16.7645580268
 20
11.3190357615
 30
0.0
 10
16.7539383544
 20
11.3312997579
 30
0.0
 10
16.7449946093
 20
11.3438162712
 30
0.0
 10
16.7400658364
 20
11.3524964399
 30
0.0
 10
16.7379352086
 20
11.3568382027
 30
0.0
  0
SPLINE
  5
391
100
AcDbEntity
  8
0
100
AcDbSpline
 62
7
  6
CONTINUOUS
 70
0
 71
3
 72
24
 73
20
 74
0
 42
0.0000001
 43
0.0000001
 44
0.0000000001
 40
0.0
 40
0.0
 40
0.0
 40
0.0
 40
0.0655430607
 40
0.0972489691
 40
0.1282745806
 40
0.1884302718
 40
0.246497059
 40
0.3030484927
 40
0.3587293041
 40
0.4142338941
 40
0.4702726015
 40
0.5275240764
 40
0.5865918098
 40
0.6479863088
 40
0.7121037622
 40
0.7792336948
 40
0.8495522187
 40
0.9231440233
 40
1.0
 40
1.0
 40
1.0
 40
1.0
 10
15.9560329585
 20
12.950187464
 30
0.0
 10
15.9544001051
 20
12.9535148695
 30
0.0
 10
15.9522036558
 20
12.9585696503
 30
0.0
 10
15.9498419323
 20
12.9654312653
 30
0.0
 10
15.947938288
 20
12.9721177265
 30
0.0
 10
15.9463141544
 20
12.9804212331
 30
0.0
 10
15.9456133341
 20
12.9903059339
 30
0.0
 10
15.9461913547
 20
12.9999478225
 30
0.0
 10
15.9480445836
 20
13.0092812889
 30
0.0
 10
15.9511661615
 20
13.0182400523
 30
0.0
 10
15.9555300538
 20
13.026762684
 30
0.0
 10
15.9611066116
 20
13.0347902946
 30
0.0
 10
15.9678519705
 20
13.0422736676
 30
0.0
 10
15.9757214158
 20
13.0491648286
 30
0.0
 10
15.9846599315
 20
13.0554261211
 30
0.0
 10
15.9946115427
 20
13.0610187588
 30
0.0
 10
16.0055121479
 20
13.0659134566
 30
0.0
 10
16.0172941712
 20
13.0700788149
 30
0.0
 10
16.0255136311
 20
13.0723080858
 30
0.0
 10
16.029744424
 20
13.0733030136
 30
0.0
  0
SPLINE
  5
392
100
AcDbEntity
  8
0
100
AcDbSpline
 62
7
  6
CONTINUOUS
 70
0
 71
3
 72
17
 73
13
 74
0
 42
0.0000001
 43
0.0000001
 44
0.0000000001
 40
0.0
 40
0.0
 40
0.0
 40
0.0
 40
0.0606234994
 40
0.1213756518
 40
0.1822968456
 40
0.2434239738
 40
0.3663578266
 40
0.4904622116
 40
0.6158726148
 40
0.7426375445
 40
0.8707204369
 40
1.0
 40
1.0
 40
1.0
 40
1.0
 10
14.9056419023
 20
13.7122232133
 30
0.0
 10
14.8971322979
 20
13.7126776734
 30
0.0
 10
14.8800578918
 20
13.7130008336
 30
0.0
 10
14.8544455303
 20
13.711729089
 30
0.0
 10
14.828907196
 20
13.7087039362
 30
0.0
 10
14.7950408721
 20
13.7023438601
 30
0.0
 10
14.7533573949
 20
13.6900472843
 30
0.0
 10
14.7054039487
 20
13.6686747536
 30
0.0
 10
14.6601567726
 20
13.6410015758
 30
0.0
 10
14.6183427671
 20
13.6074768103
 30
0.0
 10
14.5806315541
 20
13.5686503544
 30
0.0
 10
14.5587022041
 20
13.5397472815
 30
0.0
 10
14.5485992383
 20
13.5246418879
 30
0.0
  0
SPLINE
  5
393
100
AcDbEntity
  8
0
100
AcDbSpline
 62
7
  6
CONTINUOUS
 70
0
 71
3
 72
43
 73
39
 74
0
 42
0.0000001
 43
0.0000001
 44
0.0000000001
 40
0.0
 40
0.0
 40
0.0
 40
0.0
 40
0.0262489776
 40
0.0511121801
 40
0.0748053156
 40
0.0863227007
 40
0.0976771343
 40
0.1089190816
 40
0.1201014271
 40
0.1312790234
 40
0.1425069451
 40
0.1538390729
 40
0.1653270151
 40
0.1889387906
 40
0.2136891404
 40
0.2398216698
 40
0.2674958002
 40
0.2967912314
 40
0.3277170539
 40
0.3602244
 40
0.3942132562
 40
0.429543169
 40
0.4660406865
 40
0.5035045443
 40
0.5417138067
 40
0.5804317535
 40
0.6194117585
 40
0.6584023408
 40
0.6971514054
 40
0.7354121517
 40
0.772946556
 40
0.8095314582
 40
0.8449645177
 40
0.8790701232
 40
0.9117033959
 40
0.9427614679
 40
0.9721993388
 40
1.0
 40
1.0
 40
1.0
 40
1.0
 10
16.3382732711
 20
12.950187464
 30
0.0
 10
16.3402849786
 20
12.9460880351
 30
0.0
 10
16.3437522433
 20
12.9378710137
 30
0.0
 10
16.347213388
 20
12.9252860416
 30
0.0
 10
16.3484928908
 20
12.9148681049
 30
0.0
 10
16.348507464
 20
12.9067597328
 30
0.0
 10
16.3480314111
 20
12.9008371548
 30
0.0
 10
16.3470698786
 20
12.8950329269
 30
0.0
 10
16.3456240344
 20
12.8893615354
 30
0.0
 10
16.3436970421
 20
12.8838376691
 30
0.0
 10
16.3412951516
 20
12.8784747623
 30
0.0
 10
16.3384235875
 20
12.8732860548
 30
0.0
 10
16.33393897
 20
12.8665584734
 30
0.0
 10
16.3271315714
 20
12.8586202519
 30
0.0
 10
16.3173111753
 20
12.8501015545
 30
0.0
 10
16.3058669888
 20
12.8425663418
 30
0.0
 10
16.2929130688
 20
12.8360809362
 30
0.0
 10
16.27857357
 20
12.8306998695
 30
0.0
 10
16.2629848149
 20
12.8264681577
 30
0.0
 10
16.2462935458
 20
12.8234245935
 30
0.0
 10
16.2286578221
 20
12.8215955073
 30
0.0
 10
16.2102447908
 20
12.820997056
 30
0.0
 10
16.1912295514
 20
12.8216357737
 30
0.0
 10
16.1717932442
 20
12.823503947
 30
0.0
 10
16.1521214552
 20
12.8265843248
 30
0.0
 10
16.1324022894
 20
12.8308478202
 30
0.0
 10
16.1128240815
 20
12.8362525277
 30
0.0
 10
16.0935744779
 20
12.8427479141
 30
0.0
 10
16.074837495
 20
12.850271301
 30
0.0
 10
16.0567921508
 20
12.8587502906
 30
0.0
 10
16.039611616
 20
12.8681050448
 30
0.0
 10
16.0234593477
 20
12.8782449445
 30
0.0
 10
16.0084895595
 20
12.8890741314
 30
0.0
 10
15.9948455195
 20
12.9004906783
 30
0.0
 10
15.9826557767
 20
12.9123850228
 30
0.0
 10
15.9720361043
 20
12.9246490192
 30
0.0
 10
15.9630923592
 20
12.9371655326
 30
0.0
 10
15.9581635863
 20
12.9458457012
 30
0.0
 10
15.9560329585
 20
12.950187464
 30
0.0
  0
SPLINE
  5
394
100
AcDbEntity
  8
0
100
AcDbSpline
 62
7
  6
CONTINUOUS
 70
0
 71
3
 72
24
 73
20
 74
0
 42
0.0000001
 43
0.0000001
 44
0.0000000001
 40
0.0
 40
0.0
 40
0.0
 40
0.0
 40
0.0655430607
 40
0.0972489691
 40
0.1282745806
 40
0.1884302718
 40
0.246497059
 40
0.3030484927
 40
0.3587293041
 40
0.4142338941
 40
0.4702726015
 40
0.5275240764
 40
0.5865918098
 40
0.6479863088
 40
0.7121037622
 40
0.7792336948
 40
0.8495522187
 40
0.9231440233
 40
1.0
 40
1.0
 40
1.0
 40
1.0
 10
13.5951122376
 20
12.950187464
 30
0.0
 10
13.5934793842
 20
12.9535148695
 30
0.0
 10
13.5912829349
 20
12.9585696503
 30
0.0
 10
13.5889212113
 20
12.9654312653
 30
0.0
 10
13.587017567
 20
12.9721177265
 30
0.0
 10
13.5853934334
 20
12.9804212331
 30
0.0
 10
13.5846926131
 20
12.9903059339
 30
0.0
 10
13.5852706337
 20
12.9999478225
 30
0.0
 10
13.5871238627
 20
13.0092812889
 30
0.0
 10
13.5902454406
 20
13.0182400523
 30
0.0
 10
13.5946093329
 20
13.026762684
 30
0.0
 10
13.6001858906
 20
13.0347902946
 30
0.0
 10
13.6069312496
 20
13.0422736676
 30
0.0
 10
13.6148006948
 20
13.0491648286
 30
0.0
 10
13.6237392105
 20
13.0554261211
 30
0.0
 10
13.6336908218
 20
13.0610187588
 30
0.0
 10
13.644591427
 20
13.0659134566
 30
0.0
 10
13.6563734503
 20
13.0700788149
 30
0.0
 10
13.6645929102
 20
13.0723080858
 30
0.0
 10
13.668823703
 20
13.0733030136
 30
0.0
  0
SPLINE
  5
395
100
AcDbEntity
  8
0
100
AcDbSpline
 62
7
  6
CONTINUOUS
 70
0
 71
3
 72
43
 73
39
 74
0
 42
0.0000001
 43
0.0000001
 44
0.0000000001
 40
0.0
 40
0.0
 40
0.0
 40
0.0
 40
0.0262489776
 40
0.0511121801
 40
0.0748053156
 40
0.0863227007
 40
0.0976771343
 40
0.1089190816
 40
0.1201014271
 40
0.1312790234
 40
0.1425069451
 40
0.1538390729
 40
0.1653270151
 40
0.1889387906
 40
0.2136891404
 40
0.2398216698
 40
0.2674958002
 40
0.2967912314
 40
0.3277170539
 40
0.3602244
 40
0.3942132562
 40
0.429543169
 40
0.4660406865
 40
0.5035045443
 40
0.5417138067
 40
0.5804317535
 40
0.6194117585
 40
0.6584023408
 40
0.6971514054
 40
0.7354121517
 40
0.772946556
 40
0.8095314582
 40
0.8449645177
 40
0.8790701232
 40
0.9117033959
 40
0.9427614679
 40
0.9721993388
 40
1.0
 40
1.0
 40
1.0
 40
1.0
 10
13.9773525501
 20
12.950187464
 30
0.0
 10
13.9793642577
 20
12.9460880351
 30
0.0
 10
13.9828315223
 20
12.9378710137
 30
0.0
 10
13.9862926671
 20
12.9252860416
 30
0.0
 10
13.9875721698
 20
12.9148681049
 30
0.0
 10
13.9875867431
 20
12.9067597328
 30
0.0
 10
13.9871106901
 20
12.9008371548
 30
0.0
 10
13.9861491576
 20
12.8950329269
 30
0.0
 10
13.9847033135
 20
12.8893615354
 30
0.0
 10
13.9827763211
 20
12.8838376691
 30
0.0
 10
13.9803744307
 20
12.8784747623
 30
0.0
 10
13.9775028665
 20
12.8732860548
 30
0.0
 10
13.9730182491
 20
12.8665584734
 30
0.0
 10
13.9662108504
 20
12.8586202519
 30
0.0
 10
13.9563904543
 20
12.8501015545
 30
0.0
 10
13.9449462678
 20
12.8425663418
 30
0.0
 10
13.9319923478
 20
12.8360809362
 30
0.0
 10
13.917652849
 20
12.8306998695
 30
0.0
 10
13.9020640939
 20
12.8264681577
 30
0.0
 10
13.8853728248
 20
12.8234245935
 30
0.0
 10
13.8677371011
 20
12.8215955073
 30
0.0
 10
13.8493240698
 20
12.820997056
 30
0.0
 10
13.8303088304
 20
12.8216357737
 30
0.0
 10
13.8108725232
 20
12.823503947
 30
0.0
 10
13.7912007342
 20
12.8265843248
 30
0.0
 10
13.7714815685
 20
12.8308478202
 30
0.0
 10
13.7519033606
 20
12.8362525277
 30
0.0
 10
13.7326537569
 20
12.8427479141
 30
0.0
 10
13.7139167741
 20
12.850271301
 30
0.0
 10
13.6958714298
 20
12.8587502906
 30
0.0
 10
13.678690895
 20
12.8681050448
 30
0.0
 10
13.6625386267
 20
12.8782449445
 30
0.0
 10
13.6475688385
 20
12.8890741314
 30
0.0
 10
13.6339247985
 20
12.9004906783
 30
0.0
 10
13.6217350558
 20
12.9123850228
 30
0.0
 10
13.6111153834
 20
12.9246490192
 30
0.0
 10
13.6021716383
 20
12.9371655326
 30
0.0
 10
13.5972428653
 20
12.9458457012
 30
0.0
 10
13.5951122376
 20
12.950187464
 30
0.0
  0
SPLINE
  5
396
100
AcDbEntity
  8
0
100
AcDbSpline
 62
7
  6
CONTINUOUS
 70
0
 71
3
 72
15
 73
11
 74
0
 42
0.0000001
 43
0.0000001
 44
0.0000000001
 40
0.0
 40
0.0
 40
0.0
 40
0.0
 40
0.1381392848
 40
0.2714991679
 40
0.4004169898
 40
0.52541489
 40
0.6471149964
 40
0.7662299395
 40
0.8835675161
 40
1.0
 40
1.0
 40
1.0
 40
1.0
 10
14.3053316937
 20
12.1535128334
 30
0.0
 10
14.2982752641
 20
12.1678923251
 30
0.0
 10
14.2854257126
 20
12.1966709362
 30
0.0
 10
14.2698963959
 20
12.2404794197
 30
0.0
 10
14.2585315443
 20
12.2839834804
 30
0.0
 10
14.2513824058
 20
12.3270106826
 30
0.0
 10
14.248480656
 20
12.3693972487
 30
0.0
 10
14.2498498161
 20
12.4109782286
 30
0.0
 10
14.25548558
 20
12.4515803907
 30
0.0
 10
14.2620900278
 20
12.4779340239
 30
0.0
 10
14.2660758503
 20
12.4908328674
 30
0.0
  0
SPLINE
  5
397
100
AcDbEntity
  8
0
100
AcDbSpline
 62
7
  6
CONTINUOUS
 70
0
 71
3
 72
30
 73
26
 74
0
 42
0.0000001
 43
0.0000001
 44
0.0000000001
 40
0.0
 40
0.0
 40
0.0
 40
0.0
 40
0.0155004549
 40
0.0315031131
 40
0.0484549176
 40
0.0667105944
 40
0.0865321995
 40
0.1080863546
 40
0.1314700718
 40
0.1567206613
 40
0.1838237786
 40
0.2127344963
 40
0.2433703976
 40
0.2756273842
 40
0.3444738724
 40
0.4180935671
 40
0.4950926871
 40
0.5739526422
 40
0.6530877977
 40
0.7309024008
 40
0.8058515182
 40
0.8764823835
 40
0.9415458844
 40
0.9716643915
 40
1.0
 40
1.0
 40
1.0
 40
1.0
 10
15.812833754
 20
12.1398414932
 30
0.0
 10
15.8120476987
 20
12.1398414423
 30
0.0
 10
15.8104458705
 20
12.1396802969
 30
0.0
 10
15.8080817424
 20
12.1389623423
 30
0.0
 10
15.8057568839
 20
12.1377786786
 30
0.0
 10
15.8034843689
 20
12.1361432244
 30
0.0
 10
15.8012754943
 20
12.1340673774
 30
0.0
 10
15.7991391781
 20
12.1315658786
 30
0.0
 10
15.7970866395
 20
12.1286525719
 30
0.0
 10
15.7951288641
 20
12.1253442335
 30
0.0
 10
15.7932757481
 20
12.1216601922
 30
0.0
 10
15.7915392256
 20
12.1176212104
 30
0.0
 10
15.7899281727
 20
12.1132512258
 30
0.0
 10
15.7879174431
 20
12.1068780868
 30
0.0
 10
15.7858093528
 20
12.0982612075
 30
0.0
 10
15.7839586886
 20
12.0872783039
 30
0.0
 10
15.782779918
 20
12.075692982
 30
0.0
 10
15.782301563
 20
12.0637784554
 30
0.0
 10
15.7825352878
 20
12.0518152562
 30
0.0
 10
15.7834755147
 20
12.0400854506
 30
0.0
 10
15.7850996948
 20
12.0288651135
 30
0.0
 10
15.7873676291
 20
12.0184171798
 30
0.0
 10
15.7898086926
 20
12.010357379
 30
0.0
 10
15.7920692332
 20
12.0045131622
 30
0.0
 10
15.7932892853
 20
12.0018092905
 30
0.0
 10
15.7939223224
 20
12.0005192963
 30
0.0
  0
SPLINE
  5
398
100
AcDbEntity
  8
0
100
AcDbSpline
 62
7
  6
CONTINUOUS
 70
0
 71
3
 72
29
 73
25
 74
0
 42
0.0000001
 43
0.0000001
 44
0.0000000001
 40
0.0
 40
0.0
 40
0.0
 40
0.0
 40
0.0178197955
 40
0.0360779609
 40
0.0550858969
 40
0.0751076955
 40
0.0963511947
 40
0.1189691638
 40
0.1430674504
 40
0.1687047701
 40
0.1959063691
 40
0.2246598962
 40
0.2866125239
 40
0.3539976849
 40
0.425894739
 40
0.5011423969
 40
0.5784079633
 40
0.6562345162
 40
0.733089836
 40
0.8074044805
 40
0.8776123261
 40
0.9422492224
 40
0.9720684456
 40
1.0
 40
1.0
 40
1.0
 40
1.0
 10
15.8107604914
 20
12.1398415349
 30
0.0
 10
15.8098394533
 20
12.1398415794
 30
0.0
 10
15.8079711085
 20
12.1396820726
 30
0.0
 10
15.8052018043
 20
12.1389723847
 30
0.0
 10
15.8024707324
 20
12.1378001139
 30
0.0
 10
15.7998028387
 20
12.1361734568
 30
0.0
 10
15.7972189779
 20
12.1341049089
 30
0.0
 10
15.7947395398
 20
12.131607239
 30
0.0
 10
15.7923848542
 20
12.1286945811
 30
0.0
 10
15.7901718333
 20
12.1253848229
 30
0.0
 10
15.788119493
 20
12.1216958207
 30
0.0
 10
15.7855521625
 20
12.1161637786
 30
0.0
 10
15.7828750275
 20
12.1084196523
 30
0.0
 10
15.7805700992
 20
12.0982602411
 30
0.0
 10
15.7791365289
 20
12.0872506209
 30
0.0
 10
15.7785769743
 20
12.0756540599
 30
0.0
 10
15.7788585336
 20
12.0637427624
 30
0.0
 10
15.7799195912
 20
12.0517935121
 30
0.0
 10
15.7816766675
 20
12.0400817771
 30
0.0
 10
15.7840320129
 20
12.0288778676
 30
0.0
 10
15.7868795783
 20
12.0184425005
 30
0.0
 10
15.7896426567
 20
12.0103843681
 30
0.0
 10
15.7920389159
 20
12.0045285017
 30
0.0
 10
15.7932863211
 20
12.0018153307
 30
0.0
 10
15.7939223224
 20
12.0005192963
 30
0.0
  0
SPLINE
  5
399
100
AcDbEntity
  8
0
100
AcDbSpline
 62
7
  6
CONTINUOUS
 70
0
 71
3
 72
10
 73
6
 74
0
 42
0.0000001
 43
0.0000001
 44
0.0000000001
 40
0.0
 40
0.0
 40
0.0
 40
0.0
 40
0.2630049348
 40
0.517403485
 40
1.0
 40
1.0
 40
1.0
 40
1.0
 10
15.6597673279
 20
12.0462927208
 30
0.0
 10
15.6647067659
 20
12.0408875691
 30
0.0
 10
15.6741458016
 20
12.0299929726
 30
0.0
 10
15.6911456744
 20
12.0079365687
 30
0.0
 10
15.7021958612
 20
11.9905553474
 30
0.0
 10
15.7085586278
 20
11.9787218562
 30
0.0
  0
SPLINE
  5
39A
100
AcDbEntity
  8
0
100
AcDbSpline
 62
7
  6
CONTINUOUS
 70
0
 71
3
 72
11
 73
7
 74
0
 42
0.0000001
 43
0.0000001
 44
0.0000000001
 40
0.0
 40
0.0
 40
0.0
 40
0.0
 40
0.2362226393
 40
0.4806639738
 40
0.7348660508
 40
1.0
 40
1.0
 40
1.0
 40
1.0
 10
14.28574268
 20
12.4782697183
 30
0.0
 10
14.2863995624
 20
12.4612638168
 30
0.0
 10
14.289845778
 20
12.4267129344
 30
0.0
 10
14.3010171662
 20
12.3748605664
 30
0.0
 10
14.3181838481
 20
12.3224854519
 30
0.0
 10
14.3332266204
 20
12.2881598813
 30
0.0
 10
14.3416416422
 20
12.2710118698
 30
0.0
  0
SPLINE
  5
39B
100
AcDbEntity
  8
0
100
AcDbSpline
 62
7
  6
CONTINUOUS
 70
0
 71
3
 72
15
 73
11
 74
0
 42
0.0000001
 43
0.0000001
 44
0.0000000001
 40
0.0
 40
0.0
 40
0.0
 40
0.0
 40
0.1164320234
 40
0.2337703693
 40
0.3528875021
 40
0.4745833237
 40
0.5995779475
 40
0.7285052674
 40
0.8618762334
 40
1.0
 40
1.0
 40
1.0
 40
1.0
 10
15.8955497606
 20
12.1160070031
 30
0.0
 10
15.8973813377
 20
12.121934228
 30
0.0
 10
15.9004154856
 20
12.1340443737
 30
0.0
 10
15.9030063883
 20
12.1527018108
 30
0.0
 10
15.9036339708
 20
12.1718090138
 30
0.0
 10
15.9023022018
 20
12.1912862122
 30
0.0
 10
15.8990162394
 20
12.211058022
 30
0.0
 10
15.8937939425
 20
12.2310498966
 30
0.0
 10
15.8866570318
 20
12.2511806717
 30
0.0
 10
15.8807530449
 20
12.2644049707
 30
0.0
 10
15.8775108497
 20
12.2710118698
 30
0.0
  0
SPLINE
  5
39C
100
AcDbEntity
  8
0
100
AcDbSpline
 62
7
  6
CONTINUOUS
 70
0
 71
3
 72
11
 73
7
 74
0
 42
0.0000001
 43
0.0000001
 44
0.0000000001
 40
0.0
 40
0.0
 40
0.0
 40
0.0
 40
0.2344157669
 40
0.4791685377
 40
0.7343949975
 40
1.0
 40
1.0
 40
1.0
 40
1.0
 10
14.3416416422
 20
12.2710118698
 30
0.0
 10
14.3504292819
 20
12.253104543
 30
0.0
 10
14.3700515754
 20
12.2172961072
 30
0.0
 10
14.4044474526
 20
12.1650506075
 30
0.0
 10
14.444241305
 20
12.1134022702
 30
0.0
 10
14.4736528782
 20
12.0801987135
 30
0.0
 10
14.4891574391
 20
12.0637540214
 30
0.0
  0
SPLINE
  5
39D
100
AcDbEntity
  8
0
100
AcDbSpline
 62
7
  6
CONTINUOUS
 70
0
 71
3
 72
42
 73
38
 74
0
 42
0.0000001
 43
0.0000001
 44
0.0000000001
 40
0.0
 40
0.0
 40
0.0
 40
0.0
 40
0.0107127053
 40
0.0214628913
 40
0.0322872598
 40
0.0432213075
 40
0.0655390511
 40
0.0886703419
 40
0.1006092952
 40
0.1128208147
 40
0.1381179292
 40
0.1646692004
 40
0.1925280464
 40
0.2217071568
 40
0.2521835839
 40
0.2839046
 40
0.3167906559
 40
0.3507404071
 40
0.3856342397
 40
0.4213366068
 40
0.457700086
 40
0.4945673398
 40
0.5317738042
 40
0.5691504569
 40
0.6065256784
 40
0.6437281258
 40
0.6805885907
 40
0.7169427245
 40
0.75263348
 40
0.7875131493
 40
0.8214469261
 40
0.8543151955
 40
0.8860171238
 40
0.9164729377
 40
0.9456300414
 40
0.9734726398
 40
1.0
 40
1.0
 40
1.0
 40
1.0
 10
15.7213267433
 20
11.8485831714
 30
0.0
 10
15.720307012
 20
11.8452829969
 30
0.0
 10
15.7180238166
 20
11.8387425743
 30
0.0
 10
15.7138897479
 20
11.8291789529
 30
0.0
 10
15.7090519613
 20
11.819870006
 30
0.0
 10
15.7016265435
 20
11.8077409651
 30
0.0
 10
15.6905458454
 20
11.7932546559
 30
0.0
 10
15.6774727101
 20
11.7800902841
 30
0.0
 10
15.6658142205
 20
11.7702563622
 30
0.0
 10
15.6530576513
 20
11.7606797418
 30
0.0
 10
15.6355406215
 20
11.7496583758
 30
0.0
 10
15.6125159946
 20
11.7381593004
 30
0.0
 10
15.5873954907
 20
11.7283033101
 30
0.0
 10
15.5603510018
 20
11.7201539585
 30
0.0
 10
15.5315645604
 20
11.7137617228
 30
0.0
 10
15.5012301409
 20
11.7091695546
 30
0.0
 10
15.4695527322
 20
11.7064064444
 30
0.0
 10
15.4367465895
 20
11.7054901035
 30
0.0
 10
15.4030340254
 20
11.7064276667
 30
0.0
 10
15.3686437368
 20
11.7092112118
 30
0.0
 10
15.3338093448
 20
11.7138222602
 30
0.0
 10
15.2987677703
 20
11.7202300019
 30
0.0
 10
15.2637571208
 20
11.7283896153
 30
0.0
 10
15.2290158733
 20
11.7382466459
 30
0.0
 10
15.1947804126
 20
11.7497337591
 30
0.0
 10
15.1612834758
 20
11.7627720585
 30
0.0
 10
15.1287534678
 20
11.7772740607
 30
0.0
 10
15.0974112759
 20
11.7931401956
 30
0.0
 10
15.067469948
 20
11.8102626417
 30
0.0
 10
15.0391334901
 20
11.8285261123
 30
0.0
 10
15.0125934964
 20
11.8478055832
 30
0.0
 10
14.9880303412
 20
11.8679715022
 30
0.0
 10
14.9656112373
 20
11.8888883953
 30
0.0
 10
14.9454870286
 20
11.9104140193
 30
0.0
 10
14.9277938472
 20
11.9324082043
 30
0.0
 10
14.9126571514
 20
11.9547205664
 30
0.0
 10
14.9041341541
 20
11.970075296
 30
0.0
 10
14.9003660632
 20
11.977753858
 30
0.0
  0
SPLINE
  5
39E
100
AcDbEntity
  8
0
100
AcDbSpline
 62
7
  6
CONTINUOUS
 70
0
 71
3
 72
12
 73
8
 74
0
 42
0.0000001
 43
0.0000001
 44
0.0000000001
 40
0.0
 40
0.0
 40
0.0
 40
0.0
 40
0.2532187309
 40
0.5038739835
 40
0.6284224943
 40
0.7526159593
 40
1.0
 40
1.0
 40
1.0
 40
1.0
 10
14.5669372714
 20
13.514413288
 30
0.0
 10
14.565731682
 20
13.5157582768
 30
0.0
 10
14.5631165106
 20
13.5182490392
 30
0.0
 10
14.5594002566
 20
13.5207935138
 30
0.0
 10
14.5562229734
 20
13.5224141354
 30
0.0
 10
14.5529354431
 20
13.5237331265
 30
0.0
 10
14.5503440089
 20
13.5243780676
 30
0.0
 10
14.5485992383
 20
13.5246418879
 30
0.0
  0
SPLINE
  5
39F
100
AcDbEntity
  8
0
100
AcDbSpline
 62
7
  6
CONTINUOUS
 70
0
 71
3
 72
15
 73
11
 74
0
 42
0.0000001
 43
0.0000001
 44
0.0000000001
 40
0.0
 40
0.0
 40
0.0
 40
0.0
 40
0.1380799318
 40
0.2714583019
 40
0.400424799
 40
0.5254316948
 40
0.647119483
 40
0.7662256933
 40
0.8835644243
 40
1.0
 40
1.0
 40
1.0
 40
1.0
 10
13.6183747839
 20
12.9658540022
 30
0.0
 10
13.6172172269
 20
12.9682128555
 30
0.0
 10
13.6151092376
 20
12.97293532
 30
0.0
 10
13.612560528
 20
12.9801249373
 30
0.0
 10
13.6106939426
 20
12.9872656757
 30
0.0
 10
13.609520898
 20
12.9943279487
 30
0.0
 10
13.6090446124
 20
13.0012839072
 30
0.0
 10
13.6092697306
 20
13.008107535
 30
0.0
 10
13.6101949876
 20
13.0147707112
 30
0.0
 10
13.6112781853
 20
13.0190959498
 30
0.0
 10
13.6119323144
 20
13.0212128837
 30
0.0
  0
LINE
  5
3A0
100
AcDbEntity
  8
0
100
AcDbLine
 62
7
  6
CONTINUOUS
 10
14.5491390032
 20
13.5284000596
 11
14.5485992332
 21
13.5246418893
  0
SPLINE
  5
3A1
100
AcDbEntity
  8
0
100
AcDbSpline
 62
7
  6
CONTINUOUS
 70
0
 71
3
 72
42
 73
38
 74
0
 42
0.0000001
 43
0.0000001
 44
0.0000000001
 40
0.0
 40
0.0
 40
0.0
 40
0.0
 40
0.0265279701
 40
0.0543698947
 40
0.0835268389
 40
0.1139829255
 40
0.1456848504
 40
0.1785529778
 40
0.2124868396
 40
0.2473665436
 40
0.2830571957
 40
0.319411409
 40
0.3562718466
 40
0.3934742756
 40
0.4308495286
 40
0.4682261312
 40
0.5054326627
 40
0.5422998434
 40
0.5786633404
 40
0.6143657904
 40
0.6492594518
 40
0.6832093413
 40
0.7160954113
 40
0.7478162487
 40
0.7782928907
 40
0.8074719088
 40
0.8353306646
 40
0.861882128
 40
0.887179095
 40
0.8993907505
 40
0.9113295922
 40
0.934460982
 40
0.9567786335
 40
0.9677127356
 40
0.9785370788
 40
0.9892872687
 40
1.0
 40
1.0
 40
1.0
 40
1.0
 10
15.8775108497
 20
12.2710118698
 30
0.0
 10
15.8729890363
 20
12.2802263568
 30
0.0
 10
15.8627616367
 20
12.2986521211
 30
0.0
 10
15.8445973531
 20
12.3254266956
 30
0.0
 10
15.8233657121
 20
12.3518195611
 30
0.0
 10
15.7992168356
 20
12.3776505516
 30
0.0
 10
15.7723135786
 20
12.4027505421
 30
0.0
 10
15.7428380514
 20
12.4269499115
 30
0.0
 10
15.7109900136
 20
12.4500852323
 30
0.0
 10
15.6769860659
 20
12.4720010836
 30
0.0
 10
15.6410567617
 20
12.4925485367
 30
0.0
 10
15.6034459711
 20
12.5115875775
 30
0.0
 10
15.5644098851
 20
12.5289898057
 30
0.0
 10
15.5242137865
 20
12.5446363568
 30
0.0
 10
15.4831310427
 20
12.5584203178
 30
0.0
 10
15.4414415759
 20
12.5702488697
 30
0.0
 10
15.399428912
 20
12.5800408884
 30
0.0
 10
15.3573788752
 20
12.5877294185
 30
0.0
 10
15.3155776716
 20
12.5932631437
 30
0.0
 10
15.2743093442
 20
12.5966036339
 30
0.0
 10
15.2338542334
 20
12.5977278962
 30
0.0
 10
15.194486859
 20
12.5966290689
 30
0.0
 10
15.1564739545
 20
12.5933132157
 30
0.0
 10
15.1200727515
 20
12.5878019767
 30
0.0
 10
15.0855288419
 20
12.5801322109
 30
0.0
 10
15.053075546
 20
12.5703524942
 30
0.0
 10
15.0229311213
 20
12.5585250036
 30
0.0
 10
14.9953010274
 20
12.5447270891
 30
0.0
 10
14.9742812785
 20
12.5315002989
 30
0.0
 10
14.9589727366
 20
12.5200092979
 30
0.0
 10
14.9449831397
 20
12.5082078212
 30
0.0
 10
14.9292945421
 20
12.4924114339
 30
0.0
 10
14.9159987913
 20
12.4750270087
 30
0.0
 10
14.9070874322
 20
12.4604727329
 30
0.0
 10
14.9012823565
 20
12.4493018082
 30
0.0
 10
14.8963218779
 20
12.4378253099
 30
0.0
 10
14.89358164
 20
12.429976936
 30
0.0
 10
14.8923578952
 20
12.4260167366
 30
0.0
  0
SPLINE
  5
3A2
100
AcDbEntity
  8
0
100
AcDbSpline
 62
7
  6
CONTINUOUS
 70
0
 71
3
 72
23
 73
19
 74
0
 42
0.0000001
 43
0.0000001
 44
0.0000000001
 40
0.0
 40
0.0
 40
0.0
 40
0.0
 40
0.0532850727
 40
0.1067706562
 40
0.1609961773
 40
0.2164746313
 40
0.2736493049
 40
0.3328479331
 40
0.3942468271
 40
0.457852733
 40
0.5235072344
 40
0.5908975724
 40
0.6595758297
 40
0.7289797437
 40
0.7984488039
 40
0.8672553975
 40
0.9346947841
 40
1.0
 40
1.0
 40
1.0
 40
1.0
 10
15.2404819898
 20
12.4199994538
 30
0.0
 10
15.2416740654
 20
12.417570335
 30
0.0
 10
15.2436378914
 20
12.4124806526
 30
0.0
 10
15.2451940766
 20
12.4044131239
 30
0.0
 10
15.2453200073
 20
12.3960851038
 30
0.0
 10
15.2440035043
 20
12.3876742421
 30
0.0
 10
15.2412719104
 20
12.3793483872
 30
0.0
 10
15.2371837969
 20
12.3712639805
 30
0.0
 10
15.2318257515
 20
12.3635625915
 30
0.0
 10
15.2253115404
 20
12.3563674131
 30
0.0
 10
15.2177752159
 20
12.3497837931
 30
0.0
 10
15.2093660216
 20
12.3439021526
 30
0.0
 10
15.2002476794
 20
12.3387967008
 30
0.0
 10
15.1905941634
 20
12.3345295713
 30
0.0
 10
15.1805887741
 20
12.3311517194
 30
0.0
 10
15.1704189224
 20
12.3287025595
 30
0.0
 10
15.160279202
 20
12.3272135774
 30
0.0
 10
15.1535345698
 20
12.3268645297
 30
0.0
 10
15.1502183206
 20
12.3268645297
 30
0.0
  0
SPLINE
  5
3A3
100
AcDbEntity
  8
0
100
AcDbSpline
 62
7
  6
CONTINUOUS
 70
0
 71
3
 72
40
 73
36
 74
0
 42
0.0000001
 43
0.0000001
 44
0.0000000001
 40
0.0
 40
0.0
 40
0.0
 40
0.0
 40
0.0214497891
 40
0.0431952705
 40
0.0655137236
 40
0.0886454223
 40
0.1005848117
 40
0.1127969381
 40
0.1380942683
 40
0.1646467216
 40
0.1925059423
 40
0.2216861306
 40
0.2521631512
 40
0.2838852816
 40
0.3167719078
 40
0.3507229492
 40
0.3856173804
 40
0.4213209756
 40
0.4576852755
 40
0.4945536147
 40
0.5317610533
 40
0.5691387098
 40
0.6065149976
 40
0.6437183371
 40
0.6805799442
 40
0.7169349657
 40
0.7526267794
 40
0.7875070502
 40
0.8214422126
 40
0.8543116381
 40
0.8860138992
 40
0.9164682137
 40
0.9456299071
 40
0.9734773408
 40
1.0
 40
1.0
 40
1.0
 40
1.0
 10
14.7521173764
 20
11.3171458595
 30
0.0
 10
14.7512423372
 20
11.3143140025
 30
0.0
 10
14.7490614228
 20
11.3087315986
 30
0.0
 10
14.7445842808
 20
11.300830612
 30
0.0
 10
14.7389253127
 20
11.2934344812
 30
0.0
 10
14.7333228507
 20
11.2877915235
 30
0.0
 10
14.7283261833
 20
11.2835772426
 30
0.0
 10
14.7228587864
 20
11.2794733966
 30
0.0
 10
14.7153520189
 20
11.2747490587
 30
0.0
 10
14.7054838766
 20
11.2698218561
 30
0.0
 10
14.6947182361
 20
11.2655970687
 30
0.0
 10
14.6831275847
 20
11.2621051279
 30
0.0
 10
14.6707906373
 20
11.259365029
 30
0.0
 10
14.6577901236
 20
11.2573975923
 30
0.0
 10
14.6442141239
 20
11.2562126375
 30
0.0
 10
14.6301543714
 20
11.2558207912
 30
0.0
 10
14.6157060816
 20
11.2562217499
 30
0.0
 10
14.6009674807
 20
11.257415422
 30
0.0
 10
14.5860383708
 20
11.2593910184
 30
0.0
 10
14.5710206618
 20
11.2621376649
 30
0.0
 10
14.5560159866
 20
11.2656341572
 30
0.0
 10
14.5411270565
 20
11.2698591757
 30
0.0
 10
14.5264544986
 20
11.2747815278
 30
0.0
 10
14.5120989593
 20
11.2803701181
 30
0.0
 10
14.4981572307
 20
11.2865845471
 30
0.0
 10
14.4847251548
 20
11.2933849246
 30
0.0
 10
14.4718929449
 20
11.3007226258
 30
0.0
 10
14.4597489667
 20
11.308550195
 30
0.0
 10
14.4483743045
 20
11.3168124051
 30
0.0
 10
14.4378478538
 20
11.3254557017
 30
0.0
 10
14.4282391888
 20
11.3344190347
 30
0.0
 10
14.4196148435
 20
11.3436447719
 30
0.0
 10
14.4120312515
 20
11.3530712068
 30
0.0
 10
14.4055448085
 20
11.3626345183
 30
0.0
 10
14.4018915993
 20
11.3692146029
 30
0.0
 10
14.400277034
 20
11.3725047409
 30
0.0
  0
SPLINE
  5
3A4
100
AcDbEntity
  8
0
100
AcDbSpline
 62
7
  6
CONTINUOUS
 70
0
 71
3
 72
15
 73
11
 74
0
 42
0.0000001
 43
0.0000001
 44
0.0000000001
 40
0.0
 40
0.0
 40
0.0
 40
0.0
 40
0.1127915965
 40
0.2270844731
 40
0.3442429784
 40
0.4653769513
 40
0.5912428547
 40
0.7222855946
 40
0.858669437
 40
1.0
 40
1.0
 40
1.0
 40
1.0
 10
15.0989944801
 20
12.353644552
 30
0.0
 10
15.10000291
 20
12.3515898174
 30
0.0
 10
15.1023893812
 20
12.34761756
 30
0.0
 10
15.1069534765
 20
12.3422895731
 30
0.0
 10
15.112439723
 20
12.3376507929
 30
0.0
 10
15.1187602602
 20
12.3337718194
 30
0.0
 10
15.1258163164
 20
12.3307024961
 30
0.0
 10
15.1335049228
 20
12.3284856798
 30
0.0
 10
15.1417095147
 20
12.3271519467
 30
0.0
 10
15.1473503285
 20
12.3268645297
 30
0.0
 10
15.1502183206
 20
12.3268645297
 30
0.0
  0
SPLINE
  5
3A5
100
AcDbEntity
  8
0
100
AcDbSpline
 62
7
  6
CONTINUOUS
 70
0
 71
3
 72
22
 73
18
 74
0
 42
0.0000001
 43
0.0000001
 44
0.0000000001
 40
0.0
 40
0.0
 40
0.0
 40
0.0
 40
0.0653599254
 40
0.1326542012
 40
0.2013279323
 40
0.270858762
 40
0.4098877226
 40
0.4783494867
 40
0.5453060825
 40
0.610286201
 40
0.6729252637
 40
0.7329967241
 40
0.7904468345
 40
0.845417762
 40
0.898263213
 40
0.9495462889
 40
1.0
 40
1.0
 40
1.0
 40
1.0
 10
15.1502183206
 20
12.3268645297
 30
0.0
 10
15.1535209228
 20
12.3268645297
 30
0.0
 10
15.1602289089
 20
12.3272575461
 30
0.0
 10
15.1702790699
 20
12.3289410737
 30
0.0
 10
15.1803089657
 20
12.3317013853
 30
0.0
 10
15.1933966587
 20
12.3367419056
 30
0.0
 10
15.2056859571
 20
12.3436666171
 30
0.0
 10
15.2166346209
 20
12.3522074776
 30
0.0
 10
15.2239485263
 20
12.3592393741
 30
0.0
 10
15.2302673923
 20
12.366798346
 30
0.0
 10
15.235476874
 20
12.3747511037
 30
0.0
 10
15.2394797925
 20
12.3829564152
 30
0.0
 10
15.2422006019
 20
12.391268517
 30
0.0
 10
15.2435832761
 20
12.399539006
 30
0.0
 10
15.2435920438
 20
12.4076179634
 30
0.0
 10
15.2422196491
 20
12.4153490399
 30
0.0
 10
15.2403882445
 20
12.4201907104
 30
0.0
 10
15.2392650242
 20
12.422479337
 30
0.0
  0
SPLINE
  5
3A6
100
AcDbEntity
  8
0
100
AcDbSpline
 62
7
  6
CONTINUOUS
 70
0
 71
3
 72
15
 73
11
 74
0
 42
0.0000001
 43
0.0000001
 44
0.0000000001
 40
0.0
 40
0.0
 40
0.0
 40
0.0
 40
0.1467178591
 40
0.2870063088
 40
0.4201973489
 40
0.5463443281
 40
0.6660046013
 40
0.7802882086
 40
0.8909084121
 40
1.0
 40
1.0
 40
1.0
 40
1.0
 10
15.1502183206
 20
12.3268645297
 30
0.0
 10
15.1473555057
 20
12.3268645297
 30
0.0
 10
15.1417511225
 20
12.3271152615
 30
0.0
 10
15.1336223969
 20
12.3282908884
 30
0.0
 10
15.1260572889
 20
12.3302531461
 30
0.0
 10
15.1191631
 20
12.3329865434
 30
0.0
 10
15.113031583
 20
12.336469286
 30
0.0
 10
15.1077489712
 20
12.3406772829
 30
0.0
 10
15.1033936068
 20
12.3455683978
 30
0.0
 10
15.1011491966
 20
12.3492537236
 30
0.0
 10
15.1002114193
 20
12.3511646574
 30
0.0
  0
SPLINE
  5
3A7
100
AcDbEntity
  8
0
100
AcDbSpline
 62
7
  6
CONTINUOUS
 70
0
 71
3
 72
9
 73
5
 74
0
 42
0.0000001
 43
0.0000001
 44
0.0000000001
 40
0.0
 40
0.0
 40
0.0
 40
0.0
 40
0.2560986545
 40
1.0
 40
1.0
 40
1.0
 40
1.0
 10
14.7345324316
 20
11.3922509931
 30
0.0
 10
14.7356603477
 20
11.3910166649
 30
0.0
 10
14.7400014032
 20
11.3861398482
 30
0.0
 10
14.7440837959
 20
11.3810307167
 30
0.0
 10
14.7469381439
 20
11.3771010786
 30
0.0
  0
SPLINE
  5
3A8
100
AcDbEntity
  8
0
100
AcDbSpline
 62
7
  6
CONTINUOUS
 70
0
 71
3
 72
9
 73
5
 74
0
 42
0.0000001
 43
0.0000001
 44
0.0000000001
 40
0.0
 40
0.0
 40
0.0
 40
0.0
 40
0.2576559381
 40
1.0
 40
1.0
 40
1.0
 40
1.0
 10
14.7489043395
 20
11.3743313034
 30
0.0
 10
14.7498996287
 20
11.3728960369
 30
0.0
 10
14.7536662911
 20
11.3672600066
 30
0.0
 10
14.7570379056
 20
11.361355759
 30
0.0
 10
14.7592548002
 20
11.3568382027
 30
0.0
  0
SPLINE
  5
3A9
100
AcDbEntity
  8
0
100
AcDbSpline
 62
7
  6
CONTINUOUS
 70
0
 71
3
 72
15
 73
11
 74
0
 42
0.0000001
 43
0.0000001
 44
0.0000000001
 40
0.0
 40
0.0
 40
0.0
 40
0.0
 40
0.1380799318
 40
0.2714583019
 40
0.400424799
 40
0.5254316948
 40
0.647119483
 40
0.7662256933
 40
0.8835644243
 40
1.0
 40
1.0
 40
1.0
 40
1.0
 10
15.9792955049
 20
12.9658540022
 30
0.0
 10
15.9781379479
 20
12.9682128555
 30
0.0
 10
15.9760299586
 20
12.97293532
 30
0.0
 10
15.973481249
 20
12.9801249373
 30
0.0
 10
15.9716146636
 20
12.9872656757
 30
0.0
 10
15.9704416189
 20
12.9943279487
 30
0.0
 10
15.9699653333
 20
13.0012839072
 30
0.0
 10
15.9701904515
 20
13.008107535
 30
0.0
 10
15.9711157086
 20
13.0147707112
 30
0.0
 10
15.9721989062
 20
13.0190959498
 30
0.0
 10
15.9728530353
 20
13.0212128837
 30
0.0
  0
SPLINE
  5
3AA
100
AcDbEntity
  8
0
100
AcDbSpline
 62
7
  6
CONTINUOUS
 70
0
 71
3
 72
40
 73
36
 74
0
 42
0.0000001
 43
0.0000001
 44
0.0000000001
 40
0.0
 40
0.0
 40
0.0
 40
0.0
 40
0.0214497891
 40
0.0431952705
 40
0.0655137236
 40
0.0886454223
 40
0.1005848117
 40
0.1127969381
 40
0.1380942683
 40
0.1646467216
 40
0.1925059423
 40
0.2216861306
 40
0.2521631512
 40
0.2838852816
 40
0.3167719078
 40
0.3507229492
 40
0.3856173804
 40
0.4213209756
 40
0.4576852755
 40
0.4945536147
 40
0.5317610533
 40
0.5691387098
 40
0.6065149976
 40
0.6437183371
 40
0.6805799442
 40
0.7169349657
 40
0.7526267794
 40
0.7875070502
 40
0.8214422126
 40
0.8543116381
 40
0.8860138992
 40
0.9164682137
 40
0.9456299071
 40
0.9734773408
 40
1.0
 40
1.0
 40
1.0
 40
1.0
 10
17.1130380973
 20
11.3171458595
 30
0.0
 10
17.1121630582
 20
11.3143140025
 30
0.0
 10
17.1099821438
 20
11.3087315986
 30
0.0
 10
17.1055050018
 20
11.300830612
 30
0.0
 10
17.0998460337
 20
11.2934344812
 30
0.0
 10
17.0942435716
 20
11.2877915235
 30
0.0
 10
17.0892469042
 20
11.2835772426
 30
0.0
 10
17.0837795074
 20
11.2794733966
 30
0.0
 10
17.0762727398
 20
11.2747490587
 30
0.0
 10
17.0664045976
 20
11.2698218561
 30
0.0
 10
17.055638957
 20
11.2655970687
 30
0.0
 10
17.0440483057
 20
11.2621051279
 30
0.0
 10
17.0317113582
 20
11.259365029
 30
0.0
 10
17.0187108446
 20
11.2573975923
 30
0.0
 10
17.0051348449
 20
11.2562126375
 30
0.0
 10
16.9910750923
 20
11.2558207912
 30
0.0
 10
16.9766268026
 20
11.2562217499
 30
0.0
 10
16.9618882017
 20
11.257415422
 30
0.0
 10
16.9469590918
 20
11.2593910184
 30
0.0
 10
16.9319413827
 20
11.2621376649
 30
0.0
 10
16.9169367075
 20
11.2656341572
 30
0.0
 10
16.9020477775
 20
11.2698591757
 30
0.0
 10
16.8873752196
 20
11.2747815278
 30
0.0
 10
16.8730196802
 20
11.2803701181
 30
0.0
 10
16.8590779517
 20
11.2865845471
 30
0.0
 10
16.8456458758
 20
11.2933849246
 30
0.0
 10
16.8328136658
 20
11.3007226258
 30
0.0
 10
16.8206696876
 20
11.308550195
 30
0.0
 10
16.8092950255
 20
11.3168124051
 30
0.0
 10
16.7987685748
 20
11.3254557017
 30
0.0
 10
16.7891599098
 20
11.3344190347
 30
0.0
 10
16.7805355644
 20
11.3436447719
 30
0.0
 10
16.7729519725
 20
11.3530712068
 30
0.0
 10
16.7664655295
 20
11.3626345183
 30
0.0
 10
16.7628123202
 20
11.3692146029
 30
0.0
 10
16.761197755
 20
11.3725047409
 30
0.0
  0
SPLINE
  5
3AB
100
AcDbEntity
  8
0
100
AcDbSpline
 62
7
  6
CONTINUOUS
 70
0
 71
3
 72
15
 73
11
 74
0
 42
0.0000001
 43
0.0000001
 44
0.0000000001
 40
0.0
 40
0.0
 40
0.0
 40
0.0
 40
0.1745635854
 40
0.3341895713
 40
0.4783282295
 40
0.6071421038
 40
0.7214586723
 40
0.8229542481
 40
0.9144276372
 40
1.0
 40
1.0
 40
1.0
 40
1.0
 10
15.7939223224
 20
12.0005192963
 30
0.0
 10
15.794561707
 20
11.9992163676
 30
0.0
 10
15.795849481
 20
11.9967523103
 30
0.0
 10
15.797909221
 20
11.9933468327
 30
0.0
 10
15.8000019225
 20
11.9904165479
 30
0.0
 10
15.8021176333
 20
11.987981317
 30
0.0
 10
15.8042511722
 20
11.9860555517
 30
0.0
 10
15.8064023813
 20
11.9846525688
 30
0.0
 10
15.8085712837
 20
11.9837904594
 30
0.0
 10
15.8100490242
 20
11.9835919363
 30
0.0
 10
15.81076049
 20
11.9835918892
 30
0.0
  0
SPLINE
  5
3AC
100
AcDbEntity
  8
0
100
AcDbSpline
 62
7
  6
CONTINUOUS
 70
0
 71
3
 72
15
 73
11
 74
0
 42
0.0000001
 43
0.0000001
 44
0.0000000001
 40
0.0
 40
0.0
 40
0.0
 40
0.0
 40
0.1380799318
 40
0.2714583019
 40
0.400424799
 40
0.5254316948
 40
0.647119483
 40
0.7662256933
 40
0.8835644243
 40
1.0
 40
1.0
 40
1.0
 40
1.0
 10
16.761197755
 20
11.3725047409
 30
0.0
 10
16.760040198
 20
11.3748635941
 30
0.0
 10
16.7579322087
 20
11.3795860587
 30
0.0
 10
16.7553834991
 20
11.3867756759
 30
0.0
 10
16.7535169137
 20
11.3939164144
 30
0.0
 10
16.752343869
 20
11.4009786873
 30
0.0
 10
16.7518675834
 20
11.4079346459
 30
0.0
 10
16.7520927016
 20
11.4147582737
 30
0.0
 10
16.7530179587
 20
11.4214214499
 30
0.0
 10
16.7541011563
 20
11.4257466885
 30
0.0
 10
16.7547552854
 20
11.4278636223
 30
0.0
  0
SPLINE
  5
3AD
100
AcDbEntity
  8
0
100
AcDbSpline
 62
7
  6
CONTINUOUS
 70
0
 71
3
 72
9
 73
5
 74
0
 42
0.0000001
 43
0.0000001
 44
0.0000000001
 40
0.0
 40
0.0
 40
0.0
 40
0.0
 40
0.2560986545
 40
1.0
 40
1.0
 40
1.0
 40
1.0
 10
17.0954531526
 20
11.3922509931
 30
0.0
 10
17.0965810687
 20
11.3910166649
 30
0.0
 10
17.1009221242
 20
11.3861398482
 30
0.0
 10
17.1050045169
 20
11.3810307167
 30
0.0
 10
17.1078588649
 20
11.3771010786
 30
0.0
  0
SPLINE
  5
3AE
100
AcDbEntity
  8
0
100
AcDbSpline
 62
7
  6
CONTINUOUS
 70
0
 71
3
 72
9
 73
5
 74
0
 42
0.0000001
 43
0.0000001
 44
0.0000000001
 40
0.0
 40
0.0
 40
0.0
 40
0.0
 40
0.2576559381
 40
1.0
 40
1.0
 40
1.0
 40
1.0
 10
17.1098250605
 20
11.3743313034
 30
0.0
 10
17.1108203497
 20
11.3728960369
 30
0.0
 10
17.114587012
 20
11.3672600066
 30
0.0
 10
17.1179586265
 20
11.361355759
 30
0.0
 10
17.1201755212
 20
11.3568382027
 30
0.0
  0
SPLINE
  5
3AF
100
AcDbEntity
  8
0
100
AcDbSpline
 62
7
  6
CONTINUOUS
 70
0
 71
3
 72
25
 73
21
 74
0
 42
0.0000001
 43
0.0000001
 44
0.0000000001
 40
0.0
 40
0.0
 40
0.0
 40
0.0
 40
0.065551986
 40
0.1282495136
 40
0.1883968223
 40
0.2464639564
 40
0.3030153966
 40
0.3309366742
 40
0.3587255236
 40
0.3864705287
 40
0.4142610846
 40
0.4702984624
 40
0.5275469073
 40
0.5866116377
 40
0.6480023975
 40
0.7121170611
 40
0.7792425675
 40
0.8495587414
 40
0.9231460065
 40
1.0
 40
1.0
 40
1.0
 40
1.0
 10
14.88873479
 20
11.9699205889
 30
0.0
 10
14.8852126996
 20
11.9770978545
 30
0.0
 10
14.8789659517
 20
11.9914705366
 30
0.0
 10
14.8720207665
 20
12.013418385
 30
0.0
 10
14.8677746599
 20
12.0351234638
 30
0.0
 10
14.8662644528
 20
12.0564401774
 30
0.0
 10
14.8673063578
 20
12.0738503805
 30
0.0
 10
14.8695215945
 20
12.0873709061
 30
0.0
 10
14.8718549921
 20
12.0972867675
 30
0.0
 10
14.8748640363
 20
12.1070023294
 30
0.0
 10
14.8797830985
 20
12.1196996011
 30
0.0
 10
14.8876513394
 20
12.1350665902
 30
0.0
 10
14.8996765089
 20
12.1523782547
 30
0.0
 10
14.9142247181
 20
12.1685164561
 30
0.0
 10
14.9311952035
 20
12.1833787977
 30
0.0
 10
14.9504729257
 20
12.1968806146
 30
0.0
 10
14.9719337998
 20
12.2089435101
 30
0.0
 10
14.9954430283
 20
12.2194974391
 30
0.0
 10
15.0208517562
 20
12.2284827963
 30
0.0
 10
15.0385785643
 20
12.2332888475
 30
0.0
 10
15.0477029146
 20
12.2354348216
 30
0.0
  0
SPLINE
  5
3B0
100
AcDbEntity
  8
0
100
AcDbSpline
 62
7
  6
CONTINUOUS
 70
0
 71
3
 72
46
 73
42
 74
0
 42
0.0000001
 43
0.0000001
 44
0.0000000001
 40
0.0
 40
0.0
 40
0.0
 40
0.0
 40
0.0262513472
 40
0.0388507918
 40
0.0511241909
 40
0.0631054024
 40
0.0748332855
 40
0.0863509505
 40
0.0977051393
 40
0.1089462473
 40
0.1201278645
 40
0.1313049023
 40
0.1425324491
 40
0.1538641426
 40
0.1653513599
 40
0.1770418847
 40
0.1889790505
 40
0.2137276408
 40
0.2398586521
 40
0.2675310168
 40
0.2968244967
 40
0.32774903
 40
0.3602546279
 40
0.3942417791
 40
0.4295701497
 40
0.4660658818
 40
0.5035281644
 40
0.5417356716
 40
0.5804519146
 40
0.6194301812
 40
0.6584187683
 40
0.6971659615
 40
0.7354246391
 40
0.7729570762
 40
0.8095405125
 40
0.8449722996
 40
0.8790762223
 40
0.9117088568
 40
0.9427652625
 40
0.9721975305
 40
1.0
 40
1.0
 40
1.0
 40
1.0
 10
15.7130843796
 20
11.9699205889
 30
0.0
 10
15.7174234908
 20
11.9610784101
 30
0.0
 10
15.7231102604
 20
11.9476022429
 30
0.0
 10
15.728777137
 20
11.9292650116
 30
0.0
 10
15.7319373172
 20
11.9157907652
 30
0.0
 10
15.7340577157
 20
11.9024452392
 30
0.0
 10
15.7351313616
 20
11.8892584261
 30
0.0
 10
15.7351556975
 20
11.876262606
 30
0.0
 10
15.7341305731
 20
11.8634897759
 30
0.0
 10
15.7320552738
 20
11.8509723695
 30
0.0
 10
15.7289368726
 20
11.8387416396
 30
0.0
 10
15.7247821725
 20
11.8268283183
 30
0.0
 10
15.7196009874
 20
11.8152627879
 30
0.0
 10
15.7134086198
 20
11.8040728826
 30
0.0
 10
15.7062192139
 20
11.7932873677
 30
0.0
 10
15.6980517575
 20
11.7829317007
 30
0.0
 10
15.6857420064
 20
11.7695725462
 30
0.0
 10
15.6678760916
 20
11.7540698297
 30
0.0
 10
15.6431975245
 20
11.7378231981
 30
0.0
 10
15.6152604877
 20
11.7238358998
 30
0.0
 10
15.5843363985
 20
11.7122300181
 30
0.0
 10
15.5507170093
 20
11.7031048655
 30
0.0
 10
15.5147202974
 20
11.696540471
 30
0.0
 10
15.4766865935
 20
11.6925953326
 30
0.0
 10
15.4369764545
 20
11.6913052342
 30
0.0
 10
15.3959674473
 20
11.6926819311
 30
0.0
 10
15.35405042
 20
11.6967113361
 30
0.0
 10
15.3116255009
 20
11.7033546829
 30
0.0
 10
15.2690981811
 20
11.7125485654
 30
0.0
 10
15.2268753827
 20
11.724205437
 30
0.0
 10
15.1853610222
 20
11.7382133051
 30
0.0
 10
15.1449522123
 20
11.754438046
 30
0.0
 10
15.1060354766
 20
11.772724596
 30
0.0
 10
15.0689830409
 20
11.7928985951
 30
0.0
 10
15.0341486725
 20
11.8147672606
 30
0.0
 10
15.0018644047
 20
11.8381222119
 30
0.0
 10
14.9724377162
 20
11.8627424923
 30
0.0
 10
14.9461501059
 20
11.8883958576
 30
0.0
 10
14.9232482812
 20
11.9148436819
 30
0.0
 10
14.9039584936
 20
11.9418356815
 30
0.0
 10
14.8933302877
 20
11.9605559493
 30
0.0
 10
14.88873479
 20
11.9699205889
 30
0.0
  0
SPLINE
  5
3B1
100
AcDbEntity
  8
0
100
AcDbSpline
 62
7
  6
CONTINUOUS
 70
0
 71
3
 72
15
 73
11
 74
0
 42
0.0000001
 43
0.0000001
 44
0.0000000001
 40
0.0
 40
0.0
 40
0.0
 40
0.0
 40
0.1381190386
 40
0.2714920883
 40
0.4004232433
 40
0.5254179443
 40
0.6471120463
 40
0.7662288913
 40
0.8835678392
 40
1.0
 40
1.0
 40
1.0
 40
1.0
 10
14.9003660632
 20
11.977753858
 30
0.0
 10
14.8976643269
 20
11.9832594177
 30
0.0
 10
14.8927444901
 20
11.9942796028
 30
0.0
 10
14.8867969656
 20
12.0110552585
 30
0.0
 10
14.8824448625
 20
12.0277153818
 30
0.0
 10
14.879706579
 20
12.0441919865
 30
0.0
 10
14.8785967759
 20
12.0604229078
 30
0.0
 10
14.8791200392
 20
12.0763454818
 30
0.0
 10
14.8812786312
 20
12.0918934463
 30
0.0
 10
14.8838075169
 20
12.1019851611
 30
0.0
 10
14.8853337528
 20
12.1069245447
 30
0.0
  0
SPLINE
  5
3B2
100
AcDbEntity
  8
0
100
AcDbSpline
 62
7
  6
CONTINUOUS
 70
0
 71
3
 72
15
 73
11
 74
0
 42
0.0000001
 43
0.0000001
 44
0.0000000001
 40
0.0
 40
0.0
 40
0.0
 40
0.0
 40
0.1638769943
 40
0.3154014061
 40
0.4544103583
 40
0.5813543862
 40
0.697307637
 40
0.8039791898
 40
0.9038213287
 40
1.0
 40
1.0
 40
1.0
 40
1.0
 10
15.7939223224
 20
12.0005192963
 30
0.0
 10
15.7945635333
 20
11.999212646
 30
0.0
 10
15.7958806521
 20
11.9967370609
 30
0.0
 10
15.7980517276
 20
11.9933292828
 30
0.0
 10
15.8003293239
 20
11.9903953049
 30
0.0
 10
15.8026990085
 20
11.9879568102
 30
0.0
 10
15.8051478843
 20
11.9860305277
 30
0.0
 10
15.8076649567
 20
11.9846339513
 30
0.0
 10
15.8102330845
 20
11.9837831825
 30
0.0
 10
15.8119795263
 20
11.9835918737
 30
0.0
 10
15.812833754
 20
11.9835919291
 30
0.0
  0
SPLINE
  5
3B3
100
AcDbEntity
  8
0
100
AcDbSpline
 62
7
  6
CONTINUOUS
 70
0
 71
3
 72
40
 73
36
 74
0
 42
0.0000001
 43
0.0000001
 44
0.0000000001
 40
0.0
 40
0.0
 40
0.0
 40
0.0
 40
0.0214497891
 40
0.0431952705
 40
0.0655137236
 40
0.0886454223
 40
0.1005848117
 40
0.1127969381
 40
0.1380942683
 40
0.1646467216
 40
0.1925059423
 40
0.2216861306
 40
0.2521631512
 40
0.2838852816
 40
0.3167719078
 40
0.3507229492
 40
0.3856173804
 40
0.4213209756
 40
0.4576852755
 40
0.4945536147
 40
0.5317610533
 40
0.5691387098
 40
0.6065149976
 40
0.6437183371
 40
0.6805799442
 40
0.7169349657
 40
0.7526267794
 40
0.7875070502
 40
0.8214422126
 40
0.8543116381
 40
0.8860138992
 40
0.9164682137
 40
0.9456299071
 40
0.9734773408
 40
1.0
 40
1.0
 40
1.0
 40
1.0
 10
16.3311358472
 20
12.9104951208
 30
0.0
 10
16.3302608081
 20
12.9076632639
 30
0.0
 10
16.3280798937
 20
12.9020808599
 30
0.0
 10
16.3236027517
 20
12.8941798733
 30
0.0
 10
16.3179437836
 20
12.8867837425
 30
0.0
 10
16.3123413215
 20
12.8811407849
 30
0.0
 10
16.3073446541
 20
12.8769265039
 30
0.0
 10
16.3018772573
 20
12.8728226579
 30
0.0
 10
16.2943704897
 20
12.8680983201
 30
0.0
 10
16.2845023475
 20
12.8631711174
 30
0.0
 10
16.2737367069
 20
12.8589463301
 30
0.0
 10
16.2621460556
 20
12.8554543892
 30
0.0
 10
16.2498091081
 20
12.8527142904
 30
0.0
 10
16.2368085945
 20
12.8507468537
 30
0.0
 10
16.2232325948
 20
12.8495618989
 30
0.0
 10
16.2091728422
 20
12.8491700525
 30
0.0
 10
16.1947245525
 20
12.8495710112
 30
0.0
 10
16.1799859516
 20
12.8507646834
 30
0.0
 10
16.1650568417
 20
12.8527402797
 30
0.0
 10
16.1500391326
 20
12.8554869262
 30
0.0
 10
16.1350344574
 20
12.8589834186
 30
0.0
 10
16.1201455273
 20
12.863208437
 30
0.0
 10
16.1054729695
 20
12.8681307891
 30
0.0
 10
16.0911174301
 20
12.8737193794
 30
0.0
 10
16.0771757016
 20
12.8799338084
 30
0.0
 10
16.0637436257
 20
12.886734186
 30
0.0
 10
16.0509114157
 20
12.8940718871
 30
0.0
 10
16.0387674375
 20
12.9018994563
 30
0.0
 10
16.0273927753
 20
12.9101616664
 30
0.0
 10
16.0168663247
 20
12.9188049631
 30
0.0
 10
16.0072576597
 20
12.9277682961
 30
0.0
 10
15.9986333143
 20
12.9369940333
 30
0.0
 10
15.9910497224
 20
12.9464204681
 30
0.0
 10
15.9845632794
 20
12.9559837797
 30
0.0
 10
15.9809100701
 20
12.9625638642
 30
0.0
 10
15.9792955049
 20
12.9658540022
 30
0.0
  0
SPLINE
  5
3B4
100
AcDbEntity
  8
0
100
AcDbSpline
 62
7
  6
CONTINUOUS
 70
0
 71
3
 72
15
 73
11
 74
0
 42
0.0000001
 43
0.0000001
 44
0.0000000001
 40
0.0
 40
0.0
 40
0.0
 40
0.0
 40
0.1380799318
 40
0.2714583019
 40
0.400424799
 40
0.5254316948
 40
0.647119483
 40
0.7662256933
 40
0.8835644243
 40
1.0
 40
1.0
 40
1.0
 40
1.0
 10
14.400277034
 20
11.3725047409
 30
0.0
 10
14.399119477
 20
11.3748635941
 30
0.0
 10
14.3970114877
 20
11.3795860587
 30
0.0
 10
14.3944627781
 20
11.3867756759
 30
0.0
 10
14.3925961927
 20
11.3939164144
 30
0.0
 10
14.3914231481
 20
11.4009786873
 30
0.0
 10
14.3909468625
 20
11.4079346459
 30
0.0
 10
14.3911719807
 20
11.4147582737
 30
0.0
 10
14.3920972377
 20
11.4214214499
 30
0.0
 10
14.3931804354
 20
11.4257466885
 30
0.0
 10
14.3938345645
 20
11.4278636223
 30
0.0
  0
SPLINE
  5
3B5
100
AcDbEntity
  8
0
100
AcDbSpline
 62
7
  6
CONTINUOUS
 70
0
 71
3
 72
11
 73
7
 74
0
 42
0.0000001
 43
0.0000001
 44
0.0000000001
 40
0.0
 40
0.0
 40
0.0
 40
0.0
 40
0.2647645039
 40
0.5189174537
 40
0.7635237712
 40
1.0
 40
1.0
 40
1.0
 40
1.0
 10
14.3558587345
 20
12.2710118698
 30
0.0
 10
14.3477843611
 20
12.2874657127
 30
0.0
 10
14.3333055711
 20
12.3204013819
 30
0.0
 10
14.3166110807
 20
12.3706363634
 30
0.0
 10
14.3055038025
 20
12.4203971986
 30
0.0
 10
14.3018157675
 20
12.4535791299
 30
0.0
 10
14.3009661093
 20
12.4699270597
 30
0.0
  0
SPLINE
  5
3B6
100
AcDbEntity
  8
0
100
AcDbSpline
 62
7
  6
CONTINUOUS
 70
0
 71
3
 72
11
 73
7
 74
0
 42
0.0000001
 43
0.0000001
 44
0.0000000001
 40
0.0
 40
0.0
 40
0.0
 40
0.0
 40
0.2652041919
 40
0.5203017314
 40
0.765191654
 40
1.0
 40
1.0
 40
1.0
 40
1.0
 10
14.4961929039
 20
12.07209668
 30
0.0
 10
14.481493168
 20
12.0879116224
 30
0.0
 10
14.4535907035
 20
12.1198292524
 30
0.0
 10
14.4157874192
 20
12.1694085302
 30
0.0
 10
14.3830306183
 20
12.2195308514
 30
0.0
 10
14.3642805321
 20
12.2538500506
 30
0.0
 10
14.3558587345
 20
12.2710118698
 30
0.0
  0
SPLINE
  5
3B7
100
AcDbEntity
  8
0
100
AcDbSpline
 62
7
  6
CONTINUOUS
 70
0
 71
3
 72
15
 73
11
 74
0
 42
0.0000001
 43
0.0000001
 44
0.0000000001
 40
0.0
 40
0.0
 40
0.0
 40
0.0
 40
0.1230566036
 40
0.2460336836
 40
0.3692383951
 40
0.4930876136
 40
0.6178866552
 40
0.7438685155
 40
0.8712461939
 40
1.0
 40
1.0
 40
1.0
 40
1.0
 10
14.8478999923
 20
13.4809902502
 30
0.0
 10
14.8539131578
 20
13.4809902502
 30
0.0
 10
14.865953245
 20
13.4801357925
 30
0.0
 10
14.8836439132
 20
13.4763020771
 30
0.0
 10
14.9006496218
 20
13.4699789323
 30
0.0
 10
14.9166717719
 20
13.4612819405
 30
0.0
 10
14.931435224
 20
13.4503593065
 30
0.0
 10
14.9446908311
 20
13.4374025073
 30
0.0
 10
14.9562065323
 20
13.4226378113
 30
0.0
 10
14.9625672358
 20
13.4118106012
 30
0.0
 10
14.9654011033
 20
13.406193403
 30
0.0
  0
SPLINE
  5
3B8
100
AcDbEntity
  8
0
100
AcDbSpline
 62
7
  6
CONTINUOUS
 70
0
 71
3
 72
9
 73
5
 74
0
 42
0.0000001
 43
0.0000001
 44
0.0000000001
 40
0.0
 40
0.0
 40
0.0
 40
0.0
 40
0.2560986545
 40
1.0
 40
1.0
 40
1.0
 40
1.0
 10
16.3135509025
 20
12.9856002544
 30
0.0
 10
16.3146788186
 20
12.9843659262
 30
0.0
 10
16.3190198741
 20
12.9794891095
 30
0.0
 10
16.3231022668
 20
12.974379978
 30
0.0
 10
16.3259566148
 20
12.9704503399
 30
0.0
  0
SPLINE
  5
3B9
100
AcDbEntity
  8
0
100
AcDbSpline
 62
7
  6
CONTINUOUS
 70
0
 71
3
 72
9
 73
5
 74
0
 42
0.0000001
 43
0.0000001
 44
0.0000000001
 40
0.0
 40
0.0
 40
0.0
 40
0.0
 40
0.2576559381
 40
1.0
 40
1.0
 40
1.0
 40
1.0
 10
16.3279228104
 20
12.9676805647
 30
0.0
 10
16.3289180996
 20
12.9662452983
 30
0.0
 10
16.3326847619
 20
12.960609268
 30
0.0
 10
16.3360563764
 20
12.9547050203
 30
0.0
 10
16.3382732711
 20
12.950187464
 30
0.0
  0
SPLINE
  5
3BA
100
AcDbEntity
  8
0
100
AcDbSpline
 62
7
  6
CONTINUOUS
 70
0
 71
3
 72
15
 73
11
 74
0
 42
0.0000001
 43
0.0000001
 44
0.0000000001
 40
0.0
 40
0.0
 40
0.0
 40
0.0
 40
0.1235880264
 40
0.2470911704
 40
0.3706966233
 40
0.4947486192
 40
0.6195122929
 40
0.7451985842
 40
0.8719731202
 40
1.0
 40
1.0
 40
1.0
 40
1.0
 10
14.8393071045
 20
13.1818028614
 30
0.0
 10
14.834035323
 20
13.1818028614
 30
0.0
 10
14.8234835611
 20
13.1824595056
 30
0.0
 10
14.8079079487
 20
13.1854052992
 30
0.0
 10
14.7928003283
 20
13.1902778451
 30
0.0
 10
14.7783661632
 20
13.1970090523
 30
0.0
 10
14.7647932351
 20
13.2055086976
 30
0.0
 10
14.7522611121
 20
13.2156642715
 30
0.0
 10
14.7409347795
 20
13.2273394462
 30
0.0
 10
14.7343153363
 20
13.2359964851
 30
0.0
 10
14.7312521488
 20
13.2405176326
 30
0.0
  0
SPLINE
  5
3BB
100
AcDbEntity
  8
0
100
AcDbSpline
 62
7
  6
CONTINUOUS
 70
0
 71
3
 72
15
 73
11
 74
0
 42
0.0000001
 43
0.0000001
 44
0.0000000001
 40
0.0
 40
0.0
 40
0.0
 40
0.0
 40
0.1293381225
 40
0.2576045643
 40
0.3845405199
 40
0.5101087334
 40
0.6342967938
 40
0.7571898174
 40
0.8790269672
 40
1.0
 40
1.0
 40
1.0
 40
1.0
 10
14.9611046593
 20
13.2565997086
 30
0.0
 10
14.9579423667
 20
13.2509722516
 30
0.0
 10
14.9509512011
 20
13.2401366913
 30
0.0
 10
14.9385972931
 20
13.2253867263
 30
0.0
 10
14.9246117544
 20
13.2124426002
 30
0.0
 10
14.909238005
 20
13.2015284457
 30
0.0
 10
14.892733899
 20
13.1928345132
 30
0.0
 10
14.8753804129
 20
13.1865087375
 30
0.0
 10
14.8574799262
 20
13.1826675218
 30
0.0
 10
14.8453447173
 20
13.1818028614
 30
0.0
 10
14.8393071045
 20
13.1818028614
 30
0.0
  0
SPLINE
  5
3BC
100
AcDbEntity
  8
0
100
AcDbSpline
 62
7
  6
CONTINUOUS
 70
0
 71
3
 72
16
 73
12
 74
0
 42
0.0000001
 43
0.0000001
 44
0.0000000001
 40
0.0
 40
0.0
 40
0.0
 40
0.0
 40
0.1225957966
 40
0.2464241303
 40
0.371210796
 40
0.4339337195
 40
0.4968066533
 40
0.6227802787
 40
0.7488461761
 40
0.8747204294
 40
1.0
 40
1.0
 40
1.0
 40
1.0
 10
14.9654011033
 20
13.406193403
 30
0.0
 10
14.968265533
 20
13.4005156253
 30
0.0
 10
14.9732904545
 20
13.3887173069
 30
0.0
 10
14.9785678549
 20
13.3701507193
 30
0.0
 10
14.9810405018
 20
13.3541459519
 30
0.0
 10
14.9818461565
 20
13.3411761516
 30
0.0
 10
14.9818662339
 20
13.328119527
 30
0.0
 10
14.9804074484
 20
13.3118063603
 30
0.0
 10
14.976325549
 20
13.292584754
 30
0.0
 10
14.9699777479
 20
13.2740274799
 30
0.0
 10
14.9642882735
 20
13.2622651084
 30
0.0
 10
14.9611046593
 20
13.2565997086
 30
0.0
  0
SPLINE
  5
3BD
100
AcDbEntity
  8
0
100
AcDbSpline
 62
7
  6
CONTINUOUS
 70
0
 71
3
 72
11
 73
7
 74
0
 42
0.0000001
 43
0.0000001
 44
0.0000000001
 40
0.0
 40
0.0
 40
0.0
 40
0.0
 40
0.2539523411
 40
0.5049380374
 40
0.753444981
 40
1.0
 40
1.0
 40
1.0
 40
1.0
 10
14.7722725981
 20
13.4570707301
 30
0.0
 10
14.7778901604
 20
13.4609210516
 30
0.0
 10
14.7896266567
 20
13.4677874136
 30
0.0
 10
14.8084428964
 20
13.4753477218
 30
0.0
 10
14.8279895511
 20
13.4799526165
 30
0.0
 10
14.8412879401
 20
13.4809902502
 30
0.0
 10
14.8478999923
 20
13.4809902502
 30
0.0
  0
SPLINE
  5
3BE
100
AcDbEntity
  8
0
100
AcDbSpline
 62
7
  6
CONTINUOUS
 70
0
 71
3
 72
48
 73
44
 74
0
 42
0.0000001
 43
0.0000001
 44
0.0000000001
 40
0.0
 40
0.0
 40
0.0
 40
0.0
 40
0.0107122278
 40
0.0214618764
 40
0.0322856863
 40
0.0432192378
 40
0.054296227
 40
0.0655481016
 40
0.0770038236
 40
0.0886892828
 40
0.1006276007
 40
0.1128386082
 40
0.1253390443
 40
0.138142794
 40
0.15126045
 40
0.1647001188
 40
0.1784670279
 40
0.192563849
 40
0.206991149
 40
0.2217469046
 40
0.2522219102
 40
0.2839411902
 40
0.3168255178
 40
0.3507735901
 40
0.3856655474
 40
0.4213661311
 40
0.4577277107
 40
0.4945930002
 40
0.5317975748
 40
0.5691722688
 40
0.6065455936
 40
0.6437461056
 40
0.6806047055
 40
0.7169570141
 40
0.752645899
 40
0.7875238809
 40
0.8214560049
 40
0.8543226187
 40
0.8860225906
 40
0.9164774461
 40
0.9456333495
 40
0.973471456
 40
1.0
 40
1.0
 40
1.0
 40
1.0
 10
16.4492119084
 20
11.8161927994
 30
0.0
 10
16.4465488327
 20
11.8075746042
 30
0.0
 10
16.4405864074
 20
11.7904947491
 30
0.0
 10
16.4297909689
 20
11.7655195918
 30
0.0
 10
16.4171581379
 20
11.741210306
 30
0.0
 10
16.4027087438
 20
11.7176123154
 30
0.0
 10
16.3864702711
 20
11.6947651134
 30
0.0
 10
16.3684716376
 20
11.6727079324
 30
0.0
 10
16.3487435955
 20
11.6514795013
 30
0.0
 10
16.3273227693
 20
11.631113854
 30
0.0
 10
16.3042448984
 20
11.6116470412
 30
0.0
 10
16.2795510476
 20
11.5931106854
 30
0.0
 10
16.2532839256
 20
11.5755354689
 30
0.0
 10
16.2254878597
 20
11.5589523211
 30
0.0
 10
16.1962116899
 20
11.5433867855
 30
0.0
 10
16.1655045489
 20
11.5288667307
 30
0.0
 10
16.1334193014
 20
11.5154156476
 30
0.0
 10
16.1000109078
 20
11.5030555244
 30
0.0
 10
16.0653353817
 20
11.4918086324
 30
0.0
 10
16.0169747655
 20
11.4781743628
 30
0.0
 10
15.9536596289
 20
11.4641166145
 30
0.0
 10
15.8744457516
 20
11.4521240981
 30
0.0
 10
15.7917219381
 20
11.4449079519
 30
0.0
 10
15.7060512602
 20
11.4425159103
 30
0.0
 10
15.6180132326
 20
11.4449633658
 30
0.0
 10
15.5282055463
 20
11.4522329009
 30
0.0
 10
15.4372381615
 20
11.4642747473
 30
0.0
 10
15.3457294645
 20
11.4810069652
 30
0.0
 10
15.2543018944
 20
11.5023159255
 30
0.0
 10
15.1635776265
 20
11.5280567883
 30
0.0
 10
15.0741740305
 20
11.5580540647
 30
0.0
 10
14.9866995192
 20
11.5921035422
 30
0.0
 10
14.9017493108
 20
11.6299735602
 30
0.0
 10
14.8199013521
 20
11.6714068199
 30
0.0
 10
14.7417121696
 20
11.716121771
 30
0.0
 10
14.6677128092
 20
11.7638145982
 30
0.0
 10
14.5984057008
 20
11.8141621813
 30
0.0
 10
14.5342611158
 20
11.8668240671
 30
0.0
 10
14.475713788
 20
11.9214459186
 30
0.0
 10
14.4231621975
 20
11.9776605157
 30
0.0
 10
14.3769588126
 20
12.0350951228
 30
0.0
 10
14.3374281737
 20
12.0933605971
 30
0.0
 10
14.315172737
 20
12.1334588957
 30
0.0
 10
14.3053316937
 20
12.1535128334
 30
0.0
  0
SPLINE
  5
3BF
100
AcDbEntity
  8
0
100
AcDbSpline
 62
7
  6
CONTINUOUS
 70
0
 71
3
 72
40
 73
36
 74
0
 42
0.0000001
 43
0.0000001
 44
0.0000000001
 40
0.0
 40
0.0
 40
0.0
 40
0.0
 40
0.0214497891
 40
0.0431952705
 40
0.0655137236
 40
0.0886454223
 40
0.1005848117
 40
0.1127969381
 40
0.1380942683
 40
0.1646467216
 40
0.1925059423
 40
0.2216861306
 40
0.2521631512
 40
0.2838852816
 40
0.3167719078
 40
0.3507229492
 40
0.3856173804
 40
0.4213209756
 40
0.4576852755
 40
0.4945536147
 40
0.5317610533
 40
0.5691387098
 40
0.6065149976
 40
0.6437183371
 40
0.6805799442
 40
0.7169349657
 40
0.7526267794
 40
0.7875070502
 40
0.8214422126
 40
0.8543116381
 40
0.8860138992
 40
0.9164682137
 40
0.9456299071
 40
0.9734773408
 40
1.0
 40
1.0
 40
1.0
 40
1.0
 10
13.9702151263
 20
12.9104951208
 30
0.0
 10
13.9693400871
 20
12.9076632639
 30
0.0
 10
13.9671591727
 20
12.9020808599
 30
0.0
 10
13.9626820307
 20
12.8941798733
 30
0.0
 10
13.9570230626
 20
12.8867837425
 30
0.0
 10
13.9514206006
 20
12.8811407849
 30
0.0
 10
13.9464239332
 20
12.8769265039
 30
0.0
 10
13.9409565363
 20
12.8728226579
 30
0.0
 10
13.9334497688
 20
12.8680983201
 30
0.0
 10
13.9235816265
 20
12.8631711174
 30
0.0
 10
13.912815986
 20
12.8589463301
 30
0.0
 10
13.9012253346
 20
12.8554543892
 30
0.0
 10
13.8888883872
 20
12.8527142904
 30
0.0
 10
13.8758878735
 20
12.8507468537
 30
0.0
 10
13.8623118738
 20
12.8495618989
 30
0.0
 10
13.8482521213
 20
12.8491700525
 30
0.0
 10
13.8338038315
 20
12.8495710112
 30
0.0
 10
13.8190652306
 20
12.8507646834
 30
0.0
 10
13.8041361207
 20
12.8527402797
 30
0.0
 10
13.7891184117
 20
12.8554869262
 30
0.0
 10
13.7741137365
 20
12.8589834186
 30
0.0
 10
13.7592248064
 20
12.863208437
 30
0.0
 10
13.7445522485
 20
12.8681307891
 30
0.0
 10
13.7301967092
 20
12.8737193794
 30
0.0
 10
13.7162549806
 20
12.8799338084
 30
0.0
 10
13.7028229047
 20
12.886734186
 30
0.0
 10
13.6899906948
 20
12.8940718871
 30
0.0
 10
13.6778467166
 20
12.9018994563
 30
0.0
 10
13.6664720544
 20
12.9101616664
 30
0.0
 10
13.6559456037
 20
12.9188049631
 30
0.0
 10
13.6463369387
 20
12.9277682961
 30
0.0
 10
13.6377125934
 20
12.9369940333
 30
0.0
 10
13.6301290014
 20
12.9464204681
 30
0.0
 10
13.6236425584
 20
12.9559837797
 30
0.0
 10
13.6199893492
 20
12.9625638642
 30
0.0
 10
13.6183747839
 20
12.9658540022
 30
0.0
  0
SPLINE
  5
3C0
100
AcDbEntity
  8
0
100
AcDbSpline
 62
7
  6
CONTINUOUS
 70
0
 71
3
 72
9
 73
5
 74
0
 42
0.0000001
 43
0.0000001
 44
0.0000000001
 40
0.0
 40
0.0
 40
0.0
 40
0.0
 40
0.2560986545
 40
1.0
 40
1.0
 40
1.0
 40
1.0
 10
13.9526301815
 20
12.9856002544
 30
0.0
 10
13.9537580976
 20
12.9843659262
 30
0.0
 10
13.9580991531
 20
12.9794891095
 30
0.0
 10
13.9621815458
 20
12.974379978
 30
0.0
 10
13.9650358938
 20
12.9704503399
 30
0.0
  0
SPLINE
  5
3C1
100
AcDbEntity
  8
0
100
AcDbSpline
 62
7
  6
CONTINUOUS
 70
0
 71
3
 72
9
 73
5
 74
0
 42
0.0000001
 43
0.0000001
 44
0.0000000001
 40
0.0
 40
0.0
 40
0.0
 40
0.0
 40
0.2576559381
 40
1.0
 40
1.0
 40
1.0
 40
1.0
 10
13.9670020894
 20
12.9676805647
 30
0.0
 10
13.9679973786
 20
12.9662452983
 30
0.0
 10
13.971764041
 20
12.960609268
 30
0.0
 10
13.9751356555
 20
12.9547050203
 30
0.0
 10
13.9773525501
 20
12.950187464
 30
0.0
  0
SPLINE
  5
3C2
100
AcDbEntity
  8
0
100
AcDbSpline
 62
7
  6
CONTINUOUS
 70
0
 71
3
 72
11
 73
7
 74
0
 42
0.0000001
 43
0.0000001
 44
0.0000000001
 40
0.0
 40
0.0
 40
0.0
 40
0.0
 40
0.2549076814
 40
0.5066072576
 40
0.7548493882
 40
1.0
 40
1.0
 40
1.0
 40
1.0
 10
15.1932587473
 20
13.514413288
 30
0.0
 10
15.1945427725
 20
13.5157589814
 30
0.0
 10
15.1972851923
 20
13.5182606421
 30
0.0
 10
15.2018971078
 20
13.5213150526
 30
0.0
 10
15.2068946378
 20
13.5235226844
 30
0.0
 10
15.2104152861
 20
13.5243767263
 30
0.0
 10
15.2121843318
 20
13.5246418893
 30
0.0
  0
ELLIPSE
  5
3C3
100
AcDbEntity
  8
0
100
AcDbEllipse
 62
7
  6
CONTINUOUS
 10
6.1303672762
 20
6.8880252951
 30
0.0
 11
-0.0
 21
0.7794492777
 31
0.0
 40
0.5623100214
 41
-0.9551650181
 42
0.9551650181
  0
ELLIPSE
  5
3C4
100
AcDbEntity
  8
0
100
AcDbEllipse
 62
7
  6
CONTINUOUS
 10
15.0160211894
 20
13.2486061239
 30
0.0
 11
-0.3999687612
 21
0.42732226
 31
0.0
 40
0.570948261
 41
4.8372320564
 42
6.7475620926
  0
ENDSEC
  0
SECTION
  2
OBJECTS
  0
DICTIONARY
  5
C
100
AcDbDictionary
280
0
281
1
  3
ACAD_GROUP
350
D
  3
ACAD_MLINESTYLE
350
17
  3
ACAD_LAYOUT
350
1A
  3
ACAD_PLOTSETTINGS
350
19
  3
ACAD_PLOTSTYLENAME
350
E
  0
DICTIONARY
  5
D
102
{ACAD_REACTORS
330
C
102
}
100
AcDbDictionary
280
0
281
1
  0
ACDBDICTIONARYWDFLT
  5
E
102
{ACAD_REACTORS
330
C
102
}
100
AcDbDictionary
281
1
  3
Normal
350
F
100
AcDbDictionaryWithDefault
340
F
  0
DICTIONARY
  5
17
102
{ACAD_REACTORS
330
C
102
}
100
AcDbDictionary
280
0
281
1
  3
Standard
350
18
  0
DICTIONARY
  5
19
102
{ACAD_REACTORS
330
C
102
}
100
AcDbDictionary
281
1
  0
DICTIONARY
  5
1A
102
{ACAD_REACTORS
330
C
102
}
100
AcDbDictionary
281
1
  3
Model
350
3C5
  3
Layout1
350
3C6
  0
ACDBPLACEHOLDER
  5
F
102
{ACAD_REACTORS
330
E
102
}
  0
MLINESTYLE
  5
18
102
{ACAD_REACTORS
330
17
102
}
100
AcDbMlineStyle
  2
STANDARD
 70
0
  3

 62
256
 51
90.0
 52
90.0
 71
2
 49
0.5
 62
256
  6
BYLAYER
 49
-0.5
 62
256
  6
BYLAYER
  0
LAYOUT
  5
3C5
102
{ACAD_REACTORS
330
1A
102
}
100
AcDbPlotSettings
  1

  2
none_device
  4
ANSI_C_(22.00_x_17.00_Inches)
  6

 40
0.0
 41
0.0
 42
0.0
 43
0.0
 44
558.8
 45
431.8
 46
0.0
 47
0.0
 48
0.0
 49
0.0
140
0.0
141
0.0
142
1.0
143
1.0
 70
1024
 72
0
 73
0
 74
0
  7

 75
0
147
1.0
148
0.0
149
0.0
100
AcDbLayout
  1
Model
 70
0
 71
0
 10
0.0
 20
0.0
 11
22.0
 21
17.0
 12
0.0
 22
0.0
 32
0.0
 14
0.0
 24
0.0
 34
0.0
 15
0.0
 25
0.0
 35
0.0
146
0.0
 13
0.0
 23
0.0
 33
0.0
 16
1.0
 26
0.0
 36
0.0
 17
0.0
 27
1.0
 37
0.0
 76
0
330
217
345
0
346
0
  0
LAYOUT
  5
3C6
102
{ACAD_REACTORS
330
1A
102
}
100
AcDbPlotSettings
  1

  2
none_device
  4
ANSI_C_(22.00_x_17.00_Inches)
  6

 40
0.0
 41
0.0
 42
0.0
 43
0.0
 44
558.8
 45
431.8
 46
0.0
 47
0.0
 48
0.0
 49
0.0
140
0.0
141
0.0
142
1.0
143
1.0
 70
0
 72
0
 73
0
 74
0
  7

 75
0
147
1.0
148
0.0
149
0.0
100
AcDbLayout
  1
Layout1
 70
0
 71
1
 10
0.0
 20
0.0
 11
22.0
 21
17.0
 12
0.0
 22
0.0
 32
0.0
 14
0.0
 24
0.0
 34
0.0
 15
0.0
 25
0.0
 35
0.0
146
0.0
 13
0.0
 23
0.0
 33
0.0
 16
1.0
 26
0.0
 36
0.0
 17
0.0
 27
1.0
 37
0.0
 76
0
330
218
345
0
346
0
  0
ENDSEC
  0
EOF