999
DXF file: _cgs_temp_output.dxf
999
Pro/ENGINEER 2016360 by Parametric Technology Corporation
  0
SECTION
  2
HEADER
  9
$ACADVER
  1
AC1021
  9
$DWGCODEPAGE
  3
ANSI_1252
  9
$EXTMAX
 10
22.0
 20
17.0
 30
0.0
  9
$EXTMIN
 10
0.0
 20
0.0
 30
0.0
  9
$LIMMIN
 10
0.0
 20
0.0
  9
$LIMMAX
 10
22.0
 20
17.0
  9
$VIEWCTR
 10
11.0
 20
8.5
  9
$VIEWSIZE
 40
17.0
  9
$CLAYER
  8
0
  9
$LTSCALE
 40
1.21
  9
$CELTYPE
  6
BYLAYER
  9
$DIMSCALE
 40
1.0
  9
$DIMASZ
 40
0.1875
  9
$DIMEXO
 40
0.0625
  9
$DIMDLI
 40
0.836
  9
$DIMEXE
 40
0.125
  9
$DIMCEN
 40
0.198
  9
$DIMLFAC
 40
1.0
  9
$DIMBLK
  1
_CLOSED
  9
$DIMALT
 70
0
  9
$DIMALTF
 40
25.4
  9
$DIMTXT
 40
0.15625
  9
$DIMTOL
 70
0
  9
$DIMLIM
 70
0
  9
$DIMTFAC
 40
1.0
  9
$DIMGAP
 40
0.09
  9
$DIMDSEP
 70
46
  9
$AUNITS
 70
0
  9
$PDMODE
 70
3
  9
$PDSIZE
 40
0.3125
  9
$HANDSEED
  5
3D7
  9
$TILEMODE
 70
1
  9
$MEASUREMENT
 70
0
  9
$INSUNITS
 70
1
  0
ENDSEC
  0
SECTION
  2
CLASSES
  0
CLASS
  1
ACDBDICTIONARYWDFLT
  2
AcDbDictionaryWithDefault
  3
AutoCAD 2000
 90
0
 91
1
280
0
281
0
  0
CLASS
  1
ACDBPLACEHOLDER
  2
AcDbPlaceHolder
  3
AutoCAD 2000
 90
0
 91
1
280
0
281
0
  0
CLASS
  1
LAYOUT
  2
AcDbLayout
  3
AutoCAD 2000
 90
0
 91
0
280
0
281
0
  0
ENDSEC
  0
SECTION
  2
TABLES
  0
TABLE
  2
VPORT
  5
8
100
AcDbSymbolTable
 70
2
  0
VPORT
  5
1F4
100
AcDbSymbolTableRecord
100
AcDbViewportTableRecord
  2
*ACTIVE
 70
0
 10
0.0
 20
0.0
 11
1.0
 21
1.0
 12
11.0
 22
8.5
 13
0.0
 23
0.0
 14
1.0
 24
1.0
 15
0.0
 25
0.0
 16
0.0
 26
0.0
 36
1.0
 17
0.0
 27
0.0
 37
0.0
 40
17.0
 41
1.2941176471
 42
50.0
 43
0.0
 44
0.0
 50
0.0
 51
0.0
 71
0
 72
100
 73
1
 74
1
 75
0
 76
0
 77
0
 78
0
  0
ENDTAB
  0
TABLE
  2
LTYPE
  5
5
100
AcDbSymbolTable
 70
6
  0
LTYPE
  5
14
100
AcDbSymbolTableRecord
100
AcDbLinetypeTableRecord
  2
BYBLOCK
 70
0
  3

 72
65
 73
0
 40
0.0
  0
LTYPE
  5
15
100
AcDbSymbolTableRecord
100
AcDbLinetypeTableRecord
  2
BYLAYER
 70
0
  3

 72
65
 73
0
 40
0.0
  0
LTYPE
  5
16
100
AcDbSymbolTableRecord
100
AcDbLinetypeTableRecord
  2
CONTINUOUS
 70
64
  3
Solid line
 72
65
 73
0
 40
0.0
  0
LTYPE
  5
1F5
100
AcDbSymbolTableRecord
100
AcDbLinetypeTableRecord
  2
CENTER
 70
64
  3
____ _ ____ _ ____ _ ____ _ ____ _ ____ _ ____
 72
65
 73
4
 40
0.6
 49
0.375
 74
0
 49
-0.075
 74
0
 49
0.075
 74
0
 49
-0.075
 74
0
  0
LTYPE
  5
1F6
100
AcDbSymbolTableRecord
100
AcDbLinetypeTableRecord
  2
HIDDEN
 70
64
  3
- - - - - - - - - - - - - - - - - - - -
 72
65
 73
2
 40
0.2
 49
0.1
 74
0
 49
-0.1
 74
0
  0
LTYPE
  5
1F7
100
AcDbSymbolTableRecord
100
AcDbLinetypeTableRecord
  2
PHANTOM
 70
64
  3
_____ _ _ _____ _ _ _____ _ _ _____
 72
65
 73
6
 40
0.8
 49
0.45
 74
0
 49
-0.05
 74
0
 49
0.1
 74
0
 49
-0.05
 74
0
 49
0.1
 74
0
 49
-0.05
 74
0
  0
LTYPE
  5
1F8
100
AcDbSymbolTableRecord
100
AcDbLinetypeTableRecord
  2
DOT
 70
64
  3
. . . . . . . . . . . . . . . . . . . .
 72
65
 73
2
 40
0.2
 49
0.1
 74
0
 49
-0.1
 74
0
  0
LTYPE
  5
1F9
100
AcDbSymbolTableRecord
100
AcDbLinetypeTableRecord
  2
DASHED
 70
64
  3
- - - - - - - - - - - - - - - - - - - -
 72
65
 73
2
 40
0.2
 49
0.1
 74
0
 49
-0.1
 74
0
  0
ENDTAB
  0
TABLE
  2
LAYER
  5
2
100
AcDbSymbolTable
 70
36
  0
LAYER
  5
10
100
AcDbSymbolTableRecord
100
AcDbLayerTableRecord
  2
0
 70
0
 62
7
  6
CONTINUOUS
370
-3
390
F
  0
LAYER
  5
1FA
100
AcDbSymbolTableRecord
100
AcDbLayerTableRecord
  2
DEFAULT_1
 70
0
 62
7
  6
CENTER
370
-3
390
F
  0
LAYER
  5
1FB
100
AcDbSymbolTableRecord
100
AcDbLayerTableRecord
  2
DEFAULT_2
 70
0
 62
8
  6
HIDDEN
370
-3
390
F
  0
LAYER
  5
1FC
100
AcDbSymbolTableRecord
100
AcDbLayerTableRecord
  2
DEFAULT_3
 70
0
 62
7
  6
PHANTOM
370
-3
390
F
  0
LAYER
  5
1FD
100
AcDbSymbolTableRecord
100
AcDbLayerTableRecord
  2
01_ALL_DTM_PLN
 70
0
 62
7
  6
CONTINUOUS
370
-3
390
F
  0
LAYER
  5
1FE
100
AcDbSymbolTableRecord
100
AcDbLayerTableRecord
  2
01__ASM_ALL_DTM_PLN
 70
0
 62
7
  6
CONTINUOUS
370
-3
390
F
  0
LAYER
  5
1FF
100
AcDbSymbolTableRecord
100
AcDbLayerTableRecord
  2
01__ASM_DEF_DTM_PLN
 70
0
 62
7
  6
CONTINUOUS
370
-3
390
F
  0
LAYER
  5
200
100
AcDbSymbolTableRecord
100
AcDbLayerTableRecord
  2
01___PRT_ALL_DTM_PLN
 70
0
 62
7
  6
CONTINUOUS
370
-3
390
F
  0
LAYER
  5
201
100
AcDbSymbolTableRecord
100
AcDbLayerTableRecord
  2
01___PRT_DEF_DTM_PLN
 70
0
 62
7
  6
CONTINUOUS
370
-3
390
F
  0
LAYER
  5
202
100
AcDbSymbolTableRecord
100
AcDbLayerTableRecord
  2
02_ALL_AXES
 70
0
 62
7
  6
CONTINUOUS
370
-3
390
F
  0
LAYER
  5
203
100
AcDbSymbolTableRecord
100
AcDbLayerTableRecord
  2
02__ASM_ALL_AXES
 70
0
 62
7
  6
CONTINUOUS
370
-3
390
F
  0
LAYER
  5
204
100
AcDbSymbolTableRecord
100
AcDbLayerTableRecord
  2
02___PRT_ALL_AXES
 70
0
 62
7
  6
CONTINUOUS
370
-3
390
F
  0
LAYER
  5
205
100
AcDbSymbolTableRecord
100
AcDbLayerTableRecord
  2
03_ALL_CURVES
 70
0
 62
7
  6
CONTINUOUS
370
-3
390
F
  0
LAYER
  5
206
100
AcDbSymbolTableRecord
100
AcDbLayerTableRecord
  2
03__ASM_ALL_CURVES
 70
0
 62
7
  6
CONTINUOUS
370
-3
390
F
  0
LAYER
  5
207
100
AcDbSymbolTableRecord
100
AcDbLayerTableRecord
  2
03___PRT_ALL_CURVES
 70
0
 62
7
  6
CONTINUOUS
370
-3
390
F
  0
LAYER
  5
208
100
AcDbSymbolTableRecord
100
AcDbLayerTableRecord
  2
04_ALL_DTM_PNT
 70
0
 62
7
  6
CONTINUOUS
370
-3
390
F
  0
LAYER
  5
209
100
AcDbSymbolTableRecord
100
AcDbLayerTableRecord
  2
04__ASM_ALL_DTM_PNT
 70
0
 62
7
  6
CONTINUOUS
370
-3
390
F
  0
LAYER
  5
20A
100
AcDbSymbolTableRecord
100
AcDbLayerTableRecord
  2
04___PRT_ALL_DTM_PNT
 70
0
 62
7
  6
CONTINUOUS
370
-3
390
F
  0
LAYER
  5
20B
100
AcDbSymbolTableRecord
100
AcDbLayerTableRecord
  2
05_ALL_DTM_CSYS
 70
0
 62
7
  6
CONTINUOUS
370
-3
390
F
  0
LAYER
  5
20C
100
AcDbSymbolTableRecord
100
AcDbLayerTableRecord
  2
05__ASM_ALL_DTM_CSYS
 70
0
 62
7
  6
CONTINUOUS
370
-3
390
F
  0
LAYER
  5
20D
100
AcDbSymbolTableRecord
100
AcDbLayerTableRecord
  2
05__ASM_DEF_DTM_CSYS
 70
0
 62
7
  6
CONTINUOUS
370
-3
390
F
  0
LAYER
  5
20E
100
AcDbSymbolTableRecord
100
AcDbLayerTableRecord
  2
05___PRT_ALL_DTM_CSYS
 70
0
 62
7
  6
CONTINUOUS
370
-3
390
F
  0
LAYER
  5
20F
100
AcDbSymbolTableRecord
100
AcDbLayerTableRecord
  2
05___PRT_DEF_DTM_CSYS
 70
0
 62
7
  6
CONTINUOUS
370
-3
390
F
  0
LAYER
  5
210
100
AcDbSymbolTableRecord
100
AcDbLayerTableRecord
  2
06_ALL_SURFS
 70
0
 62
7
  6
CONTINUOUS
370
-3
390
F
  0
LAYER
  5
211
100
AcDbSymbolTableRecord
100
AcDbLayerTableRecord
  2
06__ASM_ALL_SURFS
 70
0
 62
7
  6
CONTINUOUS
370
-3
390
F
  0
LAYER
  5
212
100
AcDbSymbolTableRecord
100
AcDbLayerTableRecord
  2
06___PRT_ALL_SURFS
 70
0
 62
7
  6
CONTINUOUS
370
-3
390
F
  0
LAYER
  5
213
100
AcDbSymbolTableRecord
100
AcDbLayerTableRecord
  2
07__ASM_ALL_SKELETONS
 70
0
 62
7
  6
CONTINUOUS
370
-3
390
F
  0
LAYER
  5
214
100
AcDbSymbolTableRecord
100
AcDbLayerTableRecord
  2
SHELL
 70
0
 62
7
  6
CONTINUOUS
370
-3
390
F
  0
ENDTAB
  0
TABLE
  2
STYLE
  5
3
100
AcDbSymbolTable
 70
1
  0
STYLE
  5
11
100
AcDbSymbolTableRecord
100
AcDbTextStyleTableRecord
  2
STANDARD
 70
0
 40
0.0
 41
0.8
 50
0.0
 71
0
 42
0.2
  3
txt
  4

  0
STYLE
  5
215
100
AcDbSymbolTableRecord
100
AcDbTextStyleTableRecord
  2
TEXTSTYLE_1
 70
0
 40
0.0
 41
0.8
 50
0.0
 71
0
 42
0.2
  3
gdt
  4

  0
ENDTAB
  0
TABLE
  2
VIEW
  5
6
100
AcDbSymbolTable
 70
0
  0
ENDTAB
  0
TABLE
  2
UCS
  5
7
100
AcDbSymbolTable
 70
0
  0
ENDTAB
  0
TABLE
  2
APPID
  5
9
100
AcDbSymbolTable
 70
1
  0
APPID
  5
216
100
AcDbSymbolTableRecord
100
AcDbRegAppTableRecord
  2
ACAD
 70
0
  0
ENDTAB
  0
TABLE
  2
BLOCK_RECORD
  5
1
100
AcDbSymbolTable
 70
0
  0
BLOCK_RECORD
  5
217
100
AcDbSymbolTableRecord
100
AcDbBlockTableRecord
  2
*Model_Space
  0
BLOCK_RECORD
  5
218
100
AcDbSymbolTableRecord
100
AcDbBlockTableRecord
  2
*Paper_Space
  0
ENDTAB
  0
TABLE
  2
DIMSTYLE
  5
A
100
AcDbSymbolTable
 70
1
100
AcDbDimStyleTable
 71
0
  0
DIMSTYLE
105
219
100
AcDbSymbolTableRecord
100
AcDbDimStyleTableRecord
  2
STANDARD
 70
0
  3

  4

 40
1.0
 41
0.1875
 42
0.0625
 43
0.38
 44
0.125
 45
0.0
 46
0.0
 47
0.0001
 48
0.0001
140
0.15625
141
0.09
142
0.0
143
25.4
144
1.0
145
0.0
146
1.0
147
0.09
 71
0.0
 72
0.0
 73
1
 74
1
 75
0
 76
0
 77
0
 78
4
 79
1
170
0
171
3
172
0
173
0
174
0
175
0
176
0
177
0
178
0
270
2
179
4
271
4
272
4
273
2
274
2
275
0
280
0
281
0
282
0
283
1
284
4
285
0
286
0
287
3
288
0
340
11
278
46
  0
ENDTAB
  0
ENDSEC
  0
SECTION
  2
BLOCKS
  0
BLOCK
  5
20
100
AcDbEntity
  8
0
100
AcDbBlockBegin
  2
*Model_Space
 70
0
 10
0.0
 20
0.0
 30
0.0
  3
*Model_Space
  1

  0
ENDBLK
  5
21
100
AcDbEntity
  8
0
100
AcDbBlockEnd
  0
BLOCK
  5
1C
100
AcDbEntity
  8
0
100
AcDbBlockBegin
  2
*Paper_Space
 70
0
 10
0.0
 20
0.0
 30
0.0
  3
*Paper_Space
  1

  0
ENDBLK
  5
1D
100
AcDbEntity
  8
0
100
AcDbBlockEnd
  0
ENDSEC
  0
SECTION
  2
ENTITIES
  0
MTEXT
  5
21A
100
AcDbEntity
  8
0
100
AcDbMText
 62
7
  6
CONTINUOUS
  7
STANDARD
 71
1
 72
1
 10
15.9560215477
 20
0.9479130325
 30
0.0
 11
1.0
 21
0.0
 31
0.0
 44
0.9
  1
SCALE: 1:1.000
 40
0.3
 41
3.36
  0
LINE
  5
21B
100
AcDbEntity
  8
0
100
AcDbLine
 62
7
  6
CONTINUOUS
 10
0.0
 20
0.0
 11
0.0
 21
17.0
  0
LINE
  5
21C
100
AcDbEntity
  8
0
100
AcDbLine
 62
7
  6
CONTINUOUS
 10
0.0
 20
0.0
 11
22.0
 21
0.0
  0
LINE
  5
21D
100
AcDbEntity
  8
0
100
AcDbLine
 62
7
  6
CONTINUOUS
 10
0.0
 20
17.0
 11
22.0
 21
17.0
  0
LINE
  5
21E
100
AcDbEntity
  8
0
100
AcDbLine
 62
7
  6
CONTINUOUS
 10
22.0
 20
0.0
 11
22.0
 21
17.0
  0
LINE
  5
21F
100
AcDbEntity
  8
0
100
AcDbLine
 62
7
  6
CONTINUOUS
 10
6.2866172762
 20
3.8638698968
 11
5.9741172762
 21
3.8638698968
  0
LINE
  5
220
100
AcDbEntity
  8
0
100
AcDbLine
 62
7
  6
CONTINUOUS
 10
5.9741172762
 20
4.1763698968
 11
6.2866172762
 21
4.1763698968
  0
LINE
  5
221
100
AcDbEntity
  8
0
100
AcDbLine
 62
7
  6
CONTINUOUS
 10
4.9343084362
 20
5.6466198968
 11
4.9343084362
 21
5.3936198968
  0
LINE
  5
222
100
AcDbEntity
  8
0
100
AcDbLine
 62
7
  6
CONTINUOUS
 10
5.1660218846
 20
5.8182404368
 11
5.1004587422
 21
5.7682404368
  0
LINE
  5
223
100
AcDbEntity
  8
0
100
AcDbLine
 62
7
  6
CONTINUOUS
 10
5.1004587422
 20
5.2719993568
 11
5.1660218846
 21
5.2219993568
  0
LINE
  5
224
100
AcDbEntity
  8
0
100
AcDbLine
 62
7
  6
CONTINUOUS
 10
5.7327709318
 20
4.361657477
 11
5.7561310153
 21
3.9961987539
  0
LINE
  5
225
100
AcDbEntity
  8
0
100
AcDbLine
 62
7
  6
CONTINUOUS
 10
5.7561310153
 20
7.0440410396
 11
5.7327709318
 21
6.6785823165
  0
LINE
  5
226
100
AcDbEntity
  8
0
100
AcDbLine
 62
7
  6
CONTINUOUS
 10
6.4857992482
 20
6.7861575785
 11
6.5187430529
 21
6.8228342348
  0
LINE
  5
227
100
AcDbEntity
  8
0
100
AcDbLine
 62
7
  6
CONTINUOUS
 10
6.5187430529
 20
4.2174055587
 11
6.4857992484
 21
4.2540822148
  0
LINE
  5
228
100
AcDbEntity
  8
0
100
AcDbLine
 62
7
  6
CONTINUOUS
 10
5.9741172762
 20
3.8638698968
 11
5.9741172762
 21
4.1763698968
  0
LINE
  5
229
100
AcDbEntity
  8
0
100
AcDbLine
 62
7
  6
CONTINUOUS
 10
5.9741172762
 20
6.8638698968
 11
5.9741172762
 21
7.1763698968
  0
LINE
  5
22A
100
AcDbEntity
  8
0
100
AcDbLine
 62
7
  6
CONTINUOUS
 10
6.9782931758
 20
6.5801778307
 11
7.0552697865
 21
6.6571544415
  0
LINE
  5
22B
100
AcDbEntity
  8
0
100
AcDbLine
 62
7
  6
CONTINUOUS
 10
6.0303672762
 20
6.1689590525
 11
6.0303672762
 21
6.1766198968
  0
LINE
  5
22C
100
AcDbEntity
  8
03__ASM_ALL_CURVES
100
AcDbLine
 62
8
  6
HIDDEN
 10
6.1303672762
 20
5.5201198968
 11
7.0915905568
 21
6.4813431774
  0
LINE
  5
22D
100
AcDbEntity
  8
0
100
AcDbLine
 62
7
  6
CONTINUOUS
 10
7.0737254572
 20
6.4634780778
 11
7.1294345964
 21
6.519187217
  0
LINE
  5
22E
100
AcDbEntity
  8
0
100
AcDbLine
 62
7
  6
CONTINUOUS
 10
7.4838435931
 20
5.3936198968
 11
7.3264261162
 21
5.3936198968
  0
LINE
  5
22F
100
AcDbEntity
  8
0
100
AcDbLine
 62
7
  6
CONTINUOUS
 10
4.9343084362
 20
5.3936198968
 11
4.7768909592
 21
5.3936198968
  0
LINE
  5
230
100
AcDbEntity
  8
0
100
AcDbLine
 62
7
  6
CONTINUOUS
 10
6.7792064319
 20
5.4201198968
 11
6.7868672762
 21
5.4201198968
  0
LINE
  5
231
100
AcDbEntity
  8
0
100
AcDbLine
 62
7
  6
CONTINUOUS
 10
6.2303672762
 20
6.1689590525
 11
6.2303672762
 21
6.1766198968
  0
LINE
  5
232
100
AcDbEntity
  8
0
100
AcDbLine
 62
7
  6
CONTINUOUS
 10
6.2866172762
 20
7.1763698968
 11
6.2866172762
 21
6.8638698968
  0
LINE
  5
233
100
AcDbEntity
  8
0
100
AcDbLine
 62
7
  6
CONTINUOUS
 10
6.2866172762
 20
4.1763698968
 11
6.2866172762
 21
3.8638698968
  0
LINE
  5
234
100
AcDbEntity
  8
0
100
AcDbLine
 62
7
  6
CONTINUOUS
 10
7.1904252101
 20
6.3680457964
 11
7.2674018209
 21
6.4450224071
  0
LINE
  5
235
100
AcDbEntity
  8
0
100
AcDbLine
 62
7
  6
CONTINUOUS
 10
6.779206432
 20
5.6201198968
 11
6.7868672762
 21
5.6201198968
  0
LINE
  5
236
100
AcDbEntity
  8
0
100
AcDbLine
 62
7
  6
CONTINUOUS
 10
4.7768909592
 20
5.6466198968
 11
4.9343084362
 21
5.6466198968
  0
LINE
  5
237
100
AcDbEntity
  8
0
100
AcDbLine
 62
7
  6
CONTINUOUS
 10
7.3264261162
 20
5.6466198968
 11
7.4838435931
 21
5.6466198968
  0
LINE
  5
238
100
AcDbEntity
  8
0
100
AcDbLine
 62
7
  6
CONTINUOUS
 10
6.5279636205
 20
6.6785823165
 11
6.504603537
 21
7.0440410396
  0
LINE
  5
239
100
AcDbEntity
  8
0
100
AcDbLine
 62
7
  6
CONTINUOUS
 10
6.504603537
 20
3.9961987539
 11
6.5279636205
 21
4.361657477
  0
LINE
  5
23A
100
AcDbEntity
  8
0
100
AcDbLine
 62
7
  6
CONTINUOUS
 10
5.7749819399
 20
4.254134135
 11
5.7419914994
 21
4.2174055587
  0
LINE
  5
23B
100
AcDbEntity
  8
0
100
AcDbLine
 62
7
  6
CONTINUOUS
 10
5.7419914994
 20
6.8228342348
 11
5.7749819399
 21
6.7861056585
  0
LINE
  5
23C
100
AcDbEntity
  8
0
100
AcDbLine
 62
7
  6
CONTINUOUS
 10
6.7868672762
 20
5.6201199031
 11
6.7868672762
 21
5.4201198904
  0
LINE
  5
23D
100
AcDbEntity
  8
0
100
AcDbLine
 62
7
  6
CONTINUOUS
 10
6.0303672698
 20
6.1766198968
 11
6.2303672825
 21
6.1766198968
  0
LINE
  5
23E
100
AcDbEntity
  8
0
100
AcDbLine
 62
7
  6
CONTINUOUS
 10
7.0947126677
 20
5.2219993568
 11
7.1602758101
 21
5.2719993568
  0
LINE
  5
23F
100
AcDbEntity
  8
0
100
AcDbLine
 62
7
  6
CONTINUOUS
 10
7.1602758101
 20
5.7682404368
 11
7.0947126677
 21
5.8182404368
  0
LINE
  5
240
100
AcDbEntity
  8
0
100
AcDbLine
 62
7
  6
CONTINUOUS
 10
7.3264261162
 20
5.3936198968
 11
7.3264261162
 21
5.6466198968
  0
LINE
  5
241
100
AcDbEntity
  8
0
100
AcDbLine
 62
7
  6
CONTINUOUS
 10
6.2866172762
 20
6.8638698968
 11
5.9741172762
 21
6.8638698968
  0
LINE
  5
242
100
AcDbEntity
  8
0
100
AcDbLine
 62
7
  6
CONTINUOUS
 10
7.1904252101
 20
6.3680457964
 11
7.0737254572
 21
6.4634780778
  0
LINE
  5
243
100
AcDbEntity
  8
0
100
AcDbLine
 62
7
  6
CONTINUOUS
 10
7.2461343494
 20
6.4237549356
 11
7.1294345964
 21
6.519187217
  0
LINE
  5
244
100
AcDbEntity
  8
0
100
AcDbLine
 62
7
  6
CONTINUOUS
 10
7.0737254572
 20
6.4634780778
 11
6.9782931758
 21
6.5801778307
  0
LINE
  5
245
100
AcDbEntity
  8
0
100
AcDbLine
 62
7
  6
CONTINUOUS
 10
7.1294345964
 20
6.519187217
 11
7.034002315
 21
6.63588697
  0
LINE
  5
246
100
AcDbEntity
  8
0
100
AcDbLine
 62
7
  6
CONTINUOUS
 10
7.0552697865
 20
6.6571544415
 11
7.0697010981
 21
6.6453531055
  0
LINE
  5
247
100
AcDbEntity
  8
0
100
AcDbLine
 62
7
  6
CONTINUOUS
 10
7.2556384873
 20
6.4594072474
 11
7.2674018209
 21
6.4450224071
  0
LINE
  5
248
100
AcDbEntity
  8
0
100
AcDbLine
 62
7
  6
CONTINUOUS
 10
5.9741172762
 20
7.1763698968
 11
6.2866172762
 21
7.1763698968
  0
LINE
  5
249
100
AcDbEntity
  8
0
100
AcDbLine
 62
7
  6
CONTINUOUS
 10
4.7114970839
 20
12.9181727814
 11
4.7114970839
 21
12.6262977814
  0
LINE
  5
24A
100
AcDbEntity
  8
0
100
AcDbLine
 62
7
  6
CONTINUOUS
 10
4.7173957669
 20
12.6262977814
 11
4.7173957669
 21
12.5484852814
  0
LINE
  5
24B
100
AcDbEntity
  8
0
100
AcDbLine
 62
7
  6
CONTINUOUS
 10
5.0114970839
 20
12.5484852814
 11
5.0114970839
 21
12.5284852814
  0
LINE
  5
24C
100
AcDbEntity
  8
0
100
AcDbLine
 62
7
  6
CONTINUOUS
 10
5.0409635499
 20
12.5284852814
 11
5.0409635499
 21
12.5484852814
  0
LINE
  5
24D
100
AcDbEntity
  8
0
100
AcDbLine
 62
7
  6
CONTINUOUS
 10
5.1065266923
 20
12.5484852814
 11
5.1065266923
 21
12.5284852814
  0
LINE
  5
24E
100
AcDbEntity
  8
03__ASM_ALL_CURVES
100
AcDbLine
 62
8
  6
HIDDEN
 10
7.4302470839
 20
11.7094227814
 11
4.7114970839
 21
11.7094227814
  0
LINE
  5
24F
100
AcDbEntity
  8
0
100
AcDbLine
 62
7
  6
CONTINUOUS
 10
5.4143720839
 20
13.4906727814
 11
5.4143720839
 21
13.2875477814
  0
LINE
  5
250
100
AcDbEntity
  8
0
100
AcDbLine
 62
7
  6
CONTINUOUS
 10
5.4143720839
 20
12.5284852814
 11
5.4143720839
 21
12.1312977814
  0
LINE
  5
251
100
AcDbEntity
  8
0
100
AcDbLine
 62
7
  6
CONTINUOUS
 10
6.7273720839
 20
12.1312977814
 11
5.4143720839
 21
12.1312977814
  0
LINE
  5
252
100
AcDbEntity
  8
0
100
AcDbLine
 62
7
  6
CONTINUOUS
 10
5.6824963071
 20
12.5484852814
 11
5.6824963071
 21
12.5062977814
  0
LINE
  5
253
100
AcDbEntity
  8
0
100
AcDbLine
 62
7
  6
CONTINUOUS
 10
5.6824963071
 20
12.7114954739
 11
5.6824963071
 21
12.9181727814
  0
LINE
  5
254
100
AcDbEntity
  8
0
100
AcDbLine
 62
7
  6
CONTINUOUS
 10
6.0708720839
 20
12.2562977814
 11
6.0059201786
 21
12.2937977814
  0
LINE
  5
255
100
AcDbEntity
  8
0
100
AcDbLine
 62
7
  6
CONTINUOUS
 10
6.0708720839
 20
12.4062977814
 11
6.1358239891
 21
12.3687977814
  0
LINE
  5
256
100
AcDbEntity
  8
0
100
AcDbLine
 62
7
  6
CONTINUOUS
 10
6.0059201786
 20
12.2937977814
 11
6.0059201786
 21
12.3687977814
  0
LINE
  5
257
100
AcDbEntity
  8
0
100
AcDbLine
 62
7
  6
CONTINUOUS
 10
6.4592478606
 20
12.5062977814
 11
5.6824963071
 21
12.5062977814
  0
LINE
  5
258
100
AcDbEntity
  8
0
100
AcDbLine
 62
7
  6
CONTINUOUS
 10
7.1302470839
 20
12.5284852814
 11
7.1087563781
 21
12.5284852814
  0
LINE
  5
259
100
AcDbEntity
  8
0
100
AcDbLine
 62
7
  6
CONTINUOUS
 10
6.9980317134
 20
12.5284852814
 11
6.4592478606
 21
12.5284852814
  0
LINE
  5
25A
100
AcDbEntity
  8
0
100
AcDbLine
 62
7
  6
CONTINUOUS
 10
5.6824963071
 20
12.5284852814
 11
5.0114970839
 21
12.5284852814
  0
LINE
  5
25B
100
AcDbEntity
  8
0
100
AcDbLine
 62
7
  6
CONTINUOUS
 10
7.4243484008
 20
12.5484852814
 11
7.2579276768
 21
12.5484852814
  0
LINE
  5
25C
100
AcDbEntity
  8
0
100
AcDbLine
 62
7
  6
CONTINUOUS
 10
6.9756525828
 20
12.5484852814
 11
6.4592478606
 21
12.5484852814
  0
LINE
  5
25D
100
AcDbEntity
  8
0
100
AcDbLine
 62
7
  6
CONTINUOUS
 10
5.6824963071
 20
12.5484852814
 11
4.7173957669
 21
12.5484852814
  0
LINE
  5
25E
100
AcDbEntity
  8
0
100
AcDbLine
 62
7
  6
CONTINUOUS
 10
6.1358239891
 20
12.3687977814
 11
6.1358239891
 21
12.2937977814
  0
LINE
  5
25F
100
AcDbEntity
  8
0
100
AcDbLine
 62
7
  6
CONTINUOUS
 10
7.430246584
 20
12.6262977814
 11
7.4243484008
 21
12.6262977814
  0
LINE
  5
260
100
AcDbEntity
  8
0
100
AcDbLine
 62
7
  6
CONTINUOUS
 10
4.7173957669
 20
12.6262977814
 11
4.7114975837
 21
12.6262977814
  0
LINE
  5
261
100
AcDbEntity
  8
0
100
AcDbLine
 62
7
  6
CONTINUOUS
 10
6.0059201786
 20
12.3687977814
 11
6.0708720839
 21
12.4062977814
  0
LINE
  5
262
100
AcDbEntity
  8
0
100
AcDbLine
 62
7
  6
CONTINUOUS
 10
7.0142302649
 20
12.5140088017
 11
7.0699394041
 21
12.5001169475
  0
LINE
  5
263
100
AcDbEntity
  8
0
100
AcDbLine
 62
7
  6
CONTINUOUS
 10
6.9187979835
 20
12.5992956549
 11
6.9745071227
 21
12.5854038007
  0
LINE
  5
264
100
AcDbEntity
  8
0
100
AcDbLine
 62
7
  6
CONTINUOUS
 10
6.1358239891
 20
12.2937977814
 11
6.0708720839
 21
12.2562977814
  0
LINE
  5
265
100
AcDbEntity
  8
0
100
AcDbLine
 62
7
  6
CONTINUOUS
 10
4.7214970839
 20
12.9281727814
 11
7.4202470839
 21
12.9281727814
  0
LINE
  5
266
100
AcDbEntity
  8
0
100
AcDbLine
 62
7
  6
CONTINUOUS
 10
6.4592478606
 20
12.9181727814
 11
6.4592478606
 21
12.7114954739
  0
LINE
  5
267
100
AcDbEntity
  8
0
100
AcDbLine
 62
7
  6
CONTINUOUS
 10
6.4592478606
 20
12.5062977814
 11
6.4592478606
 21
12.5484852814
  0
LINE
  5
268
100
AcDbEntity
  8
0
100
AcDbLine
 62
7
  6
CONTINUOUS
 10
6.940065455
 20
12.7698693613
 11
7.0567652079
 21
12.8551562145
  0
LINE
  5
269
100
AcDbEntity
  8
0
100
AcDbLine
 62
7
  6
CONTINUOUS
 10
6.9957745942
 20
12.7559775071
 11
7.1124743471
 21
12.8412643602
  0
LINE
  5
26A
100
AcDbEntity
  8
0
100
AcDbLine
 62
7
  6
CONTINUOUS
 10
6.940065455
 20
12.7698693613
 11
6.9957745942
 21
12.7559775071
  0
LINE
  5
26B
100
AcDbEntity
  8
0
100
AcDbLine
 62
7
  6
CONTINUOUS
 10
7.1124743471
 20
12.8412643602
 11
7.0567652079
 21
12.8551562145
  0
LINE
  5
26C
100
AcDbEntity
  8
0
100
AcDbLine
 62
7
  6
CONTINUOUS
 10
6.7273720839
 20
13.4906727814
 11
6.7273720839
 21
13.2875477814
  0
LINE
  5
26D
100
AcDbEntity
  8
0
100
AcDbLine
 62
7
  6
CONTINUOUS
 10
6.7273720839
 20
12.5284852814
 11
6.7273720839
 21
12.1312977814
  0
LINE
  5
26E
100
AcDbEntity
  8
0
100
AcDbLine
 62
7
  6
CONTINUOUS
 10
7.0142302649
 20
12.5140088017
 11
6.9187979835
 21
12.5992956549
  0
LINE
  5
26F
100
AcDbEntity
  8
0
100
AcDbLine
 62
7
  6
CONTINUOUS
 10
7.0699394041
 20
12.5001169475
 11
6.9745071227
 21
12.5854038007
  0
LINE
  5
270
100
AcDbEntity
  8
0
100
AcDbLine
 62
7
  6
CONTINUOUS
 10
7.1366265453
 20
12.5488534381
 11
7.0699394041
 21
12.5001169475
  0
LINE
  5
271
100
AcDbEntity
  8
0
100
AcDbLine
 62
7
  6
CONTINUOUS
 10
4.9409520184
 20
13.2875477814
 11
7.2007921493
 21
13.2875477814
  0
LINE
  5
272
100
AcDbEntity
  8
0
100
AcDbLine
 62
7
  6
CONTINUOUS
 10
6.940065455
 20
12.7698693613
 11
6.9187979835
 21
12.5992956549
  0
LINE
  5
273
100
AcDbEntity
  8
0
100
AcDbLine
 62
7
  6
CONTINUOUS
 10
7.1124743471
 20
12.8412643602
 11
7.2055728733
 21
12.7580631602
  0
LINE
  5
274
100
AcDbEntity
  8
0
100
AcDbLine
 62
7
  6
CONTINUOUS
 10
6.9745071227
 20
12.5854038007
 11
6.9957745942
 21
12.7559775071
  0
LINE
  5
275
100
AcDbEntity
  8
0
100
AcDbLine
 62
7
  6
CONTINUOUS
 10
5.4143720839
 20
13.4906727814
 11
6.7273720839
 21
13.4906727814
  0
LINE
  5
276
100
AcDbEntity
  8
0
100
AcDbLine
 62
7
  6
CONTINUOUS
 10
7.1302470839
 20
12.5441911815
 11
7.1302470839
 21
12.5284852814
  0
LINE
  5
277
100
AcDbEntity
  8
0
100
AcDbLine
 62
7
  6
CONTINUOUS
 10
7.4243484008
 20
12.5484852814
 11
7.4243484008
 21
12.6262977814
  0
LINE
  5
278
100
AcDbEntity
  8
0
100
AcDbLine
 62
7
  6
CONTINUOUS
 10
7.4302470839
 20
12.9181727814
 11
7.4302470839
 21
12.6262977814
  0
LINE
  5
279
100
AcDbEntity
  8
0
100
AcDbLine
 62
7
  6
CONTINUOUS
 10
15.8784802569
 20
3.5856247044
 11
15.4666052569
 21
3.5856247044
  0
LINE
  5
27A
100
AcDbEntity
  8
0
100
AcDbLine
 62
7
  6
CONTINUOUS
 10
15.5087927569
 20
4.1579103664
 11
15.4666052569
 21
4.1579103664
  0
LINE
  5
27B
100
AcDbEntity
  8
0
100
AcDbLine
 62
7
  6
CONTINUOUS
 10
15.6718029494
 20
4.1579103664
 11
15.8784802569
 21
4.1579103664
  0
LINE
  5
27C
100
AcDbEntity
  8
0
100
AcDbLine
 62
7
  6
CONTINUOUS
 10
15.4666052569
 20
4.1979566038
 11
15.5087927569
 21
4.1979566038
  0
LINE
  5
27D
100
AcDbEntity
  8
0
100
AcDbLine
 62
7
  6
CONTINUOUS
 10
15.5087927569
 20
4.4512497044
 11
15.4887927569
 21
4.4512497044
  0
LINE
  5
27E
100
AcDbEntity
  8
03__ASM_ALL_CURVES
100
AcDbLine
 62
8
  6
HIDDEN
 10
14.6697302569
 20
4.1012497044
 11
14.6697302569
 21
6.8199997044
  0
LINE
  5
27F
100
AcDbEntity
  8
0
100
AcDbLine
 62
7
  6
CONTINUOUS
 10
15.460424423
 20
6.4596920247
 11
15.5091989104
 21
6.5264311576
  0
LINE
  5
280
100
AcDbEntity
  8
0
100
AcDbLine
 62
7
  6
CONTINUOUS
 10
16.4509802569
 20
4.8041247044
 11
16.2478552569
 21
4.8041247044
  0
LINE
  5
281
100
AcDbEntity
  8
0
100
AcDbLine
 62
7
  6
CONTINUOUS
 10
15.4887927569
 20
4.8041247044
 11
15.0916052569
 21
4.8041247044
  0
LINE
  5
282
100
AcDbEntity
  8
0
100
AcDbLine
 62
7
  6
CONTINUOUS
 10
15.0916052569
 20
4.8041256239
 11
15.0916052569
 21
6.117123785
  0
LINE
  5
283
100
AcDbEntity
  8
0
100
AcDbLine
 62
7
  6
CONTINUOUS
 10
15.8015718358
 20
6.5022269677
 11
15.7162849826
 21
6.3855272148
  0
LINE
  5
284
100
AcDbEntity
  8
0
100
AcDbLine
 62
7
  6
CONTINUOUS
 10
15.2166052569
 20
5.4606247044
 11
15.2541052569
 21
5.5255766097
  0
LINE
  5
285
100
AcDbEntity
  8
0
100
AcDbLine
 62
7
  6
CONTINUOUS
 10
15.81546369
 20
6.4465178285
 11
15.7301768368
 21
6.3298180756
  0
LINE
  5
286
100
AcDbEntity
  8
0
100
AcDbLine
 62
7
  6
CONTINUOUS
 10
15.5087927569
 20
5.1625041644
 11
15.4887927569
 21
5.1625041644
  0
LINE
  5
287
100
AcDbEntity
  8
0
100
AcDbLine
 62
7
  6
CONTINUOUS
 10
15.2541052569
 20
5.3956727992
 11
15.2166052569
 21
5.4606247044
  0
LINE
  5
288
100
AcDbEntity
  8
0
100
AcDbLine
 62
7
  6
CONTINUOUS
 10
15.3666052569
 20
5.4606247044
 11
15.3291052569
 21
5.3956727992
  0
LINE
  5
289
100
AcDbEntity
  8
0
100
AcDbLine
 62
7
  6
CONTINUOUS
 10
15.4887927569
 20
5.2125041644
 11
15.5087927569
 21
5.2125041644
  0
LINE
  5
28A
100
AcDbEntity
  8
0
100
AcDbLine
 62
7
  6
CONTINUOUS
 10
15.5866052569
 20
5.3341247044
 11
15.5087927569
 21
5.3341247044
  0
LINE
  5
28B
100
AcDbEntity
  8
0
100
AcDbLine
 62
7
  6
CONTINUOUS
 10
15.3291052569
 20
5.5255766097
 11
15.3666052569
 21
5.4606247044
  0
LINE
  5
28C
100
AcDbEntity
  8
0
100
AcDbLine
 62
7
  6
CONTINUOUS
 10
15.4666052569
 20
3.5856371099
 11
15.4666052569
 21
4.1979537055
  0
LINE
  5
28D
100
AcDbEntity
  8
0
100
AcDbLine
 62
7
  6
CONTINUOUS
 10
15.4666052569
 20
6.7232956653
 11
15.4666052569
 21
7.335612299
  0
LINE
  5
28E
100
AcDbEntity
  8
0
100
AcDbLine
 62
7
  6
CONTINUOUS
 10
15.4887927569
 20
4.4512610697
 11
15.4887927569
 21
6.387784334
  0
LINE
  5
28F
100
AcDbEntity
  8
0
100
AcDbLine
 62
7
  6
CONTINUOUS
 10
15.5087927569
 20
4.1579103664
 11
15.5087927569
 21
6.3654052034
  0
LINE
  5
290
100
AcDbEntity
  8
0
100
AcDbLine
 62
7
  6
CONTINUOUS
 10
15.5087927569
 20
6.6482380859
 11
15.5087927569
 21
6.7633390425
  0
LINE
  5
291
100
AcDbEntity
  8
0
100
AcDbLine
 62
7
  6
CONTINUOUS
 10
15.6718015816
 20
6.7633390425
 11
15.6590553059
 21
6.6863104454
  0
LINE
  5
292
100
AcDbEntity
  8
0
100
AcDbLine
 62
7
  6
CONTINUOUS
 10
15.3291052569
 20
5.3956727992
 11
15.2541052569
 21
5.3956727992
  0
LINE
  5
293
100
AcDbEntity
  8
0
100
AcDbLine
 62
7
  6
CONTINUOUS
 10
15.5866052569
 20
5.3341247044
 11
15.5866052569
 21
5.5871247044
  0
LINE
  5
294
100
AcDbEntity
  8
0
100
AcDbLine
 62
7
  6
CONTINUOUS
 10
15.2541052569
 20
5.5255766097
 11
15.3291052569
 21
5.5255766097
  0
LINE
  5
295
100
AcDbEntity
  8
0
100
AcDbLine
 62
7
  6
CONTINUOUS
 10
15.5087927569
 20
5.5871247044
 11
15.5866052569
 21
5.5871247044
  0
LINE
  5
296
100
AcDbEntity
  8
0
100
AcDbLine
 62
7
  6
CONTINUOUS
 10
15.4743162772
 20
6.4039828855
 11
15.460424423
 21
6.4596920247
  0
LINE
  5
297
100
AcDbEntity
  8
0
100
AcDbLine
 62
7
  6
CONTINUOUS
 10
15.5087927569
 20
5.7087452444
 11
15.4887927569
 21
5.7087452444
  0
LINE
  5
298
100
AcDbEntity
  8
0
100
AcDbLine
 62
7
  6
CONTINUOUS
 10
15.5596031304
 20
6.3085506041
 11
15.5457112762
 21
6.3642597433
  0
LINE
  5
299
100
AcDbEntity
  8
0
100
AcDbLine
 62
7
  6
CONTINUOUS
 10
15.8884802569
 20
7.3256127413
 11
15.8884802569
 21
3.5956366676
  0
LINE
  5
29A
100
AcDbEntity
  8
0
100
AcDbLine
 62
7
  6
CONTINUOUS
 10
15.4887927569
 20
5.7587452444
 11
15.5087927569
 21
5.7587452444
  0
LINE
  5
29B
100
AcDbEntity
  8
0
100
AcDbLine
 62
7
  6
CONTINUOUS
 10
15.7301768368
 20
6.3298180756
 11
15.7162849826
 21
6.3855272148
  0
LINE
  5
29C
100
AcDbEntity
  8
0
100
AcDbLine
 62
7
  6
CONTINUOUS
 10
15.5596031304
 20
6.3085506041
 11
15.4743162772
 21
6.4039828855
  0
LINE
  5
29D
100
AcDbEntity
  8
0
100
AcDbLine
 62
7
  6
CONTINUOUS
 10
15.8015718358
 20
6.5022269677
 11
15.81546369
 21
6.4465178285
  0
LINE
  5
29E
100
AcDbEntity
  8
0
100
AcDbLine
 62
7
  6
CONTINUOUS
 10
16.2478552569
 20
6.5905301331
 11
16.2478552569
 21
4.3307192758
  0
LINE
  5
29F
100
AcDbEntity
  8
0
100
AcDbLine
 62
7
  6
CONTINUOUS
 10
16.4509802569
 20
6.1171247044
 11
16.2478552569
 21
6.1171247044
  0
LINE
  5
2A0
100
AcDbEntity
  8
0
100
AcDbLine
 62
7
  6
CONTINUOUS
 10
15.0916052569
 20
6.1171247044
 11
15.4887927569
 21
6.1171247044
  0
LINE
  5
2A1
100
AcDbEntity
  8
0
100
AcDbLine
 62
7
  6
CONTINUOUS
 10
15.5457112762
 20
6.3642597433
 11
15.460424423
 21
6.4596920247
  0
LINE
  5
2A2
100
AcDbEntity
  8
0
100
AcDbLine
 62
7
  6
CONTINUOUS
 10
15.5596031304
 20
6.3085506041
 11
15.7301768368
 21
6.3298180756
  0
LINE
  5
2A3
100
AcDbEntity
  8
0
100
AcDbLine
 62
7
  6
CONTINUOUS
 10
16.4509802569
 20
6.117123785
 11
16.4509802569
 21
4.8041256239
  0
LINE
  5
2A4
100
AcDbEntity
  8
0
100
AcDbLine
 62
7
  6
CONTINUOUS
 10
15.7162849826
 20
6.3855272148
 11
15.5457112762
 21
6.3642597433
  0
LINE
  5
2A5
100
AcDbEntity
  8
0
100
AcDbLine
 62
7
  6
CONTINUOUS
 10
15.7182514254
 20
6.5954588852
 11
15.8015718358
 21
6.5022269677
  0
LINE
  5
2A6
100
AcDbEntity
  8
0
100
AcDbLine
 62
7
  6
CONTINUOUS
 10
15.4666052569
 20
6.7232928051
 11
15.5087927569
 21
6.7232928051
  0
LINE
  5
2A7
100
AcDbEntity
  8
0
100
AcDbLine
 62
7
  6
CONTINUOUS
 10
15.8784802569
 20
6.7633390425
 11
15.6718029494
 21
6.7633390425
  0
LINE
  5
2A8
100
AcDbEntity
  8
0
100
AcDbLine
 62
7
  6
CONTINUOUS
 10
15.4666052569
 20
6.7633390425
 11
15.5087927569
 21
6.7633390425
  0
LINE
  5
2A9
100
AcDbEntity
  8
0
100
AcDbLine
 62
7
  6
CONTINUOUS
 10
15.8784802569
 20
7.3356247044
 11
15.4666052569
 21
7.3356247044
  0
LINE
  5
2AA
100
AcDbEntity
  8
0
100
AcDbLine
 62
7
  6
CONTINUOUS
 10
14.318487391
 20
13.2234293194
 11
14.2414260084
 21
12.9740585939
  0
LINE
  5
2AB
100
AcDbEntity
  8
0
100
AcDbLine
 62
7
  6
CONTINUOUS
 10
14.3197272615
 20
12.4538575959
 11
14.3385630473
 21
12.5148102211
  0
LINE
  5
2AC
100
AcDbEntity
  8
0
100
AcDbLine
 62
7
  6
CONTINUOUS
 10
14.8014169847
 20
13.8652101405
 11
14.7017159177
 21
13.5425773696
  0
LINE
  5
2AD
100
AcDbEntity
  8
0
100
AcDbLine
 62
7
  6
CONTINUOUS
 10
14.4986366501
 20
12.6710589197
 11
14.5034779766
 21
12.6867254579
  0
LINE
  5
2AE
100
AcDbEntity
  8
0
100
AcDbLine
 62
7
  6
CONTINUOUS
 10
16.1667029062
 20
11.469903143
 11
15.8788713456
 21
11.469903143
  0
LINE
  5
2AF
100
AcDbEntity
  8
0
100
AcDbLine
 62
7
  6
CONTINUOUS
 10
15.7835457622
 20
11.664156258
 11
16.0713773229
 21
11.664156258
  0
LINE
  5
2B0
100
AcDbEntity
  8
0
100
AcDbLine
 62
7
  6
CONTINUOUS
 10
14.3875427671
 20
12.6111249179
 11
14.4647183593
 21
12.4538575959
  0
LINE
  5
2B1
100
AcDbEntity
  8
0
100
AcDbLine
 62
7
  6
CONTINUOUS
 10
14.9637457457
 20
13.3347330478
 11
15.0237744984
 21
13.5289861629
  0
LINE
  5
2B2
100
AcDbEntity
  8
0
100
AcDbLine
 62
7
  6
CONTINUOUS
 10
14.5449863576
 20
12.7153082688
 11
14.5034779766
 21
12.6867254579
  0
LINE
  5
2B3
100
AcDbEntity
  8
0
100
AcDbLine
 62
7
  6
CONTINUOUS
 10
14.5437722099
 20
12.7021394181
 11
14.4986366501
 21
12.6710589197
  0
LINE
  5
2B4
100
AcDbEntity
  8
0
100
AcDbLine
 62
7
  6
CONTINUOUS
 10
14.9266376985
 20
12.8107735887
 11
14.7995528787
 21
12.3995269612
  0
LINE
  5
2B5
100
AcDbEntity
  8
0
100
AcDbLine
 62
7
  6
CONTINUOUS
 10
15.4587415621
 20
13.2864262961
 11
15.4778968999
 21
13.3092248713
  0
LINE
  5
2B6
100
AcDbEntity
  8
0
100
AcDbLine
 62
7
  6
CONTINUOUS
 10
14.6500109555
 20
12.3625905177
 11
14.7256507019
 21
12.3315100193
  0
LINE
  5
2B7
100
AcDbEntity
  8
0
100
AcDbLine
 62
7
  6
CONTINUOUS
 10
15.2060377886
 20
12.7410746288
 11
15.2241927629
 21
12.799824147
  0
LINE
  5
2B8
100
AcDbEntity
  8
0
100
AcDbLine
 62
7
  6
CONTINUOUS
 10
15.2271228556
 20
12.7288696398
 11
15.2394448562
 21
12.7687436486
  0
LINE
  5
2B9
100
AcDbEntity
  8
0
100
AcDbLine
 62
7
  6
CONTINUOUS
 10
16.0520939278
 20
13.378070015
 11
16.0830490731
 21
13.4018175081
  0
LINE
  5
2BA
100
AcDbEntity
  8
0
100
AcDbLine
 62
7
  6
CONTINUOUS
 10
15.2241927629
 20
12.799824147
 11
15.2930949165
 21
12.8291989061
  0
LINE
  5
2BB
100
AcDbEntity
  8
0
100
AcDbLine
 62
7
  6
CONTINUOUS
 10
15.3083470098
 20
12.7981184077
 11
15.2394448562
 21
12.7687436486
  0
LINE
  5
2BC
100
AcDbEntity
  8
0
100
AcDbLine
 62
7
  6
CONTINUOUS
 10
15.3256871215
 20
12.7410746288
 11
15.256784968
 21
12.7116998697
  0
LINE
  5
2BD
100
AcDbEntity
  8
0
100
AcDbLine
 62
7
  6
CONTINUOUS
 10
16.2726617266
 20
11.6896644345
 11
16.2311305576
 21
11.7124630096
  0
LINE
  5
2BE
100
AcDbEntity
  8
0
100
AcDbLine
 62
7
  6
CONTINUOUS
 10
16.2413427304
 20
11.7455096137
 11
16.2828738997
 21
11.7227110385
  0
LINE
  5
2BF
100
AcDbEntity
  8
0
100
AcDbLine
 62
7
  6
CONTINUOUS
 10
15.5572261686
 20
11.6896644345
 11
15.6377268619
 21
11.5521600797
  0
LINE
  5
2C0
100
AcDbEntity
  8
0
100
AcDbLine
 62
7
  6
CONTINUOUS
 10
15.5200205641
 20
11.8037060045
 11
15.5674383416
 21
11.7227110385
  0
LINE
  5
2C1
100
AcDbEntity
  8
0
100
AcDbLine
 62
7
  6
CONTINUOUS
 10
14.7080073618
 20
13.4467292262
 11
14.7624613419
 21
13.3092248713
  0
LINE
  5
2C2
100
AcDbEntity
  8
0
100
AcDbLine
 62
7
  6
CONTINUOUS
 10
14.7922325906
 20
13.2928819157
 11
14.8081836842
 21
13.2526030449
  0
LINE
  5
2C3
100
AcDbEntity
  8
0
100
AcDbLine
 62
7
  6
CONTINUOUS
 10
15.5775979668
 20
13.6318576422
 11
15.5275683509
 21
13.4699617456
  0
LINE
  5
2C4
100
AcDbEntity
  8
0
100
AcDbLine
 62
7
  6
CONTINUOUS
 10
15.4778968999
 20
13.3092248713
 11
15.4881090729
 21
13.3422714753
  0
LINE
  5
2C5
100
AcDbEntity
  8
0
100
AcDbLine
 62
7
  6
CONTINUOUS
 10
15.3438420958
 20
12.799824147
 11
15.3256871215
 21
12.7410746288
  0
LINE
  5
2C6
100
AcDbEntity
  8
0
100
AcDbLine
 62
7
  6
CONTINUOUS
 10
15.9977026086
 20
13.2312349685
 11
16.0286577539
 21
13.2549824615
  0
LINE
  5
2C7
100
AcDbEntity
  8
0
100
AcDbLine
 62
7
  6
CONTINUOUS
 10
16.0627139581
 20
12.3513624511
 11
16.1087670078
 21
12.3513624511
  0
LINE
  5
2C8
100
AcDbEntity
  8
0
100
AcDbLine
 62
7
  6
CONTINUOUS
 10
16.1005547961
 20
13.0918857516
 11
16.1315099413
 21
13.1156332446
  0
LINE
  5
2C9
100
AcDbEntity
  8
0
100
AcDbLine
 62
7
  6
CONTINUOUS
 10
16.2577983028
 20
13.0993715813
 11
16.288753448
 21
13.1231190744
  0
LINE
  5
2CA
100
AcDbEntity
  8
0
100
AcDbLine
 62
7
  6
CONTINUOUS
 10
16.0657416521
 20
12.4211119619
 11
16.0980314445
 21
12.4211119619
  0
LINE
  5
2CB
100
AcDbEntity
  8
0
100
AcDbLine
 62
7
  6
CONTINUOUS
 10
16.8129957453
 20
12.4538575959
 11
16.6680046475
 21
12.4538575959
  0
LINE
  5
2CC
100
AcDbEntity
  8
0
100
AcDbLine
 62
7
  6
CONTINUOUS
 10
14.4647183593
 20
12.4538575959
 11
14.3197272615
 21
12.4538575959
  0
LINE
  5
2CD
100
AcDbEntity
  8
0
100
AcDbLine
 62
7
  6
CONTINUOUS
 10
16.8318315311
 20
12.5148102211
 11
16.6868404332
 21
12.5148102211
  0
LINE
  5
2CE
100
AcDbEntity
  8
0
100
AcDbLine
 62
7
  6
CONTINUOUS
 10
14.4348071554
 20
12.5148102211
 11
14.3385630473
 21
12.5148102211
  0
LINE
  5
2CF
100
AcDbEntity
  8
0
100
AcDbLine
 62
7
  6
CONTINUOUS
 10
16.0906120335
 20
12.2926129328
 11
16.061721496
 21
12.3036129255
  0
LINE
  5
2D0
100
AcDbEntity
  8
0
100
AcDbLine
 62
7
  6
CONTINUOUS
 10
15.2394448562
 20
12.7687436486
 11
15.2241927629
 21
12.799824147
  0
LINE
  5
2D1
100
AcDbEntity
  8
0
100
AcDbLine
 62
7
  6
CONTINUOUS
 10
15.8788713456
 20
11.469903143
 11
15.7835457622
 21
11.664156258
  0
LINE
  5
2D2
100
AcDbEntity
  8
0
100
AcDbLine
 62
7
  6
CONTINUOUS
 10
14.9637457457
 20
13.3347330478
 11
14.8684201623
 21
13.5289861629
  0
LINE
  5
2D3
100
AcDbEntity
  8
0
100
AcDbLine
 62
7
  6
CONTINUOUS
 10
15.3083470098
 20
12.7981184077
 11
15.2930949165
 21
12.8291989061
  0
LINE
  5
2D4
100
AcDbEntity
  8
0
100
AcDbLine
 62
7
  6
CONTINUOUS
 10
14.2425516693
 20
12.6111249179
 11
14.3875427671
 21
12.6111249179
  0
LINE
  5
2D5
100
AcDbEntity
  8
0
100
AcDbLine
 62
7
  6
CONTINUOUS
 10
16.5908290552
 20
12.6111249179
 11
16.735820153
 21
12.6111249179
  0
LINE
  5
2D6
100
AcDbEntity
  8
0
100
AcDbLine
 62
7
  6
CONTINUOUS
 10
16.0691409069
 20
12.4321119546
 11
16.0980314445
 21
12.4211119619
  0
LINE
  5
2D7
100
AcDbEntity
  8
0
100
AcDbLine
 62
7
  6
CONTINUOUS
 10
15.256784968
 20
12.7116998697
 11
15.2060377886
 21
12.7410746288
  0
LINE
  5
2D8
100
AcDbEntity
  8
0
100
AcDbLine
 62
7
  6
CONTINUOUS
 10
16.0520939278
 20
13.378070015
 11
15.9977026086
 21
13.2312349685
  0
LINE
  5
2D9
100
AcDbEntity
  8
0
100
AcDbLine
 62
7
  6
CONTINUOUS
 10
16.0286577539
 20
13.2549824615
 11
16.0830490731
 21
13.4018175081
  0
LINE
  5
2DA
100
AcDbEntity
  8
0
100
AcDbLine
 62
7
  6
CONTINUOUS
 10
15.3380091222
 20
12.7809486375
 11
15.3083470098
 21
12.7981184077
  0
LINE
  5
2DB
100
AcDbEntity
  8
0
100
AcDbLine
 62
7
  6
CONTINUOUS
 10
15.2930949165
 20
12.8291989061
 11
15.3438420958
 21
12.799824147
  0
LINE
  5
2DC
100
AcDbEntity
  8
0
100
AcDbLine
 62
7
  6
CONTINUOUS
 10
15.156251723
 20
13.5289861629
 11
15.2515773063
 21
13.3347330478
  0
LINE
  5
2DD
100
AcDbEntity
  8
0
100
AcDbLine
 62
7
  6
CONTINUOUS
 10
16.0713773229
 20
11.664156258
 11
16.1667029062
 21
11.469903143
  0
LINE
  5
2DE
100
AcDbEntity
  8
0
100
AcDbLine
 62
7
  6
CONTINUOUS
 10
15.5572261686
 20
11.6896644345
 11
15.5674383416
 21
11.7227110385
  0
LINE
  5
2DF
100
AcDbEntity
  8
03__ASM_ALL_CURVES
100
AcDbLine
 62
8
  6
HIDDEN
 10
15.3246649328
 20
11.8752310218
 11
15.9167968594
 21
12.4727369948
  0
LINE
  5
2E0
100
AcDbEntity
  8
0
100
AcDbLine
 62
7
  6
CONTINUOUS
 10
14.7624613419
 20
13.3092248713
 11
14.8040513033
 21
13.2863940221
  0
LINE
  5
2E1
100
AcDbEntity
  8
0
100
AcDbLine
 62
7
  6
CONTINUOUS
 10
15.4778968999
 20
13.3092248713
 11
15.3973962066
 21
13.4467292262
  0
LINE
  5
2E2
100
AcDbEntity
  8
0
100
AcDbLine
 62
7
  6
CONTINUOUS
 10
15.5406046525
 20
13.2526030449
 11
15.4881090729
 21
13.3422714753
  0
LINE
  5
2E3
100
AcDbEntity
  8
0
100
AcDbLine
 62
7
  6
CONTINUOUS
 10
16.3282627009
 20
13.2297784287
 11
16.288753448
 21
13.1231190744
  0
LINE
  5
2E4
100
AcDbEntity
  8
0
100
AcDbLine
 62
7
  6
CONTINUOUS
 10
16.2577983028
 20
13.0993715813
 11
16.1005547961
 21
13.0918857516
  0
LINE
  5
2E5
100
AcDbEntity
  8
0
100
AcDbLine
 62
7
  6
CONTINUOUS
 10
16.288753448
 20
13.1231190744
 11
16.1315099413
 21
13.1156332446
  0
LINE
  5
2E6
100
AcDbEntity
  8
0
100
AcDbLine
 62
7
  6
CONTINUOUS
 10
16.3958538061
 20
12.6710589197
 11
16.3202140597
 21
12.7021394181
  0
LINE
  5
2E7
100
AcDbEntity
  8
0
100
AcDbLine
 62
7
  6
CONTINUOUS
 10
16.4006951326
 20
12.6867254579
 11
16.3250553862
 21
12.7178059563
  0
LINE
  5
2E8
100
AcDbEntity
  8
0
100
AcDbLine
 62
7
  6
CONTINUOUS
 10
16.3271157067
 20
11.5521600797
 11
16.2726617266
 21
11.6896644345
  0
LINE
  5
2E9
100
AcDbEntity
  8
0
100
AcDbLine
 62
7
  6
CONTINUOUS
 10
16.2828738997
 20
11.7227110385
 11
16.2473637304
 21
11.8123794689
  0
LINE
  5
2EA
100
AcDbEntity
  8
0
100
AcDbLine
 62
7
  6
CONTINUOUS
 10
16.061721496
 20
12.3036129255
 11
16.0509859327
 21
12.3733624364
  0
LINE
  5
2EB
100
AcDbEntity
  8
0
100
AcDbLine
 62
7
  6
CONTINUOUS
 10
16.0627139581
 20
12.3513624511
 11
16.05655434
 21
12.391381809
  0
LINE
  5
2EC
100
AcDbEntity
  8
0
100
AcDbLine
 62
7
  6
CONTINUOUS
 10
16.0509859327
 20
12.3733624364
 11
16.0691409069
 21
12.4321119546
  0
LINE
  5
2ED
100
AcDbEntity
  8
0
100
AcDbLine
 62
7
  6
CONTINUOUS
 10
16.0627139581
 20
12.3513624511
 11
16.0571455508
 21
12.3333430784
  0
LINE
  5
2EE
100
AcDbEntity
  8
0
100
AcDbLine
 62
7
  6
CONTINUOUS
 10
16.1087670078
 20
12.3513624511
 11
16.0906120335
 21
12.2926129328
  0
LINE
  5
2EF
100
AcDbEntity
  8
0
100
AcDbLine
 62
7
  6
CONTINUOUS
 10
15.9389000983
 20
11.664156258
 11
15.8788713456
 21
11.469903143
  0
LINE
  5
2F0
100
AcDbEntity
  8
0
100
AcDbLine
 62
7
  6
CONTINUOUS
 10
16.181105267
 20
12.42311379
 11
16.0540204472
 21
12.0118671624
  0
LINE
  5
2F1
100
AcDbEntity
  8
0
100
AcDbLine
 62
7
  6
CONTINUOUS
 10
15.5674383416
 20
11.7227110385
 11
15.5865936794
 21
11.7455096136
  0
LINE
  5
2F2
100
AcDbEntity
  8
0
100
AcDbLine
 62
7
  6
CONTINUOUS
 10
15.576408623
 20
11.7124952837
 11
15.5572261686
 21
11.6896644345
  0
LINE
  5
2F3
100
AcDbEntity
  8
0
100
AcDbLine
 62
7
  6
CONTINUOUS
 10
15.5777459057
 20
13.6356331297
 11
15.4967298694
 21
13.7740177491
  0
LINE
  5
2F4
100
AcDbEntity
  8
0
100
AcDbLine
 62
7
  6
CONTINUOUS
 10
16.0980314445
 20
12.4211119619
 11
16.1087670078
 21
12.3513624511
  0
LINE
  5
2F5
100
AcDbEntity
  8
0
100
AcDbLine
 62
7
  6
CONTINUOUS
 10
16.3202140597
 20
12.7021394181
 11
16.3250553862
 21
12.7178059563
  0
LINE
  5
2F6
100
AcDbEntity
  8
0
100
AcDbLine
 62
7
  6
CONTINUOUS
 10
16.4006951326
 20
12.6867254579
 11
16.3958538061
 21
12.6710589197
  0
LINE
  5
2F7
100
AcDbEntity
  8
0
100
AcDbLine
 62
7
  6
CONTINUOUS
 10
16.5020925517
 20
12.3315100193
 11
16.5472281115
 21
12.3625905177
  0
LINE
  5
2F8
100
AcDbEntity
  8
0
100
AcDbLine
 62
7
  6
CONTINUOUS
 10
15.2515773063
 20
13.3347330478
 11
14.9637457457
 21
13.3347330478
  0
LINE
  5
2F9
100
AcDbEntity
  8
0
100
AcDbLine
 62
7
  6
CONTINUOUS
 10
16.1005547961
 20
13.0918857516
 11
15.9977026086
 21
13.2312349685
  0
LINE
  5
2FA
100
AcDbEntity
  8
0
100
AcDbLine
 62
7
  6
CONTINUOUS
 10
16.42826158
 20
11.8658989193
 11
16.5436456182
 21
11.910650721
  0
LINE
  5
2FB
100
AcDbEntity
  8
0
100
AcDbLine
 62
7
  6
CONTINUOUS
 10
16.0830490731
 20
13.4018175081
 11
16.1880785167
 21
13.4068176035
  0
LINE
  5
2FC
100
AcDbEntity
  8
0
100
AcDbLine
 62
7
  6
CONTINUOUS
 10
16.2809383963
 20
13.1171236935
 11
16.2829524538
 21
13.1155749915
  0
LINE
  5
2FD
100
AcDbEntity
  8
0
100
AcDbLine
 62
7
  6
CONTINUOUS
 10
16.2814494856
 20
13.1175338529
 11
16.2834599909
 21
13.1159802877
  0
LINE
  5
2FE
100
AcDbEntity
  8
0
100
AcDbLine
 62
7
  6
CONTINUOUS
 10
16.1315099413
 20
13.1156332446
 11
16.0286577539
 21
13.2549824615
  0
LINE
  5
2FF
100
AcDbEntity
  8
0
100
AcDbLine
 62
7
  6
CONTINUOUS
 10
16.2828738997
 20
11.7227110385
 11
16.2726617266
 21
11.6896644345
  0
LINE
  5
300
100
AcDbEntity
  8
0
100
AcDbLine
 62
7
  6
CONTINUOUS
 10
16.5472281115
 20
12.3625905177
 11
16.5520694379
 21
12.3782570559
  0
LINE
  5
301
100
AcDbEntity
  8
0
100
AcDbLine
 62
7
  6
CONTINUOUS
 10
14.8684201623
 20
13.5289861629
 11
15.156251723
 21
13.5289861629
  0
LINE
  5
302
100
AcDbEntity
  8
0
100
AcDbLine
 62
7
  6
CONTINUOUS
 10
15.5784924399
 20
13.6359562043
 11
15.5778337163
 21
13.6360763692
  0
LINE
  5
303
100
AcDbEntity
  8
0
100
AcDbLine
 62
7
  6
CONTINUOUS
 10
15.5784956807
 20
13.6358894091
 11
15.5778356896
 21
13.6360363628
  0
LINE
  5
304
100
AcDbEntity
  8
0
100
AcDbLine
 62
7
  6
CONTINUOUS
 10
16.6680046475
 20
12.4538575959
 11
16.5908290552
 21
12.6111249179
  0
LINE
  5
305
100
AcDbEntity
  8
0
100
AcDbLine
 62
7
  6
CONTINUOUS
 10
16.6868404332
 20
12.5148102211
 11
16.639576045
 21
12.6111249179
  0
LINE
  5
306
100
AcDbEntity
  8
0
100
AcDbLine
 62
7
  6
CONTINUOUS
 10
16.4331082178
 20
11.7789447071
 11
16.3334071508
 21
11.4563119362
  0
LINE
  5
307
100
AcDbEntity
  8
0
100
AcDbLine
 62
7
  6
CONTINUOUS
 10
16.6868404332
 20
12.5148102211
 11
16.6680046475
 21
12.4538575959
  0
LINE
  5
308
100
AcDbEntity
  8
0
100
AcDbLine
 62
7
  6
CONTINUOUS
 10
16.735820153
 20
12.6111249179
 11
16.7546559388
 21
12.672077543
  0
LINE
  5
309
100
AcDbEntity
  8
0
100
AcDbLine
 62
7
  6
CONTINUOUS
 10
16.8318315311
 20
12.5148102211
 11
16.8129957453
 21
12.4538575959
  0
LINE
  5
30A
100
AcDbEntity
  8
0
100
AcDbLine
 62
7
  6
CONTINUOUS
 10
16.9160378114
 20
12.4207255282
 11
16.8389764288
 21
12.1713548027
  0
ARC
  5
30B
100
AcDbEntity
  8
0
100
AcDbCircle
 62
7
  6
CONTINUOUS
 10
6.1303672762
 20
5.303106956
 40
1.4317874564
100
AcDbArc
 50
23.6422167209
 51
73.877478186
  0
ARC
  5
30C
100
AcDbEntity
  8
0
100
AcDbCircle
 62
7
  6
CONTINUOUS
 10
6.1303672762
 20
5.303106956
 40
1.4317874564
100
AcDbArc
 50
106.122521814
 51
156.3577832791
  0
ARC
  5
30D
100
AcDbEntity
  8
0
100
AcDbCircle
 62
7
  6
CONTINUOUS
 10
6.1303672762
 20
4.0201198968
 40
0.375
100
AcDbArc
 50
183.657364649
 51
356.342635351
  0
ARC
  5
30E
100
AcDbEntity
  8
0
100
AcDbCircle
 62
7
  6
CONTINUOUS
 10
6.4783130999
 20
4.2474517961
 40
0.01
100
AcDbArc
 50
41.9309016162
 51
105.2909200592
  0
ARC
  5
30F
100
AcDbEntity
  8
0
100
AcDbCircle
 62
7
  6
CONTINUOUS
 10
5.7824214524
 20
4.2474517961
 40
0.01
100
AcDbArc
 50
74.7090799407
 51
138.0690983838
  0
ARC
  5
310
100
AcDbEntity
  8
0
100
AcDbCircle
 62
7
  6
CONTINUOUS
 10
6.1303672762
 20
5.7371328375
 40
1.4317874564
100
AcDbArc
 50
286.122521814
 51
336.3577832791
  0
ARC
  5
311
100
AcDbEntity
  8
0
100
AcDbCircle
 62
7
  6
CONTINUOUS
 10
6.1303672762
 20
5.7371328375
 40
1.4317874564
100
AcDbArc
 50
203.6422167209
 51
253.877478186
  0
CIRCLE
  5
312
100
AcDbEntity
  8
03__ASM_ALL_CURVES
100
AcDbCircle
 62
8
  6
HIDDEN
 10
6.1303672762
 20
5.5201198968
 40
1.359375
  0
ARC
  5
313
100
AcDbEntity
  8
0
100
AcDbCircle
 62
7
  6
CONTINUOUS
 10
6.1303672762
 20
5.5201198968
 40
1.359375
100
AcDbArc
 50
51.3456114005
 51
73.3992016286
  0
ARC
  5
314
100
AcDbEntity
  8
0
100
AcDbCircle
 62
7
  6
CONTINUOUS
 10
6.1303672762
 20
5.5201198968
 40
1.359375
100
AcDbArc
 50
106.6007983714
 51
253.3992016286
  0
ARC
  5
315
100
AcDbEntity
  8
0
100
AcDbCircle
 62
7
  6
CONTINUOUS
 10
6.1303672762
 20
5.5201198968
 40
1.359375
100
AcDbArc
 50
286.6007983714
 51
38.655550253
  0
ARC
  5
316
100
AcDbEntity
  8
0
100
AcDbCircle
 62
7
  6
CONTINUOUS
 10
6.1303672762
 20
5.5201198968
 40
1.309375
100
AcDbArc
 50
254.7090799407
 51
285.2909200593
  0
ARC
  5
317
100
AcDbEntity
  8
0
100
AcDbCircle
 62
7
  6
CONTINUOUS
 10
6.1303672762
 20
5.5201198968
 40
1.309375
100
AcDbArc
 50
74.7090799407
 51
105.2909200593
  0
ARC
  5
318
100
AcDbEntity
  8
0
100
AcDbCircle
 62
7
  6
CONTINUOUS
 10
6.1303672762
 20
5.5201198968
 40
1.059375
100
AcDbArc
 50
166.4547000367
 51
193.5452999633
  0
ARC
  5
319
100
AcDbEntity
  8
0
100
AcDbCircle
 62
7
  6
CONTINUOUS
 10
6.1303672762
 20
5.5201198968
 40
1.059375
100
AcDbArc
 50
346.4547000367
 51
13.5452999633
  0
ARC
  5
31A
100
AcDbEntity
  8
0
100
AcDbCircle
 62
7
  6
CONTINUOUS
 10
6.1303672762
 20
5.5201198968
 40
1.009375
100
AcDbArc
 50
197.1786231523
 51
342.8213768477
  0
ARC
  5
31B
100
AcDbEntity
  8
0
100
AcDbCircle
 62
7
  6
CONTINUOUS
 10
6.1303672762
 20
5.5201198968
 40
1.009375
100
AcDbArc
 50
17.1786231523
 51
162.8213768477
  0
CIRCLE
  5
31C
100
AcDbEntity
  8
0
100
AcDbCircle
 62
7
  6
CONTINUOUS
 10
6.1303672762
 20
5.5201198968
 40
0.959375
  0
CIRCLE
  5
31D
100
AcDbEntity
  8
0
100
AcDbCircle
 62
7
  6
CONTINUOUS
 10
6.1303672762
 20
5.5201198968
 40
0.6565
  0
CIRCLE
  5
31E
100
AcDbEntity
  8
0
100
AcDbCircle
 62
7
  6
CONTINUOUS
 10
6.1303672762
 20
5.5201198968
 40
0.46875
  0
ARC
  5
31F
100
AcDbEntity
  8
0
100
AcDbCircle
 62
7
  6
CONTINUOUS
 10
6.1303672762
 20
7.0201198968
 40
0.375
100
AcDbArc
 50
3.657364649
 51
176.342635351
  0
ARC
  5
320
100
AcDbEntity
  8
0
100
AcDbCircle
 62
7
  6
CONTINUOUS
 10
5.7824214524
 20
6.7927879974
 40
0.01
100
AcDbArc
 50
221.9309016162
 51
285.2909200593
  0
ARC
  5
321
100
AcDbEntity
  8
0
100
AcDbCircle
 62
7
  6
CONTINUOUS
 10
6.4783130999
 20
6.7927879974
 40
0.01
100
AcDbArc
 50
254.7090799408
 51
318.0690983838
  0
ARC
  5
322
100
AcDbEntity
  8
0
100
AcDbCircle
 62
7
  6
CONTINUOUS
 10
7.2161160734
 20
6.6078608768
 40
0.1611502288
100
AcDbArc
 50
49.9198631918
 51
50.8403365096
  0
ARC
  5
323
100
AcDbEntity
  8
0
100
AcDbCircle
 62
7
  6
CONTINUOUS
 10
7.2688128096
 20
6.6380256855
 40
0.1004762073
100
AcDbArc
 50
294.2661558556
 51
314.9990875471
  0
ARC
  5
324
100
AcDbEntity
  8
0
100
AcDbCircle
 62
7
  6
CONTINUOUS
 10
7.248273058
 20
6.658565435
 40
0.1004761989
100
AcDbArc
 50
135.0009115862
 51
155.7338450111
  0
ARC
  5
325
100
AcDbEntity
  8
0
100
AcDbCircle
 62
7
  6
CONTINUOUS
 10
7.0713921821
 20
6.7383667824
 40
0.0935722428
100
AcDbArc
 50
314.9883753561
 51
335.6992482813
  0
ARC
  5
326
100
AcDbEntity
  8
0
100
AcDbCircle
 62
7
  6
CONTINUOUS
 10
7.3485381138
 20
6.4612493556
 40
0.0934440614
100
AcDbArc
 50
114.2844462536
 51
135.0239993043
  0
ARC
  5
327
100
AcDbEntity
  8
0
100
AcDbCircle
 62
7
  6
CONTINUOUS
 10
7.07039022
 20
6.7080954464
 40
0.0628241628
100
AcDbArc
 50
255.2150890181
 51
259.4937871423
  0
ARC
  5
328
100
AcDbEntity
  8
0
100
AcDbCircle
 62
7
  6
CONTINUOUS
 10
7.3135268645
 20
6.4588566834
 40
0.0578400667
100
AcDbArc
 50
193.8628971136
 51
194.7826671004
  0
ARC
  5
329
100
AcDbEntity
  8
0
100
AcDbCircle
 62
7
  6
CONTINUOUS
 10
5.9418681776
 20
12.9281727814
 40
1.3165039062
100
AcDbArc
 50
0.4319348172
 51
15.5103317071
  0
ARC
  5
32A
100
AcDbEntity
  8
0
100
AcDbCircle
 62
7
  6
CONTINUOUS
 10
6.1998759901
 20
12.9281727814
 40
1.3165039062
100
AcDbArc
 50
164.4896682929
 51
179.5680651828
  0
ARC
  5
32B
100
AcDbEntity
  8
0
100
AcDbCircle
 62
7
  6
CONTINUOUS
 10
7.4019304724
 20
12.3284450845
 40
0.6823545243
100
AcDbArc
 50
171.3306476475
 51
173.8120867174
  0
ARC
  5
32C
100
AcDbEntity
  8
0
100
AcDbCircle
 62
7
  6
CONTINUOUS
 10
7.4002879481
 20
12.3339363053
 40
0.6806984847
100
AcDbArc
 50
186.1840193482
 51
188.6723703517
  0
ARC
  5
32D
100
AcDbEntity
  8
0
100
AcDbCircle
 62
7
  6
CONTINUOUS
 10
7.3723922459
 20
12.3312978117
 40
0.652678891
100
AcDbArc
 50
173.7815542826
 51
186.2175394865
  0
ARC
  5
32E
100
AcDbEntity
  8
0
100
AcDbCircle
 62
7
  6
CONTINUOUS
 10
7.0484703719
 20
12.651398337
 40
0.1348151078
100
AcDbArc
 50
309.131658552
 51
310.4790440973
  0
ARC
  5
32F
100
AcDbEntity
  8
0
100
AcDbCircle
 62
7
  6
CONTINUOUS
 10
7.0520468815
 20
12.6469916022
 40
0.1291396622
100
AcDbArc
 50
306.1844874627
 51
309.1346841968
  0
CIRCLE
  5
330
100
AcDbEntity
  8
0
100
AcDbCircle
 62
7
  6
CONTINUOUS
 10
6.0708720839
 20
12.3312977814
 40
0.1
  0
ARC
  5
331
100
AcDbEntity
  8
0
100
AcDbCircle
 62
7
  6
CONTINUOUS
 10
7.4202470839
 20
12.9181727814
 40
0.01
100
AcDbArc
 50
0.0
 51
90.0
  0
ARC
  5
332
100
AcDbEntity
  8
0
100
AcDbCircle
 62
7
  6
CONTINUOUS
 10
4.7214970839
 20
12.9181727814
 40
0.01
100
AcDbArc
 50
90.0
 51
180.0
  0
ARC
  5
333
100
AcDbEntity
  8
0
100
AcDbCircle
 62
7
  6
CONTINUOUS
 10
4.9409520184
 20
13.2775477814
 40
0.01
100
AcDbArc
 50
90.0
 51
164.4896682929
  0
ARC
  5
334
100
AcDbEntity
  8
0
100
AcDbCircle
 62
7
  6
CONTINUOUS
 10
7.2007921493
 20
13.2775477814
 40
0.01
100
AcDbArc
 50
15.5103317071
 51
90.0
  0
ARC
  5
335
100
AcDbEntity
  8
0
100
AcDbCircle
 62
7
  6
CONTINUOUS
 10
7.2683343903
 20
12.9381727814
 40
0.01
100
AcDbArc
 50
180.4319348172
 51
270.0
  0
ARC
  5
336
100
AcDbEntity
  8
0
100
AcDbCircle
 62
7
  6
CONTINUOUS
 10
4.8734097775
 20
12.9381727814
 40
0.01
100
AcDbArc
 50
270.0
 51
359.5680651828
  0
ARC
  5
337
100
AcDbEntity
  8
0
100
AcDbCircle
 62
7
  6
CONTINUOUS
 10
-47.0438358868
 20
-6.1672905443
 40
63.5599005419
100
AcDbArc
 50
9.3490358264
 51
10.2139705688
  0
ARC
  5
338
100
AcDbEntity
  8
0
100
AcDbCircle
 62
7
  6
CONTINUOUS
 10
-43.3437483865
 20
16.4389018053
 40
59.8032560033
100
AcDbArc
 50
349.7699587291
 51
350.2522317578
  0
ARC
  5
339
100
AcDbEntity
  8
0
100
AcDbCircle
 62
7
  6
CONTINUOUS
 10
45.120711728
 20
-26.6864357477
 40
44.5659697725
100
AcDbArc
 50
131.3604273672
 51
131.4860768838
  0
ARC
  5
33A
100
AcDbEntity
  8
0
100
AcDbCircle
 62
7
  6
CONTINUOUS
 10
42.8322339884
 20
35.0148962906
 40
41.1076950771
100
AcDbArc
 50
228.3422596204
 51
228.6456481669
  0
ARC
  5
33B
100
AcDbEntity
  8
0
100
AcDbCircle
 62
7
  6
CONTINUOUS
 10
15.8884802569
 20
5.5896286107
 40
1.3165039062
100
AcDbArc
 50
270.4319348172
 51
285.5103317071
  0
ARC
  5
33C
100
AcDbEntity
  8
0
100
AcDbCircle
 62
7
  6
CONTINUOUS
 10
15.8884802569
 20
5.3316207982
 40
1.3165039062
100
AcDbArc
 50
74.4896682929
 51
89.5680651828
  0
ARC
  5
33D
100
AcDbEntity
  8
0
100
AcDbCircle
 62
7
  6
CONTINUOUS
 10
15.2944576171
 20
6.7916806676
 40
0.6823520758
100
AcDbArc
 50
261.330644905
 51
263.8128301923
  0
ARC
  5
33E
100
AcDbEntity
  8
0
100
AcDbCircle
 62
7
  6
CONTINUOUS
 10
15.2889664629
 20
6.7900426134
 40
0.6807005467
100
AcDbArc
 50
276.1842856861
 51
278.672366872
  0
ARC
  5
33F
100
AcDbEntity
  8
0
100
AcDbCircle
 62
7
  6
CONTINUOUS
 10
15.2916052614
 20
6.7621445605
 40
0.6526785855
100
AcDbArc
 50
263.7823191706
 51
276.2178128999
  0
ARC
  5
340
100
AcDbEntity
  8
0
100
AcDbCircle
 62
7
  6
CONTINUOUS
 10
15.6112422869
 20
6.4386095241
 40
0.1342116103
100
AcDbArc
 50
139.4931961738
 51
140.8714572751
  0
ARC
  5
341
100
AcDbEntity
  8
0
100
AcDbCircle
 62
7
  6
CONTINUOUS
 10
15.6061984514
 20
6.4426489234
 40
0.1277498419
100
AcDbArc
 50
140.8492642599
 51
143.8315640807
  0
CIRCLE
  5
342
100
AcDbEntity
  8
0
100
AcDbCircle
 62
7
  6
CONTINUOUS
 10
15.2916052569
 20
5.4606247044
 40
0.1
  0
ARC
  5
343
100
AcDbEntity
  8
0
100
AcDbCircle
 62
7
  6
CONTINUOUS
 10
15.5634732567
 20
6.4623140279
 40
0.0802032964
100
AcDbArc
 50
171.8169203606
 51
174.53345692
  0
ARC
  5
344
100
AcDbEntity
  8
0
100
AcDbCircle
 62
7
  6
CONTINUOUS
 10
15.8984802569
 20
6.6580870108
 40
0.01
100
AcDbArc
 50
180.0
 51
269.5680651828
  0
ARC
  5
345
100
AcDbEntity
  8
0
100
AcDbCircle
 62
7
  6
CONTINUOUS
 10
15.8784802569
 20
3.5956247044
 40
0.01
100
AcDbArc
 50
270.0
 51
360.0
  0
ARC
  5
346
100
AcDbEntity
  8
0
100
AcDbCircle
 62
7
  6
CONTINUOUS
 10
15.8784802569
 20
7.3256247044
 40
0.01
100
AcDbArc
 50
0.0
 51
90.0
  0
ARC
  5
347
100
AcDbEntity
  8
0
100
AcDbCircle
 62
7
  6
CONTINUOUS
 10
15.8984802569
 20
4.263162398
 40
0.01
100
AcDbArc
 50
90.4319348172
 51
180.0
  0
ARC
  5
348
100
AcDbEntity
  8
0
100
AcDbCircle
 62
7
  6
CONTINUOUS
 10
16.2378552569
 20
6.5905447699
 40
0.01
100
AcDbArc
 50
0.0
 51
74.4896682929
  0
ARC
  5
349
100
AcDbEntity
  8
0
100
AcDbCircle
 62
7
  6
CONTINUOUS
 10
16.2378552569
 20
4.330704639
 40
0.01
100
AcDbArc
 50
285.5103317071
 51
360.0
  0
ARC
  5
34A
100
AcDbEntity
  8
0
100
AcDbCircle
 62
7
  6
CONTINUOUS
 10
112.374232876
 20
19.1690728891
 40
97.0142066786
100
AcDbArc
 50
183.3677863316
 51
183.4963865006
  0
ARC
  5
34B
100
AcDbEntity
  8
0
100
AcDbCircle
 62
7
  6
CONTINUOUS
 10
15.1045960777
 20
10.8140349583
 40
2.4772413878
100
AcDbArc
 50
66.3808592084
 51
79.8628058335
  0
ARC
  5
34C
100
AcDbEntity
  8
0
100
AcDbCircle
 62
7
  6
CONTINUOUS
 10
15.0570658465
 20
12.673276158
 40
0.9798432964
100
AcDbArc
 50
110.3895883324
 51
113.507809224
  0
ARC
  5
34D
100
AcDbEntity
  8
0
100
AcDbCircle
 62
7
  6
CONTINUOUS
 10
16.1593256215
 20
12.8161867588
 40
0.6623723428
100
AcDbArc
 50
25.9305929345
 51
26.1385993701
  0
ARC
  5
34E
100
AcDbEntity
  8
0
100
AcDbCircle
 62
7
  6
CONTINUOUS
 10
15.0499292418
 20
13.2778479496
 40
0.4679852237
100
AcDbArc
 50
134.9626510235
 51
139.0264519593
  0
ARC
  5
34F
100
AcDbEntity
  8
0
100
AcDbCircle
 62
7
  6
CONTINUOUS
 10
16.1469348426
 20
12.3352532266
 40
0.3601941823
100
AcDbArc
 50
359.3016953809
 51
359.7572122636
  0
ARC
  5
350
100
AcDbEntity
  8
0
100
AcDbCircle
 62
7
  6
CONTINUOUS
 10
16.2452594217
 20
13.3104466058
 40
0.1132588479
100
AcDbArc
 50
159.6855590214
 51
173.1350550964
  0
SPLINE
  5
351
100
AcDbEntity
  8
0
100
AcDbSpline
 62
7
  6
CONTINUOUS
 70
0
 71
3
 72
19
 73
15
 74
0
 42
0.0000001
 43
0.0000001
 44
0.0000000001
 40
0.0
 40
0.0
 40
0.0
 40
0.0
 40
0.0388493716
 40
0.0847049888
 40
0.1925574605
 40
0.2524485032
 40
0.3150130969
 40
0.3796383467
 40
0.4458596758
 40
0.5132520776
 40
0.5815369587
 40
0.6505243876
 40
0.7200351799
 40
1.0
 40
1.0
 40
1.0
 40
1.0
 10
7.2573715724
 20
6.4449982389
 30
0.0
 10
7.257093217
 20
6.4461255861
 30
0.0
 10
7.2565564526
 20
6.4486013034
 30
0.0
 10
7.2556358891
 20
6.4542850994
 30
0.0
 10
7.2552096324
 20
6.4606745623
 30
0.0
 10
7.2553549598
 20
6.4675599947
 30
0.0
 10
7.2558386027
 20
6.4731352927
 30
0.0
 10
7.2567124555
 20
6.4788538631
 30
0.0
 10
7.2579848334
 20
6.4846453537
 30
0.0
 10
7.2596714188
 20
6.4904444174
 30
0.0
 10
7.2617700343
 20
6.4961950782
 30
0.0
 10
7.2642706101
 20
6.5018535282
 30
0.0
 10
7.2700760293
 20
6.5129334869
 30
0.0
 10
7.2765181553
 20
6.5213796545
 30
0.0
 10
7.2824353084
 20
6.5272968077
 30
0.0
  0
SPLINE
  5
352
100
AcDbEntity
  8
0
100
AcDbSpline
 62
7
  6
CONTINUOUS
 70
0
 71
3
 72
19
 73
15
 74
0
 42
0.0000001
 43
0.0000001
 44
0.0000000001
 40
0.0
 40
0.0
 40
0.0
 40
0.0
 40
0.2726832852
 40
0.4077532582
 40
0.4745621885
 40
0.5406383551
 40
0.605801511
 40
0.6698119617
 40
0.7322431227
 40
0.7926038596
 40
0.8503775307
 40
0.9048817021
 40
0.9551198619
 40
1.0
 40
1.0
 40
1.0
 40
1.0
 10
7.1375441871
 20
6.672187929
 30
0.0
 10
7.1320226971
 20
6.666666439
 30
0.0
 10
7.1226759057
 20
6.6594019971
 30
0.0
 10
7.1105473047
 20
6.6532144773
 30
0.0
 10
7.1034131456
 20
6.6503756048
 30
0.0
 10
7.0980214471
 20
6.6486053972
 30
0.0
 10
7.0926075846
 20
6.6471937028
 30
0.0
 10
7.0872182841
 20
6.6461454322
 30
0.0
 10
7.0819123457
 20
6.6454416609
 30
0.0
 10
7.0767522661
 20
6.6450658388
 30
0.0
 10
7.0718058534
 20
6.6450051022
 30
0.0
 10
7.0671548156
 20
6.6452295421
 30
0.0
 10
7.0628909492
 20
6.6456690588
 30
0.0
 10
7.0601982805
 20
6.6460896937
 30
0.0
 10
7.0589347275
 20
6.6463245218
 30
0.0
  0
SPLINE
  5
353
100
AcDbEntity
  8
0
100
AcDbSpline
 62
7
  6
CONTINUOUS
 70
0
 71
3
 72
21
 73
17
 74
0
 42
0.0000001
 43
0.0000001
 44
0.0000000001
 40
0.0
 40
0.0
 40
0.0
 40
0.0
 40
0.1256630432
 40
0.1886364257
 40
0.2515590764
 40
0.3144446099
 40
0.3773086937
 40
0.502827129
 40
0.5656039496
 40
0.628326613
 40
0.6909666651
 40
0.7534642509
 40
0.8156971714
 40
0.8774789876
 40
0.9387547018
 40
1.0
 40
1.0
 40
1.0
 40
1.0
 10
7.177224526
 20
6.7296117062
 30
0.0
 10
7.1818079035
 20
6.7341950837
 30
0.0
 10
7.1893870434
 20
6.7404240097
 30
0.0
 10
7.2005056679
 20
6.7471399203
 30
0.0
 10
7.2093059691
 20
6.7513465551
 30
0.0
 10
7.2184651219
 20
6.7546825132
 30
0.0
 10
7.2310297655
 20
6.7579243903
 30
0.0
 10
7.2440052789
 20
6.7593286185
 30
0.0
 10
7.2569593203
 20
6.7588528637
 30
0.0
 10
7.2665948262
 20
6.757572908
 30
0.0
 10
7.2760499121
 20
6.7553876508
 30
0.0
 10
7.2852344421
 20
6.7523343189
 30
0.0
 10
7.2940603974
 20
6.7484730181
 30
0.0
 10
7.3024548881
 20
6.743879498
 30
0.0
 10
7.3104076119
 20
6.7386545615
 30
0.0
 10
7.3154301638
 20
6.7348098553
 30
0.0
 10
7.317879797
 20
6.7328150316
 30
0.0
  0
SPLINE
  5
354
100
AcDbEntity
  8
0
100
AcDbSpline
 62
7
  6
CONTINUOUS
 70
0
 71
3
 72
9
 73
5
 74
0
 42
0.0000001
 43
0.0000001
 44
0.0000000001
 40
0.0
 40
0.0
 40
0.0
 40
0.0
 40
0.4991960988
 40
1.0
 40
1.0
 40
1.0
 40
1.0
 10
7.3198740034
 20
6.7311641136
 30
0.0
 10
7.3234696195
 20
6.7281387207
 30
0.0
 10
7.3304151179
 20
6.7217687644
 30
0.0
 10
7.3368678972
 20
6.7149010117
 30
0.0
 10
7.3399526554
 20
6.7113361565
 30
0.0
  0
SPLINE
  5
355
100
AcDbEntity
  8
0
100
AcDbSpline
 62
7
  6
CONTINUOUS
 70
0
 71
3
 72
21
 73
17
 74
0
 42
0.0000001
 43
0.0000001
 44
0.0000000001
 40
0.0
 40
0.0
 40
0.0
 40
0.0
 40
0.1226870724
 40
0.1842593533
 40
0.2463597695
 40
0.3087969296
 40
0.3714184684
 40
0.4341422133
 40
0.4969279061
 40
0.5597554207
 40
0.6226143515
 40
0.6854924132
 40
0.7483855935
 40
0.8113118188
 40
0.8742921931
 40
1.0
 40
1.0
 40
1.0
 40
1.0
 10
7.3399526554
 20
6.7113361565
 30
0.0
 10
7.344223176
 20
6.7064009927
 30
0.0
 10
7.3502230311
 20
6.6985976272
 30
0.0
 10
7.3569240094
 20
6.6873198886
 30
0.0
 10
7.3612183244
 20
6.6783837917
 30
0.0
 10
7.3646792043
 20
6.6690328455
 30
0.0
 10
7.3672354387
 20
6.6593601397
 30
0.0
 10
7.3688405484
 20
6.6494657426
 30
0.0
 10
7.3694638985
 20
6.639450237
 30
0.0
 10
7.3690956886
 20
6.6294146967
 30
0.0
 10
7.3677301981
 20
6.6194607091
 30
0.0
 10
7.3653845682
 20
6.6096873387
 30
0.0
 10
7.3620736355
 20
6.600194075
 30
0.0
 10
7.357831701
 20
6.5910705598
 30
0.0
 10
7.350993385
 20
6.5795471692
 30
0.0
 10
7.3445875326
 20
6.5717055935
 30
0.0
 10
7.3398590856
 20
6.5669771466
 30
0.0
  0
SPLINE
  5
356
100
AcDbEntity
  8
0
100
AcDbSpline
 62
7
  6
CONTINUOUS
 70
0
 71
3
 72
24
 73
20
 74
0
 42
0.0000001
 43
0.0000001
 44
0.0000000001
 40
0.0
 40
0.0
 40
0.0
 40
0.0
 40
0.2029656185
 40
0.3875499947
 40
0.4719157972
 40
0.5505938308
 40
0.6233111307
 40
0.6898401045
 40
0.7499979014
 40
0.8036374955
 40
0.8279948739
 40
0.8507166079
 40
0.8718177926
 40
0.8913228683
 40
0.9256888407
 40
0.954382387
 40
0.9784973515
 40
0.9894309967
 40
1.0
 40
1.0
 40
1.0
 40
1.0
 10
7.0817184557
 20
6.5775370935
 30
0.0
 10
7.0782542537
 20
6.5817733071
 30
0.0
 10
7.0717550608
 20
6.5899575657
 30
0.0
 10
7.0641900929
 20
6.6001925787
 30
0.0
 10
7.0588753731
 20
6.6079137063
 30
0.0
 10
7.055402698
 20
6.6132387314
 30
0.0
 10
7.0523365071
 20
6.6182519656
 30
0.0
 10
7.0496888729
 20
6.6229325942
 30
0.0
 10
7.0474699433
 20
6.6272603211
 30
0.0
 10
7.0459395523
 20
6.6306589302
 30
0.0
 10
7.0449507686
 20
6.6331886511
 30
0.0
 10
7.0443462641
 20
6.6349251596
 30
0.0
 10
7.0438548702
 20
6.6365611414
 30
0.0
 10
7.0433719528
 20
6.6385244286
 30
0.0
 10
7.0430224252
 20
6.6407305478
 30
0.0
 10
7.0430383386
 20
6.6430941763
 30
0.0
 10
7.0434656186
 20
6.6447868544
 30
0.0
 10
7.0440632489
 20
6.6458686696
 30
0.0
 10
7.0444345543
 20
6.6463192092
 30
0.0
 10
7.0446360508
 20
6.6465207057
 30
0.0
  0
SPLINE
  5
357
100
AcDbEntity
  8
0
100
AcDbSpline
 62
7
  6
CONTINUOUS
 70
0
 71
3
 72
15
 73
11
 74
0
 42
0.0000001
 43
0.0000001
 44
0.0000000001
 40
0.0
 40
0.0
 40
0.0
 40
0.0
 40
0.1175345087
 40
0.2414865962
 40
0.3696587858
 40
0.5
 40
0.6303412142
 40
0.7585134038
 40
0.8824654913
 40
1.0
 40
1.0
 40
1.0
 40
1.0
 10
7.1877844729
 20
6.4714710763
 30
0.0
 10
7.1832285608
 20
6.4751967147
 30
0.0
 10
7.1739855663
 20
6.4829959353
 30
0.0
 10
7.1601543015
 20
6.4952995216
 30
0.0
 10
7.1461556203
 20
6.5083713683
 30
0.0
 10
7.132232134
 20
6.5219847546
 30
0.0
 10
7.1186187478
 20
6.5359082409
 30
0.0
 10
7.1055469011
 20
6.549906922
 30
0.0
 10
7.0932433147
 20
6.5637381869
 30
0.0
 10
7.0854440941
 20
6.5729811814
 30
0.0
 10
7.0817184557
 20
6.5775370935
 30
0.0
  0
SPLINE
  5
358
100
AcDbEntity
  8
0
100
AcDbSpline
 62
7
  6
CONTINUOUS
 70
0
 71
3
 72
13
 73
9
 74
0
 42
0.0000001
 43
0.0000001
 44
0.0000000001
 40
0.0
 40
0.0
 40
0.0
 40
0.0
 40
0.3238980164
 40
0.5900883985
 40
0.7046577981
 40
0.8092667553
 40
0.9065957336
 40
1.0
 40
1.0
 40
1.0
 40
1.0
 10
7.2576027224
 20
6.4440962355
 30
0.0
 10
7.2578833876
 20
6.4430361703
 30
0.0
 10
7.258298542
 20
6.4410766258
 30
0.0
 10
7.2584121544
 20
6.4386744981
 30
0.0
 10
7.2581744124
 20
6.4370434282
 30
0.0
 10
7.2578604136
 20
6.4360137341
 30
0.0
 10
7.2574004948
 20
6.43511932
 30
0.0
 10
7.2569916935
 20
6.4346122797
 30
0.0
 10
7.2567680851
 20
6.4343886713
 30
0.0
  0
SPLINE
  5
359
100
AcDbEntity
  8
0
100
AcDbSpline
 62
7
  6
CONTINUOUS
 70
0
 71
3
 72
24
 73
20
 74
0
 42
0.0000001
 43
0.0000001
 44
0.0000000001
 40
0.0
 40
0.0
 40
0.0
 40
0.0
 40
0.0105690033
 40
0.0215026485
 40
0.045617613
 40
0.0743111593
 40
0.1086771317
 40
0.1281822074
 40
0.1492833921
 40
0.1720051261
 40
0.1963625045
 40
0.2500020986
 40
0.3101598955
 40
0.3766888693
 40
0.4494061692
 40
0.5280842028
 40
0.6124500053
 40
0.7970343815
 40
1.0
 40
1.0
 40
1.0
 40
1.0
 10
7.2567680851
 20
6.4343886713
 30
0.0
 10
7.2565665887
 20
6.4341871749
 30
0.0
 10
7.256116049
 20
6.4338158695
 30
0.0
 10
7.2550342338
 20
6.4332182392
 30
0.0
 10
7.2533415558
 20
6.4327909591
 30
0.0
 10
7.2509779272
 20
6.4327750458
 30
0.0
 10
7.248771808
 20
6.4331245734
 30
0.0
 10
7.2468085208
 20
6.4336074908
 30
0.0
 10
7.2451725391
 20
6.4340988847
 30
0.0
 10
7.2434360305
 20
6.4347033892
 30
0.0
 10
7.2409063096
 20
6.4356921729
 30
0.0
 10
7.2375077006
 20
6.4372225639
 30
0.0
 10
7.2331799736
 20
6.4394414935
 30
0.0
 10
7.228499345
 20
6.4420891277
 30
0.0
 10
7.2234861108
 20
6.4451553185
 30
0.0
 10
7.2181610857
 20
6.4486279937
 30
0.0
 10
7.2104399581
 20
6.4539427135
 30
0.0
 10
7.2002049451
 20
6.4615076814
 30
0.0
 10
7.1920206865
 20
6.4680068742
 30
0.0
 10
7.1877844729
 20
6.4714710763
 30
0.0
  0
SPLINE
  5
35A
100
AcDbEntity
  8
0
100
AcDbSpline
 62
7
  6
CONTINUOUS
 70
0
 71
3
 72
13
 73
9
 74
0
 42
0.0000001
 43
0.0000001
 44
0.0000000001
 40
0.0
 40
0.0
 40
0.0
 40
0.0
 40
0.0934016294
 40
0.1907283806
 40
0.2953358239
 40
0.4099045972
 40
0.6760966225
 40
1.0
 40
1.0
 40
1.0
 40
1.0
 10
7.0446360508
 20
6.6465207057
 30
0.0
 10
7.0448596748
 20
6.6467443298
 30
0.0
 10
7.0453667559
 20
6.6471531576
 30
0.0
 10
7.0462612491
 20
6.6476130933
 30
0.0
 10
7.0472910402
 20
6.6479270883
 30
0.0
 10
7.0489222776
 20
6.6481647975
 30
0.0
 10
7.0513246597
 20
6.6480510841
 30
0.0
 10
7.0532844061
 20
6.6476358177
 30
0.0
 10
7.0543445843
 20
6.6473550863
 30
0.0
  0
SPLINE
  5
35B
100
AcDbEntity
  8
0
100
AcDbSpline
 62
7
  6
CONTINUOUS
 70
0
 71
3
 72
26
 73
22
 74
0
 42
0.0000001
 43
0.0000001
 44
0.0000000001
 40
0.0
 40
0.0
 40
0.0
 40
0.0
 40
0.023764944
 40
0.0478544077
 40
0.0724053962
 40
0.0975598004
 40
0.150173705
 40
0.2066390745
 40
0.2674570614
 40
0.2995437424
 40
0.3326677986
 40
0.4016366118
 40
0.4733376576
 40
0.5463980471
 40
0.6193458535
 40
0.6908285112
 40
0.7597605954
 40
0.8253780184
 40
0.8872607362
 40
0.9453913192
 40
1.0
 40
1.0
 40
1.0
 40
1.0
 10
6.9961074518
 20
6.5580703391
 30
0.0
 10
6.9951269706
 20
6.5561510041
 30
0.0
 10
6.9933423762
 20
6.5521857669
 30
0.0
 10
6.9912499037
 20
6.5459508373
 30
0.0
 10
6.9897537552
 20
6.5394162175
 30
0.0
 10
6.9885665365
 20
6.5302004605
 30
0.0
 10
6.9887687258
 20
6.5179523134
 30
0.0
 10
6.9917341667
 20
6.5027621518
 30
0.0
 10
6.996419292
 20
6.4899926797
 30
0.0
 10
7.001465553
 20
6.4797297236
 30
0.0
 10
7.0075613539
 20
6.4691879721
 30
0.0
 10
7.0167685311
 20
6.4563417205
 30
0.0
 10
7.0298343222
 20
6.4419712378
 30
0.0
 10
7.0446467705
 20
6.428859907
 30
0.0
 10
7.060723721
 20
6.4173719789
 30
0.0
 10
7.077574354
 20
6.407788653
 30
0.0
 10
7.0947341546
 20
6.4003021534
 30
0.0
 10
7.1117899302
 20
6.3950241003
 30
0.0
 10
7.1283947607
 20
6.3919921072
 30
0.0
 10
7.1442573344
 20
6.3911909982
 30
0.0
 10
7.1544830783
 20
6.3921427011
 30
0.0
 10
7.1593618873
 20
6.3929940072
 30
0.0
  0
SPLINE
  5
35C
100
AcDbEntity
  8
0
100
AcDbSpline
 62
7
  6
CONTINUOUS
 70
0
 71
3
 72
22
 73
18
 74
0
 42
0.0000001
 43
0.0000001
 44
0.0000000001
 40
0.0
 40
0.0
 40
0.0
 40
0.0
 40
0.1247236306
 40
0.1872241113
 40
0.2497034761
 40
0.3121898974
 40
0.3746928584
 40
0.4371946326
 40
0.499698438
 40
0.5621987737
 40
0.6246960594
 40
0.687196045
 40
0.7496864283
 40
0.8122131646
 40
0.8748113739
 40
0.9374493233
 40
1.0
 40
1.0
 40
1.0
 40
1.0
 10
7.1727921022
 20
12.7548506839
 30
0.0
 10
7.1815077402
 20
12.7571956735
 30
0.0
 10
7.1951138561
 20
12.759083721
 30
0.0
 10
7.2131924818
 20
12.7581519376
 30
0.0
 10
7.2265840304
 20
12.7557501606
 30
0.0
 10
7.2395597828
 20
12.751671523
 30
0.0
 10
7.2519220293
 20
12.7459934834
 30
0.0
 10
7.2634720191
 20
12.7388034092
 30
0.0
 10
7.2740270909
 20
12.7302206782
 30
0.0
 10
7.2834362369
 20
12.7203957988
 30
0.0
 10
7.2915509012
 20
12.7094788254
 30
0.0
 10
7.2982821727
 20
12.6976605765
 30
0.0
 10
7.3035343951
 20
12.6851130783
 30
0.0
 10
7.3072648741
 20
12.6720263779
 30
0.0
 10
7.3094419569
 20
12.65858298
 30
0.0
 10
7.310057488
 20
12.6449797661
 30
0.0
 10
7.309444914
 20
12.6359185865
 30
0.0
 10
7.3088848818
 20
12.6314269016
 30
0.0
  0
SPLINE
  5
35D
100
AcDbEntity
  8
0
100
AcDbSpline
 62
7
  6
CONTINUOUS
 70
0
 71
3
 72
25
 73
21
 74
0
 42
0.0000001
 43
0.0000001
 44
0.0000000001
 40
0.0
 40
0.0
 40
0.0
 40
0.0
 40
0.062575784
 40
0.1252533265
 40
0.1878489435
 40
0.2503723477
 40
0.312861181
 40
0.3753158811
 40
0.4377525273
 40
0.5001886099
 40
0.5626295206
 40
0.6250793924
 40
0.65632665
 40
0.6875765942
 40
0.7188297397
 40
0.7500840076
 40
0.8125528441
 40
0.8750387648
 40
0.9375499329
 40
1.0
 40
1.0
 40
1.0
 40
1.0
 10
7.3088848818
 20
12.6314269016
 30
0.0
 10
7.3082491966
 20
12.62632845
 30
0.0
 10
7.3063203075
 20
12.6161935508
 30
0.0
 10
7.3015398509
 20
12.6014878678
 30
0.0
 10
7.2949227807
 20
12.5875127258
 30
0.0
 10
7.2865693529
 20
12.574518945
 30
0.0
 10
7.2765939865
 20
12.5627372037
 30
0.0
 10
7.2651407039
 20
12.5523945693
 30
0.0
 10
7.2523913661
 20
12.54370415
 30
0.0
 10
7.238562819
 20
12.5368592816
 30
0.0
 10
7.2239145688
 20
12.5320077673
 30
0.0
 10
7.2112499853
 20
12.5297329261
 30
0.0
 10
7.2010097964
 20
12.5290023182
 30
0.0
 10
7.1933053407
 20
12.5290064861
 30
0.0
 10
7.1856204968
 20
12.5295623314
 30
0.0
 10
7.1754573368
 20
12.5310310808
 30
0.0
 10
7.1629885318
 20
12.5342347863
 30
0.0
 10
7.1487318233
 20
12.540175205
 30
0.0
 10
7.1354770046
 20
12.5480959269
 30
0.0
 10
7.1274702255
 20
12.554576469
 30
0.0
 10
7.1237239798
 20
12.5580776094
 30
0.0
  0
SPLINE
  5
35E
100
AcDbEntity
  8
0
100
AcDbSpline
 62
7
  6
CONTINUOUS
 70
0
 71
3
 72
13
 73
9
 74
0
 42
0.0000001
 43
0.0000001
 44
0.0000000001
 40
0.0
 40
0.0
 40
0.0
 40
0.0
 40
0.1421298396
 40
0.2807250879
 40
0.5389135538
 40
0.7750305334
 40
0.8883350909
 40
1.0
 40
1.0
 40
1.0
 40
1.0
 10
6.4592478606
 20
12.9181727814
 30
0.0
 10
6.4592478606
 20
12.9188968329
 30
0.0
 10
6.4590984193
 20
12.9203319309
 30
0.0
 10
6.4582584893
 20
12.9229613521
 30
0.0
 10
6.45637158
 20
12.9256884157
 30
0.0
 10
6.453698941
 20
12.9274068045
 30
0.0
 10
6.4514319952
 20
12.9280640463
 30
0.0
 10
6.4502828244
 20
12.9281727814
 30
0.0
 10
6.4497139702
 20
12.9281727814
 30
0.0
  0
SPLINE
  5
35F
100
AcDbEntity
  8
0
100
AcDbSpline
 62
7
  6
CONTINUOUS
 70
0
 71
3
 72
27
 73
23
 74
0
 42
0.0000001
 43
0.0000001
 44
0.0000000001
 40
0.0
 40
0.0
 40
0.0
 40
0.0
 40
0.0148486494
 40
0.0308284288
 40
0.04795957
 40
0.0662560722
 40
0.0857268954
 40
0.1063754061
 40
0.1281996583
 40
0.1511944652
 40
0.2006552859
 40
0.2546586755
 40
0.313063847
 40
0.3756976646
 40
0.4423585204
 40
0.5128192877
 40
0.586829777
 40
0.6641185636
 40
0.7443956338
 40
0.8273519634
 40
0.9126670301
 40
1.0
 40
1.0
 40
1.0
 40
1.0
 10
4.7592594749
 20
12.5484852814
 30
0.0
 10
4.76315351
 20
12.5510682551
 30
0.0
 10
4.7714032993
 20
12.5561844697
 30
0.0
 10
4.7846202216
 20
12.5634822089
 30
0.0
 10
4.7991165761
 20
12.5706742876
 30
0.0
 10
4.8148793809
 20
12.5777547843
 30
0.0
 10
4.831895852
 20
12.5847188242
 30
0.0
 10
4.8501517528
 20
12.591561057
 30
0.0
 10
4.86963135
 20
12.5982764631
 30
0.0
 10
4.89790649
 20
12.6072730834
 30
0.0
 10
4.936217188
 20
12.618087311
 30
0.0
 10
4.985707758
 20
12.6301863777
 30
0.0
 10
5.0395915011
 20
12.6416632648
 30
0.0
 10
5.0976665892
 20
12.6524814571
 30
0.0
 10
5.1597129667
 20
12.6626061914
 30
0.0
 10
5.2254912868
 20
12.6720053744
 30
0.0
 10
5.2947443911
 20
12.6806493105
 30
0.0
 10
5.3671983258
 20
12.6885108859
 30
0.0
 10
5.4425629525
 20
12.6955653999
 30
0.0
 10
5.5205344944
 20
12.7017909741
 30
0.0
 10
5.6007944175
 20
12.7071679773
 30
0.0
 10
5.6550460456
 20
12.7101451563
 30
0.0
 10
5.6824963071
 20
12.7114944201
 30
0.0
  0
SPLINE
  5
360
100
AcDbEntity
  8
0
100
AcDbSpline
 62
7
  6
CONTINUOUS
 70
0
 71
3
 72
11
 73
7
 74
0
 42
0.0000001
 43
0.0000001
 44
0.0000000001
 40
0.0
 40
0.0
 40
0.0
 40
0.0
 40
0.2680385879
 40
0.5256082976
 40
0.7703295192
 40
1.0
 40
1.0
 40
1.0
 40
1.0
 10
6.4592478606
 20
12.711494106
 30
0.0
 10
6.501245818
 20
12.7094297817
 30
0.0
 10
6.5835684014
 20
12.7046646507
 30
0.0
 10
6.7040649458
 20
12.6953802656
 30
0.0
 10
6.8183500075
 20
12.684149881
 30
0.0
 10
6.8922293187
 20
12.6751102212
 30
0.0
 10
6.9279257906
 20
12.6702217182
 30
0.0
  0
SPLINE
  5
361
100
AcDbEntity
  8
0
100
AcDbSpline
 62
7
  6
CONTINUOUS
 70
0
 71
3
 72
14
 73
10
 74
0
 42
0.0000001
 43
0.0000001
 44
0.0000000001
 40
0.0
 40
0.0
 40
0.0
 40
0.0
 40
0.1311628001
 40
0.2627983354
 40
0.5221429354
 40
0.6480503244
 40
0.7700897226
 40
0.8876133381
 40
1.0
 40
1.0
 40
1.0
 40
1.0
 10
6.9851408585
 20
12.6706906539
 30
0.0
 10
6.9859473995
 20
12.6771594386
 30
0.0
 10
6.9881684124
 20
12.6900542281
 30
0.0
 10
6.9948746847
 20
12.7151471199
 30
0.0
 10
7.0048736347
 20
12.7390078003
 30
0.0
 10
7.0179009679
 20
12.7606322332
 30
0.0
 10
7.0288343367
 20
12.7751825568
 30
0.0
 10
7.0408338646
 20
12.7879577893
 30
0.0
 10
7.0496147528
 20
12.7953251285
 30
0.0
 10
7.0541244707
 20
12.7986209336
 30
0.0
  0
SPLINE
  5
362
100
AcDbEntity
  8
0
100
AcDbSpline
 62
7
  6
CONTINUOUS
 70
0
 71
3
 72
11
 73
7
 74
0
 42
0.0000001
 43
0.0000001
 44
0.0000000001
 40
0.0
 40
0.0
 40
0.0
 40
0.0
 40
0.2859963445
 40
0.5477936464
 40
0.785635957
 40
1.0
 40
1.0
 40
1.0
 40
1.0
 10
7.2956783133
 20
12.5899837254
 30
0.0
 10
7.3043088131
 20
12.5868226849
 30
0.0
 10
7.3207282671
 20
12.580455587
 30
0.0
 10
7.3438279969
 20
12.5702362366
 30
0.0
 10
7.364270849
 20
12.559785673
 30
0.0
 10
7.376743532
 20
12.5522933306
 30
0.0
 10
7.3824844782
 20
12.5484852814
 30
0.0
  0
LINE
  5
363
100
AcDbEntity
  8
0
100
AcDbLine
 62
7
  6
CONTINUOUS
 10
6.4592478606
 20
12.7114954739
 11
6.4684682995
 21
12.5484852814
  0
SPLINE
  5
364
100
AcDbEntity
  8
0
100
AcDbSpline
 62
7
  6
CONTINUOUS
 70
0
 71
3
 72
15
 73
11
 74
0
 42
0.0000001
 43
0.0000001
 44
0.0000000001
 40
0.0
 40
0.0
 40
0.0
 40
0.0
 40
0.1071474659
 40
0.2194614727
 40
0.3372684988
 40
0.4606878249
 40
0.5893932102
 40
0.7227726406
 40
0.860053302
 40
1.0
 40
1.0
 40
1.0
 40
1.0
 10
7.0222232634
 20
12.5427603741
 30
0.0
 10
7.0185444999
 20
12.5460480473
 30
0.0
 10
7.0115766296
 20
12.5534381173
 30
0.0
 10
7.0027352988
 20
12.5662682021
 30
0.0
 10
6.9954218935
 20
12.5808665772
 30
0.0
 10
6.9897542408
 20
12.5969732689
 30
0.0
 10
6.9858122883
 20
12.6143181635
 30
0.0
 10
6.9836645486
 20
12.6326149213
 30
0.0
 10
6.9833463729
 20
12.6515477465
 30
0.0
 10
6.9843435731
 20
12.6642961033
 30
0.0
 10
6.9851408585
 20
12.6706906539
 30
0.0
  0
SPLINE
  5
365
100
AcDbEntity
  8
0
100
AcDbSpline
 62
7
  6
CONTINUOUS
 70
0
 71
3
 72
15
 73
11
 74
0
 42
0.0000001
 43
0.0000001
 44
0.0000000001
 40
0.0
 40
0.0
 40
0.0
 40
0.0
 40
0.1385597537
 40
0.2718164915
 40
0.3999715412
 40
0.5238044578
 40
0.6443904505
 40
0.7629799288
 40
0.8810025316
 40
1.0
 40
1.0
 40
1.0
 40
1.0
 10
7.1282892806
 20
12.5427603741
 30
0.0
 10
7.1246910242
 20
12.5401306858
 30
0.0
 10
7.1173475709
 20
12.5353458293
 30
0.0
 10
7.1057919955
 20
12.5296204379
 30
0.0
 10
7.0940410718
 20
12.525573528
 30
0.0
 10
7.0822419303
 20
12.5232568869
 30
0.0
 10
7.0705346663
 20
12.5227087849
 30
0.0
 10
7.0590637175
 20
12.5239348514
 30
0.0
 10
7.0479778385
 20
12.5269304594
 30
0.0
 10
7.0409859268
 20
12.5300581229
 30
0.0
 10
7.0376201101
 20
12.5318805799
 30
0.0
  0
SPLINE
  5
366
100
AcDbEntity
  8
0
100
AcDbSpline
 62
7
  6
CONTINUOUS
 70
0
 71
3
 72
9
 73
5
 74
0
 42
0.0000001
 43
0.0000001
 44
0.0000000001
 40
0.0
 40
0.0
 40
0.0
 40
0.0
 40
0.4948861808
 40
1.0
 40
1.0
 40
1.0
 40
1.0
 10
7.0376201101
 20
12.5318805799
 30
0.0
 10
7.0348806119
 20
12.5333639101
 30
0.0
 10
7.0295241806
 20
12.5367028953
 30
0.0
 10
7.0245941307
 20
12.5406415543
 30
0.0
 10
7.0222232634
 20
12.5427603741
 30
0.0
  0
SPLINE
  5
367
100
AcDbEntity
  8
0
100
AcDbSpline
 62
7
  6
CONTINUOUS
 70
0
 71
3
 72
9
 73
5
 74
0
 42
0.0000001
 43
0.0000001
 44
0.0000000001
 40
0.0
 40
0.0
 40
0.0
 40
0.0
 40
0.4826463472
 40
1.0
 40
1.0
 40
1.0
 40
1.0
 10
7.1601904878
 20
12.7986209336
 30
0.0
 10
7.1656081927
 20
12.7937791862
 30
0.0
 10
7.1755905464
 20
12.7823066503
 30
0.0
 10
7.1828889903
 20
12.7690180248
 30
0.0
 10
7.1860183557
 20
12.761885914
 30
0.0
  0
SPLINE
  5
368
100
AcDbEntity
  8
0
100
AcDbSpline
 62
7
  6
CONTINUOUS
 70
0
 71
3
 72
15
 73
11
 74
0
 42
0.0000001
 43
0.0000001
 44
0.0000000001
 40
0.0
 40
0.0
 40
0.0
 40
0.0
 40
0.138548763
 40
0.2707198446
 40
0.3970710442
 40
0.5189651543
 40
0.6381415862
 40
0.7566395618
 40
0.8766640955
 40
1.0
 40
1.0
 40
1.0
 40
1.0
 10
7.0541244707
 20
12.7986209336
 30
0.0
 10
7.0584247897
 20
12.8017637053
 30
0.0
 10
7.0672345485
 20
12.8073758306
 30
0.0
 10
7.0812004483
 20
12.8136748806
 30
0.0
 10
7.0953795365
 20
12.8175240046
 30
0.0
 10
7.1095185784
 20
12.8188357844
 30
0.0
 10
7.1233652062
 20
12.8175797829
 30
0.0
 10
7.136662062
 20
12.8137599721
 30
0.0
 10
7.1491466279
 20
12.8074535317
 30
0.0
 10
7.156655096
 20
12.8017804772
 30
0.0
 10
7.1601904878
 20
12.7986209336
 30
0.0
  0
SPLINE
  5
369
100
AcDbEntity
  8
0
100
AcDbSpline
 62
7
  6
CONTINUOUS
 70
0
 71
3
 72
13
 73
9
 74
0
 42
0.0000001
 43
0.0000001
 44
0.0000000001
 40
0.0
 40
0.0
 40
0.0
 40
0.0
 40
0.1116649091
 40
0.2249694666
 40
0.4610864462
 40
0.7192749121
 40
0.8578701604
 40
1.0
 40
1.0
 40
1.0
 40
1.0
 10
5.6920301975
 20
12.9281727814
 30
0.0
 10
5.6914613433
 20
12.9281727814
 30
0.0
 10
5.6903121726
 20
12.9280640463
 30
0.0
 10
5.6880452267
 20
12.9274068045
 30
0.0
 10
5.6853725877
 20
12.9256884157
 30
0.0
 10
5.6834856784
 20
12.9229613521
 30
0.0
 10
5.6826457484
 20
12.9203319309
 30
0.0
 10
5.6824963071
 20
12.9188968329
 30
0.0
 10
5.6824963071
 20
12.9181727814
 30
0.0
  0
LINE
  5
36A
100
AcDbEntity
  8
0
100
AcDbLine
 62
7
  6
CONTINUOUS
 10
5.6732758682
 20
12.5484852814
 11
5.6824963071
 21
12.7114954739
  0
SPLINE
  5
36B
100
AcDbEntity
  8
0
100
AcDbSpline
 62
7
  6
CONTINUOUS
 70
0
 71
3
 72
15
 73
11
 74
0
 42
0.0000001
 43
0.0000001
 44
0.0000000001
 40
0.0
 40
0.0
 40
0.0
 40
0.0
 40
0.125219912
 40
0.2502674935
 40
0.3752028339
 40
0.5001175202
 40
0.6250553944
 40
0.750023921
 40
0.8750117601
 40
1.0
 40
1.0
 40
1.0
 40
1.0
 10
15.5917343772
 20
6.6986375023
 30
0.0
 10
15.6007116943
 20
6.6997568122
 30
0.0
 10
15.618974733
 20
6.699977407
 30
0.0
 10
15.6456716807
 20
6.6940598136
 30
0.0
 10
15.6702312466
 20
6.6820179859
 30
0.0
 10
15.691139613
 20
6.6643786214
 30
0.0
 10
15.7070475444
 20
6.6421110796
 30
0.0
 10
15.7168914785
 20
6.6165628983
 30
0.0
 10
15.7200228943
 20
6.589375518
 30
0.0
 10
15.7175043174
 20
6.5712647029
 30
0.0
 10
15.7151581595
 20
6.5625447228
 30
0.0
  0
SPLINE
  5
36C
100
AcDbEntity
  8
0
100
AcDbSpline
 62
7
  6
CONTINUOUS
 70
0
 71
3
 72
24
 73
20
 74
0
 42
0.0000001
 43
0.0000001
 44
0.0000000001
 40
0.0
 40
0.0
 40
0.0
 40
0.0
 40
0.0624317877
 40
0.1249305492
 40
0.1874034495
 40
0.2498648927
 40
0.2811205732
 40
0.3123792065
 40
0.343637816
 40
0.3748946851
 40
0.4373712395
 40
0.4998456766
 40
0.5623264091
 40
0.6248147285
 40
0.6873167469
 40
0.74984216
 40
0.8123895446
 40
0.875008882
 40
1.0
 40
1.0
 40
1.0
 40
1.0
 10
15.5183850849
 20
6.5134766003
 30
0.0
 10
15.5148858601
 20
6.5172207965
 30
0.0
 10
15.5084088899
 20
6.5252237444
 30
0.0
 10
15.5004896944
 20
6.5384706333
 30
0.0
 10
15.4945497214
 20
6.5527202955
 30
0.0
 10
15.4913436635
 20
6.565183482
 30
0.0
 10
15.4898736137
 20
6.575343806
 30
0.0
 10
15.4893165364
 20
6.5830278409
 30
0.0
 10
15.4893088292
 20
6.5907322429
 30
0.0
 10
15.4900356641
 20
6.6009739071
 30
0.0
 10
15.492311619
 20
6.6136406151
 30
0.0
 10
15.4971560685
 20
6.6282963043
 30
0.0
 10
15.5040070783
 20
6.6421294031
 30
0.0
 10
15.5126959728
 20
6.6548893289
 30
0.0
 10
15.5230479106
 20
6.6663443772
 30
0.0
 10
15.5348285005
 20
6.6763270742
 30
0.0
 10
15.5478308807
 20
6.6846800718
 30
0.0
 10
15.56642383
 20
6.6934857556
 30
0.0
 10
15.5815531384
 20
6.6973680851
 30
0.0
 10
15.5917343772
 20
6.6986375023
 30
0.0
  0
SPLINE
  5
36D
100
AcDbEntity
  8
0
100
AcDbSpline
 62
7
  6
CONTINUOUS
 70
0
 71
3
 72
9
 73
5
 74
0
 42
0.0000001
 43
0.0000001
 44
0.0000000001
 40
0.0
 40
0.0
 40
0.0
 40
0.0
 40
0.5173536528
 40
1.0
 40
1.0
 40
1.0
 40
1.0
 10
15.7221933895
 20
6.5757709762
 30
0.0
 10
15.7293255004
 20
6.5726416108
 30
0.0
 10
15.7426141258
 20
6.565343167
 30
0.0
 10
15.7540866618
 20
6.5553608133
 30
0.0
 10
15.7589284092
 20
6.5499431084
 30
0.0
  0
SPLINE
  5
36E
100
AcDbEntity
  8
0
100
AcDbSpline
 62
7
  6
CONTINUOUS
 70
0
 71
3
 72
14
 73
10
 74
0
 42
0.0000001
 43
0.0000001
 44
0.0000000001
 40
0.0
 40
0.0
 40
0.0
 40
0.0
 40
0.2554371268
 40
0.3803185731
 40
0.5039177304
 40
0.6269543733
 40
0.7501754633
 40
0.8743059676
 40
1.0
 40
1.0
 40
1.0
 40
1.0
 10
15.5030678496
 20
6.411975884
 30
0.0
 10
15.4994972088
 20
6.4159712759
 30
0.0
 10
15.4947174819
 20
6.4224445826
 30
0.0
 10
15.4898127622
 20
6.4318246255
 30
0.0
 10
15.4869404947
 20
6.4390862346
 30
0.0
 10
15.4848645359
 20
6.4465769465
 30
0.0
 10
15.4835967135
 20
6.4542577595
 30
0.0
 10
15.4831445034
 20
6.4620838962
 30
0.0
 10
15.4833836535
 20
6.4673297959
 30
0.0
 10
15.4836347252
 20
6.4699545541
 30
0.0
  0
SPLINE
  5
36F
100
AcDbEntity
  8
0
100
AcDbSpline
 62
7
  6
CONTINUOUS
 70
0
 71
3
 72
11
 73
7
 74
0
 42
0.0000001
 43
0.0000001
 44
0.0000000001
 40
0.0
 40
0.0
 40
0.0
 40
0.0
 40
0.2367953326
 40
0.481698393
 40
0.7360041339
 40
1.0
 40
1.0
 40
1.0
 40
1.0
 10
15.4840865656
 20
6.4737298949
 30
0.0
 10
15.4846327188
 20
6.4775315036
 30
0.0
 10
15.4862947071
 20
6.4851945424
 30
0.0
 10
15.4903396271
 20
6.496458136
 30
0.0
 10
15.4959269595
 20
6.5075352
 30
0.0
 10
15.5005413889
 20
6.5145848931
 30
0.0
 10
15.5030678496
 20
6.5180419012
 30
0.0
  0
SPLINE
  5
370
100
AcDbEntity
  8
0
100
AcDbSpline
 62
7
  6
CONTINUOUS
 70
0
 71
3
 72
15
 73
11
 74
0
 42
0.0000001
 43
0.0000001
 44
0.0000000001
 40
0.0
 40
0.0
 40
0.0
 40
0.0
 40
0.139946698
 40
0.2772273594
 40
0.4106067898
 40
0.5393121751
 40
0.6627315012
 40
0.7805385273
 40
0.8928525341
 40
1.0
 40
1.0
 40
1.0
 40
1.0
 10
15.6309981294
 20
6.374893479
 30
0.0
 10
15.6246035789
 20
6.3740961937
 30
0.0
 10
15.6118552221
 20
6.3730989935
 30
0.0
 10
15.5929223968
 20
6.3734171692
 30
0.0
 10
15.574625639
 20
6.3755649089
 30
0.0
 10
15.5572807445
 20
6.3795068614
 30
0.0
 10
15.5411740528
 20
6.3851745141
 30
0.0
 10
15.5265756776
 20
6.3924879193
 30
0.0
 10
15.5137455928
 20
6.4013292501
 30
0.0
 10
15.5063555229
 20
6.4082971205
 30
0.0
 10
15.5030678496
 20
6.411975884
 30
0.0
  0
SPLINE
  5
371
100
AcDbEntity
  8
0
100
AcDbSpline
 62
7
  6
CONTINUOUS
 70
0
 71
3
 72
14
 73
10
 74
0
 42
0.0000001
 43
0.0000001
 44
0.0000000001
 40
0.0
 40
0.0
 40
0.0
 40
0.0
 40
0.1123866619
 40
0.2299102774
 40
0.3519496756
 40
0.4778570646
 40
0.7372016646
 40
0.8688371999
 40
1.0
 40
1.0
 40
1.0
 40
1.0
 10
15.7589284092
 20
6.4438770913
 30
0.0
 10
15.7556326041
 20
6.4393673734
 30
0.0
 10
15.7482652649
 20
6.4305864852
 30
0.0
 10
15.7354900323
 20
6.4185869573
 30
0.0
 10
15.7209397087
 20
6.4076535885
 30
0.0
 10
15.6993152759
 20
6.3946262553
 30
0.0
 10
15.6754545955
 20
6.3846273053
 30
0.0
 10
15.6503617037
 20
6.377921033
 30
0.0
 10
15.6374669142
 20
6.3757000201
 30
0.0
 10
15.6309981294
 20
6.374893479
 30
0.0
  0
SPLINE
  5
372
100
AcDbEntity
  8
0
100
AcDbSpline
 62
7
  6
CONTINUOUS
 70
0
 71
3
 72
15
 73
11
 74
0
 42
0.0000001
 43
0.0000001
 44
0.0000000001
 40
0.0
 40
0.0
 40
0.0
 40
0.0
 40
0.1233359045
 40
0.2433604382
 40
0.3618584138
 40
0.4810348457
 40
0.6029289558
 40
0.7292801554
 40
0.861451237
 40
1.0
 40
1.0
 40
1.0
 40
1.0
 10
15.7589284092
 20
6.5499431084
 30
0.0
 10
15.7620879527
 20
6.5464077166
 30
0.0
 10
15.7677610073
 20
6.5388992485
 30
0.0
 10
15.7740674477
 20
6.5264146826
 30
0.0
 10
15.7778872585
 20
6.5131178267
 30
0.0
 10
15.7791432599
 20
6.499271199
 30
0.0
 10
15.7778314802
 20
6.4851321571
 30
0.0
 10
15.7739823562
 20
6.4709530689
 30
0.0
 10
15.7676833062
 20
6.4569871691
 30
0.0
 10
15.7620711809
 20
6.4481774103
 30
0.0
 10
15.7589284092
 20
6.4438770913
 30
0.0
  0
SPLINE
  5
373
100
AcDbEntity
  8
0
100
AcDbSpline
 62
7
  6
CONTINUOUS
 70
0
 71
3
 72
14
 73
10
 74
0
 42
0.0000001
 43
0.0000001
 44
0.0000000001
 40
0.0
 40
0.0
 40
0.0
 40
0.0
 40
0.305502592
 40
0.4454176034
 40
0.5736680385
 40
0.6909540125
 40
0.7992348238
 40
0.9012546731
 40
1.0
 40
1.0
 40
1.0
 40
1.0
 10
15.8784802569
 20
6.7633390425
 30
0.0
 10
15.879891847
 20
6.7633390425
 30
0.0
 10
15.8819753509
 20
6.7630069181
 30
0.0
 10
15.8844063426
 20
6.7619254314
 30
0.0
 10
15.8858873252
 20
6.7609168283
 30
0.0
 10
15.8870452792
 20
6.7597477768
 30
0.0
 10
15.8878734477
 20
6.7584667328
 30
0.0
 10
15.8883694226
 20
6.7571150729
 30
0.0
 10
15.8884802569
 20
6.7561839372
 30
0.0
 10
15.8884802569
 20
6.7557276794
 30
0.0
  0
SPLINE
  5
374
100
AcDbEntity
  8
0
100
AcDbSpline
 62
7
  6
CONTINUOUS
 70
0
 71
3
 72
14
 73
10
 74
0
 42
0.0000001
 43
0.0000001
 44
0.0000000001
 40
0.0
 40
0.0
 40
0.0
 40
0.0
 40
0.305502592
 40
0.4454176034
 40
0.5736680385
 40
0.6909540125
 40
0.7992348238
 40
0.9012546731
 40
1.0
 40
1.0
 40
1.0
 40
1.0
 10
15.8784802569
 20
4.1579103664
 30
0.0
 10
15.879891847
 20
4.1579103664
 30
0.0
 10
15.8819753509
 20
4.1582424908
 30
0.0
 10
15.8844063426
 20
4.1593239775
 30
0.0
 10
15.8858873252
 20
4.1603325805
 30
0.0
 10
15.8870452792
 20
4.1615016321
 30
0.0
 10
15.8878734477
 20
4.1627826761
 30
0.0
 10
15.8883694226
 20
4.164134336
 30
0.0
 10
15.8884802569
 20
4.1650654717
 30
0.0
 10
15.8884802569
 20
4.1655217295
 30
0.0
  0
SPLINE
  5
375
100
AcDbEntity
  8
03__ASM_ALL_CURVES
100
AcDbSpline
 62
8
  6
HIDDEN
 70
0
 71
3
 72
31
 73
27
 74
0
 42
0.0000001
 43
0.0000001
 44
0.0000000001
 40
0.0
 40
0.0
 40
0.0
 40
0.0
 40
0.125
 40
0.25
 40
0.28125
 40
0.3125
 40
0.328125
 40
0.34375
 40
0.375
 40
0.4375
 40
0.46875
 40
0.484375
 40
0.5
 40
0.515625
 40
0.53125
 40
0.5625
 40
0.625
 40
0.6875
 40
0.75
 40
0.78125
 40
0.8125
 40
0.828125
 40
0.84375
 40
0.875
 40
0.9375
 40
1.0
 40
1.0
 40
1.0
 40
1.0
 10
16.5767322215
 20
11.8752310218
 30
0.0
 10
16.5760008702
 20
11.8767058149
 30
0.0
 10
16.5745484294
 20
11.8796509744
 30
0.0
 10
16.5728682553
 20
11.8829841986
 30
0.0
 10
16.571758406
 20
11.885177029
 30
0.0
 10
16.5712726593
 20
11.8861339503
 30
0.0
 10
16.5709389782
 20
11.8867986385
 30
0.0
 10
16.5704042793
 20
11.8878321286
 30
0.0
 10
16.5693739831
 20
11.889814411
 30
0.0
 10
16.5682428243
 20
11.8919937652
 30
0.0
 10
16.5672260367
 20
11.8939530678
 30
0.0
 10
16.5666681801
 20
11.8950259518
 30
0.0
 10
16.566188014
 20
11.8959558049
 30
0.0
 10
16.5659433602
 20
11.8964082567
 30
0.0
 10
16.5655350164
 20
11.8971780577
 30
0.0
 10
16.5648585791
 20
11.8984475281
 30
0.0
 10
16.5638731374
 20
11.900302402
 30
0.0
 10
16.5626950676
 20
11.9025073538
 30
0.0
 10
16.5616862211
 20
11.9043585348
 30
0.0
 10
16.5608967365
 20
11.9058160271
 30
0.0
 10
16.5603728879
 20
11.9067787305
 30
0.0
 10
16.5600224208
 20
11.9074305067
 30
0.0
 10
16.5594218429
 20
11.9085144124
 30
0.0
 10
16.5582545894
 20
11.910612112
 30
0.0
 10
16.5566482646
 20
11.9135031075
 30
0.0
 10
16.5553445593
 20
11.9158481228
 30
0.0
 10
16.5546950374
 20
11.9170166031
 30
0.0
  0
SPLINE
  5
376
100
AcDbEntity
  8
03__ASM_ALL_CURVES
100
AcDbSpline
 62
8
  6
HIDDEN
 70
0
 71
3
 72
241
 73
237
 74
0
 42
0.0000001
 43
0.0000001
 44
0.0000000001
 40
0.0
 40
0.0
 40
0.0
 40
0.0
 40
0.015625
 40
0.03125
 40
0.0390625
 40
0.046875
 40
0.0546875
 40
0.05859375
 40
0.060546875
 40
0.0625
 40
0.064453125
 40
0.0654296875
 40
0.06640625
 40
0.068359375
 40
0.0703125
 40
0.07421875
 40
0.078125
 40
0.0859375
 40
0.09375
 40
0.1015625
 40
0.109375
 40
0.1171875
 40
0.12109375
 40
0.125
 40
0.12890625
 40
0.130859375
 40
0.1318359375
 40
0.1328125
 40
0.134765625
 40
0.13671875
 40
0.140625
 40
0.14453125
 40
0.1484375
 40
0.15625
 40
0.1640625
 40
0.171875
 40
0.1796875
 40
0.1875
 40
0.19140625
 40
0.1953125
 40
0.197265625
 40
0.19921875
 40
0.203125
 40
0.20703125
 40
0.2109375
 40
0.21875
 40
0.2265625
 40
0.234375
 40
0.2421875
 40
0.25
 40
0.25390625
 40
0.2578125
 40
0.26171875
 40
0.263671875
 40
0.265625
 40
0.2666015625
 40
0.267578125
 40
0.26953125
 40
0.2734375
 40
0.28125
 40
0.2890625
 40
0.296875
 40
0.3046875
 40
0.3125
 40
0.3203125
 40
0.32421875
 40
0.328125
 40
0.330078125
 40
0.33203125
 40
0.3330078125
 40
0.333984375
 40
0.3359375
 40
0.33984375
 40
0.34375
 40
0.3515625
 40
0.359375
 40
0.3671875
 40
0.375
 40
0.3828125
 40
0.38671875
 40
0.390625
 40
0.39453125
 40
0.396484375
 40
0.3984375
 40
0.400390625
 40
0.4013671875
 40
0.40234375
 40
0.40625
 40
0.4140625
 40
0.421875
 40
0.4296875
 40
0.4375
 40
0.4453125
 40
0.453125
 40
0.45703125
 40
0.4609375
 40
0.462890625
 40
0.46484375
 40
0.4658203125
 40
0.466796875
 40
0.4677734375
 40
0.46875
 40
0.470703125
 40
0.47265625
 40
0.4765625
 40
0.48046875
 40
0.484375
 40
0.4921875
 40
0.5
 40
0.5078125
 40
0.515625
 40
0.51953125
 40
0.5234375
 40
0.52734375
 40
0.529296875
 40
0.53125
 40
0.5322265625
 40
0.533203125
 40
0.5341796875
 40
0.53515625
 40
0.537109375
 40
0.5390625
 40
0.54296875
 40
0.546875
 40
0.5625
 40
0.5703125
 40
0.578125
 40
0.5859375
 40
0.59375
 40
0.595703125
 40
0.59765625
 40
0.5986328125
 40
0.599609375
 40
0.6015625
 40
0.603515625
 40
0.60546875
 40
0.609375
 40
0.61328125
 40
0.6171875
 40
0.625
 40
0.6328125
 40
0.640625
 40
0.6484375
 40
0.65234375
 40
0.65625
 40
0.66015625
 40
0.662109375
 40
0.6640625
 40
0.6650390625
 40
0.666015625
 40
0.6665039062
 40
0.6669921875
 40
0.66796875
 40
0.669921875
 40
0.671875
 40
0.67578125
 40
0.6796875
 40
0.6875
 40
0.6953125
 40
0.703125
 40
0.7109375
 40
0.71875
 40
0.72265625
 40
0.7265625
 40
0.73046875
 40
0.7314453125
 40
0.732421875
 40
0.7329101562
 40
0.7333984375
 40
0.7338867188
 40
0.734375
 40
0.736328125
 40
0.73828125
 40
0.7421875
 40
0.74609375
 40
0.75
 40
0.7578125
 40
0.765625
 40
0.7734375
 40
0.78125
 40
0.78515625
 40
0.7890625
 40
0.79296875
 40
0.796875
 40
0.798828125
 40
0.7993164062
 40
0.7998046875
 40
0.80078125
 40
0.8017578125
 40
0.802734375
 40
0.8046875
 40
0.806640625
 40
0.80859375
 40
0.8125
 40
0.8203125
 40
0.828125
 40
0.8359375
 40
0.84375
 40
0.8515625
 40
0.85546875
 40
0.859375
 40
0.86328125
 40
0.865234375
 40
0.8662109375
 40
0.8666992188
 40
0.8671875
 40
0.8681640625
 40
0.869140625
 40
0.87109375
 40
0.873046875
 40
0.875
 40
0.87890625
 40
0.8828125
 40
0.890625
 40
0.8984375
 40
0.90625
 40
0.9140625
 40
0.91796875
 40
0.921875
 40
0.92578125
 40
0.9296875
 40
0.931640625
 40
0.9326171875
 40
0.93359375
 40
0.9345703125
 40
0.935546875
 40
0.9375
 40
0.939453125
 40
0.94140625
 40
0.9453125
 40
0.953125
 40
0.9609375
 40
0.96875
 40
0.9765625
 40
0.984375
 40
1.0
 40
1.0
 40
1.0
 40
1.0
 10
16.5546950378
 20
11.9170166025
 30
0.0
 10
16.5450583951
 20
11.9304310505
 30
0.0
 10
16.5257851211
 20
11.9572599487
 30
0.0
 10
16.5016934724
 20
11.9907960606
 30
0.0
 10
16.4824202715
 20
12.017624973
 30
0.0
 10
16.4679650502
 20
12.0377465954
 30
0.0
 10
16.4559200519
 20
12.0545148107
 30
0.0
 10
16.4474865526
 20
12.0662521755
 30
0.0
 10
16.4426705338
 20
12.0729598437
 30
0.0
 10
16.4390497201
 20
12.0779888973
 30
0.0
 10
16.436060406
 20
12.0821851827
 30
0.0
 10
16.4336060808
 20
12.085530082
 30
0.0
 10
16.4313808269
 20
12.0889191715
 30
0.0
 10
16.4269598174
 20
12.0928392677
 30
0.0
 10
16.4204194953
 20
12.0992142995
 30
0.0
 10
16.4120614923
 20
12.1071478638
 30
0.0
 10
16.3987907433
 20
12.119861254
 30
0.0
 10
16.3821672901
 20
12.1357462375
 30
0.0
 10
16.362234144
 20
12.1548111075
 30
0.0
 10
16.342297034
 20
12.1738752252
 30
0.0
 10
16.322360782
 20
12.1929394621
 30
0.0
 10
16.3057476817
 20
12.2088265556
 30
0.0
 10
16.2924557093
 20
12.2215356203
 30
0.0
 10
16.2824909408
 20
12.2310691116
 30
0.0
 10
16.2741735527
 20
12.2390082994
 30
0.0
 10
16.2683777089
 20
12.2445763056
 30
0.0
 10
16.265024689
 20
12.2477415118
 30
0.0
 10
16.2618260759
 20
12.250968736
 30
0.0
 10
16.2567211451
 20
12.2545582702
 30
0.0
 10
16.248523624
 20
12.2602896232
 30
0.0
 10
16.2382868889
 20
12.2674578976
 30
0.0
 10
16.2259984562
 20
12.2760580798
 30
0.0
 10
16.2096153947
 20
12.2875255966
 30
0.0
 10
16.1891360788
 20
12.3018598066
 30
0.0
 10
16.1645609734
 20
12.3190608404
 30
0.0
 10
16.139986356
 20
12.3362622444
 30
0.0
 10
16.1154097129
 20
12.353462186
 30
0.0
 10
16.0949355223
 20
12.367800037
 30
0.0
 10
16.0785419541
 20
12.3792600896
 30
0.0
 10
16.0683283407
 20
12.3864459098
 30
0.0
 10
16.0600833236
 20
12.3921412335
 30
0.0
 10
16.0521089188
 20
12.3980312573
 30
0.0
 10
16.0402039789
 20
12.4040002014
 30
0.0
 10
16.0261692695
 20
12.4113436811
 30
0.0
 10
16.0073685686
 20
12.4210718491
 30
0.0
 10
15.9838978092
 20
12.4332537296
 30
0.0
 10
15.9557199705
 20
12.4478626747
 30
0.0
 10
15.9275456548
 20
12.4624741933
 30
0.0
 10
15.8993701745
 20
12.4770847295
 30
0.0
 10
15.8758915536
 20
12.4892613061
 30
0.0
 10
15.8571069688
 20
12.4990003471
 30
0.0
 10
15.8430230267
 20
12.506310611
 30
0.0
 10
15.8312721233
 20
12.512383479
 30
0.0
 10
15.8219034363
 20
12.5172844263
 30
0.0
 10
15.8159750602
 20
12.5202503955
 30
0.0
 10
15.8113994225
 20
12.5228456025
 30
0.0
 10
15.8062138892
 20
12.5246287811
 30
0.0
 10
15.7973481268
 20
12.5280275054
 30
0.0
 10
15.7794682724
 20
12.5346274647
 30
0.0
 10
15.754003185
 20
12.5441592475
 30
0.0
 10
15.7234118231
 20
12.5555530973
 30
0.0
 10
15.6928293904
 20
12.5669588739
 30
0.0
 10
15.6622444979
 20
12.5783612332
 30
0.0
 10
15.6316605153
 20
12.5897653347
 30
0.0
 10
15.6061728802
 20
12.5992657932
 30
0.0
 10
15.5857846761
 20
12.6068723913
 30
0.0
 10
15.57303778
 20
12.6116124167
 30
0.0
 10
15.5628500317
 20
12.6154367154
 30
0.0
 10
15.5564604017
 20
12.6177532553
 30
0.0
 10
15.5513997451
 20
12.6197751699
 30
0.0
 10
15.5461527288
 20
12.6211812713
 30
0.0
 10
15.5368838783
 20
12.623355877
 30
0.0
 10
15.5236878327
 20
12.626611716
 30
0.0
 10
15.5025489143
 20
12.6317376362
 30
0.0
 10
15.4761339292
 20
12.6381736643
 30
0.0
 10
15.4444322334
 20
12.645884618
 30
0.0
 10
15.4127315314
 20
12.6535988871
 30
0.0
 10
15.3810305678
 20
12.6613121748
 30
0.0
 10
15.3546131421
 20
12.6677404229
 30
0.0
 10
15.3334792269
 20
12.6728822921
 30
0.0
 10
15.3176286879
 20
12.6767405767
 30
0.0
 10
15.304420237
 20
12.6799498421
 30
0.0
 10
15.2938527318
 20
12.6825306454
 30
0.0
 10
15.2859291372
 20
12.684429658
 30
0.0
 10
15.2793196708
 20
12.6861285551
 30
0.0
 10
15.2740801006
 20
12.6866242876
 30
0.0
 10
15.2662084119
 20
12.6875897164
 30
0.0
 10
15.2491602946
 20
12.6895518299
 30
0.0
 10
15.2229275511
 20
12.6926580742
 30
0.0
 10
15.191450346
 20
12.6963480111
 30
0.0
 10
15.1599725858
 20
12.7000480001
 30
0.0
 10
15.1284949589
 20
12.703745337
 30
0.0
 10
15.097017354
 20
12.7074432305
 30
0.0
 10
15.0707858321
 20
12.7105251629
 30
0.0
 10
15.0498010462
 20
12.7129895796
 30
0.0
 10
15.0366845684
 20
12.714532486
 30
0.0
 10
15.0261936461
 20
12.7157607432
 30
0.0
 10
15.0196316631
 20
12.7165422506
 30
0.0
 10
15.0143938875
 20
12.7171357417
 30
0.0
 10
15.0104332172
 20
12.7176676965
 30
0.0
 10
15.0067513635
 20
12.7174509653
 30
0.0
 10
15.0017448404
 20
12.7174234908
 30
0.0
 10
14.9955200312
 20
12.7172996096
 30
0.0
 10
14.9855417001
 20
12.7171514426
 30
0.0
 10
14.9730751803
 20
12.7169490643
 30
0.0
 10
14.9581126195
 20
12.7167135597
 30
0.0
 10
14.9381634951
 20
12.7163969854
 30
0.0
 10
14.9132267574
 20
12.7160021546
 30
0.0
 10
14.8833028317
 20
12.7155279523
 30
0.0
 10
14.8533787997
 20
12.7150539523
 30
0.0
 10
14.8284423276
 20
12.7146586158
 30
0.0
 10
14.808492672
 20
12.7143430529
 30
0.0
 10
14.7935317313
 20
12.7141044639
 30
0.0
 10
14.7810601433
 20
12.7139117347
 30
0.0
 10
14.7710921522
 20
12.7137438818
 30
0.0
 10
14.7648410283
 20
12.7136701003
 30
0.0
 10
14.7598885199
 20
12.7135397887
 30
0.0
 10
14.7560416442
 20
12.7136372383
 30
0.0
 10
14.7527005509
 20
12.7129895978
 30
0.0
 10
14.7481675422
 20
12.7122413031
 30
0.0
 10
14.7425280626
 20
12.7112664818
 30
0.0
 10
14.7334899299
 20
12.7097288141
 30
0.0
 10
14.722197379
 20
12.707799194
 30
0.0
 10
14.6950910495
 20
12.7031743075
 30
0.0
 10
14.6634683452
 20
12.6977765835
 30
0.0
 10
14.6273277012
 20
12.6916084906
 30
0.0
 10
14.6002216027
 20
12.6869829917
 30
0.0
 10
14.5731181716
 20
12.6823548423
 30
0.0
 10
14.5527830577
 20
12.6788912538
 30
0.0
 10
14.5392380491
 20
12.6765704838
 30
0.0
 10
14.5335768334
 20
12.6756209248
 30
0.0
 10
14.5290885965
 20
12.6748206203
 30
0.0
 10
14.5244513866
 20
12.6741690023
 30
0.0
 10
14.5197212524
 20
12.6722901531
 30
0.0
 10
14.5139067846
 20
12.6701735748
 30
0.0
 10
14.5062024732
 20
12.667303251
 30
0.0
 10
14.4965555083
 20
12.6637318901
 30
0.0
 10
14.4849862453
 20
12.6594391756
 30
0.0
 10
14.4695580828
 20
12.6537180302
 30
0.0
 10
14.4502737319
 20
12.6465657482
 30
0.0
 10
14.4271321378
 20
12.6379833798
 30
0.0
 10
14.4039906721
 20
12.6294008916
 30
0.0
 10
14.384706
 20
12.6222489094
 30
0.0
 10
14.3692784798
 20
12.6165271643
 30
0.0
 10
14.3577072579
 20
12.6122362786
 30
0.0
 10
14.3480664213
 20
12.6086591965
 30
0.0
 10
14.3403496069
 20
12.605800545
 30
0.0
 10
14.3355360367
 20
12.6040070243
 30
0.0
 10
14.3316635636
 20
12.6025879266
 30
0.0
 10
14.3292925909
 20
12.6016651252
 30
0.0
 10
14.3272828418
 20
12.6010090312
 30
0.0
 10
14.3256855181
 20
12.6000530411
 30
0.0
 10
14.3230817907
 20
12.598240744
 30
0.0
 10
14.3192622187
 20
12.5957244353
 30
0.0
 10
14.3132067666
 20
12.5916577204
 30
0.0
 10
14.3056183238
 20
12.5865882355
 30
0.0
 10
14.2934875058
 20
12.5784692861
 30
0.0
 10
14.278320316
 20
12.5683232663
 30
0.0
 10
14.2601212556
 20
12.5561469017
 30
0.0
 10
14.2419217934
 20
12.5439708331
 30
0.0
 10
14.2237223709
 20
12.5317947217
 30
0.0
 10
14.2085563878
 20
12.521647858
 30
0.0
 10
14.196423096
 20
12.5135306384
 30
0.0
 10
14.1873245218
 20
12.507441972
 30
0.0
 10
14.1804965966
 20
12.5028776257
 30
0.0
 10
14.1759508682
 20
12.499831374
 30
0.0
 10
14.1740475548
 20
12.4985670945
 30
0.0
 10
14.1725465057
 20
12.4975440253
 30
0.0
 10
14.1713614699
 20
12.4968086652
 30
0.0
 10
14.1706881954
 20
12.4957974081
 30
0.0
 10
14.1690784144
 20
12.4939168054
 30
0.0
 10
14.1667740103
 20
12.4910364548
 30
0.0
 10
14.1625951206
 20
12.4859601313
 30
0.0
 10
14.1573997011
 20
12.4795995278
 30
0.0
 10
14.15115313
 20
12.4719733094
 30
0.0
 10
14.1428285849
 20
12.4618027453
 30
0.0
 10
14.1324214506
 20
12.4490903226
 30
0.0
 10
14.119933539
 20
12.4338350694
 30
0.0
 10
14.1074453534
 20
12.4185799479
 30
0.0
 10
14.0970389043
 20
12.4058671958
 30
0.0
 10
14.0887129887
 20
12.3956972904
 30
0.0
 10
14.0824705978
 20
12.388069063
 30
0.0
 10
14.0762204018
 20
12.3804438809
 30
0.0
 10
14.0710362171
 20
12.3740800768
 30
0.0
 10
14.0676222595
 20
12.3699608641
 30
0.0
 10
14.0660930716
 20
12.3680415523
 30
0.0
 10
14.0649587278
 20
12.3668068351
 30
0.0
 10
14.064379195
 20
12.3649363264
 30
0.0
 10
14.0635752582
 20
12.3627340477
 30
0.0
 10
14.0625412421
 20
12.3597828891
 30
0.0
 10
14.0612357188
 20
12.3560990142
 30
0.0
 10
14.0596746562
 20
12.351676193
 30
0.0
 10
14.0575912979
 20
12.3457798554
 30
0.0
 10
14.0539463267
 20
12.3354609114
 30
0.0
 10
14.048738742
 20
12.32071975
 30
0.0
 10
14.0424898886
 20
12.3030302654
 30
0.0
 10
14.0362408152
 20
12.2853408449
 30
0.0
 10
14.0299923733
 20
12.2676512588
 30
0.0
 10
14.0247834166
 20
12.2529104359
 30
0.0
 10
14.0206205479
 20
12.2411166631
 30
0.0
 10
14.0174866595
 20
12.2322743775
 30
0.0
 10
14.0149124183
 20
12.2248961239
 30
0.0
 10
14.0130371862
 20
12.2197503475
 30
0.0
 10
14.0121996653
 20
12.2171514992
 30
0.0
 10
14.0115599564
 20
12.2157082315
 30
0.0
 10
14.0117433932
 20
12.2140514785
 30
0.0
 10
14.0116908431
 20
12.2120536348
 30
0.0
 10
14.0117642871
 20
12.2088162307
 30
0.0
 10
14.0118020462
 20
12.2047834924
 30
0.0
 10
14.0118704905
 20
12.1999382067
 30
0.0
 10
14.0119536696
 20
12.1934799214
 30
0.0
 10
14.0120604101
 20
12.1854063473
 30
0.0
 10
14.0122296482
 20
12.1724890297
 30
0.0
 10
14.0124417295
 20
12.1563422447
 30
0.0
 10
14.0126959856
 20
12.136966164
 30
0.0
 10
14.0129503535
 20
12.1175900587
 30
0.0
 10
14.0131621555
 20
12.1014433353
 30
0.0
 10
14.0133319522
 20
12.0885258945
 30
0.0
 10
14.0134583369
 20
12.0788379814
 30
0.0
 10
14.0135883956
 20
12.0691494292
 30
0.0
 10
14.0136853337
 20
12.0610776266
 30
0.0
 10
14.0137756156
 20
12.0554234635
 30
0.0
 10
14.0137921952
 20
12.0521986038
 30
0.0
 10
14.0139032529
 20
12.0497628018
 30
0.0
 10
14.014963781
 20
12.0471618216
 30
0.0
 10
14.0160461563
 20
12.0437515469
 30
0.0
 10
14.0175129159
 20
12.0394689076
 30
0.0
 10
14.019224326
 20
12.0343382128
 30
0.0
 10
14.0215231939
 20
12.0274943313
 30
0.0
 10
14.0255382976
 20
12.0155189154
 30
0.0
 10
14.0312782987
 20
11.9984104585
 30
0.0
 10
14.0381645258
 20
11.9778806189
 30
0.0
 10
14.0450512283
 20
11.9573506965
 30
0.0
 10
14.0519378035
 20
11.9368207963
 30
0.0
 10
14.0611199484
 20
11.9094475883
 30
0.0
 10
14.0680065471
 20
11.888917684
 30
0.0
 10
14.0725976151
 20
11.8752310808
 30
0.0
  0
SPLINE
  5
377
100
AcDbEntity
  8
03__ASM_ALL_CURVES
100
AcDbSpline
 62
8
  6
HIDDEN
 70
0
 71
3
 72
293
 73
289
 74
0
 42
0.0000001
 43
0.0000001
 44
0.0000000001
 40
0.0
 40
0.0
 40
0.0
 40
0.0
 40
0.015625
 40
0.0234375
 40
0.03125
 40
0.0390625
 40
0.046875
 40
0.05078125
 40
0.0546875
 40
0.056640625
 40
0.05859375
 40
0.060546875
 40
0.0615234375
 40
0.0620117188
 40
0.0625
 40
0.0629882812
 40
0.0634765625
 40
0.064453125
 40
0.06640625
 40
0.068359375
 40
0.0703125
 40
0.07421875
 40
0.078125
 40
0.0859375
 40
0.09375
 40
0.1015625
 40
0.109375
 40
0.11328125
 40
0.1171875
 40
0.119140625
 40
0.12109375
 40
0.123046875
 40
0.1240234375
 40
0.1245117188
 40
0.125
 40
0.1254882812
 40
0.1259765625
 40
0.126953125
 40
0.12890625
 40
0.130859375
 40
0.1328125
 40
0.13671875
 40
0.140625
 40
0.1484375
 40
0.15625
 40
0.1640625
 40
0.171875
 40
0.17578125
 40
0.1796875
 40
0.181640625
 40
0.18359375
 40
0.185546875
 40
0.1865234375
 40
0.1875
 40
0.1884765625
 40
0.189453125
 40
0.19140625
 40
0.193359375
 40
0.1953125
 40
0.19921875
 40
0.203125
 40
0.2109375
 40
0.21875
 40
0.2265625
 40
0.234375
 40
0.23828125
 40
0.2421875
 40
0.24609375
 40
0.248046875
 40
0.2490234375
 40
0.25
 40
0.2509765625
 40
0.251953125
 40
0.25390625
 40
0.2578125
 40
0.26171875
 40
0.265625
 40
0.2734375
 40
0.28125
 40
0.2890625
 40
0.296875
 40
0.30078125
 40
0.3046875
 40
0.30859375
 40
0.310546875
 40
0.3115234375
 40
0.3125
 40
0.3134765625
 40
0.314453125
 40
0.31640625
 40
0.3203125
 40
0.32421875
 40
0.328125
 40
0.3359375
 40
0.34375
 40
0.3515625
 40
0.359375
 40
0.36328125
 40
0.3671875
 40
0.37109375
 40
0.373046875
 40
0.3740234375
 40
0.375
 40
0.3759765625
 40
0.376953125
 40
0.37890625
 40
0.3828125
 40
0.38671875
 40
0.390625
 40
0.3984375
 40
0.40625
 40
0.4140625
 40
0.421875
 40
0.42578125
 40
0.4296875
 40
0.43359375
 40
0.435546875
 40
0.4365234375
 40
0.4375
 40
0.4384765625
 40
0.439453125
 40
0.44140625
 40
0.4453125
 40
0.44921875
 40
0.453125
 40
0.4609375
 40
0.46875
 40
0.4765625
 40
0.484375
 40
0.48828125
 40
0.4921875
 40
0.494140625
 40
0.49609375
 40
0.498046875
 40
0.4990234375
 40
0.5
 40
0.5009765625
 40
0.501953125
 40
0.50390625
 40
0.505859375
 40
0.5078125
 40
0.51171875
 40
0.515625
 40
0.5234375
 40
0.53125
 40
0.5390625
 40
0.546875
 40
0.55078125
 40
0.5546875
 40
0.556640625
 40
0.55859375
 40
0.560546875
 40
0.5615234375
 40
0.5620117188
 40
0.5625
 40
0.5629882812
 40
0.5634765625
 40
0.564453125
 40
0.56640625
 40
0.568359375
 40
0.5703125
 40
0.57421875
 40
0.578125
 40
0.5859375
 40
0.59375
 40
0.6015625
 40
0.609375
 40
0.61328125
 40
0.6171875
 40
0.619140625
 40
0.62109375
 40
0.623046875
 40
0.6240234375
 40
0.6245117188
 40
0.625
 40
0.6254882812
 40
0.6259765625
 40
0.626953125
 40
0.62890625
 40
0.630859375
 40
0.6328125
 40
0.63671875
 40
0.640625
 40
0.6484375
 40
0.65625
 40
0.6640625
 40
0.671875
 40
0.67578125
 40
0.6796875
 40
0.681640625
 40
0.68359375
 40
0.685546875
 40
0.6865234375
 40
0.6870117188
 40
0.6875
 40
0.6879882812
 40
0.6884765625
 40
0.689453125
 40
0.69140625
 40
0.693359375
 40
0.6953125
 40
0.69921875
 40
0.703125
 40
0.7109375
 40
0.71875
 40
0.7265625
 40
0.734375
 40
0.73828125
 40
0.7421875
 40
0.744140625
 40
0.74609375
 40
0.748046875
 40
0.7490234375
 40
0.7495117188
 40
0.75
 40
0.7504882812
 40
0.7509765625
 40
0.751953125
 40
0.75390625
 40
0.755859375
 40
0.7578125
 40
0.76171875
 40
0.765625
 40
0.7734375
 40
0.78125
 40
0.7890625
 40
0.796875
 40
0.80078125
 40
0.8046875
 40
0.806640625
 40
0.80859375
 40
0.810546875
 40
0.8115234375
 40
0.8120117188
 40
0.8125
 40
0.8129882812
 40
0.8134765625
 40
0.814453125
 40
0.81640625
 40
0.818359375
 40
0.8203125
 40
0.82421875
 40
0.828125
 40
0.8359375
 40
0.84375
 40
0.8515625
 40
0.859375
 40
0.86328125
 40
0.8671875
 40
0.869140625
 40
0.87109375
 40
0.873046875
 40
0.8740234375
 40
0.8745117188
 40
0.875
 40
0.8754882812
 40
0.8759765625
 40
0.876953125
 40
0.87890625
 40
0.880859375
 40
0.8828125
 40
0.88671875
 40
0.890625
 40
0.8984375
 40
0.90625
 40
0.9140625
 40
0.921875
 40
0.92578125
 40
0.9296875
 40
0.931640625
 40
0.93359375
 40
0.935546875
 40
0.9365234375
 40
0.9370117188
 40
0.9375
 40
0.9379882812
 40
0.9384765625
 40
0.939453125
 40
0.94140625
 40
0.943359375
 40
0.9453125
 40
0.94921875
 40
0.953125
 40
0.9609375
 40
0.96875
 40
0.9765625
 40
0.984375
 40
1.0
 40
1.0
 40
1.0
 40
1.0
 10
14.0725976441
 20
11.8752310218
 30
0.0
 10
14.0812966328
 20
11.8615536692
 30
0.0
 10
14.0943451143
 20
11.8410376402
 30
0.0
 10
14.1117430957
 20
11.8136829356
 30
0.0
 10
14.1247915668
 20
11.793166905
 30
0.0
 10
14.1378400944
 20
11.7726508825
 30
0.0
 10
14.1487136917
 20
11.755554172
 30
0.0
 10
14.1574129629
 20
11.7418768598
 30
0.0
 10
14.162849112
 20
11.7333284117
 30
0.0
 10
14.1672000819
 20
11.7264899464
 30
0.0
 10
14.1704576945
 20
11.7213602945
 30
0.0
 10
14.1731902336
 20
11.717088139
 30
0.0
 10
14.1750679572
 20
11.7140926171
 30
0.0
 10
14.1761956758
 20
11.7123887177
 30
0.0
 10
14.1768872792
 20
11.7110887433
 30
0.0
 10
14.1781682577
 20
11.7098730547
 30
0.0
 10
14.1796706483
 20
11.7082227367
 30
0.0
 10
14.1823956158
 20
11.7053483782
 30
0.0
 10
14.1862383495
 20
11.7012349902
 30
0.0
 10
14.1908710646
 20
11.69630199
 30
0.0
 10
14.1970405313
 20
11.6897235858
 30
0.0
 10
14.2047549282
 20
11.681500947
 30
0.0
 10
14.2170965302
 20
11.6683445201
 30
0.0
 10
14.2325240272
 20
11.6518990576
 30
0.0
 10
14.2510367993
 20
11.6321644682
 30
0.0
 10
14.2695496772
 20
11.6124299027
 30
0.0
 10
14.2849769096
 20
11.5959843804
 30
0.0
 10
14.2973190408
 20
11.5828280732
 30
0.0
 10
14.3050320925
 20
11.57460513
 30
0.0
 10
14.3112043201
 20
11.5680273508
 30
0.0
 10
14.3158286004
 20
11.563092441
 30
0.0
 10
14.3196977244
 20
11.5589850277
 30
0.0
 10
14.3223755809
 20
11.5561000033
 30
0.0
 10
14.3239534551
 20
11.5544667746
 30
0.0
 10
14.3250025723
 20
11.5531985932
 30
0.0
 10
14.3265650083
 20
11.552095773
 30
0.0
 10
14.328469205
 20
11.5505676662
 30
0.0
 10
14.3318849725
 20
11.5479203534
 30
0.0
 10
14.3367210257
 20
11.5441244278
 30
0.0
 10
14.342542958
 20
11.5395753311
 30
0.0
 10
14.3502990139
 20
11.5335077682
 30
0.0
 10
14.3599963163
 20
11.5259240338
 30
0.0
 10
14.3755107534
 20
11.5137896573
 30
0.0
 10
14.3949042203
 20
11.4986218211
 30
0.0
 10
14.4181762321
 20
11.4804203743
 30
0.0
 10
14.441448165
 20
11.4622188859
 30
0.0
 10
14.4608418291
 20
11.4470511536
 30
0.0
 10
14.4763558718
 20
11.4349165693
 30
0.0
 10
14.4860541765
 20
11.4273333628
 30
0.0
 10
14.4938081751
 20
11.4212647165
 30
0.0
 10
14.4996363928
 20
11.4167189299
 30
0.0
 10
14.5044527808
 20
11.4129126476
 30
0.0
 10
14.5083966359
 20
11.409908277
 30
0.0
 10
14.5111065692
 20
11.4075439096
 30
0.0
 10
14.5147629621
 20
11.4056035722
 30
0.0
 10
14.5193075421
 20
11.4028683365
 30
0.0
 10
14.5251016978
 20
11.3995001109
 30
0.0
 10
14.5320061327
 20
11.3954364879
 30
0.0
 10
14.5412290041
 20
11.3900259215
 30
0.0
 10
14.5527517871
 20
11.3832601126
 30
0.0
 10
14.5711914831
 20
11.3724362692
 30
0.0
 10
14.5942400047
 20
11.3589059865
 30
0.0
 10
14.621898638
 20
11.3426697678
 30
0.0
 10
14.6495573992
 20
11.3264338327
 30
0.0
 10
14.6726056012
 20
11.3129028409
 30
0.0
 10
14.6910459364
 20
11.3020804157
 30
0.0
 10
14.7048713264
 20
11.2939571195
 30
0.0
 10
14.7164079503
 20
11.2872083102
 30
0.0
 10
14.7244532362
 20
11.2824437087
 30
0.0
 10
14.7290979328
 20
11.2797842152
 30
0.0
 10
14.7324479557
 20
11.2776117402
 30
0.0
 10
14.7363082816
 20
11.2761191166
 30
0.0
 10
14.7412773833
 20
11.2738918121
 30
0.0
 10
14.7500562446
 20
11.2701045169
 30
0.0
 10
14.7625541166
 20
11.2646363308
 30
0.0
 10
14.7775701221
 20
11.2580992332
 30
0.0
 10
14.7975849783
 20
11.2493744631
 30
0.0
 10
14.8226057841
 20
11.2384714859
 30
0.0
 10
14.8526297475
 20
11.2253865434
 30
0.0
 10
14.8826541482
 20
11.2123023037
 30
0.0
 10
14.9076738607
 20
11.2013975694
 30
0.0
 10
14.9276909035
 20
11.1926763134
 30
0.0
 10
14.94270024
 20
11.1861284977
 30
0.0
 10
14.9552189756
 20
11.1806938424
 30
0.0
 10
14.9639605919
 20
11.1768466897
 30
0.0
 10
14.9689893696
 20
11.1747152919
 30
0.0
 10
14.9726663902
 20
11.1729280734
 30
0.0
 10
14.976704877
 20
11.1718620476
 30
0.0
 10
14.9819634426
 20
11.1701891198
 30
0.0
 10
14.9912246771
 20
11.1673787027
 30
0.0
 10
15.0044242997
 20
11.1633025439
 30
0.0
 10
15.0202769928
 20
11.1584373828
 30
0.0
 10
15.0414093244
 20
11.1519413358
 30
0.0
 10
15.0678263178
 20
11.1438244451
 30
0.0
 10
15.0995260203
 20
11.134082718
 30
0.0
 10
15.1312259548
 20
11.1243417547
 30
0.0
 10
15.1576423682
 20
11.1162229547
 30
0.0
 10
15.1787758598
 20
11.1097307262
 30
0.0
 10
15.194625015
 20
11.1048539184
 30
0.0
 10
15.2078357056
 20
11.1008141954
 30
0.0
 10
15.2170771819
 20
11.0979387349
 30
0.0
 10
15.2223674052
 20
11.0963700229
 30
0.0
 10
15.2263086497
 20
11.0949838795
 30
0.0
 10
15.230350896
 20
11.0943989694
 30
0.0
 10
15.2357053273
 20
11.0933396101
 30
0.0
 10
15.2450919964
 20
11.0916159459
 30
0.0
 10
15.2584929421
 20
11.0890854905
 30
0.0
 10
15.2745777502
 20
11.0860780845
 30
0.0
 10
15.296022878
 20
11.0820580273
 30
0.0
 10
15.3228297267
 20
11.0770364741
 30
0.0
 10
15.3549977626
 20
11.0710089958
 30
0.0
 10
15.3871658264
 20
11.0649823461
 30
0.0
 10
15.4139726054
 20
11.0599587213
 30
0.0
 10
15.4354178727
 20
11.0559428073
 30
0.0
 10
15.4515022553
 20
11.0529227644
 30
0.0
 10
15.4649045319
 20
11.0504318423
 30
0.0
 10
15.4742888253
 20
11.0486376053
 30
0.0
 10
15.4796470632
 20
11.0476913213
 30
0.0
 10
15.4836776166
 20
11.04675908
 30
0.0
 10
15.4876627778
 20
11.0466774549
 30
0.0
 10
15.4929921594
 20
11.0462719171
 30
0.0
 10
15.5023112002
 20
11.0457004659
 30
0.0
 10
15.5156279725
 20
11.0448118337
 30
0.0
 10
15.5316064484
 20
11.0437764104
 30
0.0
 10
15.552911659
 20
11.0423850406
 30
0.0
 10
15.5795429788
 20
11.0406495296
 30
0.0
 10
15.6115006271
 20
11.0385653591
 30
0.0
 10
15.643458327
 20
11.0364814957
 30
0.0
 10
15.6700895178
 20
11.0347452169
 30
0.0
 10
15.6913949864
 20
11.0333553826
 30
0.0
 10
15.7047097274
 20
11.0324886275
 30
0.0
 10
15.7153642157
 20
11.0317908869
 30
0.0
 10
15.7233477014
 20
11.0312794561
 30
0.0
 10
15.7300240849
 20
11.0308154886
 30
0.0
 10
15.7353125331
 20
11.0305290376
 30
0.0
 10
15.7394227576
 20
11.0300826956
 30
0.0
 10
15.742983758
 20
11.0305200069
 30
0.0
 10
15.7479236096
 20
11.030794417
 30
0.0
 10
15.7540326009
 20
11.0312433333
 30
0.0
 10
15.7613915649
 20
11.0317367027
 30
0.0
 10
15.7711936763
 20
11.0324103615
 30
0.0
 10
15.7834496848
 20
11.0332470138
 30
0.0
 10
15.8030574156
 20
11.0345886871
 30
0.0
 10
15.8275677234
 20
11.0362647414
 30
0.0
 10
15.8569798244
 20
11.0382764412
 30
0.0
 10
15.8863919678
 20
11.0402880622
 30
0.0
 10
15.9109021698
 20
11.0419643134
 30
0.0
 10
15.9305101122
 20
11.0433055928
 30
0.0
 10
15.9427655829
 20
11.0441432463
 30
0.0
 10
15.9525687981
 20
11.0448148502
 30
0.0
 10
15.9599243895
 20
11.0453144976
 30
0.0
 10
15.9660439331
 20
11.0457437714
 30
0.0
 10
15.9703474657
 20
11.0460189455
 30
0.0
 10
15.9727756299
 20
11.046215719
 30
0.0
 10
15.9746840727
 20
11.0462519392
 30
0.0
 10
15.9762587357
 20
11.0467138337
 30
0.0
 10
15.9784747124
 20
11.0471812131
 30
0.0
 10
15.9822984267
 20
11.0480683066
 30
0.0
 10
15.9877892355
 20
11.0492994152
 30
0.0
 10
15.9943660672
 20
11.0507922265
 30
0.0
 10
16.003139416
 20
11.0527772343
 30
0.0
 10
16.0141046502
 20
11.0552603456
 30
0.0
 10
16.0316498367
 20
11.0592322886
 30
0.0
 10
16.0535810388
 20
11.0641975747
 30
0.0
 10
16.0798986123
 20
11.0701557553
 30
0.0
 10
16.1062161114
 20
11.0761140152
 30
0.0
 10
16.1281474996
 20
11.0810791028
 30
0.0
 10
16.1456923138
 20
11.0850514427
 30
0.0
 10
16.1566584942
 20
11.0875335453
 30
0.0
 10
16.1654299009
 20
11.0895206234
 30
0.0
 10
16.1720126659
 20
11.0910071098
 30
0.0
 10
16.1774849109
 20
11.0922580074
 30
0.0
 10
16.1813417648
 20
11.0931097742
 30
0.0
 10
16.1835046434
 20
11.093633756
 30
0.0
 10
16.185242407
 20
11.093921786
 30
0.0
 10
16.1865382708
 20
11.0946110123
 30
0.0
 10
16.1884202287
 20
11.095390039
 30
0.0
 10
16.1916418387
 20
11.0968185371
 30
0.0
 10
16.196281685
 20
11.0988251606
 30
0.0
 10
16.2018334296
 20
11.1012476997
 30
0.0
 10
16.2092413689
 20
11.1044726554
 30
0.0
 10
16.218499371
 20
11.1085055952
 30
0.0
 10
16.2333132491
 20
11.1149573232
 30
0.0
 10
16.2518302251
 20
11.12302232
 30
0.0
 10
16.2740507677
 20
11.1327001625
 30
0.0
 10
16.2962712194
 20
11.1423780809
 30
0.0
 10
16.3147884227
 20
11.1504428881
 30
0.0
 10
16.3296018462
 20
11.1568949955
 30
0.0
 10
16.3388610037
 20
11.1609269707
 30
0.0
 10
16.3462665717
 20
11.1641539062
 30
0.0
 10
16.351825561
 20
11.166570397
 30
0.0
 10
16.3564427403
 20
11.168595944
 30
0.0
 10
16.3597048147
 20
11.1699906605
 30
0.0
 10
16.3615219384
 20
11.1708238138
 30
0.0
 10
16.3630169522
 20
11.1713467804
 30
0.0
 10
16.3640067415
 20
11.1722592544
 30
0.0
 10
16.3655026885
 20
11.1733400219
 30
0.0
 10
16.3680384879
 20
11.1752946668
 30
0.0
 10
16.3717039854
 20
11.1780539218
 30
0.0
 10
16.3760842083
 20
11.1813791934
 30
0.0
 10
16.3819309232
 20
11.1858079411
 30
0.0
 10
16.3892371193
 20
11.1913455699
 30
0.0
 10
16.4009282618
 20
11.2002048289
 30
0.0
 10
16.4155417647
 20
11.2112792292
 30
0.0
 10
16.4330781659
 20
11.2245683628
 30
0.0
 10
16.4506144568
 20
11.237857561
 30
0.0
 10
16.4652282354
 20
11.2489317995
 30
0.0
 10
16.4769188266
 20
11.2577913822
 30
0.0
 10
16.4842264239
 20
11.2633281884
 30
0.0
 10
16.4900702629
 20
11.2677586244
 30
0.0
 10
16.4944592721
 20
11.2710787383
 30
0.0
 10
16.4980972795
 20
11.2738541305
 30
0.0
 10
16.5006821533
 20
11.2757799676
 30
0.0
 10
16.5020994707
 20
11.2769068924
 30
0.0
 10
16.5033307849
 20
11.2776775861
 30
0.0
 10
16.5039186715
 20
11.278733056
 30
0.0
 10
16.504926955
 20
11.2800410161
 30
0.0
 10
16.5065868829
 20
11.2823762274
 30
0.0
 10
16.5090128779
 20
11.2856880473
 30
0.0
 10
16.5119006717
 20
11.2896725879
 30
0.0
 10
16.5157592366
 20
11.2949816912
 30
0.0
 10
16.5205796441
 20
11.3016193091
 30
0.0
 10
16.5282938609
 20
11.3122388053
 30
0.0
 10
16.5379360913
 20
11.3255134144
 30
0.0
 10
16.5495070151
 20
11.3414428371
 30
0.0
 10
16.5610778145
 20
11.3573723103
 30
0.0
 10
16.570720356
 20
11.3706467932
 30
0.0
 10
16.5784339506
 20
11.3812665419
 30
0.0
 10
16.5832559393
 20
11.3879035179
 30
0.0
 10
16.5871112589
 20
11.3932139387
 30
0.0
 10
16.5900089676
 20
11.3971944545
 30
0.0
 10
16.5924039414
 20
11.400518867
 30
0.0
 10
16.5941192473
 20
11.4028315983
 30
0.0
 10
16.5950388013
 20
11.404175577
 30
0.0
 10
16.5958992366
 20
11.4051204092
 30
0.0
 10
16.596106903
 20
11.4063066396
 30
0.0
 10
16.5966114846
 20
11.4078040778
 30
0.0
 10
16.5973884159
 20
11.4104638261
 30
0.0
 10
16.5985537809
 20
11.4142429558
 30
0.0
 10
16.599928479
 20
11.4187866907
 30
0.0
 10
16.6017697017
 20
11.4248419375
 30
0.0
 10
16.6040683907
 20
11.4324120459
 30
0.0
 10
16.6077478806
 20
11.4445236324
 30
0.0
 10
16.6123466946
 20
11.4596633179
 30
0.0
 10
16.6178655226
 20
11.4778308498
 30
0.0
 10
16.6233842232
 20
11.4959984208
 30
0.0
 10
16.6279833559
 20
11.5111380084
 30
0.0
 10
16.6316622083
 20
11.5232497908
 30
0.0
 10
16.6339625177
 20
11.5308194014
 30
0.0
 10
16.6358004148
 20
11.5368756701
 30
0.0
 10
16.6371852726
 20
11.5414162828
 30
0.0
 10
16.6383188503
 20
11.5452051808
 30
0.0
 10
16.6391525274
 20
11.5478474911
 30
0.0
 10
16.639566188
 20
11.5493728693
 30
0.0
 10
16.6400531346
 20
11.550473277
 30
0.0
 10
16.6398646395
 20
11.5517404452
 30
0.0
 10
16.6398489144
 20
11.553371835
 30
0.0
 10
16.6397116242
 20
11.5562538685
 30
0.0
 10
16.639572885
 20
11.5603568903
 30
0.0
 10
16.6393818334
 20
11.5652865812
 30
0.0
 10
16.6391356778
 20
11.5718573842
 30
0.0
 10
16.6388250455
 20
11.5800716132
 30
0.0
 10
16.6383296763
 20
11.5932139741
 30
0.0
 10
16.6377098974
 20
11.6096420651
 30
0.0
 10
16.6369664224
 20
11.6293557113
 30
0.0
 10
16.6362228163
 20
11.6490693856
 30
0.0
 10
16.6356033654
 20
11.6654974064
 30
0.0
 10
16.63510734
 20
11.6786399076
 30
0.0
 10
16.6347983755
 20
11.68685378
 30
0.0
 10
16.6345487968
 20
11.6934253148
 30
0.0
 10
16.6343682034
 20
11.6983527699
 30
0.0
 10
16.6341967428
 20
11.7024627871
 30
0.0
 10
16.6341178659
 20
11.7053323326
 30
0.0
 10
16.634008548
 20
11.7069837314
 30
0.0
 10
16.6341075401
 20
11.7081894383
 30
0.0
 10
16.6335147325
 20
11.7095206847
 30
0.0
 10
16.6329656299
 20
11.7112518904
 30
0.0
 10
16.6318922707
 20
11.7143019026
 30
0.0
 10
16.63041768
 20
11.7186483965
 30
0.0
 10
16.6286230115
 20
11.7238687547
 30
0.0
 10
16.626238908
 20
11.7308276376
 30
0.0
 10
16.6232557696
 20
11.7395267873
 30
0.0
 10
16.61848443
 20
11.7534451217
 30
0.0
 10
16.6125196783
 20
11.7708431443
 30
0.0
 10
16.6053622237
 20
11.7917207266
 30
0.0
 10
16.5982047029
 20
11.8125983209
 30
0.0
 10
16.5886613651
 20
11.8404351091
 30
0.0
 10
16.5815038565
 20
11.8613127012
 30
0.0
 10
16.5767321853
 20
11.8752310957
 30
0.0
  0
SPLINE
  5
378
100
AcDbEntity
  8
0
100
AcDbSpline
 62
7
  6
CONTINUOUS
 70
0
 71
3
 72
15
 73
11
 74
0
 42
0.0000001
 43
0.0000001
 44
0.0000000001
 40
0.0
 40
0.0
 40
0.0
 40
0.0
 40
0.116435393
 40
0.2337672347
 40
0.3528679341
 40
0.4745595101
 40
0.599584085
 40
0.7285728384
 40
0.8619480201
 40
1.0
 40
1.0
 40
1.0
 40
1.0
 10
15.8746386991
 20
12.0673003133
 30
0.0
 10
15.8762736212
 20
12.0725927534
 30
0.0
 10
15.8789827566
 20
12.0834050806
 30
0.0
 10
15.8812980674
 20
12.1000622322
 30
0.0
 10
15.8818587982
 20
12.1171209423
 30
0.0
 10
15.8806693072
 20
12.1345115859
 30
0.0
 10
15.8777358594
 20
12.1521693168
 30
0.0
 10
15.8730670835
 20
12.1700222976
 30
0.0
 10
15.8666963185
 20
12.1879961587
 30
0.0
 10
15.8614273061
 20
12.1998011319
 30
0.0
 10
15.8585340039
 20
12.2056970618
 30
0.0
  0
SPLINE
  5
379
100
AcDbEntity
  8
0
100
AcDbSpline
 62
7
  6
CONTINUOUS
 70
0
 71
3
 72
15
 73
11
 74
0
 42
0.0000001
 43
0.0000001
 44
0.0000000001
 40
0.0
 40
0.0
 40
0.0
 40
0.0
 40
0.1637243042
 40
0.3152356317
 40
0.4543760945
 40
0.5813955056
 40
0.697355102
 40
0.8040077184
 40
0.9038195474
 40
1.0
 40
1.0
 40
1.0
 40
1.0
 10
16.1040831026
 20
12.4406951347
 30
0.0
 10
16.1032631279
 20
12.4423660673
 30
0.0
 10
16.1015777207
 20
12.4455329381
 30
0.0
 10
16.0987980931
 20
12.4498938427
 30
0.0
 10
16.0958834455
 20
12.4536525212
 30
0.0
 10
16.0928487649
 20
12.4567758615
 30
0.0
 10
16.0897132339
 20
12.4592411434
 30
0.0
 10
16.0864924817
 20
12.4610298807
 30
0.0
 10
16.0832048171
 20
12.462115947
 30
0.0
 10
16.0809698876
 20
12.4623605425
 30
0.0
 10
16.07987647
 20
12.4623607356
 30
0.0
  0
SPLINE
  5
37A
100
AcDbEntity
  8
0
100
AcDbSpline
 62
7
  6
CONTINUOUS
 70
0
 71
3
 72
44
 73
40
 74
0
 42
0.0000001
 43
0.0000001
 44
0.0000000001
 40
0.0
 40
0.0
 40
0.0
 40
0.0
 40
0.0107125065
 40
0.02146236
 40
0.0322863752
 40
0.0432203403
 40
0.0655380982
 40
0.0886694178
 40
0.1006084614
 40
0.1128199432
 40
0.1253208723
 40
0.1381253663
 40
0.151243785
 40
0.1646838777
 40
0.1925426622
 40
0.2217213022
 40
0.2521977231
 40
0.2839180442
 40
0.3168038224
 40
0.3507528741
 40
0.3856461597
 40
0.4213476836
 40
0.4577105341
 40
0.4945768109
 40
0.5317825429
 40
0.5691582415
 40
0.6065327187
 40
0.6437342889
 40
0.6805941034
 40
0.7169477219
 40
0.7526380055
 40
0.7875165548
 40
0.8214492579
 40
0.8543169167
 40
0.8860182002
 40
0.9164716772
 40
0.9456311162
 40
0.9734768235
 40
1.0
 40
1.0
 40
1.0
 40
1.0
 10
14.6063258997
 20
12.8000775432
 30
0.0
 10
14.6085625011
 20
12.8073141792
 30
0.0
 10
14.6135701543
 20
12.8216558736
 30
0.0
 10
14.6226341875
 20
12.8426277649
 30
0.0
 10
14.6332417456
 20
12.8630413416
 30
0.0
 10
14.6495271276
 20
12.8896372787
 30
0.0
 10
14.6738244345
 20
12.9214049214
 30
0.0
 10
14.7024926739
 20
12.9502733511
 30
0.0
 10
14.7280587929
 20
12.9718369374
 30
0.0
 10
14.7487947693
 20
12.9874038311
 30
0.0
 10
14.7708515292
 20
13.0021623466
 30
0.0
 10
14.7941932248
 20
13.0160868062
 30
0.0
 10
14.8187779115
 20
13.0291568056
 30
0.0
 10
14.853571495
 20
13.0456110939
 30
0.0
 10
14.9000241109
 20
13.0638339295
 30
0.0
 10
14.9593264777
 20
13.0817063649
 30
0.0
 10
15.0224525969
 20
13.0957202164
 30
0.0
 10
15.0889713208
 20
13.1057929909
 30
0.0
 10
15.1584355531
 20
13.1118493496
 30
0.0
 10
15.2303746555
 20
13.1138603713
 30
0.0
 10
15.3043010751
 20
13.1118023417
 30
0.0
 10
15.3797139549
 20
13.1057005424
 30
0.0
 10
15.4560998201
 20
13.0955861786
 30
0.0
 10
15.5329410284
 20
13.0815378651
 30
0.0
 10
15.6097130879
 20
13.063642397
 30
0.0
 10
15.6858955981
 20
13.0420291246
 30
0.0
 10
15.7609682227
 20
13.0168388604
 30
0.0
 10
15.8344218026
 20
12.9882478852
 30
0.0
 10
15.905755303
 20
12.9564473571
 30
0.0
 10
15.9744842157
 20
12.921655099
 30
0.0
 10
16.0401407268
 20
12.88410778
 30
0.0
 10
16.1022781333
 20
12.8440594811
 30
0.0
 10
16.160476378
 20
12.8017835167
 30
0.0
 10
16.2143374919
 20
12.757560704
 30
0.0
 10
16.2635008197
 20
12.711696711
 30
0.0
 10
16.3076294359
 20
12.6644925586
 30
0.0
 10
16.3464316017
 20
12.6162611828
 30
0.0
 10
16.3796216232
 20
12.5673295042
 30
0.0
 10
16.3983135656
 20
12.5336603061
 30
0.0
 10
16.4065752719
 20
12.5168247187
 30
0.0
  0
SPLINE
  5
37B
100
AcDbEntity
  8
0
100
AcDbSpline
 62
7
  6
CONTINUOUS
 70
0
 71
3
 72
23
 73
19
 74
0
 42
0.0000001
 43
0.0000001
 44
0.0000000001
 40
0.0
 40
0.0
 40
0.0
 40
0.0
 40
0.0653273558
 40
0.132661022
 40
0.2013592614
 40
0.2708799472
 40
0.340663411
 40
0.4100878232
 40
0.4785508874
 40
0.5455082436
 40
0.6104910221
 40
0.6731326926
 40
0.7903805663
 40
0.8453542367
 40
0.8982018569
 40
0.949489161
 40
0.9747975844
 40
1.0
 40
1.0
 40
1.0
 40
1.0
 10
15.2991465746
 20
12.8487820789
 30
0.0
 10
15.2949216056
 20
12.8487820789
 30
0.0
 10
15.2863357934
 20
12.8482763686
 30
0.0
 10
15.2734693333
 20
12.8461253508
 30
0.0
 10
15.2606302018
 20
12.8425905077
 30
0.0
 10
15.2480564721
 20
12.8377485729
 30
0.0
 10
15.2359736313
 20
12.8316811918
 30
0.0
 10
15.2245951118
 20
12.8245048955
 30
0.0
 10
15.2141326101
 20
12.8163405428
 30
0.0
 10
15.2047715333
 20
12.8073430992
 30
0.0
 10
15.1966831313
 20
12.7976628368
 30
0.0
 10
15.1879902845
 20
12.7844006482
 30
0.0
 10
15.1820472621
 20
12.7701697603
 30
0.0
 10
15.1796408191
 20
12.7557592058
 30
0.0
 10
15.1796276412
 20
12.7454190817
 30
0.0
 10
15.1811021165
 20
12.7371271323
 30
0.0
 10
15.1831464073
 20
12.7308607683
 30
0.0
 10
15.1844491721
 20
12.727858586
 30
0.0
 10
15.1851674459
 20
12.7263954473
 30
0.0
  0
SPLINE
  5
37C
100
AcDbEntity
  8
0
100
AcDbSpline
 62
7
  6
CONTINUOUS
 70
0
 71
3
 72
11
 73
7
 74
0
 42
0.0000001
 43
0.0000001
 44
0.0000000001
 40
0.0
 40
0.0
 40
0.0
 40
0.0
 40
0.2470742596
 40
0.495393436
 40
0.7460350639
 40
1.0
 40
1.0
 40
1.0
 40
1.0
 10
14.5585542753
 20
12.8148400917
 30
0.0
 10
14.5557781673
 20
12.8058571894
 30
0.0
 10
14.5509788012
 20
12.7875988923
 30
0.0
 10
14.5461170065
 20
12.7595959287
 30
0.0
 10
14.543585708
 20
12.731024639
 30
0.0
 10
14.5434567324
 20
12.711798574
 30
0.0
 10
14.5437722099
 20
12.7021394181
 30
0.0
  0
SPLINE
  5
37D
100
AcDbEntity
  8
0
100
AcDbSpline
 62
7
  6
CONTINUOUS
 70
0
 71
3
 72
34
 73
30
 74
0
 42
0.0000001
 43
0.0000001
 44
0.0000000001
 40
0.0
 40
0.0
 40
0.0
 40
0.0
 40
0.062398105
 40
0.0936606887
 40
0.1249059874
 40
0.1561419233
 40
0.1873780214
 40
0.2497831992
 40
0.2810293024
 40
0.3122787144
 40
0.3435278774
 40
0.3747794647
 40
0.406035955
 40
0.4372976745
 40
0.4685675024
 40
0.4998427745
 40
0.5623310423
 40
0.5936175639
 40
0.6249067756
 40
0.6561984219
 40
0.6874900173
 40
0.7499963288
 40
0.7812779826
 40
0.8125524746
 40
0.8438157388
 40
0.8750704765
 40
0.906326636
 40
0.9375970792
 40
1.0
 40
1.0
 40
1.0
 40
1.0
 10
16.1390451085
 20
13.3497669098
 30
0.0
 10
16.1416320442
 20
13.3567506129
 30
0.0
 10
16.1465819933
 20
13.3668823167
 30
0.0
 10
16.1550564079
 20
13.3791680935
 30
0.0
 10
16.1623152295
 20
13.3877088863
 30
0.0
 10
16.1703880041
 20
13.3954796285
 30
0.0
 10
16.1821253278
 20
13.4046963182
 30
0.0
 10
16.19519892
 20
13.4121027674
 30
0.0
 10
16.2091452523
 20
13.4174216934
 30
0.0
 10
16.2199625867
 20
13.4203567019
 30
0.0
 10
16.2310180977
 20
13.4221980367
 30
0.0
 10
16.2422028013
 20
13.4229298377
 30
0.0
 10
16.2534066368
 20
13.4225574921
 30
0.0
 10
16.2645206051
 20
13.4210789468
 30
0.0
 10
16.2754393221
 20
13.418518075
 30
0.0
 10
16.2895862596
 20
13.4137113415
 30
0.0
 10
16.3029654899
 20
13.4068479597
 30
0.0
 10
16.3151443755
 20
13.3981876941
 30
0.0
 10
16.323621704
 20
13.3908353663
 30
0.0
 10
16.3313596368
 20
13.3827079498
 30
0.0
 10
16.3405848769
 20
13.3709473861
 30
0.0
 10
16.3480794798
 20
13.3579097825
 30
0.0
 10
16.3535880221
 20
13.344017989
 30
0.0
 10
16.3567033455
 20
13.3332433204
 30
0.0
 10
16.3587665401
 20
13.3222229422
 30
0.0
 10
16.3597486012
 20
13.3110564456
 30
0.0
 10
16.3596413391
 20
13.2998443563
 30
0.0
 10
16.358033358
 20
13.2850044375
 30
0.0
 10
16.3551882503
 20
13.2740929918
 30
0.0
 10
16.3526011149
 20
13.2671087498
 30
0.0
  0
SPLINE
  5
37E
100
AcDbEntity
  8
0
100
AcDbSpline
 62
7
  6
CONTINUOUS
 70
0
 71
3
 72
17
 73
13
 74
0
 42
0.0000001
 43
0.0000001
 44
0.0000000001
 40
0.0
 40
0.0
 40
0.0
 40
0.0
 40
0.1249116381
 40
0.1874984274
 40
0.2500573058
 40
0.3749954372
 40
0.4999453561
 40
0.6249001176
 40
0.7498636458
 40
0.8124431649
 40
0.8750511861
 40
1.0
 40
1.0
 40
1.0
 40
1.0
 10
16.3526011149
 20
13.2671087498
 30
0.0
 10
16.3504014912
 20
13.2611706357
 30
0.0
 10
16.3463295244
 20
13.2525159025
 30
0.0
 10
16.339524197
 20
13.2418077754
 30
0.0
 10
16.3318267097
 20
13.2317165357
 30
0.0
 10
16.3206360263
 20
13.2203890443
 30
0.0
 10
16.3050975839
 20
13.2092928533
 30
0.0
 10
16.2879058013
 20
13.2009832496
 30
0.0
 10
16.2725985039
 20
13.1965911722
 30
0.0
 10
16.2600504711
 20
13.1946642327
 30
0.0
 10
16.2473878607
 20
13.1938082971
 30
0.0
 10
16.2378371471
 20
13.1943609646
 30
0.0
 10
16.2315665826
 20
13.1952573105
 30
0.0
  0
SPLINE
  5
37F
100
AcDbEntity
  8
0
100
AcDbSpline
 62
7
  6
CONTINUOUS
 70
0
 71
3
 72
39
 73
35
 74
0
 42
0.0000001
 43
0.0000001
 44
0.0000000001
 40
0.0
 40
0.0
 40
0.0
 40
0.0
 40
0.0265217726
 40
0.0543710658
 40
0.08353562
 40
0.1139913108
 40
0.1456941754
 40
0.1785650238
 40
0.2125011932
 40
0.2473826767
 40
0.283075607
 40
0.3194329024
 40
0.3562963108
 40
0.3935017124
 40
0.4682379168
 40
0.5422948703
 40
0.6143415176
 40
0.6492374901
 40
0.6831887886
 40
0.7160769701
 40
0.7477991245
 40
0.7782776874
 40
0.8074578588
 40
0.835318567
 40
0.8618711199
 40
0.8871698385
 40
0.9113120801
 40
0.9344450652
 40
0.9456983304
 40
0.9567762587
 40
0.9677107215
 40
0.9785356238
 40
0.9892864409
 40
1.0
 40
1.0
 40
1.0
 40
1.0
 10
14.8221101204
 20
12.2056970618
 30
0.0
 10
14.8277628534
 20
12.1941780031
 30
0.0
 10
14.8405543038
 20
12.1711397077
 30
0.0
 10
14.8632651689
 20
12.1376547458
 30
0.0
 10
14.889818428
 20
12.1046483099
 30
0.0
 10
14.9200156602
 20
12.0723454433
 30
0.0
 10
14.9536590753
 20
12.0409621749
 30
0.0
 10
14.9905159288
 20
12.0106999275
 30
0.0
 10
15.0303415721
 20
11.9817700787
 30
0.0
 10
15.072862258
 20
11.9543645514
 30
0.0
 10
15.1177917051
 20
11.92867132
 30
0.0
 10
15.1648231832
 20
11.904862884
 30
0.0
 10
15.2136385438
 20
11.8831007779
 30
0.0
 10
15.2807489078
 20
11.8569800445
 30
0.0
 10
15.3668552776
 20
11.8303372898
 30
0.0
 10
15.4715959624
 20
11.808485107
 30
0.0
 10
15.5588226335
 20
11.7990445473
 30
0.0
 10
15.6269899775
 20
11.7971455304
 30
0.0
 10
15.6762183277
 20
11.798523154
 30
0.0
 10
15.7237518288
 20
11.8026667447
 30
0.0
 10
15.769269953
 20
11.8095609351
 30
0.0
 10
15.812465992
 20
11.8191495661
 30
0.0
 10
15.8530471316
 20
11.8313813014
 30
0.0
 10
15.8907419783
 20
11.8461684028
 30
0.0
 10
15.9252930015
 20
11.8634256325
 30
0.0
 10
15.9564677726
 20
11.883039864
 30
0.0
 10
15.984044759
 20
11.9048905837
 30
0.0
 10
16.0040518257
 20
11.925041801
 30
0.0
 10
16.0179682644
 20
11.9420930209
 30
0.0
 10
16.0272985513
 20
11.9552220394
 30
0.0
 10
16.0356001028
 20
11.9687820003
 30
0.0
 10
16.0428598629
 20
11.9827498216
 30
0.0
 10
16.049063966
 20
11.9971005496
 30
0.0
 10
16.0524895109
 20
12.0069151629
 30
0.0
 10
16.054019356
 20
12.0118674951
 30
0.0
  0
SPLINE
  5
380
100
AcDbEntity
  8
0
100
AcDbSpline
 62
7
  6
CONTINUOUS
 70
0
 71
3
 72
37
 73
33
 74
0
 42
0.0000001
 43
0.0000001
 44
0.0000000001
 40
0.0
 40
0.0
 40
0.0
 40
0.0
 40
0.0265203289
 40
0.0543712252
 40
0.0835386029
 40
0.1139955517
 40
0.1456978914
 40
0.1785697107
 40
0.2125070713
 40
0.2473905343
 40
0.3194184089
 40
0.3934666727
 40
0.4682045772
 40
0.505414747
 40
0.5422854056
 40
0.5786522877
 40
0.6143583174
 40
0.6492550275
 40
0.6832085545
 40
0.7160972425
 40
0.7478216358
 40
0.7783007509
 40
0.8074827323
 40
0.8353442526
 40
0.8487855647
 40
0.8619052793
 40
0.8872050431
 40
0.9113477691
 40
0.9344816825
 40
0.9568010603
 40
0.9785484872
 40
1.0
 40
1.0
 40
1.0
 40
1.0
 10
15.8585340039
 20
12.2056970618
 30
0.0
 10
15.8544982242
 20
12.2139211163
 30
0.0
 10
15.8453647413
 20
12.2303700355
 30
0.0
 10
15.8291490563
 20
12.2542789533
 30
0.0
 10
15.8101897707
 20
12.2778474068
 30
0.0
 10
15.7886279338
 20
12.3009118072
 30
0.0
 10
15.7646070017
 20
12.3233202988
 30
0.0
 10
15.7382900342
 20
12.3449260286
 30
0.0
 10
15.7098547345
 20
12.3655849398
 30
0.0
 10
15.6689402428
 20
12.3919511154
 30
0.0
 10
15.6137517098
 20
12.4215590195
 30
0.0
 10
15.5432339497
 20
12.450917911
 30
0.0
 10
15.4817561163
 20
12.4699424588
 30
0.0
 10
15.4316759926
 20
12.481614923
 30
0.0
 10
15.3941308528
 20
12.4884809535
 30
0.0
 10
15.3568083686
 20
12.4934200139
 30
0.0
 10
15.3199618675
 20
12.4964046717
 30
0.0
 10
15.2838411499
 20
12.4974063677
 30
0.0
 10
15.2486918246
 20
12.4964275253
 30
0.0
 10
15.2147518172
 20
12.4934646651
 30
0.0
 10
15.1822507186
 20
12.488546043
 30
0.0
 10
15.1514078674
 20
12.4816965732
 30
0.0
 10
15.1224327711
 20
12.4729652545
 30
0.0
 10
15.0997364766
 20
12.4640615793
 30
0.0
 10
15.0827364216
 20
12.4560214683
 30
0.0
 10
15.0669139449
 20
12.4476096042
 30
0.0
 10
15.0485867052
 20
12.4360802845
 30
0.0
 10
15.0288977379
 20
12.4204752925
 30
0.0
 10
15.0119121082
 20
12.4033756318
 30
0.0
 10
14.9977684723
 20
12.3848809531
 30
0.0
 10
14.9865711718
 20
12.3651313833
 30
0.0
 10
14.9811217206
 20
12.3511736962
 30
0.0
 10
14.9789346269
 20
12.3440938102
 30
0.0
  0
SPLINE
  5
381
100
AcDbEntity
  8
0
100
AcDbSpline
 62
7
  6
CONTINUOUS
 70
0
 71
3
 72
17
 73
13
 74
0
 42
0.0000001
 43
0.0000001
 44
0.0000000001
 40
0.0
 40
0.0
 40
0.0
 40
0.0
 40
0.0517836222
 40
0.1041705078
 40
0.1573932418
 40
0.2116703378
 40
0.3241190777
 40
0.4429834854
 40
0.5693501804
 40
0.7040052407
 40
0.8474629148
 40
1.0
 40
1.0
 40
1.0
 40
1.0
 10
16.8389764176
 20
12.1713548108
 30
0.0
 10
16.8369011585
 20
12.1646393862
 30
0.0
 10
16.8321969342
 20
12.1512877985
 30
0.0
 10
16.8235710901
 20
12.131722161
 30
0.0
 10
16.8133523955
 20
12.1125535705
 30
0.0
 10
16.7974383593
 20
12.0872686196
 30
0.0
 10
16.7733875042
 20
12.0567080946
 30
0.0
 10
16.7387487042
 20
12.0225354992
 30
0.0
 10
16.6981611793
 20
11.990577732
 30
0.0
 10
16.6518190462
 20
11.9609933034
 30
0.0
 10
16.5999379635
 20
11.9339269173
 30
0.0
 10
16.5629489284
 20
11.9181376091
 30
0.0
 10
16.5436456008
 20
11.9106507334
 30
0.0
  0
SPLINE
  5
382
100
AcDbEntity
  8
0
100
AcDbSpline
 62
7
  6
CONTINUOUS
 70
0
 71
3
 72
13
 73
9
 74
0
 42
0.0000001
 43
0.0000001
 44
0.0000000001
 40
0.0
 40
0.0
 40
0.0
 40
0.0
 40
0.1182634521
 40
0.2372232261
 40
0.3575723836
 40
0.4799685957
 40
0.7329918571
 40
1.0
 40
1.0
 40
1.0
 40
1.0
 10
14.7017168724
 20
13.5425770738
 30
0.0
 10
14.7005770425
 20
13.5388907159
 30
0.0
 10
14.6986390543
 20
13.5313834102
 30
0.0
 10
14.696792763
 20
13.5198478636
 30
0.0
 10
14.6960055011
 20
13.5080560366
 30
0.0
 10
14.6963745593
 20
13.49186602
 30
0.0
 10
14.699606875
 20
13.4710532649
 30
0.0
 10
14.7047997837
 20
13.4548288354
 30
0.0
 10
14.7080073618
 20
13.4467292262
 30
0.0
  0
SPLINE
  5
383
100
AcDbEntity
  8
0
100
AcDbSpline
 62
7
  6
CONTINUOUS
 70
0
 71
3
 72
13
 73
9
 74
0
 42
0.0000001
 43
0.0000001
 44
0.0000000001
 40
0.0
 40
0.0
 40
0.0
 40
0.0
 40
0.1206414174
 40
0.2416800799
 40
0.3635777794
 40
0.4867770448
 40
0.7385382128
 40
1.0
 40
1.0
 40
1.0
 40
1.0
 10
16.4331082178
 20
11.7789447071
 30
0.0
 10
16.4341632956
 20
11.7823589404
 30
0.0
 10
16.4359938368
 20
11.7892897983
 30
0.0
 10
16.4378804114
 20
11.7999043608
 30
0.0
 10
16.4389071674
 20
11.8107132875
 30
0.0
 10
16.4391287176
 20
11.8254424838
 30
0.0
 10
16.4372101611
 20
11.8442712199
 30
0.0
 10
16.4335113163
 20
11.8590713496
 30
0.0
 10
16.4311632371
 20
11.8664516254
 30
0.0
  0
SPLINE
  5
384
100
AcDbEntity
  8
0
100
AcDbSpline
 62
7
  6
CONTINUOUS
 70
0
 71
3
 72
15
 73
11
 74
0
 42
0.0000001
 43
0.0000001
 44
0.0000000001
 40
0.0
 40
0.0
 40
0.0
 40
0.0
 40
0.1169842075
 40
0.2348367551
 40
0.3543288519
 40
0.4762143988
 40
0.6011821741
 40
0.7298259105
 40
0.8626352542
 40
1.0
 40
1.0
 40
1.0
 40
1.0
 10
16.9160378114
 20
12.4207255282
 30
0.0
 10
16.9207943057
 20
12.4361175496
 30
0.0
 10
16.9286892381
 20
12.46755392
 30
0.0
 10
16.9355080839
 20
12.5159571384
 30
0.0
 10
16.9372887462
 20
12.5654831214
 30
0.0
 10
16.934045925
 20
12.6159096275
 30
0.0
 10
16.9258090883
 20
12.6670353665
 30
0.0
 10
16.912631576
 20
12.7186633905
 30
0.0
 10
16.8945857187
 20
12.7705985153
 30
0.0
 10
16.8796204651
 20
12.804708611
 30
0.0
 10
16.8714005557
 20
12.8217462339
 30
0.0
  0
SPLINE
  5
385
100
AcDbEntity
  8
0
100
AcDbSpline
 62
7
  6
CONTINUOUS
 70
0
 71
3
 72
9
 73
5
 74
0
 42
0.0000001
 43
0.0000001
 44
0.0000000001
 40
0.0
 40
0.0
 40
0.0
 40
0.0
 40
0.244835537
 40
1.0
 40
1.0
 40
1.0
 40
1.0
 10
16.8714005557
 20
12.8217462339
 30
0.0
 10
16.8680261328
 20
12.8287404893
 30
0.0
 10
16.8538205896
 20
12.8571024273
 30
0.0
 10
16.8379695989
 20
12.8846331248
 30
0.0
 10
16.8252270944
 20
12.9049147623
 30
0.0
  0
SPLINE
  5
386
100
AcDbEntity
  8
0
100
AcDbSpline
 62
7
  6
CONTINUOUS
 70
0
 71
3
 72
15
 73
11
 74
0
 42
0.0000001
 43
0.0000001
 44
0.0000000001
 40
0.0
 40
0.0
 40
0.0
 40
0.0
 40
0.1106450679
 40
0.225654538
 40
0.3449840245
 40
0.4685142073
 40
0.5960543981
 40
0.7273572464
 40
0.862120347
 40
1.0
 40
1.0
 40
1.0
 40
1.0
 10
16.8252270944
 20
12.9049147623
 30
0.0
 10
16.8125080541
 20
12.9251590528
 30
0.0
 10
16.784972338
 20
12.9654613027
 30
0.0
 10
16.7387045677
 20
13.0239756519
 30
0.0
 10
16.6869048724
 20
13.0814590364
 30
0.0
 10
16.6298287831
 20
13.1376305227
 30
0.0
 10
16.5677608328
 20
13.192228161
 30
0.0
 10
16.5010019817
 20
13.2449846761
 30
0.0
 10
16.4298862502
 20
13.2956495104
 30
0.0
 10
16.3803167612
 20
13.3275324588
 30
0.0
 10
16.3549035055
 20
13.3430822973
 30
0.0
  0
SPLINE
  5
387
100
AcDbEntity
  8
0
100
AcDbSpline
 62
7
  6
CONTINUOUS
 70
0
 71
3
 72
14
 73
10
 74
0
 42
0.0000001
 43
0.0000001
 44
0.0000000001
 40
0.0
 40
0.0
 40
0.0
 40
0.0
 40
0.2472139125
 40
0.3723514498
 40
0.4980553244
 40
0.6239994175
 40
0.7498725594
 40
0.8753408795
 40
1.0
 40
1.0
 40
1.0
 40
1.0
 10
16.2181429622
 20
13.4197315922
 30
0.0
 10
16.1684583843
 20
13.4451980031
 30
0.0
 10
16.0921077941
 20
13.4806876605
 30
0.0
 10
15.9876483641
 20
13.5224457026
 30
0.0
 10
15.9075213899
 20
13.5511520896
 30
0.0
 10
15.8262546831
 20
13.5769972458
 30
0.0
 10
15.7441602646
 20
13.5998853468
 30
0.0
 10
15.6615740756
 20
13.6197167951
 30
0.0
 10
15.6061877357
 20
13.6308997698
 30
0.0
 10
15.5784924399
 20
13.6359562043
 30
0.0
  0
SPLINE
  5
388
100
AcDbEntity
  8
0
100
AcDbSpline
 62
7
  6
CONTINUOUS
 70
0
 71
3
 72
34
 73
30
 74
0
 42
0.0000001
 43
0.0000001
 44
0.0000000001
 40
0.0
 40
0.0
 40
0.0
 40
0.0
 40
0.0276085869
 40
0.0564356141
 40
0.0864427274
 40
0.1175866334
 40
0.1830467802
 40
0.2521792552
 40
0.2878362277
 40
0.3240301389
 40
0.3606158103
 40
0.3974394149
 40
0.4711534688
 40
0.5439393888
 40
0.6145997957
 40
0.6488049402
 40
0.6820949355
 40
0.7143699551
 40
0.7455533959
 40
0.7755860436
 40
0.8044393203
 40
0.8321125787
 40
0.8586368404
 40
0.8840823456
 40
0.9085566099
 40
0.9321957935
 40
0.9551728771
 40
0.9776976521
 40
1.0
 40
1.0
 40
1.0
 40
1.0
 10
15.4967298694
 20
13.7740177491
 30
0.0
 10
15.4929471471
 20
13.7804790698
 30
0.0
 10
15.4846079974
 20
13.7933387671
 30
0.0
 10
15.4702929591
 20
13.8119302164
 30
0.0
 10
15.4539975821
 20
13.8301216883
 30
0.0
 10
15.4293732628
 20
13.8540823869
 30
0.0
 10
15.39420667
 20
13.8822581979
 30
0.0
 10
15.3551392799
 20
13.907026082
 30
0.0
 10
15.3213953166
 20
13.925028259
 30
0.0
 10
15.2947946574
 20
13.9375929698
 30
0.0
 10
15.2673333408
 20
13.9489958063
 30
0.0
 10
15.2298008296
 20
13.9625648646
 30
0.0
 10
15.1819115639
 20
13.976204623
 30
0.0
 10
15.1239388283
 20
13.9870254852
 30
0.0
 10
15.0758547448
 20
13.9912445624
 30
0.0
 10
15.0383736857
 20
13.9915345223
 30
0.0
 10
15.0113326907
 20
13.9902410808
 30
0.0
 10
14.9852294033
 20
13.9874382403
 30
0.0
 10
14.9602232947
 20
13.983144843
 30
0.0
 10
14.9364679699
 20
13.9773730651
 30
0.0
 10
14.9141079963
 20
13.9701513205
 30
0.0
 10
14.8932797466
 20
13.9615105528
 30
0.0
 10
14.8741157756
 20
13.9514819132
 30
0.0
 10
14.8567389808
 20
13.9401104077
 30
0.0
 10
14.8412794266
 20
13.9274375496
 30
0.0
 10
14.8278559875
 20
13.9135343037
 30
0.0
 10
14.8165959185
 20
13.8984743288
 30
0.0
 10
14.8076184422
 20
13.8823651943
 30
0.0
 10
14.8032026904
 20
13.8709886865
 30
0.0
 10
14.8014169847
 20
13.8652101405
 30
0.0
  0
SPLINE
  5
389
100
AcDbEntity
  8
0
100
AcDbSpline
 62
7
  6
CONTINUOUS
 70
0
 71
3
 72
20
 73
16
 74
0
 42
0.0000001
 43
0.0000001
 44
0.0000000001
 40
0.0
 40
0.0
 40
0.0
 40
0.0
 40
0.1411440301
 40
0.2095524964
 40
0.2765602667
 40
0.4065425378
 40
0.531651465
 40
0.5926155721
 40
0.6526402385
 40
0.711840234
 40
0.7703393018
 40
0.8282696977
 40
0.8857661161
 40
0.9429634453
 40
1.0
 40
1.0
 40
1.0
 40
1.0
 10
14.6662317751
 20
13.5717980633
 30
0.0
 10
14.6443246808
 20
13.5622530536
 30
0.0
 10
14.6123211135
 20
13.5468184488
 30
0.0
 10
14.5715464872
 20
13.5237766997
 30
0.0
 10
14.533443623
 20
13.4999373549
 30
0.0
 10
14.4892558689
 20
13.4678290991
 30
0.0
 10
14.4492982537
 20
13.4320765333
 30
0.0
 10
14.4206371553
 20
13.4018093167
 30
0.0
 10
14.4009386155
 20
13.3784923652
 30
0.0
 10
14.3828839749
 20
13.3544000067
 30
0.0
 10
14.3665003846
 20
13.3295641018
 30
0.0
 10
14.3518177214
 20
13.3040177958
 30
0.0
 10
14.3388592809
 20
13.2777999274
 30
0.0
 10
14.3276442348
 20
13.2509552462
 30
0.0
 10
14.3213384455
 20
13.2326553349
 30
0.0
 10
14.318487391
 20
13.2234293194
 30
0.0
  0
SPLINE
  5
38A
100
AcDbEntity
  8
0
100
AcDbSpline
 62
7
  6
CONTINUOUS
 70
0
 71
3
 72
24
 73
20
 74
0
 42
0.0000001
 43
0.0000001
 44
0.0000000001
 40
0.0
 40
0.0
 40
0.0
 40
0.0
 40
0.0489944526
 40
0.1006007321
 40
0.12738536
 40
0.1548159741
 40
0.2115721229
 40
0.2707528164
 40
0.332160803
 40
0.3955491105
 40
0.460631593
 40
0.5270857596
 40
0.594564035
 40
0.6627005851
 40
0.731117219
 40
0.7994316239
 40
0.8672624436
 40
0.9342378765
 40
1.0
 40
1.0
 40
1.0
 40
1.0
 10
16.7539578013
 20
13.107990959
 30
0.0
 10
16.7430042912
 20
13.1303118658
 30
0.0
 10
16.717928864
 20
13.1749058537
 30
0.0
 10
16.6808405905
 20
13.2279665458
 30
0.0
 10
16.6472485298
 20
13.2698829109
 30
0.0
 10
16.610203737
 20
13.3123187929
 30
0.0
 10
16.5590583923
 20
13.3641748618
 30
0.0
 10
16.4912967298
 20
13.4235125391
 30
0.0
 10
16.4170071167
 20
13.4801736828
 30
0.0
 10
16.3368129368
 20
13.5337046865
 30
0.0
 10
16.2513724784
 20
13.5836662837
 30
0.0
 10
16.1613933084
 20
13.6296492422
 30
0.0
 10
16.0676229004
 20
13.6712780886
 30
0.0
 10
15.9708369702
 20
13.708201985
 30
0.0
 10
15.8718422492
 20
13.7401223015
 30
0.0
 10
15.771459987
 20
13.7667685347
 30
0.0
 10
15.6705232091
 20
13.7879202214
 30
0.0
 10
15.569874992
 20
13.8034042657
 30
0.0
 10
15.5027866258
 20
13.8099278315
 30
0.0
 10
15.4694899115
 20
13.8121818604
 30
0.0
  0
SPLINE
  5
38B
100
AcDbEntity
  8
0
100
AcDbSpline
 62
7
  6
CONTINUOUS
 70
0
 71
3
 72
11
 73
7
 74
0
 42
0.0000001
 43
0.0000001
 44
0.0000000001
 40
0.0
 40
0.0
 40
0.0
 40
0.0
 40
0.2384616241
 40
0.4839786598
 40
0.7375898619
 40
1.0
 40
1.0
 40
1.0
 40
1.0
 10
16.808088394
 20
12.9286438778
 30
0.0
 10
16.8065140519
 20
12.9433309728
 30
0.0
 10
16.8018398917
 20
12.972998259
 30
0.0
 10
16.7905801474
 20
13.0173380451
 30
0.0
 10
16.775045683
 20
13.0619362381
 30
0.0
 10
16.7621211101
 20
13.0912120342
 30
0.0
 10
16.7550132456
 20
13.1058302899
 30
0.0
  0
SPLINE
  5
38C
100
AcDbEntity
  8
0
100
AcDbSpline
 62
7
  6
CONTINUOUS
 70
0
 71
3
 72
11
 73
7
 74
0
 42
0.0000001
 43
0.0000001
 44
0.0000000001
 40
0.0
 40
0.0
 40
0.0
 40
0.0
 40
0.2549994936
 40
0.5061831262
 40
0.7542458288
 40
1.0
 40
1.0
 40
1.0
 40
1.0
 10
14.2107456887
 20
12.7545137304
 30
0.0
 10
14.2104855117
 20
12.7734273783
 30
0.0
 10
14.2113413934
 20
12.8110067166
 30
0.0
 10
14.2168825535
 20
12.8667350886
 30
0.0
 10
14.2266673332
 20
12.9211819769
 30
0.0
 10
14.2360437157
 20
12.9566416367
 30
0.0
 10
14.2414260217
 20
12.9740585929
 30
0.0
  0
SPLINE
  5
38D
100
AcDbEntity
  8
0
100
AcDbSpline
 62
7
  6
CONTINUOUS
 70
0
 71
3
 72
15
 73
11
 74
0
 42
0.0000001
 43
0.0000001
 44
0.0000000001
 40
0.0
 40
0.0
 40
0.0
 40
0.0
 40
0.1164348353
 40
0.2337700118
 40
0.3528727647
 40
0.4745619104
 40
0.5995772073
 40
0.7285559203
 40
0.8619336333
 40
1.0
 40
1.0
 40
1.0
 40
1.0
 10
14.79955397
 20
12.3995266284
 30
0.0
 10
14.7972642338
 20
12.3921144177
 30
0.0
 10
14.793471165
 20
12.3769708587
 30
0.0
 10
14.7902294106
 20
12.3536416116
 30
0.0
 10
14.7894426056
 20
12.3297501469
 30
0.0
 10
14.7911094445
 20
12.3053946351
 30
0.0
 10
14.7952169158
 20
12.2806657763
 30
0.0
 10
14.8017542041
 20
12.2556628046
 30
0.0
 10
14.8106774061
 20
12.230489542
 30
0.0
 10
14.8180575307
 20
12.2139553714
 30
0.0
 10
14.8221101204
 20
12.2056970618
 30
0.0
  0
SPLINE
  5
38E
100
AcDbEntity
  8
0
100
AcDbSpline
 62
7
  6
CONTINUOUS
 70
0
 71
3
 72
15
 73
11
 74
0
 42
0.0000001
 43
0.0000001
 44
0.0000000001
 40
0.0
 40
0.0
 40
0.0
 40
0.0
 40
0.1153550017
 40
0.2343815822
 40
0.3566337381
 40
0.4816972724
 40
0.6090917036
 40
0.7383004847
 40
0.8687897415
 40
1.0
 40
1.0
 40
1.0
 40
1.0
 10
14.4286485635
 20
12.3104718425
 30
0.0
 10
14.4538462672
 20
12.2883567517
 30
0.0
 10
14.5064585038
 20
12.2450127195
 30
0.0
 10
14.5901438568
 20
12.1837712062
 30
0.0
 10
14.6793891271
 20
12.1256141537
 30
0.0
 10
14.7736131647
 20
12.0709163396
 30
0.0
 10
14.8722210003
 20
12.0200179356
 30
0.0
 10
14.9745870715
 20
11.9732468175
 30
0.0
 10
15.0800544507
 20
11.9309031249
 30
0.0
 10
15.151896204
 20
11.9058328342
 30
0.0
 10
15.1881791318
 20
11.8940953945
 30
0.0
  0
SPLINE
  5
38F
100
AcDbEntity
  8
0
100
AcDbSpline
 62
7
  6
CONTINUOUS
 70
0
 71
3
 72
9
 73
5
 74
0
 42
0.0000001
 43
0.0000001
 44
0.0000000001
 40
0.0
 40
0.0
 40
0.0
 40
0.0
 40
0.4880181599
 40
1.0
 40
1.0
 40
1.0
 40
1.0
 10
14.3197272615
 20
12.4538575959
 30
0.0
 10
14.3353405965
 20
12.4290436501
 30
0.0
 10
14.369750197
 20
12.3796912108
 30
0.0
 10
14.4081464408
 20
12.3333989936
 30
0.0
 10
14.4286485635
 20
12.3104718425
 30
0.0
  0
SPLINE
  5
390
100
AcDbEntity
  8
0
100
AcDbSpline
 62
7
  6
CONTINUOUS
 70
0
 71
3
 72
9
 73
5
 74
0
 42
0.0000001
 43
0.0000001
 44
0.0000000001
 40
0.0
 40
0.0
 40
0.0
 40
0.0
 40
0.4891349725
 40
1.0
 40
1.0
 40
1.0
 40
1.0
 10
14.2107459556
 20
12.7545106714
 30
0.0
 10
14.2128310061
 20
12.7306073484
 30
0.0
 10
14.2205038102
 20
12.6819921423
 30
0.0
 10
14.2342258962
 20
12.6347614781
 30
0.0
 10
14.2425516693
 20
12.6111249179
 30
0.0
  0
SPLINE
  5
391
100
AcDbEntity
  8
0
100
AcDbSpline
 62
7
  6
CONTINUOUS
 70
0
 71
3
 72
14
 73
10
 74
0
 42
0.0000001
 43
0.0000001
 44
0.0000000001
 40
0.0
 40
0.0
 40
0.0
 40
0.0
 40
0.1128487919
 40
0.2272076945
 40
0.3444396618
 40
0.4656140701
 40
0.7221741208
 40
0.8586964258
 40
1.0
 40
1.0
 40
1.0
 40
1.0
 10
15.3647124385
 20
12.8145033284
 30
0.0
 10
15.363421426
 20
12.8171331479
 30
0.0
 10
15.3603680329
 20
12.8222183829
 30
0.0
 10
15.3545250851
 20
12.8290376959
 30
0.0
 10
15.3475010739
 20
12.8349740941
 30
0.0
 10
15.3365188737
 20
12.8417214856
 30
0.0
 10
15.3237456048
 20
12.8461892344
 30
0.0
 10
15.3100362378
 20
12.8484110812
 30
0.0
 10
15.3028148951
 20
12.8487820789
 30
0.0
 10
15.2991465746
 20
12.8487820789
 30
0.0
  0
SPLINE
  5
392
100
AcDbEntity
  8
0
100
AcDbSpline
 62
7
  6
CONTINUOUS
 70
0
 71
3
 72
9
 73
5
 74
0
 42
0.0000001
 43
0.0000001
 44
0.0000000001
 40
0.0
 40
0.0
 40
0.0
 40
0.0
 40
0.5113210296
 40
1.0
 40
1.0
 40
1.0
 40
1.0
 10
16.2473637304
 20
11.8123794689
 30
0.0
 10
16.2788182866
 20
11.8191652278
 30
0.0
 10
16.3398924967
 20
11.8346046749
 30
0.0
 10
16.3995893826
 20
11.8547781829
 30
0.0
 10
16.4282615549
 20
11.8658989395
 30
0.0
  0
SPLINE
  5
393
100
AcDbEntity
  8
0
100
AcDbSpline
 62
7
  6
CONTINUOUS
 70
0
 71
3
 72
29
 73
25
 74
0
 42
0.0000001
 43
0.0000001
 44
0.0000000001
 40
0.0
 40
0.0
 40
0.0
 40
0.0
 40
0.0155012573
 40
0.0315038656
 40
0.0484564265
 40
0.0667114364
 40
0.0865294772
 40
0.1080862797
 40
0.1314704025
 40
0.1567164261
 40
0.1838212404
 40
0.2127326788
 40
0.2756037964
 40
0.3444509096
 40
0.4180686145
 40
0.4950678626
 40
0.5739273257
 40
0.653065755
 40
0.7308890553
 40
0.8058334792
 40
0.8764735723
 40
0.9415698853
 40
0.9716865837
 40
1.0
 40
1.0
 40
1.0
 40
1.0
 10
16.0798764705
 20
12.2623641518
 30
0.0
 10
16.0808826518
 20
12.2623639741
 30
0.0
 10
16.0829330894
 20
12.2625692632
 30
0.0
 10
16.0859594097
 20
12.2634879413
 30
0.0
 10
16.0889347603
 20
12.2650038343
 30
0.0
 10
16.0918432363
 20
12.2670970138
 30
0.0
 10
16.0946714527
 20
12.2697529813
 30
0.0
 10
16.0974046554
 20
12.272955903
 30
0.0
 10
16.1000318411
 20
12.2766846338
 30
0.0
 10
16.102538921
 20
12.2809183556
 30
0.0
 10
16.1049099624
 20
12.2856342093
 30
0.0
 10
16.1079590757
 20
12.292727296
 30
0.0
 10
16.1112959724
 20
12.3026241719
 30
0.0
 10
16.1144669023
 20
12.3155827703
 30
0.0
 10
16.1168358267
 20
12.3296414203
 30
0.0
 10
16.1183455197
 20
12.3444698173
 30
0.0
 10
16.1189570375
 20
12.359720372
 30
0.0
 10
16.1186589865
 20
12.375033698
 30
0.0
 10
16.1174541735
 20
12.3900479026
 30
0.0
 10
16.115376802
 20
12.4044106562
 30
0.0
 10
16.112473839
 20
12.4177863118
 30
0.0
 10
16.1093462416
 20
12.4281043994
 30
0.0
 10
16.1064532924
 20
12.4355855994
 30
0.0
 10
16.1048927383
 20
12.4390452706
 30
0.0
 10
16.1040831026
 20
12.4406951347
 30
0.0
  0
SPLINE
  5
394
100
AcDbEntity
  8
0
100
AcDbSpline
 62
7
  6
CONTINUOUS
 70
0
 71
3
 72
9
 73
5
 74
0
 42
0.0000001
 43
0.0000001
 44
0.0000000001
 40
0.0
 40
0.0
 40
0.0
 40
0.0
 40
0.2438245685
 40
1.0
 40
1.0
 40
1.0
 40
1.0
 10
14.2861375728
 20
12.6111295782
 30
0.0
 10
14.2898618398
 20
12.6030281914
 30
0.0
 10
14.3057204792
 20
12.5700720282
 30
0.0
 10
14.3238363101
 20
12.5382151156
 30
0.0
 10
14.3385630473
 20
12.5148102211
 30
0.0
  0
SPLINE
  5
395
100
AcDbEntity
  8
0
100
AcDbSpline
 62
7
  6
CONTINUOUS
 70
0
 71
3
 72
11
 73
7
 74
0
 42
0.0000001
 43
0.0000001
 44
0.0000000001
 40
0.0
 40
0.0
 40
0.0
 40
0.0
 40
0.2960144972
 40
0.5659712302
 40
0.800229835
 40
1.0
 40
1.0
 40
1.0
 40
1.0
 10
15.4503372152
 20
13.2845517856
 30
0.0
 10
15.4512076313
 20
13.2844045174
 30
0.0
 10
15.4528983551
 20
13.2842554009
 30
0.0
 10
15.4552904942
 20
13.2844803651
 30
0.0
 10
15.4573014937
 20
13.2851627317
 30
0.0
 10
15.458358319
 20
13.2859701623
 30
0.0
 10
15.4587415621
 20
13.2864262961
 30
0.0
  0
SPLINE
  5
396
100
AcDbEntity
  8
0
100
AcDbSpline
 62
7
  6
CONTINUOUS
 70
0
 71
3
 72
15
 73
11
 74
0
 42
0.0000001
 43
0.0000001
 44
0.0000000001
 40
0.0
 40
0.0
 40
0.0
 40
0.0
 40
0.1144091225
 40
0.2324086591
 40
0.3537144412
 40
0.4780683205
 40
0.6052004802
 40
0.7348117381
 40
0.8665617402
 40
1.0
 40
1.0
 40
1.0
 40
1.0
 10
14.8142366102
 20
13.2845517856
 30
0.0
 10
14.8381397065
 20
13.2894013117
 30
0.0
 10
14.8869861937
 20
13.297866957
 30
0.0
 10
14.9618887889
 20
13.3068278213
 30
0.0
 10
15.0392592536
 20
13.312199906
 30
0.0
 10
15.1187403147
 20
13.3139678958
 30
0.0
 10
15.1999889485
 20
13.3121201743
 30
0.0
 10
15.2826546625
 20
13.3066690015
 30
0.0
 10
15.3663552319
 20
13.2976315702
 30
0.0
 10
15.4222890725
 20
13.289297333
 30
0.0
 10
15.4503372152
 20
13.2845517856
 30
0.0
  0
SPLINE
  5
397
100
AcDbEntity
  8
0
100
AcDbSpline
 62
7
  6
CONTINUOUS
 70
0
 71
3
 72
11
 73
7
 74
0
 42
0.0000001
 43
0.0000001
 44
0.0000000001
 40
0.0
 40
0.0
 40
0.0
 40
0.0
 40
0.2577838668
 40
0.5190928071
 40
0.7704165396
 40
1.0
 40
1.0
 40
1.0
 40
1.0
 10
14.8040513033
 20
13.2863940221
 30
0.0
 10
14.8048447559
 20
13.2859584555
 30
0.0
 10
14.8065212156
 20
13.285219713
 30
0.0
 10
14.8091450993
 20
13.2845190452
 30
0.0
 10
14.811749117
 20
13.2842573399
 30
0.0
 10
14.8134465805
 20
13.2843915022
 30
0.0
 10
14.8142366102
 20
13.2845517856
 30
0.0
  0
SPLINE
  5
398
100
AcDbEntity
  8
0
100
AcDbSpline
 62
7
  6
CONTINUOUS
 70
0
 71
3
 72
15
 73
11
 74
0
 42
0.0000001
 43
0.0000001
 44
0.0000000001
 40
0.0
 40
0.0
 40
0.0
 40
0.0
 40
0.1380905442
 40
0.27146859
 40
0.4004251928
 40
0.5254272779
 40
0.6471156982
 40
0.766225668
 40
0.8835661757
 40
1.0
 40
1.0
 40
1.0
 40
1.0
 10
16.4065752719
 20
12.5168247187
 30
0.0
 10
16.4124985627
 20
12.5047543212
 30
0.0
 10
16.4232851557
 20
12.4805902807
 30
0.0
 10
16.4363266756
 20
12.4438035054
 30
0.0
 10
16.4458751688
 20
12.4072676552
 30
0.0
 10
16.4518775388
 20
12.3711338478
 30
0.0
 10
16.454314605
 20
12.335542482
 30
0.0
 10
16.4531617735
 20
12.3006277682
 30
0.0
 10
16.4484303054
 20
12.2665337281
 30
0.0
 10
16.4428864463
 20
12.244403172
 30
0.0
 10
16.4395388619
 20
12.2335718943
 30
0.0
  0
SPLINE
  5
399
100
AcDbEntity
  8
0
100
AcDbSpline
 62
7
  6
CONTINUOUS
 70
0
 71
3
 72
11
 73
7
 74
0
 42
0.0000001
 43
0.0000001
 44
0.0000000001
 40
0.0
 40
0.0
 40
0.0
 40
0.0
 40
0.2383312728
 40
0.4839128086
 40
0.7375860727
 40
1.0
 40
1.0
 40
1.0
 40
1.0
 10
14.4986366501
 20
12.6710589197
 30
0.0
 10
14.5003466279
 20
12.658274656
 30
0.0
 10
14.5050200333
 20
12.6324650191
 30
0.0
 10
14.5154935288
 20
12.5939009165
 30
0.0
 10
14.5294870708
 20
12.5550849209
 30
0.0
 10
14.5409270527
 20
12.5295737944
 30
0.0
 10
14.5471833903
 20
12.5168247187
 30
0.0
  0
SPLINE
  5
39A
100
AcDbEntity
  8
0
100
AcDbSpline
 62
7
  6
CONTINUOUS
 70
0
 71
3
 72
10
 73
6
 74
0
 42
0.0000001
 43
0.0000001
 44
0.0000000001
 40
0.0
 40
0.0
 40
0.0
 40
0.0
 40
0.4829557005
 40
0.7372354595
 40
1.0
 40
1.0
 40
1.0
 40
1.0
 10
14.5471833903
 20
12.5168247187
 30
0.0
 10
14.5603576527
 20
12.4899783945
 30
0.0
 10
14.5834783456
 20
12.450415792
 30
0.0
 10
14.6194283624
 20
12.3999808981
 30
0.0
 10
14.6394900426
 20
12.3750016308
 30
0.0
 10
14.6500109555
 20
12.3625905177
 30
0.0
  0
SPLINE
  5
39B
100
AcDbEntity
  8
0
100
AcDbSpline
 62
7
  6
CONTINUOUS
 70
0
 71
3
 72
34
 73
30
 74
0
 42
0.0000001
 43
0.0000001
 44
0.0000000001
 40
0.0
 40
0.0
 40
0.0
 40
0.0
 40
0.0274018239
 40
0.0561170838
 40
0.086103577
 40
0.1173087482
 40
0.1830803025
 40
0.2527066815
 40
0.2886592348
 40
0.3251723962
 40
0.362094968
 40
0.3992674746
 40
0.4736923589
 40
0.5471698506
 40
0.6184536686
 40
0.6529265722
 40
0.6864438653
 40
0.7188951816
 40
0.7501923092
 40
0.7802635616
 40
0.809066133
 40
0.8365853442
 40
0.8628378832
 40
0.8878831027
 40
0.9118174563
 40
0.9347867719
 40
0.9569811613
 40
0.9786312995
 40
1.0
 40
1.0
 40
1.0
 40
1.0
 10
15.6377268619
 20
11.5521600797
 30
0.0
 10
15.6414745291
 20
11.5457586372
 30
0.0
 10
15.6497547073
 20
11.5329962412
 30
0.0
 10
15.6639933385
 20
11.514514984
 30
0.0
 10
15.6802523534
 20
11.4963755573
 30
0.0
 10
15.7049069781
 20
11.4723975809
 30
0.0
 10
15.7401984475
 20
11.4441311824
 30
0.0
 10
15.779445139
 20
11.4192441764
 30
0.0
 10
15.8133872612
 20
11.4011213464
 30
0.0
 10
15.8401668771
 20
11.3884556055
 30
0.0
 10
15.8678229007
 20
11.3769510558
 30
0.0
 10
15.9056326926
 20
11.3632472109
 30
0.0
 10
15.9538777222
 20
11.3494509778
 30
0.0
 10
16.0122700348
 20
11.3384651932
 30
0.0
 10
16.0606867716
 20
11.3341253876
 30
0.0
 10
16.0984026925
 20
11.3337508421
 30
0.0
 10
16.1255798873
 20
11.3349830138
 30
0.0
 10
16.1517831443
 20
11.3377245517
 30
0.0
 10
16.1768448955
 20
11.3419495316
 30
0.0
 10
16.2006032917
 20
11.3476386284
 30
0.0
 10
16.222905557
 20
11.3547545181
 30
0.0
 10
16.2436100458
 20
11.3632505053
 30
0.0
 10
16.2625795326
 20
11.3730838041
 30
0.0
 10
16.2796953408
 20
11.3841854354
 30
0.0
 10
16.2948396293
 20
11.3964976877
 30
0.0
 10
16.3079095667
 20
11.4099429262
 30
0.0
 10
16.3188145531
 20
11.4244380669
 30
0.0
 10
16.3274620087
 20
11.4398892224
 30
0.0
 10
16.3316974088
 20
11.4507857922
 30
0.0
 10
16.3334061961
 20
11.4563122321
 30
0.0
  0
SPLINE
  5
39C
100
AcDbEntity
  8
0
100
AcDbSpline
 62
7
  6
CONTINUOUS
 70
0
 71
3
 72
9
 73
5
 74
0
 42
0.0000001
 43
0.0000001
 44
0.0000000001
 40
0.0
 40
0.0
 40
0.0
 40
0.0
 40
0.492661195
 40
1.0
 40
1.0
 40
1.0
 40
1.0
 10
14.7256507019
 20
12.3315100193
 30
0.0
 10
14.7374807523
 20
12.3190415386
 30
0.0
 10
14.7621725161
 20
12.2943708841
 30
0.0
 10
14.7880484224
 20
12.2709489812
 30
0.0
 10
14.8014410331
 20
12.2593767956
 30
0.0
  0
SPLINE
  5
39D
100
AcDbEntity
  8
0
100
AcDbSpline
 62
7
  6
CONTINUOUS
 70
0
 71
3
 72
22
 73
18
 74
0
 42
0.0000001
 43
0.0000001
 44
0.0000000001
 40
0.0
 40
0.0
 40
0.0
 40
0.0
 40
0.1525951355
 40
0.2257797044
 40
0.2967933217
 40
0.3656033232
 40
0.4322076191
 40
0.4966287989
 40
0.5589261425
 40
0.6191929837
 40
0.6775579133
 40
0.7341936888
 40
0.7893089796
 40
0.8431514609
 40
0.8960027358
 40
0.9481724829
 40
1.0
 40
1.0
 40
1.0
 40
1.0
 10
15.9761247123
 20
11.8975302906
 30
0.0
 10
16.0083513322
 20
11.9012698462
 30
0.0
 10
16.0558466851
 20
11.9088292676
 30
0.0
 10
16.1172841548
 20
11.923307657
 30
0.0
 10
16.1607933296
 20
11.9359531008
 30
0.0
 10
16.2022254477
 20
11.950498355
 30
0.0
 10
16.241450035
 20
11.9668911936
 30
0.0
 10
16.2783368423
 20
11.9850865077
 30
0.0
 10
16.3127663667
 20
12.0050244653
 30
0.0
 10
16.3446276511
 20
12.0266401945
 30
0.0
 10
16.3738108258
 20
12.0498726629
 30
0.0
 10
16.4002231546
 20
12.0746424494
 30
0.0
 10
16.4237717963
 20
12.1008757154
 30
0.0
 10
16.4443733173
 20
12.1284876648
 30
0.0
 10
16.4619617406
 20
12.157383904
 30
0.0
 10
16.4764653035
 20
12.1874690626
 30
0.0
 10
16.4840569865
 20
12.2082817035
 30
0.0
 10
16.4873104863
 20
12.2188093457
 30
0.0
  0
SPLINE
  5
39E
100
AcDbEntity
  8
0
100
AcDbSpline
 62
7
  6
CONTINUOUS
 70
0
 71
3
 72
15
 73
11
 74
0
 42
0.0000001
 43
0.0000001
 44
0.0000000001
 40
0.0
 40
0.0
 40
0.0
 40
0.0
 40
0.1380668327
 40
0.2714437679
 40
0.400420705
 40
0.5254350269
 40
0.6471243076
 40
0.7662278578
 40
0.8835640948
 40
1.0
 40
1.0
 40
1.0
 40
1.0
 10
16.1585480253
 20
12.6169436894
 30
0.0
 10
16.1626006293
 20
12.6086853508
 30
0.0
 10
16.1699807841
 20
12.5921512167
 30
0.0
 10
16.1789040385
 20
12.5669781121
 30
0.0
 10
16.1854411565
 20
12.5419753329
 30
0.0
 10
16.1895486069
 20
12.5172466525
 30
0.0
 10
16.1912156048
 20
12.4928911471
 30
0.0
 10
16.1904287208
 20
12.4689995476
 30
0.0
 10
16.1871870752
 20
12.4456700923
 30
0.0
 10
16.1833940453
 20
12.430526369
 30
0.0
 10
16.1811042783
 20
12.4231140921
 30
0.0
  0
SPLINE
  5
39F
100
AcDbEntity
  8
0
100
AcDbSpline
 62
7
  6
CONTINUOUS
 70
0
 71
3
 72
14
 73
10
 74
0
 42
0.0000001
 43
0.0000001
 44
0.0000000001
 40
0.0
 40
0.0
 40
0.0
 40
0.0
 40
0.1161560768
 40
0.233911262
 40
0.3537988934
 40
0.4763107116
 40
0.6018885767
 40
0.7309019532
 40
1.0
 40
1.0
 40
1.0
 40
1.0
 10
14.626560343
 20
12.8529766555
 30
0.0
 10
14.625180613
 20
12.843644198
 30
0.0
 10
14.6232274069
 20
12.8247189251
 30
0.0
 10
14.6227312302
 20
12.7959562374
 30
0.0
 10
14.6246559525
 20
12.7667358623
 30
0.0
 10
14.6289894601
 20
12.7371356079
 30
0.0
 10
14.6357222469
 20
12.7072270209
 30
0.0
 10
14.6480448898
 20
12.6664904079
 30
0.0
 10
14.6606003325
 20
12.6365640186
 30
0.0
 10
14.6702285916
 20
12.6169436894
 30
0.0
  0
SPLINE
  5
3A0
100
AcDbEntity
  8
0
100
AcDbSpline
 62
7
  6
CONTINUOUS
 70
0
 71
3
 72
11
 73
7
 74
0
 42
0.0000001
 43
0.0000001
 44
0.0000000001
 40
0.0
 40
0.0
 40
0.0
 40
0.0
 40
0.2331247512
 40
0.4775589732
 40
0.7332349383
 40
1.0
 40
1.0
 40
1.0
 40
1.0
 10
14.6702285916
 20
12.6169436894
 30
0.0
 10
14.6782566247
 20
12.6005842779
 30
0.0
 10
14.6963596903
 20
12.5678662643
 30
0.0
 10
14.7283950376
 20
12.5202639008
 30
0.0
 10
14.7657497476
 20
12.4733072615
 30
0.0
 10
14.7934551569
 20
12.4432515889
 30
0.0
 10
14.8080853474
 20
12.4283925367
 30
0.0
  0
SPLINE
  5
3A1
100
AcDbEntity
  8
0
100
AcDbSpline
 62
7
  6
CONTINUOUS
 70
0
 71
3
 72
18
 73
14
 74
0
 42
0.0000001
 43
0.0000001
 44
0.0000000001
 40
0.0
 40
0.0
 40
0.0
 40
0.0
 40
0.147293548
 40
0.2184010392
 40
0.2877826136
 40
0.4213241326
 40
0.5480994062
 40
0.6685056497
 40
0.7832326366
 40
0.8387926891
 40
0.8933268764
 40
0.9470022029
 40
1.0
 40
1.0
 40
1.0
 40
1.0
 10
16.0648675687
 20
12.0408314898
 30
0.0
 10
16.0874126497
 20
12.0452952753
 30
0.0
 10
16.1206239879
 20
12.0531332717
 30
0.0
 10
16.1636164253
 20
12.0661317255
 30
0.0
 10
16.203988999
 20
12.0802466828
 30
0.0
 10
16.2513877005
 20
12.1004507183
 30
0.0
 10
16.3035478467
 20
12.1291083305
 30
0.0
 10
16.3498347763
 20
12.1616702175
 30
0.0
 10
16.3835712348
 20
12.1921954474
 30
0.0
 10
16.4070695748
 20
12.21827412
 30
0.0
 10
16.422823977
 20
12.2384217927
 30
0.0
 10
16.4368594184
 20
12.2593212707
 30
0.0
 10
16.4450932499
 20
12.273808177
 30
0.0
 10
16.4489014705
 20
12.2811485444
 30
0.0
  0
SPLINE
  5
3A2
100
AcDbEntity
  8
0
100
AcDbSpline
 62
7
  6
CONTINUOUS
 70
0
 71
3
 72
11
 73
7
 74
0
 42
0.0000001
 43
0.0000001
 44
0.0000000001
 40
0.0
 40
0.0
 40
0.0
 40
0.0
 40
0.3299251072
 40
0.6056769433
 40
0.8262772168
 40
1.0
 40
1.0
 40
1.0
 40
1.0
 10
15.5775979668
 20
13.6318576422
 30
0.0
 10
15.5777234141
 20
13.6322635896
 30
0.0
 10
15.5779211669
 20
13.6330198567
 30
0.0
 10
15.5780592667
 20
13.6340790327
 30
0.0
 10
15.5780194329
 20
13.6349463783
 30
0.0
 10
15.5778589395
 20
13.6354400694
 30
0.0
 10
15.5777459187
 20
13.6356331488
 30
0.0
  0
SPLINE
  5
3A3
100
AcDbEntity
  8
0
100
AcDbSpline
 62
7
  6
CONTINUOUS
 70
0
 71
3
 72
39
 73
35
 74
0
 42
0.0000001
 43
0.0000001
 44
0.0000000001
 40
0.0
 40
0.0
 40
0.0
 40
0.0
 40
0.0265217726
 40
0.0543710658
 40
0.08353562
 40
0.1139913108
 40
0.1456941754
 40
0.1785650238
 40
0.2125011932
 40
0.2473826767
 40
0.283075607
 40
0.3194329024
 40
0.3562963108
 40
0.3935017124
 40
0.4682379168
 40
0.5422948703
 40
0.6143415176
 40
0.6492374901
 40
0.6831887886
 40
0.7160769701
 40
0.7477991245
 40
0.7782776874
 40
0.8074578588
 40
0.835318567
 40
0.8618711199
 40
0.8871698385
 40
0.9113120801
 40
0.9344450652
 40
0.9456983304
 40
0.9567762587
 40
0.9677107215
 40
0.9785356238
 40
0.9892864409
 40
1.0
 40
1.0
 40
1.0
 40
1.0
 10
16.0314632055
 20
12.2056970618
 30
0.0
 10
16.0258104726
 20
12.2172161205
 30
0.0
 10
16.0130190221
 20
12.2402544159
 30
0.0
 10
15.990308157
 20
12.2737393778
 30
0.0
 10
15.9637548979
 20
12.3067458137
 30
0.0
 10
15.9335576658
 20
12.3390486803
 30
0.0
 10
15.8999142506
 20
12.3704319487
 30
0.0
 10
15.8630573971
 20
12.4006941961
 30
0.0
 10
15.8232317538
 20
12.4296240449
 30
0.0
 10
15.7807110679
 20
12.4570295722
 30
0.0
 10
15.7357816209
 20
12.4827228036
 30
0.0
 10
15.6887501427
 20
12.5065312396
 30
0.0
 10
15.6399347822
 20
12.5282933457
 30
0.0
 10
15.5728244181
 20
12.5544140791
 30
0.0
 10
15.4867180484
 20
12.5810568338
 30
0.0
 10
15.3819773636
 20
12.6029090166
 30
0.0
 10
15.2947506925
 20
12.6123495763
 30
0.0
 10
15.2265833485
 20
12.6142485932
 30
0.0
 10
15.1773549983
 20
12.6128709696
 30
0.0
 10
15.1298214972
 20
12.6087273789
 30
0.0
 10
15.084303373
 20
12.6018331885
 30
0.0
 10
15.0411073339
 20
12.5922445574
 30
0.0
 10
15.0005261944
 20
12.5800128222
 30
0.0
 10
14.9628313476
 20
12.5652257208
 30
0.0
 10
14.9282803245
 20
12.5479684911
 30
0.0
 10
14.8971055534
 20
12.5283542596
 30
0.0
 10
14.8695285669
 20
12.5065035399
 30
0.0
 10
14.8495215003
 20
12.4863523226
 30
0.0
 10
14.8356050616
 20
12.4693011027
 30
0.0
 10
14.8262747747
 20
12.4561720842
 30
0.0
 10
14.8179732231
 20
12.4426121233
 30
0.0
 10
14.8107134631
 20
12.428644302
 30
0.0
 10
14.8045093599
 20
12.414293574
 30
0.0
 10
14.8010838151
 20
12.4044789607
 30
0.0
 10
14.79955397
 20
12.3995266284
 30
0.0
  0
SPLINE
  5
3A4
100
AcDbEntity
  8
0
100
AcDbSpline
 62
7
  6
CONTINUOUS
 70
0
 71
3
 72
21
 73
17
 74
0
 42
0.0000001
 43
0.0000001
 44
0.0000000001
 40
0.0
 40
0.0
 40
0.0
 40
0.0
 40
0.0529549259
 40
0.1062049299
 40
0.160038462
 40
0.2147283541
 40
0.2705230691
 40
0.3276474391
 40
0.3862970826
 40
0.4466338896
 40
0.5728116428
 40
0.6388923141
 40
0.7070173777
 40
0.7772087718
 40
0.8494609301
 40
1.0
 40
1.0
 40
1.0
 40
1.0
 10
16.4395388619
 20
12.2335718943
 30
0.0
 10
16.4367078196
 20
12.2244119147
 30
0.0
 10
16.4301837411
 20
12.2062905052
 30
0.0
 10
16.4179160485
 20
12.1799992618
 30
0.0
 10
16.4031856537
 20
12.154638973
 30
0.0
 10
16.3860373134
 20
12.1302844731
 30
0.0
 10
16.3665260816
 20
12.1069981882
 30
0.0
 10
16.3447041723
 20
12.0848474146
 30
0.0
 10
16.3206326128
 20
12.0638915978
 30
0.0
 10
16.2851134826
 20
12.0372204312
 30
0.0
 10
16.2457625911
 20
12.0136227047
 30
0.0
 10
16.203322591
 20
11.9930610511
 30
0.0
 10
16.1691376876
 20
11.9788348034
 30
0.0
 10
16.13319069
 20
11.9660857206
 30
0.0
 10
16.0823530692
 20
11.950887239
 30
0.0
 10
16.0429009931
 20
11.942141207
 30
0.0
 10
16.0160698159
 20
11.9373527894
 30
0.0
  0
SPLINE
  5
3A5
100
AcDbEntity
  8
0
100
AcDbSpline
 62
7
  6
CONTINUOUS
 70
0
 71
3
 72
11
 73
7
 74
0
 42
0.0000001
 43
0.0000001
 44
0.0000000001
 40
0.0
 40
0.0
 40
0.0
 40
0.0
 40
0.2679057237
 40
0.5239956772
 40
0.768057567
 40
1.0
 40
1.0
 40
1.0
 40
1.0
 10
14.7915560864
 20
12.3139446619
 30
0.0
 10
14.7752538503
 20
12.3298204498
 30
0.0
 10
14.744428851
 20
12.3619895193
 30
0.0
 10
14.703002139
 20
12.4124750654
 30
0.0
 10
14.66772017
 20
12.4637718411
 30
0.0
 10
14.6479684708
 20
12.4991388147
 30
0.0
 10
14.6392894897
 20
12.5168247187
 30
0.0
  0
SPLINE
  5
3A6
100
AcDbEntity
  8
0
100
AcDbSpline
 62
7
  6
CONTINUOUS
 70
0
 71
3
 72
37
 73
33
 74
0
 42
0.0000001
 43
0.0000001
 44
0.0000000001
 40
0.0
 40
0.0
 40
0.0
 40
0.0
 40
0.0265203289
 40
0.0543712252
 40
0.0835386029
 40
0.1139955517
 40
0.1456978914
 40
0.1785697107
 40
0.2125070713
 40
0.2473905343
 40
0.3194184089
 40
0.3934666727
 40
0.4682045772
 40
0.505414747
 40
0.5422854056
 40
0.5786522877
 40
0.6143583174
 40
0.6492550275
 40
0.6832085545
 40
0.7160972425
 40
0.7478216358
 40
0.7783007509
 40
0.8074827323
 40
0.8353442526
 40
0.8487855647
 40
0.8619052793
 40
0.8872050431
 40
0.9113477691
 40
0.9344816825
 40
0.9568010603
 40
0.9785484872
 40
1.0
 40
1.0
 40
1.0
 40
1.0
 10
14.995039322
 20
12.2056970618
 30
0.0
 10
14.9990751018
 20
12.1974730073
 30
0.0
 10
15.0082085846
 20
12.1810240881
 30
0.0
 10
15.0244242697
 20
12.1571151703
 30
0.0
 10
15.0433835552
 20
12.1335467168
 30
0.0
 10
15.0649453921
 20
12.1104823164
 30
0.0
 10
15.0889663243
 20
12.0880738248
 30
0.0
 10
15.1152832917
 20
12.066468095
 30
0.0
 10
15.1437185914
 20
12.0458091838
 30
0.0
 10
15.1846330832
 20
12.0194430082
 30
0.0
 10
15.2398216162
 20
11.9898351041
 30
0.0
 10
15.3103393762
 20
11.9604762126
 30
0.0
 10
15.3718172097
 20
11.9414516648
 30
0.0
 10
15.4218973334
 20
11.9297792006
 30
0.0
 10
15.4594424732
 20
11.9229131701
 30
0.0
 10
15.4967649573
 20
11.9179741097
 30
0.0
 10
15.5336114584
 20
11.9149894519
 30
0.0
 10
15.569732176
 20
11.9139877559
 30
0.0
 10
15.6048815013
 20
11.9149665983
 30
0.0
 10
15.6388215088
 20
11.9179294585
 30
0.0
 10
15.6713226074
 20
11.9228480806
 30
0.0
 10
15.7021654585
 20
11.9296975504
 30
0.0
 10
15.7311405549
 20
11.9384288691
 30
0.0
 10
15.7538368494
 20
11.9473325443
 30
0.0
 10
15.7708369044
 20
11.9553726553
 30
0.0
 10
15.7866593811
 20
11.9637845194
 30
0.0
 10
15.8049866207
 20
11.9753138391
 30
0.0
 10
15.8246755881
 20
11.9909188311
 30
0.0
 10
15.8416612177
 20
12.0080184918
 30
0.0
 10
15.8558048537
 20
12.0265131704
 30
0.0
 10
15.8670021541
 20
12.0462627403
 30
0.0
 10
15.8724516054
 20
12.0602204274
 30
0.0
 10
15.8746386991
 20
12.0673003133
 30
0.0
  0
SPLINE
  5
3A7
100
AcDbEntity
  8
0
100
AcDbSpline
 62
7
  6
CONTINUOUS
 70
0
 71
3
 72
15
 73
11
 74
0
 42
0.0000001
 43
0.0000001
 44
0.0000000001
 40
0.0
 40
0.0
 40
0.0
 40
0.0
 40
0.1164348353
 40
0.2337700118
 40
0.3528727647
 40
0.4745619104
 40
0.5995772073
 40
0.7285559203
 40
0.8619336333
 40
1.0
 40
1.0
 40
1.0
 40
1.0
 10
16.054019356
 20
12.0118674951
 30
0.0
 10
16.0563090922
 20
12.0192797059
 30
0.0
 10
16.060102161
 20
12.0344232649
 30
0.0
 10
16.0633439153
 20
12.057752512
 30
0.0
 10
16.0641307203
 20
12.0816439766
 30
0.0
 10
16.0624638815
 20
12.1059994885
 30
0.0
 10
16.0583564102
 20
12.1307283473
 30
0.0
 10
16.0518191219
 20
12.155731319
 30
0.0
 10
16.0428959198
 20
12.1809045816
 30
0.0
 10
16.0355157953
 20
12.1974387522
 30
0.0
 10
16.0314632055
 20
12.2056970618
 30
0.0
  0
SPLINE
  5
3A8
100
AcDbEntity
  8
0
100
AcDbSpline
 62
7
  6
CONTINUOUS
 70
0
 71
3
 72
11
 73
7
 74
0
 42
0.0000001
 43
0.0000001
 44
0.0000000001
 40
0.0
 40
0.0
 40
0.0
 40
0.0
 40
0.24794511
 40
0.4980937313
 40
0.7491956708
 40
1.0
 40
1.0
 40
1.0
 40
1.0
 10
15.5275680198
 20
13.4699606741
 30
0.0
 10
15.569940524
 20
13.4604777535
 30
0.0
 10
15.6544221848
 20
13.4384410787
 30
0.0
 10
15.7789246017
 20
13.3967536272
 30
0.0
 10
15.9008176381
 20
13.3466306084
 30
0.0
 10
15.979762952
 20
13.3078127813
 30
0.0
 10
16.018501059
 20
13.2871138143
 30
0.0
  0
SPLINE
  5
3A9
100
AcDbEntity
  8
0
100
AcDbSpline
 62
7
  6
CONTINUOUS
 70
0
 71
3
 72
39
 73
35
 74
0
 42
0.0000001
 43
0.0000001
 44
0.0000000001
 40
0.0
 40
0.0
 40
0.0
 40
0.0
 40
0.0107135687
 40
0.0214644191
 40
0.0322893727
 40
0.0432239064
 40
0.0543019365
 40
0.0655553294
 40
0.088688608
 40
0.112831223
 40
0.1381303912
 40
0.1646834067
 40
0.192544636
 40
0.2217252583
 40
0.2522042622
 40
0.2839267437
 40
0.3168151628
 40
0.3507665898
 40
0.3856625401
 40
0.4577087618
 40
0.5317647575
 40
0.6064996643
 40
0.6437043886
 40
0.6805671748
 40
0.7169239299
 40
0.7526164188
 40
0.7874976318
 40
0.8214336455
 40
0.8543044785
 40
0.8860073376
 40
0.9164632446
 40
0.9456282768
 40
0.9734780508
 40
1.0
 40
1.0
 40
1.0
 40
1.0
 10
14.9266386872
 20
12.8107732866
 30
0.0
 10
14.92816854
 20
12.8157256214
 30
0.0
 10
14.9315941774
 20
12.8255402252
 30
0.0
 10
14.937798323
 20
12.839890981
 30
0.0
 10
14.9450580876
 20
12.8538588839
 30
0.0
 10
14.9533596691
 20
12.8674189554
 30
0.0
 10
14.9626901009
 20
12.8805480514
 30
0.0
 10
14.9766067821
 20
12.8975993978
 30
0.0
 10
14.9966141291
 20
12.9177508779
 30
0.0
 10
15.0241916537
 20
12.9396018035
 30
0.0
 10
15.0553670917
 20
12.9592161353
 30
0.0
 10
15.0899187865
 20
12.9764735842
 30
0.0
 10
15.1276144487
 20
12.9912605081
 30
0.0
 10
15.1681962706
 20
13.0034923457
 30
0.0
 10
15.2113929993
 20
13.013080607
 30
0.0
 10
15.2569116277
 20
13.0199746923
 30
0.0
 10
15.3044455037
 20
13.0241178837
 30
0.0
 10
15.353674025
 20
13.0254952201
 30
0.0
 10
15.4218412036
 20
13.0235957967
 30
0.0
 10
15.5090671446
 20
13.0141548679
 30
0.0
 10
15.613806467
 20
12.9923025354
 30
0.0
 10
15.6999114034
 20
12.9656599725
 30
0.0
 10
15.7670205486
 20
12.939539574
 30
0.0
 10
15.815835072
 20
12.9177777838
 30
0.0
 10
15.8628658918
 20
12.8939697633
 30
0.0
 10
15.9077947769
 20
12.8682767758
 30
0.0
 10
15.9503152245
 20
12.8408716523
 30
0.0
 10
15.9901406524
 20
12.8119418731
 30
0.0
 10
16.0269976072
 20
12.7816798866
 30
0.0
 10
16.0606411319
 20
12.7502965962
 30
0.0
 10
16.0908387445
 20
12.7179936293
 30
0.0
 10
16.117392362
 20
12.6849867455
 30
0.0
 10
16.1401035513
 20
12.6515013458
 30
0.0
 10
16.1528952547
 20
12.6284628247
 30
0.0
 10
16.1585480253
 20
12.6169436894
 30
0.0
  0
SPLINE
  5
3AA
100
AcDbEntity
  8
0
100
AcDbSpline
 62
7
  6
CONTINUOUS
 70
0
 71
3
 72
11
 73
7
 74
0
 42
0.0000001
 43
0.0000001
 44
0.0000000001
 40
0.0
 40
0.0
 40
0.0
 40
0.0
 40
0.2568878902
 40
0.5071448459
 40
0.7537709101
 40
1.0
 40
1.0
 40
1.0
 40
1.0
 10
16.8448017686
 20
12.310468293
 30
0.0
 10
16.8472089607
 20
12.2986686384
 30
0.0
 10
16.8506539726
 20
12.2750794273
 30
0.0
 10
16.8514574154
 20
12.2396622141
 30
0.0
 10
16.847792345
 20
12.2049247694
 30
0.0
 10
16.8423845167
 20
12.1823832322
 30
0.0
 10
16.8389764176
 20
12.1713548108
 30
0.0
  0
SPLINE
  5
3AB
100
AcDbEntity
  8
0
100
AcDbSpline
 62
7
  6
CONTINUOUS
 70
0
 71
3
 72
11
 73
7
 74
0
 42
0.0000001
 43
0.0000001
 44
0.0000000001
 40
0.0
 40
0.0
 40
0.0
 40
0.0
 40
0.2592912816
 40
0.5129112452
 40
0.7600230228
 40
1.0
 40
1.0
 40
1.0
 40
1.0
 10
16.2834599909
 20
13.1159802877
 30
0.0
 10
16.317677908
 20
13.0895005412
 30
0.0
 10
16.3834977322
 20
13.0346471613
 30
0.0
 10
16.4745704109
 20
12.9462091703
 30
0.0
 10
16.5562035618
 20
12.8532291292
 30
0.0
 10
16.6045806443
 20
12.7877644348
 30
0.0
 10
16.6268956773
 20
12.7545142204
 30
0.0
  0
SPLINE
  5
3AC
100
AcDbEntity
  8
0
100
AcDbSpline
 62
7
  6
CONTINUOUS
 70
0
 71
3
 72
11
 73
7
 74
0
 42
0.0000001
 43
0.0000001
 44
0.0000000001
 40
0.0
 40
0.0
 40
0.0
 40
0.0
 40
0.2502177675
 40
0.5002703408
 40
0.7501863132
 40
1.0
 40
1.0
 40
1.0
 40
1.0
 10
16.0387789012
 20
13.1748377454
 30
0.0
 10
16.0405470974
 20
13.1705964829
 30
0.0
 10
16.0445897297
 20
13.1623179065
 30
0.0
 10
16.0521065359
 20
13.150732141
 30
0.0
 10
16.0610059516
 20
13.1401794211
 30
0.0
 10
16.0677794079
 20
13.1339445097
 30
0.0
 10
16.0713456035
 20
13.1310585208
 30
0.0
  0
SPLINE
  5
3AD
100
AcDbEntity
  8
0
100
AcDbSpline
 62
7
  6
CONTINUOUS
 70
0
 71
3
 72
11
 73
7
 74
0
 42
0.0000001
 43
0.0000001
 44
0.0000000001
 40
0.0
 40
0.0
 40
0.0
 40
0.0
 40
0.2470742596
 40
0.495393436
 40
0.7460350639
 40
1.0
 40
1.0
 40
1.0
 40
1.0
 10
16.4873104863
 20
12.2188093457
 30
0.0
 10
16.4900865943
 20
12.227792248
 30
0.0
 10
16.4948859604
 20
12.2460505451
 30
0.0
 10
16.4997477551
 20
12.2740535088
 30
0.0
 10
16.5022790536
 20
12.3026247984
 30
0.0
 10
16.5024080292
 20
12.3218508634
 30
0.0
 10
16.5020925517
 20
12.3315100193
 30
0.0
  0
SPLINE
  5
3AE
100
AcDbEntity
  8
0
100
AcDbSpline
 62
7
  6
CONTINUOUS
 70
0
 71
3
 72
11
 73
7
 74
0
 42
0.0000001
 43
0.0000001
 44
0.0000000001
 40
0.0
 40
0.0
 40
0.0
 40
0.0
 40
0.2477930096
 40
0.4965230887
 40
0.7470061484
 40
1.0
 40
1.0
 40
1.0
 40
1.0
 10
16.492151861
 20
12.2344758684
 30
0.0
 10
16.4945384223
 20
12.2421983041
 30
0.0
 10
16.4987544556
 20
12.2578538556
 30
0.0
 10
16.5033550183
 20
12.2818034572
 30
0.0
 10
16.5062352001
 20
12.3061906248
 30
0.0
 10
16.5070016744
 20
12.3226115553
 30
0.0
 10
16.5071022735
 20
12.3308633913
 30
0.0
  0
SPLINE
  5
3AF
100
AcDbEntity
  8
0
100
AcDbSpline
 62
7
  6
CONTINUOUS
 70
0
 71
3
 72
15
 73
11
 74
0
 42
0.0000001
 43
0.0000001
 44
0.0000000001
 40
0.0
 40
0.0
 40
0.0
 40
0.0
 40
0.1467514787
 40
0.2872207967
 40
0.4205203206
 40
0.54665998
 40
0.6662512622
 40
0.7804703858
 40
0.8910054234
 40
1.0
 40
1.0
 40
1.0
 40
1.0
 10
15.2507333099
 20
12.6921166969
 30
0.0
 10
15.2470715514
 20
12.6921166969
 30
0.0
 10
15.239899575
 20
12.6924383734
 30
0.0
 10
15.2294958496
 20
12.6939361346
 30
0.0
 10
15.2198133476
 20
12.6964409278
 30
0.0
 10
15.2109930847
 20
12.6999284604
 30
0.0
 10
15.2031532517
 20
12.7043767963
 30
0.0
 10
15.1963972241
 20
12.7097480365
 30
0.0
 10
15.1908280095
 20
12.7159952428
 30
0.0
 10
15.187960546
 20
12.7207042963
 30
0.0
 10
15.1867620438
 20
12.7231456192
 30
0.0
  0
SPLINE
  5
3B0
100
AcDbEntity
  8
0
100
AcDbSpline
 62
7
  6
CONTINUOUS
 70
0
 71
3
 72
23
 73
19
 74
0
 42
0.0000001
 43
0.0000001
 44
0.0000000001
 40
0.0
 40
0.0
 40
0.0
 40
0.0
 40
0.0765065269
 40
0.1508637824
 40
0.2230015285
 40
0.2929095452
 40
0.3606212146
 40
0.4261941191
 40
0.4897116004
 40
0.5512902173
 40
0.6110878367
 40
0.6692962615
 40
0.726143577
 40
0.7818889178
 40
0.8368267107
 40
0.8912782883
 40
0.9455675122
 40
1.0
 40
1.0
 40
1.0
 40
1.0
 10
14.8081836842
 20
13.2526030449
 30
0.0
 10
14.7875553217
 20
13.248152844
 30
0.0
 10
14.7470734701
 20
13.2384353137
 30
0.0
 10
14.6880191474
 20
13.2211346947
 30
0.0
 10
14.6316684467
 20
13.2013581633
 30
0.0
 10
14.5782004615
 20
13.1791682974
 30
0.0
 10
14.5277718752
 20
13.1546290136
 30
0.0
 10
14.4805309215
 20
13.1278095997
 30
0.0
 10
14.436617632
 20
13.0987905729
 30
0.0
 10
14.3961703426
 20
13.0676495614
 30
0.0
 10
14.3593082796
 20
13.0344831534
 30
0.0
 10
14.3261512524
 20
12.9993813214
 30
0.0
 10
14.2967987753
 20
12.9624537219
 30
0.0
 10
14.2713476794
 20
12.9238076366
 30
0.0
 10
14.2498801101
 20
12.8835591937
 30
0.0
 10
14.2324663589
 20
12.8418296522
 30
0.0
 10
14.2191690864
 20
12.7987615622
 30
0.0
 10
14.213088151
 20
12.769341065
 30
0.0
 10
14.2107459556
 20
12.7545106714
 30
0.0
  0
SPLINE
  5
3B1
100
AcDbEntity
  8
0
100
AcDbSpline
 62
7
  6
CONTINUOUS
 70
0
 71
3
 72
9
 73
5
 74
0
 42
0.0000001
 43
0.0000001
 44
0.0000000001
 40
0.0
 40
0.0
 40
0.0
 40
0.0
 40
0.4789614929
 40
1.0
 40
1.0
 40
1.0
 40
1.0
 10
16.0556698379
 20
12.2840297528
 30
0.0
 10
16.0545711652
 20
12.2862686122
 30
0.0
 10
16.0524350893
 20
12.2910211001
 30
0.0
 10
16.050557565
 20
12.2958801711
 30
0.0
 10
16.0496375563
 20
12.2984324139
 30
0.0
  0
SPLINE
  5
3B2
100
AcDbEntity
  8
0
100
AcDbSpline
 62
7
  6
CONTINUOUS
 70
0
 71
3
 72
25
 73
21
 74
0
 42
0.0000001
 43
0.0000001
 44
0.0000000001
 40
0.0
 40
0.0
 40
0.0
 40
0.0
 40
0.066114889
 40
0.1369512737
 40
0.2112906184
 40
0.2878281233
 40
0.3652399653
 40
0.4422422409
 40
0.5176139265
 40
0.590217258
 40
0.6590388396
 40
0.6917703549
 40
0.7232523932
 40
0.7821867971
 40
0.8355068916
 40
0.8832119718
 40
0.9257333614
 40
0.9640805259
 40
0.9822263743
 40
1.0
 40
1.0
 40
1.0
 40
1.0
 10
16.0496375563
 20
12.2984324139
 30
0.0
 10
16.0482705308
 20
12.3022247491
 30
0.0
 10
16.0457034553
 20
12.310177141
 30
0.0
 10
16.0424496501
 20
12.3226486146
 30
0.0
 10
16.0397443882
 20
12.3359002589
 30
0.0
 10
16.0376892909
 20
12.3496739394
 30
0.0
 10
16.036387661
 20
12.363703073
 30
0.0
 10
16.035918079
 20
12.3777147793
 30
0.0
 10
16.0363537364
 20
12.3914361651
 30
0.0
 10
16.0377257791
 20
12.4045960304
 30
0.0
 10
16.0396984608
 20
12.4150456498
 30
0.0
 10
16.041772368
 20
12.4228909651
 30
0.0
 10
16.0440672799
 20
12.4300429694
 30
0.0
 10
16.0474220128
 20
12.4381636963
 30
0.0
 10
16.0523127452
 20
12.4466402876
 30
0.0
 10
16.0578646336
 20
12.4534658277
 30
0.0
 10
16.0639464331
 20
12.4585053669
 30
0.0
 10
16.0694577072
 20
12.4611599866
 30
0.0
 10
16.0738820253
 20
12.4621908611
 30
0.0
 10
16.0760758652
 20
12.4623610358
 30
0.0
 10
16.0771595699
 20
12.4623608822
 30
0.0
  0
SPLINE
  5
3B3
100
AcDbEntity
  8
0
100
AcDbSpline
 62
7
  6
CONTINUOUS
 70
0
 71
3
 72
14
 73
10
 74
0
 42
0.0000001
 43
0.0000001
 44
0.0000000001
 40
0.0
 40
0.0
 40
0.0
 40
0.0
 40
0.1128487919
 40
0.2272076945
 40
0.3444396618
 40
0.4656140701
 40
0.7221741208
 40
0.8586964258
 40
1.0
 40
1.0
 40
1.0
 40
1.0
 10
15.1851674459
 20
12.7263954473
 30
0.0
 10
15.1864584584
 20
12.7237656279
 30
0.0
 10
15.1895118515
 20
12.7186803929
 30
0.0
 10
15.1953547993
 20
12.7118610799
 30
0.0
 10
15.2023788105
 20
12.7059246817
 30
0.0
 10
15.2133610107
 20
12.6991772902
 30
0.0
 10
15.2261342797
 20
12.6947095414
 30
0.0
 10
15.2398436467
 20
12.6924876945
 30
0.0
 10
15.2470649893
 20
12.6921166969
 30
0.0
 10
15.2507333099
 20
12.6921166969
 30
0.0
  0
SPLINE
  5
3B4
100
AcDbEntity
  8
0
100
AcDbSpline
 62
7
  6
CONTINUOUS
 70
0
 71
3
 72
24
 73
20
 74
0
 42
0.0000001
 43
0.0000001
 44
0.0000000001
 40
0.0
 40
0.0
 40
0.0
 40
0.0
 40
0.0533447121
 40
0.1068785169
 40
0.1339074379
 40
0.1611825308
 40
0.2166746618
 40
0.2738431963
 40
0.3330220432
 40
0.3943858452
 40
0.4579533423
 40
0.5235703997
 40
0.590932734
 40
0.6595965374
 40
0.7289853916
 40
0.7984336795
 40
0.867256637
 40
0.9347325628
 40
1.0
 40
1.0
 40
1.0
 40
1.0
 10
15.3663073348
 20
12.8112536509
 30
0.0
 10
15.3678355525
 20
12.8081405464
 30
0.0
 10
15.3703530657
 20
12.8016193018
 30
0.0
 10
15.3720124527
 20
12.7930259895
 30
0.0
 10
15.3724338988
 20
12.7860202319
 30
0.0
 10
15.3722422227
 20
12.7788770633
 30
0.0
 10
15.3708341368
 20
12.7698428493
 30
0.0
 10
15.3673355819
 20
12.7591862395
 30
0.0
 10
15.362100853
 20
12.7488408378
 30
0.0
 10
15.3552368587
 20
12.7389918059
 30
0.0
 10
15.3468945566
 20
12.7297923414
 30
0.0
 10
15.3372403837
 20
12.7213808836
 30
0.0
 10
15.3264706509
 20
12.7138660101
 30
0.0
 10
15.3147912624
 20
12.7073480555
 30
0.0
 10
15.3024300317
 20
12.7018994153
 30
0.0
 10
15.2896179293
 20
12.697588015
 30
0.0
 10
15.2765940062
 20
12.6944613447
 30
0.0
 10
15.2636107533
 20
12.69256414
 30
0.0
 10
15.2549763924
 20
12.6921166969
 30
0.0
 10
15.2507333099
 20
12.6921166969
 30
0.0
  0
SPLINE
  5
3B5
100
AcDbEntity
  8
0
100
AcDbSpline
 62
7
  6
CONTINUOUS
 70
0
 71
3
 72
14
 73
10
 74
0
 42
0.0000001
 43
0.0000001
 44
0.0000000001
 40
0.0
 40
0.0
 40
0.0
 40
0.0
 40
0.1168306011
 40
0.2364862765
 40
0.3587068493
 40
0.4832664403
 40
0.609943216
 40
0.7384827065
 40
1.0
 40
1.0
 40
1.0
 40
1.0
 10
16.626898851
 20
12.7545106714
 30
0.0
 10
16.6085728302
 20
12.7705947265
 30
0.0
 10
16.5707321052
 20
12.8023113644
 30
0.0
 10
16.5113429492
 20
12.8479251824
 30
0.0
 10
16.4488201628
 20
12.8920029704
 30
0.0
 10
16.3833892464
 20
12.9343912208
 30
0.0
 10
16.3152665705
 20
12.9749470804
 30
0.0
 10
16.2206263288
 20
13.02669043
 30
0.0
 10
16.1471215881
 20
13.0618831864
 30
0.0
 10
16.0971221447
 20
13.0837702265
 30
0.0
  0
SPLINE
  5
3B6
100
AcDbEntity
  8
0
100
AcDbSpline
 62
7
  6
CONTINUOUS
 70
0
 71
3
 72
9
 73
5
 74
0
 42
0.0000001
 43
0.0000001
 44
0.0000000001
 40
0.0
 40
0.0
 40
0.0
 40
0.0
 40
0.4880181638
 40
1.0
 40
1.0
 40
1.0
 40
1.0
 10
16.735820153
 20
12.6111249179
 30
0.0
 10
16.7202068179
 20
12.6359388639
 30
0.0
 10
16.6857972093
 20
12.6852912963
 30
0.0
 10
16.6474009858
 20
12.7315835313
 30
0.0
 10
16.626898851
 20
12.7545106714
 30
0.0
  0
SPLINE
  5
3B7
100
AcDbEntity
  8
0
100
AcDbSpline
 62
7
  6
CONTINUOUS
 70
0
 71
3
 72
9
 73
5
 74
0
 42
0.0000001
 43
0.0000001
 44
0.0000000001
 40
0.0
 40
0.0
 40
0.0
 40
0.0
 40
0.4891349774
 40
1.0
 40
1.0
 40
1.0
 40
1.0
 10
16.844801459
 20
12.3104718425
 30
0.0
 10
16.8427164312
 20
12.3343751676
 30
0.0
 10
16.835043589
 20
12.38299037
 30
0.0
 10
16.8213215183
 20
12.430221036
 30
0.0
 10
16.8129957453
 20
12.4538575959
 30
0.0
  0
SPLINE
  5
3B8
100
AcDbEntity
  8
0
100
AcDbSpline
 62
7
  6
CONTINUOUS
 70
0
 71
3
 72
10
 73
6
 74
0
 42
0.0000001
 43
0.0000001
 44
0.0000000001
 40
0.0
 40
0.0
 40
0.0
 40
0.0
 40
0.2300164329
 40
0.4819447019
 40
1.0
 40
1.0
 40
1.0
 40
1.0
 10
16.2310986313
 20
11.7473841242
 30
0.0
 10
16.2318938582
 20
11.747545462
 30
0.0
 10
16.2336040044
 20
11.7476787141
 30
0.0
 10
16.2371232711
 20
11.7473212361
 30
0.0
 10
16.2397407
 20
11.7463890498
 30
0.0
 10
16.2413427304
 20
11.7455096137
 30
0.0
  0
SPLINE
  5
3B9
100
AcDbEntity
  8
0
100
AcDbSpline
 62
7
  6
CONTINUOUS
 70
0
 71
3
 72
15
 73
11
 74
0
 42
0.0000001
 43
0.0000001
 44
0.0000000001
 40
0.0
 40
0.0
 40
0.0
 40
0.0
 40
0.1334382598
 40
0.2651882619
 40
0.3947995198
 40
0.5219316795
 40
0.6462855588
 40
0.7675913409
 40
0.8855908775
 40
1.0
 40
1.0
 40
1.0
 40
1.0
 10
15.5949980263
 20
11.7473841242
 30
0.0
 10
15.623046169
 20
11.7426385768
 30
0.0
 10
15.6789800096
 20
11.7343043396
 30
0.0
 10
15.762680579
 20
11.7252669083
 30
0.0
 10
15.8453462931
 20
11.7198157356
 30
0.0
 10
15.9265949269
 20
11.717968014
 30
0.0
 10
16.0060759879
 20
11.7197360039
 30
0.0
 10
16.0834464526
 20
11.7251080885
 30
0.0
 10
16.1583490478
 20
11.7340689528
 30
0.0
 10
16.207195535
 20
11.7425345981
 30
0.0
 10
16.2310986313
 20
11.7473841242
 30
0.0
  0
SPLINE
  5
3BA
100
AcDbEntity
  8
0
100
AcDbSpline
 62
7
  6
CONTINUOUS
 70
0
 71
3
 72
11
 73
7
 74
0
 42
0.0000001
 43
0.0000001
 44
0.0000000001
 40
0.0
 40
0.0
 40
0.0
 40
0.0
 40
0.1997696627
 40
0.4340278956
 40
0.7039851008
 40
1.0
 40
1.0
 40
1.0
 40
1.0
 10
15.5865936794
 20
11.7455096136
 30
0.0
 10
15.5869769215
 20
11.7459657463
 30
0.0
 10
15.5880337415
 20
11.7467731794
 30
0.0
 10
15.590044742
 20
11.7474555426
 30
0.0
 10
15.5924368821
 20
11.747680508
 30
0.0
 10
15.594127609
 20
11.7475313926
 30
0.0
 10
15.5949980263
 20
11.7473841242
 30
0.0
  0
SPLINE
  5
3BB
100
AcDbEntity
  8
0
100
AcDbSpline
 62
7
  6
CONTINUOUS
 70
0
 71
3
 72
9
 73
5
 74
0
 42
0.0000001
 43
0.0000001
 44
0.0000000001
 40
0.0
 40
0.0
 40
0.0
 40
0.0
 40
0.2566393174
 40
1.0
 40
1.0
 40
1.0
 40
1.0
 10
16.4282615549
 20
11.8658989395
 30
0.0
 10
16.4381272702
 20
11.8697254448
 30
0.0
 10
16.476338824
 20
11.8852179623
 30
0.0
 10
16.5135970154
 20
11.9030991401
 30
0.0
 10
16.540471678
 20
11.9178367987
 30
0.0
  0
SPLINE
  5
3BC
100
AcDbEntity
  8
0
100
AcDbSpline
 62
7
  6
CONTINUOUS
 70
0
 71
3
 72
19
 73
15
 74
0
 42
0.0000001
 43
0.0000001
 44
0.0000000001
 40
0.0
 40
0.0
 40
0.0
 40
0.0
 40
0.1395557975
 40
0.2733492534
 40
0.4019563471
 40
0.5261411707
 40
0.5868907661
 40
0.6469021762
 40
0.7063216836
 40
0.7653041362
 40
0.8240097123
 40
0.8825954942
 40
0.9412099704
 40
1.0
 40
1.0
 40
1.0
 40
1.0
 10
16.540471678
 20
11.9178367987
 30
0.0
 10
16.5614755688
 20
11.9293550149
 30
0.0
 10
16.6016895371
 20
11.9536731805
 30
0.0
 10
16.6571857282
 20
11.9948503424
 30
0.0
 10
16.7062428781
 20
12.0397171412
 30
0.0
 10
16.7417821754
 20
12.0803060588
 30
0.0
 10
16.7665700541
 20
12.1142936614
 30
0.0
 10
16.7832595394
 20
12.1403560096
 30
0.0
 10
16.7981568065
 20
12.1671357377
 30
0.0
 10
16.8112433851
 20
12.1945980891
 30
0.0
 10
16.8224980206
 20
12.2227067823
 30
0.0
 10
16.8319041662
 20
12.251420774
 30
0.0
 10
16.8394513278
 20
12.2806919868
 30
0.0
 10
16.8432272156
 20
12.3005040583
 30
0.0
 10
16.844801459
 20
12.3104718425
 30
0.0
  0
SPLINE
  5
3BD
100
AcDbEntity
  8
0
100
AcDbSpline
 62
7
  6
CONTINUOUS
 70
0
 71
3
 72
29
 73
25
 74
0
 42
0.0000001
 43
0.0000001
 44
0.0000000001
 40
0.0
 40
0.0
 40
0.0
 40
0.0
 40
0.0155012573
 40
0.0315038656
 40
0.0484564265
 40
0.0667114364
 40
0.0865294772
 40
0.1080862797
 40
0.1314704025
 40
0.1567164261
 40
0.1838212404
 40
0.2127326788
 40
0.2756037964
 40
0.3444509096
 40
0.4180686145
 40
0.4950678626
 40
0.5739273257
 40
0.653065755
 40
0.7308890553
 40
0.8058334792
 40
0.8764735723
 40
0.9415698853
 40
0.9716865837
 40
1.0
 40
1.0
 40
1.0
 40
1.0
 10
16.07987647
 20
12.4623607356
 30
0.0
 10
16.0788702886
 20
12.4623609133
 30
0.0
 10
16.0768198511
 20
12.4621556242
 30
0.0
 10
16.0737935308
 20
12.4612369462
 30
0.0
 10
16.0708181801
 20
12.4597210532
 30
0.0
 10
16.0679097041
 20
12.4576278737
 30
0.0
 10
16.0650814878
 20
12.4549719061
 30
0.0
 10
16.062348285
 20
12.4517689845
 30
0.0
 10
16.0597210993
 20
12.4480402536
 30
0.0
 10
16.0572140194
 20
12.4438065318
 30
0.0
 10
16.054842978
 20
12.4390906781
 30
0.0
 10
16.0517938647
 20
12.4319975915
 30
0.0
 10
16.048456968
 20
12.4221007156
 30
0.0
 10
16.0452860382
 20
12.4091421172
 30
0.0
 10
16.0429171137
 20
12.3950834672
 30
0.0
 10
16.0414074207
 20
12.3802550701
 30
0.0
 10
16.0407959029
 20
12.3650045155
 30
0.0
 10
16.041093954
 20
12.3496911894
 30
0.0
 10
16.0422987669
 20
12.3346769849
 30
0.0
 10
16.0443761385
 20
12.3203142312
 30
0.0
 10
16.0472791014
 20
12.3069385757
 30
0.0
 10
16.0504066988
 20
12.296620488
 30
0.0
 10
16.053299648
 20
12.2891392881
 30
0.0
 10
16.0548602022
 20
12.2856796169
 30
0.0
 10
16.0556698379
 20
12.2840297528
 30
0.0
  0
SPLINE
  5
3BE
100
AcDbEntity
  8
0
100
AcDbSpline
 62
7
  6
CONTINUOUS
 70
0
 71
3
 72
15
 73
11
 74
0
 42
0.0000001
 43
0.0000001
 44
0.0000000001
 40
0.0
 40
0.0
 40
0.0
 40
0.0
 40
0.1637243042
 40
0.3152356317
 40
0.4543760945
 40
0.5813955056
 40
0.697355102
 40
0.8040077184
 40
0.9038195474
 40
1.0
 40
1.0
 40
1.0
 40
1.0
 10
16.0556698379
 20
12.2840297528
 30
0.0
 10
16.0564898125
 20
12.2823588201
 30
0.0
 10
16.0581752198
 20
12.2791919493
 30
0.0
 10
16.0609548474
 20
12.2748310447
 30
0.0
 10
16.063869495
 20
12.2710723663
 30
0.0
 10
16.0669041756
 20
12.2679490259
 30
0.0
 10
16.0700397066
 20
12.265483744
 30
0.0
 10
16.0732604587
 20
12.2636950068
 30
0.0
 10
16.0765481233
 20
12.2626089405
 30
0.0
 10
16.0787830529
 20
12.262364345
 30
0.0
 10
16.0798764705
 20
12.2623641518
 30
0.0
  0
SPLINE
  5
3BF
100
AcDbEntity
  8
0
100
AcDbSpline
 62
7
  6
CONTINUOUS
 70
0
 71
3
 72
15
 73
11
 74
0
 42
0.0000001
 43
0.0000001
 44
0.0000000001
 40
0.0
 40
0.0
 40
0.0
 40
0.0
 40
0.1111210045
 40
0.2256574532
 40
0.3439541902
 40
0.4663184804
 40
0.5929915985
 40
0.7241353972
 40
0.8598274203
 40
1.0
 40
1.0
 40
1.0
 40
1.0
 10
16.5520694379
 20
12.3782570559
 30
0.0
 10
16.5503597268
 20
12.3910393265
 30
0.0
 10
16.545684948
 20
12.4168487499
 30
0.0
 10
16.5352135763
 20
12.4554134443
 30
0.0
 10
16.5212181467
 20
12.4942326758
 30
0.0
 10
16.5037595928
 20
12.5331658825
 30
0.0
 10
16.4828975352
 20
12.5720826287
 30
0.0
 10
16.4587068807
 20
12.6108545098
 30
0.0
 10
16.4312732072
 20
12.6493392121
 30
0.0
 10
16.4112142954
 20
12.6743164093
 30
0.0
 10
16.4006951326
 20
12.6867254579
 30
0.0
  0
SPLINE
  5
3C0
100
AcDbEntity
  8
0
100
AcDbSpline
 62
7
  6
CONTINUOUS
 70
0
 71
3
 72
40
 73
36
 74
0
 42
0.0000001
 43
0.0000001
 44
0.0000000001
 40
0.0
 40
0.0
 40
0.0
 40
0.0
 40
0.0307876069
 40
0.0626512112
 40
0.0954982019
 40
0.1292449363
 40
0.1638028218
 40
0.1990650258
 40
0.2349157139
 40
0.2712330724
 40
0.3078911857
 40
0.344759609
 40
0.3817055804
 40
0.4185957676
 40
0.4552971026
 40
0.4916791015
 40
0.5276139974
 40
0.5629799237
 40
0.5976605355
 40
0.6315487744
 40
0.6645463601
 40
0.6965680009
 40
0.7275411505
 40
0.7574105163
 40
0.7861384737
 40
0.8137097447
 40
0.8401327
 40
0.8529267871
 40
0.8654501445
 40
0.8897158326
 40
0.9130358334
 40
0.9355438863
 40
0.9574064671
 40
0.9788185078
 40
1.0
 40
1.0
 40
1.0
 40
1.0
 10
16.3250553862
 20
12.7178059563
 30
0.0
 10
16.3109058301
 20
12.7327191191
 30
0.0
 10
16.2811371858
 20
12.76215396
 30
0.0
 10
16.2332437072
 20
12.8043009824
 30
0.0
 10
16.181564485
 20
12.8449877202
 30
0.0
 10
16.1263920978
 20
12.8839956341
 30
0.0
 10
16.0680138026
 20
12.9211154434
 30
0.0
 10
16.0067437819
 20
12.9561584847
 30
0.0
 10
15.9429059041
 20
12.9889276512
 30
0.0
 10
15.8768464682
 20
13.0192549408
 30
0.0
 10
15.8089158176
 20
13.0469710795
 30
0.0
 10
15.7394804555
 20
13.0719350106
 30
0.0
 10
15.6689097611
 20
13.0940057556
 30
0.0
 10
15.5975840974
 20
13.1130718818
 30
0.0
 10
15.525883609
 20
13.1290247474
 30
0.0
 10
15.4541939427
 20
13.1417852151
 30
0.0
 10
15.3828976055
 20
13.1512789006
 30
0.0
 10
15.3123772971
 20
13.1574606723
 30
0.0
 10
15.2430094279
 20
13.1602919345
 30
0.0
 10
15.1751653919
 20
13.159762433
 30
0.0
 10
15.1092071749
 20
13.1558698808
 30
0.0
 10
15.0454868164
 20
13.148638758
 30
0.0
 10
14.9843438653
 20
13.1381026103
 30
0.0
 10
14.9261037503
 20
13.124319445
 30
0.0
 10
14.8710757124
 20
13.1073568202
 30
0.0
 10
14.8195548222
 20
13.0873046375
 30
0.0
 10
14.7793424045
 20
13.0678959409
 30
0.0
 10
14.7492597278
 20
13.0508864191
 30
0.0
 10
14.7211883564
 20
13.0333161696
 30
0.0
 10
14.6886678854
 20
13.0096778967
 30
0.0
 10
14.6537249757
 20
12.9784125908
 30
0.0
 10
14.6234710231
 20
12.9447027333
 30
0.0
 10
14.5980881437
 20
12.9087236247
 30
0.0
 10
14.5777295224
 20
12.870682627
 30
0.0
 10
14.5675715717
 20
12.8440194059
 30
0.0
 10
14.5633955536
 20
12.8305066454
 30
0.0
  0
SPLINE
  5
3C1
100
AcDbEntity
  8
0
100
AcDbSpline
 62
7
  6
CONTINUOUS
 70
0
 71
3
 72
15
 73
11
 74
0
 42
0.0000001
 43
0.0000001
 44
0.0000000001
 40
0.0
 40
0.0
 40
0.0
 40
0.0
 40
0.0852943252
 40
0.1765223058
 40
0.2778760577
 40
0.3921515553
 40
0.5210881404
 40
0.6655370675
 40
0.8253563047
 40
1.0
 40
1.0
 40
1.0
 40
1.0
 10
16.0771595505
 20
12.2623639955
 30
0.0
 10
16.0762532951
 20
12.2623641769
 30
0.0
 10
16.074370468
 20
12.2626182071
 30
0.0
 10
16.0716062993
 20
12.2637200828
 30
0.0
 10
16.0688645319
 20
12.2655160587
 30
0.0
 10
16.0661425739
 20
12.2679810231
 30
0.0
 10
16.0634407592
 20
12.2711003131
 30
0.0
 10
16.0607674943
 20
12.2748538917
 30
0.0
 10
16.0581339748
 20
12.2792122528
 30
0.0
 10
16.0564873071
 20
12.2823639256
 30
0.0
 10
16.0556698379
 20
12.2840297528
 30
0.0
  0
SPLINE
  5
3C2
100
AcDbEntity
  8
0
100
AcDbSpline
 62
7
  6
CONTINUOUS
 70
0
 71
3
 72
34
 73
30
 74
0
 42
0.0000001
 43
0.0000001
 44
0.0000000001
 40
0.0
 40
0.0
 40
0.0
 40
0.0
 40
0.0274018239
 40
0.0561170838
 40
0.086103577
 40
0.1173087482
 40
0.1830803025
 40
0.2527066815
 40
0.2886592348
 40
0.3251723962
 40
0.362094968
 40
0.3992674746
 40
0.4736923589
 40
0.5471698506
 40
0.6184536686
 40
0.6529265722
 40
0.6864438653
 40
0.7188951816
 40
0.7501923092
 40
0.7802635616
 40
0.809066133
 40
0.8365853442
 40
0.8628378832
 40
0.8878831027
 40
0.9118174563
 40
0.9347867719
 40
0.9569811613
 40
0.9786312995
 40
1.0
 40
1.0
 40
1.0
 40
1.0
 10
15.3973962066
 20
13.4467292262
 30
0.0
 10
15.3936485394
 20
13.4531306687
 30
0.0
 10
15.3853683612
 20
13.4658930646
 30
0.0
 10
15.37112973
 20
13.4843743218
 30
0.0
 10
15.3548707151
 20
13.5025137485
 30
0.0
 10
15.3302160904
 20
13.5264917249
 30
0.0
 10
15.294924621
 20
13.5547581234
 30
0.0
 10
15.2556779295
 20
13.5796451295
 30
0.0
 10
15.2217358073
 20
13.5977679594
 30
0.0
 10
15.1949561914
 20
13.6104337003
 30
0.0
 10
15.1673001678
 20
13.6219382501
 30
0.0
 10
15.1294903759
 20
13.635642095
 30
0.0
 10
15.0812453464
 20
13.6494383281
 30
0.0
 10
15.0228530337
 20
13.6604241126
 30
0.0
 10
14.9744362969
 20
13.6647639182
 30
0.0
 10
14.936720376
 20
13.6651384637
 30
0.0
 10
14.9095431812
 20
13.663906292
 30
0.0
 10
14.8833399242
 20
13.6611647541
 30
0.0
 10
14.858278173
 20
13.6569397742
 30
0.0
 10
14.8345197768
 20
13.6512506774
 30
0.0
 10
14.8122175115
 20
13.6441347877
 30
0.0
 10
14.7915130227
 20
13.6356388005
 30
0.0
 10
14.7725435359
 20
13.6258055017
 30
0.0
 10
14.7554277277
 20
13.6147038705
 30
0.0
 10
14.7402834392
 20
13.6023916181
 30
0.0
 10
14.7272135018
 20
13.5889463796
 30
0.0
 10
14.7163085154
 20
13.5744512389
 30
0.0
 10
14.7076610598
 20
13.5590000834
 30
0.0
 10
14.7034256597
 20
13.5481035136
 30
0.0
 10
14.7017168724
 20
13.5425770738
 30
0.0
  0
SPLINE
  5
3C3
100
AcDbEntity
  8
0
100
AcDbSpline
 62
7
  6
CONTINUOUS
 70
0
 71
3
 72
21
 73
17
 74
0
 42
0.0000001
 43
0.0000001
 44
0.0000000001
 40
0.0
 40
0.0
 40
0.0
 40
0.0
 40
0.0595442877
 40
0.1189443404
 40
0.1783251108
 40
0.2378123329
 40
0.2975309489
 40
0.3576035411
 40
0.4181483105
 40
0.4792777976
 40
0.5410974773
 40
0.6037043759
 40
0.6671865671
 40
0.7316217974
 40
0.8635683959
 40
1.0
 40
1.0
 40
1.0
 40
1.0
 10
14.2414260217
 20
12.9740585929
 30
0.0
 10
14.2454361785
 20
12.9870353215
 30
0.0
 10
14.2542448096
 20
13.01271871
 30
0.0
 10
14.269812081
 20
13.050325517
 30
0.0
 10
14.2876872282
 20
13.0868791837
 30
0.0
 10
14.3078424978
 20
13.1223099208
 30
0.0
 10
14.3302449174
 20
13.1565529469
 30
0.0
 10
14.354858205
 20
13.1895439584
 30
0.0
 10
14.3816405315
 20
13.221221724
 30
0.0
 10
14.4105460894
 20
13.25152699
 30
0.0
 10
14.4415250466
 20
13.280402667
 30
0.0
 10
14.4745222264
 20
13.3077950003
 30
0.0
 10
14.50948044
 20
13.3336522519
 30
0.0
 10
14.5590047145
 20
13.3662703642
 30
0.0
 10
14.6256590458
 20
13.4029023321
 30
0.0
 10
14.6820628151
 20
13.4269702249
 30
0.0
 10
14.7112127211
 20
13.4378681664
 30
0.0
  0
SPLINE
  5
3C4
100
AcDbEntity
  8
0
100
AcDbSpline
 62
7
  6
CONTINUOUS
 70
0
 71
3
 72
15
 73
11
 74
0
 42
0.0000001
 43
0.0000001
 44
0.0000000001
 40
0.0
 40
0.0
 40
0.0
 40
0.0
 40
0.1380905442
 40
0.27146859
 40
0.4004251928
 40
0.5254272779
 40
0.6471156982
 40
0.766225668
 40
0.8835661757
 40
1.0
 40
1.0
 40
1.0
 40
1.0
 10
14.6392894897
 20
12.5168247187
 30
0.0
 10
14.6333661989
 20
12.5288951163
 30
0.0
 10
14.6225796059
 20
12.5530591567
 30
0.0
 10
14.609538086
 20
12.589845932
 30
0.0
 10
14.5999895928
 20
12.6263817822
 30
0.0
 10
14.5939872228
 20
12.6625155896
 30
0.0
 10
14.5915501566
 20
12.6981069554
 30
0.0
 10
14.5927029881
 20
12.7330216692
 30
0.0
 10
14.5974344562
 20
12.7671157093
 30
0.0
 10
14.6029783153
 20
12.7892462654
 30
0.0
 10
14.6063258997
 20
12.8000775432
 30
0.0
  0
SPLINE
  5
3C5
100
AcDbEntity
  8
0
100
AcDbSpline
 62
7
  6
CONTINUOUS
 70
0
 71
3
 72
23
 73
19
 74
0
 42
0.0000001
 43
0.0000001
 44
0.0000000001
 40
0.0
 40
0.0
 40
0.0
 40
0.0
 40
0.0653273558
 40
0.132661022
 40
0.2013592614
 40
0.2708799472
 40
0.340663411
 40
0.4100878232
 40
0.4785508874
 40
0.5455082436
 40
0.6104910221
 40
0.6731326926
 40
0.7903805663
 40
0.8453542367
 40
0.8982018569
 40
0.949489161
 40
0.9747975844
 40
1.0
 40
1.0
 40
1.0
 40
1.0
 10
15.2507333099
 20
12.6921166969
 30
0.0
 10
15.2549582788
 20
12.6921166969
 30
0.0
 10
15.263544091
 20
12.6926224072
 30
0.0
 10
15.2764105511
 20
12.694773425
 30
0.0
 10
15.2892496826
 20
12.6983082681
 30
0.0
 10
15.3018234123
 20
12.7031502029
 30
0.0
 10
15.3139062531
 20
12.709217584
 30
0.0
 10
15.3252847726
 20
12.7163938803
 30
0.0
 10
15.3357472743
 20
12.7245582329
 30
0.0
 10
15.3451083512
 20
12.7335556766
 30
0.0
 10
15.3531967531
 20
12.743235939
 30
0.0
 10
15.3618895999
 20
12.7564981276
 30
0.0
 10
15.3678326224
 20
12.7707290155
 30
0.0
 10
15.3702390653
 20
12.78513957
 30
0.0
 10
15.3702522433
 20
12.7954796941
 30
0.0
 10
15.368777768
 20
12.8037716435
 30
0.0
 10
15.3667334771
 20
12.8100380075
 30
0.0
 10
15.3654307123
 20
12.8130401898
 30
0.0
 10
15.3647124385
 20
12.8145033284
 30
0.0
  0
SPLINE
  5
3C6
100
AcDbEntity
  8
0
100
AcDbSpline
 62
7
  6
CONTINUOUS
 70
0
 71
3
 72
9
 73
5
 74
0
 42
0.0000001
 43
0.0000001
 44
0.0000000001
 40
0.0
 40
0.0
 40
0.0
 40
0.0
 40
0.4863793863
 40
1.0
 40
1.0
 40
1.0
 40
1.0
 10
16.8318315311
 20
12.5148102211
 30
0.0
 10
16.8223808853
 20
12.5416402529
 30
0.0
 10
16.799429433
 20
12.595602994
 30
0.0
 10
16.7706536037
 20
12.6466527898
 30
0.0
 10
16.7546559388
 20
12.672077543
 30
0.0
  0
SPLINE
  5
3C7
100
AcDbEntity
  8
0
100
AcDbSpline
 62
7
  6
CONTINUOUS
 70
0
 71
3
 72
13
 73
9
 74
0
 42
0.0000001
 43
0.0000001
 44
0.0000000001
 40
0.0
 40
0.0
 40
0.0
 40
0.0
 40
0.1182634521
 40
0.2372232261
 40
0.3575723836
 40
0.4799685957
 40
0.7329918571
 40
1.0
 40
1.0
 40
1.0
 40
1.0
 10
16.3334061961
 20
11.4563122321
 30
0.0
 10
16.334546026
 20
11.45999859
 30
0.0
 10
16.3364840142
 20
11.4675058956
 30
0.0
 10
16.3383303055
 20
11.4790414422
 30
0.0
 10
16.3391175674
 20
11.4908332693
 30
0.0
 10
16.3387485092
 20
11.5070232858
 30
0.0
 10
16.3355161935
 20
11.5278360409
 30
0.0
 10
16.3303232848
 20
11.5440604704
 30
0.0
 10
16.3271157067
 20
11.5521600797
 30
0.0
  0
SPLINE
  5
3C8
100
AcDbEntity
  8
0
100
AcDbSpline
 62
7
  6
CONTINUOUS
 70
0
 71
3
 72
15
 73
11
 74
0
 42
0.0000001
 43
0.0000001
 44
0.0000000001
 40
0.0
 40
0.0
 40
0.0
 40
0.0
 40
0.116435393
 40
0.2337672347
 40
0.3528679341
 40
0.4745595101
 40
0.599584085
 40
0.7285728384
 40
0.8619480201
 40
1.0
 40
1.0
 40
1.0
 40
1.0
 10
14.9789346269
 20
12.3440938102
 30
0.0
 10
14.9772997048
 20
12.3388013702
 30
0.0
 10
14.9745905693
 20
12.327989043
 30
0.0
 10
14.9722752585
 20
12.3113318914
 30
0.0
 10
14.9717145278
 20
12.2942731813
 30
0.0
 10
14.9729040188
 20
12.2768825377
 30
0.0
 10
14.9758374666
 20
12.2592248068
 30
0.0
 10
14.9805062425
 20
12.241371826
 30
0.0
 10
14.9868770075
 20
12.2233979649
 30
0.0
 10
14.9921460199
 20
12.2115929917
 30
0.0
 10
14.995039322
 20
12.2056970618
 30
0.0
  0
SPLINE
  5
3C9
100
AcDbEntity
  8
0
100
AcDbSpline
 62
7
  6
CONTINUOUS
 70
0
 71
3
 72
11
 73
7
 74
0
 42
0.0000001
 43
0.0000001
 44
0.0000000001
 40
0.0
 40
0.0
 40
0.0
 40
0.0
 40
0.2971821036
 40
0.4370328382
 40
0.568674496
 40
1.0
 40
1.0
 40
1.0
 40
1.0
 10
15.5847858533
 20
11.7143375202
 30
0.0
 10
15.5839205993
 20
11.714483915
 30
0.0
 10
15.5826279158
 20
11.7145993454
 30
0.0
 10
15.5809452548
 20
11.7145125431
 30
0.0
 10
15.5789074199
 20
11.7141960066
 30
0.0
 10
15.5772279474
 20
11.7134704389
 30
0.0
 10
15.576408623
 20
11.7124952837
 30
0.0
  0
SPLINE
  5
3CA
100
AcDbEntity
  8
0
100
AcDbSpline
 62
7
  6
CONTINUOUS
 70
0
 71
3
 72
15
 73
11
 74
0
 42
0.0000001
 43
0.0000001
 44
0.0000000001
 40
0.0
 40
0.0
 40
0.0
 40
0.0
 40
0.1144091225
 40
0.2324086591
 40
0.3537144412
 40
0.4780683205
 40
0.6052004802
 40
0.7348117381
 40
0.8665617402
 40
1.0
 40
1.0
 40
1.0
 40
1.0
 10
16.2208864583
 20
11.7143375202
 30
0.0
 10
16.196983362
 20
11.7094879941
 30
0.0
 10
16.1481368748
 20
11.7010223488
 30
0.0
 10
16.0732342796
 20
11.6920614845
 30
0.0
 10
15.9958638149
 20
11.6866893999
 30
0.0
 10
15.9163827538
 20
11.68492141
 30
0.0
 10
15.83513412
 20
11.6867691316
 30
0.0
 10
15.752468406
 20
11.6922203043
 30
0.0
 10
15.6687678366
 20
11.7012577356
 30
0.0
 10
15.612833996
 20
11.7095919728
 30
0.0
 10
15.5847858533
 20
11.7143375202
 30
0.0
  0
SPLINE
  5
3CB
100
AcDbEntity
  8
0
100
AcDbSpline
 62
7
  6
CONTINUOUS
 70
0
 71
3
 72
10
 73
6
 74
0
 42
0.0000001
 43
0.0000001
 44
0.0000000001
 40
0.0
 40
0.0
 40
0.0
 40
0.0
 40
0.5180543485
 40
0.7699831245
 40
1.0
 40
1.0
 40
1.0
 40
1.0
 10
16.2311305576
 20
11.7124630096
 30
0.0
 10
16.2295285302
 20
11.7133424441
 30
0.0
 10
16.2269111033
 20
11.7142746315
 30
0.0
 10
16.2233918365
 20
11.7146321087
 30
0.0
 10
16.2216816867
 20
11.7144988583
 30
0.0
 10
16.2208864583
 20
11.7143375202
 30
0.0
  0
SPLINE
  5
3CC
100
AcDbEntity
  8
0
100
AcDbSpline
 62
7
  6
CONTINUOUS
 70
0
 71
3
 72
11
 73
7
 74
0
 42
0.0000001
 43
0.0000001
 44
0.0000000001
 40
0.0
 40
0.0
 40
0.0
 40
0.0
 40
0.2383312728
 40
0.4839128086
 40
0.7375860727
 40
1.0
 40
1.0
 40
1.0
 40
1.0
 10
16.5472281115
 20
12.3625905177
 30
0.0
 10
16.5455181337
 20
12.3753747814
 30
0.0
 10
16.5408447283
 20
12.4011844183
 30
0.0
 10
16.5303712328
 20
12.4397485209
 30
0.0
 10
16.5163776908
 20
12.4785645166
 30
0.0
 10
16.504937709
 20
12.5040756431
 30
0.0
 10
16.4986813713
 20
12.5168247187
 30
0.0
  0
SPLINE
  5
3CD
100
AcDbEntity
  8
0
100
AcDbSpline
 62
7
  6
CONTINUOUS
 70
0
 71
3
 72
10
 73
6
 74
0
 42
0.0000001
 43
0.0000001
 44
0.0000000001
 40
0.0
 40
0.0
 40
0.0
 40
0.0
 40
0.4829557005
 40
0.7372354595
 40
1.0
 40
1.0
 40
1.0
 40
1.0
 10
16.4986813713
 20
12.5168247187
 30
0.0
 10
16.4855071089
 20
12.5436710429
 30
0.0
 10
16.4623864161
 20
12.5832336454
 30
0.0
 10
16.4264363992
 20
12.6336685393
 30
0.0
 10
16.406374719
 20
12.6586478066
 30
0.0
 10
16.3958538061
 20
12.6710589197
 30
0.0
  0
SPLINE
  5
3CE
100
AcDbEntity
  8
0
100
AcDbSpline
 62
7
  6
CONTINUOUS
 70
0
 71
3
 72
40
 73
36
 74
0
 42
0.0000001
 43
0.0000001
 44
0.0000000001
 40
0.0
 40
0.0
 40
0.0
 40
0.0
 40
0.0307875968
 40
0.0626511687
 40
0.0954981458
 40
0.1292449176
 40
0.1638028725
 40
0.1990650409
 40
0.2349154784
 40
0.2712325715
 40
0.3078906593
 40
0.3447592346
 40
0.3817054003
 40
0.4185957712
 40
0.4552972665
 40
0.4916793914
 40
0.5276143638
 40
0.5629803186
 40
0.5976609226
 40
0.6315491224
 40
0.6645466539
 40
0.6965682293
 40
0.7275413142
 40
0.757410624
 40
0.7861385375
 40
0.8137097907
 40
0.8401327447
 40
0.8529268339
 40
0.8654501778
 40
0.8897157491
 40
0.9130355809
 40
0.9355435619
 40
0.9574062246
 40
0.9788183671
 40
1.0
 40
1.0
 40
1.0
 40
1.0
 10
16.3202140597
 20
12.7021394181
 30
0.0
 10
16.3060645119
 20
12.7170525721
 30
0.0
 10
16.2762958988
 20
12.746487389
 30
0.0
 10
16.2284024497
 20
12.7886343633
 30
0.0
 10
16.1767232368
 20
12.8293210758
 30
0.0
 10
16.1215508033
 20
12.8683290023
 30
0.0
 10
16.0631724531
 20
12.9054487808
 30
0.0
 10
16.0019025655
 20
12.9404917238
 30
0.0
 10
15.9380650538
 20
12.9732607556
 30
0.0
 10
15.8720059533
 20
13.0035878669
 30
0.0
 10
15.8040753905
 20
13.031303921
 30
0.0
 10
15.7346398707
 20
13.0562679903
 30
0.0
 10
15.6640688435
 20
13.0783387953
 30
0.0
 10
15.5927428544
 20
13.0974050212
 30
0.0
 10
15.5210420668
 20
13.1133579021
 30
0.0
 10
15.4493521762
 20
13.1261183825
 30
0.0
 10
15.3780556997
 20
13.1356120533
 30
0.0
 10
15.3075353403
 20
13.1417937717
 30
0.0
 10
15.2381675004
 20
13.1446250096
 30
0.0
 10
15.1703235501
 20
13.1440954539
 30
0.0
 10
15.1043654573
 20
13.140202893
 30
0.0
 10
15.0406452406
 20
13.1329717579
 30
0.0
 10
14.9795024316
 20
13.1224356175
 30
0.0
 10
14.9212624356
 20
13.1086524917
 30
0.0
 10
14.8662344923
 20
13.0916898825
 30
0.0
 10
14.814713632
 20
13.0716377764
 30
0.0
 10
14.7745012497
 20
13.052229058
 30
0.0
 10
14.7444185777
 20
13.0352195652
 30
0.0
 10
14.7163472647
 20
13.0176493987
 30
0.0
 10
14.6838269464
 20
12.9940112836
 30
0.0
 10
14.6488840874
 20
12.9627462855
 30
0.0
 10
14.6186303293
 20
12.9290364184
 30
0.0
 10
14.5932471724
 20
12.8930574353
 30
0.0
 10
14.572888404
 20
12.8550162743
 30
0.0
 10
14.5627303322
 20
12.8283529347
 30
0.0
 10
14.5585542753
 20
12.8148400917
 30
0.0
  0
SPLINE
  5
3CF
100
AcDbEntity
  8
0
100
AcDbSpline
 62
7
  6
CONTINUOUS
 70
0
 71
3
 72
15
 73
11
 74
0
 42
0.0000001
 43
0.0000001
 44
0.0000000001
 40
0.0
 40
0.0
 40
0.0
 40
0.0
 40
0.1267215381
 40
0.2518854373
 40
0.3758275707
 40
0.4992310066
 40
0.6227410071
 40
0.7469942895
 40
0.8726486974
 40
1.0
 40
1.0
 40
1.0
 40
1.0
 10
16.0558534135
 20
13.3283999848
 30
0.0
 10
16.0578906542
 20
13.333899729
 30
0.0
 10
16.0627095237
 20
13.3445655529
 30
0.0
 10
16.0721005668
 20
13.3592768363
 30
0.0
 10
16.0834589279
 20
13.372332861
 30
0.0
 10
16.0965806931
 20
13.3834967865
 30
0.0
 10
16.1112344703
 20
13.3925836621
 30
0.0
 10
16.127172964
 20
13.3994302185
 30
0.0
 10
16.1441079228
 20
13.4039149576
 30
0.0
 10
16.1557834061
 20
13.4052801428
 30
0.0
 10
16.1616708264
 20
13.4055604229
 30
0.0
  0
SPLINE
  5
3D0
100
AcDbEntity
  8
0
100
AcDbSpline
 62
7
  6
CONTINUOUS
 70
0
 71
3
 72
9
 73
5
 74
0
 42
0.0000001
 43
0.0000001
 44
0.0000000001
 40
0.0
 40
0.0
 40
0.0
 40
0.0
 40
0.2478337693
 40
1.0
 40
1.0
 40
1.0
 40
1.0
 10
16.1616708264
 20
13.4055604229
 30
0.0
 10
16.1635050819
 20
13.4056477456
 30
0.0
 10
16.1709131325
 20
13.4058409817
 30
0.0
 10
16.17833615
 20
13.4054045389
 30
0.0
 10
16.1838697498
 20
13.4047413278
 30
0.0
  0
SPLINE
  5
3D1
100
AcDbEntity
  8
0
100
AcDbSpline
 62
7
  6
CONTINUOUS
 70
0
 71
3
 72
9
 73
5
 74
0
 42
0.0000001
 43
0.0000001
 44
0.0000000001
 40
0.0
 40
0.0
 40
0.0
 40
0.0
 40
0.2529163133
 40
1.0
 40
1.0
 40
1.0
 40
1.0
 10
16.322843071
 20
13.2240031667
 30
0.0
 10
16.3225092601
 20
13.2216366309
 30
0.0
 10
16.3209456773
 20
13.2123160663
 30
0.0
 10
16.3184013433
 20
13.203156664
 30
0.0
 10
16.3159491076
 20
13.1965365976
 30
0.0
  0
SPLINE
  5
3D2
100
AcDbEntity
  8
0
100
AcDbSpline
 62
7
  6
CONTINUOUS
 70
0
 71
3
 72
15
 73
11
 74
0
 42
0.0000001
 43
0.0000001
 44
0.0000000001
 40
0.0
 40
0.0
 40
0.0
 40
0.0
 40
0.1267215381
 40
0.2518854373
 40
0.3758275707
 40
0.4992310066
 40
0.6227410071
 40
0.7469942895
 40
0.8726486974
 40
1.0
 40
1.0
 40
1.0
 40
1.0
 10
16.3159491076
 20
13.1965365976
 30
0.0
 10
16.3139118668
 20
13.1910368534
 30
0.0
 10
16.3090929974
 20
13.1803710296
 30
0.0
 10
16.2997019543
 20
13.1656597462
 30
0.0
 10
16.2883435932
 20
13.1526037214
 30
0.0
 10
16.275221828
 20
13.141439796
 30
0.0
 10
16.2605680508
 20
13.1323529203
 30
0.0
 10
16.244629557
 20
13.1255063639
 30
0.0
 10
16.2276945983
 20
13.1210216249
 30
0.0
 10
16.216019115
 20
13.1196564396
 30
0.0
 10
16.2101316947
 20
13.1193761595
 30
0.0
  0
SPLINE
  5
3D3
100
AcDbEntity
  8
0
100
AcDbSpline
 62
7
  6
CONTINUOUS
 70
0
 71
3
 72
14
 73
10
 74
0
 42
0.0000001
 43
0.0000001
 44
0.0000000001
 40
0.0
 40
0.0
 40
0.0
 40
0.0
 40
0.118624118
 40
0.2394662657
 40
0.3623767283
 40
0.4872971481
 40
0.6139605676
 40
0.7419996217
 40
1.0
 40
1.0
 40
1.0
 40
1.0
 10
16.2101316947
 20
13.1193761595
 30
0.0
 10
16.2041453344
 20
13.1190911692
 30
0.0
 10
16.1920057829
 20
13.1193629617
 30
0.0
 10
16.1738700021
 20
13.1222084789
 30
0.0
 10
16.155944815
 20
13.1274550172
 30
0.0
 10
16.1385455285
 20
13.1350042694
 30
0.0
 10
16.1219546439
 20
13.1447238069
 30
0.0
 10
16.1012651794
 20
13.1603766782
 30
0.0
 10
16.087824508
 20
13.1748204245
 30
0.0
 10
16.0800838476
 20
13.1853078531
 30
0.0
  0
SPLINE
  5
3D4
100
AcDbEntity
  8
0
100
AcDbSpline
 62
7
  6
CONTINUOUS
 70
0
 71
3
 72
14
 73
10
 74
0
 42
0.0000001
 43
0.0000001
 44
0.0000000001
 40
0.0
 40
0.0
 40
0.0
 40
0.0
 40
0.2586822118
 40
0.3868235122
 40
0.5134548522
 40
0.6382396625
 40
0.7609492312
 40
0.8815697001
 40
1.0
 40
1.0
 40
1.0
 40
1.0
 10
16.0800838476
 20
13.1853078531
 30
0.0
 10
16.0723533484
 20
13.1957815147
 30
0.0
 10
16.0625276005
 20
13.2128485787
 30
0.0
 10
16.053709477
 20
13.2371798276
 30
0.0
 10
16.0493611722
 20
13.2558294973
 30
0.0
 10
16.047338779
 20
13.2745948382
 30
0.0
 10
16.0476848582
 20
13.2931681363
 30
0.0
 10
16.0503992775
 20
13.3112205186
 30
0.0
 10
16.0537832423
 20
13.3228113416
 30
0.0
 10
16.0558534135
 20
13.3283999848
 30
0.0
  0
ENDSEC
  0
SECTION
  2
OBJECTS
  0
DICTIONARY
  5
C
100
AcDbDictionary
280
0
281
1
  3
ACAD_GROUP
350
D
  3
ACAD_MLINESTYLE
350
17
  3
ACAD_LAYOUT
350
1A
  3
ACAD_PLOTSETTINGS
350
19
  3
ACAD_PLOTSTYLENAME
350
E
  0
DICTIONARY
  5
D
102
{ACAD_REACTORS
330
C
102
}
100
AcDbDictionary
280
0
281
1
  0
ACDBDICTIONARYWDFLT
  5
E
102
{ACAD_REACTORS
330
C
102
}
100
AcDbDictionary
281
1
  3
Normal
350
F
100
AcDbDictionaryWithDefault
340
F
  0
DICTIONARY
  5
17
102
{ACAD_REACTORS
330
C
102
}
100
AcDbDictionary
280
0
281
1
  3
Standard
350
18
  0
DICTIONARY
  5
19
102
{ACAD_REACTORS
330
C
102
}
100
AcDbDictionary
281
1
  0
DICTIONARY
  5
1A
102
{ACAD_REACTORS
330
C
102
}
100
AcDbDictionary
281
1
  3
Model
350
3D5
  3
Layout1
350
3D6
  0
ACDBPLACEHOLDER
  5
F
102
{ACAD_REACTORS
330
E
102
}
  0
MLINESTYLE
  5
18
102
{ACAD_REACTORS
330
17
102
}
100
AcDbMlineStyle
  2
STANDARD
 70
0
  3

 62
256
 51
90.0
 52
90.0
 71
2
 49
0.5
 62
256
  6
BYLAYER
 49
-0.5
 62
256
  6
BYLAYER
  0
LAYOUT
  5
3D5
102
{ACAD_REACTORS
330
1A
102
}
100
AcDbPlotSettings
  1

  2
none_device
  4
ANSI_C_(22.00_x_17.00_Inches)
  6

 40
0.0
 41
0.0
 42
0.0
 43
0.0
 44
558.8
 45
431.8
 46
0.0
 47
0.0
 48
0.0
 49
0.0
140
0.0
141
0.0
142
1.0
143
1.0
 70
1024
 72
0
 73
0
 74
0
  7

 75
0
147
1.0
148
0.0
149
0.0
100
AcDbLayout
  1
Model
 70
0
 71
0
 10
0.0
 20
0.0
 11
22.0
 21
17.0
 12
0.0
 22
0.0
 32
0.0
 14
0.0
 24
0.0
 34
0.0
 15
0.0
 25
0.0
 35
0.0
146
0.0
 13
0.0
 23
0.0
 33
0.0
 16
1.0
 26
0.0
 36
0.0
 17
0.0
 27
1.0
 37
0.0
 76
0
330
217
345
0
346
0
  0
LAYOUT
  5
3D6
102
{ACAD_REACTORS
330
1A
102
}
100
AcDbPlotSettings
  1

  2
none_device
  4
ANSI_C_(22.00_x_17.00_Inches)
  6

 40
0.0
 41
0.0
 42
0.0
 43
0.0
 44
558.8
 45
431.8
 46
0.0
 47
0.0
 48
0.0
 49
0.0
140
0.0
141
0.0
142
1.0
143
1.0
 70
0
 72
0
 73
0
 74
0
  7

 75
0
147
1.0
148
0.0
149
0.0
100
AcDbLayout
  1
Layout1
 70
0
 71
1
 10
0.0
 20
0.0
 11
22.0
 21
17.0
 12
0.0
 22
0.0
 32
0.0
 14
0.0
 24
0.0
 34
0.0
 15
0.0
 25
0.0
 35
0.0
146
0.0
 13
0.0
 23
0.0
 33
0.0
 16
1.0
 26
0.0
 36
0.0
 17
0.0
 27
1.0
 37
0.0
 76
0
330
218
345
0
346
0
  0
ENDSEC
  0
EOF