999
DXF file: _cgs_temp_output.dxf
999
Pro/ENGINEER 2016360 by Parametric Technology Corporation
  0
SECTION
  2
HEADER
  9
$ACADVER
  1
AC1021
  9
$DWGCODEPAGE
  3
ANSI_1252
  9
$EXTMAX
 10
22.0
 20
17.0
 30
0.0
  9
$EXTMIN
 10
0.0
 20
0.0
 30
0.0
  9
$LIMMIN
 10
0.0
 20
0.0
  9
$LIMMAX
 10
22.0
 20
17.0
  9
$VIEWCTR
 10
11.0
 20
8.5
  9
$VIEWSIZE
 40
17.0
  9
$CLAYER
  8
0
  9
$LTSCALE
 40
1.21
  9
$CELTYPE
  6
BYLAYER
  9
$DIMSCALE
 40
1.0
  9
$DIMASZ
 40
0.1875
  9
$DIMEXO
 40
0.0625
  9
$DIMDLI
 40
0.836
  9
$DIMEXE
 40
0.125
  9
$DIMCEN
 40
0.198
  9
$DIMLFAC
 40
1.0
  9
$DIMBLK
  1
_CLOSED
  9
$DIMALT
 70
0
  9
$DIMALTF
 40
25.4
  9
$DIMTXT
 40
0.15625
  9
$DIMTOL
 70
0
  9
$DIMLIM
 70
0
  9
$DIMTFAC
 40
1.0
  9
$DIMGAP
 40
0.09
  9
$DIMDSEP
 70
46
  9
$AUNITS
 70
0
  9
$PDMODE
 70
3
  9
$PDSIZE
 40
0.3125
  9
$HANDSEED
  5
2AE
  9
$TILEMODE
 70
1
  9
$MEASUREMENT
 70
0
  9
$INSUNITS
 70
1
  0
ENDSEC
  0
SECTION
  2
CLASSES
  0
CLASS
  1
ACDBDICTIONARYWDFLT
  2
AcDbDictionaryWithDefault
  3
AutoCAD 2000
 90
0
 91
1
280
0
281
0
  0
CLASS
  1
ACDBPLACEHOLDER
  2
AcDbPlaceHolder
  3
AutoCAD 2000
 90
0
 91
1
280
0
281
0
  0
CLASS
  1
LAYOUT
  2
AcDbLayout
  3
AutoCAD 2000
 90
0
 91
0
280
0
281
0
  0
ENDSEC
  0
SECTION
  2
TABLES
  0
TABLE
  2
VPORT
  5
8
100
AcDbSymbolTable
 70
2
  0
VPORT
  5
1F4
100
AcDbSymbolTableRecord
100
AcDbViewportTableRecord
  2
*ACTIVE
 70
0
 10
0.0
 20
0.0
 11
1.0
 21
1.0
 12
11.0
 22
8.5
 13
0.0
 23
0.0
 14
1.0
 24
1.0
 15
0.0
 25
0.0
 16
0.0
 26
0.0
 36
1.0
 17
0.0
 27
0.0
 37
0.0
 40
17.0
 41
1.2941176471
 42
50.0
 43
0.0
 44
0.0
 50
0.0
 51
0.0
 71
0
 72
100
 73
1
 74
1
 75
0
 76
0
 77
0
 78
0
  0
ENDTAB
  0
TABLE
  2
LTYPE
  5
5
100
AcDbSymbolTable
 70
6
  0
LTYPE
  5
14
100
AcDbSymbolTableRecord
100
AcDbLinetypeTableRecord
  2
BYBLOCK
 70
0
  3

 72
65
 73
0
 40
0.0
  0
LTYPE
  5
15
100
AcDbSymbolTableRecord
100
AcDbLinetypeTableRecord
  2
BYLAYER
 70
0
  3

 72
65
 73
0
 40
0.0
  0
LTYPE
  5
16
100
AcDbSymbolTableRecord
100
AcDbLinetypeTableRecord
  2
CONTINUOUS
 70
64
  3
Solid line
 72
65
 73
0
 40
0.0
  0
LTYPE
  5
1F5
100
AcDbSymbolTableRecord
100
AcDbLinetypeTableRecord
  2
CENTER
 70
64
  3
____ _ ____ _ ____ _ ____ _ ____ _ ____ _ ____
 72
65
 73
4
 40
0.6
 49
0.375
 74
0
 49
-0.075
 74
0
 49
0.075
 74
0
 49
-0.075
 74
0
  0
LTYPE
  5
1F6
100
AcDbSymbolTableRecord
100
AcDbLinetypeTableRecord
  2
HIDDEN
 70
64
  3
- - - - - - - - - - - - - - - - - - - -
 72
65
 73
2
 40
0.2
 49
0.1
 74
0
 49
-0.1
 74
0
  0
LTYPE
  5
1F7
100
AcDbSymbolTableRecord
100
AcDbLinetypeTableRecord
  2
PHANTOM
 70
64
  3
_____ _ _ _____ _ _ _____ _ _ _____
 72
65
 73
6
 40
0.8
 49
0.45
 74
0
 49
-0.05
 74
0
 49
0.1
 74
0
 49
-0.05
 74
0
 49
0.1
 74
0
 49
-0.05
 74
0
  0
LTYPE
  5
1F8
100
AcDbSymbolTableRecord
100
AcDbLinetypeTableRecord
  2
DOT
 70
64
  3
. . . . . . . . . . . . . . . . . . . .
 72
65
 73
2
 40
0.2
 49
0.1
 74
0
 49
-0.1
 74
0
  0
LTYPE
  5
1F9
100
AcDbSymbolTableRecord
100
AcDbLinetypeTableRecord
  2
DASHED
 70
64
  3
- - - - - - - - - - - - - - - - - - - -
 72
65
 73
2
 40
0.2
 49
0.1
 74
0
 49
-0.1
 74
0
  0
ENDTAB
  0
TABLE
  2
LAYER
  5
2
100
AcDbSymbolTable
 70
36
  0
LAYER
  5
10
100
AcDbSymbolTableRecord
100
AcDbLayerTableRecord
  2
0
 70
0
 62
7
  6
CONTINUOUS
370
-3
390
F
  0
LAYER
  5
1FA
100
AcDbSymbolTableRecord
100
AcDbLayerTableRecord
  2
DEFAULT_1
 70
0
 62
7
  6
CENTER
370
-3
390
F
  0
LAYER
  5
1FB
100
AcDbSymbolTableRecord
100
AcDbLayerTableRecord
  2
DEFAULT_2
 70
0
 62
8
  6
HIDDEN
370
-3
390
F
  0
LAYER
  5
1FC
100
AcDbSymbolTableRecord
100
AcDbLayerTableRecord
  2
DEFAULT_3
 70
0
 62
7
  6
PHANTOM
370
-3
390
F
  0
LAYER
  5
1FD
100
AcDbSymbolTableRecord
100
AcDbLayerTableRecord
  2
01_ALL_DTM_PLN
 70
0
 62
7
  6
CONTINUOUS
370
-3
390
F
  0
LAYER
  5
1FE
100
AcDbSymbolTableRecord
100
AcDbLayerTableRecord
  2
01__ASM_ALL_DTM_PLN
 70
0
 62
7
  6
CONTINUOUS
370
-3
390
F
  0
LAYER
  5
1FF
100
AcDbSymbolTableRecord
100
AcDbLayerTableRecord
  2
01__ASM_DEF_DTM_PLN
 70
0
 62
7
  6
CONTINUOUS
370
-3
390
F
  0
LAYER
  5
200
100
AcDbSymbolTableRecord
100
AcDbLayerTableRecord
  2
01___PRT_ALL_DTM_PLN
 70
0
 62
7
  6
CONTINUOUS
370
-3
390
F
  0
LAYER
  5
201
100
AcDbSymbolTableRecord
100
AcDbLayerTableRecord
  2
01___PRT_DEF_DTM_PLN
 70
0
 62
7
  6
CONTINUOUS
370
-3
390
F
  0
LAYER
  5
202
100
AcDbSymbolTableRecord
100
AcDbLayerTableRecord
  2
02_ALL_AXES
 70
0
 62
7
  6
CONTINUOUS
370
-3
390
F
  0
LAYER
  5
203
100
AcDbSymbolTableRecord
100
AcDbLayerTableRecord
  2
02__ASM_ALL_AXES
 70
0
 62
7
  6
CONTINUOUS
370
-3
390
F
  0
LAYER
  5
204
100
AcDbSymbolTableRecord
100
AcDbLayerTableRecord
  2
02___PRT_ALL_AXES
 70
0
 62
7
  6
CONTINUOUS
370
-3
390
F
  0
LAYER
  5
205
100
AcDbSymbolTableRecord
100
AcDbLayerTableRecord
  2
03_ALL_CURVES
 70
0
 62
7
  6
CONTINUOUS
370
-3
390
F
  0
LAYER
  5
206
100
AcDbSymbolTableRecord
100
AcDbLayerTableRecord
  2
03__ASM_ALL_CURVES
 70
0
 62
7
  6
CONTINUOUS
370
-3
390
F
  0
LAYER
  5
207
100
AcDbSymbolTableRecord
100
AcDbLayerTableRecord
  2
03___PRT_ALL_CURVES
 70
0
 62
7
  6
CONTINUOUS
370
-3
390
F
  0
LAYER
  5
208
100
AcDbSymbolTableRecord
100
AcDbLayerTableRecord
  2
04_ALL_DTM_PNT
 70
0
 62
7
  6
CONTINUOUS
370
-3
390
F
  0
LAYER
  5
209
100
AcDbSymbolTableRecord
100
AcDbLayerTableRecord
  2
04__ASM_ALL_DTM_PNT
 70
0
 62
7
  6
CONTINUOUS
370
-3
390
F
  0
LAYER
  5
20A
100
AcDbSymbolTableRecord
100
AcDbLayerTableRecord
  2
04___PRT_ALL_DTM_PNT
 70
0
 62
7
  6
CONTINUOUS
370
-3
390
F
  0
LAYER
  5
20B
100
AcDbSymbolTableRecord
100
AcDbLayerTableRecord
  2
05_ALL_DTM_CSYS
 70
0
 62
7
  6
CONTINUOUS
370
-3
390
F
  0
LAYER
  5
20C
100
AcDbSymbolTableRecord
100
AcDbLayerTableRecord
  2
05__ASM_ALL_DTM_CSYS
 70
0
 62
7
  6
CONTINUOUS
370
-3
390
F
  0
LAYER
  5
20D
100
AcDbSymbolTableRecord
100
AcDbLayerTableRecord
  2
05__ASM_DEF_DTM_CSYS
 70
0
 62
7
  6
CONTINUOUS
370
-3
390
F
  0
LAYER
  5
20E
100
AcDbSymbolTableRecord
100
AcDbLayerTableRecord
  2
05___PRT_ALL_DTM_CSYS
 70
0
 62
7
  6
CONTINUOUS
370
-3
390
F
  0
LAYER
  5
20F
100
AcDbSymbolTableRecord
100
AcDbLayerTableRecord
  2
05___PRT_DEF_DTM_CSYS
 70
0
 62
7
  6
CONTINUOUS
370
-3
390
F
  0
LAYER
  5
210
100
AcDbSymbolTableRecord
100
AcDbLayerTableRecord
  2
06_ALL_SURFS
 70
0
 62
7
  6
CONTINUOUS
370
-3
390
F
  0
LAYER
  5
211
100
AcDbSymbolTableRecord
100
AcDbLayerTableRecord
  2
06__ASM_ALL_SURFS
 70
0
 62
7
  6
CONTINUOUS
370
-3
390
F
  0
LAYER
  5
212
100
AcDbSymbolTableRecord
100
AcDbLayerTableRecord
  2
06___PRT_ALL_SURFS
 70
0
 62
7
  6
CONTINUOUS
370
-3
390
F
  0
LAYER
  5
213
100
AcDbSymbolTableRecord
100
AcDbLayerTableRecord
  2
07__ASM_ALL_SKELETONS
 70
0
 62
7
  6
CONTINUOUS
370
-3
390
F
  0
ENDTAB
  0
TABLE
  2
STYLE
  5
3
100
AcDbSymbolTable
 70
1
  0
STYLE
  5
11
100
AcDbSymbolTableRecord
100
AcDbTextStyleTableRecord
  2
STANDARD
 70
0
 40
0.0
 41
0.8
 50
0.0
 71
0
 42
0.2
  3
txt
  4

  0
STYLE
  5
214
100
AcDbSymbolTableRecord
100
AcDbTextStyleTableRecord
  2
TEXTSTYLE_1
 70
0
 40
0.0
 41
0.8
 50
0.0
 71
0
 42
0.2
  3
gdt
  4

  0
ENDTAB
  0
TABLE
  2
VIEW
  5
6
100
AcDbSymbolTable
 70
0
  0
ENDTAB
  0
TABLE
  2
UCS
  5
7
100
AcDbSymbolTable
 70
0
  0
ENDTAB
  0
TABLE
  2
APPID
  5
9
100
AcDbSymbolTable
 70
1
  0
APPID
  5
215
100
AcDbSymbolTableRecord
100
AcDbRegAppTableRecord
  2
ACAD
 70
0
  0
ENDTAB
  0
TABLE
  2
BLOCK_RECORD
  5
1
100
AcDbSymbolTable
 70
0
  0
BLOCK_RECORD
  5
216
100
AcDbSymbolTableRecord
100
AcDbBlockTableRecord
  2
*Model_Space
  0
BLOCK_RECORD
  5
217
100
AcDbSymbolTableRecord
100
AcDbBlockTableRecord
  2
*Paper_Space
  0
ENDTAB
  0
TABLE
  2
DIMSTYLE
  5
A
100
AcDbSymbolTable
 70
1
100
AcDbDimStyleTable
 71
0
  0
DIMSTYLE
105
218
100
AcDbSymbolTableRecord
100
AcDbDimStyleTableRecord
  2
STANDARD
 70
0
  3

  4

 40
1.0
 41
0.1875
 42
0.0625
 43
0.38
 44
0.125
 45
0.0
 46
0.0
 47
0.0001
 48
0.0001
140
0.15625
141
0.09
142
0.0
143
25.4
144
1.0
145
0.0
146
1.0
147
0.09
 71
0.0
 72
0.0
 73
1
 74
1
 75
0
 76
0
 77
0
 78
4
 79
1
170
0
171
3
172
0
173
0
174
0
175
0
176
0
177
0
178
0
270
2
179
4
271
4
272
4
273
2
274
2
275
0
280
0
281
0
282
0
283
1
284
4
285
0
286
0
287
3
288
0
340
11
278
46
  0
ENDTAB
  0
ENDSEC
  0
SECTION
  2
BLOCKS
  0
BLOCK
  5
20
100
AcDbEntity
  8
0
100
AcDbBlockBegin
  2
*Model_Space
 70
0
 10
0.0
 20
0.0
 30
0.0
  3
*Model_Space
  1

  0
ENDBLK
  5
21
100
AcDbEntity
  8
0
100
AcDbBlockEnd
  0
BLOCK
  5
1C
100
AcDbEntity
  8
0
100
AcDbBlockBegin
  2
*Paper_Space
 70
0
 10
0.0
 20
0.0
 30
0.0
  3
*Paper_Space
  1

  0
ENDBLK
  5
1D
100
AcDbEntity
  8
0
100
AcDbBlockEnd
  0
ENDSEC
  0
SECTION
  2
ENTITIES
  0
MTEXT
  5
219
100
AcDbEntity
  8
0
100
AcDbMText
 62
7
  6
CONTINUOUS
  7
STANDARD
 71
1
 72
1
 10
15.9560215477
 20
0.9479130325
 30
0.0
 11
1.0
 21
0.0
 31
0.0
 44
0.9
  1
SCALE: 1:1.000
 40
0.3
 41
3.36
  0
LINE
  5
21A
100
AcDbEntity
  8
0
100
AcDbLine
 62
7
  6
CONTINUOUS
 10
0.0
 20
0.0
 11
0.0
 21
17.0
  0
LINE
  5
21B
100
AcDbEntity
  8
0
100
AcDbLine
 62
7
  6
CONTINUOUS
 10
0.0
 20
0.0
 11
22.0
 21
0.0
  0
LINE
  5
21C
100
AcDbEntity
  8
0
100
AcDbLine
 62
7
  6
CONTINUOUS
 10
0.0
 20
17.0
 11
22.0
 21
17.0
  0
LINE
  5
21D
100
AcDbEntity
  8
0
100
AcDbLine
 62
7
  6
CONTINUOUS
 10
22.0
 20
0.0
 11
22.0
 21
17.0
  0
LINE
  5
21E
100
AcDbEntity
  8
0
100
AcDbLine
 62
7
  6
CONTINUOUS
 10
4.6303672762
 20
5.6001198968
 11
4.6303672762
 21
5.5301198968
  0
LINE
  5
21F
100
AcDbEntity
  8
0
100
AcDbLine
 62
7
  6
CONTINUOUS
 10
4.7312200788
 20
5.5129722143
 11
4.7507422928
 21
5.4658414204
  0
LINE
  5
220
100
AcDbEntity
  8
0
100
AcDbLine
 62
7
  6
CONTINUOUS
 10
5.0099922595
 20
5.4658414204
 11
5.0295144735
 21
5.5129722143
  0
LINE
  5
221
100
AcDbEntity
  8
0
100
AcDbLine
 62
7
  6
CONTINUOUS
 10
5.2312200788
 20
5.5129722143
 11
5.2507422928
 21
5.4658414204
  0
LINE
  5
222
100
AcDbEntity
  8
0
100
AcDbLine
 62
7
  6
CONTINUOUS
 10
5.5099922595
 20
5.4658414204
 11
5.5295144735
 21
5.5129722143
  0
LINE
  5
223
100
AcDbEntity
  8
0
100
AcDbLine
 62
7
  6
CONTINUOUS
 10
5.7312200788
 20
5.5129722143
 11
5.7507422928
 21
5.4658414204
  0
LINE
  5
224
100
AcDbEntity
  8
0
100
AcDbLine
 62
7
  6
CONTINUOUS
 10
6.0099922595
 20
5.4658414204
 11
6.0295144735
 21
5.5129722143
  0
LINE
  5
225
100
AcDbEntity
  8
0
100
AcDbLine
 62
7
  6
CONTINUOUS
 10
4.7892372734
 20
5.4401198968
 11
4.971497279
 21
5.4401198968
  0
LINE
  5
226
100
AcDbEntity
  8
0
100
AcDbLine
 62
7
  6
CONTINUOUS
 10
5.2892372734
 20
5.4401198968
 11
5.471497279
 21
5.4401198968
  0
LINE
  5
227
100
AcDbEntity
  8
0
100
AcDbLine
 62
7
  6
CONTINUOUS
 10
5.7892372734
 20
5.4401198968
 11
5.971497279
 21
5.4401198968
  0
LINE
  5
228
100
AcDbEntity
  8
0
100
AcDbLine
 62
7
  6
CONTINUOUS
 10
6.2892372734
 20
5.4401198968
 11
6.471497279
 21
5.4401198968
  0
LINE
  5
229
100
AcDbEntity
  8
0
100
AcDbLine
 62
7
  6
CONTINUOUS
 10
6.7892372734
 20
5.4401198968
 11
6.971497279
 21
5.4401198968
  0
LINE
  5
22A
100
AcDbEntity
  8
0
100
AcDbLine
 62
7
  6
CONTINUOUS
 10
7.2892372734
 20
5.4401198968
 11
7.471497279
 21
5.4401198968
  0
LINE
  5
22B
100
AcDbEntity
  8
0
100
AcDbLine
 62
7
  6
CONTINUOUS
 10
4.6303672762
 20
5.5301198968
 11
4.7055567584
 21
5.5301198968
  0
LINE
  5
22C
100
AcDbEntity
  8
0
100
AcDbLine
 62
7
  6
CONTINUOUS
 10
5.0551777939
 20
5.5301198968
 11
5.2055567584
 21
5.5301198968
  0
LINE
  5
22D
100
AcDbEntity
  8
0
100
AcDbLine
 62
7
  6
CONTINUOUS
 10
5.5551777939
 20
5.5301198968
 11
5.7055567584
 21
5.5301198968
  0
LINE
  5
22E
100
AcDbEntity
  8
0
100
AcDbLine
 62
7
  6
CONTINUOUS
 10
6.0551777939
 20
5.5301198968
 11
6.2055567584
 21
5.5301198968
  0
LINE
  5
22F
100
AcDbEntity
  8
0
100
AcDbLine
 62
7
  6
CONTINUOUS
 10
6.5551777939
 20
5.5301198968
 11
6.7055567584
 21
5.5301198968
  0
LINE
  5
230
100
AcDbEntity
  8
0
100
AcDbLine
 62
7
  6
CONTINUOUS
 10
7.0551777939
 20
5.5301198968
 11
7.2055567584
 21
5.5301198968
  0
LINE
  5
231
100
AcDbEntity
  8
0
100
AcDbLine
 62
7
  6
CONTINUOUS
 10
7.5551777939
 20
5.5301198968
 11
7.6303672762
 21
5.5301198968
  0
LINE
  5
232
100
AcDbEntity
  8
0
100
AcDbLine
 62
7
  6
CONTINUOUS
 10
7.6303672762
 20
5.6001198968
 11
4.6303672762
 21
5.6001198968
  0
LINE
  5
233
100
AcDbEntity
  8
0
100
AcDbLine
 62
7
  6
CONTINUOUS
 10
6.2312200788
 20
5.5129722143
 11
6.2507422928
 21
5.4658414204
  0
LINE
  5
234
100
AcDbEntity
  8
0
100
AcDbLine
 62
7
  6
CONTINUOUS
 10
6.5099922595
 20
5.4658414204
 11
6.5295144735
 21
5.5129722143
  0
LINE
  5
235
100
AcDbEntity
  8
0
100
AcDbLine
 62
7
  6
CONTINUOUS
 10
6.7312200788
 20
5.5129722143
 11
6.7507422928
 21
5.4658414204
  0
LINE
  5
236
100
AcDbEntity
  8
0
100
AcDbLine
 62
7
  6
CONTINUOUS
 10
7.0099922595
 20
5.4658414204
 11
7.0295144735
 21
5.5129722143
  0
LINE
  5
237
100
AcDbEntity
  8
0
100
AcDbLine
 62
7
  6
CONTINUOUS
 10
7.2312200788
 20
5.5129722143
 11
7.2507422928
 21
5.4658414204
  0
LINE
  5
238
100
AcDbEntity
  8
0
100
AcDbLine
 62
7
  6
CONTINUOUS
 10
7.5099922595
 20
5.4658414204
 11
7.5295144735
 21
5.5129722143
  0
LINE
  5
239
100
AcDbEntity
  8
0
100
AcDbLine
 62
7
  6
CONTINUOUS
 10
7.6303672762
 20
5.5301198968
 11
7.6303672762
 21
5.6001198968
  0
LINE
  5
23A
100
AcDbEntity
  8
0
100
AcDbLine
 62
7
  6
CONTINUOUS
 10
4.5708720839
 20
13.3500477814
 11
4.5708720839
 21
11.8500477814
  0
LINE
  5
23B
100
AcDbEntity
  8
0
100
AcDbLine
 62
7
  6
CONTINUOUS
 10
7.5708720839
 20
11.8500477814
 11
4.5708720839
 21
11.8500477814
  0
LINE
  5
23C
100
AcDbEntity
  8
0
100
AcDbLine
 62
7
  6
CONTINUOUS
 10
4.5708720839
 20
13.3500477814
 11
7.5708720839
 21
13.3500477814
  0
LINE
  5
23D
100
AcDbEntity
  8
0
100
AcDbLine
 62
7
  6
CONTINUOUS
 10
7.5708720839
 20
13.3500477814
 11
7.5708720839
 21
11.8500477814
  0
LINE
  5
23E
100
AcDbEntity
  8
0
100
AcDbLine
 62
7
  6
CONTINUOUS
 10
14.8103552569
 20
5.3806247044
 11
14.8103552569
 21
5.5406247044
  0
LINE
  5
23F
100
AcDbEntity
  8
0
100
AcDbLine
 62
7
  6
CONTINUOUS
 10
14.8103552569
 20
5.3806247044
 11
16.3103552569
 21
5.3806247044
  0
LINE
  5
240
100
AcDbEntity
  8
0
100
AcDbLine
 62
7
  6
CONTINUOUS
 10
16.3103552569
 20
5.4706247044
 11
14.8103552569
 21
5.4706247044
  0
LINE
  5
241
100
AcDbEntity
  8
0
100
AcDbLine
 62
7
  6
CONTINUOUS
 10
16.3103552569
 20
5.5406247044
 11
14.8103552569
 21
5.5406247044
  0
LINE
  5
242
100
AcDbEntity
  8
0
100
AcDbLine
 62
7
  6
CONTINUOUS
 10
16.3103552569
 20
5.3806247044
 11
16.3103552569
 21
5.5406247044
  0
LINE
  5
243
100
AcDbEntity
  8
0
100
AcDbLine
 62
7
  6
CONTINUOUS
 10
13.8972947696
 20
11.9730386081
 11
13.9186477002
 21
11.9295259104
  0
LINE
  5
244
100
AcDbEntity
  8
0
100
AcDbLine
 62
7
  6
CONTINUOUS
 10
14.2603942547
 20
13.1480289726
 11
13.8972947696
 21
11.9730386081
  0
LINE
  5
245
100
AcDbEntity
  8
0
100
AcDbLine
 62
7
  6
CONTINUOUS
 10
14.0167700439
 20
11.91886674
 11
14.0491280592
 21
11.8895697687
  0
LINE
  5
246
100
AcDbEntity
  8
0
100
AcDbLine
 62
7
  6
CONTINUOUS
 10
14.2879130911
 20
11.8895697687
 11
14.2915173757
 21
11.91886674
  0
LINE
  5
247
100
AcDbEntity
  8
0
100
AcDbLine
 62
7
  6
CONTINUOUS
 10
14.2874056547
 20
11.8871783674
 11
14.2879130911
 21
11.8895697687
  0
LINE
  5
248
100
AcDbEntity
  8
0
100
AcDbLine
 62
7
  6
CONTINUOUS
 10
14.2915173757
 20
11.91886674
 11
14.2918617572
 21
11.9204591282
  0
LINE
  5
249
100
AcDbEntity
  8
0
100
AcDbLine
 62
7
  6
CONTINUOUS
 10
14.4773005409
 20
11.91886674
 11
14.5096585562
 21
11.8895697687
  0
LINE
  5
24A
100
AcDbEntity
  8
0
100
AcDbLine
 62
7
  6
CONTINUOUS
 10
14.2881209455
 20
11.8895055369
 11
14.2999133508
 21
11.9276657745
  0
LINE
  5
24B
100
AcDbEntity
  8
0
100
AcDbLine
 62
7
  6
CONTINUOUS
 10
14.9378310379
 20
11.91886674
 11
14.9701890532
 21
11.8895697687
  0
LINE
  5
24C
100
AcDbEntity
  8
0
100
AcDbLine
 62
7
  6
CONTINUOUS
 10
14.7484435882
 20
11.8895697687
 11
14.7520478727
 21
11.91886674
  0
LINE
  5
24D
100
AcDbEntity
  8
0
100
AcDbLine
 62
7
  6
CONTINUOUS
 10
14.7479361517
 20
11.8871783674
 11
14.7484435882
 21
11.8895697687
  0
LINE
  5
24E
100
AcDbEntity
  8
0
100
AcDbLine
 62
7
  6
CONTINUOUS
 10
14.7520478727
 20
11.91886674
 11
14.7523922542
 21
11.9204591282
  0
LINE
  5
24F
100
AcDbEntity
  8
0
100
AcDbLine
 62
7
  6
CONTINUOUS
 10
14.0924304258
 20
11.8735810132
 11
14.2603030077
 21
11.8735810132
  0
LINE
  5
250
100
AcDbEntity
  8
0
100
AcDbLine
 62
7
  6
CONTINUOUS
 10
14.5529609228
 20
11.8735810132
 11
14.7208335047
 21
11.8735810132
  0
LINE
  5
251
100
AcDbEntity
  8
0
100
AcDbLine
 62
7
  6
CONTINUOUS
 10
15.0134914198
 20
11.8735810132
 11
15.1813640017
 21
11.8735810132
  0
LINE
  5
252
100
AcDbEntity
  8
0
100
AcDbLine
 62
7
  6
CONTINUOUS
 10
15.4740219168
 20
11.8735810132
 11
15.6418944987
 21
11.8735810132
  0
LINE
  5
253
100
AcDbEntity
  8
0
100
AcDbLine
 62
7
  6
CONTINUOUS
 10
15.9345524138
 20
11.8735810132
 11
16.1024249957
 21
11.8735810132
  0
LINE
  5
254
100
AcDbEntity
  8
0
100
AcDbLine
 62
7
  6
CONTINUOUS
 10
16.3950829108
 20
11.8735810132
 11
16.5629554927
 21
11.8735810132
  0
LINE
  5
255
100
AcDbEntity
  8
0
100
AcDbLine
 62
7
  6
CONTINUOUS
 10
13.9186477002
 20
11.9295259104
 11
13.9879017995
 21
11.9295259104
  0
LINE
  5
256
100
AcDbEntity
  8
0
100
AcDbLine
 62
7
  6
CONTINUOUS
 10
14.309924098
 20
11.9295259104
 11
14.4484322965
 21
11.9295259104
  0
LINE
  5
257
100
AcDbEntity
  8
0
100
AcDbLine
 62
7
  6
CONTINUOUS
 10
14.770454595
 20
11.9295259104
 11
14.9089627935
 21
11.9295259104
  0
LINE
  5
258
100
AcDbEntity
  8
0
100
AcDbLine
 62
7
  6
CONTINUOUS
 10
15.230985092
 20
11.9295259104
 11
15.3694932905
 21
11.9295259104
  0
LINE
  5
259
100
AcDbEntity
  8
0
100
AcDbLine
 62
7
  6
CONTINUOUS
 10
15.691515589
 20
11.9295259104
 11
15.8300237875
 21
11.9295259104
  0
LINE
  5
25A
100
AcDbEntity
  8
0
100
AcDbLine
 62
7
  6
CONTINUOUS
 10
16.152046086
 20
11.9295259104
 11
16.2905542845
 21
11.9295259104
  0
LINE
  5
25B
100
AcDbEntity
  8
0
100
AcDbLine
 62
7
  6
CONTINUOUS
 10
16.612576583
 20
11.9295259104
 11
16.6818306823
 21
11.9295259104
  0
LINE
  5
25C
100
AcDbEntity
  8
0
100
AcDbLine
 62
7
  6
CONTINUOUS
 10
14.7486514425
 20
11.8895055369
 11
14.7604438478
 21
11.9276657745
  0
LINE
  5
25D
100
AcDbEntity
  8
0
100
AcDbLine
 62
7
  6
CONTINUOUS
 10
16.6604777516
 20
11.9730386081
 11
13.8972947696
 21
11.9730386081
  0
LINE
  5
25E
100
AcDbEntity
  8
0
100
AcDbLine
 62
7
  6
CONTINUOUS
 10
15.3983615349
 20
11.91886674
 11
15.4307195502
 21
11.8895697687
  0
LINE
  5
25F
100
AcDbEntity
  8
0
100
AcDbLine
 62
7
  6
CONTINUOUS
 10
15.2089740852
 20
11.8895697687
 11
15.2125783697
 21
11.91886674
  0
LINE
  5
260
100
AcDbEntity
  8
0
100
AcDbLine
 62
7
  6
CONTINUOUS
 10
15.2084666487
 20
11.8871783674
 11
15.2089740852
 21
11.8895697687
  0
LINE
  5
261
100
AcDbEntity
  8
0
100
AcDbLine
 62
7
  6
CONTINUOUS
 10
15.2125783697
 20
11.91886674
 11
15.2129227512
 21
11.9204591282
  0
LINE
  5
262
100
AcDbEntity
  8
0
100
AcDbLine
 62
7
  6
CONTINUOUS
 10
15.8588920319
 20
11.91886674
 11
15.8912500472
 21
11.8895697687
  0
LINE
  5
263
100
AcDbEntity
  8
0
100
AcDbLine
 62
7
  6
CONTINUOUS
 10
15.2091819395
 20
11.8895055369
 11
15.2209743448
 21
11.9276657745
  0
LINE
  5
264
100
AcDbEntity
  8
0
100
AcDbLine
 62
7
  6
CONTINUOUS
 10
16.3194225289
 20
11.91886674
 11
16.3517805442
 21
11.8895697687
  0
LINE
  5
265
100
AcDbEntity
  8
0
100
AcDbLine
 62
7
  6
CONTINUOUS
 10
15.6695045822
 20
11.8895697687
 11
15.6731088667
 21
11.91886674
  0
LINE
  5
266
100
AcDbEntity
  8
0
100
AcDbLine
 62
7
  6
CONTINUOUS
 10
15.6689971457
 20
11.8871783674
 11
15.6695045822
 21
11.8895697687
  0
LINE
  5
267
100
AcDbEntity
  8
0
100
AcDbLine
 62
7
  6
CONTINUOUS
 10
15.6731088667
 20
11.91886674
 11
15.6734532482
 21
11.9204591282
  0
LINE
  5
268
100
AcDbEntity
  8
0
100
AcDbLine
 62
7
  6
CONTINUOUS
 10
15.6697124365
 20
11.8895055369
 11
15.6815048419
 21
11.9276657745
  0
LINE
  5
269
100
AcDbEntity
  8
0
100
AcDbLine
 62
7
  6
CONTINUOUS
 10
14.2603942547
 20
13.1480289726
 11
17.0235772367
 21
13.1480289726
  0
LINE
  5
26A
100
AcDbEntity
  8
0
100
AcDbLine
 62
7
  6
CONTINUOUS
 10
16.1300350792
 20
11.8895697687
 11
16.1336393637
 21
11.91886674
  0
LINE
  5
26B
100
AcDbEntity
  8
0
100
AcDbLine
 62
7
  6
CONTINUOUS
 10
16.1295276427
 20
11.8871783674
 11
16.1300350792
 21
11.8895697687
  0
LINE
  5
26C
100
AcDbEntity
  8
0
100
AcDbLine
 62
7
  6
CONTINUOUS
 10
16.1336393637
 20
11.91886674
 11
16.1339837452
 21
11.9204591282
  0
LINE
  5
26D
100
AcDbEntity
  8
0
100
AcDbLine
 62
7
  6
CONTINUOUS
 10
16.1302429335
 20
11.8895055369
 11
16.1420353389
 21
11.9276657745
  0
LINE
  5
26E
100
AcDbEntity
  8
0
100
AcDbLine
 62
7
  6
CONTINUOUS
 10
16.6818306823
 20
11.9295259104
 11
16.6604777516
 21
11.9730386081
  0
LINE
  5
26F
100
AcDbEntity
  8
0
100
AcDbLine
 62
7
  6
CONTINUOUS
 10
16.5905655762
 20
11.8895697687
 11
16.5941698607
 21
11.91886674
  0
LINE
  5
270
100
AcDbEntity
  8
0
100
AcDbLine
 62
7
  6
CONTINUOUS
 10
16.5900581397
 20
11.8871783674
 11
16.5905655762
 21
11.8895697687
  0
LINE
  5
271
100
AcDbEntity
  8
0
100
AcDbLine
 62
7
  6
CONTINUOUS
 10
16.5941698607
 20
11.91886674
 11
16.5945142422
 21
11.9204591282
  0
LINE
  5
272
100
AcDbEntity
  8
0
100
AcDbLine
 62
7
  6
CONTINUOUS
 10
16.5907734305
 20
11.8895055369
 11
16.6025658359
 21
11.9276657745
  0
LINE
  5
273
100
AcDbEntity
  8
0
100
AcDbLine
 62
7
  6
CONTINUOUS
 10
17.0235772367
 20
13.1480289726
 11
16.6604777516
 21
11.9730386081
  0
LINE
  5
274
100
AcDbEntity
  8
0
100
AcDbLine
 62
7
  6
CONTINUOUS
 10
17.0449301674
 20
13.1045162748
 11
16.6818306823
 21
11.9295259104
  0
LINE
  5
275
100
AcDbEntity
  8
0
100
AcDbLine
 62
7
  6
CONTINUOUS
 10
17.0449301674
 20
13.1045162748
 11
17.0235772367
 21
13.1480289726
  0
ARC
  5
276
100
AcDbEntity
  8
0
100
AcDbCircle
 62
7
  6
CONTINUOUS
 10
5.2892372734
 20
5.4817865634
 40
0.0416666667
100
AcDbArc
 50
202.5
 51
270.0
  0
ARC
  5
277
100
AcDbEntity
  8
0
100
AcDbCircle
 62
7
  6
CONTINUOUS
 10
5.471497279
 20
5.4817865634
 40
0.0416666667
100
AcDbArc
 50
270.0
 51
337.5
  0
ARC
  5
278
100
AcDbEntity
  8
0
100
AcDbCircle
 62
7
  6
CONTINUOUS
 10
5.7892372734
 20
5.4817865634
 40
0.0416666667
100
AcDbArc
 50
202.5
 51
270.0
  0
ARC
  5
279
100
AcDbEntity
  8
0
100
AcDbCircle
 62
7
  6
CONTINUOUS
 10
5.971497279
 20
5.4817865634
 40
0.0416666667
100
AcDbArc
 50
270.0
 51
337.5
  0
ARC
  5
27A
100
AcDbEntity
  8
0
100
AcDbCircle
 62
7
  6
CONTINUOUS
 10
6.2892372734
 20
5.4817865634
 40
0.0416666667
100
AcDbArc
 50
202.5
 51
270.0
  0
ARC
  5
27B
100
AcDbEntity
  8
0
100
AcDbCircle
 62
7
  6
CONTINUOUS
 10
6.471497279
 20
5.4817865634
 40
0.0416666667
100
AcDbArc
 50
270.0
 51
337.5
  0
ARC
  5
27C
100
AcDbEntity
  8
0
100
AcDbCircle
 62
7
  6
CONTINUOUS
 10
4.971497279
 20
5.4817865634
 40
0.0416666667
100
AcDbArc
 50
270.0
 51
337.5
  0
ARC
  5
27D
100
AcDbEntity
  8
0
100
AcDbCircle
 62
7
  6
CONTINUOUS
 10
4.7892372734
 20
5.4817865634
 40
0.0416666667
100
AcDbArc
 50
202.5
 51
270.0
  0
ARC
  5
27E
100
AcDbEntity
  8
0
100
AcDbCircle
 62
7
  6
CONTINUOUS
 10
7.471497279
 20
5.4817865634
 40
0.0416666667
100
AcDbArc
 50
270.0
 51
337.5
  0
ARC
  5
27F
100
AcDbEntity
  8
0
100
AcDbCircle
 62
7
  6
CONTINUOUS
 10
7.2892372734
 20
5.4817865634
 40
0.0416666667
100
AcDbArc
 50
202.5
 51
270.0
  0
ARC
  5
280
100
AcDbEntity
  8
0
100
AcDbCircle
 62
7
  6
CONTINUOUS
 10
6.971497279
 20
5.4817865634
 40
0.0416666667
100
AcDbArc
 50
270.0
 51
337.5
  0
ARC
  5
281
100
AcDbEntity
  8
0
100
AcDbCircle
 62
7
  6
CONTINUOUS
 10
6.7892372734
 20
5.4817865634
 40
0.0416666667
100
AcDbArc
 50
202.5
 51
270.0
  0
ARC
  5
282
100
AcDbEntity
  8
0
100
AcDbCircle
 62
7
  6
CONTINUOUS
 10
5.0551777939
 20
5.502342119
 40
0.0277777778
100
AcDbArc
 50
90.0
 51
157.5
  0
ARC
  5
283
100
AcDbEntity
  8
0
100
AcDbCircle
 62
7
  6
CONTINUOUS
 10
4.7055567584
 20
5.502342119
 40
0.0277777778
100
AcDbArc
 50
22.5
 51
90.0
  0
ARC
  5
284
100
AcDbEntity
  8
0
100
AcDbCircle
 62
7
  6
CONTINUOUS
 10
5.5551777939
 20
5.502342119
 40
0.0277777778
100
AcDbArc
 50
90.0
 51
157.5
  0
ARC
  5
285
100
AcDbEntity
  8
0
100
AcDbCircle
 62
7
  6
CONTINUOUS
 10
5.2055567584
 20
5.502342119
 40
0.0277777778
100
AcDbArc
 50
22.5
 51
90.0
  0
ARC
  5
286
100
AcDbEntity
  8
0
100
AcDbCircle
 62
7
  6
CONTINUOUS
 10
6.0551777939
 20
5.502342119
 40
0.0277777778
100
AcDbArc
 50
90.0
 51
157.5
  0
ARC
  5
287
100
AcDbEntity
  8
0
100
AcDbCircle
 62
7
  6
CONTINUOUS
 10
5.7055567584
 20
5.502342119
 40
0.0277777778
100
AcDbArc
 50
22.5
 51
90.0
  0
ARC
  5
288
100
AcDbEntity
  8
0
100
AcDbCircle
 62
7
  6
CONTINUOUS
 10
6.5551777939
 20
5.502342119
 40
0.0277777778
100
AcDbArc
 50
90.0
 51
157.5
  0
ARC
  5
289
100
AcDbEntity
  8
0
100
AcDbCircle
 62
7
  6
CONTINUOUS
 10
6.2055567584
 20
5.502342119
 40
0.0277777778
100
AcDbArc
 50
22.5
 51
90.0
  0
ARC
  5
28A
100
AcDbEntity
  8
0
100
AcDbCircle
 62
7
  6
CONTINUOUS
 10
7.0551777939
 20
5.502342119
 40
0.0277777778
100
AcDbArc
 50
90.0
 51
157.5
  0
ARC
  5
28B
100
AcDbEntity
  8
0
100
AcDbCircle
 62
7
  6
CONTINUOUS
 10
6.7055567584
 20
5.502342119
 40
0.0277777778
100
AcDbArc
 50
22.5
 51
90.0
  0
ARC
  5
28C
100
AcDbEntity
  8
0
100
AcDbCircle
 62
7
  6
CONTINUOUS
 10
7.5551777939
 20
5.502342119
 40
0.0277777778
100
AcDbArc
 50
90.0
 51
157.5
  0
ARC
  5
28D
100
AcDbEntity
  8
0
100
AcDbCircle
 62
7
  6
CONTINUOUS
 10
7.2055567584
 20
5.502342119
 40
0.0277777778
100
AcDbArc
 50
22.5
 51
90.0
  0
SPLINE
  5
28E
100
AcDbEntity
  8
0
100
AcDbSpline
 62
7
  6
CONTINUOUS
 70
0
 71
3
 72
11
 73
7
 74
0
 42
0.0000001
 43
0.0000001
 44
0.0000000001
 40
0.0
 40
0.0
 40
0.0
 40
0.0
 40
0.2342278339
 40
0.4753670999
 40
0.7291520472
 40
1.0
 40
1.0
 40
1.0
 40
1.0
 10
14.2918588875
 20
11.9204600156
 30
0.0
 10
14.2920504513
 20
11.9210786698
 30
0.0
 10
14.2925752501
 20
11.9222963194
 30
0.0
 10
14.2937471309
 20
11.9239529052
 30
0.0
 10
14.295285202
 20
11.9254243498
 30
0.0
 10
14.2964917588
 20
11.9262418895
 30
0.0
 10
14.2971398795
 20
11.9266170859
 30
0.0
  0
SPLINE
  5
28F
100
AcDbEntity
  8
0
100
AcDbSpline
 62
7
  6
CONTINUOUS
 70
0
 71
3
 72
11
 73
7
 74
0
 42
0.0000001
 43
0.0000001
 44
0.0000000001
 40
0.0
 40
0.0
 40
0.0
 40
0.0
 40
0.221887495
 40
0.4632426518
 40
0.7235728883
 40
1.0
 40
1.0
 40
1.0
 40
1.0
 10
14.2971398795
 20
11.9266170859
 30
0.0
 10
14.2979878436
 20
11.9271079714
 30
0.0
 10
14.2998547563
 20
11.9279701561
 30
0.0
 10
14.302930043
 20
11.9288700919
 30
0.0
 10
14.3063311994
 20
11.9294105436
 30
0.0
 10
14.3087034621
 20
11.9295259104
 30
0.0
 10
14.309924098
 20
11.9295259104
 30
0.0
  0
SPLINE
  5
290
100
AcDbEntity
  8
0
100
AcDbSpline
 62
7
  6
CONTINUOUS
 70
0
 71
3
 72
11
 73
7
 74
0
 42
0.0000001
 43
0.0000001
 44
0.0000000001
 40
0.0
 40
0.0
 40
0.0
 40
0.0
 40
0.2342278339
 40
0.4753670999
 40
0.7291520472
 40
1.0
 40
1.0
 40
1.0
 40
1.0
 10
14.7523893845
 20
11.9204600156
 30
0.0
 10
14.7525809483
 20
11.9210786698
 30
0.0
 10
14.7531057471
 20
11.9222963194
 30
0.0
 10
14.7542776279
 20
11.9239529052
 30
0.0
 10
14.755815699
 20
11.9254243498
 30
0.0
 10
14.7570222558
 20
11.9262418895
 30
0.0
 10
14.7576703765
 20
11.9266170859
 30
0.0
  0
SPLINE
  5
291
100
AcDbEntity
  8
0
100
AcDbSpline
 62
7
  6
CONTINUOUS
 70
0
 71
3
 72
11
 73
7
 74
0
 42
0.0000001
 43
0.0000001
 44
0.0000000001
 40
0.0
 40
0.0
 40
0.0
 40
0.0
 40
0.221887495
 40
0.4632426518
 40
0.7235728883
 40
1.0
 40
1.0
 40
1.0
 40
1.0
 10
14.7576703765
 20
11.9266170859
 30
0.0
 10
14.7585183406
 20
11.9271079714
 30
0.0
 10
14.7603852533
 20
11.9279701561
 30
0.0
 10
14.76346054
 20
11.9288700919
 30
0.0
 10
14.7668616964
 20
11.9294105436
 30
0.0
 10
14.7692339591
 20
11.9295259104
 30
0.0
 10
14.770454595
 20
11.9295259104
 30
0.0
  0
SPLINE
  5
292
100
AcDbEntity
  8
0
100
AcDbSpline
 62
7
  6
CONTINUOUS
 70
0
 71
3
 72
11
 73
7
 74
0
 42
0.0000001
 43
0.0000001
 44
0.0000000001
 40
0.0
 40
0.0
 40
0.0
 40
0.0
 40
0.2342278339
 40
0.4753670999
 40
0.7291520472
 40
1.0
 40
1.0
 40
1.0
 40
1.0
 10
15.2129198815
 20
11.9204600156
 30
0.0
 10
15.2131114453
 20
11.9210786698
 30
0.0
 10
15.2136362441
 20
11.9222963194
 30
0.0
 10
15.2148081249
 20
11.9239529052
 30
0.0
 10
15.216346196
 20
11.9254243498
 30
0.0
 10
15.2175527528
 20
11.9262418895
 30
0.0
 10
15.2182008735
 20
11.9266170859
 30
0.0
  0
SPLINE
  5
293
100
AcDbEntity
  8
0
100
AcDbSpline
 62
7
  6
CONTINUOUS
 70
0
 71
3
 72
11
 73
7
 74
0
 42
0.0000001
 43
0.0000001
 44
0.0000000001
 40
0.0
 40
0.0
 40
0.0
 40
0.0
 40
0.221887495
 40
0.4632426518
 40
0.7235728883
 40
1.0
 40
1.0
 40
1.0
 40
1.0
 10
15.2182008735
 20
11.9266170859
 30
0.0
 10
15.2190488376
 20
11.9271079714
 30
0.0
 10
15.2209157503
 20
11.9279701561
 30
0.0
 10
15.223991037
 20
11.9288700919
 30
0.0
 10
15.2273921934
 20
11.9294105436
 30
0.0
 10
15.2297644561
 20
11.9295259104
 30
0.0
 10
15.230985092
 20
11.9295259104
 30
0.0
  0
SPLINE
  5
294
100
AcDbEntity
  8
0
100
AcDbSpline
 62
7
  6
CONTINUOUS
 70
0
 71
3
 72
11
 73
7
 74
0
 42
0.0000001
 43
0.0000001
 44
0.0000000001
 40
0.0
 40
0.0
 40
0.0
 40
0.0
 40
0.2342278339
 40
0.4753670999
 40
0.7291520472
 40
1.0
 40
1.0
 40
1.0
 40
1.0
 10
15.6734503785
 20
11.9204600156
 30
0.0
 10
15.6736419423
 20
11.9210786698
 30
0.0
 10
15.6741667411
 20
11.9222963194
 30
0.0
 10
15.6753386219
 20
11.9239529052
 30
0.0
 10
15.676876693
 20
11.9254243498
 30
0.0
 10
15.6780832498
 20
11.9262418895
 30
0.0
 10
15.6787313705
 20
11.9266170859
 30
0.0
  0
SPLINE
  5
295
100
AcDbEntity
  8
0
100
AcDbSpline
 62
7
  6
CONTINUOUS
 70
0
 71
3
 72
11
 73
7
 74
0
 42
0.0000001
 43
0.0000001
 44
0.0000000001
 40
0.0
 40
0.0
 40
0.0
 40
0.0
 40
0.221887495
 40
0.4632426518
 40
0.7235728883
 40
1.0
 40
1.0
 40
1.0
 40
1.0
 10
15.6787313705
 20
11.9266170859
 30
0.0
 10
15.6795793346
 20
11.9271079714
 30
0.0
 10
15.6814462473
 20
11.9279701561
 30
0.0
 10
15.684521534
 20
11.9288700919
 30
0.0
 10
15.6879226904
 20
11.9294105436
 30
0.0
 10
15.6902949531
 20
11.9295259104
 30
0.0
 10
15.691515589
 20
11.9295259104
 30
0.0
  0
SPLINE
  5
296
100
AcDbEntity
  8
0
100
AcDbSpline
 62
7
  6
CONTINUOUS
 70
0
 71
3
 72
11
 73
7
 74
0
 42
0.0000001
 43
0.0000001
 44
0.0000000001
 40
0.0
 40
0.0
 40
0.0
 40
0.0
 40
0.2342278339
 40
0.4753670999
 40
0.7291520472
 40
1.0
 40
1.0
 40
1.0
 40
1.0
 10
16.1339808755
 20
11.9204600156
 30
0.0
 10
16.1341724393
 20
11.9210786698
 30
0.0
 10
16.1346972381
 20
11.9222963194
 30
0.0
 10
16.1358691189
 20
11.9239529052
 30
0.0
 10
16.13740719
 20
11.9254243498
 30
0.0
 10
16.1386137468
 20
11.9262418895
 30
0.0
 10
16.1392618675
 20
11.9266170859
 30
0.0
  0
SPLINE
  5
297
100
AcDbEntity
  8
0
100
AcDbSpline
 62
7
  6
CONTINUOUS
 70
0
 71
3
 72
11
 73
7
 74
0
 42
0.0000001
 43
0.0000001
 44
0.0000000001
 40
0.0
 40
0.0
 40
0.0
 40
0.0
 40
0.221887495
 40
0.4632426518
 40
0.7235728883
 40
1.0
 40
1.0
 40
1.0
 40
1.0
 10
16.1392618675
 20
11.9266170859
 30
0.0
 10
16.1401098316
 20
11.9271079714
 30
0.0
 10
16.1419767443
 20
11.9279701561
 30
0.0
 10
16.1450520311
 20
11.9288700919
 30
0.0
 10
16.1484531874
 20
11.9294105436
 30
0.0
 10
16.1508254501
 20
11.9295259104
 30
0.0
 10
16.152046086
 20
11.9295259104
 30
0.0
  0
SPLINE
  5
298
100
AcDbEntity
  8
0
100
AcDbSpline
 62
7
  6
CONTINUOUS
 70
0
 71
3
 72
11
 73
7
 74
0
 42
0.0000001
 43
0.0000001
 44
0.0000000001
 40
0.0
 40
0.0
 40
0.0
 40
0.0
 40
0.2342278339
 40
0.4753670999
 40
0.7291520472
 40
1.0
 40
1.0
 40
1.0
 40
1.0
 10
16.5945113725
 20
11.9204600156
 30
0.0
 10
16.5947029363
 20
11.9210786698
 30
0.0
 10
16.5952277351
 20
11.9222963194
 30
0.0
 10
16.5963996159
 20
11.9239529052
 30
0.0
 10
16.597937687
 20
11.9254243498
 30
0.0
 10
16.5991442438
 20
11.9262418895
 30
0.0
 10
16.5997923645
 20
11.9266170859
 30
0.0
  0
SPLINE
  5
299
100
AcDbEntity
  8
0
100
AcDbSpline
 62
7
  6
CONTINUOUS
 70
0
 71
3
 72
11
 73
7
 74
0
 42
0.0000001
 43
0.0000001
 44
0.0000000001
 40
0.0
 40
0.0
 40
0.0
 40
0.0
 40
0.221887495
 40
0.4632426518
 40
0.7235728883
 40
1.0
 40
1.0
 40
1.0
 40
1.0
 10
16.5997923645
 20
11.9266170859
 30
0.0
 10
16.6006403286
 20
11.9271079714
 30
0.0
 10
16.6025072413
 20
11.9279701561
 30
0.0
 10
16.6055825281
 20
11.9288700919
 30
0.0
 10
16.6089836844
 20
11.9294105436
 30
0.0
 10
16.6113559471
 20
11.9295259104
 30
0.0
 10
16.612576583
 20
11.9295259104
 30
0.0
  0
SPLINE
  5
29A
100
AcDbEntity
  8
0
100
AcDbSpline
 62
7
  6
CONTINUOUS
 70
0
 71
3
 72
15
 73
11
 74
0
 42
0.0000001
 43
0.0000001
 44
0.0000000001
 40
0.0
 40
0.0
 40
0.0
 40
0.0
 40
0.1557506732
 40
0.3032141009
 40
0.4410978654
 40
0.56904116
 40
0.6873380137
 40
0.7970483461
 40
0.900275453
 40
1.0
 40
1.0
 40
1.0
 40
1.0
 10
14.2603030077
 20
11.8735810132
 30
0.0
 10
14.2619805493
 20
11.8735810132
 30
0.0
 10
14.2652488413
 20
11.8737258606
 30
0.0
 10
14.2699593724
 20
11.8744061952
 30
0.0
 10
14.2742758553
 20
11.8755376885
 30
0.0
 10
14.2781207477
 20
11.8771014586
 30
0.0
 10
14.2814280979
 20
11.8790741174
 30
0.0
 10
14.2841361199
 20
11.8814306956
 30
0.0
 10
14.2861865634
 20
11.8841344113
 30
0.0
 10
14.2870841798
 20
11.8861534925
 30
0.0
 10
14.2874014791
 20
11.887179658
 30
0.0
  0
SPLINE
  5
29B
100
AcDbEntity
  8
0
100
AcDbSpline
 62
7
  6
CONTINUOUS
 70
0
 71
3
 72
15
 73
11
 74
0
 42
0.0000001
 43
0.0000001
 44
0.0000000001
 40
0.0
 40
0.0
 40
0.0
 40
0.0
 40
0.1148729248
 40
0.2360779248
 40
0.3619572607
 40
0.4908828676
 40
0.6210131956
 40
0.7504589994
 40
0.8774377863
 40
1.0
 40
1.0
 40
1.0
 40
1.0
 10
14.0491280592
 20
11.8895697687
 30
0.0
 10
14.0504650221
 20
11.8883592815
 30
0.0
 10
14.053361619
 20
11.8860329597
 30
0.0
 10
14.0581356143
 20
11.8829351636
 30
0.0
 10
14.0633716447
 20
11.8801909267
 30
0.0
 10
14.0689553235
 20
11.8778594625
 30
0.0
 10
14.0747681912
 20
11.875988006
 30
0.0
 10
14.0806882087
 20
11.874618003
 30
0.0
 10
14.0865863372
 20
11.8737798434
 30
0.0
 10
14.0905061638
 20
11.8735810132
 30
0.0
 10
14.0924304258
 20
11.8735810132
 30
0.0
  0
SPLINE
  5
29C
100
AcDbEntity
  8
0
100
AcDbSpline
 62
7
  6
CONTINUOUS
 70
0
 71
3
 72
15
 73
11
 74
0
 42
0.0000001
 43
0.0000001
 44
0.0000000001
 40
0.0
 40
0.0
 40
0.0
 40
0.0
 40
0.1557506732
 40
0.3032141009
 40
0.4410978654
 40
0.56904116
 40
0.6873380137
 40
0.7970483461
 40
0.900275453
 40
1.0
 40
1.0
 40
1.0
 40
1.0
 10
16.5629554927
 20
11.8735810132
 30
0.0
 10
16.5646330343
 20
11.8735810132
 30
0.0
 10
16.5679013263
 20
11.8737258606
 30
0.0
 10
16.5726118574
 20
11.8744061952
 30
0.0
 10
16.5769283403
 20
11.8755376885
 30
0.0
 10
16.5807732327
 20
11.8771014586
 30
0.0
 10
16.5840805829
 20
11.8790741174
 30
0.0
 10
16.5867886049
 20
11.8814306956
 30
0.0
 10
16.5888390484
 20
11.8841344113
 30
0.0
 10
16.5897366648
 20
11.8861534925
 30
0.0
 10
16.5900539641
 20
11.887179658
 30
0.0
  0
SPLINE
  5
29D
100
AcDbEntity
  8
0
100
AcDbSpline
 62
7
  6
CONTINUOUS
 70
0
 71
3
 72
15
 73
11
 74
0
 42
0.0000001
 43
0.0000001
 44
0.0000000001
 40
0.0
 40
0.0
 40
0.0
 40
0.0
 40
0.1148729248
 40
0.2360779248
 40
0.3619572607
 40
0.4908828676
 40
0.6210131956
 40
0.7504589994
 40
0.8774377863
 40
1.0
 40
1.0
 40
1.0
 40
1.0
 10
16.3517805442
 20
11.8895697687
 30
0.0
 10
16.3531175071
 20
11.8883592815
 30
0.0
 10
16.3560141041
 20
11.8860329597
 30
0.0
 10
16.3607880993
 20
11.8829351636
 30
0.0
 10
16.3660241297
 20
11.8801909267
 30
0.0
 10
16.3716078085
 20
11.8778594625
 30
0.0
 10
16.3774206762
 20
11.875988006
 30
0.0
 10
16.3833406937
 20
11.874618003
 30
0.0
 10
16.3892388222
 20
11.8737798434
 30
0.0
 10
16.3931586488
 20
11.8735810132
 30
0.0
 10
16.3950829108
 20
11.8735810132
 30
0.0
  0
SPLINE
  5
29E
100
AcDbEntity
  8
0
100
AcDbSpline
 62
7
  6
CONTINUOUS
 70
0
 71
3
 72
15
 73
11
 74
0
 42
0.0000001
 43
0.0000001
 44
0.0000000001
 40
0.0
 40
0.0
 40
0.0
 40
0.0
 40
0.1557506732
 40
0.3032141009
 40
0.4410978654
 40
0.56904116
 40
0.6873380137
 40
0.7970483461
 40
0.900275453
 40
1.0
 40
1.0
 40
1.0
 40
1.0
 10
16.1024249957
 20
11.8735810132
 30
0.0
 10
16.1041025373
 20
11.8735810132
 30
0.0
 10
16.1073708293
 20
11.8737258606
 30
0.0
 10
16.1120813604
 20
11.8744061952
 30
0.0
 10
16.1163978433
 20
11.8755376885
 30
0.0
 10
16.1202427357
 20
11.8771014586
 30
0.0
 10
16.1235500859
 20
11.8790741174
 30
0.0
 10
16.1262581079
 20
11.8814306956
 30
0.0
 10
16.1283085514
 20
11.8841344113
 30
0.0
 10
16.1292061678
 20
11.8861534925
 30
0.0
 10
16.1295234671
 20
11.887179658
 30
0.0
  0
SPLINE
  5
29F
100
AcDbEntity
  8
0
100
AcDbSpline
 62
7
  6
CONTINUOUS
 70
0
 71
3
 72
15
 73
11
 74
0
 42
0.0000001
 43
0.0000001
 44
0.0000000001
 40
0.0
 40
0.0
 40
0.0
 40
0.0
 40
0.1148729248
 40
0.2360779248
 40
0.3619572607
 40
0.4908828676
 40
0.6210131956
 40
0.7504589994
 40
0.8774377863
 40
1.0
 40
1.0
 40
1.0
 40
1.0
 10
15.8912500472
 20
11.8895697687
 30
0.0
 10
15.8925870101
 20
11.8883592815
 30
0.0
 10
15.8954836071
 20
11.8860329597
 30
0.0
 10
15.9002576023
 20
11.8829351636
 30
0.0
 10
15.9054936327
 20
11.8801909267
 30
0.0
 10
15.9110773115
 20
11.8778594625
 30
0.0
 10
15.9168901792
 20
11.875988006
 30
0.0
 10
15.9228101967
 20
11.874618003
 30
0.0
 10
15.9287083252
 20
11.8737798434
 30
0.0
 10
15.9326281518
 20
11.8735810132
 30
0.0
 10
15.9345524138
 20
11.8735810132
 30
0.0
  0
SPLINE
  5
2A0
100
AcDbEntity
  8
0
100
AcDbSpline
 62
7
  6
CONTINUOUS
 70
0
 71
3
 72
15
 73
11
 74
0
 42
0.0000001
 43
0.0000001
 44
0.0000000001
 40
0.0
 40
0.0
 40
0.0
 40
0.0
 40
0.1557506732
 40
0.3032141009
 40
0.4410978654
 40
0.56904116
 40
0.6873380137
 40
0.7970483461
 40
0.900275453
 40
1.0
 40
1.0
 40
1.0
 40
1.0
 10
15.6418944987
 20
11.8735810132
 30
0.0
 10
15.6435720403
 20
11.8735810132
 30
0.0
 10
15.6468403323
 20
11.8737258606
 30
0.0
 10
15.6515508634
 20
11.8744061952
 30
0.0
 10
15.6558673463
 20
11.8755376885
 30
0.0
 10
15.6597122387
 20
11.8771014586
 30
0.0
 10
15.6630195889
 20
11.8790741174
 30
0.0
 10
15.6657276109
 20
11.8814306956
 30
0.0
 10
15.6677780544
 20
11.8841344113
 30
0.0
 10
15.6686756708
 20
11.8861534925
 30
0.0
 10
15.6689929701
 20
11.887179658
 30
0.0
  0
SPLINE
  5
2A1
100
AcDbEntity
  8
0
100
AcDbSpline
 62
7
  6
CONTINUOUS
 70
0
 71
3
 72
15
 73
11
 74
0
 42
0.0000001
 43
0.0000001
 44
0.0000000001
 40
0.0
 40
0.0
 40
0.0
 40
0.0
 40
0.1148729248
 40
0.2360779248
 40
0.3619572607
 40
0.4908828676
 40
0.6210131956
 40
0.7504589994
 40
0.8774377863
 40
1.0
 40
1.0
 40
1.0
 40
1.0
 10
15.4307195502
 20
11.8895697687
 30
0.0
 10
15.4320565131
 20
11.8883592815
 30
0.0
 10
15.43495311
 20
11.8860329597
 30
0.0
 10
15.4397271053
 20
11.8829351636
 30
0.0
 10
15.4449631357
 20
11.8801909267
 30
0.0
 10
15.4505468145
 20
11.8778594625
 30
0.0
 10
15.4563596822
 20
11.875988006
 30
0.0
 10
15.4622796997
 20
11.874618003
 30
0.0
 10
15.4681778282
 20
11.8737798434
 30
0.0
 10
15.4720976548
 20
11.8735810132
 30
0.0
 10
15.4740219168
 20
11.8735810132
 30
0.0
  0
SPLINE
  5
2A2
100
AcDbEntity
  8
0
100
AcDbSpline
 62
7
  6
CONTINUOUS
 70
0
 71
3
 72
15
 73
11
 74
0
 42
0.0000001
 43
0.0000001
 44
0.0000000001
 40
0.0
 40
0.0
 40
0.0
 40
0.0
 40
0.1557506732
 40
0.3032141009
 40
0.4410978654
 40
0.56904116
 40
0.6873380137
 40
0.7970483461
 40
0.900275453
 40
1.0
 40
1.0
 40
1.0
 40
1.0
 10
15.1813640017
 20
11.8735810132
 30
0.0
 10
15.1830415433
 20
11.8735810132
 30
0.0
 10
15.1863098353
 20
11.8737258606
 30
0.0
 10
15.1910203664
 20
11.8744061952
 30
0.0
 10
15.1953368493
 20
11.8755376885
 30
0.0
 10
15.1991817417
 20
11.8771014586
 30
0.0
 10
15.2024890919
 20
11.8790741174
 30
0.0
 10
15.2051971139
 20
11.8814306956
 30
0.0
 10
15.2072475574
 20
11.8841344113
 30
0.0
 10
15.2081451738
 20
11.8861534925
 30
0.0
 10
15.2084624731
 20
11.887179658
 30
0.0
  0
SPLINE
  5
2A3
100
AcDbEntity
  8
0
100
AcDbSpline
 62
7
  6
CONTINUOUS
 70
0
 71
3
 72
15
 73
11
 74
0
 42
0.0000001
 43
0.0000001
 44
0.0000000001
 40
0.0
 40
0.0
 40
0.0
 40
0.0
 40
0.1148729248
 40
0.2360779248
 40
0.3619572607
 40
0.4908828676
 40
0.6210131956
 40
0.7504589994
 40
0.8774377863
 40
1.0
 40
1.0
 40
1.0
 40
1.0
 10
14.9701890532
 20
11.8895697687
 30
0.0
 10
14.9715260161
 20
11.8883592815
 30
0.0
 10
14.974422613
 20
11.8860329597
 30
0.0
 10
14.9791966083
 20
11.8829351636
 30
0.0
 10
14.9844326387
 20
11.8801909267
 30
0.0
 10
14.9900163175
 20
11.8778594625
 30
0.0
 10
14.9958291852
 20
11.875988006
 30
0.0
 10
15.0017492027
 20
11.874618003
 30
0.0
 10
15.0076473312
 20
11.8737798434
 30
0.0
 10
15.0115671578
 20
11.8735810132
 30
0.0
 10
15.0134914198
 20
11.8735810132
 30
0.0
  0
SPLINE
  5
2A4
100
AcDbEntity
  8
0
100
AcDbSpline
 62
7
  6
CONTINUOUS
 70
0
 71
3
 72
15
 73
11
 74
0
 42
0.0000001
 43
0.0000001
 44
0.0000000001
 40
0.0
 40
0.0
 40
0.0
 40
0.0
 40
0.1557506732
 40
0.3032141009
 40
0.4410978654
 40
0.56904116
 40
0.6873380137
 40
0.7970483461
 40
0.900275453
 40
1.0
 40
1.0
 40
1.0
 40
1.0
 10
14.7208335047
 20
11.8735810132
 30
0.0
 10
14.7225110463
 20
11.8735810132
 30
0.0
 10
14.7257793383
 20
11.8737258606
 30
0.0
 10
14.7304898694
 20
11.8744061952
 30
0.0
 10
14.7348063523
 20
11.8755376885
 30
0.0
 10
14.7386512447
 20
11.8771014586
 30
0.0
 10
14.7419585949
 20
11.8790741174
 30
0.0
 10
14.7446666169
 20
11.8814306956
 30
0.0
 10
14.7467170604
 20
11.8841344113
 30
0.0
 10
14.7476146768
 20
11.8861534925
 30
0.0
 10
14.7479319761
 20
11.887179658
 30
0.0
  0
SPLINE
  5
2A5
100
AcDbEntity
  8
0
100
AcDbSpline
 62
7
  6
CONTINUOUS
 70
0
 71
3
 72
15
 73
11
 74
0
 42
0.0000001
 43
0.0000001
 44
0.0000000001
 40
0.0
 40
0.0
 40
0.0
 40
0.0
 40
0.1148729248
 40
0.2360779248
 40
0.3619572607
 40
0.4908828676
 40
0.6210131956
 40
0.7504589994
 40
0.8774377863
 40
1.0
 40
1.0
 40
1.0
 40
1.0
 10
14.5096585562
 20
11.8895697687
 30
0.0
 10
14.5109955191
 20
11.8883592815
 30
0.0
 10
14.513892116
 20
11.8860329597
 30
0.0
 10
14.5186661113
 20
11.8829351636
 30
0.0
 10
14.5239021417
 20
11.8801909267
 30
0.0
 10
14.5294858205
 20
11.8778594625
 30
0.0
 10
14.5352986882
 20
11.875988006
 30
0.0
 10
14.5412187057
 20
11.874618003
 30
0.0
 10
14.5471168342
 20
11.8737798434
 30
0.0
 10
14.5510366608
 20
11.8735810132
 30
0.0
 10
14.5529609228
 20
11.8735810132
 30
0.0
  0
SPLINE
  5
2A6
100
AcDbEntity
  8
0
100
AcDbSpline
 62
7
  6
CONTINUOUS
 70
0
 71
3
 72
15
 73
11
 74
0
 42
0.0000001
 43
0.0000001
 44
0.0000000001
 40
0.0
 40
0.0
 40
0.0
 40
0.0
 40
0.1224856527
 40
0.2495253425
 40
0.3790236504
 40
0.5091197445
 40
0.638007386
 40
0.7639363112
 40
0.8851961991
 40
1.0
 40
1.0
 40
1.0
 40
1.0
 10
13.9879017995
 20
11.9295259104
 30
0.0
 10
13.9891838355
 20
11.9295259104
 30
0.0
 10
13.9917968199
 20
11.9293926496
 30
0.0
 10
13.995729446
 20
11.9288350218
 30
0.0
 10
13.999676751
 20
11.9279207379
 30
0.0
 10
14.0035520867
 20
11.9266740898
 30
0.0
 10
14.0072739324
 20
11.9251189848
 30
0.0
 10
14.0107656065
 20
11.9232898693
 30
0.0
 10
14.0139478714
 20
11.9212234095
 30
0.0
 10
14.0158792745
 20
11.9196732434
 30
0.0
 10
14.0167700439
 20
11.91886674
 30
0.0
  0
SPLINE
  5
2A7
100
AcDbEntity
  8
0
100
AcDbSpline
 62
7
  6
CONTINUOUS
 70
0
 71
3
 72
15
 73
11
 74
0
 42
0.0000001
 43
0.0000001
 44
0.0000000001
 40
0.0
 40
0.0
 40
0.0
 40
0.0
 40
0.1224856527
 40
0.2495253425
 40
0.3790236504
 40
0.5091197445
 40
0.638007386
 40
0.7639363112
 40
0.8851961991
 40
1.0
 40
1.0
 40
1.0
 40
1.0
 10
14.4484322965
 20
11.9295259104
 30
0.0
 10
14.4497143325
 20
11.9295259104
 30
0.0
 10
14.4523273169
 20
11.9293926496
 30
0.0
 10
14.456259943
 20
11.9288350218
 30
0.0
 10
14.460207248
 20
11.9279207379
 30
0.0
 10
14.4640825837
 20
11.9266740898
 30
0.0
 10
14.4678044294
 20
11.9251189848
 30
0.0
 10
14.4712961035
 20
11.9232898693
 30
0.0
 10
14.4744783684
 20
11.9212234095
 30
0.0
 10
14.4764097715
 20
11.9196732434
 30
0.0
 10
14.4773005409
 20
11.91886674
 30
0.0
  0
SPLINE
  5
2A8
100
AcDbEntity
  8
0
100
AcDbSpline
 62
7
  6
CONTINUOUS
 70
0
 71
3
 72
15
 73
11
 74
0
 42
0.0000001
 43
0.0000001
 44
0.0000000001
 40
0.0
 40
0.0
 40
0.0
 40
0.0
 40
0.1224856527
 40
0.2495253425
 40
0.3790236504
 40
0.5091197445
 40
0.638007386
 40
0.7639363112
 40
0.8851961991
 40
1.0
 40
1.0
 40
1.0
 40
1.0
 10
14.9089627935
 20
11.9295259104
 30
0.0
 10
14.9102448295
 20
11.9295259104
 30
0.0
 10
14.9128578139
 20
11.9293926496
 30
0.0
 10
14.91679044
 20
11.9288350218
 30
0.0
 10
14.920737745
 20
11.9279207379
 30
0.0
 10
14.9246130807
 20
11.9266740898
 30
0.0
 10
14.9283349264
 20
11.9251189848
 30
0.0
 10
14.9318266005
 20
11.9232898693
 30
0.0
 10
14.9350088654
 20
11.9212234095
 30
0.0
 10
14.9369402685
 20
11.9196732434
 30
0.0
 10
14.9378310379
 20
11.91886674
 30
0.0
  0
SPLINE
  5
2A9
100
AcDbEntity
  8
0
100
AcDbSpline
 62
7
  6
CONTINUOUS
 70
0
 71
3
 72
15
 73
11
 74
0
 42
0.0000001
 43
0.0000001
 44
0.0000000001
 40
0.0
 40
0.0
 40
0.0
 40
0.0
 40
0.1224856527
 40
0.2495253425
 40
0.3790236504
 40
0.5091197445
 40
0.638007386
 40
0.7639363112
 40
0.8851961991
 40
1.0
 40
1.0
 40
1.0
 40
1.0
 10
15.3694932905
 20
11.9295259104
 30
0.0
 10
15.3707753265
 20
11.9295259104
 30
0.0
 10
15.3733883109
 20
11.9293926496
 30
0.0
 10
15.377320937
 20
11.9288350218
 30
0.0
 10
15.381268242
 20
11.9279207379
 30
0.0
 10
15.3851435777
 20
11.9266740898
 30
0.0
 10
15.3888654234
 20
11.9251189848
 30
0.0
 10
15.3923570975
 20
11.9232898693
 30
0.0
 10
15.3955393624
 20
11.9212234095
 30
0.0
 10
15.3974707655
 20
11.9196732434
 30
0.0
 10
15.3983615349
 20
11.91886674
 30
0.0
  0
SPLINE
  5
2AA
100
AcDbEntity
  8
0
100
AcDbSpline
 62
7
  6
CONTINUOUS
 70
0
 71
3
 72
15
 73
11
 74
0
 42
0.0000001
 43
0.0000001
 44
0.0000000001
 40
0.0
 40
0.0
 40
0.0
 40
0.0
 40
0.1224856527
 40
0.2495253425
 40
0.3790236504
 40
0.5091197445
 40
0.638007386
 40
0.7639363112
 40
0.8851961991
 40
1.0
 40
1.0
 40
1.0
 40
1.0
 10
15.8300237875
 20
11.9295259104
 30
0.0
 10
15.8313058235
 20
11.9295259104
 30
0.0
 10
15.8339188079
 20
11.9293926496
 30
0.0
 10
15.837851434
 20
11.9288350218
 30
0.0
 10
15.841798739
 20
11.9279207379
 30
0.0
 10
15.8456740747
 20
11.9266740898
 30
0.0
 10
15.8493959204
 20
11.9251189848
 30
0.0
 10
15.8528875945
 20
11.9232898693
 30
0.0
 10
15.8560698594
 20
11.9212234095
 30
0.0
 10
15.8580012625
 20
11.9196732434
 30
0.0
 10
15.8588920319
 20
11.91886674
 30
0.0
  0
SPLINE
  5
2AB
100
AcDbEntity
  8
0
100
AcDbSpline
 62
7
  6
CONTINUOUS
 70
0
 71
3
 72
15
 73
11
 74
0
 42
0.0000001
 43
0.0000001
 44
0.0000000001
 40
0.0
 40
0.0
 40
0.0
 40
0.0
 40
0.1224856527
 40
0.2495253425
 40
0.3790236504
 40
0.5091197445
 40
0.638007386
 40
0.7639363112
 40
0.8851961991
 40
1.0
 40
1.0
 40
1.0
 40
1.0
 10
16.2905542845
 20
11.9295259104
 30
0.0
 10
16.2918363205
 20
11.9295259104
 30
0.0
 10
16.2944493049
 20
11.9293926496
 30
0.0
 10
16.298381931
 20
11.9288350218
 30
0.0
 10
16.302329236
 20
11.9279207379
 30
0.0
 10
16.3062045717
 20
11.9266740898
 30
0.0
 10
16.3099264174
 20
11.9251189848
 30
0.0
 10
16.3134180915
 20
11.9232898693
 30
0.0
 10
16.3166003564
 20
11.9212234095
 30
0.0
 10
16.3185317595
 20
11.9196732434
 30
0.0
 10
16.3194225289
 20
11.91886674
 30
0.0
  0
ENDSEC
  0
SECTION
  2
OBJECTS
  0
DICTIONARY
  5
C
100
AcDbDictionary
280
0
281
1
  3
ACAD_GROUP
350
D
  3
ACAD_MLINESTYLE
350
17
  3
ACAD_LAYOUT
350
1A
  3
ACAD_PLOTSETTINGS
350
19
  3
ACAD_PLOTSTYLENAME
350
E
  0
DICTIONARY
  5
D
102
{ACAD_REACTORS
330
C
102
}
100
AcDbDictionary
280
0
281
1
  0
ACDBDICTIONARYWDFLT
  5
E
102
{ACAD_REACTORS
330
C
102
}
100
AcDbDictionary
281
1
  3
Normal
350
F
100
AcDbDictionaryWithDefault
340
F
  0
DICTIONARY
  5
17
102
{ACAD_REACTORS
330
C
102
}
100
AcDbDictionary
280
0
281
1
  3
Standard
350
18
  0
DICTIONARY
  5
19
102
{ACAD_REACTORS
330
C
102
}
100
AcDbDictionary
281
1
  0
DICTIONARY
  5
1A
102
{ACAD_REACTORS
330
C
102
}
100
AcDbDictionary
281
1
  3
Model
350
2AC
  3
Layout1
350
2AD
  0
ACDBPLACEHOLDER
  5
F
102
{ACAD_REACTORS
330
E
102
}
  0
MLINESTYLE
  5
18
102
{ACAD_REACTORS
330
17
102
}
100
AcDbMlineStyle
  2
STANDARD
 70
0
  3

 62
256
 51
90.0
 52
90.0
 71
2
 49
0.5
 62
256
  6
BYLAYER
 49
-0.5
 62
256
  6
BYLAYER
  0
LAYOUT
  5
2AC
102
{ACAD_REACTORS
330
1A
102
}
100
AcDbPlotSettings
  1

  2
none_device
  4
ANSI_C_(22.00_x_17.00_Inches)
  6

 40
0.0
 41
0.0
 42
0.0
 43
0.0
 44
558.8
 45
431.8
 46
0.0
 47
0.0
 48
0.0
 49
0.0
140
0.0
141
0.0
142
1.0
143
1.0
 70
1024
 72
0
 73
0
 74
0
  7

 75
0
147
1.0
148
0.0
149
0.0
100
AcDbLayout
  1
Model
 70
0
 71
0
 10
0.0
 20
0.0
 11
22.0
 21
17.0
 12
0.0
 22
0.0
 32
0.0
 14
0.0
 24
0.0
 34
0.0
 15
0.0
 25
0.0
 35
0.0
146
0.0
 13
0.0
 23
0.0
 33
0.0
 16
1.0
 26
0.0
 36
0.0
 17
0.0
 27
1.0
 37
0.0
 76
0
330
216
345
0
346
0
  0
LAYOUT
  5
2AD
102
{ACAD_REACTORS
330
1A
102
}
100
AcDbPlotSettings
  1

  2
none_device
  4
ANSI_C_(22.00_x_17.00_Inches)
  6

 40
0.0
 41
0.0
 42
0.0
 43
0.0
 44
558.8
 45
431.8
 46
0.0
 47
0.0
 48
0.0
 49
0.0
140
0.0
141
0.0
142
1.0
143
1.0
 70
0
 72
0
 73
0
 74
0
  7

 75
0
147
1.0
148
0.0
149
0.0
100
AcDbLayout
  1
Layout1
 70
0
 71
1
 10
0.0
 20
0.0
 11
22.0
 21
17.0
 12
0.0
 22
0.0
 32
0.0
 14
0.0
 24
0.0
 34
0.0
 15
0.0
 25
0.0
 35
0.0
146
0.0
 13
0.0
 23
0.0
 33
0.0
 16
1.0
 26
0.0
 36
0.0
 17
0.0
 27
1.0
 37
0.0
 76
0
330
217
345
0
346
0
  0
ENDSEC
  0
EOF