999
DXF file: _cgs_temp_output.dxf
999
Pro/ENGINEER 2016360 by Parametric Technology Corporation
  0
SECTION
  2
HEADER
  9
$ACADVER
  1
AC1021
  9
$DWGCODEPAGE
  3
ANSI_1252
  9
$EXTMAX
 10
22.0
 20
17.0
 30
0.0
  9
$EXTMIN
 10
0.0
 20
0.0
 30
0.0
  9
$LIMMIN
 10
0.0
 20
0.0
  9
$LIMMAX
 10
22.0
 20
17.0
  9
$VIEWCTR
 10
11.0
 20
8.5
  9
$VIEWSIZE
 40
17.0
  9
$CLAYER
  8
0
  9
$LTSCALE
 40
1.21
  9
$CELTYPE
  6
BYLAYER
  9
$DIMSCALE
 40
1.0
  9
$DIMASZ
 40
0.1875
  9
$DIMEXO
 40
0.0625
  9
$DIMDLI
 40
0.836
  9
$DIMEXE
 40
0.125
  9
$DIMCEN
 40
0.198
  9
$DIMLFAC
 40
1.0
  9
$DIMBLK
  1
_CLOSED
  9
$DIMALT
 70
0
  9
$DIMALTF
 40
25.4
  9
$DIMTXT
 40
0.15625
  9
$DIMTOL
 70
0
  9
$DIMLIM
 70
0
  9
$DIMTFAC
 40
1.0
  9
$DIMGAP
 40
0.09
  9
$DIMDSEP
 70
46
  9
$AUNITS
 70
0
  9
$PDMODE
 70
3
  9
$PDSIZE
 40
0.3125
  9
$HANDSEED
  5
416
  9
$TILEMODE
 70
1
  9
$MEASUREMENT
 70
0
  9
$INSUNITS
 70
1
  0
ENDSEC
  0
SECTION
  2
CLASSES
  0
CLASS
  1
ACDBDICTIONARYWDFLT
  2
AcDbDictionaryWithDefault
  3
AutoCAD 2000
 90
0
 91
1
280
0
281
0
  0
CLASS
  1
ACDBPLACEHOLDER
  2
AcDbPlaceHolder
  3
AutoCAD 2000
 90
0
 91
1
280
0
281
0
  0
CLASS
  1
LAYOUT
  2
AcDbLayout
  3
AutoCAD 2000
 90
0
 91
0
280
0
281
0
  0
ENDSEC
  0
SECTION
  2
TABLES
  0
TABLE
  2
VPORT
  5
8
100
AcDbSymbolTable
 70
2
  0
VPORT
  5
1F4
100
AcDbSymbolTableRecord
100
AcDbViewportTableRecord
  2
*ACTIVE
 70
0
 10
0.0
 20
0.0
 11
1.0
 21
1.0
 12
11.0
 22
8.5
 13
0.0
 23
0.0
 14
1.0
 24
1.0
 15
0.0
 25
0.0
 16
0.0
 26
0.0
 36
1.0
 17
0.0
 27
0.0
 37
0.0
 40
17.0
 41
1.2941176471
 42
50.0
 43
0.0
 44
0.0
 50
0.0
 51
0.0
 71
0
 72
100
 73
1
 74
1
 75
0
 76
0
 77
0
 78
0
  0
ENDTAB
  0
TABLE
  2
LTYPE
  5
5
100
AcDbSymbolTable
 70
6
  0
LTYPE
  5
14
100
AcDbSymbolTableRecord
100
AcDbLinetypeTableRecord
  2
BYBLOCK
 70
0
  3

 72
65
 73
0
 40
0.0
  0
LTYPE
  5
15
100
AcDbSymbolTableRecord
100
AcDbLinetypeTableRecord
  2
BYLAYER
 70
0
  3

 72
65
 73
0
 40
0.0
  0
LTYPE
  5
16
100
AcDbSymbolTableRecord
100
AcDbLinetypeTableRecord
  2
CONTINUOUS
 70
64
  3
Solid line
 72
65
 73
0
 40
0.0
  0
LTYPE
  5
1F5
100
AcDbSymbolTableRecord
100
AcDbLinetypeTableRecord
  2
CENTER
 70
64
  3
____ _ ____ _ ____ _ ____ _ ____ _ ____ _ ____
 72
65
 73
4
 40
0.6
 49
0.375
 74
0
 49
-0.075
 74
0
 49
0.075
 74
0
 49
-0.075
 74
0
  0
LTYPE
  5
1F6
100
AcDbSymbolTableRecord
100
AcDbLinetypeTableRecord
  2
HIDDEN
 70
64
  3
- - - - - - - - - - - - - - - - - - - -
 72
65
 73
2
 40
0.2
 49
0.1
 74
0
 49
-0.1
 74
0
  0
LTYPE
  5
1F7
100
AcDbSymbolTableRecord
100
AcDbLinetypeTableRecord
  2
PHANTOM
 70
64
  3
_____ _ _ _____ _ _ _____ _ _ _____
 72
65
 73
6
 40
0.8
 49
0.45
 74
0
 49
-0.05
 74
0
 49
0.1
 74
0
 49
-0.05
 74
0
 49
0.1
 74
0
 49
-0.05
 74
0
  0
LTYPE
  5
1F8
100
AcDbSymbolTableRecord
100
AcDbLinetypeTableRecord
  2
DOT
 70
64
  3
. . . . . . . . . . . . . . . . . . . .
 72
65
 73
2
 40
0.2
 49
0.1
 74
0
 49
-0.1
 74
0
  0
LTYPE
  5
1F9
100
AcDbSymbolTableRecord
100
AcDbLinetypeTableRecord
  2
DASHED
 70
64
  3
- - - - - - - - - - - - - - - - - - - -
 72
65
 73
2
 40
0.2
 49
0.1
 74
0
 49
-0.1
 74
0
  0
ENDTAB
  0
TABLE
  2
LAYER
  5
2
100
AcDbSymbolTable
 70
36
  0
LAYER
  5
10
100
AcDbSymbolTableRecord
100
AcDbLayerTableRecord
  2
0
 70
0
 62
7
  6
CONTINUOUS
370
-3
390
F
  0
LAYER
  5
1FA
100
AcDbSymbolTableRecord
100
AcDbLayerTableRecord
  2
DEFAULT_1
 70
0
 62
7
  6
CENTER
370
-3
390
F
  0
LAYER
  5
1FB
100
AcDbSymbolTableRecord
100
AcDbLayerTableRecord
  2
DEFAULT_2
 70
0
 62
8
  6
HIDDEN
370
-3
390
F
  0
LAYER
  5
1FC
100
AcDbSymbolTableRecord
100
AcDbLayerTableRecord
  2
DEFAULT_3
 70
0
 62
7
  6
PHANTOM
370
-3
390
F
  0
LAYER
  5
1FD
100
AcDbSymbolTableRecord
100
AcDbLayerTableRecord
  2
01_ALL_DTM_PLN
 70
0
 62
7
  6
CONTINUOUS
370
-3
390
F
  0
LAYER
  5
1FE
100
AcDbSymbolTableRecord
100
AcDbLayerTableRecord
  2
01__ASM_ALL_DTM_PLN
 70
0
 62
7
  6
CONTINUOUS
370
-3
390
F
  0
LAYER
  5
1FF
100
AcDbSymbolTableRecord
100
AcDbLayerTableRecord
  2
01__ASM_DEF_DTM_PLN
 70
0
 62
7
  6
CONTINUOUS
370
-3
390
F
  0
LAYER
  5
200
100
AcDbSymbolTableRecord
100
AcDbLayerTableRecord
  2
01___PRT_ALL_DTM_PLN
 70
0
 62
7
  6
CONTINUOUS
370
-3
390
F
  0
LAYER
  5
201
100
AcDbSymbolTableRecord
100
AcDbLayerTableRecord
  2
01___PRT_DEF_DTM_PLN
 70
0
 62
7
  6
CONTINUOUS
370
-3
390
F
  0
LAYER
  5
202
100
AcDbSymbolTableRecord
100
AcDbLayerTableRecord
  2
02_ALL_AXES
 70
0
 62
7
  6
CONTINUOUS
370
-3
390
F
  0
LAYER
  5
203
100
AcDbSymbolTableRecord
100
AcDbLayerTableRecord
  2
02__ASM_ALL_AXES
 70
0
 62
7
  6
CONTINUOUS
370
-3
390
F
  0
LAYER
  5
204
100
AcDbSymbolTableRecord
100
AcDbLayerTableRecord
  2
02___PRT_ALL_AXES
 70
0
 62
7
  6
CONTINUOUS
370
-3
390
F
  0
LAYER
  5
205
100
AcDbSymbolTableRecord
100
AcDbLayerTableRecord
  2
03_ALL_CURVES
 70
0
 62
7
  6
CONTINUOUS
370
-3
390
F
  0
LAYER
  5
206
100
AcDbSymbolTableRecord
100
AcDbLayerTableRecord
  2
03__ASM_ALL_CURVES
 70
0
 62
7
  6
CONTINUOUS
370
-3
390
F
  0
LAYER
  5
207
100
AcDbSymbolTableRecord
100
AcDbLayerTableRecord
  2
03___PRT_ALL_CURVES
 70
0
 62
7
  6
CONTINUOUS
370
-3
390
F
  0
LAYER
  5
208
100
AcDbSymbolTableRecord
100
AcDbLayerTableRecord
  2
04_ALL_DTM_PNT
 70
0
 62
7
  6
CONTINUOUS
370
-3
390
F
  0
LAYER
  5
209
100
AcDbSymbolTableRecord
100
AcDbLayerTableRecord
  2
04__ASM_ALL_DTM_PNT
 70
0
 62
7
  6
CONTINUOUS
370
-3
390
F
  0
LAYER
  5
20A
100
AcDbSymbolTableRecord
100
AcDbLayerTableRecord
  2
04___PRT_ALL_DTM_PNT
 70
0
 62
7
  6
CONTINUOUS
370
-3
390
F
  0
LAYER
  5
20B
100
AcDbSymbolTableRecord
100
AcDbLayerTableRecord
  2
05_ALL_DTM_CSYS
 70
0
 62
7
  6
CONTINUOUS
370
-3
390
F
  0
LAYER
  5
20C
100
AcDbSymbolTableRecord
100
AcDbLayerTableRecord
  2
05__ASM_ALL_DTM_CSYS
 70
0
 62
7
  6
CONTINUOUS
370
-3
390
F
  0
LAYER
  5
20D
100
AcDbSymbolTableRecord
100
AcDbLayerTableRecord
  2
05__ASM_DEF_DTM_CSYS
 70
0
 62
7
  6
CONTINUOUS
370
-3
390
F
  0
LAYER
  5
20E
100
AcDbSymbolTableRecord
100
AcDbLayerTableRecord
  2
05___PRT_ALL_DTM_CSYS
 70
0
 62
7
  6
CONTINUOUS
370
-3
390
F
  0
LAYER
  5
20F
100
AcDbSymbolTableRecord
100
AcDbLayerTableRecord
  2
05___PRT_DEF_DTM_CSYS
 70
0
 62
7
  6
CONTINUOUS
370
-3
390
F
  0
LAYER
  5
210
100
AcDbSymbolTableRecord
100
AcDbLayerTableRecord
  2
06_ALL_SURFS
 70
0
 62
7
  6
CONTINUOUS
370
-3
390
F
  0
LAYER
  5
211
100
AcDbSymbolTableRecord
100
AcDbLayerTableRecord
  2
06__ASM_ALL_SURFS
 70
0
 62
7
  6
CONTINUOUS
370
-3
390
F
  0
LAYER
  5
212
100
AcDbSymbolTableRecord
100
AcDbLayerTableRecord
  2
06___PRT_ALL_SURFS
 70
0
 62
7
  6
CONTINUOUS
370
-3
390
F
  0
LAYER
  5
213
100
AcDbSymbolTableRecord
100
AcDbLayerTableRecord
  2
07__ASM_ALL_SKELETONS
 70
0
 62
7
  6
CONTINUOUS
370
-3
390
F
  0
LAYER
  5
214
100
AcDbSymbolTableRecord
100
AcDbLayerTableRecord
  2
ASSEMBLY_1
 70
0
 62
7
  6
CONTINUOUS
370
-3
390
F
  0
LAYER
  5
215
100
AcDbSymbolTableRecord
100
AcDbLayerTableRecord
  2
REXNORD-NORMAL_DUTY_ZEP_200-101
 70
0
 62
7
  6
CONTINUOUS
370
-3
390
F
  0
LAYER
  5
216
100
AcDbSymbolTableRecord
100
AcDbLayerTableRecord
  2
REXNORD-NORMAL_DUTY_ZEP_200-113
 70
0
 62
7
  6
CONTINUOUS
370
-3
390
F
  0
LAYER
  5
217
100
AcDbSymbolTableRecord
100
AcDbLayerTableRecord
  2
REXNORD-NORMAL_DUTY_ZEP_200-125
 70
0
 62
7
  6
CONTINUOUS
370
-3
390
F
  0
LAYER
  5
218
100
AcDbSymbolTableRecord
100
AcDbLayerTableRecord
  2
REXNORD-NORMAL_DUTY_ZEP_2000--7
 70
0
 62
7
  6
CONTINUOUS
370
-3
390
F
  0
LAYER
  5
219
100
AcDbSymbolTableRecord
100
AcDbLayerTableRecord
  2
REXNORD-NORMAL_DUTY_ZEP_2000-25
 70
0
 62
7
  6
CONTINUOUS
370
-3
390
F
  0
LAYER
  5
21A
100
AcDbSymbolTableRecord
100
AcDbLayerTableRecord
  2
REXNORD-NORMAL_DUTY_ZEP_2000-35
 70
0
 62
7
  6
CONTINUOUS
370
-3
390
F
  0
LAYER
  5
21B
100
AcDbSymbolTableRecord
100
AcDbLayerTableRecord
  2
REXNORD-NORMAL_DUTY_ZEP_2000-47
 70
0
 62
7
  6
CONTINUOUS
370
-3
390
F
  0
LAYER
  5
21C
100
AcDbSymbolTableRecord
100
AcDbLayerTableRecord
  2
REXNORD-NORMAL_DUTY_ZEP_2000-59
 70
0
 62
7
  6
CONTINUOUS
370
-3
390
F
  0
LAYER
  5
21D
100
AcDbSymbolTableRecord
100
AcDbLayerTableRecord
  2
REXNORD-NORMAL_DUTY_ZEP_2000-69
 70
0
 62
7
  6
CONTINUOUS
370
-3
390
F
  0
LAYER
  5
21E
100
AcDbSymbolTableRecord
100
AcDbLayerTableRecord
  2
REXNORD-NORMAL_DUTY_ZEP_2000-81
 70
0
 62
7
  6
CONTINUOUS
370
-3
390
F
  0
LAYER
  5
21F
100
AcDbSymbolTableRecord
100
AcDbLayerTableRecord
  2
REXNORD-NORMAL_DUTY_ZEP_2000-91
 70
0
 62
7
  6
CONTINUOUS
370
-3
390
F
  0
LAYER
  5
220
100
AcDbSymbolTableRecord
100
AcDbLayerTableRecord
  2
SHELL
 70
0
 62
7
  6
CONTINUOUS
370
-3
390
F
  0
LAYER
  5
221
100
AcDbSymbolTableRecord
100
AcDbLayerTableRecord
  2
SHELL_1
 70
0
 62
7
  6
CONTINUOUS
370
-3
390
F
  0
LAYER
  5
222
100
AcDbSymbolTableRecord
100
AcDbLayerTableRecord
  2
SHELL_10
 70
0
 62
7
  6
CONTINUOUS
370
-3
390
F
  0
LAYER
  5
223
100
AcDbSymbolTableRecord
100
AcDbLayerTableRecord
  2
SHELL_2
 70
0
 62
7
  6
CONTINUOUS
370
-3
390
F
  0
LAYER
  5
224
100
AcDbSymbolTableRecord
100
AcDbLayerTableRecord
  2
SHELL_3
 70
0
 62
7
  6
CONTINUOUS
370
-3
390
F
  0
LAYER
  5
225
100
AcDbSymbolTableRecord
100
AcDbLayerTableRecord
  2
SHELL_4
 70
0
 62
7
  6
CONTINUOUS
370
-3
390
F
  0
LAYER
  5
226
100
AcDbSymbolTableRecord
100
AcDbLayerTableRecord
  2
SHELL_5
 70
0
 62
7
  6
CONTINUOUS
370
-3
390
F
  0
LAYER
  5
227
100
AcDbSymbolTableRecord
100
AcDbLayerTableRecord
  2
SHELL_6
 70
0
 62
7
  6
CONTINUOUS
370
-3
390
F
  0
LAYER
  5
228
100
AcDbSymbolTableRecord
100
AcDbLayerTableRecord
  2
SHELL_7
 70
0
 62
7
  6
CONTINUOUS
370
-3
390
F
  0
LAYER
  5
229
100
AcDbSymbolTableRecord
100
AcDbLayerTableRecord
  2
SHELL_8
 70
0
 62
7
  6
CONTINUOUS
370
-3
390
F
  0
LAYER
  5
22A
100
AcDbSymbolTableRecord
100
AcDbLayerTableRecord
  2
SHELL_9
 70
0
 62
7
  6
CONTINUOUS
370
-3
390
F
  0
LAYER
  5
22B
100
AcDbSymbolTableRecord
100
AcDbLayerTableRecord
  2
___SHELL
 70
0
 62
7
  6
CONTINUOUS
370
-3
390
F
  0
ENDTAB
  0
TABLE
  2
STYLE
  5
3
100
AcDbSymbolTable
 70
1
  0
STYLE
  5
11
100
AcDbSymbolTableRecord
100
AcDbTextStyleTableRecord
  2
STANDARD
 70
0
 40
0.0
 41
0.8
 50
0.0
 71
0
 42
0.2
  3
txt
  4

  0
STYLE
  5
22C
100
AcDbSymbolTableRecord
100
AcDbTextStyleTableRecord
  2
TEXTSTYLE_1
 70
0
 40
0.0
 41
0.8
 50
0.0
 71
0
 42
0.2
  3
gdt
  4

  0
ENDTAB
  0
TABLE
  2
VIEW
  5
6
100
AcDbSymbolTable
 70
0
  0
ENDTAB
  0
TABLE
  2
UCS
  5
7
100
AcDbSymbolTable
 70
0
  0
ENDTAB
  0
TABLE
  2
APPID
  5
9
100
AcDbSymbolTable
 70
1
  0
APPID
  5
22D
100
AcDbSymbolTableRecord
100
AcDbRegAppTableRecord
  2
ACAD
 70
0
  0
ENDTAB
  0
TABLE
  2
BLOCK_RECORD
  5
1
100
AcDbSymbolTable
 70
0
  0
BLOCK_RECORD
  5
22E
100
AcDbSymbolTableRecord
100
AcDbBlockTableRecord
  2
*Model_Space
  0
BLOCK_RECORD
  5
22F
100
AcDbSymbolTableRecord
100
AcDbBlockTableRecord
  2
*Paper_Space
  0
ENDTAB
  0
TABLE
  2
DIMSTYLE
  5
A
100
AcDbSymbolTable
 70
1
100
AcDbDimStyleTable
 71
0
  0
DIMSTYLE
105
230
100
AcDbSymbolTableRecord
100
AcDbDimStyleTableRecord
  2
STANDARD
 70
0
  3

  4

 40
1.0
 41
0.1875
 42
0.0625
 43
0.38
 44
0.125
 45
0.0
 46
0.0
 47
0.0001
 48
0.0001
140
0.15625
141
0.09
142
0.0
143
25.4
144
1.0
145
0.0
146
1.0
147
0.09
 71
0.0
 72
0.0
 73
1
 74
1
 75
0
 76
0
 77
0
 78
4
 79
1
170
0
171
3
172
0
173
0
174
0
175
0
176
0
177
0
178
0
270
2
179
4
271
4
272
4
273
2
274
2
275
0
280
0
281
0
282
0
283
1
284
4
285
0
286
0
287
3
288
0
340
11
278
46
  0
ENDTAB
  0
ENDSEC
  0
SECTION
  2
BLOCKS
  0
BLOCK
  5
20
100
AcDbEntity
  8
0
100
AcDbBlockBegin
  2
*Model_Space
 70
0
 10
0.0
 20
0.0
 30
0.0
  3
*Model_Space
  1

  0
ENDBLK
  5
21
100
AcDbEntity
  8
0
100
AcDbBlockEnd
  0
BLOCK
  5
1C
100
AcDbEntity
  8
0
100
AcDbBlockBegin
  2
*Paper_Space
 70
0
 10
0.0
 20
0.0
 30
0.0
  3
*Paper_Space
  1

  0
ENDBLK
  5
1D
100
AcDbEntity
  8
0
100
AcDbBlockEnd
  0
ENDSEC
  0
SECTION
  2
ENTITIES
  0
MTEXT
  5
231
100
AcDbEntity
  8
0
100
AcDbMText
 62
7
  6
CONTINUOUS
  7
STANDARD
 71
1
 72
1
 10
15.9560215477
 20
0.9479130325
 30
0.0
 11
1.0
 21
0.0
 31
0.0
 44
0.9
  1
SCALE: 1:0.500
 40
0.3
 41
3.36
  0
LINE
  5
232
100
AcDbEntity
  8
0
100
AcDbLine
 62
7
  6
CONTINUOUS
 10
0.0
 20
0.0
 11
0.0
 21
17.0
  0
LINE
  5
233
100
AcDbEntity
  8
0
100
AcDbLine
 62
7
  6
CONTINUOUS
 10
0.0
 20
0.0
 11
22.0
 21
0.0
  0
LINE
  5
234
100
AcDbEntity
  8
0
100
AcDbLine
 62
7
  6
CONTINUOUS
 10
0.0
 20
17.0
 11
22.0
 21
17.0
  0
LINE
  5
235
100
AcDbEntity
  8
0
100
AcDbLine
 62
7
  6
CONTINUOUS
 10
22.0
 20
0.0
 11
22.0
 21
17.0
  0
LINE
  5
236
100
AcDbEntity
  8
0
100
AcDbLine
 62
7
  6
CONTINUOUS
 10
3.9116172762
 20
4.3794950163
 11
3.9116172762
 21
4.9982450163
  0
LINE
  5
237
100
AcDbEntity
  8
0
100
AcDbLine
 62
7
  6
CONTINUOUS
 10
4.5029612049
 20
4.9982450163
 11
5.129025403
 21
6.0826200163
  0
LINE
  5
238
100
AcDbEntity
  8
0
100
AcDbLine
 62
7
  6
CONTINUOUS
 10
3.9116172762
 20
4.3794950163
 11
8.3491172762
 21
4.3794950163
  0
LINE
  5
239
100
AcDbEntity
  8
0
100
AcDbLine
 62
7
  6
CONTINUOUS
 10
5.2580966762
 20
4.9643745134
 11
5.2264738996
 21
5.0191467691
  0
LINE
  5
23A
100
AcDbEntity
  8
0
100
AcDbLine
 62
7
  6
CONTINUOUS
 10
5.3348195523
 20
5.0884865939
 11
5.3723195523
 21
5.0235346886
  0
LINE
  5
23B
100
AcDbEntity
  8
0
100
AcDbLine
 62
7
  6
CONTINUOUS
 10
5.3757984677
 20
5.1092590304
 11
5.4107984677
 21
5.0486372521
  0
LINE
  5
23C
100
AcDbEntity
  8
0
100
AcDbLine
 62
7
  6
CONTINUOUS
 10
5.3904922762
 20
5.5932331569
 11
5.3904922762
 21
5.4157568756
  0
LINE
  5
23D
100
AcDbEntity
  8
0
100
AcDbLine
 62
7
  6
CONTINUOUS
 10
5.3957422762
 20
5.5044950163
 11
5.3954922762
 21
5.5982450163
  0
LINE
  5
23E
100
AcDbEntity
  8
0
100
AcDbLine
 62
7
  6
CONTINUOUS
 10
5.3957422762
 20
5.5044950163
 11
5.3954922762
 21
5.4107450163
  0
LINE
  5
23F
100
AcDbEntity
  8
0
100
AcDbLine
 62
7
  6
CONTINUOUS
 10
6.0416172762
 20
6.2443700163
 11
6.0366172762
 21
6.2393700163
  0
LINE
  5
240
100
AcDbEntity
  8
0
100
AcDbLine
 62
7
  6
CONTINUOUS
 10
5.3904922762
 20
5.5932450163
 11
5.3954922762
 21
5.5982450163
  0
LINE
  5
241
100
AcDbEntity
  8
0
100
AcDbLine
 62
7
  6
CONTINUOUS
 10
8.3116172762
 20
5.0357450163
 11
7.7361227124
 21
5.0357450163
  0
LINE
  5
242
100
AcDbEntity
  8
0
100
AcDbLine
 62
7
  6
CONTINUOUS
 10
3.9491172762
 20
5.0357450163
 11
4.52461184
 21
5.0357450163
  0
LINE
  5
243
100
AcDbEntity
  8
0
100
AcDbLine
 62
7
  6
CONTINUOUS
 10
5.3904922762
 20
5.4157450163
 11
5.3954922762
 21
5.4107450163
  0
LINE
  5
244
100
AcDbEntity
  8
03__ASM_ALL_CURVES
100
AcDbLine
 62
4
  6
CONTINUOUS
 10
3.9116172762
 20
5.2357450163
 11
4.6400818938
 21
5.2357450163
  0
LINE
  5
245
100
AcDbEntity
  8
03__ASM_ALL_CURVES
100
AcDbLine
 62
4
  6
CONTINUOUS
 10
5.7094377296
 20
5.2357450163
 11
6.5512968227
 21
5.2357450163
  0
LINE
  5
246
100
AcDbEntity
  8
03__ASM_ALL_CURVES
100
AcDbLine
 62
4
  6
CONTINUOUS
 10
7.6206526585
 20
5.2357450163
 11
8.3491172762
 21
5.2357450163
  0
LINE
  5
247
100
AcDbEntity
  8
0
100
AcDbLine
 62
7
  6
CONTINUOUS
 10
6.0366172762
 20
6.2328613926
 11
6.0366172762
 21
6.2393700163
  0
LINE
  5
248
100
AcDbEntity
  8
0
100
AcDbLine
 62
7
  6
CONTINUOUS
 10
6.0891172762
 20
4.5874535431
 11
6.0891172762
 21
4.7253127046
  0
LINE
  5
249
100
AcDbEntity
  8
0
100
AcDbLine
 62
7
  6
CONTINUOUS
 10
6.0891172762
 20
6.2836773279
 11
6.0891172762
 21
6.4215364894
  0
LINE
  5
24A
100
AcDbEntity
  8
0
100
AcDbLine
 62
7
  6
CONTINUOUS
 10
6.5531644648
 20
6.3193012283
 11
6.4842348841
 21
6.1999116923
  0
LINE
  5
24B
100
AcDbEntity
  8
0
100
AcDbLine
 62
7
  6
CONTINUOUS
 10
5.7050525724
 20
4.8503283402
 11
5.6361229917
 21
4.7309388042
  0
LINE
  5
24C
100
AcDbEntity
  8
0
100
AcDbLine
 62
7
  6
CONTINUOUS
 10
6.8706197423
 20
6.3994269816
 11
6.8927168292
 21
6.4215240686
  0
LINE
  5
24D
100
AcDbEntity
  8
0
100
AcDbLine
 62
7
  6
CONTINUOUS
 10
6.8772488138
 20
6.3927979101
 11
6.8741853153
 21
6.3897344117
  0
LINE
  5
24E
100
AcDbEntity
  8
0
100
AcDbLine
 62
7
  6
CONTINUOUS
 10
6.9700565788
 20
6.3441843189
 11
6.9479594919
 21
6.322087232
  0
LINE
  5
24F
100
AcDbEntity
  8
0
100
AcDbLine
 62
7
  6
CONTINUOUS
 10
6.9039234882
 20
5.9987393008
 11
6.7845339522
 21
5.92980972
  0
LINE
  5
250
100
AcDbEntity
  8
0
100
AcDbLine
 62
7
  6
CONTINUOUS
 10
5.4349506001
 20
5.1506274084
 11
5.3155610641
 21
5.0816978276
  0
LINE
  5
251
100
AcDbEntity
  8
0
100
AcDbLine
 62
7
  6
CONTINUOUS
 10
5.2991849329
 20
5.0679129368
 11
5.3724571769
 21
5.1102166866
  0
LINE
  5
252
100
AcDbEntity
  8
0
100
AcDbLine
 62
7
  6
CONTINUOUS
 10
5.304373808
 20
5.0333809677
 11
5.2531390541
 21
5.0038005688
  0
LINE
  5
253
100
AcDbEntity
  8
0
100
AcDbLine
 62
7
  6
CONTINUOUS
 10
5.2581390541
 20
4.9951403148
 11
5.309373808
 21
5.0247207137
  0
LINE
  5
254
100
AcDbEntity
  8
0
100
AcDbLine
 62
7
  6
CONTINUOUS
 10
5.4020008998
 20
5.4107450163
 11
5.3954922762
 21
5.4107450163
  0
LINE
  5
255
100
AcDbEntity
  8
0
100
AcDbLine
 62
7
  6
CONTINUOUS
 10
7.0474087493
 20
5.4632450163
 11
6.9095495878
 21
5.4632450163
  0
LINE
  5
256
100
AcDbEntity
  8
0
100
AcDbLine
 62
7
  6
CONTINUOUS
 10
5.213325803
 20
5.4632450163
 11
5.3511849645
 21
5.4632450163
  0
LINE
  5
257
100
AcDbEntity
  8
0
100
AcDbLine
 62
7
  6
CONTINUOUS
 10
5.3155610641
 20
5.9272922049
 11
5.4349506001
 21
5.8583626242
  0
LINE
  5
258
100
AcDbEntity
  8
0
100
AcDbLine
 62
7
  6
CONTINUOUS
 10
6.7845339522
 20
5.0791803125
 11
6.9039234882
 21
5.0102507318
  0
LINE
  5
259
100
AcDbEntity
  8
03__ASM_ALL_CURVES
100
AcDbLine
 62
4
  6
CONTINUOUS
 10
5.7779460397
 20
5.8569162528
 11
6.4827885127
 21
5.1520737798
  0
LINE
  5
25A
100
AcDbEntity
  8
0
100
AcDbLine
 62
7
  6
CONTINUOUS
 10
5.6361229917
 20
6.2780512283
 11
5.7050525724
 21
6.1586616923
  0
LINE
  5
25B
100
AcDbEntity
  8
0
100
AcDbLine
 62
7
  6
CONTINUOUS
 10
6.4842348841
 20
4.8090783402
 11
6.5531644648
 21
4.6896888042
  0
LINE
  5
25C
100
AcDbEntity
  8
0
100
AcDbLine
 62
7
  6
CONTINUOUS
 10
6.1716172762
 20
4.5874535431
 11
6.1716172762
 21
4.7253127046
  0
LINE
  5
25D
100
AcDbEntity
  8
0
100
AcDbLine
 62
7
  6
CONTINUOUS
 10
6.1716172762
 20
6.2836773279
 11
6.1716172762
 21
6.4215364894
  0
LINE
  5
25E
100
AcDbEntity
  8
0
100
AcDbLine
 62
7
  6
CONTINUOUS
 10
6.2241172762
 20
6.2328613926
 11
6.2241172762
 21
6.2393700163
  0
LINE
  5
25F
100
AcDbEntity
  8
0
100
AcDbLine
 62
7
  6
CONTINUOUS
 10
5.7075700875
 20
4.6896888042
 11
5.7764996683
 21
4.8090783402
  0
LINE
  5
260
100
AcDbEntity
  8
0
100
AcDbLine
 62
7
  6
CONTINUOUS
 10
6.5556819799
 20
6.1586616923
 11
6.6246115606
 21
6.2780512283
  0
LINE
  5
261
100
AcDbEntity
  8
0
100
AcDbLine
 62
7
  6
CONTINUOUS
 10
7.01867017
 20
6.2513765539
 11
7.0156066716
 21
6.2483130554
  0
LINE
  5
262
100
AcDbEntity
  8
0
100
AcDbLine
 62
7
  6
CONTINUOUS
 10
7.0473963284
 20
6.2668445693
 11
7.0252992415
 21
6.2447474824
  0
LINE
  5
263
100
AcDbEntity
  8
0
100
AcDbLine
 62
7
  6
CONTINUOUS
 10
5.3366849329
 20
5.0029610316
 11
5.4099571769
 21
5.0452647813
  0
LINE
  5
264
100
AcDbEntity
  8
0
100
AcDbLine
 62
7
  6
CONTINUOUS
 10
5.3568110641
 20
5.0102507318
 11
5.4762006001
 21
5.0791803125
  0
LINE
  5
265
100
AcDbEntity
  8
0
100
AcDbLine
 62
7
  6
CONTINUOUS
 10
6.8257839522
 20
5.8583626242
 11
6.9451734882
 21
5.9272922049
  0
LINE
  5
266
100
AcDbEntity
  8
0
100
AcDbLine
 62
7
  6
CONTINUOUS
 10
5.3511849645
 20
5.5457450163
 11
5.213325803
 21
5.5457450163
  0
LINE
  5
267
100
AcDbEntity
  8
0
100
AcDbLine
 62
7
  6
CONTINUOUS
 10
6.9095495878
 20
5.5457450163
 11
7.0474087493
 21
5.5457450163
  0
LINE
  5
268
100
AcDbEntity
  8
0
100
AcDbLine
 62
7
  6
CONTINUOUS
 10
5.4020008999
 20
5.5982450163
 11
5.3954922762
 21
5.5982450163
  0
LINE
  5
269
100
AcDbEntity
  8
0
100
AcDbLine
 62
7
  6
CONTINUOUS
 10
6.9451734882
 20
5.0816978276
 11
6.8257839522
 21
5.1506274084
  0
LINE
  5
26A
100
AcDbEntity
  8
0
100
AcDbLine
 62
7
  6
CONTINUOUS
 10
5.4762006001
 20
5.92980972
 11
5.3568110641
 21
5.9987393008
  0
LINE
  5
26B
100
AcDbEntity
  8
0
100
AcDbLine
 62
7
  6
CONTINUOUS
 10
6.6246115606
 20
4.7309388042
 11
6.5556819799
 21
4.8503283402
  0
LINE
  5
26C
100
AcDbEntity
  8
0
100
AcDbLine
 62
7
  6
CONTINUOUS
 10
5.7764996683
 20
6.1999116923
 11
5.7075700875
 21
6.3193012283
  0
LINE
  5
26D
100
AcDbEntity
  8
0
100
AcDbLine
 62
7
  6
CONTINUOUS
 10
6.2191172762
 20
6.2443700163
 11
6.2241172762
 21
6.2393700163
  0
LINE
  5
26E
100
AcDbEntity
  8
0
100
AcDbLine
 62
7
  6
CONTINUOUS
 10
6.1303672762
 20
6.2391200163
 11
6.2241172762
 21
6.2393700163
  0
LINE
  5
26F
100
AcDbEntity
  8
0
100
AcDbLine
 62
7
  6
CONTINUOUS
 10
6.2191054168
 20
6.2443700163
 11
6.0416291355
 21
6.2443700163
  0
LINE
  5
270
100
AcDbEntity
  8
0
100
AcDbLine
 62
7
  6
CONTINUOUS
 10
6.1303672762
 20
6.2391200163
 11
6.0366172762
 21
6.2393700163
  0
LINE
  5
271
100
AcDbEntity
  8
0
100
AcDbLine
 62
7
  6
CONTINUOUS
 10
7.0252992415
 20
6.2447474824
 11
6.8706197423
 21
6.3994269816
  0
LINE
  5
272
100
AcDbEntity
  8
0
100
AcDbLine
 62
7
  6
CONTINUOUS
 10
7.0473963284
 20
6.2668445693
 11
6.8927168292
 21
6.4215240686
  0
LINE
  5
273
100
AcDbEntity
  8
0
100
AcDbLine
 62
7
  6
CONTINUOUS
 10
7.1317091493
 20
6.0826200163
 11
7.7577733474
 21
4.9982450163
  0
LINE
  5
274
100
AcDbEntity
  8
0
100
AcDbLine
 62
7
  6
CONTINUOUS
 10
7.0603525672
 20
6.3546510468
 11
6.9805233067
 21
6.4344803073
  0
LINE
  5
275
100
AcDbEntity
  8
0
100
AcDbLine
 62
7
  6
CONTINUOUS
 10
7.0926954112
 20
6.4314678122
 11
7.0573400721
 21
6.4668231513
  0
LINE
  5
276
100
AcDbEntity
  8
03__ASM_ALL_CURVES
100
AcDbLine
 62
8
  6
HIDDEN
 10
7.126739275
 20
6.4044950163
 11
7.626739275
 21
5.9044950163
  0
LINE
  5
277
100
AcDbEntity
  8
0
100
AcDbLine
 62
7
  6
CONTINUOUS
 10
8.3491172762
 20
4.3794950163
 11
8.3491172762
 21
4.9982450163
  0
LINE
  5
278
100
AcDbEntity
  8
0
100
AcDbLine
 62
7
  6
CONTINUOUS
 10
3.8521220839
 20
12.1687977814
 11
3.8521220839
 21
13.3437977814
  0
LINE
  5
279
100
AcDbEntity
  8
0
100
AcDbLine
 62
7
  6
CONTINUOUS
 10
4.4651166477
 20
12.1687977814
 11
4.4651166477
 21
12.4098763894
  0
LINE
  5
27A
100
AcDbEntity
  8
0
100
AcDbLine
 62
7
  6
CONTINUOUS
 10
4.4651166477
 20
13.1027191754
 11
4.4651166477
 21
13.3437977814
  0
LINE
  5
27B
100
AcDbEntity
  8
0
100
AcDbLine
 62
7
  6
CONTINUOUS
 10
5.3359970839
 20
11.8812977814
 11
5.3309970839
 21
11.8862977814
  0
LINE
  5
27C
100
AcDbEntity
  8
0
100
AcDbLine
 62
7
  6
CONTINUOUS
 10
5.1592612387
 20
12.1187977814
 11
5.1592612387
 21
12.1312977814
  0
LINE
  5
27D
100
AcDbEntity
  8
0
100
AcDbLine
 62
7
  6
CONTINUOUS
 10
5.1669787073
 20
12.0812977814
 11
5.1669787073
 21
12.1187977814
  0
LINE
  5
27E
100
AcDbEntity
  8
0
100
AcDbLine
 62
7
  6
CONTINUOUS
 10
5.2842612387
 20
12.1312977814
 11
5.2842612387
 21
12.1215628613
  0
LINE
  5
27F
100
AcDbEntity
  8
0
100
AcDbLine
 62
7
  6
CONTINUOUS
 10
5.3364970839
 20
11.8187977814
 11
6.8052470839
 21
11.8187977814
  0
LINE
  5
280
100
AcDbEntity
  8
0
100
AcDbLine
 62
7
  6
CONTINUOUS
 10
5.3362470839
 20
11.8812977814
 11
5.3359970839
 21
11.8961802627
  0
LINE
  5
281
100
AcDbEntity
  8
0
100
AcDbLine
 62
7
  6
CONTINUOUS
 10
5.3309970839
 20
12.0637977814
 11
5.3309970839
 21
11.8862977814
  0
LINE
  5
282
100
AcDbEntity
  8
0
100
AcDbLine
 62
7
  6
CONTINUOUS
 10
5.3359970839
 20
11.8961802627
 11
5.3359970839
 21
12.0539153001
  0
LINE
  5
283
100
AcDbEntity
  8
0
100
AcDbLine
 62
7
  6
CONTINUOUS
 10
5.3364970839
 20
12.1312977814
 11
5.3364970839
 21
12.0687977814
  0
LINE
  5
284
100
AcDbEntity
  8
0
100
AcDbLine
 62
7
  6
CONTINUOUS
 10
5.3364970839
 20
11.8812977814
 11
5.3364970839
 21
11.8187977814
  0
LINE
  5
285
100
AcDbEntity
  8
0
100
AcDbLine
 62
7
  6
CONTINUOUS
 10
5.3359970839
 20
12.0539153001
 11
5.3362470839
 21
12.0687977814
  0
LINE
  5
286
100
AcDbEntity
  8
0
100
AcDbLine
 62
7
  6
CONTINUOUS
 10
5.1669787073
 20
12.0812977814
 11
5.31282436
 21
12.0812977814
  0
LINE
  5
287
100
AcDbEntity
  8
0
100
AcDbLine
 62
7
  6
CONTINUOUS
 10
5.3163032754
 20
12.0935899506
 11
5.3364970839
 21
12.0935899506
  0
LINE
  5
288
100
AcDbEntity
  8
0
100
AcDbLine
 62
7
  6
CONTINUOUS
 10
5.3364970839
 20
12.1099176729
 11
5.3137644142
 21
12.1099176729
  0
LINE
  5
289
100
AcDbEntity
  8
0
100
AcDbLine
 62
7
  6
CONTINUOUS
 10
5.3364970839
 20
12.1187977814
 11
5.3070396882
 21
12.1187977814
  0
LINE
  5
28A
100
AcDbEntity
  8
0
100
AcDbLine
 62
7
  6
CONTINUOUS
 10
5.1592612387
 20
12.1187977814
 11
5.27532436
 21
12.1187977814
  0
LINE
  5
28B
100
AcDbEntity
  8
0
100
AcDbLine
 62
7
  6
CONTINUOUS
 10
5.3364970839
 20
12.1285779269
 11
5.3081842872
 21
12.1285779269
  0
LINE
  5
28C
100
AcDbEntity
  8
0
100
AcDbLine
 62
7
  6
CONTINUOUS
 10
3.8896220839
 20
12.1312977814
 11
8.2521220839
 21
12.1312977814
  0
LINE
  5
28D
100
AcDbEntity
  8
0
100
AcDbLine
 62
7
  6
CONTINUOUS
 10
6.0239970839
 20
11.9479844875
 11
6.0708720839
 21
11.9209211936
  0
LINE
  5
28E
100
AcDbEntity
  8
0
100
AcDbLine
 62
7
  6
CONTINUOUS
 10
6.1177470839
 20
12.0021110752
 11
6.0708720839
 21
12.0291743691
  0
LINE
  5
28F
100
AcDbEntity
  8
0
100
AcDbLine
 62
7
  6
CONTINUOUS
 10
5.3309970839
 20
12.0637977814
 11
5.3359970839
 21
12.0687977814
  0
LINE
  5
290
100
AcDbEntity
  8
0
100
AcDbLine
 62
7
  6
CONTINUOUS
 10
6.0239970839
 20
11.9479844875
 11
6.0239970839
 21
12.0021110752
  0
LINE
  5
291
100
AcDbEntity
  8
0
100
AcDbLine
 62
7
  6
CONTINUOUS
 10
4.2583720839
 20
12.6000477814
 11
4.5552470839
 21
12.6000477814
  0
LINE
  5
292
100
AcDbEntity
  8
0
100
AcDbLine
 62
7
  6
CONTINUOUS
 10
7.5864970839
 20
12.6000477814
 11
7.8833720839
 21
12.6000477814
  0
LINE
  5
293
100
AcDbEntity
  8
0
100
AcDbLine
 62
7
  6
CONTINUOUS
 10
6.1177470839
 20
12.0021110752
 11
6.1177470839
 21
11.9479844875
  0
LINE
  5
294
100
AcDbEntity
  8
0
100
AcDbLine
 62
7
  6
CONTINUOUS
 10
6.9105613865
 20
12.6300024991
 11
6.8884642996
 21
12.6300024991
  0
LINE
  5
295
100
AcDbEntity
  8
0
100
AcDbLine
 62
7
  6
CONTINUOUS
 10
6.81112455
 20
12.6931501402
 11
6.8332216369
 21
12.6931501402
  0
LINE
  5
296
100
AcDbEntity
  8
03__ASM_ALL_CURVES
100
AcDbLine
 62
4
  6
CONTINUOUS
 10
3.8521220839
 20
12.7562977814
 11
4.8833720839
 21
12.7562977814
  0
LINE
  5
297
100
AcDbEntity
  8
03__ASM_ALL_CURVES
100
AcDbLine
 62
8
  6
HIDDEN
 10
7.0672440827
 20
12.7562977814
 11
7.2583720839
 21
12.7562977814
  0
LINE
  5
298
100
AcDbEntity
  8
03__ASM_ALL_CURVES
100
AcDbLine
 62
4
  6
CONTINUOUS
 10
7.2583720839
 20
12.7562977814
 11
8.2896220839
 21
12.7562977814
  0
LINE
  5
299
100
AcDbEntity
  8
0
100
AcDbLine
 62
7
  6
CONTINUOUS
 10
6.81112455
 20
12.8194454225
 11
6.8884642996
 21
12.8825930636
  0
LINE
  5
29A
100
AcDbEntity
  8
0
100
AcDbLine
 62
7
  6
CONTINUOUS
 10
6.8332216369
 20
12.8194454225
 11
6.9105613865
 21
12.8825930636
  0
LINE
  5
29B
100
AcDbEntity
  8
0
100
AcDbLine
 62
7
  6
CONTINUOUS
 10
5.3048429964
 20
12.1279308793
 11
5.27532436
 21
12.1187977814
  0
LINE
  5
29C
100
AcDbEntity
  8
0
100
AcDbLine
 62
7
  6
CONTINUOUS
 10
5.27532436
 20
12.0812977814
 11
5.3129619846
 21
12.092942903
  0
LINE
  5
29D
100
AcDbEntity
  8
0
100
AcDbLine
 62
7
  6
CONTINUOUS
 10
5.31282436
 20
12.0812977814
 11
5.3364970839
 21
12.0886221476
  0
LINE
  5
29E
100
AcDbEntity
  8
0
100
AcDbLine
 62
7
  6
CONTINUOUS
 10
6.8332216369
 20
12.8194454225
 11
6.81112455
 21
12.8194454225
  0
LINE
  5
29F
100
AcDbEntity
  8
0
100
AcDbLine
 62
7
  6
CONTINUOUS
 10
6.8884642996
 20
12.8825930636
 11
6.9105613865
 21
12.8825930636
  0
LINE
  5
2A0
100
AcDbEntity
  8
0
100
AcDbLine
 62
7
  6
CONTINUOUS
 10
7.8833720839
 20
12.9125477814
 11
7.5864970839
 21
12.9125477814
  0
LINE
  5
2A1
100
AcDbEntity
  8
0
100
AcDbLine
 62
7
  6
CONTINUOUS
 10
4.5552470839
 20
12.9125477814
 11
4.2583720839
 21
12.9125477814
  0
LINE
  5
2A2
100
AcDbEntity
  8
0
100
AcDbLine
 62
7
  6
CONTINUOUS
 10
6.9105613865
 20
12.6300024991
 11
6.9798236966
 21
12.6865549385
  0
LINE
  5
2A3
100
AcDbEntity
  8
0
100
AcDbLine
 62
7
  6
CONTINUOUS
 10
6.0708720839
 20
12.0291743691
 11
6.0239970839
 21
12.0021110752
  0
LINE
  5
2A4
100
AcDbEntity
  8
0
100
AcDbLine
 62
7
  6
CONTINUOUS
 10
6.0708720839
 20
11.9209211936
 11
6.1177470839
 21
11.9479844875
  0
LINE
  5
2A5
100
AcDbEntity
  8
0
100
AcDbLine
 62
7
  6
CONTINUOUS
 10
6.8884642996
 20
12.6300024991
 11
6.81112455
 21
12.6931501402
  0
LINE
  5
2A6
100
AcDbEntity
  8
0
100
AcDbLine
 62
7
  6
CONTINUOUS
 10
6.9105613865
 20
12.6300024991
 11
6.8332216369
 21
12.6931501402
  0
LINE
  5
2A7
100
AcDbEntity
  8
0
100
AcDbLine
 62
7
  6
CONTINUOUS
 10
6.8052470839
 20
11.8187977814
 11
6.8052470839
 21
12.1312977814
  0
LINE
  5
2A8
100
AcDbEntity
  8
0
100
AcDbLine
 62
7
  6
CONTINUOUS
 10
6.81112455
 20
12.6931501402
 11
6.81112455
 21
12.8194454225
  0
LINE
  5
2A9
100
AcDbEntity
  8
0
100
AcDbLine
 62
7
  6
CONTINUOUS
 10
6.8332216369
 20
12.6931501402
 11
6.8332216369
 21
12.8194454225
  0
LINE
  5
2AA
100
AcDbEntity
  8
0
100
AcDbLine
 62
7
  6
CONTINUOUS
 10
3.8896220839
 20
13.3812977814
 11
8.2521220839
 21
13.3812977814
  0
LINE
  5
2AB
100
AcDbEntity
  8
0
100
AcDbLine
 62
7
  6
CONTINUOUS
 10
6.9804237891
 20
12.8255506508
 11
6.9105613865
 21
12.8825930636
  0
LINE
  5
2AC
100
AcDbEntity
  8
0
100
AcDbLine
 62
7
  6
CONTINUOUS
 10
7.67662752
 20
13.3437977814
 11
7.67662752
 21
13.1027191734
  0
LINE
  5
2AD
100
AcDbEntity
  8
0
100
AcDbLine
 62
7
  6
CONTINUOUS
 10
7.67662752
 20
12.4098763873
 11
7.67662752
 21
12.1687977814
  0
LINE
  5
2AE
100
AcDbEntity
  8
0
100
AcDbLine
 62
7
  6
CONTINUOUS
 10
8.2896220839
 20
13.3437977814
 11
8.2896220839
 21
12.1687977814
  0
LINE
  5
2AF
100
AcDbEntity
  8
0
100
AcDbLine
 62
7
  6
CONTINUOUS
 10
15.0916052569
 20
4.319999824
 11
16.3416052569
 21
4.319999824
  0
LINE
  5
2B0
100
AcDbEntity
  8
0
100
AcDbLine
 62
7
  6
CONTINUOUS
 10
14.8416052569
 20
6.179874824
 11
14.8466052569
 21
6.184874824
  0
LINE
  5
2B1
100
AcDbEntity
  8
0
100
AcDbLine
 62
7
  6
CONTINUOUS
 10
14.7791052569
 20
6.1793630227
 11
14.7791052569
 21
4.7106366252
  0
LINE
  5
2B2
100
AcDbEntity
  8
0
100
AcDbLine
 62
7
  6
CONTINUOUS
 10
15.0916052569
 20
4.710624824
 11
14.7791052569
 21
4.710624824
  0
LINE
  5
2B3
100
AcDbEntity
  8
0
100
AcDbLine
 62
7
  6
CONTINUOUS
 10
15.0916052569
 20
4.319999824
 11
15.0916052569
 21
6.6012490345
  0
LINE
  5
2B4
100
AcDbEntity
  8
0
100
AcDbLine
 62
7
  6
CONTINUOUS
 10
15.5903099747
 20
6.2846891266
 11
15.6473523875
 21
6.3545515292
  0
LINE
  5
2B5
100
AcDbEntity
  8
0
100
AcDbLine
 62
7
  6
CONTINUOUS
 10
15.1291052569
 20
4.976249824
 11
16.3041052569
 21
4.976249824
  0
LINE
  5
2B6
100
AcDbEntity
  8
0
100
AcDbLine
 62
7
  6
CONTINUOUS
 10
15.7797528981
 20
6.207349377
 11
15.8429005392
 21
6.2846891266
  0
LINE
  5
2B7
100
AcDbEntity
  8
0
100
AcDbLine
 62
7
  6
CONTINUOUS
 10
15.7797528981
 20
6.1852522901
 11
15.8429005392
 21
6.2625920397
  0
LWPOLYLINE
  5
2B8
100
AcDbEntity
  8
0
100
AcDbPolyline
 62
7
  6
CONTINUOUS
 90
3
 70
0
 10
15.3939672773
 20
4.976249824
 10
15.3893022678
 20
5.0411482433
 10
15.3884803033
 20
5.082378513
  0
LINE
  5
2B9
100
AcDbEntity
  8
0
100
AcDbLine
 62
7
  6
CONTINUOUS
 10
15.3884802569
 20
5.0824707021
 11
15.388480257
 21
5.0824862665
  0
LINE
  5
2BA
100
AcDbEntity
  8
0
100
AcDbLine
 62
7
  6
CONTINUOUS
 10
15.5903099747
 20
6.2846891266
 11
15.5903099747
 21
6.2625920397
  0
LINE
  5
2BB
100
AcDbEntity
  8
0
100
AcDbLine
 62
7
  6
CONTINUOUS
 10
15.6534576158
 20
6.207349377
 11
15.6534576158
 21
6.1852522901
  0
LINE
  5
2BC
100
AcDbEntity
  8
03__ASM_ALL_CURVES
100
AcDbLine
 62
8
  6
HIDDEN
 10
15.7166052569
 20
6.344999824
 11
15.7166052569
 21
5.844999824
  0
LINE
  5
2BD
100
AcDbEntity
  8
0
100
AcDbLine
 62
7
  6
CONTINUOUS
 10
15.0241052569
 20
6.184874824
 11
15.0291052569
 21
6.179874824
  0
LINE
  5
2BE
100
AcDbEntity
  8
0
100
AcDbLine
 62
7
  6
CONTINUOUS
 10
15.7797528981
 20
6.1852522901
 11
15.7797528981
 21
6.207349377
  0
LINE
  5
2BF
100
AcDbEntity
  8
0
100
AcDbLine
 62
7
  6
CONTINUOUS
 10
15.8429005392
 20
6.2625920397
 11
15.8429005392
 21
6.2846891266
  0
LINE
  5
2C0
100
AcDbEntity
  8
0
100
AcDbLine
 62
7
  6
CONTINUOUS
 10
16.0447302567
 20
5.0824253212
 11
16.0447302569
 21
5.0824046949
  0
LWPOLYLINE
  5
2C1
100
AcDbEntity
  8
0
100
AcDbPolyline
 62
7
  6
CONTINUOUS
 90
3
 70
0
 10
16.0447302624
 20
5.0823821001
 10
16.0438776779
 20
5.0403905059
 10
16.0392432534
 20
4.976249824
  0
LINE
  5
2C2
100
AcDbEntity
  8
0
100
AcDbLine
 62
7
  6
CONTINUOUS
 10
15.6534576158
 20
6.1852522901
 11
15.5903099747
 21
6.2625920397
  0
LINE
  5
2C3
100
AcDbEntity
  8
0
100
AcDbLine
 62
7
  6
CONTINUOUS
 10
15.5903099747
 20
6.2846891266
 11
15.6534576158
 21
6.207349377
  0
LINE
  5
2C4
100
AcDbEntity
  8
0
100
AcDbLine
 62
7
  6
CONTINUOUS
 10
14.8416052569
 20
6.179624824
 11
14.8564877382
 21
6.179874824
  0
LINE
  5
2C5
100
AcDbEntity
  8
0
100
AcDbLine
 62
7
  6
CONTINUOUS
 10
15.0916052569
 20
6.179374824
 11
15.0291052569
 21
6.179374824
  0
LINE
  5
2C6
100
AcDbEntity
  8
0
100
AcDbLine
 62
7
  6
CONTINUOUS
 10
14.8416052569
 20
6.179374824
 11
14.7791052569
 21
6.179374824
  0
LINE
  5
2C7
100
AcDbEntity
  8
0
100
AcDbLine
 62
7
  6
CONTINUOUS
 10
14.8564877382
 20
6.179874824
 11
15.0142227756
 21
6.179874824
  0
LINE
  5
2C8
100
AcDbEntity
  8
0
100
AcDbLine
 62
7
  6
CONTINUOUS
 10
15.0241052569
 20
6.184874824
 11
14.8466052569
 21
6.184874824
  0
LINE
  5
2C9
100
AcDbEntity
  8
0
100
AcDbLine
 62
7
  6
CONTINUOUS
 10
15.7797528981
 20
6.1852522901
 11
15.6534576158
 21
6.1852522901
  0
LINE
  5
2CA
100
AcDbEntity
  8
0
100
AcDbLine
 62
7
  6
CONTINUOUS
 10
15.6534576158
 20
6.207349377
 11
15.7797528981
 21
6.207349377
  0
LINE
  5
2CB
100
AcDbEntity
  8
0
100
AcDbLine
 62
7
  6
CONTINUOUS
 10
15.0142227756
 20
6.179874824
 11
15.0291052569
 21
6.179624824
  0
LINE
  5
2CC
100
AcDbEntity
  8
0
100
AcDbLine
 62
7
  6
CONTINUOUS
 10
15.7863480999
 20
6.3539514367
 11
15.8429005392
 21
6.2846891266
  0
LINE
  5
2CD
100
AcDbEntity
  8
0
100
AcDbLine
 62
7
  6
CONTINUOUS
 10
16.3416052569
 20
4.319999824
 11
16.3416052569
 21
6.6012490345
  0
LINE
  5
2CE
100
AcDbEntity
  8
0
100
AcDbLine
 62
7
  6
CONTINUOUS
 10
15.0916052569
 20
6.601249824
 11
16.3416052569
 21
6.601249824
  0
LINE
  5
2CF
100
AcDbEntity
  8
0
100
AcDbLine
 62
7
  6
CONTINUOUS
 10
13.19272082
 20
11.7099174848
 11
13.3814654749
 21
11.325296317
  0
LINE
  5
2D0
100
AcDbEntity
  8
0
100
AcDbLine
 62
7
  6
CONTINUOUS
 10
13.1905574753
 20
11.7375096128
 11
13.4749854053
 21
12.6579187317
  0
LWPOLYLINE
  5
2D1
100
AcDbEntity
  8
0
100
AcDbPolyline
 62
7
  6
CONTINUOUS
 90
6
 70
0
 10
14.07582467
 20
12.7458563301
 10
14.0757545964
 20
12.7453677342
 10
14.0754982264
 20
12.7439240236
 10
14.0750321094
 20
12.7416617865
 10
14.07433559
 20
12.7385994869
 10
14.073388781
 20
12.7347195802
  0
LWPOLYLINE
  5
2D2
100
AcDbEntity
  8
0
100
AcDbPolyline
 62
7
  6
CONTINUOUS
 90
3
 70
0
 10
14.073388781
 20
12.7347195802
 10
14.0721715953
 20
12.7299874721
 10
14.0706634437
 20
12.7243589741
  0
LWPOLYLINE
  5
2D3
100
AcDbEntity
  8
0
100
AcDbPolyline
 62
7
  6
CONTINUOUS
 90
5
 70
0
 10
14.0706634437
 20
12.7243589741
 10
14.0688440139
 20
12.7177869097
 10
14.0666936113
 20
12.7102240792
 10
14.0641938854
 20
12.7016263317
 10
14.061328386
 20
12.6919546796
  0
LINE
  5
2D4
100
AcDbEntity
  8
0
100
AcDbLine
 62
7
  6
CONTINUOUS
 10
14.061328386
 20
12.6919546796
 11
14.0544463823
 21
12.6692689865
  0
LINE
  5
2D5
100
AcDbEntity
  8
0
100
AcDbLine
 62
7
  6
CONTINUOUS
 10
13.792942132
 20
12.122921212
 11
13.7820140544
 21
12.08755794
  0
LINE
  5
2D6
100
AcDbEntity
  8
0
100
AcDbLine
 62
7
  6
CONTINUOUS
 10
13.745012282
 20
11.7497482102
 11
13.8033692943
 21
11.9385915712
  0
LINE
  5
2D7
100
AcDbEntity
  8
0
100
AcDbLine
 62
7
  6
CONTINUOUS
 10
13.9710832002
 20
12.4813139697
 11
14.029440212
 21
12.670157329
  0
LINE
  5
2D8
100
AcDbEntity
  8
0
100
AcDbLine
 62
7
  6
CONTINUOUS
 10
14.0544463823
 20
12.6692689865
 11
14.0460686917
 21
12.6423263847
  0
LINE
  5
2D9
100
AcDbEntity
  8
0
100
AcDbLine
 62
7
  6
CONTINUOUS
 10
14.0460686917
 20
12.6423263847
 11
14.0364897569
 21
12.6121073767
  0
LINE
  5
2DA
100
AcDbEntity
  8
0
100
AcDbLine
 62
7
  6
CONTINUOUS
 10
14.0364897569
 20
12.6121073767
 11
14.0203755506
 21
12.5622110027
  0
LINE
  5
2DB
100
AcDbEntity
  8
0
100
AcDbLine
 62
7
  6
CONTINUOUS
 10
14.0203755506
 20
12.5622110027
 11
13.9972568172
 21
12.4920135293
  0
LINE
  5
2DC
100
AcDbEntity
  8
0
100
AcDbLine
 62
7
  6
CONTINUOUS
 10
13.9972568172
 20
12.4920135293
 11
13.9736342658
 21
12.4214856422
  0
LINE
  5
2DD
100
AcDbEntity
  8
0
100
AcDbLine
 62
7
  6
CONTINUOUS
 10
13.9736342658
 20
12.4214856422
 11
13.9497287828
 21
12.3510785046
  0
LINE
  5
2DE
100
AcDbEntity
  8
0
100
AcDbLine
 62
7
  6
CONTINUOUS
 10
13.9497287828
 20
12.3510785046
 11
13.9192812329
 21
12.2626119211
  0
LINE
  5
2DF
100
AcDbEntity
  8
0
100
AcDbLine
 62
7
  6
CONTINUOUS
 10
13.8033692942
 20
11.9385915712
 11
13.8036992799
 21
11.9395343375
  0
LINE
  5
2E0
100
AcDbEntity
  8
0
100
AcDbLine
 62
7
  6
CONTINUOUS
 10
13.9192812329
 20
12.2626119211
 11
13.8939967402
 21
12.1901127798
  0
LINE
  5
2E1
100
AcDbEntity
  8
0
100
AcDbLine
 62
7
  6
CONTINUOUS
 10
13.8939967402
 20
12.1901127798
 11
13.8681216202
 21
12.1168466305
  0
LINE
  5
2E2
100
AcDbEntity
  8
0
100
AcDbLine
 62
7
  6
CONTINUOUS
 10
13.8681216202
 20
12.1168466305
 11
13.8425137825
 21
12.0453617666
  0
LINE
  5
2E3
100
AcDbEntity
  8
0
100
AcDbLine
 62
7
  6
CONTINUOUS
 10
14.2758787521
 20
13.3502800237
 11
14.0330205528
 21
12.6844611381
  0
LINE
  5
2E4
100
AcDbEntity
  8
0
100
AcDbLine
 62
7
  6
CONTINUOUS
 10
13.7274323093
 20
11.6970630773
 11
13.9732958479
 21
12.3711213867
  0
LINE
  5
2E5
100
AcDbEntity
  8
0
100
AcDbLine
 62
7
  6
CONTINUOUS
 10
13.8425137825
 20
12.0453617666
 11
13.8240078238
 21
11.9944602038
  0
LINE
  5
2E6
100
AcDbEntity
  8
0
100
AcDbLine
 62
7
  6
CONTINUOUS
 10
13.8240078238
 20
11.9944602038
 11
13.8065179315
 21
11.9471033714
  0
LINE
  5
2E7
100
AcDbEntity
  8
0
100
AcDbLine
 62
7
  6
CONTINUOUS
 10
13.8065179315
 20
11.9471033714
 11
13.8036914001
 21
11.9395347446
  0
LINE
  5
2E8
100
AcDbEntity
  8
0
100
AcDbLine
 62
7
  6
CONTINUOUS
 10
13.4060529248
 20
11.3124419094
 11
15.1593942716
 21
11.3124419094
  0
LINE
  5
2E9
100
AcDbEntity
  8
0
100
AcDbLine
 62
7
  6
CONTINUOUS
 10
15.2783189147
 20
11.3124419094
 11
17.4241815111
 21
11.3124419094
  0
LINE
  5
2EA
100
AcDbEntity
  8
0
100
AcDbLine
 62
7
  6
CONTINUOUS
 10
14.4000059301
 20
11.6525761674
 11
14.3753524052
 21
11.6708894698
  0
LINE
  5
2EB
100
AcDbEntity
  8
0
100
AcDbLine
 62
7
  6
CONTINUOUS
 10
14.3234795075
 20
12.2317207563
 11
14.3264555952
 21
12.2421268103
  0
LINE
  5
2EC
100
AcDbEntity
  8
0
100
AcDbLine
 62
7
  6
CONTINUOUS
 10
14.1948986821
 20
12.2827809712
 11
14.1924880548
 21
12.2745680708
  0
LINE
  5
2ED
100
AcDbEntity
  8
0
100
AcDbLine
 62
7
  6
CONTINUOUS
 10
14.2435079591
 20
11.9978616162
 11
14.2398769642
 21
11.9861117126
  0
LINE
  5
2EE
100
AcDbEntity
  8
0
100
AcDbLine
 62
7
  6
CONTINUOUS
 10
14.3703079355
 20
12.2285754122
 11
14.2946622095
 21
11.9837857529
  0
LINE
  5
2EF
100
AcDbEntity
  8
0
100
AcDbLine
 62
7
  6
CONTINUOUS
 10
14.4806561103
 20
12.4183896505
 11
14.4842871051
 21
12.4301395541
  0
LINE
  5
2F0
100
AcDbEntity
  8
0
100
AcDbLine
 62
7
  6
CONTINUOUS
 10
14.3807489552
 20
12.4926033762
 11
14.4806561103
 21
12.4183896505
  0
LINE
  5
2F1
100
AcDbEntity
  8
0
100
AcDbLine
 62
7
  6
CONTINUOUS
 10
15.6852909758
 20
11.5235544268
 11
15.7099171247
 21
11.5052614601
  0
LINE
  5
2F2
100
AcDbEntity
  8
0
100
AcDbLine
 62
7
  6
CONTINUOUS
 10
14.7794318285
 20
12.3549311265
 11
14.7718057819
 21
12.3704713757
  0
LINE
  5
2F3
100
AcDbEntity
  8
0
100
AcDbLine
 62
7
  6
CONTINUOUS
 10
14.7962681252
 20
12.4961006158
 11
14.7998991201
 21
12.5078505194
  0
LINE
  5
2F4
100
AcDbEntity
  8
0
100
AcDbLine
 62
7
  6
CONTINUOUS
 10
14.7587035578
 20
12.328072563
 11
14.7718057819
 21
12.3704713757
  0
LINE
  5
2F5
100
AcDbEntity
  8
0
100
AcDbLine
 62
7
  6
CONTINUOUS
 10
14.7692460912
 20
12.3219700686
 11
14.7794318285
 21
12.3549311265
  0
LINE
  5
2F6
100
AcDbEntity
  8
0
100
AcDbLine
 62
7
  6
CONTINUOUS
 10
14.85815525
 20
12.3704713757
 11
14.845053026
 21
12.328072563
  0
LINE
  5
2F7
100
AcDbEntity
  8
0
100
AcDbLine
 62
7
  6
CONTINUOUS
 10
15.9291792258
 20
11.9861117126
 11
15.8022025295
 21
11.9861117126
  0
LINE
  5
2F8
100
AcDbEntity
  8
0
100
AcDbLine
 62
7
  6
CONTINUOUS
 10
14.2398769642
 20
11.9861117126
 11
14.2946622095
 21
11.9861117126
  0
LINE
  5
2F9
100
AcDbEntity
  8
0
100
AcDbLine
 62
7
  6
CONTINUOUS
 10
14.2435079591
 20
11.9978616162
 11
14.2990119802
 21
11.9978616162
  0
LINE
  5
2FA
100
AcDbEntity
  8
0
100
AcDbLine
 62
7
  6
CONTINUOUS
 10
15.8058335243
 20
11.9978616162
 11
15.9239351091
 21
11.9978616162
  0
LINE
  5
2FB
100
AcDbEntity
  8
0
100
AcDbLine
 62
7
  6
CONTINUOUS
 10
14.1924880548
 20
12.2745680708
 11
14.3234795075
 21
12.2317207563
  0
LINE
  5
2FC
100
AcDbEntity
  8
0
100
AcDbLine
 62
7
  6
CONTINUOUS
 10
15.804211318
 20
11.7473732643
 11
15.9352027707
 21
11.7045259498
  0
LINE
  5
2FD
100
AcDbEntity
  8
0
100
AcDbLine
 62
7
  6
CONTINUOUS
 10
15.9388337656
 20
11.7162758534
 11
15.80896685
 21
11.7587553317
  0
LINE
  5
2FE
100
AcDbEntity
  8
0
100
AcDbLine
 62
7
  6
CONTINUOUS
 10
14.3271105023
 20
12.2434706599
 11
14.1961190496
 21
12.2863179744
  0
LINE
  5
2FF
100
AcDbEntity
  8
0
100
AcDbLine
 62
7
  6
CONTINUOUS
 10
15.9514021813
 20
11.7489381767
 11
15.8204107286
 21
11.7917854912
  0
LINE
  5
300
100
AcDbEntity
  8
0
100
AcDbLine
 62
7
  6
CONTINUOUS
 10
14.339678918
 20
12.2761329832
 11
14.2086874653
 21
12.3189802977
  0
LINE
  5
301
100
AcDbEntity
  8
0
100
AcDbLine
 62
7
  6
CONTINUOUS
 10
14.7587035578
 20
12.328072563
 11
14.7953271798
 21
12.3068731567
  0
LINE
  5
302
100
AcDbEntity
  8
0
100
AcDbLine
 62
7
  6
CONTINUOUS
 10
15.7135481196
 20
11.5170113638
 11
15.6903683452
 21
11.5342299245
  0
LINE
  5
303
100
AcDbEntity
  8
0
100
AcDbLine
 62
7
  6
CONTINUOUS
 10
14.4842871051
 20
12.4301395541
 11
14.392248944
 21
12.4985079792
  0
LINE
  5
304
100
AcDbEntity
  8
0
100
AcDbLine
 62
7
  6
CONTINUOUS
 10
15.7631412808
 20
11.5309028713
 11
15.7052747923
 21
11.5738876576
  0
LINE
  5
305
100
AcDbEntity
  8
0
100
AcDbLine
 62
7
  6
CONTINUOUS
 10
14.5338802664
 20
12.4440310617
 11
14.4339731113
 21
12.5182447874
  0
LINE
  5
306
100
AcDbEntity
  8
0
100
AcDbLine
 62
7
  6
CONTINUOUS
 10
14.8291576747
 20
12.3761305329
 11
14.821531628
 21
12.3916707821
  0
LINE
  5
307
100
AcDbEntity
  8
0
100
AcDbLine
 62
7
  6
CONTINUOUS
 10
14.7962681252
 20
12.4961006158
 11
14.7542153093
 21
12.5817952448
  0
LINE
  5
308
100
AcDbEntity
  8
0
100
AcDbLine
 62
7
  6
CONTINUOUS
 10
14.7998991201
 20
12.5078505194
 11
14.7635423308
 21
12.5819378665
  0
LINE
  5
309
100
AcDbEntity
  8
0
100
AcDbLine
 62
7
  6
CONTINUOUS
 10
14.8722556572
 20
12.4961006158
 11
14.8302028413
 21
12.5817952448
  0
LINE
  5
30A
100
AcDbEntity
  8
0
100
AcDbLine
 62
7
  6
CONTINUOUS
 10
14.3112285761
 20
12.0373945349
 11
14.2147110102
 21
12.0373945349
  0
LINE
  5
30B
100
AcDbEntity
  8
0
100
AcDbLine
 62
7
  6
CONTINUOUS
 10
15.7770365755
 20
12.0373945349
 11
15.9040132718
 21
12.0373945349
  0
LINE
  5
30C
100
AcDbEntity
  8
0
100
AcDbLine
 62
7
  6
CONTINUOUS
 10
13.6589790305
 20
12.08755794
 11
13.8576741835
 21
12.08755794
  0
LINE
  5
30D
100
AcDbEntity
  8
0
100
AcDbLine
 62
7
  6
CONTINUOUS
 10
16.7243851511
 20
12.08755794
 11
16.9978251337
 21
12.08755794
  0
LINE
  5
30E
100
AcDbEntity
  8
0
100
AcDbLine
 62
7
  6
CONTINUOUS
 10
17.1167843433
 20
12.1283818284
 11
16.9001227397
 21
12.1283818284
  0
LINE
  5
30F
100
AcDbEntity
  8
0
100
AcDbLine
 62
7
  6
CONTINUOUS
 10
13.8722159787
 20
12.1283818284
 11
13.834716619
 21
12.1283818284
  0
LINE
  5
310
100
AcDbEntity
  8
0
100
AcDbLine
 62
7
  6
CONTINUOUS
 10
14.8291576747
 20
12.3761305329
 11
14.8552387633
 21
12.361033621
  0
LINE
  5
311
100
AcDbEntity
  8
0
100
AcDbLine
 62
7
  6
CONTINUOUS
 10
14.85815525
 20
12.3704713757
 11
14.821531628
 21
12.3916707821
  0
LINE
  5
312
100
AcDbEntity
  8
0
100
AcDbLine
 62
7
  6
CONTINUOUS
 10
15.2641376778
 20
12.4183896505
 11
15.2677686727
 21
12.4301395541
  0
LINE
  5
313
100
AcDbEntity
  8
0
100
AcDbLine
 62
7
  6
CONTINUOUS
 10
15.212817109
 20
12.5182447874
 11
15.1857475678
 21
12.4440310617
  0
LINE
  5
314
100
AcDbEntity
  8
0
100
AcDbLine
 62
7
  6
CONTINUOUS
 10
15.2677686727
 20
12.4301395541
 11
15.2906293101
 21
12.4928141691
  0
LINE
  5
315
100
AcDbEntity
  8
0
100
AcDbLine
 62
7
  6
CONTINUOUS
 10
15.2641376778
 20
12.4183896505
 11
15.2912072191
 21
12.4926033762
  0
LINE
  5
316
100
AcDbEntity
  8
0
100
AcDbLine
 62
7
  6
CONTINUOUS
 10
15.6609606707
 20
13.1208320889
 11
15.6473484425
 21
13.1070963194
  0
LINE
  5
317
100
AcDbEntity
  8
0
100
AcDbLine
 62
7
  6
CONTINUOUS
 10
15.6167766079
 20
13.0081658263
 11
15.6303888361
 21
13.0219015958
  0
LINE
  5
318
100
AcDbEntity
  8
0
100
AcDbLine
 62
7
  6
CONTINUOUS
 10
17.0734708598
 20
12.3323475993
 11
16.8000308772
 21
12.3323475993
  0
LINE
  5
319
100
AcDbEntity
  8
0
100
AcDbLine
 62
7
  6
CONTINUOUS
 10
13.9433188444
 20
12.3323475993
 11
13.7346247565
 21
12.3323475993
  0
LINE
  5
31A
100
AcDbEntity
  8
03__ASM_ALL_CURVES
100
AcDbLine
 62
4
  6
CONTINUOUS
 10
13.2616124914
 20
12.3342747633
 11
13.9439793663
 21
12.3342747633
  0
LINE
  5
31B
100
AcDbEntity
  8
03__ASM_ALL_CURVES
100
AcDbLine
 62
4
  6
CONTINUOUS
 10
16.3482717242
 20
12.3342747633
 11
17.3488206522
 21
12.3342747633
  0
LINE
  5
31C
100
AcDbEntity
  8
0
100
AcDbLine
 62
7
  6
CONTINUOUS
 10
15.6167766079
 20
13.0081658263
 11
15.6473484425
 21
13.1070963194
  0
LINE
  5
31D
100
AcDbEntity
  8
0
100
AcDbLine
 62
7
  6
CONTINUOUS
 10
15.6303888361
 20
13.0219015958
 11
15.6609606707
 21
13.1208320889
  0
LINE
  5
31E
100
AcDbEntity
  8
0
100
AcDbLine
 62
7
  6
CONTINUOUS
 10
15.709929407
 20
12.9243611899
 11
15.6963171788
 21
12.9106254204
  0
LINE
  5
31F
100
AcDbEntity
  8
0
100
AcDbLine
 62
7
  6
CONTINUOUS
 10
15.8200418126
 20
12.9257512772
 11
15.8064295844
 21
12.9120155077
  0
LINE
  5
320
100
AcDbEntity
  8
0
100
AcDbLine
 62
7
  6
CONTINUOUS
 10
14.821531628
 20
12.3916707821
 11
14.7718057819
 21
12.3704713757
  0
LINE
  5
321
100
AcDbEntity
  8
0
100
AcDbLine
 62
7
  6
CONTINUOUS
 10
14.7794318285
 20
12.3549311265
 11
14.8291576747
 21
12.3761305329
  0
LINE
  5
322
100
AcDbEntity
  8
0
100
AcDbLine
 62
7
  6
CONTINUOUS
 10
14.7953271798
 20
12.3068731567
 11
14.845053026
 21
12.328072563
  0
LINE
  5
323
100
AcDbEntity
  8
03__ASM_ALL_CURVES
100
AcDbLine
 62
8
  6
HIDDEN
 10
15.4807873028
 20
11.6542049268
 11
15.4808665192
 21
11.6551554045
  0
LINE
  5
324
100
AcDbEntity
  8
0
100
AcDbLine
 62
7
  6
CONTINUOUS
 10
13.510813687
 20
12.6843469552
 11
14.0333335961
 21
12.6843469552
  0
LINE
  5
325
100
AcDbEntity
  8
0
100
AcDbLine
 62
7
  6
CONTINUOUS
 10
17.0064223641
 20
12.6843469552
 11
17.5289422733
 21
12.6843469552
  0
LINE
  5
326
100
AcDbEntity
  8
0
100
AcDbLine
 62
7
  6
CONTINUOUS
 10
15.8178897299
 20
12.3711213867
 11
16.7253128167
 21
11.6970630773
  0
LINE
  5
327
100
AcDbEntity
  8
0
100
AcDbLine
 62
7
  6
CONTINUOUS
 10
15.6045218573
 20
12.2317207563
 11
15.6081528521
 21
12.2434706599
  0
LINE
  5
328
100
AcDbEntity
  8
0
100
AcDbLine
 62
7
  6
CONTINUOUS
 10
15.8200418126
 20
12.9257512772
 11
15.8506136472
 21
13.0246817703
  0
LINE
  5
329
100
AcDbEntity
  8
0
100
AcDbLine
 62
7
  6
CONTINUOUS
 10
15.6336723725
 20
12.3189802977
 11
15.5447337358
 21
12.2761329832
  0
LINE
  5
32A
100
AcDbEntity
  8
0
100
AcDbLine
 62
7
  6
CONTINUOUS
 10
15.6081528521
 20
12.2434706599
 11
15.6854574868
 21
12.2807131466
  0
LINE
  5
32B
100
AcDbEntity
  8
0
100
AcDbLine
 62
7
  6
CONTINUOUS
 10
15.6045218573
 20
12.2317207563
 11
15.693460494
 21
12.2745680708
  0
LWPOLYLINE
  5
32C
100
AcDbEntity
  8
0
100
AcDbPolyline
 62
7
  6
CONTINUOUS
 90
11
 70
0
 10
16.7555441169
 20
11.9538395963
 10
16.6939624553
 20
11.9943834457
 10
16.6239719581
 20
12.046420697
 10
16.5597419567
 20
12.1001342954
 10
16.5017583729
 20
12.1541591585
 10
16.4502751346
 20
12.2073566422
 10
16.4043953268
 20
12.2599382282
 10
16.3630568023
 20
12.3128314465
 10
16.3259140003
 20
12.3667009534
 10
16.293434503
 20
12.4216036362
 10
16.2809834663
 20
12.4457653566
  0
LINE
  5
32D
100
AcDbEntity
  8
0
100
AcDbLine
 62
7
  6
CONTINUOUS
 10
15.8204107286
 20
11.7917854912
 11
15.8174346409
 21
11.7813794372
  0
LINE
  5
32E
100
AcDbEntity
  8
0
100
AcDbLine
 62
7
  6
CONTINUOUS
 10
15.8022025295
 20
11.9861117126
 11
15.8058335243
 21
11.9978616162
  0
LINE
  5
32F
100
AcDbEntity
  8
0
100
AcDbLine
 62
7
  6
CONTINUOUS
 10
15.7735823005
 20
11.7949308353
 11
15.6979365745
 21
11.5501411761
  0
LINE
  5
330
100
AcDbEntity
  8
0
100
AcDbLine
 62
7
  6
CONTINUOUS
 10
15.7135481196
 20
11.5170113638
 11
15.7099171247
 21
11.5052614601
  0
LINE
  5
331
100
AcDbEntity
  8
0
100
AcDbLine
 62
7
  6
CONTINUOUS
 10
15.8064295844
 20
12.9120155077
 11
15.6963171788
 21
12.9106254204
  0
LINE
  5
332
100
AcDbEntity
  8
0
100
AcDbLine
 62
7
  6
CONTINUOUS
 10
15.709929407
 20
12.9243611899
 11
15.8200418126
 21
12.9257512772
  0
LINE
  5
333
100
AcDbEntity
  8
0
100
AcDbLine
 62
7
  6
CONTINUOUS
 10
15.6963171788
 20
12.9106254204
 11
15.6167766079
 21
13.0081658263
  0
LINE
  5
334
100
AcDbEntity
  8
0
100
AcDbLine
 62
7
  6
CONTINUOUS
 10
15.709929407
 20
12.9243611899
 11
15.6303888361
 21
13.0219015958
  0
LINE
  5
335
100
AcDbEntity
  8
0
100
AcDbLine
 62
7
  6
CONTINUOUS
 10
15.948991482
 20
11.7407252985
 11
15.9514021813
 21
11.7489381767
  0
LINE
  5
336
100
AcDbEntity
  8
0
100
AcDbLine
 62
7
  6
CONTINUOUS
 10
15.9388337656
 20
11.7162758534
 11
15.9352027707
 21
11.7045259498
  0
LINE
  5
337
100
AcDbEntity
  8
0
100
AcDbLine
 62
7
  6
CONTINUOUS
 10
15.6609606707
 20
13.1208320889
 11
15.7408810959
 21
13.1218410249
  0
LINE
  5
338
100
AcDbEntity
  8
03__ASM_ALL_CURVES
100
AcDbLine
 62
8
  6
HIDDEN
 10
15.8664182738
 20
13.0607814137
 11
16.4794697041
 21
12.7499764296
  0
LINE
  5
339
100
AcDbEntity
  8
0
100
AcDbLine
 62
7
  6
CONTINUOUS
 10
15.8506136472
 20
13.0246817703
 11
15.8442486049
 21
13.032487206
  0
LINE
  5
33A
100
AcDbEntity
  8
0
100
AcDbLine
 62
7
  6
CONTINUOUS
 10
16.2809754403
 20
12.4457816965
 11
16.2809582266
 21
12.4458167768
  0
LINE
  5
33B
100
AcDbEntity
  8
0
100
AcDbLine
 62
7
  6
CONTINUOUS
 10
17.0169574518
 20
12.6843469552
 11
16.1204726341
 21
13.3502800237
  0
LINE
  5
33C
100
AcDbEntity
  8
0
100
AcDbLine
 62
7
  6
CONTINUOUS
 10
16.9874376083
 20
12.670157329
 11
16.929080596
 21
12.4813139681
  0
LINE
  5
33D
100
AcDbEntity
  8
0
100
AcDbLine
 62
7
  6
CONTINUOUS
 10
16.7613666901
 20
11.9385915696
 11
16.7030096783
 21
11.7497482102
  0
LINE
  5
33E
100
AcDbEntity
  8
0
100
AcDbLine
 62
7
  6
CONTINUOUS
 10
17.5626072103
 20
12.6633673068
 11
17.7513518653
 21
12.2787461389
  0
LINE
  5
33F
100
AcDbEntity
  8
0
100
AcDbLine
 62
7
  6
CONTINUOUS
 10
17.7522267156
 20
12.2622257874
 11
17.4677987856
 21
11.3418166686
  0
ARC
  5
340
100
AcDbEntity
  8
0
100
AcDbCircle
 62
7
  6
CONTINUOUS
 10
5.281256431
 20
5.0142606413
 40
0.0625
100
AcDbArc
 50
66.8698976459
 51
353.1301023541
  0
ARC
  5
341
100
AcDbEntity
  8
0
100
AcDbCircle
 62
7
  6
CONTINUOUS
 10
5.281256431
 20
5.0142606413
 40
0.055
100
AcDbArc
 50
75.0994720393
 51
174.9031987725
  0
ARC
  5
342
100
AcDbEntity
  8
0
100
AcDbCircle
 62
7
  6
CONTINUOUS
 10
5.281256431
 20
5.0142606413
 40
0.055
100
AcDbArc
 50
245.0968012276
 51
344.9005279607
  0
CIRCLE
  5
343
100
AcDbEntity
  8
0
100
AcDbCircle
 62
7
  6
CONTINUOUS
 10
5.4370711743
 20
4.8111989144
 40
0.0395055787
  0
ARC
  5
344
100
AcDbEntity
  8
0
100
AcDbCircle
 62
7
  6
CONTINUOUS
 10
3.9491172762
 20
4.9982450163
 40
0.0375
100
AcDbArc
 50
90.0
 51
180.0
  0
ARC
  5
345
100
AcDbEntity
  8
0
100
AcDbCircle
 62
7
  6
CONTINUOUS
 10
5.281256431
 20
5.0142606413
 40
0.03
100
AcDbArc
 50
20.4059317731
 51
39.594068227
  0
ARC
  5
346
100
AcDbEntity
  8
0
100
AcDbCircle
 62
7
  6
CONTINUOUS
 10
5.281256431
 20
5.0142606413
 40
0.03
100
AcDbArc
 50
200.405931773
 51
219.5940682267
  0
ARC
  5
347
100
AcDbEntity
  8
0
100
AcDbCircle
 62
7
  6
CONTINUOUS
 10
5.281256431
 20
5.0142606413
 40
0.0260587651
100
AcDbArc
 50
18.9378299487
 51
41.0621700514
  0
ARC
  5
348
100
AcDbEntity
  8
0
100
AcDbCircle
 62
7
  6
CONTINUOUS
 10
5.281256431
 20
5.0142606413
 40
0.0260587651
100
AcDbArc
 50
198.9378299486
 51
221.0621700511
  0
CIRCLE
  5
349
100
AcDbEntity
  8
0
100
AcDbCircle
 62
7
  6
CONTINUOUS
 10
5.4370711743
 20
4.8111989144
 40
0.0197527894
  0
ARC
  5
34A
100
AcDbEntity
  8
0
100
AcDbCircle
 62
7
  6
CONTINUOUS
 10
5.2966849329
 20
5.0722430639
 40
0.005
100
AcDbArc
 50
255.0994720399
 51
300.0
  0
ARC
  5
34B
100
AcDbEntity
  8
0
100
AcDbCircle
 62
7
  6
CONTINUOUS
 10
5.3391849329
 20
4.9986309045
 40
0.005
100
AcDbArc
 50
120.0000000001
 51
164.9005279607
  0
ARC
  5
34C
100
AcDbEntity
  8
0
100
AcDbCircle
 62
7
  6
CONTINUOUS
 10
6.1303672762
 20
5.5044950163
 40
1.15625
100
AcDbArc
 50
30.0
 51
150.0
  0
ARC
  5
34D
100
AcDbEntity
  8
0
100
AcDbCircle
 62
7
  6
CONTINUOUS
 10
6.1303672762
 20
5.5044950163
 40
0.91796875
100
AcDbArc
 50
147.424479829
 51
152.575520171
  0
ARC
  5
34E
100
AcDbEntity
  8
0
100
AcDbCircle
 62
7
  6
CONTINUOUS
 10
6.1303672762
 20
5.5044950163
 40
0.91796875
100
AcDbArc
 50
207.424479829
 51
207.65851844
  0
ARC
  5
34F
100
AcDbEntity
  8
0
100
AcDbCircle
 62
7
  6
CONTINUOUS
 10
6.1303672762
 20
5.5044950163
 40
0.91796875
100
AcDbArc
 50
212.3414604987
 51
212.575520171
  0
ARC
  5
350
100
AcDbEntity
  8
0
100
AcDbCircle
 62
7
  6
CONTINUOUS
 10
6.1303672762
 20
5.5044950163
 40
0.91796875
100
AcDbArc
 50
237.424479829
 51
242.575520171
  0
ARC
  5
351
100
AcDbEntity
  8
0
100
AcDbCircle
 62
7
  6
CONTINUOUS
 10
6.1303672762
 20
5.5044950163
 40
0.91796875
100
AcDbArc
 50
267.424479829
 51
272.575520171
  0
ARC
  5
352
100
AcDbEntity
  8
0
100
AcDbCircle
 62
7
  6
CONTINUOUS
 10
6.1303672762
 20
5.5044950163
 40
0.91796875
100
AcDbArc
 50
297.424479829
 51
302.575520171
  0
ARC
  5
353
100
AcDbEntity
  8
0
100
AcDbCircle
 62
7
  6
CONTINUOUS
 10
6.1303672762
 20
5.5044950163
 40
0.91796875
100
AcDbArc
 50
327.424479829
 51
332.575520171
  0
ARC
  5
354
100
AcDbEntity
  8
0
100
AcDbCircle
 62
7
  6
CONTINUOUS
 10
6.1303672762
 20
5.5044950163
 40
0.91796875
100
AcDbArc
 50
27.424479829
 51
32.575520171
  0
ARC
  5
355
100
AcDbEntity
  8
0
100
AcDbCircle
 62
7
  6
CONTINUOUS
 10
6.1303672762
 20
5.5044950163
 40
0.91796875
100
AcDbArc
 50
57.424479829
 51
62.575520171
  0
ARC
  5
356
100
AcDbEntity
  8
0
100
AcDbCircle
 62
7
  6
CONTINUOUS
 10
6.1303672762
 20
5.5044950163
 40
0.91796875
100
AcDbArc
 50
87.424479829
 51
92.575520171
  0
ARC
  5
357
100
AcDbEntity
  8
0
100
AcDbCircle
 62
7
  6
CONTINUOUS
 10
6.1303672762
 20
5.5044950163
 40
0.91796875
100
AcDbArc
 50
117.424479829
 51
122.575520171
  0
ARC
  5
358
100
AcDbEntity
  8
0
100
AcDbCircle
 62
7
  6
CONTINUOUS
 10
6.1303672762
 20
5.5044950163
 40
0.91796875
100
AcDbArc
 50
177.424479829
 51
182.575520171
  0
ARC
  5
359
100
AcDbEntity
  8
0
100
AcDbCircle
 62
7
  6
CONTINUOUS
 10
6.1303672762
 20
5.5044950163
 40
0.91796875
100
AcDbArc
 50
357.424479829
 51
2.575520171
  0
ARC
  5
35A
100
AcDbEntity
  8
0
100
AcDbCircle
 62
7
  6
CONTINUOUS
 10
6.1303672762
 20
5.5044950163
 40
0.7802734375
100
AcDbArc
 50
146.9695838888
 51
153.0304161112
  0
ARC
  5
35B
100
AcDbEntity
  8
0
100
AcDbCircle
 62
7
  6
CONTINUOUS
 10
6.1303672762
 20
5.5044950163
 40
0.7802734375
100
AcDbArc
 50
206.9695838888
 51
213.0304161112
  0
ARC
  5
35C
100
AcDbEntity
  8
0
100
AcDbCircle
 62
7
  6
CONTINUOUS
 10
6.1303672762
 20
5.5044950163
 40
0.7802734375
100
AcDbArc
 50
176.9695838888
 51
183.0304161112
  0
ARC
  5
35D
100
AcDbEntity
  8
0
100
AcDbCircle
 62
7
  6
CONTINUOUS
 10
6.1303672762
 20
5.5044950163
 40
0.7802734375
100
AcDbArc
 50
356.9695838888
 51
3.0304161112
  0
ARC
  5
35E
100
AcDbEntity
  8
0
100
AcDbCircle
 62
7
  6
CONTINUOUS
 10
6.1303672762
 20
5.5044950163
 40
0.7802734375
100
AcDbArc
 50
236.9695838888
 51
243.0304161112
  0
ARC
  5
35F
100
AcDbEntity
  8
0
100
AcDbCircle
 62
7
  6
CONTINUOUS
 10
6.1303672762
 20
5.5044950163
 40
0.7802734375
100
AcDbArc
 50
266.9695838888
 51
273.0304161112
  0
ARC
  5
360
100
AcDbEntity
  8
0
100
AcDbCircle
 62
7
  6
CONTINUOUS
 10
6.1303672762
 20
5.5044950163
 40
0.7802734375
100
AcDbArc
 50
296.9695838888
 51
303.0304161112
  0
ARC
  5
361
100
AcDbEntity
  8
0
100
AcDbCircle
 62
7
  6
CONTINUOUS
 10
6.1303672762
 20
5.5044950163
 40
0.7802734375
100
AcDbArc
 50
326.9695838888
 51
333.0304161112
  0
ARC
  5
362
100
AcDbEntity
  8
0
100
AcDbCircle
 62
7
  6
CONTINUOUS
 10
6.1303672762
 20
5.5044950163
 40
0.7802734375
100
AcDbArc
 50
26.9695838888
 51
33.0304161112
  0
ARC
  5
363
100
AcDbEntity
  8
0
100
AcDbCircle
 62
7
  6
CONTINUOUS
 10
6.1303672762
 20
5.5044950163
 40
0.7802734375
100
AcDbArc
 50
56.9695838888
 51
63.0304161112
  0
ARC
  5
364
100
AcDbEntity
  8
0
100
AcDbCircle
 62
7
  6
CONTINUOUS
 10
6.1303672762
 20
5.5044950163
 40
0.7802734375
100
AcDbArc
 50
86.9695838888
 51
93.0304161112
  0
ARC
  5
365
100
AcDbEntity
  8
0
100
AcDbCircle
 62
7
  6
CONTINUOUS
 10
6.1303672762
 20
5.5044950163
 40
0.7802734375
100
AcDbArc
 50
116.9695838888
 51
123.0304161112
  0
CIRCLE
  5
366
100
AcDbEntity
  8
0
100
AcDbCircle
 62
7
  6
CONTINUOUS
 10
6.1303672762
 20
5.5044950163
 40
0.734375
  0
CIRCLE
  5
367
100
AcDbEntity
  8
03__ASM_ALL_CURVES
100
AcDbCircle
 62
8
  6
HIDDEN
 10
6.1303672762
 20
5.5044950163
 40
0.5
  0
CIRCLE
  5
368
100
AcDbEntity
  8
0
100
AcDbCircle
 62
7
  6
CONTINUOUS
 10
6.1303672762
 20
5.5044950163
 40
0.5
  0
ARC
  5
369
100
AcDbEntity
  8
0
100
AcDbCircle
 62
7
  6
CONTINUOUS
 10
8.3116172762
 20
4.9982450163
 40
0.0375
100
AcDbArc
 50
0.0
 51
90.0
  0
ARC
  5
36A
100
AcDbEntity
  8
0
100
AcDbCircle
 62
7
  6
CONTINUOUS
 10
7.0974120147
 20
6.3043236452
 40
0.0625
100
AcDbArc
 50
126.3667122905
 51
216.8459241596
  0
ARC
  5
36B
100
AcDbEntity
  8
0
100
AcDbCircle
 62
7
  6
CONTINUOUS
 10
6.9301959051
 20
6.4715397548
 40
0.0625
100
AcDbArc
 50
233.1540758403
 51
323.6332877095
  0
ARC
  5
36C
100
AcDbEntity
  8
0
100
AcDbCircle
 62
7
  6
CONTINUOUS
 10
7.025520267
 20
6.4350033461
 40
0.045
100
AcDbArc
 50
44.9999999999
 51
180.6659686839
  0
ARC
  5
36D
100
AcDbEntity
  8
0
100
AcDbCircle
 62
7
  6
CONTINUOUS
 10
7.060875606
 20
6.3996480071
 40
0.045
100
AcDbArc
 50
269.3340313161
 51
45.0
  0
ARC
  5
36E
100
AcDbEntity
  8
0
100
AcDbCircle
 62
7
  6
CONTINUOUS
 10
4.5552470839
 20
12.7562977814
 40
0.328125
100
AcDbArc
 50
260.0093234215
 51
99.9906765578
  0
ARC
  5
36F
100
AcDbEntity
  8
0
100
AcDbCircle
 62
7
  6
CONTINUOUS
 10
7.5864970839
 20
12.7562977814
 40
0.328125
100
AcDbArc
 50
80.0093234215
 51
279.9906765578
  0
ARC
  5
370
100
AcDbEntity
  8
0
100
AcDbCircle
 62
7
  6
CONTINUOUS
 10
4.5552470839
 20
12.7562977814
 40
0.15625
100
AcDbArc
 50
270.0
 51
90.0
  0
ARC
  5
371
100
AcDbEntity
  8
0
100
AcDbCircle
 62
7
  6
CONTINUOUS
 10
4.2583720839
 20
12.7562977814
 40
0.15625
100
AcDbArc
 50
90.0
 51
270.0
  0
ARC
  5
372
100
AcDbEntity
  8
0
100
AcDbCircle
 62
7
  6
CONTINUOUS
 10
7.8833720839
 20
12.7562977814
 40
0.15625
100
AcDbArc
 50
270.0
 51
90.0
  0
ARC
  5
373
100
AcDbEntity
  8
0
100
AcDbCircle
 62
7
  6
CONTINUOUS
 10
7.5864970839
 20
12.7562977814
 40
0.15625
100
AcDbArc
 50
90.0
 51
270.0
  0
CIRCLE
  5
374
100
AcDbEntity
  8
0
100
AcDbCircle
 62
7
  6
CONTINUOUS
 10
6.0708720839
 20
11.9750477814
 40
0.09375
  0
CIRCLE
  5
375
100
AcDbEntity
  8
0
100
AcDbCircle
 62
7
  6
CONTINUOUS
 10
6.0708720839
 20
11.9750477814
 40
0.08875
  0
ARC
  5
376
100
AcDbEntity
  8
0
100
AcDbCircle
 62
7
  6
CONTINUOUS
 10
6.9852066595
 20
12.7472651395
 40
0.0613128655
100
AcDbArc
 50
236.4689832801
 51
237.1472523686
  0
ARC
  5
377
100
AcDbEntity
  8
0
100
AcDbCircle
 62
7
  6
CONTINUOUS
 10
6.9851582161
 20
12.7654476135
 40
0.06118979
100
AcDbArc
 50
123.3121742402
 51
124.1110842124
  0
ARC
  5
378
100
AcDbEntity
  8
0
100
AcDbCircle
 62
7
  6
CONTINUOUS
 10
8.2521220839
 20
12.1687977814
 40
0.0375
100
AcDbArc
 50
270.0
 51
360.0
  0
ARC
  5
379
100
AcDbEntity
  8
0
100
AcDbCircle
 62
7
  6
CONTINUOUS
 10
3.8896220839
 20
12.1687977814
 40
0.0375
100
AcDbArc
 50
180.0
 51
270.0
  0
ARC
  5
37A
100
AcDbEntity
  8
0
100
AcDbCircle
 62
7
  6
CONTINUOUS
 10
3.8896220839
 20
13.3437977814
 40
0.0375
100
AcDbArc
 50
90.0
 51
180.0
  0
ARC
  5
37B
100
AcDbEntity
  8
0
100
AcDbCircle
 62
7
  6
CONTINUOUS
 10
8.2521220839
 20
13.3437977814
 40
0.0375
100
AcDbArc
 50
0.0
 51
90.0
  0
ARC
  5
37C
100
AcDbEntity
  8
0
100
AcDbCircle
 62
7
  6
CONTINUOUS
 10
14.9353552569
 20
6.907746149
 40
0.7343750008
100
AcDbArc
 50
262.6656803647
 51
277.3343196353
  0
ARC
  5
37D
100
AcDbEntity
  8
0
100
AcDbCircle
 62
7
  6
CONTINUOUS
 10
15.7256378989
 20
6.3593343995
 40
0.0613128655
100
AcDbArc
 50
326.4689832798
 51
327.1472523687
  0
ARC
  5
37E
100
AcDbEntity
  8
0
100
AcDbCircle
 62
7
  6
CONTINUOUS
 10
15.7074554248
 20
6.3592859562
 40
0.0611897899
100
AcDbArc
 50
213.3121742397
 51
214.1110842124
  0
ARC
  5
37F
100
AcDbEntity
  8
0
100
AcDbCircle
 62
7
  6
CONTINUOUS
 10
15.1291052569
 20
4.938749824
 40
0.0375
100
AcDbArc
 50
90.0
 51
180.0
  0
ARC
  5
380
100
AcDbEntity
  8
0
100
AcDbCircle
 62
7
  6
CONTINUOUS
 10
16.3041052569
 20
4.938749824
 40
0.0375
100
AcDbArc
 50
0.0
 51
90.0
  0
ARC
  5
381
100
AcDbEntity
  8
0
100
AcDbCircle
 62
7
  6
CONTINUOUS
 10
14.7545474701
 20
10.9845907769
 40
1.6006578915
100
AcDbArc
 50
70.4107699524
 51
73.3633805004
  0
ARC
  5
382
100
AcDbEntity
  8
0
100
AcDbCircle
 62
7
  6
CONTINUOUS
 10
14.801818112
 20
11.1376475044
 40
1.3616313105
100
AcDbArc
 50
70.1515396484
 51
73.6226108044
  0
ARC
  5
383
100
AcDbEntity
  8
0
100
AcDbCircle
 62
7
  6
CONTINUOUS
 10
14.805449251
 20
11.1493978486
 40
1.3616308471
100
AcDbArc
 50
70.1515390576
 51
73.6226113952
  0
ARC
  5
384
100
AcDbEntity
  8
0
100
AcDbCircle
 62
7
  6
CONTINUOUS
 10
14.7922090753
 20
11.3206886321
 40
1.261678808
100
AcDbArc
 50
88.2743535268
 51
91.7256464732
  0
ARC
  5
385
100
AcDbEntity
  8
0
100
AcDbCircle
 62
7
  6
CONTINUOUS
 10
14.9641725922
 20
11.3552085338
 40
1.173493063
100
AcDbArc
 50
51.7837011273
 51
55.2135932021
  0
ARC
  5
386
100
AcDbEntity
  8
0
100
AcDbCircle
 62
7
  6
CONTINUOUS
 10
14.9948336042
 20
11.3945807892
 40
1.1235911831
100
AcDbArc
 50
51.5537399694
 51
51.7700776593
  0
ARC
  5
387
100
AcDbEntity
  8
0
100
AcDbCircle
 62
7
  6
CONTINUOUS
 10
14.8342618912
 20
11.4417496627
 40
1.0550352878
100
AcDbArc
 50
87.9362271047
 51
92.0637728953
  0
ARC
  5
388
100
AcDbEntity
  8
0
100
AcDbCircle
 62
7
  6
CONTINUOUS
 10
14.837764791
 20
11.459201705
 40
1.0493322376
100
AcDbArc
 50
88.4388377148
 51
92.0679954187
  0
ARC
  5
389
100
AcDbEntity
  8
0
100
AcDbCircle
 62
7
  6
CONTINUOUS
 10
14.9715840461
 20
11.4421041923
 40
1.0119805289
100
AcDbArc
 50
51.2851687237
 51
55.5029123866
  0
ARC
  5
38A
100
AcDbEntity
  8
0
100
AcDbCircle
 62
7
  6
CONTINUOUS
 10
14.9807589158
 20
11.4612016001
 40
1.002780152
100
AcDbArc
 50
51.2697562606
 51
54.9353008817
  0
ARC
  5
38B
100
AcDbEntity
  8
0
100
AcDbCircle
 62
7
  6
CONTINUOUS
 10
15.4780159755
 20
12.0746076424
 40
0.6053007524
100
AcDbArc
 50
292.899498996
 51
297.2792594786
  0
ARC
  5
38C
100
AcDbEntity
  8
0
100
AcDbCircle
 62
7
  6
CONTINUOUS
 10
14.6453301998
 20
12.0087963108
 40
0.5514277029
100
AcDbArc
 50
117.7881150386
 51
118.673078637
  0
ARC
  5
38D
100
AcDbEntity
  8
0
100
AcDbCircle
 62
7
  6
CONTINUOUS
 10
14.7118359182
 20
12.2596600972
 40
0.5365347351
100
AcDbArc
 50
204.472646673
 51
209.205484163
  0
ARC
  5
38E
100
AcDbEntity
  8
0
100
AcDbCircle
 62
7
  6
CONTINUOUS
 10
15.4693403042
 20
11.791071501
 40
0.4994922601
100
AcDbArc
 50
22.9841795317
 51
24.0405979177
  0
ARC
  5
38F
100
AcDbEntity
  8
0
100
AcDbCircle
 62
7
  6
CONTINUOUS
 10
15.6624211617
 20
11.8423338382
 40
0.3038001697
100
AcDbArc
 50
335.4846397137
 51
339.952969606
  0
ARC
  5
390
100
AcDbEntity
  8
0
100
AcDbCircle
 62
7
  6
CONTINUOUS
 10
14.4850999215
 20
12.1929223777
 40
0.3038000085
100
AcDbArc
 50
155.484639266
 51
159.9534090169
  0
ARC
  5
391
100
AcDbEntity
  8
0
100
AcDbCircle
 62
7
  6
CONTINUOUS
 10
15.6596623734
 20
11.830208876
 40
0.3028509675
100
AcDbArc
 50
335.4807303635
 51
342.8142309596
  0
ARC
  5
392
100
AcDbEntity
  8
0
100
AcDbCircle
 62
7
  6
CONTINUOUS
 10
14.482690029
 20
12.1938422293
 40
0.3012208132
100
AcDbArc
 50
159.9606463335
 51
162.826812705
  0
ARC
  5
393
100
AcDbEntity
  8
0
100
AcDbCircle
 62
7
  6
CONTINUOUS
 10
15.5698665415
 20
11.858152443
 40
0.2592093762
100
AcDbArc
 50
334.6990187149
 51
337.4097050554
  0
ARC
  5
394
100
AcDbEntity
  8
0
100
AcDbCircle
 62
7
  6
CONTINUOUS
 10
14.5719110147
 20
12.1662556511
 40
0.2569139445
100
AcDbArc
 50
154.6794901657
 51
162.8234315065
  0
ARC
  5
395
100
AcDbEntity
  8
0
100
AcDbCircle
 62
7
  6
CONTINUOUS
 10
14.5749334133
 20
12.178207801
 40
0.2562727655
100
AcDbArc
 50
157.4038953982
 51
162.8264490678
  0
ARC
  5
396
100
AcDbEntity
  8
0
100
AcDbCircle
 62
7
  6
CONTINUOUS
 10
15.572587854
 20
11.8570483381
 40
0.2562727273
100
AcDbArc
 50
337.4038990201
 51
342.8264492367
  0
ARC
  5
397
100
AcDbEntity
  8
0
100
AcDbCircle
 62
7
  6
CONTINUOUS
 10
16.6931996349
 20
12.1378343934
 40
0.2441110079
100
AcDbArc
 50
162.8165137397
 51
165.3913161566
  0
ARC
  5
398
100
AcDbEntity
  8
0
100
AcDbCircle
 62
7
  6
CONTINUOUS
 10
14.8327293137
 20
12.3055468217
 40
0.1138985932
100
AcDbArc
 50
90.0023754626
 51
91.3919646764
  0
ARC
  5
399
100
AcDbEntity
  8
0
100
AcDbCircle
 62
7
  6
CONTINUOUS
 10
14.8299173042
 20
12.3248901604
 40
0.0939020723
100
AcDbArc
 50
88.3000691623
 51
90.0027543438
  0
ARC
  5
39A
100
AcDbEntity
  8
0
100
AcDbCircle
 62
7
  6
CONTINUOUS
 10
15.7163461853
 20
13.0495870604
 40
0.0739514042
100
AcDbArc
 50
154.9998424492
 51
162.8715559481
  0
ARC
  5
39B
100
AcDbEntity
  8
0
100
AcDbCircle
 62
7
  6
CONTINUOUS
 10
15.7147039469
 20
13.050333735
 40
0.0721474746
100
AcDbArc
 50
153.243421466
 51
154.9860815129
  0
ARC
  5
39C
100
AcDbEntity
  8
0
100
AcDbCircle
 62
7
  6
CONTINUOUS
 10
15.7678815789
 20
12.9975317972
 40
0.0719158207
100
AcDbArc
 50
295.4957729919
 51
297.2373778288
  0
ARC
  5
39D
100
AcDbEntity
  8
0
100
AcDbCircle
 62
7
  6
CONTINUOUS
 10
14.7706679997
 20
12.3307830094
 40
0.0467060981
100
AcDbArc
 50
214.6119115955
 51
215.4821939525
  0
ARC
  5
39E
100
AcDbEntity
  8
0
100
AcDbCircle
 62
7
  6
CONTINUOUS
 10
14.8461861316
 20
12.3678315911
 40
0.0466774306
100
AcDbArc
 50
18.105058242
 51
22.0526457479
  0
ARC
  5
39F
100
AcDbEntity
  8
0
100
AcDbCircle
 62
7
  6
CONTINUOUS
 10
14.7705168265
 20
12.330679851
 40
0.0465230844
100
AcDbArc
 50
210.6839743204
 51
214.6131029652
  0
ARC
  5
3A0
100
AcDbEntity
  8
0
100
AcDbCircle
 62
7
  6
CONTINUOUS
 10
14.8464332014
 20
12.3679255766
 40
0.0464131493
100
AcDbArc
 50
22.059626694
 51
35.490373097
  0
ARC
  5
3A1
100
AcDbEntity
  8
0
100
AcDbCircle
 62
7
  6
CONTINUOUS
 10
13.5108145705
 20
12.6468463086
 40
0.037501035
100
AcDbArc
 50
90.0049374106
 51
162.8270832132
  0
ARC
  5
3A2
100
AcDbEntity
  8
0
100
AcDbCircle
 62
7
  6
CONTINUOUS
 10
17.5289418597
 20
12.6468468789
 40
0.0375001134
100
AcDbArc
 50
26.1383394919
 51
89.9993680466
  0
ARC
  5
3A3
100
AcDbEntity
  8
0
100
AcDbCircle
 62
7
  6
CONTINUOUS
 10
13.2263797378
 20
11.7264373645
 40
0.0374943886
100
AcDbArc
 50
162.8242238995
 51
206.1419178885
  0
SPLINE
  5
3A4
100
AcDbEntity
  8
0
100
AcDbSpline
 62
7
  6
CONTINUOUS
 70
0
 71
3
 72
11
 73
7
 74
0
 42
0.0000001
 43
0.0000001
 44
0.0000000001
 40
0.0
 40
0.0
 40
0.0
 40
0.0
 40
0.2456331489
 40
0.4939443367
 40
0.746019018
 40
1.0
 40
1.0
 40
1.0
 40
1.0
 10
5.3724571769
 20
5.1102166866
 30
0.0
 10
5.3727291018
 20
5.1103736825
 30
0.0
 10
5.3733480487
 20
5.1105774464
 30
0.0
 10
5.3743234633
 20
5.1104982154
 30
0.0
 10
5.3751997229
 20
5.1100418845
 30
0.0
 10
5.3756361362
 20
5.1095401967
 30
0.0
 10
5.3757984677
 20
5.1092590304
 30
0.0
  0
SPLINE
  5
3A5
100
AcDbEntity
  8
0
100
AcDbSpline
 62
7
  6
CONTINUOUS
 70
0
 71
3
 72
9
 73
5
 74
0
 42
0.0000001
 43
0.0000001
 44
0.0000000001
 40
0.0
 40
0.0
 40
0.0
 40
0.0
 40
0.5038895661
 40
1.0
 40
1.0
 40
1.0
 40
1.0
 10
5.4111424693
 20
5.0474298449
 30
0.0
 10
5.411155153
 20
5.046999893
 30
0.0
 10
5.4109553207
 20
5.0461223802
 30
0.0
 10
5.4103239372
 20
5.0454765305
 30
0.0
 10
5.4099571769
 20
5.0452647813
 30
0.0
  0
LINE
  5
3A6
100
AcDbEntity
  8
0
100
AcDbLine
 62
7
  6
CONTINUOUS
 10
5.4107984677
 20
5.0486372521
 11
5.4111424693
 21
5.0474298449
  0
SPLINE
  5
3A7
100
AcDbEntity
  8
0
100
AcDbSpline
 62
7
  6
CONTINUOUS
 70
0
 71
3
 72
12
 73
8
 74
0
 42
0.0000001
 43
0.0000001
 44
0.0000000001
 40
0.0
 40
0.0
 40
0.0
 40
0.0
 40
0.2527300469
 40
0.5036304649
 40
0.7521590295
 40
0.876148418
 40
1.0
 40
1.0
 40
1.0
 40
1.0
 10
6.9210250747
 20
12.7562977814
 30
0.0
 10
6.9210250747
 20
12.7621442703
 30
0.0
 10
6.9223024946
 20
12.7738369331
 30
0.0
 10
6.9280233498
 20
12.790421168
 30
0.0
 10
6.9359346567
 20
12.8026818223
 30
0.0
 10
6.9439425104
 20
12.8109501273
 30
0.0
 10
6.9484708597
 20
12.8145030791
 30
0.0
 10
6.9508430323
 20
12.8161098139
 30
0.0
  0
SPLINE
  5
3A8
100
AcDbEntity
  8
0
100
AcDbSpline
 62
7
  6
CONTINUOUS
 70
0
 71
3
 72
19
 73
15
 74
0
 42
0.0000001
 43
0.0000001
 44
0.0000000001
 40
0.0
 40
0.0
 40
0.0
 40
0.0
 40
0.1240329158
 40
0.2481256861
 40
0.3103570271
 40
0.3725910884
 40
0.4348126493
 40
0.4970484277
 40
0.5593220857
 40
0.621655541
 40
0.684159198
 40
0.7468677126
 40
0.8730064343
 40
1.0
 40
1.0
 40
1.0
 40
1.0
 10
6.9515527591
 20
12.816583351
 30
0.0
 10
6.9563298325
 20
12.8197227219
 30
0.0
 10
6.9668427325
 20
12.824675278
 30
0.0
 10
6.9812225788
 20
12.8267448666
 30
0.0
 10
6.9926764052
 20
12.8258099345
 30
0.0
 10
7.0010844094
 20
12.8238358236
 30
0.0
 10
7.0091096759
 20
12.8206494377
 30
0.0
 10
7.0165888095
 20
12.8163334048
 30
0.0
 10
7.0233960231
 20
12.8110146087
 30
0.0
 10
7.0294171806
 20
12.8048054953
 30
0.0
 10
7.0345914218
 20
12.7978518468
 30
0.0
 10
7.0402999984
 20
12.7877420765
 30
0.0
 10
7.045102498
 20
12.7738546254
 30
0.0
 10
7.0463804137
 20
12.7621505281
 30
0.0
 10
7.0463804137
 20
12.7562977814
 30
0.0
  0
SPLINE
  5
3A9
100
AcDbEntity
  8
0
100
AcDbSpline
 62
7
  6
CONTINUOUS
 70
0
 71
3
 72
21
 73
17
 74
0
 42
0.0000001
 43
0.0000001
 44
0.0000000001
 40
0.0
 40
0.0
 40
0.0
 40
0.0
 40
0.1269286663
 40
0.2529426566
 40
0.3155872145
 40
0.378009958
 40
0.4402818392
 40
0.5024844385
 40
0.5646374022
 40
0.6267949015
 40
0.6889679108
 40
0.7511774487
 40
0.8133854834
 40
0.875594606
 40
0.9377944001
 40
1.0
 40
1.0
 40
1.0
 40
1.0
 10
7.0463804137
 20
12.7562977814
 30
0.0
 10
7.0463804137
 20
12.7504638132
 30
0.0
 10
7.045111363
 20
12.738800273
 30
0.0
 10
7.0403416661
 20
12.7249568976
 30
0.0
 10
7.0346736424
 20
12.714875037
 30
0.0
 10
7.0295394818
 20
12.7079326686
 30
0.0
 10
7.0235575919
 20
12.7017321707
 30
0.0
 10
7.0167999489
 20
12.6964046751
 30
0.0
 10
7.0093681645
 20
12.6920738046
 30
0.0
 10
7.0013903034
 20
12.6888577887
 30
0.0
 10
6.993024353
 20
12.6868425168
 30
0.0
 10
6.9844492624
 20
12.6860907607
 30
0.0
 10
6.9758556912
 20
12.6866194199
 30
0.0
 10
6.9674376281
 20
12.6884233895
 30
0.0
 10
6.9593756105
 20
12.6914364143
 30
0.0
 10
6.9543474098
 20
12.694207171
 30
0.0
 10
6.9519455444
 20
12.6957581914
 30
0.0
  0
SPLINE
  5
3AA
100
AcDbEntity
  8
0
100
AcDbSpline
 62
7
  6
CONTINUOUS
 70
0
 71
3
 72
13
 73
9
 74
0
 42
0.0000001
 43
0.0000001
 44
0.0000000001
 40
0.0
 40
0.0
 40
0.0
 40
0.0
 40
0.1238242948
 40
0.247759093
 40
0.3720284343
 40
0.4967053231
 40
0.7474890305
 40
1.0
 40
1.0
 40
1.0
 40
1.0
 10
6.9513381485
 20
12.6961555372
 30
0.0
 10
6.9489288165
 20
12.6977521081
 30
0.0
 10
6.9443274983
 20
12.7012926969
 30
0.0
 10
6.9382263261
 20
12.7075071987
 30
0.0
 10
6.9329805404
 20
12.7144839879
 30
0.0
 10
6.9271919446
 20
12.7246417642
 30
0.0
 10
6.9223209624
 20
12.7386168901
 30
0.0
 10
6.9210250747
 20
12.7504036539
 30
0.0
 10
6.9210250747
 20
12.7562977814
 30
0.0
  0
LINE
  5
3AB
100
AcDbEntity
  8
0
100
AcDbLine
 62
7
  6
CONTINUOUS
 10
5.3081842872
 20
12.1285779269
 11
5.3048429964
 21
12.1279308793
  0
SPLINE
  5
3AC
100
AcDbEntity
  8
0
100
AcDbSpline
 62
7
  6
CONTINUOUS
 70
0
 71
3
 72
15
 73
11
 74
0
 42
0.0000001
 43
0.0000001
 44
0.0000000001
 40
0.0
 40
0.0
 40
0.0
 40
0.0
 40
0.1250038879
 40
0.1877813545
 40
0.2504584287
 40
0.3755217737
 40
0.5005880273
 40
0.6256280767
 40
0.7507053099
 40
1.0
 40
1.0
 40
1.0
 40
1.0
 10
7.6766275201
 20
13.1027191734
 30
0.0
 10
7.6766275206
 20
13.1007997201
 30
0.0
 10
7.6762331892
 20
13.0978983778
 30
0.0
 10
7.6749755265
 20
13.0942553743
 30
0.0
 10
7.6732389408
 20
13.0908112046
 30
0.0
 10
7.6702662518
 20
13.0869699767
 30
0.0
 10
7.6657262887
 20
13.0833476251
 30
0.0
 10
7.6605280601
 20
13.0807677138
 30
0.0
 10
7.6530944929
 20
13.0787515117
 30
0.0
 10
7.6471927194
 20
13.0787829944
 30
0.0
 10
7.6434228085
 20
13.0794470928
 30
0.0
  0
SPLINE
  5
3AD
100
AcDbEntity
  8
0
100
AcDbSpline
 62
7
  6
CONTINUOUS
 70
0
 71
3
 72
15
 73
11
 74
0
 42
0.0000001
 43
0.0000001
 44
0.0000000001
 40
0.0
 40
0.0
 40
0.0
 40
0.0
 40
0.24922125
 40
0.3743002693
 40
0.4994018006
 40
0.6245297284
 40
0.7496529179
 40
0.8123339654
 40
0.8750626482
 40
1.0
 40
1.0
 40
1.0
 40
1.0
 10
7.6434228085
 20
12.4331484787
 30
0.0
 10
7.6471916085
 20
12.4338123771
 30
0.0
 10
7.6530921315
 20
12.433844313
 30
0.0
 10
7.6605258127
 20
12.4318288668
 30
0.0
 10
7.6657256924
 20
12.4292481028
 30
0.0
 10
7.6702685291
 20
12.425624449
 30
0.0
 10
7.673239926
 20
12.4217796965
 30
0.0
 10
7.6749767621
 20
12.4183356016
 30
0.0
 10
7.6762362152
 20
12.4146948888
 30
0.0
 10
7.6766275201
 20
12.4117948184
 30
0.0
 10
7.67662752
 20
12.4098763873
 30
0.0
  0
SPLINE
  5
3AE
100
AcDbEntity
  8
0
100
AcDbSpline
 62
7
  6
CONTINUOUS
 70
0
 71
3
 72
15
 73
11
 74
0
 42
0.0000001
 43
0.0000001
 44
0.0000000001
 40
0.0
 40
0.0
 40
0.0
 40
0.0
 40
0.1311474841
 40
0.2573719437
 40
0.3797213992
 40
0.5
 40
0.6202786008
 40
0.7426280563
 40
0.8688525159
 40
1.0
 40
1.0
 40
1.0
 40
1.0
 10
6.8718915117
 20
12.6615763197
 30
0.0
 10
6.8747449266
 20
12.6592465162
 30
0.0
 10
6.8806903432
 20
12.6550753204
 30
0.0
 10
6.8903319113
 20
12.6504023659
 30
0.0
 10
6.9003541281
 20
12.6475625562
 30
0.0
 10
6.9105613865
 20
12.6466064416
 30
0.0
 10
6.920768645
 20
12.6475625562
 30
0.0
 10
6.9307908618
 20
12.6504023659
 30
0.0
 10
6.9404324298
 20
12.6550753204
 30
0.0
 10
6.9463778464
 20
12.6592465162
 30
0.0
 10
6.9492312613
 20
12.6615763197
 30
0.0
  0
SPLINE
  5
3AF
100
AcDbEntity
  8
0
100
AcDbSpline
 62
7
  6
CONTINUOUS
 70
0
 71
3
 72
31
 73
27
 74
0
 42
0.0000001
 43
0.0000001
 44
0.0000000001
 40
0.0
 40
0.0
 40
0.0
 40
0.0
 40
0.0024920235
 40
0.0098429377
 40
0.0218954676
 40
0.0385181945
 40
0.0595577215
 40
0.084840535
 40
0.1141139547
 40
0.1470771893
 40
0.2227806585
 40
0.3090656447
 40
0.4026609936
 40
0.4999999751
 40
0.5973389679
 40
0.6909343316
 40
0.7772193231
 40
0.8529227876
 40
0.88588602
 40
0.9151594399
 40
0.9404422521
 40
0.9614817898
 40
0.9781045326
 40
0.9901570714
 40
0.9975079825
 40
1.0
 40
1.0
 40
1.0
 40
1.0
 10
5.3362470839
 20
12.0687977814
 30
0.0
 10
5.3362891994
 20
12.0686472861
 30
0.0
 10
5.3364464341
 20
12.0680504967
 30
0.0
 10
5.3367277301
 20
12.066705893
 30
0.0
 10
5.337079404
 20
12.0644739869
 30
0.0
 10
5.3374443931
 20
12.061378038
 30
0.0
 10
5.3378661006
 20
12.0574542125
 30
0.0
 10
5.3383674221
 20
12.0527410827
 30
0.0
 10
5.3389333095
 20
12.0472830526
 30
0.0
 10
5.3397611376
 20
12.0386741204
 30
0.0
 10
5.3407444569
 20
12.0264898001
 30
0.0
 10
5.3417071129
 20
12.0104930012
 30
0.0
 10
5.3423553182
 20
11.9931223666
 30
0.0
 10
5.3425823765
 20
11.9750477862
 30
0.0
 10
5.3423553186
 20
11.9569732049
 30
0.0
 10
5.341707113
 20
11.9396025683
 30
0.0
 10
5.3407444579
 20
11.9236057684
 30
0.0
 10
5.3397611369
 20
11.9114214484
 30
0.0
 10
5.3389333097
 20
11.9028125165
 30
0.0
 10
5.3383674243
 20
11.8973544864
 30
0.0
 10
5.3378661084
 20
11.8926413554
 30
0.0
 10
5.3374443952
 20
11.8887175289
 30
0.0
 10
5.3370793942
 20
11.8856215791
 30
0.0
 10
5.3367277085
 20
11.8833896736
 30
0.0
 10
5.336446421
 20
11.8820450685
 30
0.0
 10
5.3362891964
 20
11.8814482771
 30
0.0
 10
5.3362470839
 20
11.8812977814
 30
0.0
  0
SPLINE
  5
3B0
100
AcDbEntity
  8
0
100
AcDbSpline
 62
7
  6
CONTINUOUS
 70
0
 71
3
 72
9
 73
5
 74
0
 42
0.0000001
 43
0.0000001
 44
0.0000000001
 40
0.0
 40
0.0
 40
0.0
 40
0.0
 40
0.4837104309
 40
1.0
 40
1.0
 40
1.0
 40
1.0
 10
6.9492312613
 20
12.6615763197
 30
0.0
 10
6.9535202353
 20
12.6650782522
 30
0.0
 10
6.9616106156
 20
12.6732978352
 30
0.0
 10
6.9680490301
 20
12.6828366536
 30
0.0
 10
6.9709580612
 20
12.6879811019
 30
0.0
  0
SPLINE
  5
3B1
100
AcDbEntity
  8
0
100
AcDbSpline
 62
7
  6
CONTINUOUS
 70
0
 71
3
 72
14
 73
10
 74
0
 42
0.0000001
 43
0.0000001
 44
0.0000000001
 40
0.0
 40
0.0
 40
0.0
 40
0.0
 40
0.1354274063
 40
0.2699481732
 40
0.4021269567
 40
0.5309817371
 40
0.6557338336
 40
0.7758145156
 40
1.0
 40
1.0
 40
1.0
 40
1.0
 10
6.8332216369
 20
12.7562977814
 30
0.0
 10
6.8332216369
 20
12.751538271
 30
0.0
 10
6.8336631356
 20
12.7420454446
 30
0.0
 10
6.8356204065
 20
12.7280292003
 30
0.0
 10
6.8388590775
 20
12.7144869503
 30
0.0
 10
6.8433099459
 20
12.7016565865
 30
0.0
 10
6.8489123796
 20
12.6897446442
 30
0.0
 10
6.8575682408
 20
12.6756976224
 30
0.0
 10
6.8657885755
 20
12.6665593462
 30
0.0
 10
6.8718915117
 20
12.6615763197
 30
0.0
  0
SPLINE
  5
3B2
100
AcDbEntity
  8
0
100
AcDbSpline
 62
7
  6
CONTINUOUS
 70
0
 71
3
 72
14
 73
10
 74
0
 42
0.0000001
 43
0.0000001
 44
0.0000000001
 40
0.0
 40
0.0
 40
0.0
 40
0.0
 40
0.2241854844
 40
0.3442661664
 40
0.4690182629
 40
0.5978730433
 40
0.7300518268
 40
0.8645725937
 40
1.0
 40
1.0
 40
1.0
 40
1.0
 10
6.8718915117
 20
12.8510192431
 30
0.0
 10
6.8657885755
 20
12.8460362165
 30
0.0
 10
6.8575682408
 20
12.8368979403
 30
0.0
 10
6.8489123796
 20
12.8228509185
 30
0.0
 10
6.8433099459
 20
12.8109389763
 30
0.0
 10
6.8388590775
 20
12.7981086124
 30
0.0
 10
6.8356204065
 20
12.7845663624
 30
0.0
 10
6.8336631356
 20
12.7705501182
 30
0.0
 10
6.8332216369
 20
12.7610572917
 30
0.0
 10
6.8332216369
 20
12.7562977814
 30
0.0
  0
SPLINE
  5
3B3
100
AcDbEntity
  8
0
100
AcDbSpline
 62
7
  6
CONTINUOUS
 70
0
 71
3
 72
15
 73
11
 74
0
 42
0.0000001
 43
0.0000001
 44
0.0000000001
 40
0.0
 40
0.0
 40
0.0
 40
0.0
 40
0.1311474841
 40
0.2573719437
 40
0.3797213992
 40
0.5
 40
0.6202786008
 40
0.7426280563
 40
0.8688525159
 40
1.0
 40
1.0
 40
1.0
 40
1.0
 10
6.9492312613
 20
12.8510192431
 30
0.0
 10
6.9463778464
 20
12.8533490466
 30
0.0
 10
6.9404324298
 20
12.8575202423
 30
0.0
 10
6.9307908618
 20
12.8621931968
 30
0.0
 10
6.920768645
 20
12.8650330065
 30
0.0
 10
6.9105613865
 20
12.8659891211
 30
0.0
 10
6.9003541281
 20
12.8650330065
 30
0.0
 10
6.8903319113
 20
12.8621931968
 30
0.0
 10
6.8806903432
 20
12.8575202423
 30
0.0
 10
6.8747449266
 20
12.8533490466
 30
0.0
 10
6.8718915117
 20
12.8510192431
 30
0.0
  0
SPLINE
  5
3B4
100
AcDbEntity
  8
0
100
AcDbSpline
 62
7
  6
CONTINUOUS
 70
0
 71
3
 72
9
 73
5
 74
0
 42
0.0000001
 43
0.0000001
 44
0.0000000001
 40
0.0
 40
0.0
 40
0.0
 40
0.0
 40
0.516069153
 40
1.0
 40
1.0
 40
1.0
 40
1.0
 10
6.9706760315
 20
12.8251102541
 30
0.0
 10
6.9677905417
 20
12.8301527285
 30
0.0
 10
6.9614197394
 20
12.8395055205
 30
0.0
 10
6.9534511855
 20
12.8475736894
 30
0.0
 10
6.9492312613
 20
12.8510192431
 30
0.0
  0
LINE
  5
3B5
100
AcDbEntity
  8
0
100
AcDbLine
 62
7
  6
CONTINUOUS
 10
5.3069337618
 20
12.1189209329
 11
5.3104702156
 21
12.1148776887
  0
LINE
  5
3B6
100
AcDbEntity
  8
0
100
AcDbLine
 62
7
  6
CONTINUOUS
 10
5.3104702156
 20
12.1148776887
 11
5.3119342872
 21
12.1124176729
  0
LINE
  5
3B7
100
AcDbEntity
  8
0
100
AcDbLine
 62
7
  6
CONTINUOUS
 10
5.3129619846
 20
12.092942903
 11
5.3163032754
 21
12.0935899506
  0
SPLINE
  5
3B8
100
AcDbEntity
  8
0
100
AcDbSpline
 62
7
  6
CONTINUOUS
 70
0
 71
3
 72
15
 73
11
 74
0
 42
0.0000001
 43
0.0000001
 44
0.0000000001
 40
0.0
 40
0.0
 40
0.0
 40
0.0
 40
0.1250038885
 40
0.1877813549
 40
0.2504584286
 40
0.3755217753
 40
0.500588032
 40
0.625628072
 40
0.7507053081
 40
1.0
 40
1.0
 40
1.0
 40
1.0
 10
4.4651166477
 20
12.4098763894
 30
0.0
 10
4.4651166472
 20
12.4117958426
 30
0.0
 10
4.4655109785
 20
12.4146971849
 30
0.0
 10
4.4667686412
 20
12.4183401885
 30
0.0
 10
4.4685052269
 20
12.4217843582
 30
0.0
 10
4.471477916
 20
12.425625586
 30
0.0
 10
4.4760178787
 20
12.4292479379
 30
0.0
 10
4.4812161079
 20
12.4318278485
 30
0.0
 10
4.4886496744
 20
12.4338440493
 30
0.0
 10
4.4945514497
 20
12.4338125761
 30
0.0
 10
4.4983213592
 20
12.4331484699
 30
0.0
  0
SPLINE
  5
3B9
100
AcDbEntity
  8
0
100
AcDbSpline
 62
7
  6
CONTINUOUS
 70
0
 71
3
 72
15
 73
11
 74
0
 42
0.0000001
 43
0.0000001
 44
0.0000000001
 40
0.0
 40
0.0
 40
0.0
 40
0.0
 40
0.2492212527
 40
0.3743002733
 40
0.4994017952
 40
0.6245297263
 40
0.7496529178
 40
0.8123339649
 40
0.8750626475
 40
1.0
 40
1.0
 40
1.0
 40
1.0
 10
4.4983213592
 20
13.0794470841
 30
0.0
 10
4.4945525605
 20
13.0787831778
 30
0.0
 10
4.4886520358
 20
13.0787512519
 30
0.0
 10
4.4812183552
 20
13.0807666963
 30
0.0
 10
4.476018475
 20
13.0833474597
 30
0.0
 10
4.4714756387
 20
13.0869711137
 30
0.0
 10
4.4685042417
 20
13.0908158662
 30
0.0
 10
4.4667674056
 20
13.0942599612
 30
0.0
 10
4.4655079525
 20
13.0979006739
 30
0.0
 10
4.4651166476
 20
13.1008007443
 30
0.0
 10
4.4651166477
 20
13.1027191754
 30
0.0
  0
SPLINE
  5
3BA
100
AcDbEntity
  8
0
100
AcDbSpline
 62
7
  6
CONTINUOUS
 70
0
 71
3
 72
21
 73
17
 74
0
 42
0.0000001
 43
0.0000001
 44
0.0000000001
 40
0.0
 40
0.0
 40
0.0
 40
0.0
 40
0.1269286663
 40
0.2529426566
 40
0.3155872145
 40
0.378009958
 40
0.4402818392
 40
0.5024844385
 40
0.5646374022
 40
0.6267949015
 40
0.6889679108
 40
0.7511774487
 40
0.8133854834
 40
0.875594606
 40
0.9377944001
 40
1.0
 40
1.0
 40
1.0
 40
1.0
 10
15.7166052569
 20
6.4205081538
 30
0.0
 10
15.7224392251
 20
6.4205081538
 30
0.0
 10
15.7341027653
 20
6.4192391031
 30
0.0
 10
15.7479461407
 20
6.4144694062
 30
0.0
 10
15.7580280013
 20
6.4088013825
 30
0.0
 10
15.7649703697
 20
6.4036672219
 30
0.0
 10
15.7711708676
 20
6.397685332
 30
0.0
 10
15.7764983632
 20
6.390927689
 30
0.0
 10
15.7808292337
 20
6.3834959046
 30
0.0
 10
15.7840452496
 20
6.3755180436
 30
0.0
 10
15.7860605215
 20
6.3671520931
 30
0.0
 10
15.7868122776
 20
6.3585770025
 30
0.0
 10
15.7862836184
 20
6.3499834313
 30
0.0
 10
15.7844796489
 20
6.3415653682
 30
0.0
 10
15.781466624
 20
6.3335033506
 30
0.0
 10
15.7786958673
 20
6.3284751499
 30
0.0
 10
15.7771448469
 20
6.3260732845
 30
0.0
  0
SPLINE
  5
3BB
100
AcDbEntity
  8
0
100
AcDbSpline
 62
7
  6
CONTINUOUS
 70
0
 71
3
 72
13
 73
9
 74
0
 42
0.0000001
 43
0.0000001
 44
0.0000000001
 40
0.0
 40
0.0
 40
0.0
 40
0.0
 40
0.1238242948
 40
0.247759093
 40
0.3720284343
 40
0.4967053231
 40
0.7474890305
 40
1.0
 40
1.0
 40
1.0
 40
1.0
 10
15.7767475011
 20
6.3254658886
 30
0.0
 10
15.7751509302
 20
6.3230565566
 30
0.0
 10
15.7716103414
 20
6.3184552384
 30
0.0
 10
15.7653958396
 20
6.3123540662
 30
0.0
 10
15.7584190504
 20
6.3071082805
 30
0.0
 10
15.7482612741
 20
6.3013196847
 30
0.0
 10
15.7342861482
 20
6.2964487025
 30
0.0
 10
15.7224993844
 20
6.2951528148
 30
0.0
 10
15.7166052569
 20
6.2951528148
 30
0.0
  0
SPLINE
  5
3BC
100
AcDbEntity
  8
0
100
AcDbSpline
 62
7
  6
CONTINUOUS
 70
0
 71
3
 72
12
 73
8
 74
0
 42
0.0000001
 43
0.0000001
 44
0.0000000001
 40
0.0
 40
0.0
 40
0.0
 40
0.0
 40
0.2527300469
 40
0.5036304649
 40
0.7521590295
 40
0.876148418
 40
1.0
 40
1.0
 40
1.0
 40
1.0
 10
15.7166052569
 20
6.2951528148
 30
0.0
 10
15.710758768
 20
6.2951528148
 30
0.0
 10
15.6990661052
 20
6.2964302348
 30
0.0
 10
15.6824818703
 20
6.3021510899
 30
0.0
 10
15.670221216
 20
6.3100623968
 30
0.0
 10
15.661952911
 20
6.3180702505
 30
0.0
 10
15.6583999592
 20
6.3225985998
 30
0.0
 10
15.6567932244
 20
6.3249707724
 30
0.0
  0
SPLINE
  5
3BD
100
AcDbEntity
  8
0
100
AcDbSpline
 62
7
  6
CONTINUOUS
 70
0
 71
3
 72
19
 73
15
 74
0
 42
0.0000001
 43
0.0000001
 44
0.0000000001
 40
0.0
 40
0.0
 40
0.0
 40
0.0
 40
0.1240329158
 40
0.2481256861
 40
0.3103570271
 40
0.3725910884
 40
0.4348126493
 40
0.4970484277
 40
0.5593220857
 40
0.621655541
 40
0.684159198
 40
0.7468677126
 40
0.8730064343
 40
1.0
 40
1.0
 40
1.0
 40
1.0
 10
15.6563196873
 20
6.3256804992
 30
0.0
 10
15.6531803164
 20
6.3304575726
 30
0.0
 10
15.6482277604
 20
6.3409704726
 30
0.0
 10
15.6461581717
 20
6.3553503189
 30
0.0
 10
15.6470931038
 20
6.3668041453
 30
0.0
 10
15.6490672147
 20
6.3752121495
 30
0.0
 10
15.6522536006
 20
6.383237416
 30
0.0
 10
15.6565696335
 20
6.3907165496
 30
0.0
 10
15.6618884296
 20
6.3975237632
 30
0.0
 10
15.668097543
 20
6.4035449207
 30
0.0
 10
15.6750511915
 20
6.4087191619
 30
0.0
 10
15.6851609618
 20
6.4144277385
 30
0.0
 10
15.6990484129
 20
6.4192302381
 30
0.0
 10
15.7107525102
 20
6.4205081538
 30
0.0
 10
15.7166052569
 20
6.4205081538
 30
0.0
  0
SPLINE
  5
3BE
100
AcDbEntity
  8
0
100
AcDbSpline
 62
7
  6
CONTINUOUS
 70
0
 71
3
 72
15
 73
11
 74
0
 42
0.0000001
 43
0.0000001
 44
0.0000000001
 40
0.0
 40
0.0
 40
0.0
 40
0.0
 40
0.1311474841
 40
0.2573719437
 40
0.3797213992
 40
0.5
 40
0.6202786008
 40
0.7426280563
 40
0.8688525159
 40
1.0
 40
1.0
 40
1.0
 40
1.0
 10
15.6218837952
 20
6.3233590014
 30
0.0
 10
15.6195539917
 20
6.3205055865
 30
0.0
 10
15.615382796
 20
6.3145601699
 30
0.0
 10
15.6107098415
 20
6.3049186019
 30
0.0
 10
15.6078700318
 20
6.2948963851
 30
0.0
 10
15.6069139172
 20
6.2846891266
 30
0.0
 10
15.6078700318
 20
6.2744818682
 30
0.0
 10
15.6107098415
 20
6.2644596514
 30
0.0
 10
15.615382796
 20
6.2548180833
 30
0.0
 10
15.6195539917
 20
6.2488726667
 30
0.0
 10
15.6218837952
 20
6.2460192518
 30
0.0
  0
SPLINE
  5
3BF
100
AcDbEntity
  8
0
100
AcDbSpline
 62
7
  6
CONTINUOUS
 70
0
 71
3
 72
14
 73
10
 74
0
 42
0.0000001
 43
0.0000001
 44
0.0000000001
 40
0.0
 40
0.0
 40
0.0
 40
0.0
 40
0.2241854844
 40
0.3442661664
 40
0.4690182629
 40
0.5978730433
 40
0.7300518268
 40
0.8645725937
 40
1.0
 40
1.0
 40
1.0
 40
1.0
 10
15.6218837952
 20
6.2460192518
 30
0.0
 10
15.6268668218
 20
6.2399163156
 30
0.0
 10
15.636005098
 20
6.2316959809
 30
0.0
 10
15.6500521198
 20
6.2230401197
 30
0.0
 10
15.6619640621
 20
6.217437686
 30
0.0
 10
15.6747944259
 20
6.2129868176
 30
0.0
 10
15.6883366759
 20
6.2097481466
 30
0.0
 10
15.7023529201
 20
6.2077908757
 30
0.0
 10
15.7118457466
 20
6.207349377
 30
0.0
 10
15.7166052569
 20
6.207349377
 30
0.0
  0
SPLINE
  5
3C0
100
AcDbEntity
  8
0
100
AcDbSpline
 62
7
  6
CONTINUOUS
 70
0
 71
3
 72
9
 73
5
 74
0
 42
0.0000001
 43
0.0000001
 44
0.0000000001
 40
0.0
 40
0.0
 40
0.0
 40
0.0
 40
0.516069153
 40
1.0
 40
1.0
 40
1.0
 40
1.0
 10
15.6477927842
 20
6.3448037716
 30
0.0
 10
15.6427503098
 20
6.3419182818
 30
0.0
 10
15.6333975178
 20
6.3355474795
 30
0.0
 10
15.6253293489
 20
6.3275789256
 30
0.0
 10
15.6218837952
 20
6.3233590014
 30
0.0
  0
SPLINE
  5
3C1
100
AcDbEntity
  8
0
100
AcDbSpline
 62
7
  6
CONTINUOUS
 70
0
 71
3
 72
9
 73
5
 74
0
 42
0.0000001
 43
0.0000001
 44
0.0000000001
 40
0.0
 40
0.0
 40
0.0
 40
0.0
 40
0.4837104309
 40
1.0
 40
1.0
 40
1.0
 40
1.0
 10
15.8113267186
 20
6.3233590014
 30
0.0
 10
15.8078247861
 20
6.3276479754
 30
0.0
 10
15.7996052031
 20
6.3357383557
 30
0.0
 10
15.7900663847
 20
6.3421767702
 30
0.0
 10
15.7849219364
 20
6.3450858013
 30
0.0
  0
SPLINE
  5
3C2
100
AcDbEntity
  8
0
100
AcDbSpline
 62
7
  6
CONTINUOUS
 70
0
 71
3
 72
15
 73
11
 74
0
 42
0.0000001
 43
0.0000001
 44
0.0000000001
 40
0.0
 40
0.0
 40
0.0
 40
0.0
 40
0.1311474841
 40
0.2573719437
 40
0.3797213992
 40
0.5
 40
0.6202786008
 40
0.7426280563
 40
0.8688525159
 40
1.0
 40
1.0
 40
1.0
 40
1.0
 10
15.8113267186
 20
6.2460192518
 30
0.0
 10
15.8136565221
 20
6.2488726667
 30
0.0
 10
15.8178277179
 20
6.2548180833
 30
0.0
 10
15.8225006724
 20
6.2644596514
 30
0.0
 10
15.8253404821
 20
6.2744818682
 30
0.0
 10
15.8262965967
 20
6.2846891266
 30
0.0
 10
15.8253404821
 20
6.2948963851
 30
0.0
 10
15.8225006724
 20
6.3049186019
 30
0.0
 10
15.8178277179
 20
6.3145601699
 30
0.0
 10
15.8136565221
 20
6.3205055865
 30
0.0
 10
15.8113267186
 20
6.3233590014
 30
0.0
  0
SPLINE
  5
3C3
100
AcDbEntity
  8
0
100
AcDbSpline
 62
7
  6
CONTINUOUS
 70
0
 71
3
 72
14
 73
10
 74
0
 42
0.0000001
 43
0.0000001
 44
0.0000000001
 40
0.0
 40
0.0
 40
0.0
 40
0.0
 40
0.1354274063
 40
0.2699481732
 40
0.4021269567
 40
0.5309817371
 40
0.6557338336
 40
0.7758145156
 40
1.0
 40
1.0
 40
1.0
 40
1.0
 10
15.7166052569
 20
6.207349377
 30
0.0
 10
15.7213647673
 20
6.207349377
 30
0.0
 10
15.7308575938
 20
6.2077908757
 30
0.0
 10
15.744873838
 20
6.2097481466
 30
0.0
 10
15.758416088
 20
6.2129868176
 30
0.0
 10
15.7712464518
 20
6.217437686
 30
0.0
 10
15.7831583941
 20
6.2230401197
 30
0.0
 10
15.7972054159
 20
6.2316959809
 30
0.0
 10
15.8063436921
 20
6.2399163156
 30
0.0
 10
15.8113267186
 20
6.2460192518
 30
0.0
  0
SPLINE
  5
3C4
100
AcDbEntity
  8
03__ASM_ALL_CURVES
100
AcDbSpline
 62
8
  6
HIDDEN
 70
0
 71
3
 72
20
 73
16
 74
0
 42
0.0000001
 43
0.0000001
 44
0.0000000001
 40
0.0
 40
0.0
 40
0.0
 40
0.0
 40
0.125
 40
0.1875
 40
0.25
 40
0.375
 40
0.4375
 40
0.5
 40
0.5625
 40
0.625
 40
0.6875
 40
0.75
 40
0.8125
 40
0.875
 40
1.0
 40
1.0
 40
1.0
 40
1.0
 10
15.456829889
 20
11.7669634645
 30
0.0
 10
15.4557203419
 20
11.7691330106
 30
0.0
 10
15.4540934821
 20
11.772346539
 30
0.0
 10
15.4517744924
 20
11.7767944066
 30
0.0
 10
15.4489752808
 20
11.7817747449
 30
0.0
 10
15.4462681444
 20
11.7866261391
 30
0.0
 10
15.4433113778
 20
11.7914513692
 30
0.0
 10
15.4410834766
 20
11.7952504418
 30
0.0
 10
15.4390216955
 20
11.7983419962
 30
0.0
 10
15.4369418199
 20
11.8015975492
 30
0.0
 10
15.4347682021
 20
11.8049046262
 30
0.0
 10
15.4321576512
 20
11.8086248338
 30
0.0
 10
15.4297285827
 20
11.812207446
 30
0.0
 10
15.4261044957
 20
11.8171672639
 30
0.0
 10
15.4233203453
 20
11.8209099451
 30
0.0
 10
15.4214789306
 20
11.8233999952
 30
0.0
  0
SPLINE
  5
3C5
100
AcDbEntity
  8
03__ASM_ALL_CURVES
100
AcDbSpline
 62
8
  6
HIDDEN
 70
0
 71
3
 72
125
 73
121
 74
0
 42
0.0000001
 43
0.0000001
 44
0.0000000001
 40
0.0
 40
0.0
 40
0.0
 40
0.0
 40
0.03125
 40
0.046875
 40
0.0625
 40
0.0703125
 40
0.078125
 40
0.08203125
 40
0.083984375
 40
0.0859375
 40
0.08984375
 40
0.09375
 40
0.109375
 40
0.125
 40
0.140625
 40
0.15625
 40
0.16015625
 40
0.1640625
 40
0.166015625
 40
0.16796875
 40
0.171875
 40
0.1796875
 40
0.1875
 40
0.21875
 40
0.234375
 40
0.2421875
 40
0.24609375
 40
0.25
 40
0.25390625
 40
0.2578125
 40
0.265625
 40
0.2734375
 40
0.28125
 40
0.296875
 40
0.3125
 40
0.3203125
 40
0.328125
 40
0.33203125
 40
0.3359375
 40
0.33984375
 40
0.34375
 40
0.359375
 40
0.375
 40
0.390625
 40
0.40625
 40
0.41015625
 40
0.4140625
 40
0.41796875
 40
0.421875
 40
0.4296875
 40
0.4375
 40
0.46875
 40
0.484375
 40
0.4921875
 40
0.49609375
 40
0.5
 40
0.50390625
 40
0.5078125
 40
0.515625
 40
0.53125
 40
0.546875
 40
0.5625
 40
0.5703125
 40
0.578125
 40
0.58203125
 40
0.583984375
 40
0.5859375
 40
0.58984375
 40
0.59375
 40
0.609375
 40
0.625
 40
0.640625
 40
0.6484375
 40
0.65625
 40
0.66015625
 40
0.6640625
 40
0.666015625
 40
0.66796875
 40
0.671875
 40
0.6796875
 40
0.6875
 40
0.703125
 40
0.71875
 40
0.7265625
 40
0.734375
 40
0.7421875
 40
0.74609375
 40
0.748046875
 40
0.75
 40
0.751953125
 40
0.75390625
 40
0.7578125
 40
0.765625
 40
0.7734375
 40
0.78125
 40
0.796875
 40
0.8125
 40
0.8203125
 40
0.828125
 40
0.83203125
 40
0.833984375
 40
0.8359375
 40
0.83984375
 40
0.84375
 40
0.8515625
 40
0.859375
 40
0.875
 40
0.890625
 40
0.8984375
 40
0.90625
 40
0.91015625
 40
0.9140625
 40
0.916015625
 40
0.91796875
 40
0.921875
 40
0.9296875
 40
0.9375
 40
0.953125
 40
0.96875
 40
1.0
 40
1.0
 40
1.0
 40
1.0
 10
15.4214789305
 20
11.8233999954
 30
0.0
 10
15.4145216966
 20
11.8309380422
 30
0.0
 10
15.4040848412
 20
11.842244876
 30
0.0
 10
15.3901730526
 20
11.8573216001
 30
0.0
 10
15.3814698127
 20
11.8667425823
 30
0.0
 10
15.3745263088
 20
11.8742838604
 30
0.0
 10
15.3701430849
 20
11.8789869137
 30
0.0
 10
15.3671620741
 20
11.8822995838
 30
0.0
 10
15.3653221351
 20
11.8841604128
 30
0.0
 10
15.3629680532
 20
11.885900242
 30
0.0
 10
15.3602011897
 20
11.8881163887
 30
0.0
 10
15.3534160535
 20
11.8934010829
 30
0.0
 10
15.3432994389
 20
11.9013426685
 30
0.0
 10
15.3297741355
 20
11.9119219957
 30
0.0
 10
15.3162644434
 20
11.9225081091
 30
0.0
 10
15.3061127031
 20
11.9304344258
 30
0.0
 10
15.2993724498
 20
11.9357386302
 30
0.0
 10
15.2965234636
 20
11.9379190789
 30
0.0
 10
15.2943388309
 20
11.9397325661
 30
0.0
 10
15.2918084111
 20
11.9412932494
 30
0.0
 10
15.2872195176
 20
11.9439069861
 30
0.0
 10
15.280747768
 20
11.9477021823
 30
0.0
 10
15.2651454078
 20
11.9567592577
 30
0.0
 10
15.2469789528
 20
11.9673534519
 30
0.0
 10
15.228764993
 20
11.9779097982
 30
0.0
 10
15.2197074911
 20
11.9832281795
 30
0.0
 10
15.2144537428
 20
11.9862037331
 30
0.0
 10
15.2107333938
 20
11.9886144746
 30
0.0
 10
15.2061722123
 20
11.9903406719
 30
0.0
 10
15.2003843525
 20
11.992881392
 30
0.0
 10
15.1930487434
 20
11.9959752241
 30
0.0
 10
15.1842892042
 20
11.999723064
 30
0.0
 10
15.1725944692
 20
12.0047073087
 30
0.0
 10
15.1579831915
 20
12.0109460743
 30
0.0
 10
15.1433625361
 20
12.0171670949
 30
0.0
 10
15.1316828055
 20
12.0221797317
 30
0.0
 10
15.1243456786
 20
12.0252319513
 30
0.0
 10
15.1185612872
 20
12.0278583999
 30
0.0
 10
15.1139894405
 20
12.0293226248
 30
0.0
 10
15.1093521488
 20
12.0306451655
 30
0.0
 10
15.1001112295
 20
12.0333631489
 30
0.0
 10
15.086235727
 20
12.0374092273
 30
0.0
 10
15.0677430542
 20
12.0428229766
 30
0.0
 10
15.0492485227
 20
12.0482267261
 30
0.0
 10
15.0353772024
 20
12.052295304
 30
0.0
 10
15.0261309392
 20
12.054984538
 30
0.0
 10
15.0215053809
 20
12.0563702024
 30
0.0
 10
15.0168892725
 20
12.0575963074
 30
0.0
 10
15.0107794287
 20
12.0584719939
 30
0.0
 10
15.0031267341
 20
12.0598262523
 30
0.0
 10
14.9847731082
 20
12.0628611902
 30
0.0
 10
14.96335437
 20
12.0664901747
 30
0.0
 10
14.9419429195
 20
12.0700428604
 30
0.0
 10
14.9312299675
 20
12.0718807172
 30
0.0
 10
14.9251196282
 20
12.0728363684
 30
0.0
 10
14.9205048961
 20
12.0738191895
 30
0.0
 10
14.9160124006
 20
12.0737849562
 30
0.0
 10
14.9099797724
 20
12.0740940663
 30
0.0
 10
14.8994425054
 20
12.0744697768
 30
0.0
 10
14.8843791531
 20
12.0750924528
 30
0.0
 10
14.8663063447
 20
12.0758047936
 30
0.0
 10
14.8512484417
 20
12.0764000499
 30
0.0
 10
14.8391938625
 20
12.0768897565
 30
0.0
 10
14.8316790073
 20
12.0771612497
 30
0.0
 10
14.8263799754
 20
12.0774209458
 30
0.0
 10
14.8234124087
 20
12.0774603141
 30
0.0
 10
14.8206725333
 20
12.0770890094
 30
0.0
 10
14.8171698641
 20
12.0767652475
 30
0.0
 10
14.8088275045
 20
12.0758726957
 30
0.0
 10
14.7962871671
 20
12.0745822911
 30
0.0
 10
14.7795815465
 20
12.0728345413
 30
0.0
 10
14.7656584063
 20
12.0713826988
 30
0.0
 10
14.7545167748
 20
12.0702237523
 30
0.0
 10
14.7475619483
 20
12.0694907841
 30
0.0
 10
14.7419780032
 20
12.0689244816
 30
0.0
 10
14.7385339007
 20
12.0685246758
 30
0.0
 10
14.7356735681
 20
12.0683098932
 30
0.0
 10
14.7331967473
 20
12.067711556
 30
0.0
 10
14.7290404682
 20
12.0664862887
 30
0.0
 10
14.7230099762
 20
12.0648288679
 30
0.0
 10
14.7134131161
 20
12.06212506
 30
0.0
 10
14.7013993899
 20
12.0587629661
 30
0.0
 10
14.6893913589
 20
12.0553951262
 30
0.0
 10
14.6797853865
 20
12.0527005119
 30
0.0
 10
14.6725761329
 20
12.0506840261
 30
0.0
 10
14.6665841473
 20
12.0489888476
 30
0.0
 10
14.6623588222
 20
12.0478312895
 30
0.0
 10
14.6599926647
 20
12.0471244309
 30
0.0
 10
14.6580819431
 20
12.0467221724
 30
0.0
 10
14.6566914786
 20
12.0458310707
 30
0.0
 10
14.6546560547
 20
12.044813449
 30
0.0
 10
14.6511786118
 20
12.0429531665
 30
0.0
 10
14.6461666475
 20
12.0403371458
 30
0.0
 10
14.6401711416
 20
12.037180185
 30
0.0
 10
14.6321708627
 20
12.0329769075
 30
0.0
 10
14.6221704189
 20
12.0277221237
 30
0.0
 10
14.6121781946
 20
12.0224625829
 30
0.0
 10
14.6041647645
 20
12.0182669166
 30
0.0
 10
14.5992013876
 20
12.0156170879
 30
0.0
 10
14.5956367869
 20
12.0138174185
 30
0.0
 10
14.5937410589
 20
12.0127026502
 30
0.0
 10
14.592377203
 20
12.0112624525
 30
0.0
 10
14.5904902707
 20
12.009573632
 30
0.0
 10
14.5875729543
 20
12.0068092478
 30
0.0
 10
14.5838914441
 20
12.0033750967
 30
0.0
 10
14.5780206113
 20
11.9978684914
 30
0.0
 10
14.5706746524
 20
11.9909896443
 30
0.0
 10
14.563333886
 20
11.9841081136
 30
0.0
 10
14.5574547451
 20
11.9786058021
 30
0.0
 10
14.5537940054
 20
11.9751609167
 30
0.0
 10
14.5508341094
 20
11.9724185377
 30
0.0
 10
14.5490555734
 20
11.9706736979
 30
0.0
 10
14.5474692129
 20
11.9693484907
 30
0.0
 10
14.5464798602
 20
11.9677653072
 30
0.0
 10
14.5450258285
 20
11.964874895
 30
0.0
 10
14.5428039403
 20
11.9608082618
 30
0.0
 10
14.539329786
 20
11.9542667049
 30
0.0
 10
14.5349593924
 20
11.9461017287
 30
0.0
 10
14.5279823139
 20
11.9330310468
 30
0.0
 10
14.522746006
 20
11.9232295474
 30
0.0
 10
14.5192559116
 20
11.9166948784
 30
0.0
  0
LINE
  5
3C6
100
AcDbEntity
  8
03__ASM_ALL_CURVES
100
AcDbLine
 62
8
  6
HIDDEN
 10
14.5192559211
 20
11.9166949075
 11
14.5188109488
 21
11.9152997189
  0
LINE
  5
3C7
100
AcDbEntity
  8
03__ASM_ALL_CURVES
100
AcDbLine
 62
8
  6
HIDDEN
 10
14.5188109488
 20
11.915299719
 11
14.5159806372
 21
11.9051582939
  0
SPLINE
  5
3C8
100
AcDbEntity
  8
03__ASM_ALL_CURVES
100
AcDbSpline
 62
8
  6
HIDDEN
 70
0
 71
3
 72
31
 73
27
 74
0
 42
0.0000001
 43
0.0000001
 44
0.0000000001
 40
0.0
 40
0.0
 40
0.0
 40
0.0
 40
0.0625
 40
0.125
 40
0.15625
 40
0.171875
 40
0.1875
 40
0.25
 40
0.3125
 40
0.34375
 40
0.375
 40
0.4375
 40
0.46875
 40
0.5
 40
0.53125
 40
0.5625
 40
0.625
 40
0.65625
 40
0.6875
 40
0.75
 40
0.8125
 40
0.828125
 40
0.84375
 40
0.875
 40
0.9375
 40
1.0
 40
1.0
 40
1.0
 40
1.0
 10
14.5159806373
 20
11.9051582943
 30
0.0
 10
14.5155179479
 20
11.9025632905
 30
0.0
 10
14.5145863401
 20
11.8973772408
 30
0.0
 10
14.513452975
 20
11.8908748897
 30
0.0
 10
14.5126023912
 20
11.8863596061
 30
0.0
 10
14.5122051054
 20
11.8837230456
 30
0.0
 10
14.5120888924
 20
11.8794621376
 30
0.0
 10
14.5117328766
 20
11.873195682
 30
0.0
 10
14.511345316
 20
11.8661879264
 30
0.0
 10
14.5112098469
 20
11.8605565535
 30
0.0
 10
14.5117993883
 20
11.8547818535
 30
0.0
 10
14.5121535015
 20
11.8490522158
 30
0.0
 10
14.5126701413
 20
11.8432948864
 30
0.0
 10
14.5128054696
 20
11.8390149021
 30
0.0
 10
14.5138681407
 20
11.834596713
 30
0.0
 10
14.5149489722
 20
11.8287553458
 30
0.0
 10
14.5161914975
 20
11.8228930787
 30
0.0
 10
14.5172009891
 20
11.8170563476
 30
0.0
 10
14.5189270237
 20
11.8111453388
 30
0.0
 10
14.5212926866
 20
11.8037443777
 30
0.0
 10
14.5234537121
 20
11.7970497861
 30
0.0
 10
14.5247371211
 20
11.7926490361
 30
0.0
 10
14.5259979356
 20
11.7895640294
 30
0.0
 10
14.5284009137
 20
11.7840921865
 30
0.0
 10
14.5317302908
 20
11.7763137317
 30
0.0
 10
14.5344253197
 20
11.7700792457
 30
0.0
 10
14.5357688933
 20
11.7669634679
 30
0.0
  0
SPLINE
  5
3C9
100
AcDbEntity
  8
03__ASM_ALL_CURVES
100
AcDbSpline
 62
8
  6
HIDDEN
 70
0
 71
3
 72
128
 73
124
 74
0
 42
0.0000001
 43
0.0000001
 44
0.0000000001
 40
0.0
 40
0.0
 40
0.0
 40
0.0
 40
0.03125
 40
0.046875
 40
0.0625
 40
0.0703125
 40
0.078125
 40
0.08203125
 40
0.0859375
 40
0.09375
 40
0.1015625
 40
0.109375
 40
0.125
 40
0.140625
 40
0.1484375
 40
0.15234375
 40
0.154296875
 40
0.15625
 40
0.16015625
 40
0.1640625
 40
0.171875
 40
0.1796875
 40
0.1875
 40
0.203125
 40
0.21875
 40
0.2265625
 40
0.228515625
 40
0.23046875
 40
0.234375
 40
0.2421875
 40
0.25
 40
0.265625
 40
0.28125
 40
0.296875
 40
0.30078125
 40
0.3046875
 40
0.30859375
 40
0.3125
 40
0.3203125
 40
0.328125
 40
0.34375
 40
0.359375
 40
0.375
 40
0.37890625
 40
0.3828125
 40
0.390625
 40
0.3984375
 40
0.40625
 40
0.421875
 40
0.4375
 40
0.4453125
 40
0.453125
 40
0.45703125
 40
0.4609375
 40
0.46484375
 40
0.46875
 40
0.4765625
 40
0.484375
 40
0.5
 40
0.515625
 40
0.5234375
 40
0.53125
 40
0.53515625
 40
0.5390625
 40
0.54296875
 40
0.546875
 40
0.5546875
 40
0.5625
 40
0.578125
 40
0.59375
 40
0.6015625
 40
0.609375
 40
0.61328125
 40
0.615234375
 40
0.6171875
 40
0.62109375
 40
0.625
 40
0.6328125
 40
0.640625
 40
0.65625
 40
0.671875
 40
0.6796875
 40
0.68359375
 40
0.6875
 40
0.69140625
 40
0.6953125
 40
0.69921875
 40
0.703125
 40
0.71875
 40
0.734375
 40
0.75
 40
0.7578125
 40
0.76171875
 40
0.765625
 40
0.767578125
 40
0.76953125
 40
0.771484375
 40
0.7734375
 40
0.78125
 40
0.796875
 40
0.8125
 40
0.8203125
 40
0.828125
 40
0.8359375
 40
0.83984375
 40
0.84375
 40
0.845703125
 40
0.84765625
 40
0.8515625
 40
0.859375
 40
0.875
 40
0.890625
 40
0.8984375
 40
0.90625
 40
0.9140625
 40
0.91796875
 40
0.921875
 40
0.9296875
 40
0.9375
 40
0.9453125
 40
0.953125
 40
0.96875
 40
1.0
 40
1.0
 40
1.0
 40
1.0
 10
14.535768895
 20
11.7669634645
 30
0.0
 10
14.5411956925
 20
11.7585004618
 30
0.0
 10
14.5493277025
 20
11.7458047409
 30
0.0
 10
14.5602031278
 20
11.7288819802
 30
0.0
 10
14.5669320492
 20
11.7182951148
 30
0.0
 10
14.5724707265
 20
11.7098487418
 30
0.0
 10
14.5755776591
 20
11.7045170304
 30
0.0
 10
14.579680795
 20
11.7004920978
 30
0.0
 10
14.5835014096
 20
11.6964251719
 30
0.0
 10
14.5883741003
 20
11.691355919
 30
0.0
 10
14.5941798834
 20
11.6852666637
 30
0.0
 10
14.6019352036
 20
11.6771497372
 30
0.0
 10
14.6116258976
 20
11.6670033536
 30
0.0
 10
14.6213125712
 20
11.6568552711
 30
0.0
 10
14.6281041051
 20
11.649755339
 30
0.0
 10
14.6314846338
 20
11.6462002304
 30
0.0
 10
14.6334409354
 20
11.6441770234
 30
0.0
 10
14.6360002316
 20
11.6423570899
 30
0.0
 10
14.6389928865
 20
11.6400125725
 30
0.0
 10
14.643896523
 20
11.6363002413
 30
0.0
 10
14.6499865156
 20
11.6316465042
 30
0.0
 10
14.6573112783
 20
11.6260676258
 30
0.0
 10
14.6670725602
 20
11.6186276446
 30
0.0
 10
14.6792702456
 20
11.6093247272
 30
0.0
 10
14.6914899346
 20
11.6000354197
 30
0.0
 10
14.6993923713
 20
11.593972742
 30
0.0
 10
14.7030820947
 20
11.5912004479
 30
0.0
 10
14.7054370031
 20
11.5892883309
 30
0.0
 10
14.710629907
 20
11.5865951906
 30
0.0
 10
14.7176163582
 20
11.5824846352
 30
0.0
 10
14.7290361422
 20
11.5760548822
 30
0.0
 10
14.743227839
 20
11.5679670218
 30
0.0
 10
14.7602942408
 20
11.5582840977
 30
0.0
 10
14.7730845852
 20
11.5510151827
 30
0.0
 10
14.7816158789
 20
11.5461734087
 30
0.0
 10
14.7858758832
 20
11.5437464236
 30
0.0
 10
14.7901575781
 20
11.5413429973
 30
0.0
 10
14.7965516146
 20
11.5388828734
 30
0.0
 10
14.8043095446
 20
11.5355527444
 30
0.0
 10
14.8168535527
 20
11.5303674839
 30
0.0
 10
14.8324871249
 20
11.5238337107
 30
0.0
 10
14.8512733333
 20
11.5160293119
 30
0.0
 10
14.8653409497
 20
11.510130263
 30
0.0
 10
14.8747479933
 20
11.506262523
 30
0.0
 10
14.8809527974
 20
11.5035311383
 30
0.0
 10
14.8891936737
 20
11.5012311131
 30
0.0
 10
14.8990514588
 20
11.4983992696
 30
0.0
 10
14.912206046
 20
11.4946483245
 30
0.0
 10
14.9286458928
 20
11.4899528303
 30
0.0
 10
14.9450856962
 20
11.4852535299
 30
0.0
 10
14.9582403528
 20
11.4815086746
 30
0.0
 10
14.9664550003
 20
11.4791335807
 30
0.0
 10
14.9730428458
 20
11.4773128016
 30
0.0
 10
14.977939555
 20
11.4757300649
 30
0.0
 10
14.9830049003
 20
11.4749762898
 30
0.0
 10
14.9897388818
 20
11.4738738597
 30
0.0
 10
14.9981631366
 20
11.4725291865
 30
0.0
 10
15.0116381907
 20
11.4703589702
 30
0.0
 10
15.028483049
 20
11.467653286
 30
0.0
 10
15.0453284364
 20
11.4649426811
 30
0.0
 10
15.0588026438
 20
11.462780338
 30
0.0
 10
15.0672290151
 20
11.4614159819
 30
0.0
 10
15.0739586579
 20
11.4603539019
 30
0.0
 10
15.0790372576
 20
11.4594768621
 30
0.0
 10
15.0837598809
 20
11.4595131268
 30
0.0
 10
15.0901810523
 20
11.4592424723
 30
0.0
 10
15.0981649047
 20
11.4590134492
 30
0.0
 10
15.110963104
 20
11.4585855387
 30
0.0
 10
15.1269510352
 20
11.458074522
 30
0.0
 10
15.1429481937
 20
11.4575448613
 30
0.0
 10
15.1557316293
 20
11.4571467813
 30
0.0
 10
15.1637523908
 20
11.456843182
 30
0.0
 10
15.1693047102
 20
11.4567401303
 30
0.0
 10
15.1725747818
 20
11.4565100243
 30
0.0
 10
15.1754792834
 20
11.4569230936
 30
0.0
 10
15.179196526
 20
11.4572870404
 30
0.0
 10
15.1850957139
 20
11.4579545126
 30
0.0
 10
15.1924862382
 20
11.4587597324
 30
0.0
 10
15.2043020259
 20
11.4600641404
 30
0.0
 10
15.2190734861
 20
11.4616907104
 30
0.0
 10
15.2338493576
 20
11.4633129698
 30
0.0
 10
15.2441819961
 20
11.4644603617
 30
0.0
 10
15.2501029888
 20
11.4650970611
 30
0.0
 10
15.2544968419
 20
11.4656280705
 30
0.0
 10
15.2590699464
 20
11.4659546171
 30
0.0
 10
15.2629729369
 20
11.4670455303
 30
0.0
 10
15.2668526181
 20
11.4681630312
 30
0.0
 10
15.274623975
 20
11.4703843528
 30
0.0
 10
15.2862759116
 20
11.4737221313
 30
0.0
 10
15.3018150315
 20
11.4781689503
 30
0.0
 10
15.314762681
 20
11.4818761699
 30
0.0
 10
15.3238280295
 20
11.4844695498
 30
0.0
 10
15.3290052958
 20
11.4859538894
 30
0.0
 10
15.3322479447
 20
11.4868759795
 30
0.0
 10
15.334826339
 20
11.4876265427
 30
0.0
 10
15.3368031946
 20
11.4881541652
 30
0.0
 10
15.3382899839
 20
11.4890835367
 30
0.0
 10
15.3415153886
 20
11.4907358361
 30
0.0
 10
15.348356584
 20
11.4944364804
 30
0.0
 10
15.358980968
 20
11.5000481904
 30
0.0
 10
15.3695697729
 20
11.5056892413
 30
0.0
 10
15.3780466322
 20
11.5101969351
 30
0.0
 10
15.384408178
 20
11.5135755416
 30
0.0
 10
15.3896940388
 20
11.5164004044
 30
0.0
 10
15.3939578023
 20
11.5186389189
 30
0.0
 10
15.396542681
 20
11.5200867512
 30
0.0
 10
15.3987937517
 20
11.5211333351
 30
0.0
 10
15.4003761303
 20
11.5225876382
 30
0.0
 10
15.4030976084
 20
11.5251617435
 30
0.0
 10
15.4085743651
 20
11.5302893389
 30
0.0
 10
15.4163810666
 20
11.537625035
 30
0.0
 10
15.4241923327
 20
11.5449577589
 30
0.0
 10
15.4304441799
 20
11.5508226236
 30
0.0
 10
15.4351218237
 20
11.5552269986
 30
0.0
 10
15.4390561513
 20
11.5588787703
 30
0.0
 10
15.4421221354
 20
11.5618418224
 30
0.0
 10
15.4454849985
 20
11.5646531683
 30
0.0
 10
15.4475638328
 20
11.5692531042
 30
0.0
 10
15.4505164406
 20
11.5745389839
 30
0.0
 10
15.4533465317
 20
11.5798874702
 30
0.0
 10
15.4571627337
 20
11.5869969413
 30
0.0
 10
15.4638210494
 20
11.5994487551
 30
0.0
 10
15.4695350473
 20
11.6101182276
 30
0.0
 10
15.4733428525
 20
11.6172319895
 30
0.0
  0
LINE
  5
3CA
100
AcDbEntity
  8
03__ASM_ALL_CURVES
100
AcDbLine
 62
8
  6
HIDDEN
 10
15.4733428628
 20
11.6172320214
 11
15.4741990237
 21
11.6199563594
  0
LINE
  5
3CB
100
AcDbEntity
  8
03__ASM_ALL_CURVES
100
AcDbLine
 62
8
  6
HIDDEN
 10
15.4741990237
 20
11.6199563594
 11
15.4766181466
 21
11.6287686346
  0
SPLINE
  5
3CC
100
AcDbEntity
  8
03__ASM_ALL_CURVES
100
AcDbSpline
 62
8
  6
HIDDEN
 70
0
 71
3
 72
17
 73
13
 74
0
 42
0.0000001
 43
0.0000001
 44
0.0000000001
 40
0.0
 40
0.0
 40
0.0
 40
0.0
 40
0.25
 40
0.375
 40
0.4375
 40
0.5
 40
0.5625
 40
0.625
 40
0.6875
 40
0.75
 40
0.875
 40
1.0
 40
1.0
 40
1.0
 40
1.0
 10
15.4766181466
 20
11.6287686347
 30
0.0
 10
15.4770705209
 20
11.6307188474
 30
0.0
 10
15.4777417047
 20
11.6336586761
 30
0.0
 10
15.4784274415
 20
11.6370720554
 30
0.0
 10
15.4787822842
 20
11.6390945313
 30
0.0
 10
15.4790462798
 20
11.6404382827
 30
0.0
 10
15.4793373248
 20
11.6424384694
 30
0.0
 10
15.4796277847
 20
11.6442868072
 30
0.0
 10
15.4798935355
 20
11.6460861051
 30
0.0
 10
15.4801216297
 20
11.6479809689
 30
0.0
 10
15.4804448147
 20
11.6506228567
 30
0.0
 10
15.4806703926
 20
11.6530358616
 30
0.0
 10
15.4807873028
 20
11.6542049273
 30
0.0
  0
SPLINE
  5
3CD
100
AcDbEntity
  8
03__ASM_ALL_CURVES
100
AcDbSpline
 62
8
  6
HIDDEN
 70
0
 71
3
 72
18
 73
14
 74
0
 42
0.0000001
 43
0.0000001
 44
0.0000000001
 40
0.0
 40
0.0
 40
0.0
 40
0.0
 40
0.125
 40
0.1875
 40
0.25
 40
0.3125
 40
0.375
 40
0.4375
 40
0.5
 40
0.5625
 40
0.625
 40
0.75
 40
1.0
 40
1.0
 40
1.0
 40
1.0
 10
15.4808665192
 20
11.6551554045
 30
0.0
 10
15.4809823477
 20
11.6571906057
 30
0.0
 10
15.4811695505
 20
11.6601998331
 30
0.0
 10
15.4813653142
 20
11.6643864338
 30
0.0
 10
15.4813511066
 20
11.6679260708
 30
0.0
 10
15.4814166794
 20
11.6714506736
 30
0.0
 10
15.4813241611
 20
11.6746357266
 30
0.0
 10
15.4811698397
 20
11.6777693201
 30
0.0
 10
15.4811136282
 20
11.6807359552
 30
0.0
 10
15.4807267799
 20
11.6844218832
 30
0.0
 10
15.480360484
 20
11.6890769807
 30
0.0
 10
15.4793069256
 20
11.6974303455
 30
0.0
 10
15.4780400463
 20
11.7044504558
 30
0.0
 10
15.4771687692
 20
11.7091234666
 30
0.0
  0
LINE
  5
3CE
100
AcDbEntity
  8
03__ASM_ALL_CURVES
100
AcDbLine
 62
8
  6
HIDDEN
 10
15.4771687694
 20
11.7091234654
 11
15.4768689841
 21
11.7105269336
  0
SPLINE
  5
3CF
100
AcDbEntity
  8
03__ASM_ALL_CURVES
100
AcDbSpline
 62
8
  6
HIDDEN
 70
0
 71
3
 72
20
 73
16
 74
0
 42
0.0000001
 43
0.0000001
 44
0.0000000001
 40
0.0
 40
0.0
 40
0.0
 40
0.0
 40
0.125
 40
0.1875
 40
0.25
 40
0.375
 40
0.4375
 40
0.5
 40
0.5625
 40
0.625
 40
0.6875
 40
0.75
 40
0.8125
 40
0.875
 40
1.0
 40
1.0
 40
1.0
 40
1.0
 10
15.4768689841
 20
11.7105269335
 30
0.0
 10
15.4763589124
 20
11.7126659137
 30
0.0
 10
15.4756207168
 20
11.7158321337
 30
0.0
 10
15.4745288077
 20
11.7202227615
 30
0.0
 10
15.473094759
 20
11.7251638365
 30
0.0
 10
15.4717182936
 20
11.7299745818
 30
0.0
 10
15.470073524
 20
11.7347917628
 30
0.0
 10
15.4688829582
 20
11.7385722355
 30
0.0
 10
15.4676544991
 20
11.7416791426
 30
0.0
 10
15.4664561227
 20
11.7449396768
 30
0.0
 10
15.4651753086
 20
11.7482592679
 30
0.0
 10
15.4635618963
 20
11.7520138219
 30
0.0
 10
15.4620967818
 20
11.7556191023
 30
0.0
 10
15.4597958381
 20
11.7606423179
 30
0.0
 10
15.4580079823
 20
11.7644388944
 30
0.0
 10
15.4568298891
 20
11.7669634643
 30
0.0
  0
SPLINE
  5
3D0
100
AcDbEntity
  8
0
100
AcDbSpline
 62
7
  6
CONTINUOUS
 70
0
 71
3
 72
32
 73
28
 74
0
 42
0.0000001
 43
0.0000001
 44
0.0000000001
 40
0.0
 40
0.0
 40
0.0
 40
0.0
 40
0.0336609421
 40
0.0680682539
 40
0.1386918841
 40
0.2111364397
 40
0.2846082693
 40
0.3582647055
 40
0.4312621187
 40
0.5027772859
 40
0.5377429444
 40
0.5720558939
 40
0.6056326813
 40
0.6383989998
 40
0.6702874413
 40
0.7012422299
 40
0.7312179863
 40
0.7601826568
 40
0.7881194542
 40
0.8150269154
 40
0.8658099308
 40
0.8898238494
 40
0.9130093823
 40
0.9354772176
 40
0.9573636767
 40
0.9788194886
 40
1.0
 40
1.0
 40
1.0
 40
1.0
 10
16.1204726341
 20
13.3502800237
 30
0.0
 10
16.1019859859
 20
13.3640124039
 30
0.0
 10
16.0639505429
 20
13.3909146824
 30
0.0
 10
15.9841407564
 20
13.4422772157
 30
0.0
 10
15.8779322317
 20
13.5014270322
 30
0.0
 10
15.7430980367
 20
13.563141499
 30
0.0
 10
15.6020284039
 20
13.6151809616
 30
0.0
 10
15.4571084138
 20
13.6566594298
 30
0.0
 10
15.3107975763
 20
13.6868763771
 30
0.0
 10
15.1888455169
 20
13.702367045
 30
0.0
 10
15.0926995015
 20
13.7085896315
 30
0.0
 10
15.0223262725
 20
13.7101607878
 30
0.0
 10
14.9534561634
 20
13.7086558619
 30
0.0
 10
14.8863815346
 20
13.704090287
 30
0.0
 10
14.8213879921
 20
13.6964750489
 30
0.0
 10
14.7587519317
 20
13.685847146
 30
0.0
 10
14.6987385606
 20
13.6722487666
 30
0.0
 10
14.6416059475
 20
13.6557348405
 30
0.0
 10
14.5875864584
 20
13.6363754517
 30
0.0
 10
14.5213323503
 20
13.6074389741
 30
0.0
 10
14.460609154
 20
13.5727588626
 30
0.0
 10
14.4071278866
 20
13.5322188107
 30
0.0
 10
14.3718807441
 20
13.5000260667
 30
0.0
 10
14.3409222176
 20
13.465618975
 30
0.0
 10
14.314391588
 20
13.429134906
 30
0.0
 10
14.2924279026
 20
13.3907449735
 30
0.0
 10
14.2808442005
 20
13.3638932735
 30
0.0
 10
14.2758787521
 20
13.3502800237
 30
0.0
  0
SPLINE
  5
3D1
100
AcDbEntity
  8
0
100
AcDbSpline
 62
7
  6
CONTINUOUS
 70
0
 71
3
 72
14
 73
10
 74
0
 42
0.0000001
 43
0.0000001
 44
0.0000000001
 40
0.0
 40
0.0
 40
0.0
 40
0.0
 40
0.1164602241
 40
0.2338170881
 40
0.352943187
 40
0.4746607151
 40
0.5997119527
 40
0.7287282144
 40
1.0
 40
1.0
 40
1.0
 40
1.0
 10
15.4740082304
 20
11.6193402661
 30
0.0
 10
15.4757521474
 20
11.6249855356
 30
0.0
 10
15.47864189
 20
11.6365186898
 30
0.0
 10
15.4811115631
 20
11.654286294
 30
0.0
 10
15.4817096451
 20
11.6724823425
 30
0.0
 10
15.4804409735
 20
11.6910320116
 30
0.0
 10
15.4773115004
 20
11.7098682882
 30
0.0
 10
15.4705619534
 20
11.7356800906
 30
0.0
 10
15.4628929493
 20
11.7546082464
 30
0.0
 10
15.456829889
 20
11.7669634645
 30
0.0
  0
SPLINE
  5
3D2
100
AcDbEntity
  8
0
100
AcDbSpline
 62
7
  6
CONTINUOUS
 70
0
 71
3
 72
9
 73
5
 74
0
 42
0.0000001
 43
0.0000001
 44
0.0000000001
 40
0.0
 40
0.0
 40
0.0
 40
0.0
 40
0.2542267679
 40
1.0
 40
1.0
 40
1.0
 40
1.0
 10
14.4339731113
 20
12.5182447874
 30
0.0
 10
14.4300253235
 20
12.5165754198
 30
0.0
 10
14.4145635772
 20
12.5098524551
 30
0.0
 10
14.3993764169
 20
12.502494149
 30
0.0
 10
14.3882528731
 20
12.4966321025
 30
0.0
  0
SPLINE
  5
3D3
100
AcDbEntity
  8
0
100
AcDbSpline
 62
7
  6
CONTINUOUS
 70
0
 71
3
 72
13
 73
9
 74
0
 42
0.0000001
 43
0.0000001
 44
0.0000000001
 40
0.0
 40
0.0
 40
0.0
 40
0.0
 40
0.1243780329
 40
0.2535900064
 40
0.5161319874
 40
0.6455046116
 40
0.7704143176
 40
1.0
 40
1.0
 40
1.0
 40
1.0
 10
17.4241815111
 20
11.3124419094
 30
0.0
 10
17.4264916875
 20
11.3124419094
 30
0.0
 10
17.4312092906
 20
11.3128465156
 30
0.0
 10
17.4405537359
 20
11.315094266
 30
0.0
 10
17.4494058113
 20
11.3193794919
 30
0.0
 10
17.4569937477
 20
11.3253107947
 30
0.0
 10
17.4631775075
 20
11.3318532577
 30
0.0
 10
17.4665397665
 20
11.3377424814
 30
0.0
 10
17.4677987856
 20
11.3418166686
 30
0.0
  0
SPLINE
  5
3D4
100
AcDbEntity
  8
0
100
AcDbSpline
 62
7
  6
CONTINUOUS
 70
0
 71
3
 72
11
 73
7
 74
0
 42
0.0000001
 43
0.0000001
 44
0.0000000001
 40
0.0
 40
0.0
 40
0.0
 40
0.0
 40
0.2640340299
 40
0.5170418852
 40
0.7609842547
 40
1.0
 40
1.0
 40
1.0
 40
1.0
 10
17.7522267156
 20
12.2622257874
 30
0.0
 10
17.7526665123
 20
12.2636489701
 30
0.0
 10
17.7533083827
 20
12.2665106686
 30
0.0
 10
17.7535070535
 20
12.2708231072
 30
0.0
 10
17.7528929608
 20
12.274956412
 30
0.0
 10
17.7519458757
 20
12.2775355834
 30
0.0
 10
17.7513517169
 20
12.2787460682
 30
0.0
  0
SPLINE
  5
3D5
100
AcDbEntity
  8
0
100
AcDbSpline
 62
7
  6
CONTINUOUS
 70
0
 71
3
 72
15
 73
11
 74
0
 42
0.0000001
 43
0.0000001
 44
0.0000000001
 40
0.0
 40
0.0
 40
0.0
 40
0.0
 40
0.1129177727
 40
0.2273066291
 40
0.344640968
 40
0.4661077032
 40
0.592223444
 40
0.723101008
 40
0.8589855764
 40
1.0
 40
1.0
 40
1.0
 40
1.0
 10
14.8941150275
 20
12.3874657448
 30
0.0
 10
14.8929055824
 20
12.3899310992
 30
0.0
 10
14.8900450962
 20
12.3946977879
 30
0.0
 10
14.8845637467
 20
12.4010858603
 30
0.0
 10
14.8779790005
 20
12.4066549493
 30
0.0
 10
14.8703955845
 20
12.4113235115
 30
0.0
 10
14.8619347682
 20
12.4150187265
 30
0.0
 10
14.8527178811
 20
12.4176393565
 30
0.0
 10
14.8428933817
 20
12.4191391153
 30
0.0
 10
14.8361539108
 20
12.4194454148
 30
0.0
 10
14.8327245915
 20
12.4194454148
 30
0.0
  0
SPLINE
  5
3D6
100
AcDbEntity
  8
0
100
AcDbSpline
 62
7
  6
CONTINUOUS
 70
0
 71
3
 72
21
 73
17
 74
0
 42
0.0000001
 43
0.0000001
 44
0.0000000001
 40
0.0
 40
0.0
 40
0.0
 40
0.0
 40
0.050460725
 40
0.1017302677
 40
0.1545275515
 40
0.2093985175
 40
0.2666990039
 40
0.3265762336
 40
0.3889994247
 40
0.4537578587
 40
0.5886406624
 40
0.6579740467
 40
0.7277549445
 40
0.7973757056
 40
0.8663238699
 40
1.0
 40
1.0
 40
1.0
 40
1.0
 10
14.7257927021
 20
12.3048651447
 30
0.0
 10
14.7244653811
 20
12.3075707795
 30
0.0
 10
14.7222903663
 20
12.313287753
 30
0.0
 10
14.7206353907
 20
12.3224150736
 30
0.0
 10
14.7205828295
 20
12.3319527801
 30
0.0
 10
14.7221340928
 20
12.341722785
 30
0.0
 10
14.725246223
 20
12.3515520598
 30
0.0
 10
14.7298585338
 20
12.3612696549
 30
0.0
 10
14.7358868488
 20
12.3707084282
 30
0.0
 10
14.7457884977
 20
12.3828638517
 30
0.0
 10
14.7579264697
 20
12.3935952215
 30
0.0
 10
14.7716538999
 20
12.4025333583
 30
0.0
 10
14.7827152546
 20
12.4083252114
 30
0.0
 10
14.7942526523
 20
12.4130404622
 30
0.0
 10
14.8098611574
 20
12.4176695581
 30
0.0
 10
14.82198128
 20
12.4192179689
 30
0.0
 10
14.8299624917
 20
12.4194118042
 30
0.0
  0
SPLINE
  5
3D7
100
AcDbEntity
  8
0
100
AcDbSpline
 62
7
  6
CONTINUOUS
 70
0
 71
3
 72
15
 73
11
 74
0
 42
0.0000001
 43
0.0000001
 44
0.0000000001
 40
0.0
 40
0.0
 40
0.0
 40
0.0
 40
0.1242574412
 40
0.2531490526
 40
0.3844921408
 40
0.5159466171
 40
0.645113174
 40
0.7698281353
 40
0.8884507985
 40
1.0
 40
1.0
 40
1.0
 40
1.0
 10
16.9978251337
 20
12.08755794
 30
0.0
 10
17.0074575014
 20
12.08755794
 30
0.0
 10
17.0271089299
 20
12.0892321116
 30
0.0
 10
17.0561818623
 20
12.0962420011
 30
0.0
 10
17.084474503
 20
12.1075444989
 30
0.0
 10
17.1109224656
 20
12.1227064049
 30
0.0
 10
17.1345382282
 20
12.1411703041
 30
0.0
 10
17.1544438822
 20
12.1622560736
 30
0.0
 10
17.1698752919
 20
12.1851856745
 30
0.0
 10
17.1770107045
 20
12.2016910239
 30
0.0
 10
17.1795637771
 20
12.2099527696
 30
0.0
  0
SPLINE
  5
3D8
100
AcDbEntity
  8
0
100
AcDbSpline
 62
7
  6
CONTINUOUS
 70
0
 71
3
 72
11
 73
7
 74
0
 42
0.0000001
 43
0.0000001
 44
0.0000000001
 40
0.0
 40
0.0
 40
0.0
 40
0.0
 40
0.2643302288
 40
0.517123541
 40
0.7609233918
 40
1.0
 40
1.0
 40
1.0
 40
1.0
 10
17.1795637771
 20
12.2099527696
 30
0.0
 10
17.1813983558
 20
12.2158894687
 30
0.0
 10
17.1840834478
 20
12.2278136513
 30
0.0
 10
17.184896857
 20
12.2457820909
 30
0.0
 10
17.1823408938
 20
12.2629973187
 30
0.0
 10
17.1783923493
 20
12.2737412418
 30
0.0
 10
17.1759171045
 20
12.2787868521
 30
0.0
  0
SPLINE
  5
3D9
100
AcDbEntity
  8
0
100
AcDbSpline
 62
7
  6
CONTINUOUS
 70
0
 71
3
 72
40
 73
36
 74
0
 42
0.0000001
 43
0.0000001
 44
0.0000000001
 40
0.0
 40
0.0
 40
0.0
 40
0.0
 40
0.0214495624
 40
0.043194864
 40
0.0655134518
 40
0.0886454612
 40
0.1005850254
 40
0.1127973322
 40
0.1380949975
 40
0.1646477617
 40
0.1925072459
 40
0.2216876277
 40
0.2521647731
 40
0.2838869185
 40
0.3167734893
 40
0.3507243756
 40
0.3856186035
 40
0.4213219275
 40
0.457685936
 40
0.4945539611
 40
0.5317611019
 40
0.5691384946
 40
0.6065145771
 40
0.6437177976
 40
0.6805793859
 40
0.716934463
 40
0.7526261383
 40
0.7875059107
 40
0.8214406041
 40
0.8543100392
 40
0.8860125448
 40
0.916467177
 40
0.9456293358
 40
0.9734771848
 40
1.0
 40
1.0
 40
1.0
 40
1.0
 10
15.6979363626
 20
11.5501412414
 30
0.0
 10
15.6945091908
 20
11.5390499155
 30
0.0
 10
15.6859674481
 20
11.5171856763
 30
0.0
 10
15.6684319384
 20
11.486240345
 30
0.0
 10
15.6462675024
 20
11.4572721279
 30
0.0
 10
15.6243243612
 20
11.4351702526
 30
0.0
 10
15.6047537826
 20
11.4186641271
 30
0.0
 10
15.5833394504
 20
11.4025906099
 30
0.0
 10
15.5539375459
 20
11.3840867744
 30
0.0
 10
15.5152867984
 20
11.3647885483
 30
0.0
 10
15.4731209519
 20
11.3482414598
 30
0.0
 10
15.4277238937
 20
11.3345647984
 30
0.0
 10
15.3794039876
 20
11.3238329013
 30
0.0
 10
15.328485264
 20
11.3161272562
 30
0.0
 10
15.2753127122
 20
11.3114863858
 30
0.0
 10
15.2202455948
 20
11.3099517595
 30
0.0
 10
15.1636568312
 20
11.3115223253
 30
0.0
 10
15.1059310881
 20
11.3161975482
 30
0.0
 10
15.0474592518
 20
11.3239353348
 30
0.0
 10
14.9886403981
 20
11.3346929312
 30
0.0
 10
14.9298725851
 20
11.3483874543
 30
0.0
 10
14.8715580232
 20
11.3649352789
 30
0.0
 10
14.8140908288
 20
11.3842143684
 30
0.0
 10
14.7578651369
 20
11.4061028627
 30
0.0
 10
14.7032600774
 20
11.4304426342
 30
0.0
 10
14.6506511764
 20
11.4570773898
 30
0.0
 10
14.600391942
 20
11.4858164709
 30
0.0
 10
14.5528284265
 20
11.5164739198
 30
0.0
 10
14.5082781076
 20
11.548833928
 30
0.0
 10
14.4670495305
 20
11.5826866359
 30
0.0
 10
14.4294151782
 20
11.6177930004
 30
0.0
 10
14.395636022
 20
11.6539274322
 30
0.0
 10
14.3659331478
 20
11.6908480646
 30
0.0
 10
14.3405276059
 20
11.728304811
 30
0.0
 10
14.3262189726
 20
11.7540770208
 30
0.0
 10
14.3198952245
 20
11.7669634645
 30
0.0
  0
SPLINE
  5
3DA
100
AcDbEntity
  8
0
100
AcDbSpline
 62
7
  6
CONTINUOUS
 70
0
 71
3
 72
11
 73
7
 74
0
 42
0.0000001
 43
0.0000001
 44
0.0000000001
 40
0.0
 40
0.0
 40
0.0
 40
0.0
 40
0.2539723293
 40
0.5087111367
 40
0.7589872967
 40
1.0
 40
1.0
 40
1.0
 40
1.0
 10
16.7807627844
 20
12.0879609057
 30
0.0
 10
16.7895096446
 20
12.0943469658
 30
0.0
 10
16.8080533711
 20
12.1057918505
 30
0.0
 10
16.8379322112
 20
12.1185351815
 30
0.0
 10
16.8688632693
 20
12.1264763138
 30
0.0
 10
16.8898453511
 20
12.1283818284
 30
0.0
 10
16.9001227397
 20
12.1283818284
 30
0.0
  0
SPLINE
  5
3DB
100
AcDbEntity
  8
0
100
AcDbSpline
 62
7
  6
CONTINUOUS
 70
0
 71
3
 72
26
 73
22
 74
0
 42
0.0000001
 43
0.0000001
 44
0.0000000001
 40
0.0
 40
0.0
 40
0.0
 40
0.0
 40
0.0620385306
 40
0.0930946986
 40
0.1241475344
 40
0.1861601722
 40
0.2481801794
 40
0.2792562461
 40
0.3103471582
 40
0.341474081
 40
0.372648043
 40
0.4350643286
 40
0.4977711602
 40
0.5607700099
 40
0.6239800215
 40
0.6872317828
 40
0.7503293117
 40
0.8131396874
 40
0.8756420893
 40
0.9379143379
 40
1.0
 40
1.0
 40
1.0
 40
1.0
 10
15.7208891378
 20
13.0930318274
 30
0.0
 10
15.7221801755
 20
13.0972096269
 30
0.0
 10
15.7247949159
 20
13.1032986251
 30
0.0
 10
15.7294939539
 20
13.1106952232
 30
0.0
 10
15.7349726308
 20
13.1175359326
 30
0.0
 10
15.7431590427
 20
13.124917355
 30
0.0
 10
15.7527512862
 20
13.1303482089
 30
0.0
 10
15.7609659663
 20
13.1334095522
 30
0.0
 10
15.7673481286
 20
13.135044925
 30
0.0
 10
15.7738709654
 20
13.1360129563
 30
0.0
 10
15.7826644884
 20
13.1364245914
 30
0.0
 10
15.793698547
 20
13.1352804268
 30
0.0
 10
15.8064629444
 20
13.1314242233
 30
0.0
 10
15.8183614295
 20
13.1252878992
 30
0.0
 10
15.8290255367
 20
13.117137866
 30
0.0
 10
15.8381212762
 20
13.1072587443
 30
0.0
 10
15.8453430641
 20
13.0959686439
 30
0.0
 10
15.8504201532
 20
13.0836181304
 30
0.0
 10
15.8531101708
 20
13.0705895475
 30
0.0
 10
15.853223538
 20
13.0573368349
 30
0.0
 10
15.8515183147
 20
13.0486633062
 30
0.0
 10
15.8502262961
 20
13.0444823328
 30
0.0
  0
SPLINE
  5
3DC
100
AcDbEntity
  8
0
100
AcDbSpline
 62
7
  6
CONTINUOUS
 70
0
 71
3
 72
26
 73
22
 74
0
 42
0.0000001
 43
0.0000001
 44
0.0000000001
 40
0.0
 40
0.0
 40
0.0
 40
0.0
 40
0.0620385306
 40
0.0930946986
 40
0.1241475344
 40
0.1861601722
 40
0.2481801794
 40
0.2792562461
 40
0.3103471582
 40
0.341474081
 40
0.372648043
 40
0.4350643286
 40
0.4977711602
 40
0.5607700099
 40
0.6239800215
 40
0.6872317828
 40
0.7503293117
 40
0.8131396874
 40
0.8756420893
 40
0.9379143379
 40
1.0
 40
1.0
 40
1.0
 40
1.0
 10
15.8502262961
 20
13.0444823328
 30
0.0
 10
15.8489352584
 20
13.0403045332
 30
0.0
 10
15.846320518
 20
13.0342155351
 30
0.0
 10
15.84162148
 20
13.0268189369
 30
0.0
 10
15.8361428032
 20
13.0199782275
 30
0.0
 10
15.8279563912
 20
13.0125968051
 30
0.0
 10
15.8183641477
 20
13.0071659512
 30
0.0
 10
15.8101494676
 20
13.0041046079
 30
0.0
 10
15.8037673053
 20
13.0024692352
 30
0.0
 10
15.7972444686
 20
13.0015012039
 30
0.0
 10
15.7884509455
 20
13.0010895688
 30
0.0
 10
15.7774168869
 20
13.0022337334
 30
0.0
 10
15.7646524896
 20
13.0060899368
 30
0.0
 10
15.7527540044
 20
13.0122262609
 30
0.0
 10
15.7420898972
 20
13.0203762942
 30
0.0
 10
15.7329941578
 20
13.0302554158
 30
0.0
 10
15.7257723698
 20
13.0415455162
 30
0.0
 10
15.7206952807
 20
13.0538960297
 30
0.0
 10
15.7180052631
 20
13.0669246127
 30
0.0
 10
15.717891896
 20
13.0801773252
 30
0.0
 10
15.7195971193
 20
13.0888508539
 30
0.0
 10
15.7208891378
 20
13.0930318274
 30
0.0
  0
SPLINE
  5
3DD
100
AcDbEntity
  8
0
100
AcDbSpline
 62
7
  6
CONTINUOUS
 70
0
 71
3
 72
11
 73
7
 74
0
 42
0.0000001
 43
0.0000001
 44
0.0000000001
 40
0.0
 40
0.0
 40
0.0
 40
0.0
 40
0.2539723293
 40
0.5087111367
 40
0.7589872967
 40
1.0
 40
1.0
 40
1.0
 40
1.0
 10
13.7153566638
 20
12.0879609057
 30
0.0
 10
13.7241035239
 20
12.0943469658
 30
0.0
 10
13.7426472505
 20
12.1057918505
 30
0.0
 10
13.7725260905
 20
12.1185351815
 30
0.0
 10
13.8034571487
 20
12.1264763138
 30
0.0
 10
13.8244392304
 20
12.1283818284
 30
0.0
 10
13.834716619
 20
12.1283818284
 30
0.0
  0
SPLINE
  5
3DE
100
AcDbEntity
  8
0
100
AcDbSpline
 62
7
  6
CONTINUOUS
 70
0
 71
3
 72
15
 73
11
 74
0
 42
0.0000001
 43
0.0000001
 44
0.0000000001
 40
0.0
 40
0.0
 40
0.0
 40
0.0
 40
0.1127926856
 40
0.2270875388
 40
0.3442500576
 40
0.4653783805
 40
0.5912302846
 40
0.7222873532
 40
0.8587039085
 40
1.0
 40
1.0
 40
1.0
 40
1.0
 10
13.5565327858
 20
12.1411186872
 30
0.0
 10
13.5585489611
 20
12.1370088574
 30
0.0
 10
13.5633211428
 20
12.1290637107
 30
0.0
 10
13.572449892
 20
12.1184077261
 30
0.0
 10
13.5834235761
 20
12.1091318801
 30
0.0
 10
13.5960626053
 20
12.1013719986
 30
0.0
 10
13.6101750175
 20
12.0952346154
 30
0.0
 10
13.6255530989
 20
12.0907993937
 30
0.0
 10
13.6419631249
 20
12.0881343275
 30
0.0
 10
13.6532444728
 20
12.08755794
 30
0.0
 10
13.6589790305
 20
12.08755794
 30
0.0
  0
SPLINE
  5
3DF
100
AcDbEntity
  8
0
100
AcDbSpline
 62
7
  6
CONTINUOUS
 70
0
 71
3
 72
15
 73
11
 74
0
 42
0.0000001
 43
0.0000001
 44
0.0000000001
 40
0.0
 40
0.0
 40
0.0
 40
0.0
 40
0.1127926856
 40
0.2270875388
 40
0.3442500576
 40
0.4653783805
 40
0.5912302846
 40
0.7222873532
 40
0.8587039085
 40
1.0
 40
1.0
 40
1.0
 40
1.0
 10
16.6219389064
 20
12.1411186872
 30
0.0
 10
16.6239550817
 20
12.1370088574
 30
0.0
 10
16.6287272635
 20
12.1290637107
 30
0.0
 10
16.6378560127
 20
12.1184077261
 30
0.0
 10
16.6488296968
 20
12.1091318801
 30
0.0
 10
16.661468726
 20
12.1013719986
 30
0.0
 10
16.6755811382
 20
12.0952346154
 30
0.0
 10
16.6909592195
 20
12.0907993937
 30
0.0
 10
16.7073692456
 20
12.0881343275
 30
0.0
 10
16.7186505935
 20
12.08755794
 30
0.0
 10
16.7243851511
 20
12.08755794
 30
0.0
  0
SPLINE
  5
3E0
100
AcDbEntity
  8
0
100
AcDbSpline
 62
7
  6
CONTINUOUS
 70
0
 71
3
 72
9
 73
5
 74
0
 42
0.0000001
 43
0.0000001
 44
0.0000000001
 40
0.0
 40
0.0
 40
0.0
 40
0.0
 40
0.2541731512
 40
1.0
 40
1.0
 40
1.0
 40
1.0
 10
15.9040132718
 20
12.0373945349
 30
0.0
 10
15.9059905672
 20
12.0338470502
 30
0.0
 10
15.9136220217
 20
12.0198084075
 30
0.0
 10
15.9206504451
 20
12.0054401854
 30
0.0
 10
15.9255051212
 20
11.9945565807
 30
0.0
  0
SPLINE
  5
3E1
100
AcDbEntity
  8
0
100
AcDbSpline
 62
7
  6
CONTINUOUS
 70
0
 71
3
 72
9
 73
5
 74
0
 42
0.0000001
 43
0.0000001
 44
0.0000000001
 40
0.0
 40
0.0
 40
0.0
 40
0.0
 40
0.517113296
 40
1.0
 40
1.0
 40
1.0
 40
1.0
 10
14.3753524052
 20
11.6708894698
 30
0.0
 10
14.3746880464
 20
11.6727422663
 30
0.0
 10
14.3737877235
 20
11.6764844508
 30
0.0
 10
14.3739234711
 20
11.6803492265
 30
0.0
 10
14.3742696562
 20
11.6821543588
 30
0.0
  0
SPLINE
  5
3E2
100
AcDbEntity
  8
0
100
AcDbSpline
 62
7
  6
CONTINUOUS
 70
0
 71
3
 72
11
 73
7
 74
0
 42
0.0000001
 43
0.0000001
 44
0.0000000001
 40
0.0
 40
0.0
 40
0.0
 40
0.0
 40
0.2268568071
 40
0.4649846672
 40
0.722155385
 40
1.0
 40
1.0
 40
1.0
 40
1.0
 10
13.3814656233
 20
11.3252963877
 30
0.0
 10
13.3824368857
 20
11.3233176266
 30
0.0
 10
13.3851536172
 20
11.3195830075
 30
0.0
 10
13.3909616176
 20
11.3154633136
 30
0.0
 10
13.3981321433
 20
11.3129611755
 30
0.0
 10
13.4033532171
 20
11.3124419094
 30
0.0
 10
13.4060529248
 20
11.3124419094
 30
0.0
  0
SPLINE
  5
3E3
100
AcDbEntity
  8
0
100
AcDbSpline
 62
7
  6
CONTINUOUS
 70
0
 71
3
 72
34
 73
30
 74
0
 42
0.0000001
 43
0.0000001
 44
0.0000000001
 40
0.0
 40
0.0
 40
0.0
 40
0.0
 40
0.0265218085
 40
0.0543742585
 40
0.0835432635
 40
0.1140019114
 40
0.1457060197
 40
0.1785796729
 40
0.2473774009
 40
0.3194092939
 40
0.3934616887
 40
0.4682037628
 40
0.5422671794
 40
0.5786360903
 40
0.614344112
 40
0.649242769
 40
0.6831981902
 40
0.716088713
 40
0.7478148763
 40
0.7782956918
 40
0.8074793012
 40
0.8353423759
 40
0.8618975751
 40
0.8871987504
 40
0.9113428232
 40
0.9344780273
 40
0.9567986503
 40
0.9785472904
 40
1.0
 40
1.0
 40
1.0
 40
1.0
 10
15.456829889
 20
11.7669634645
 30
0.0
 10
15.4525250572
 20
11.7757357893
 30
0.0
 10
15.4427826744
 20
11.7932813049
 30
0.0
 10
15.4254859491
 20
11.8187841421
 30
0.0
 10
15.4052626899
 20
11.8439238589
 30
0.0
 10
15.3822634818
 20
11.8685257548
 30
0.0
 10
15.3566408193
 20
11.8924286651
 30
0.0
 10
15.3186386011
 20
11.923626461
 30
0.0
 10
15.2656121246
 20
11.9597242956
 30
0.0
 10
15.1957339752
 20
11.9972136478
 30
0.0
 10
15.1205054909
 20
12.028534285
 30
0.0
 10
15.0419537538
 20
12.0528405373
 30
0.0
 10
14.9750533556
 20
12.0668005873
 30
0.0
 10
14.9216563907
 20
12.0738680651
 30
0.0
 10
14.88235281
 20
12.0770515509
 30
0.0
 10
14.8438242139
 20
12.0781200659
 30
0.0
 10
14.8063315499
 20
12.0770759552
 30
0.0
 10
14.7701289124
 20
12.0739155811
 30
0.0
 10
14.7354609785
 20
12.0686690234
 30
0.0
 10
14.7025622634
 20
12.0613630168
 30
0.0
 10
14.6716543559
 20
12.0520492802
 30
0.0
 10
14.6429452274
 20
12.0407863859
 30
0.0
 10
14.6166306965
 20
12.0276425243
 30
0.0
 10
14.5928866621
 20
12.0127059995
 30
0.0
 10
14.5718843985
 20
11.9960601359
 30
0.0
 10
14.553766569
 20
11.9778206332
 30
0.0
 10
14.5386799794
 20
11.9580929415
 30
0.0
 10
14.5267362039
 20
11.9370267427
 30
0.0
 10
14.5209234534
 20
11.9221385412
 30
0.0
 10
14.5185905535
 20
11.9145866628
 30
0.0
  0
SPLINE
  5
3E4
100
AcDbEntity
  8
0
100
AcDbSpline
 62
7
  6
CONTINUOUS
 70
0
 71
3
 72
15
 73
11
 74
0
 42
0.0000001
 43
0.0000001
 44
0.0000000001
 40
0.0
 40
0.0
 40
0.0
 40
0.0
 40
0.1380796839
 40
0.2714576078
 40
0.4004237008
 40
0.5254306361
 40
0.6471187968
 40
0.7662255324
 40
0.8835646562
 40
1.0
 40
1.0
 40
1.0
 40
1.0
 10
14.3198952245
 20
11.7669634645
 30
0.0
 10
14.3153614689
 20
11.7762022869
 30
0.0
 10
14.3071051918
 20
11.7946985489
 30
0.0
 10
14.2971227606
 20
11.8228577932
 30
0.0
 10
14.289812017
 20
11.8508256271
 30
0.0
 10
14.2852175887
 20
11.8784861863
 30
0.0
 10
14.2833521223
 20
11.9057304199
 30
0.0
 10
14.2842339063
 20
11.932456384
 30
0.0
 10
14.2878579195
 20
11.9585538543
 30
0.0
 10
14.2921004418
 20
11.9754943761
 30
0.0
 10
14.2946624213
 20
11.9837856876
 30
0.0
  0
SPLINE
  5
3E5
100
AcDbEntity
  8
0
100
AcDbSpline
 62
7
  6
CONTINUOUS
 70
0
 71
3
 72
32
 73
28
 74
0
 42
0.0000001
 43
0.0000001
 44
0.0000000001
 40
0.0
 40
0.0
 40
0.0
 40
0.0
 40
0.0211804976
 40
0.0426362825
 40
0.0645227301
 40
0.0869905845
 40
0.1101761589
 40
0.1341901365
 40
0.1849733287
 40
0.2118809082
 40
0.2398178409
 40
0.2687826701
 40
0.2987585725
 40
0.3297135232
 40
0.3616020851
 40
0.3943685097
 40
0.4279453512
 40
0.4622582917
 40
0.4972239036
 40
0.5687388359
 40
0.6417359312
 40
0.7153920654
 40
0.7888636562
 40
0.8613080617
 40
0.9319316792
 40
0.9663390347
 40
1.0
 40
1.0
 40
1.0
 40
1.0
 10
13.9732958479
 20
12.3711213867
 30
0.0
 10
13.978261293
 20
12.3847346275
 30
0.0
 10
13.9898449711
 20
12.4115863068
 30
0.0
 10
14.0118086308
 20
12.4499762141
 30
0.0
 10
14.0383392658
 20
12.4864602619
 30
0.0
 10
14.0692977976
 20
12.5208673931
 30
0.0
 10
14.1045450024
 20
12.5530601919
 30
0.0
 10
14.1580264354
 20
12.5936003395
 30
0.0
 10
14.218749862
 20
12.6282805415
 30
0.0
 10
14.2850042629
 20
12.657217083
 30
0.0
 10
14.3390240339
 20
12.6765765267
 30
0.0
 10
14.3961569711
 20
12.6930904105
 30
0.0
 10
14.4561706522
 20
12.7066888723
 30
0.0
 10
14.5188070365
 20
12.717316619
 30
0.0
 10
14.5838008401
 20
12.7249319042
 30
0.0
 10
14.6508756756
 20
12.7294972962
 30
0.0
 10
14.7197458873
 20
12.7310021524
 30
0.0
 10
14.7901191147
 20
12.7294309111
 30
0.0
 10
14.8862649179
 20
12.7232081346
 30
0.0
 10
15.0082165532
 20
12.7077174162
 30
0.0
 10
15.1545267935
 20
12.6775004718
 30
0.0
 10
15.2994461964
 20
12.6360220957
 30
0.0
 10
15.440515371
 20
12.5839827613
 30
0.0
 10
15.5753493106
 20
12.5222683999
 30
0.0
 10
15.6815577641
 20
12.4631186238
 30
0.0
 10
15.7613675832
 20
12.4117560735
 30
0.0
 10
15.799403069
 20
12.3848537763
 30
0.0
 10
15.8178897299
 20
12.3711213867
 30
0.0
  0
SPLINE
  5
3E6
100
AcDbEntity
  8
0
100
AcDbSpline
 62
7
  6
CONTINUOUS
 70
0
 71
3
 72
9
 73
5
 74
0
 42
0.0000001
 43
0.0000001
 44
0.0000000001
 40
0.0
 40
0.0
 40
0.0
 40
0.0
 40
0.2442649467
 40
1.0
 40
1.0
 40
1.0
 40
1.0
 10
14.4806561103
 20
12.4183896505
 30
0.0
 10
14.484855952
 20
12.4207381706
 30
0.0
 10
14.5022013803
 20
12.4300803168
 30
0.0
 10
14.5201201822
 20
12.4383477997
 30
0.0
 10
14.5338802664
 20
12.4440310617
 30
0.0
  0
SPLINE
  5
3E7
100
AcDbEntity
  8
0
100
AcDbSpline
 62
7
  6
CONTINUOUS
 70
0
 71
3
 72
14
 73
10
 74
0
 42
0.0000001
 43
0.0000001
 44
0.0000000001
 40
0.0
 40
0.0
 40
0.0
 40
0.0
 40
0.1164602241
 40
0.2338170881
 40
0.352943187
 40
0.4746607151
 40
0.5997119527
 40
0.7287282144
 40
1.0
 40
1.0
 40
1.0
 40
1.0
 10
14.5185905535
 20
11.9145866628
 30
0.0
 10
14.5168466365
 20
11.9089413934
 30
0.0
 10
14.5139568939
 20
11.8974082391
 30
0.0
 10
14.5114872208
 20
11.8796406349
 30
0.0
 10
14.5108891388
 20
11.8614445865
 30
0.0
 10
14.5121578104
 20
11.8428949173
 30
0.0
 10
14.5152872835
 20
11.8240586408
 30
0.0
 10
14.5220368305
 20
11.7982468384
 30
0.0
 10
14.5297058346
 20
11.7793186825
 30
0.0
 10
14.535768895
 20
11.7669634645
 30
0.0
  0
SPLINE
  5
3E8
100
AcDbEntity
  8
0
100
AcDbSpline
 62
7
  6
CONTINUOUS
 70
0
 71
3
 72
15
 73
11
 74
0
 42
0.0000001
 43
0.0000001
 44
0.0000000001
 40
0.0
 40
0.0
 40
0.0
 40
0.0
 40
0.1127926856
 40
0.2270875388
 40
0.3442500576
 40
0.4653783805
 40
0.5912302846
 40
0.7222873532
 40
0.8587039085
 40
1.0
 40
1.0
 40
1.0
 40
1.0
 10
17.1759171045
 20
12.2787868521
 30
0.0
 10
17.1739009292
 20
12.2828966819
 30
0.0
 10
17.1691287475
 20
12.2908418286
 30
0.0
 10
17.1599999983
 20
12.3014978131
 30
0.0
 10
17.1490263142
 20
12.3107736591
 30
0.0
 10
17.136387285
 20
12.3185335407
 30
0.0
 10
17.1222748727
 20
12.3246709239
 30
0.0
 10
17.1068967914
 20
12.3291061456
 30
0.0
 10
17.0904867654
 20
12.3317712118
 30
0.0
 10
17.0792054175
 20
12.3323475993
 30
0.0
 10
17.0734708598
 20
12.3323475993
 30
0.0
  0
SPLINE
  5
3E9
100
AcDbEntity
  8
0
100
AcDbSpline
 62
7
  6
CONTINUOUS
 70
0
 71
3
 72
9
 73
5
 74
0
 42
0.0000001
 43
0.0000001
 44
0.0000000001
 40
0.0
 40
0.0
 40
0.0
 40
0.0
 40
0.2550062919
 40
1.0
 40
1.0
 40
1.0
 40
1.0
 10
14.2398769642
 20
11.9861117126
 30
0.0
 10
14.2375122708
 20
11.9903542318
 30
0.0
 10
14.2284500746
 20
12.0071073509
 30
0.0
 10
14.2202509654
 20
12.0243310035
 30
0.0
 10
14.2147110102
 20
12.0373945349
 30
0.0
  0
SPLINE
  5
3EA
100
AcDbEntity
  8
0
100
AcDbSpline
 62
7
  6
CONTINUOUS
 70
0
 71
3
 72
13
 73
9
 74
0
 42
0.0000001
 43
0.0000001
 44
0.0000000001
 40
0.0
 40
0.0
 40
0.0
 40
0.0
 40
0.2509799473
 40
0.372513676
 40
0.4931201049
 40
0.6145055631
 40
0.7387012935
 40
1.0
 40
1.0
 40
1.0
 40
1.0
 10
16.7555430106
 20
11.9538386118
 30
0.0
 10
16.7567983352
 20
11.953060647
 30
0.0
 10
16.7585357616
 20
11.9516565697
 30
0.0
 10
16.76028482
 20
11.9493265074
 30
0.0
 10
16.7612574946
 20
11.9474084339
 30
0.0
 10
16.7618754885
 20
11.9453310601
 30
0.0
 10
16.7621876431
 20
11.9423513937
 30
0.0
 10
16.7618206516
 20
11.9400605895
 30
0.0
 10
16.7613666901
 20
11.9385915696
 30
0.0
  0
SPLINE
  5
3EB
100
AcDbEntity
  8
0
100
AcDbSpline
 62
7
  6
CONTINUOUS
 70
0
 71
3
 72
15
 73
11
 74
0
 42
0.0000001
 43
0.0000001
 44
0.0000000001
 40
0.0
 40
0.0
 40
0.0
 40
0.0
 40
0.1242574412
 40
0.2531490526
 40
0.3844921408
 40
0.5159466171
 40
0.645113174
 40
0.7698281353
 40
0.8884507985
 40
1.0
 40
1.0
 40
1.0
 40
1.0
 10
13.7346247565
 20
12.3323475993
 30
0.0
 10
13.7249923888
 20
12.3323475993
 30
0.0
 10
13.7053409604
 20
12.3306734277
 30
0.0
 10
13.676268028
 20
12.3236635382
 30
0.0
 10
13.6479753873
 20
12.3123610403
 30
0.0
 10
13.6215274246
 20
12.2971991343
 30
0.0
 10
13.597911662
 20
12.2787352351
 30
0.0
 10
13.5780060081
 20
12.2576494657
 30
0.0
 10
13.5625745984
 20
12.2347198648
 30
0.0
 10
13.5554391857
 20
12.2182145154
 30
0.0
 10
13.5528861132
 20
12.2099527696
 30
0.0
  0
SPLINE
  5
3EC
100
AcDbEntity
  8
0
100
AcDbSpline
 62
7
  6
CONTINUOUS
 70
0
 71
3
 72
11
 73
7
 74
0
 42
0.0000001
 43
0.0000001
 44
0.0000000001
 40
0.0
 40
0.0
 40
0.0
 40
0.0
 40
0.2643302288
 40
0.517123541
 40
0.7609233918
 40
1.0
 40
1.0
 40
1.0
 40
1.0
 10
13.5528861132
 20
12.2099527696
 30
0.0
 10
13.5510515344
 20
12.2040160706
 30
0.0
 10
13.5483664425
 20
12.192091888
 30
0.0
 10
13.5475530332
 20
12.1741234484
 30
0.0
 10
13.5501089965
 20
12.1569082206
 30
0.0
 10
13.554057541
 20
12.1461642975
 30
0.0
 10
13.5565327858
 20
12.1411186872
 30
0.0
  0
SPLINE
  5
3ED
100
AcDbEntity
  8
0
100
AcDbSpline
 62
7
  6
CONTINUOUS
 70
0
 71
3
 72
15
 73
11
 74
0
 42
0.0000001
 43
0.0000001
 44
0.0000000001
 40
0.0
 40
0.0
 40
0.0
 40
0.0
 40
0.1096607329
 40
0.2208532693
 40
0.3355858854
 40
0.4554400301
 40
0.5815284089
 40
0.7144418895
 40
0.8542072449
 40
1.0
 40
1.0
 40
1.0
 40
1.0
 10
14.7271968089
 20
12.3020021922
 30
0.0
 10
14.7283347926
 20
12.2996841816
 30
0.0
 10
14.7310520402
 20
12.2952111947
 30
0.0
 10
14.7363159958
 20
12.2892658698
 30
0.0
 10
14.7426919617
 20
12.2841436264
 30
0.0
 10
14.7500807598
 20
12.2798939875
 30
0.0
 10
14.7583827295
 20
12.2765580748
 30
0.0
 10
14.767484028
 20
12.2741597441
 30
0.0
 10
14.7772509302
 20
12.2727248749
 30
0.0
 10
14.7839803005
 20
12.2724162168
 30
0.0
 10
14.7874134164
 20
12.2724162168
 30
0.0
  0
SPLINE
  5
3EE
100
AcDbEntity
  8
0
100
AcDbSpline
 62
7
  6
CONTINUOUS
 70
0
 71
3
 72
17
 73
13
 74
0
 42
0.0000001
 43
0.0000001
 44
0.0000000001
 40
0.0
 40
0.0
 40
0.0
 40
0.0
 40
0.1125097422
 40
0.1718133247
 40
0.2329402103
 40
0.3597098429
 40
0.4906780147
 40
0.6230300308
 40
0.753780104
 40
0.8177132775
 40
0.8802466364
 40
1.0
 40
1.0
 40
1.0
 40
1.0
 10
16.4599848755
 20
12.2099527696
 30
0.0
 10
16.4659612428
 20
12.2292923014
 30
0.0
 10
16.4787028468
 20
12.2578058514
 30
0.0
 10
16.5013199087
 20
12.2931295688
 30
0.0
 10
16.528782164
 20
12.3281939386
 30
0.0
 10
16.5701612635
 20
12.3683693833
 30
0.0
 10
16.6280443347
 20
12.4085662901
 30
0.0
 10
16.692125331
 20
12.4395560021
 30
0.0
 10
16.7487116755
 20
12.4566547913
 30
0.0
 10
16.7943834139
 20
12.4644396323
 30
0.0
 10
16.8385617067
 20
12.4681037398
 30
0.0
 10
16.8715795428
 20
12.466427827
 30
0.0
 10
16.8928636444
 20
12.4630843211
 30
0.0
  0
SPLINE
  5
3EF
100
AcDbEntity
  8
0
100
AcDbSpline
 62
7
  6
CONTINUOUS
 70
0
 71
3
 72
14
 73
10
 74
0
 42
0.0000001
 43
0.0000001
 44
0.0000000001
 40
0.0
 40
0.0
 40
0.0
 40
0.0
 40
0.2733564601
 40
0.4002757122
 40
0.5210906276
 40
0.6376748747
 40
0.7536038749
 40
0.8732908854
 40
1.0
 40
1.0
 40
1.0
 40
1.0
 10
13.9875045876
 20
12.4628163475
 30
0.0
 10
13.9848905642
 20
12.4630484215
 30
0.0
 10
13.9810534278
 20
12.4638526943
 30
0.0
 10
13.9765721388
 20
12.4661331806
 30
0.0
 10
13.9738203932
 20
12.4683418372
 30
0.0
 10
13.971758111
 20
12.4710849987
 30
0.0
 10
13.9705329666
 20
12.4742878416
 30
0.0
 10
13.9702748957
 20
12.4778013344
 30
0.0
 10
13.9707240476
 20
12.4801517519
 30
0.0
 10
13.9710832002
 20
12.4813139697
 30
0.0
  0
SPLINE
  5
3F0
100
AcDbEntity
  8
0
100
AcDbSpline
 62
7
  6
CONTINUOUS
 70
0
 71
3
 72
15
 73
11
 74
0
 42
0.0000001
 43
0.0000001
 44
0.0000000001
 40
0.0
 40
0.0
 40
0.0
 40
0.0
 40
0.1242574412
 40
0.2531490526
 40
0.3844921408
 40
0.5159466171
 40
0.645113174
 40
0.7698281353
 40
0.8884507985
 40
1.0
 40
1.0
 40
1.0
 40
1.0
 10
16.8000308772
 20
12.3323475993
 30
0.0
 10
16.7903985095
 20
12.3323475993
 30
0.0
 10
16.7707470811
 20
12.3306734277
 30
0.0
 10
16.7416741486
 20
12.3236635382
 30
0.0
 10
16.7133815079
 20
12.3123610403
 30
0.0
 10
16.6869335453
 20
12.2971991343
 30
0.0
 10
16.6633177827
 20
12.2787352351
 30
0.0
 10
16.6434121288
 20
12.2576494657
 30
0.0
 10
16.627980719
 20
12.2347198648
 30
0.0
 10
16.6208453064
 20
12.2182145154
 30
0.0
 10
16.6182922339
 20
12.2099527696
 30
0.0
  0
SPLINE
  5
3F1
100
AcDbEntity
  8
0
100
AcDbSpline
 62
7
  6
CONTINUOUS
 70
0
 71
3
 72
11
 73
7
 74
0
 42
0.0000001
 43
0.0000001
 44
0.0000000001
 40
0.0
 40
0.0
 40
0.0
 40
0.0
 40
0.2643302288
 40
0.517123541
 40
0.7609233918
 40
1.0
 40
1.0
 40
1.0
 40
1.0
 10
16.6182922339
 20
12.2099527696
 30
0.0
 10
16.6164576551
 20
12.2040160706
 30
0.0
 10
16.6137725632
 20
12.192091888
 30
0.0
 10
16.6129591539
 20
12.1741234484
 30
0.0
 10
16.6155151171
 20
12.1569082206
 30
0.0
 10
16.6194636617
 20
12.1461642975
 30
0.0
 10
16.6219389064
 20
12.1411186872
 30
0.0
  0
SPLINE
  5
3F2
100
AcDbEntity
  8
0
100
AcDbSpline
 62
7
  6
CONTINUOUS
 70
0
 71
3
 72
9
 73
5
 74
0
 42
0.0000001
 43
0.0000001
 44
0.0000000001
 40
0.0
 40
0.0
 40
0.0
 40
0.0
 40
0.4851234331
 40
1.0
 40
1.0
 40
1.0
 40
1.0
 10
15.8353277299
 20
12.9752165237
 30
0.0
 10
15.8375597957
 20
12.9824394914
 30
0.0
 10
15.8399505657
 20
12.9980671044
 30
0.0
 10
15.8382738452
 20
13.0137274425
 30
0.0
 10
15.8365490332
 20
13.0215635091
 30
0.0
  0
SPLINE
  5
3F3
100
AcDbEntity
  8
0
100
AcDbSpline
 62
7
  6
CONTINUOUS
 70
0
 71
3
 72
13
 73
9
 74
0
 42
0.0000001
 43
0.0000001
 44
0.0000000001
 40
0.0
 40
0.0
 40
0.0
 40
0.0
 40
0.1133126571
 40
0.2360074181
 40
0.3651763149
 40
0.497271991
 40
0.7572230313
 40
1.0
 40
1.0
 40
1.0
 40
1.0
 10
16.929080596
 20
12.4813139681
 30
0.0
 10
16.9285949785
 20
12.4797425077
 30
0.0
 10
16.9270889672
 20
12.4766128734
 30
0.0
 10
16.923703757
 20
12.4724839632
 30
0.0
 10
16.9193545465
 20
12.4689450098
 30
0.0
 10
16.9127288769
 20
12.4652330144
 30
0.0
 10
16.9037633686
 20
12.462595682
 30
0.0
 10
16.8963449675
 20
12.4625374475
 30
0.0
 10
16.8928636444
 20
12.4630843211
 30
0.0
  0
SPLINE
  5
3F4
100
AcDbEntity
  8
0
100
AcDbSpline
 62
7
  6
CONTINUOUS
 70
0
 71
3
 72
9
 73
5
 74
0
 42
0.0000001
 43
0.0000001
 44
0.0000000001
 40
0.0
 40
0.0
 40
0.0
 40
0.0
 40
0.2554579307
 40
1.0
 40
1.0
 40
1.0
 40
1.0
 10
15.7379084693
 20
13.1193187483
 30
0.0
 10
15.7360730055
 20
13.1197050656
 30
0.0
 10
15.7288506595
 20
13.1210303057
 30
0.0
 10
15.7214831747
 20
13.1215961406
 30
0.0
 10
15.7160168735
 20
13.1215271326
 30
0.0
  0
SPLINE
  5
3F5
100
AcDbEntity
  8
0
100
AcDbSpline
 62
7
  6
CONTINUOUS
 70
0
 71
3
 72
13
 73
9
 74
0
 42
0.0000001
 43
0.0000001
 44
0.0000000001
 40
0.0
 40
0.0
 40
0.0
 40
0.0
 40
0.2618983684
 40
0.3891501023
 40
0.5140401436
 40
0.6370346741
 40
0.7586806872
 40
1.0
 40
1.0
 40
1.0
 40
1.0
 10
15.7160168735
 20
13.1215271326
 30
0.0
 10
15.710354967
 20
13.1214556552
 30
0.0
 10
15.7019161663
 20
13.1205637306
 30
0.0
 10
15.6911611629
 20
13.117702023
 30
0.0
 10
15.6835767549
 20
13.1147813357
 30
0.0
 10
15.6764671687
 20
13.1110975446
 30
0.0
 10
15.667730156
 20
13.1052339586
 30
0.0
 10
15.6620009488
 20
13.0997364086
 30
0.0
 10
15.6586805603
 20
13.0957119099
 30
0.0
  0
SPLINE
  5
3F6
100
AcDbEntity
  8
0
100
AcDbSpline
 62
7
  6
CONTINUOUS
 70
0
 71
3
 72
9
 73
5
 74
0
 42
0.0000001
 43
0.0000001
 44
0.0000000001
 40
0.0
 40
0.0
 40
0.0
 40
0.0
 40
0.24864796
 40
1.0
 40
1.0
 40
1.0
 40
1.0
 10
15.6586805603
 20
13.0957119099
 30
0.0
 10
15.657867776
 20
13.0947267693
 30
0.0
 10
15.6547111845
 20
13.0906731786
 30
0.0
 10
15.6520190286
 20
13.0862605683
 30
0.0
 10
15.6502815002
 20
13.0828145978
 30
0.0
  0
SPLINE
  5
3F7
100
AcDbEntity
  8
0
100
AcDbSpline
 62
7
  6
CONTINUOUS
 70
0
 71
3
 72
9
 73
5
 74
0
 42
0.0000001
 43
0.0000001
 44
0.0000000001
 40
0.0
 40
0.0
 40
0.0
 40
0.0
 40
0.2549779313
 40
1.0
 40
1.0
 40
1.0
 40
1.0
 10
15.7099171247
 20
11.5052614601
 30
0.0
 10
15.7145429715
 20
11.5072175528
 30
0.0
 10
15.7325934045
 20
11.5151033253
 30
0.0
 10
15.7502661165
 20
11.523861019
 30
0.0
 10
15.7631412808
 20
11.5309028713
 30
0.0
  0
SPLINE
  5
3F8
100
AcDbEntity
  8
0
100
AcDbSpline
 62
7
  6
CONTINUOUS
 70
0
 71
3
 72
13
 73
9
 74
0
 42
0.0000001
 43
0.0000001
 44
0.0000000001
 40
0.0
 40
0.0
 40
0.0
 40
0.0
 40
0.2290934779
 40
0.3494776176
 40
0.4735784692
 40
0.7316563192
 40
0.8650783573
 40
1.0
 40
1.0
 40
1.0
 40
1.0
 10
15.6456747534
 20
13.0713668424
 30
0.0
 10
15.643304256
 20
13.0636959099
 30
0.0
 10
15.6415347228
 20
13.0513520642
 30
0.0
 10
15.6425089574
 20
13.034756305
 30
0.0
 10
15.6457562714
 20
13.0174020022
 30
0.0
 10
15.6522984376
 20
13.0003574083
 30
0.0
 10
15.6616004585
 20
12.9844004675
 30
0.0
 10
15.6671708364
 20
12.9767959195
 30
0.0
 10
15.6701591215
 20
12.9731313928
 30
0.0
  0
SPLINE
  5
3F9
100
AcDbEntity
  8
0
100
AcDbSpline
 62
7
  6
CONTINUOUS
 70
0
 71
3
 72
10
 73
6
 74
0
 42
0.0000001
 43
0.0000001
 44
0.0000000001
 40
0.0
 40
0.0
 40
0.0
 40
0.0
 40
0.5098811304
 40
0.7572951617
 40
1.0
 40
1.0
 40
1.0
 40
1.0
 10
15.7649856098
 20
12.9250562335
 30
0.0
 10
15.7709196902
 20
12.9251311469
 30
0.0
 10
15.7797646679
 20
12.9261054532
 30
0.0
 10
15.790988946
 20
12.9292475111
 30
0.0
 10
15.796287611
 20
12.9314033369
 30
0.0
 10
15.7988373489
 20
12.9326193518
 30
0.0
  0
SPLINE
  5
3FA
100
AcDbEntity
  8
0
100
AcDbSpline
 62
7
  6
CONTINUOUS
 70
0
 71
3
 72
11
 73
7
 74
0
 42
0.0000001
 43
0.0000001
 44
0.0000000001
 40
0.0
 40
0.0
 40
0.0
 40
0.0
 40
0.2494055366
 40
0.4966831323
 40
0.745863344
 40
1.0
 40
1.0
 40
1.0
 40
1.0
 10
15.8007958718
 20
12.9335901474
 30
0.0
 10
15.8048968431
 20
12.9357012904
 30
0.0
 10
15.8126777794
 20
12.940717487
 30
0.0
 10
15.8225855319
 20
12.9504493611
 30
0.0
 10
15.8303557631
 20
12.9620627199
 30
0.0
 10
15.8339400768
 20
12.9707260766
 30
0.0
 10
15.8353277299
 20
12.9752165237
 30
0.0
  0
SPLINE
  5
3FB
100
AcDbEntity
  8
0
100
AcDbSpline
 62
7
  6
CONTINUOUS
 70
0
 71
3
 72
15
 73
11
 74
0
 42
0.0000001
 43
0.0000001
 44
0.0000000001
 40
0.0
 40
0.0
 40
0.0
 40
0.0
 40
0.1164355757
 40
0.2337743067
 40
0.352880517
 40
0.4745683052
 40
0.599575201
 40
0.7285416981
 40
0.8619200682
 40
1.0
 40
1.0
 40
1.0
 40
1.0
 10
15.7735822914
 20
11.7949308381
 30
0.0
 10
15.776144297
 20
11.8032221623
 30
0.0
 10
15.7803868212
 20
11.8201626802
 30
0.0
 10
15.7840107446
 20
11.8462601203
 30
0.0
 10
15.7848924575
 20
11.8729859959
 30
0.0
 10
15.7830270056
 20
11.9002301669
 30
0.0
 10
15.7784325807
 20
11.927890736
 30
0.0
 10
15.7711217879
 20
11.9558586282
 30
0.0
 10
15.7611393418
 20
11.9840179624
 30
0.0
 10
15.7528830505
 20
12.002514282
 30
0.0
 10
15.7483492855
 20
12.0117531237
 30
0.0
  0
SPLINE
  5
3FC
100
AcDbEntity
  8
0
100
AcDbSpline
 62
7
  6
CONTINUOUS
 70
0
 71
3
 72
40
 73
36
 74
0
 42
0.0000001
 43
0.0000001
 44
0.0000000001
 40
0.0
 40
0.0
 40
0.0
 40
0.0
 40
0.0214495624
 40
0.043194864
 40
0.0655134518
 40
0.0886454612
 40
0.1005850254
 40
0.1127973322
 40
0.1380949975
 40
0.1646477617
 40
0.1925072459
 40
0.2216876277
 40
0.2521647731
 40
0.2838869185
 40
0.3167734893
 40
0.3507243756
 40
0.3856186035
 40
0.4213219275
 40
0.457685936
 40
0.4945539611
 40
0.5317611019
 40
0.5691384946
 40
0.6065145771
 40
0.6437177976
 40
0.6805793859
 40
0.716934463
 40
0.7526261383
 40
0.7875059107
 40
0.8214406041
 40
0.8543100392
 40
0.8860125448
 40
0.916467177
 40
0.9456293358
 40
0.9734771848
 40
1.0
 40
1.0
 40
1.0
 40
1.0
 10
14.2946624213
 20
11.9837856876
 30
0.0
 10
14.2980895931
 20
11.9948770135
 30
0.0
 10
14.3066313358
 20
12.0167412527
 30
0.0
 10
14.3241668455
 20
12.047686584
 30
0.0
 10
14.3463312815
 20
12.0766548011
 30
0.0
 10
14.3682744227
 20
12.0987566763
 30
0.0
 10
14.3878450013
 20
12.1152628019
 30
0.0
 10
14.4092593335
 20
12.1313363191
 30
0.0
 10
14.438661238
 20
12.1498401546
 30
0.0
 10
14.4773119855
 20
12.1691383807
 30
0.0
 10
14.519477832
 20
12.1856854692
 30
0.0
 10
14.5648748902
 20
12.1993621306
 30
0.0
 10
14.6131947963
 20
12.2100940276
 30
0.0
 10
14.6641135199
 20
12.2177996727
 30
0.0
 10
14.7172860717
 20
12.2224405431
 30
0.0
 10
14.7723531891
 20
12.2239751694
 30
0.0
 10
14.8289419527
 20
12.2224046037
 30
0.0
 10
14.8866676958
 20
12.2177293808
 30
0.0
 10
14.9451395321
 20
12.2099915942
 30
0.0
 10
15.0039583859
 20
12.1992339977
 30
0.0
 10
15.0627261988
 20
12.1855394746
 30
0.0
 10
15.1210407607
 20
12.1689916501
 30
0.0
 10
15.1785079551
 20
12.1497125606
 30
0.0
 10
15.234733647
 20
12.1278240663
 30
0.0
 10
15.2893387065
 20
12.1034842947
 30
0.0
 10
15.3419476075
 20
12.0768495392
 30
0.0
 10
15.3922068419
 20
12.0481104581
 30
0.0
 10
15.4397703574
 20
12.0174530092
 30
0.0
 10
15.4843206763
 20
11.985093001
 30
0.0
 10
15.5255492534
 20
11.9512402931
 30
0.0
 10
15.5631836057
 20
11.9161339286
 30
0.0
 10
15.5969627619
 20
11.8799994967
 30
0.0
 10
15.6266656361
 20
11.8430788644
 30
0.0
 10
15.6520711781
 20
11.8056221179
 30
0.0
 10
15.6663798113
 20
11.7798499082
 30
0.0
 10
15.6727035594
 20
11.7669634645
 30
0.0
  0
SPLINE
  5
3FD
100
AcDbEntity
  8
0
100
AcDbSpline
 62
7
  6
CONTINUOUS
 70
0
 71
3
 72
12
 73
8
 74
0
 42
0.0000001
 43
0.0000001
 44
0.0000000001
 40
0.0
 40
0.0
 40
0.0
 40
0.0
 40
0.2603869291
 40
0.5175008696
 40
0.6430291505
 40
0.7656695702
 40
1.0
 40
1.0
 40
1.0
 40
1.0
 10
15.6701591215
 20
12.9731313928
 30
0.0
 10
15.676173928
 20
12.9657554504
 30
0.0
 10
15.6896784657
 20
12.952294491
 30
0.0
 10
15.7095051973
 20
12.9393392645
 30
0.0
 10
15.7264387127
 20
12.931872004
 30
0.0
 10
15.7432948797
 20
12.9266113447
 30
0.0
 10
15.7564212112
 20
12.9249481144
 30
0.0
 10
15.7649856098
 20
12.9250562335
 30
0.0
  0
SPLINE
  5
3FE
100
AcDbEntity
  8
0
100
AcDbSpline
 62
7
  6
CONTINUOUS
 70
0
 71
3
 72
9
 73
5
 74
0
 42
0.0000001
 43
0.0000001
 44
0.0000000001
 40
0.0
 40
0.0
 40
0.0
 40
0.0
 40
0.2442932085
 40
1.0
 40
1.0
 40
1.0
 40
1.0
 10
15.8022025295
 20
11.9861117126
 30
0.0
 10
15.8004287913
 20
11.9904139207
 30
0.0
 10
15.7928704285
 20
12.0079012627
 30
0.0
 10
15.7841573794
 20
12.0248837212
 30
0.0
 10
15.7770365755
 20
12.0373945349
 30
0.0
  0
SPLINE
  5
3FF
100
AcDbEntity
  8
0
100
AcDbSpline
 62
7
  6
CONTINUOUS
 70
0
 71
3
 72
9
 73
5
 74
0
 42
0.0000001
 43
0.0000001
 44
0.0000000001
 40
0.0
 40
0.0
 40
0.0
 40
0.0
 40
0.2545316169
 40
1.0
 40
1.0
 40
1.0
 40
1.0
 10
15.7871427587
 20
12.0373963903
 30
0.0
 10
15.7888887904
 20
12.034121705
 30
0.0
 10
15.7955977763
 20
12.0211766043
 30
0.0
 10
15.8016906859
 20
12.0079100854
 30
0.0
 10
15.8058335243
 20
11.9978616162
 30
0.0
  0
SPLINE
  5
400
100
AcDbEntity
  8
0
100
AcDbSpline
 62
7
  6
CONTINUOUS
 70
0
 71
3
 72
11
 73
7
 74
0
 42
0.0000001
 43
0.0000001
 44
0.0000000001
 40
0.0
 40
0.0
 40
0.0
 40
0.0
 40
0.2744268666
 40
0.5313444685
 40
0.7716632563
 40
1.0
 40
1.0
 40
1.0
 40
1.0
 10
14.8327029127
 20
12.418750906
 30
0.0
 10
14.8380713444
 20
12.4185913141
 30
0.0
 10
14.8484716915
 20
12.4173906172
 30
0.0
 10
14.862938823
 20
12.4126739453
 30
0.0
 10
14.8751962604
 20
12.4052373892
 30
0.0
 10
14.8816295031
 20
12.3985103911
 30
0.0
 10
14.8842233945
 20
12.3948714804
 30
0.0
  0
SPLINE
  5
401
100
AcDbEntity
  8
0
100
AcDbSpline
 62
7
  6
CONTINUOUS
 70
0
 71
3
 72
18
 73
14
 74
0
 42
0.0000001
 43
0.0000001
 44
0.0000000001
 40
0.0
 40
0.0
 40
0.0
 40
0.0
 40
0.0505307754
 40
0.1023510365
 40
0.1560138403
 40
0.2119174641
 40
0.3308427409
 40
0.4590550065
 40
0.5940621013
 40
0.7320357081
 40
0.868684856
 40
0.9353196938
 40
1.0
 40
1.0
 40
1.0
 40
1.0
 10
14.8905524833
 20
12.3823370854
 30
0.0
 10
14.891419308
 20
12.3796861382
 30
0.0
 10
14.8926928712
 20
12.3741469129
 30
0.0
 10
14.8931632703
 20
12.365511049
 30
0.0
 10
14.8922148734
 20
12.3566167711
 30
0.0
 10
14.8890185063
 20
12.3443762281
 30
0.0
 10
14.8814559971
 20
12.3292364579
 30
0.0
 10
14.8678889698
 20
12.31288855
 30
0.0
 10
14.8505240544
 20
12.2989228432
 30
0.0
 10
14.8304743008
 20
12.2882087624
 30
0.0
 10
14.8123946381
 20
12.2824922444
 30
0.0
 10
14.797769323
 20
12.2801597672
 30
0.0
 10
14.7905160766
 20
12.2797517062
 30
0.0
 10
14.7869460177
 20
12.2797517062
 30
0.0
  0
SPLINE
  5
402
100
AcDbEntity
  8
0
100
AcDbSpline
 62
7
  6
CONTINUOUS
 70
0
 71
3
 72
11
 73
7
 74
0
 42
0.0000001
 43
0.0000001
 44
0.0000000001
 40
0.0
 40
0.0
 40
0.0
 40
0.0
 40
0.2752777195
 40
0.5327071799
 40
0.7726868791
 40
1.0
 40
1.0
 40
1.0
 40
1.0
 10
14.7869460177
 20
12.2797517062
 30
0.0
 10
14.7813038907
 20
12.2797517062
 30
0.0
 10
14.7703502792
 20
12.2807148469
 30
0.0
 10
14.755063361
 20
12.2853115022
 30
0.0
 10
14.7421089878
 20
12.2928874599
 30
0.0
 10
14.7353397432
 20
12.299878616
 30
0.0
 10
14.7326354133
 20
12.3036724584
 30
0.0
  0
SPLINE
  5
403
100
AcDbEntity
  8
0
100
AcDbSpline
 62
7
  6
CONTINUOUS
 70
0
 71
3
 72
21
 73
17
 74
0
 42
0.0000001
 43
0.0000001
 44
0.0000000001
 40
0.0
 40
0.0
 40
0.0
 40
0.0
 40
0.0506135058
 40
0.1017484416
 40
0.1542366181
 40
0.2087360271
 40
0.2657047356
 40
0.325352963
 40
0.3876877922
 40
0.4525018401
 40
0.5878508284
 40
0.6575347294
 40
0.7276639927
 40
0.8665599715
 40
0.9343219944
 40
1.0
 40
1.0
 40
1.0
 40
1.0
 10
14.7305072048
 20
12.3069390096
 30
0.0
 10
14.7289935021
 20
12.3094902532
 30
0.0
 10
14.726437988
 20
12.3149270279
 30
0.0
 10
14.7242216775
 20
12.3237448078
 30
0.0
 10
14.7236579507
 20
12.3330460659
 30
0.0
 10
14.7247429146
 20
12.3426387391
 30
0.0
 10
14.7274498915
 20
12.3523360131
 30
0.0
 10
14.7317098403
 20
12.3619567597
 30
0.0
 10
14.7374437249
 20
12.3713192108
 30
0.0
 10
14.7470245952
 20
12.3833944759
 30
0.0
 10
14.7589314065
 20
12.3940255708
 30
0.0
 10
14.7724646126
 20
12.4028338169
 30
0.0
 10
14.7869950261
 20
12.410344394
 30
0.0
 10
14.8024811609
 20
12.4156163077
 30
0.0
 10
14.8182355459
 20
12.4183178166
 30
0.0
 10
14.8260633432
 20
12.4187922326
 30
0.0
 10
14.8299127901
 20
12.4187922326
 30
0.0
  0
SPLINE
  5
404
100
AcDbEntity
  8
0
100
AcDbSpline
 62
7
  6
CONTINUOUS
 70
0
 71
3
 72
20
 73
16
 74
0
 42
0.0000001
 43
0.0000001
 44
0.0000000001
 40
0.0
 40
0.0
 40
0.0
 40
0.0
 40
0.1322342391
 40
0.2009587773
 40
0.270534781
 40
0.4096614442
 40
0.4781772584
 40
0.5451823962
 40
0.6726732074
 40
0.7327900153
 40
0.7902836163
 40
0.8452930946
 40
0.8981764921
 40
0.9495020306
 40
1.0
 40
1.0
 40
1.0
 40
1.0
 10
14.7873371559
 20
12.2725716193
 30
0.0
 10
14.7953493344
 20
12.2725716193
 30
0.0
 10
14.8075502597
 20
12.2741788441
 30
0.0
 10
14.8233551326
 20
12.2785610236
 30
0.0
 10
14.8390798313
 20
12.2845694081
 30
0.0
 10
14.853822784
 20
12.2928861187
 30
0.0
 10
14.8669588698
 20
12.3031423877
 30
0.0
 10
14.8784639349
 20
12.3141962814
 30
0.0
 10
14.8878452982
 20
12.3266556192
 30
0.0
 10
14.8943739103
 20
12.3400359444
 30
0.0
 10
14.897638171
 20
12.3500117247
 30
0.0
 10
14.899298952
 20
12.3599358058
 30
0.0
 10
14.8993075817
 20
12.3696305758
 30
0.0
 10
14.897663731
 20
12.3789092638
 30
0.0
 10
14.8954626246
 20
12.3847187788
 30
0.0
 10
14.8941150275
 20
12.3874657448
 30
0.0
  0
SPLINE
  5
405
100
AcDbEntity
  8
0
100
AcDbSpline
 62
7
  6
CONTINUOUS
 70
0
 71
3
 72
9
 73
5
 74
0
 42
0.0000001
 43
0.0000001
 44
0.0000000001
 40
0.0
 40
0.0
 40
0.0
 40
0.0
 40
0.2455077034
 40
1.0
 40
1.0
 40
1.0
 40
1.0
 10
14.4842871051
 20
12.4301395541
 30
0.0
 10
14.4875503787
 20
12.4319643523
 30
0.0
 10
14.5009334371
 20
12.4392334292
 30
0.0
 10
14.5146660289
 20
12.4458552179
 30
0.0
 10
14.5251732437
 20
12.450505136
 30
0.0
  0
SPLINE
  5
406
100
AcDbEntity
  8
0
100
AcDbSpline
 62
7
  6
CONTINUOUS
 70
0
 71
3
 72
14
 73
10
 74
0
 42
0.0000001
 43
0.0000001
 44
0.0000000001
 40
0.0
 40
0.0
 40
0.0
 40
0.0
 40
0.2780531763
 40
0.4095163975
 40
0.5351827035
 40
0.6559682084
 40
0.7730031424
 40
0.8872797944
 40
1.0
 40
1.0
 40
1.0
 40
1.0
 10
14.7873371559
 20
12.2725716193
 30
0.0
 10
14.7805602714
 20
12.2725716193
 30
0.0
 10
14.770526936
 20
12.2736928954
 30
0.0
 10
14.7579853203
 20
12.2773539541
 30
0.0
 10
14.7495072899
 20
12.2810265998
 30
0.0
 10
14.7419242067
 20
12.285668159
 30
0.0
 10
14.7353468451
 20
12.2912353716
 30
0.0
 10
14.7298659455
 20
12.2976282632
 30
0.0
 10
14.7270026968
 20
12.3023986701
 30
0.0
 10
14.7257927021
 20
12.3048651447
 30
0.0
  0
SPLINE
  5
407
100
AcDbEntity
  8
0
100
AcDbSpline
 62
7
  6
CONTINUOUS
 70
0
 71
3
 72
34
 73
30
 74
0
 42
0.0000001
 43
0.0000001
 44
0.0000000001
 40
0.0
 40
0.0
 40
0.0
 40
0.0
 40
0.0265218085
 40
0.0543742585
 40
0.0835432635
 40
0.1140019114
 40
0.1457060197
 40
0.1785796729
 40
0.2473774009
 40
0.3194092939
 40
0.3934616887
 40
0.4682037628
 40
0.5422671794
 40
0.5786360903
 40
0.614344112
 40
0.649242769
 40
0.6831981902
 40
0.716088713
 40
0.7478148763
 40
0.7782956918
 40
0.8074793012
 40
0.8353423759
 40
0.8618975751
 40
0.8871987504
 40
0.9113428232
 40
0.9344780273
 40
0.9567986503
 40
0.9785472904
 40
1.0
 40
1.0
 40
1.0
 40
1.0
 10
14.535768895
 20
11.7669634645
 30
0.0
 10
14.5400737267
 20
11.7581911397
 30
0.0
 10
14.5498161095
 20
11.7406456241
 30
0.0
 10
14.5671128348
 20
11.7151427869
 30
0.0
 10
14.587336094
 20
11.6900030701
 30
0.0
 10
14.6103353022
 20
11.6654011741
 30
0.0
 10
14.6359579646
 20
11.6414982639
 30
0.0
 10
14.6739601828
 20
11.610300468
 30
0.0
 10
14.7269866593
 20
11.5742026334
 30
0.0
 10
14.7968648087
 20
11.5367132812
 30
0.0
 10
14.872093293
 20
11.505392644
 30
0.0
 10
14.9506450301
 20
11.4810863916
 30
0.0
 10
15.0175454283
 20
11.4671263417
 30
0.0
 10
15.0709423932
 20
11.4600588639
 30
0.0
 10
15.1102459739
 20
11.456875378
 30
0.0
 10
15.14877457
 20
11.4558068631
 30
0.0
 10
15.186267234
 20
11.4568509738
 30
0.0
 10
15.2224698715
 20
11.4600113479
 30
0.0
 10
15.2571378054
 20
11.4652579056
 30
0.0
 10
15.2900365205
 20
11.4725639122
 30
0.0
 10
15.320944428
 20
11.4818776488
 30
0.0
 10
15.3496535565
 20
11.4931405431
 30
0.0
 10
15.3759680874
 20
11.5062844046
 30
0.0
 10
15.3997121219
 20
11.5212209295
 30
0.0
 10
15.4207143854
 20
11.537866793
 30
0.0
 10
15.4388322149
 20
11.5561062958
 30
0.0
 10
15.4539188045
 20
11.5758339874
 30
0.0
 10
15.46586258
 20
11.5969001863
 30
0.0
 10
15.4716753305
 20
11.6117883878
 30
0.0
 10
15.4740082304
 20
11.6193402661
 30
0.0
  0
SPLINE
  5
408
100
AcDbEntity
  8
0
100
AcDbSpline
 62
7
  6
CONTINUOUS
 70
0
 71
3
 72
15
 73
11
 74
0
 42
0.0000001
 43
0.0000001
 44
0.0000000001
 40
0.0
 40
0.0
 40
0.0
 40
0.0
 40
0.1380796839
 40
0.2714576078
 40
0.4004237008
 40
0.5254306361
 40
0.6471187968
 40
0.7662255324
 40
0.8835646562
 40
1.0
 40
1.0
 40
1.0
 40
1.0
 10
15.6727035594
 20
11.7669634645
 30
0.0
 10
15.677237315
 20
11.757724642
 30
0.0
 10
15.6854935921
 20
11.7392283801
 30
0.0
 10
15.6954760233
 20
11.7110691358
 30
0.0
 10
15.7027867669
 20
11.6831013019
 30
0.0
 10
15.7073811952
 20
11.6554407427
 30
0.0
 10
15.7092466616
 20
11.628196509
 30
0.0
 10
15.7083648776
 20
11.601470545
 30
0.0
 10
15.7047408644
 20
11.5753730747
 30
0.0
 10
15.7004983421
 20
11.5584325529
 30
0.0
 10
15.6979363626
 20
11.5501412414
 30
0.0
  0
SPLINE
  5
409
100
AcDbEntity
  8
0
100
AcDbSpline
 62
7
  6
CONTINUOUS
 70
0
 71
3
 72
40
 73
36
 74
0
 42
0.0000001
 43
0.0000001
 44
0.0000000001
 40
0.0
 40
0.0
 40
0.0
 40
0.0
 40
0.0265226592
 40
0.0543700929
 40
0.0835317863
 40
0.1139861008
 40
0.1456883619
 40
0.1785577874
 40
0.2124929498
 40
0.2473732206
 40
0.2830650343
 40
0.3194200558
 40
0.3562816629
 40
0.3934850024
 40
0.4308612902
 40
0.4682389467
 40
0.5054463853
 40
0.5423147245
 40
0.5786790244
 40
0.6143826196
 40
0.6492770508
 40
0.6832280922
 40
0.7161147184
 40
0.7478368488
 40
0.7783138694
 40
0.8074940577
 40
0.8353532784
 40
0.8619057317
 40
0.8872030619
 40
0.8994151883
 40
0.9113545777
 40
0.9344862764
 40
0.9568047295
 40
0.9785502109
 40
1.0
 40
1.0
 40
1.0
 40
1.0
 10
15.7483492855
 20
12.0117531237
 30
0.0
 10
15.7420255717
 20
12.0246394976
 30
0.0
 10
15.7277171687
 20
12.0504114955
 30
0.0
 10
15.7023119337
 20
12.0878677989
 30
0.0
 10
15.6726095319
 20
12.1247880022
 30
0.0
 10
15.638830846
 20
12.1609221395
 30
0.0
 10
15.601196908
 20
12.1960285272
 30
0.0
 10
15.5599683095
 20
12.2298814391
 30
0.0
 10
15.5154175494
 20
12.2622417619
 30
0.0
 10
15.4678536347
 20
12.2928997413
 30
0.0
 10
15.4175941457
 20
12.3216390707
 30
0.0
 10
15.3649851819
 20
12.3482738829
 30
0.0
 10
15.3103800783
 20
12.3726137299
 30
0.0
 10
15.2541542158
 20
12.3945023752
 30
0.0
 10
15.1966866975
 20
12.4137815874
 30
0.0
 10
15.1383717215
 20
12.4303295765
 30
0.0
 10
15.0796034102
 20
12.4440241714
 30
0.0
 10
15.0207840497
 20
12.4547818703
 30
0.0
 10
14.9623117027
 20
12.4625196226
 30
0.0
 10
14.9045855158
 20
12.4671948385
 30
0.0
 10
14.8479963809
 20
12.4687652602
 30
0.0
 10
14.7929290168
 20
12.4672305286
 30
0.0
 10
14.7397563512
 20
12.4625894556
 30
0.0
 10
14.6888376729
 20
12.4548836619
 30
0.0
 10
14.6405179621
 20
12.444151608
 30
0.0
 10
14.5951212443
 20
12.4304748397
 30
0.0
 10
14.5529558188
 20
12.413927756
 30
0.0
 10
14.5143055949
 20
12.3946295456
 30
0.0
 10
14.4849040887
 20
12.376125889
 30
0.0
 10
14.4634901176
 20
12.3600524921
 30
0.0
 10
14.4439198371
 20
12.3435465585
 30
0.0
 10
14.4219768606
 20
12.3214449743
 30
0.0
 10
14.3998125688
 20
12.2924767953
 30
0.0
 10
14.382277096
 20
12.2615312645
 30
0.0
 10
14.3737351814
 20
12.2396668491
 30
0.0
 10
14.3703079446
 20
12.2285754094
 30
0.0
  0
SPLINE
  5
40A
100
AcDbEntity
  8
0
100
AcDbSpline
 62
7
  6
CONTINUOUS
 70
0
 71
3
 72
21
 73
17
 74
0
 42
0.0000001
 43
0.0000001
 44
0.0000000001
 40
0.0
 40
0.0
 40
0.0
 40
0.0
 40
0.0652912709
 40
0.132759273
 40
0.2709253961
 40
0.3404079935
 40
0.409225911
 40
0.5424668051
 40
0.6062876387
 40
0.6678788666
 40
0.7272195837
 40
0.78444831
 40
0.8398694374
 40
0.8939094883
 40
0.9470983762
 40
1.0
 40
1.0
 40
1.0
 40
1.0
 10
14.7874134164
 20
12.2724162168
 30
0.0
 10
14.7913877134
 20
12.2724162168
 30
0.0
 10
14.799474258
 20
12.2728442477
 30
0.0
 10
14.81580102
 20
12.2752862618
 30
0.0
 10
14.8319696866
 20
12.2800590494
 30
0.0
 10
14.8473318325
 20
12.2869794322
 30
0.0
 10
14.8617084618
 20
12.2951691755
 30
0.0
 10
14.874556856
 20
12.3052550344
 30
0.0
 10
14.8850759734
 20
12.3170138005
 30
0.0
 10
14.8914803076
 20
12.3262988896
 30
0.0
 10
14.8963693173
 20
12.3360203683
 30
0.0
 10
14.8996457572
 20
12.3460077377
 30
0.0
 10
14.9012354177
 20
12.3560754672
 30
0.0
 10
14.9011090822
 20
12.3660252945
 30
0.0
 10
14.8992728822
 20
12.3756478308
 30
0.0
 10
14.8969395005
 20
12.3817128209
 30
0.0
 10
14.8955204726
 20
12.3846034324
 30
0.0
  0
ELLIPSE
  5
40B
100
AcDbEntity
  8
0
100
AcDbEllipse
 62
7
  6
CONTINUOUS
 10
4.4434660126
 20
13.3437977814
 30
0.0
 11
-0.0
 21
0.0375
 31
0.0
 40
0.5773502692
 41
-1.5707963268
 42
0.0
  0
ELLIPSE
  5
40C
100
AcDbEntity
  8
0
100
AcDbEllipse
 62
7
  6
CONTINUOUS
 10
4.4434660126
 20
12.1687977814
 30
0.0
 11
-0.0
 21
0.0375
 31
0.0
 40
0.5773502692
 41
-3.1415926536
 42
-1.5707963268
  0
ELLIPSE
  5
40D
100
AcDbEntity
  8
0
100
AcDbEllipse
 62
7
  6
CONTINUOUS
 10
7.6982781551
 20
13.3437977814
 30
0.0
 11
0.0
 21
0.0375
 31
0.0
 40
0.5773502692
 41
-0.0
 42
1.5707963268
  0
ELLIPSE
  5
40E
100
AcDbEntity
  8
0
100
AcDbEllipse
 62
7
  6
CONTINUOUS
 10
5.3094342872
 20
12.1285779269
 30
0.0
 11
-0.0044031095
 21
0.0186518712
 31
0.0
 40
0.1270166538
 41
-3.6951670125
 42
-3.1715682369
  0
ELLIPSE
  5
40F
100
AcDbEntity
  8
0
100
AcDbEllipse
 62
7
  6
CONTINUOUS
 10
7.6982781551
 20
12.1687977814
 30
0.0
 11
-0.0
 21
0.0375
 31
0.0
 40
0.5773502692
 41
-4.7123889804
 42
-3.1415926536
  0
ELLIPSE
  5
410
100
AcDbEntity
  8
0
100
AcDbEllipse
 62
7
  6
CONTINUOUS
 10
17.0188182338
 20
12.6468469552
 30
0.0
 11
-0.0238555039
 21
0.0340941968
 31
0.0
 40
0.6545760187
 41
-0.4294878502
 42
0.4705108309
  0
ELLIPSE
  5
411
100
AcDbEntity
  8
0
100
AcDbEllipse
 62
7
  6
CONTINUOUS
 10
16.7343903038
 20
11.7264378364
 30
0.0
 11
-0.0238555039
 21
0.0340941968
 31
0.0
 40
0.6545760187
 41
0.4705108309
 42
2.0413071577
  0
ELLIPSE
  5
412
100
AcDbEntity
  8
0
100
AcDbEllipse
 62
7
  6
CONTINUOUS
 10
14.0209377265
 20
12.6468469552
 30
0.0
 11
0.0124036968
 21
0.0374987726
 31
0.0
 40
0.0244606467
 41
-0.8919091798
 42
0.0080915261
  0
ELLIPSE
  5
413
100
AcDbEntity
  8
0
100
AcDbEllipse
 62
7
  6
CONTINUOUS
 10
13.7365097965
 20
11.7264378364
 30
0.0
 11
0.0124036968
 21
0.0374987726
 31
0.0
 40
0.0244606467
 41
-2.4627055066
 42
-0.8919091798
  0
ENDSEC
  0
SECTION
  2
OBJECTS
  0
DICTIONARY
  5
C
100
AcDbDictionary
280
0
281
1
  3
ACAD_GROUP
350
D
  3
ACAD_MLINESTYLE
350
17
  3
ACAD_LAYOUT
350
1A
  3
ACAD_PLOTSETTINGS
350
19
  3
ACAD_PLOTSTYLENAME
350
E
  0
DICTIONARY
  5
D
102
{ACAD_REACTORS
330
C
102
}
100
AcDbDictionary
280
0
281
1
  0
ACDBDICTIONARYWDFLT
  5
E
102
{ACAD_REACTORS
330
C
102
}
100
AcDbDictionary
281
1
  3
Normal
350
F
100
AcDbDictionaryWithDefault
340
F
  0
DICTIONARY
  5
17
102
{ACAD_REACTORS
330
C
102
}
100
AcDbDictionary
280
0
281
1
  3
Standard
350
18
  0
DICTIONARY
  5
19
102
{ACAD_REACTORS
330
C
102
}
100
AcDbDictionary
281
1
  0
DICTIONARY
  5
1A
102
{ACAD_REACTORS
330
C
102
}
100
AcDbDictionary
281
1
  3
Model
350
414
  3
Layout1
350
415
  0
ACDBPLACEHOLDER
  5
F
102
{ACAD_REACTORS
330
E
102
}
  0
MLINESTYLE
  5
18
102
{ACAD_REACTORS
330
17
102
}
100
AcDbMlineStyle
  2
STANDARD
 70
0
  3

 62
256
 51
90.0
 52
90.0
 71
2
 49
0.5
 62
256
  6
BYLAYER
 49
-0.5
 62
256
  6
BYLAYER
  0
LAYOUT
  5
414
102
{ACAD_REACTORS
330
1A
102
}
100
AcDbPlotSettings
  1

  2
none_device
  4
ANSI_C_(22.00_x_17.00_Inches)
  6

 40
0.0
 41
0.0
 42
0.0
 43
0.0
 44
558.8
 45
431.8
 46
0.0
 47
0.0
 48
0.0
 49
0.0
140
0.0
141
0.0
142
1.0
143
1.0
 70
1024
 72
0
 73
0
 74
0
  7

 75
0
147
1.0
148
0.0
149
0.0
100
AcDbLayout
  1
Model
 70
0
 71
0
 10
0.0
 20
0.0
 11
22.0
 21
17.0
 12
0.0
 22
0.0
 32
0.0
 14
0.0
 24
0.0
 34
0.0
 15
0.0
 25
0.0
 35
0.0
146
0.0
 13
0.0
 23
0.0
 33
0.0
 16
1.0
 26
0.0
 36
0.0
 17
0.0
 27
1.0
 37
0.0
 76
0
330
22E
345
0
346
0
  0
LAYOUT
  5
415
102
{ACAD_REACTORS
330
1A
102
}
100
AcDbPlotSettings
  1

  2
none_device
  4
ANSI_C_(22.00_x_17.00_Inches)
  6

 40
0.0
 41
0.0
 42
0.0
 43
0.0
 44
558.8
 45
431.8
 46
0.0
 47
0.0
 48
0.0
 49
0.0
140
0.0
141
0.0
142
1.0
143
1.0
 70
0
 72
0
 73
0
 74
0
  7

 75
0
147
1.0
148
0.0
149
0.0
100
AcDbLayout
  1
Layout1
 70
0
 71
1
 10
0.0
 20
0.0
 11
22.0
 21
17.0
 12
0.0
 22
0.0
 32
0.0
 14
0.0
 24
0.0
 34
0.0
 15
0.0
 25
0.0
 35
0.0
146
0.0
 13
0.0
 23
0.0
 33
0.0
 16
1.0
 26
0.0
 36
0.0
 17
0.0
 27
1.0
 37
0.0
 76
0
330
22F
345
0
346
0
  0
ENDSEC
  0
EOF