999
DXF file: _cgs_temp_output.dxf
999
Pro/ENGINEER 2015110 by Parametric Technology Corporation
  0
SECTION
  2
HEADER
  9
$ACADVER
  1
AC1021
  9
$DWGCODEPAGE
  3
ANSI_1252
  9
$EXTMAX
 10
22.0
 20
17.0
 30
0.0
  9
$EXTMIN
 10
0.0
 20
0.0
 30
0.0
  9
$LIMMIN
 10
0.0
 20
0.0
  9
$LIMMAX
 10
22.0
 20
17.0
  9
$VIEWCTR
 10
11.0
 20
8.5
  9
$VIEWSIZE
 40
17.0
  9
$CLAYER
  8
0
  9
$LTSCALE
 40
1.21
  9
$CELTYPE
  6
BYLAYER
  9
$DIMSCALE
 40
1.0
  9
$DIMASZ
 40
0.1875
  9
$DIMEXO
 40
0.0625
  9
$DIMDLI
 40
0.836
  9
$DIMEXE
 40
0.125
  9
$DIMCEN
 40
0.198
  9
$DIMLFAC
 40
1.0
  9
$DIMBLK
  1
_CLOSED
  9
$DIMALT
 70
0
  9
$DIMALTF
 40
25.4
  9
$DIMTXT
 40
0.15625
  9
$DIMTOL
 70
0
  9
$DIMLIM
 70
0
  9
$DIMTFAC
 40
1.0
  9
$DIMGAP
 40
0.09
  9
$DIMDSEP
 70
46
  9
$AUNITS
 70
0
  9
$PDMODE
 70
3
  9
$PDSIZE
 40
0.3125
  9
$HANDSEED
  5
2CE
  9
$TILEMODE
 70
1
  9
$MEASUREMENT
 70
0
  9
$INSUNITS
 70
1
  0
ENDSEC
  0
SECTION
  2
CLASSES
  0
CLASS
  1
ACDBDICTIONARYWDFLT
  2
AcDbDictionaryWithDefault
  3
AutoCAD 2000
 90
0
 91
1
280
0
281
0
  0
CLASS
  1
ACDBPLACEHOLDER
  2
AcDbPlaceHolder
  3
AutoCAD 2000
 90
0
 91
1
280
0
281
0
  0
CLASS
  1
LAYOUT
  2
AcDbLayout
  3
AutoCAD 2000
 90
0
 91
0
280
0
281
0
  0
ENDSEC
  0
SECTION
  2
TABLES
  0
TABLE
  2
VPORT
  5
8
100
AcDbSymbolTable
 70
2
  0
VPORT
  5
1F4
100
AcDbSymbolTableRecord
100
AcDbViewportTableRecord
  2
*ACTIVE
 70
0
 10
0.0
 20
0.0
 11
1.0
 21
1.0
 12
11.0
 22
8.5
 13
0.0
 23
0.0
 14
1.0
 24
1.0
 15
0.0
 25
0.0
 16
0.0
 26
0.0
 36
1.0
 17
0.0
 27
0.0
 37
0.0
 40
17.0
 41
1.2941176471
 42
50.0
 43
0.0
 44
0.0
 50
0.0
 51
0.0
 71
0
 72
100
 73
1
 74
1
 75
0
 76
0
 77
0
 78
0
  0
ENDTAB
  0
TABLE
  2
LTYPE
  5
5
100
AcDbSymbolTable
 70
6
  0
LTYPE
  5
14
100
AcDbSymbolTableRecord
100
AcDbLinetypeTableRecord
  2
BYBLOCK
 70
0
  3

 72
65
 73
0
 40
0.0
  0
LTYPE
  5
15
100
AcDbSymbolTableRecord
100
AcDbLinetypeTableRecord
  2
BYLAYER
 70
0
  3

 72
65
 73
0
 40
0.0
  0
LTYPE
  5
16
100
AcDbSymbolTableRecord
100
AcDbLinetypeTableRecord
  2
CONTINUOUS
 70
64
  3
Solid line
 72
65
 73
0
 40
0.0
  0
LTYPE
  5
1F5
100
AcDbSymbolTableRecord
100
AcDbLinetypeTableRecord
  2
CENTER
 70
64
  3
____ _ ____ _ ____ _ ____ _ ____ _ ____ _ ____
 72
65
 73
4
 40
0.6
 49
0.375
 74
0
 49
-0.075
 74
0
 49
0.075
 74
0
 49
-0.075
 74
0
  0
LTYPE
  5
1F6
100
AcDbSymbolTableRecord
100
AcDbLinetypeTableRecord
  2
HIDDEN
 70
64
  3
- - - - - - - - - - - - - - - - - - - -
 72
65
 73
2
 40
0.2
 49
0.1
 74
0
 49
-0.1
 74
0
  0
LTYPE
  5
1F7
100
AcDbSymbolTableRecord
100
AcDbLinetypeTableRecord
  2
PHANTOM
 70
64
  3
_____ _ _ _____ _ _ _____ _ _ _____
 72
65
 73
6
 40
0.8
 49
0.45
 74
0
 49
-0.05
 74
0
 49
0.1
 74
0
 49
-0.05
 74
0
 49
0.1
 74
0
 49
-0.05
 74
0
  0
LTYPE
  5
1F8
100
AcDbSymbolTableRecord
100
AcDbLinetypeTableRecord
  2
DOT
 70
64
  3
. . . . . . . . . . . . . . . . . . . .
 72
65
 73
2
 40
0.2
 49
0.1
 74
0
 49
-0.1
 74
0
  0
LTYPE
  5
1F9
100
AcDbSymbolTableRecord
100
AcDbLinetypeTableRecord
  2
DASHED
 70
64
  3
- - - - - - - - - - - - - - - - - - - -
 72
65
 73
2
 40
0.2
 49
0.1
 74
0
 49
-0.1
 74
0
  0
ENDTAB
  0
TABLE
  2
LAYER
  5
2
100
AcDbSymbolTable
 70
36
  0
LAYER
  5
10
100
AcDbSymbolTableRecord
100
AcDbLayerTableRecord
  2
0
 70
0
 62
7
  6
CONTINUOUS
370
-3
390
F
  0
LAYER
  5
1FA
100
AcDbSymbolTableRecord
100
AcDbLayerTableRecord
  2
DEFAULT_1
 70
0
 62
7
  6
CENTER
370
-3
390
F
  0
LAYER
  5
1FB
100
AcDbSymbolTableRecord
100
AcDbLayerTableRecord
  2
DEFAULT_2
 70
0
 62
8
  6
HIDDEN
370
-3
390
F
  0
LAYER
  5
1FC
100
AcDbSymbolTableRecord
100
AcDbLayerTableRecord
  2
DEFAULT_3
 70
0
 62
7
  6
PHANTOM
370
-3
390
F
  0
LAYER
  5
1FD
100
AcDbSymbolTableRecord
100
AcDbLayerTableRecord
  2
01_ALL_DTM_PLN
 70
0
 62
7
  6
CONTINUOUS
370
-3
390
F
  0
LAYER
  5
1FE
100
AcDbSymbolTableRecord
100
AcDbLayerTableRecord
  2
01__ASM_ALL_DTM_PLN
 70
0
 62
7
  6
CONTINUOUS
370
-3
390
F
  0
LAYER
  5
1FF
100
AcDbSymbolTableRecord
100
AcDbLayerTableRecord
  2
01__ASM_DEF_DTM_PLN
 70
0
 62
7
  6
CONTINUOUS
370
-3
390
F
  0
LAYER
  5
200
100
AcDbSymbolTableRecord
100
AcDbLayerTableRecord
  2
01___PRT_ALL_DTM_PLN
 70
0
 62
7
  6
CONTINUOUS
370
-3
390
F
  0
LAYER
  5
201
100
AcDbSymbolTableRecord
100
AcDbLayerTableRecord
  2
01___PRT_DEF_DTM_PLN
 70
0
 62
7
  6
CONTINUOUS
370
-3
390
F
  0
LAYER
  5
202
100
AcDbSymbolTableRecord
100
AcDbLayerTableRecord
  2
02_ALL_AXES
 70
0
 62
7
  6
CONTINUOUS
370
-3
390
F
  0
LAYER
  5
203
100
AcDbSymbolTableRecord
100
AcDbLayerTableRecord
  2
02__ASM_ALL_AXES
 70
0
 62
7
  6
CONTINUOUS
370
-3
390
F
  0
LAYER
  5
204
100
AcDbSymbolTableRecord
100
AcDbLayerTableRecord
  2
02___PRT_ALL_AXES
 70
0
 62
7
  6
CONTINUOUS
370
-3
390
F
  0
LAYER
  5
205
100
AcDbSymbolTableRecord
100
AcDbLayerTableRecord
  2
03_ALL_CURVES
 70
0
 62
7
  6
CONTINUOUS
370
-3
390
F
  0
LAYER
  5
206
100
AcDbSymbolTableRecord
100
AcDbLayerTableRecord
  2
03__ASM_ALL_CURVES
 70
0
 62
7
  6
CONTINUOUS
370
-3
390
F
  0
LAYER
  5
207
100
AcDbSymbolTableRecord
100
AcDbLayerTableRecord
  2
03___PRT_ALL_CURVES
 70
0
 62
7
  6
CONTINUOUS
370
-3
390
F
  0
LAYER
  5
208
100
AcDbSymbolTableRecord
100
AcDbLayerTableRecord
  2
04_ALL_DTM_PNT
 70
0
 62
7
  6
CONTINUOUS
370
-3
390
F
  0
LAYER
  5
209
100
AcDbSymbolTableRecord
100
AcDbLayerTableRecord
  2
04__ASM_ALL_DTM_PNT
 70
0
 62
7
  6
CONTINUOUS
370
-3
390
F
  0
LAYER
  5
20A
100
AcDbSymbolTableRecord
100
AcDbLayerTableRecord
  2
04___PRT_ALL_DTM_PNT
 70
0
 62
7
  6
CONTINUOUS
370
-3
390
F
  0
LAYER
  5
20B
100
AcDbSymbolTableRecord
100
AcDbLayerTableRecord
  2
05_ALL_DTM_CSYS
 70
0
 62
7
  6
CONTINUOUS
370
-3
390
F
  0
LAYER
  5
20C
100
AcDbSymbolTableRecord
100
AcDbLayerTableRecord
  2
05__ASM_ALL_DTM_CSYS
 70
0
 62
7
  6
CONTINUOUS
370
-3
390
F
  0
LAYER
  5
20D
100
AcDbSymbolTableRecord
100
AcDbLayerTableRecord
  2
05__ASM_DEF_DTM_CSYS
 70
0
 62
7
  6
CONTINUOUS
370
-3
390
F
  0
LAYER
  5
20E
100
AcDbSymbolTableRecord
100
AcDbLayerTableRecord
  2
05___PRT_ALL_DTM_CSYS
 70
0
 62
7
  6
CONTINUOUS
370
-3
390
F
  0
LAYER
  5
20F
100
AcDbSymbolTableRecord
100
AcDbLayerTableRecord
  2
05___PRT_DEF_DTM_CSYS
 70
0
 62
7
  6
CONTINUOUS
370
-3
390
F
  0
LAYER
  5
210
100
AcDbSymbolTableRecord
100
AcDbLayerTableRecord
  2
06_ALL_SURFS
 70
0
 62
7
  6
CONTINUOUS
370
-3
390
F
  0
LAYER
  5
211
100
AcDbSymbolTableRecord
100
AcDbLayerTableRecord
  2
06__ASM_ALL_SURFS
 70
0
 62
7
  6
CONTINUOUS
370
-3
390
F
  0
LAYER
  5
212
100
AcDbSymbolTableRecord
100
AcDbLayerTableRecord
  2
06___PRT_ALL_SURFS
 70
0
 62
7
  6
CONTINUOUS
370
-3
390
F
  0
LAYER
  5
213
100
AcDbSymbolTableRecord
100
AcDbLayerTableRecord
  2
07__ASM_ALL_SKELETONS
 70
0
 62
7
  6
CONTINUOUS
370
-3
390
F
  0
LAYER
  5
214
100
AcDbSymbolTableRecord
100
AcDbLayerTableRecord
  2
LAYER_AXIS
 70
0
 62
7
  6
CONTINUOUS
370
-3
390
F
  0
LAYER
  5
215
100
AcDbSymbolTableRecord
100
AcDbLayerTableRecord
  2
LAYER_CHAMFER_FEAT
 70
0
 62
7
  6
CONTINUOUS
370
-3
390
F
  0
LAYER
  5
216
100
AcDbSymbolTableRecord
100
AcDbLayerTableRecord
  2
LAYER_CUT_FEAT
 70
0
 62
7
  6
CONTINUOUS
370
-3
390
F
  0
LAYER
  5
217
100
AcDbSymbolTableRecord
100
AcDbLayerTableRecord
  2
LAYER_DATUM
 70
0
 62
7
  6
CONTINUOUS
370
-3
390
F
  0
LAYER
  5
218
100
AcDbSymbolTableRecord
100
AcDbLayerTableRecord
  2
LAYER_DIM
 70
0
 62
7
  6
CONTINUOUS
370
-3
390
F
  0
LAYER
  5
219
100
AcDbSymbolTableRecord
100
AcDbLayerTableRecord
  2
LAYER_FEATURE
 70
0
 62
7
  6
CONTINUOUS
370
-3
390
F
  0
LAYER
  5
21A
100
AcDbSymbolTableRecord
100
AcDbLayerTableRecord
  2
LAYER_GEOM_FEAT
 70
0
 62
7
  6
CONTINUOUS
370
-3
390
F
  0
LAYER
  5
21B
100
AcDbSymbolTableRecord
100
AcDbLayerTableRecord
  2
LAYER_NOGEOM_FEAT
 70
0
 62
7
  6
CONTINUOUS
370
-3
390
F
  0
LAYER
  5
21C
100
AcDbSymbolTableRecord
100
AcDbLayerTableRecord
  2
LAYER_PARAMETER_DIM
 70
0
 62
7
  6
CONTINUOUS
370
-3
390
F
  0
LAYER
  5
21D
100
AcDbSymbolTableRecord
100
AcDbLayerTableRecord
  2
LAYER_PROTRUSION_FEAT
 70
0
 62
7
  6
CONTINUOUS
370
-3
390
F
  0
LAYER
  5
21E
100
AcDbSymbolTableRecord
100
AcDbLayerTableRecord
  2
LAYER_ROUND_FEAT
 70
0
 62
7
  6
CONTINUOUS
370
-3
390
F
  0
ENDTAB
  0
TABLE
  2
STYLE
  5
3
100
AcDbSymbolTable
 70
1
  0
STYLE
  5
11
100
AcDbSymbolTableRecord
100
AcDbTextStyleTableRecord
  2
STANDARD
 70
0
 40
0.0
 41
0.8
 50
0.0
 71
0
 42
0.2
  3
txt
  4

  0
STYLE
  5
21F
100
AcDbSymbolTableRecord
100
AcDbTextStyleTableRecord
  2
TEXTSTYLE_1
 70
0
 40
0.0
 41
0.8
 50
0.0
 71
0
 42
0.2
  3
gdt
  4

  0
ENDTAB
  0
TABLE
  2
VIEW
  5
6
100
AcDbSymbolTable
 70
0
  0
ENDTAB
  0
TABLE
  2
UCS
  5
7
100
AcDbSymbolTable
 70
0
  0
ENDTAB
  0
TABLE
  2
APPID
  5
9
100
AcDbSymbolTable
 70
1
  0
APPID
  5
220
100
AcDbSymbolTableRecord
100
AcDbRegAppTableRecord
  2
ACAD
 70
0
  0
ENDTAB
  0
TABLE
  2
BLOCK_RECORD
  5
1
100
AcDbSymbolTable
 70
0
  0
BLOCK_RECORD
  5
221
100
AcDbSymbolTableRecord
100
AcDbBlockTableRecord
  2
*Model_Space
  0
BLOCK_RECORD
  5
222
100
AcDbSymbolTableRecord
100
AcDbBlockTableRecord
  2
*Paper_Space
  0
ENDTAB
  0
TABLE
  2
DIMSTYLE
  5
A
100
AcDbSymbolTable
 70
1
100
AcDbDimStyleTable
 71
0
  0
DIMSTYLE
105
223
100
AcDbSymbolTableRecord
100
AcDbDimStyleTableRecord
  2
STANDARD
 70
0
  3

  4

 40
1.0
 41
0.1875
 42
0.0625
 43
0.38
 44
0.125
 45
0.0
 46
0.0
 47
0.0001
 48
0.0001
140
0.15625
141
0.09
142
0.0
143
25.4
144
1.0
145
0.0
146
1.0
147
0.09
 71
0.0
 72
0.0
 73
1
 74
1
 75
0
 76
0
 77
0
 78
4
170
0
171
2
172
0
173
0
174
0
175
0
176
0
177
0
178
0
270
2
271
4
272
4
273
2
274
2
275
0
280
0
281
0
282
0
283
1
284
4
285
0
286
0
287
3
288
0
340
11
278
46
  0
ENDTAB
  0
ENDSEC
  0
SECTION
  2
BLOCKS
  0
BLOCK
  5
20
100
AcDbEntity
  8
0
100
AcDbBlockBegin
  2
*Model_Space
 70
0
 10
0.0
 20
0.0
 30
0.0
  3
*Model_Space
  1

  0
ENDBLK
  5
21
100
AcDbEntity
  8
0
100
AcDbBlockEnd
  0
BLOCK
  5
1C
100
AcDbEntity
  8
0
100
AcDbBlockBegin
  2
*Paper_Space
 70
0
 10
0.0
 20
0.0
 30
0.0
  3
*Paper_Space
  1

  0
ENDBLK
  5
1D
100
AcDbEntity
  8
0
100
AcDbBlockEnd
  0
ENDSEC
  0
SECTION
  2
ENTITIES
  0
MTEXT
  5
224
100
AcDbEntity
  8
0
100
AcDbMText
 62
7
  6
CONTINUOUS
  7
STANDARD
 71
1
 72
1
 10
15.9560215477
 20
0.9479130325
 30
0.0
 11
1.0
 21
0.0
 31
0.0
 44
0.9
  1
SCALE: 1:4.000
 40
0.3
 41
3.36
  0
LINE
  5
225
100
AcDbEntity
  8
0
100
AcDbLine
 62
7
  6
CONTINUOUS
 10
0.0
 20
0.0
 11
0.0
 21
17.0
  0
LINE
  5
226
100
AcDbEntity
  8
0
100
AcDbLine
 62
7
  6
CONTINUOUS
 10
0.0
 20
0.0
 11
22.0
 21
0.0
  0
LINE
  5
227
100
AcDbEntity
  8
0
100
AcDbLine
 62
7
  6
CONTINUOUS
 10
0.0
 20
17.0
 11
22.0
 21
17.0
  0
LINE
  5
228
100
AcDbEntity
  8
0
100
AcDbLine
 62
7
  6
CONTINUOUS
 10
22.0
 20
0.0
 11
22.0
 21
17.0
  0
LINE
  5
229
100
AcDbEntity
  8
LAYER_FEATURE
100
AcDbLine
 62
7
  6
CONTINUOUS
 10
5.9511672762
 20
6.5801198968
 11
5.932461951
 21
6.5614145716
  0
LINE
  5
22A
100
AcDbEntity
  8
LAYER_FEATURE
100
AcDbLine
 62
7
  6
CONTINUOUS
 10
6.3095672762
 20
6.5801198968
 11
6.3282726014
 21
6.5614145716
  0
LINE
  5
22B
100
AcDbEntity
  8
LAYER_FEATURE
100
AcDbLine
 62
7
  6
CONTINUOUS
 10
5.9511672762
 20
6.5801198968
 11
6.3095672762
 21
6.5801198968
  0
LINE
  5
22C
100
AcDbEntity
  8
02___PRT_ALL_AXES
100
AcDbLine
 62
7
  6
CONTINUOUS
 10
5.0108721054
 20
11.2380477814
 11
7.1308720624
 21
11.2380477814
  0
LINE
  5
22D
100
AcDbEntity
  8
LAYER_FEATURE
100
AcDbLine
 62
7
  6
CONTINUOUS
 10
5.0088720839
 20
13.8620477814
 11
5.0088720839
 21
13.9620477814
  0
LINE
  5
22E
100
AcDbEntity
  8
02___PRT_ALL_AXES
100
AcDbLine
 62
7
  6
CONTINUOUS
 10
5.0108720839
 20
11.2380477814
 11
5.0108720839
 21
12.0320477814
  0
LINE
  5
22F
100
AcDbEntity
  8
LAYER_CUT_FEAT
100
AcDbLine
 62
7
  6
CONTINUOUS
 10
6.0062088537
 20
11.5940477814
 11
6.135535314
 21
11.5940477814
  0
LINE
  5
230
100
AcDbEntity
  8
LAYER_CUT_FEAT
100
AcDbLine
 62
7
  6
CONTINUOUS
 10
5.3071005859
 20
13.7780477814
 11
5.3071005859
 21
12.1780477814
  0
LINE
  5
231
100
AcDbEntity
  8
LAYER_FEATURE
100
AcDbLine
 62
7
  6
CONTINUOUS
 10
6.9308720839
 20
13.7780477814
 11
7.1328720839
 21
13.8620477814
  0
LINE
  5
232
100
AcDbEntity
  8
LAYER_CUT_FEAT
100
AcDbLine
 62
7
  6
CONTINUOUS
 10
6.135535314
 20
11.8180477814
 11
6.0062088537
 21
11.8180477814
  0
LINE
  5
233
100
AcDbEntity
  8
LAYER_CUT_FEAT
100
AcDbLine
 62
7
  6
CONTINUOUS
 10
5.4643562941
 20
13.7780477814
 11
5.4643562941
 21
12.1780477814
  0
LINE
  5
234
100
AcDbEntity
  8
LAYER_CHAMFER_FEAT
100
AcDbLine
 62
7
  6
CONTINUOUS
 10
5.0108720839
 20
12.0320477814
 11
7.1308720839
 21
12.0320477814
  0
LINE
  5
235
100
AcDbEntity
  8
LAYER_CUT_FEAT
100
AcDbLine
 62
7
  6
CONTINUOUS
 10
5.9415456236
 20
11.7060477814
 11
6.0062088537
 21
11.5940477814
  0
LINE
  5
236
100
AcDbEntity
  8
LAYER_CHAMFER_FEAT
100
AcDbLine
 62
7
  6
CONTINUOUS
 10
5.0108720839
 20
12.0320477814
 11
5.1568720839
 21
12.1780477814
  0
LINE
  5
237
100
AcDbEntity
  8
LAYER_CHAMFER_FEAT
100
AcDbLine
 62
7
  6
CONTINUOUS
 10
5.1568721759
 20
12.1780477814
 11
6.9848719918
 21
12.1780477814
  0
LINE
  5
238
100
AcDbEntity
  8
LAYER_CUT_FEAT
100
AcDbLine
 62
7
  6
CONTINUOUS
 10
6.2001985442
 20
11.7060477814
 11
6.135535314
 21
11.8180477814
  0
LINE
  5
239
100
AcDbEntity
  8
LAYER_CUT_FEAT
100
AcDbLine
 62
7
  6
CONTINUOUS
 10
5.8014767627
 20
13.7780477814
 11
5.8014767627
 21
12.1780477814
  0
LINE
  5
23A
100
AcDbEntity
  8
LAYER_CUT_FEAT
100
AcDbLine
 62
7
  6
CONTINUOUS
 10
6.211428625
 20
13.7780477814
 11
6.211428625
 21
12.1780477814
  0
LINE
  5
23B
100
AcDbEntity
  8
LAYER_CUT_FEAT
100
AcDbLine
 62
7
  6
CONTINUOUS
 10
6.3390293458
 20
13.7780477814
 11
6.3390293458
 21
12.1780477814
  0
LINE
  5
23C
100
AcDbEntity
  8
LAYER_CUT_FEAT
100
AcDbLine
 62
7
  6
CONTINUOUS
 10
6.0062088537
 20
11.8180477814
 11
5.9415456236
 21
11.7060477814
  0
LINE
  5
23D
100
AcDbEntity
  8
LAYER_CHAMFER_FEAT
100
AcDbLine
 62
7
  6
CONTINUOUS
 10
7.1308720839
 20
12.0320477814
 11
6.9848720839
 21
12.1780477814
  0
LINE
  5
23E
100
AcDbEntity
  8
LAYER_CUT_FEAT
100
AcDbLine
 62
7
  6
CONTINUOUS
 10
6.135535314
 20
11.5940477814
 11
6.2001985442
 21
11.7060477814
  0
LINE
  5
23F
100
AcDbEntity
  8
LAYER_CUT_FEAT
100
AcDbLine
 62
7
  6
CONTINUOUS
 10
6.6760543421
 20
13.7780477814
 11
6.6760543421
 21
12.1780477814
  0
LINE
  5
240
100
AcDbEntity
  8
LAYER_CUT_FEAT
100
AcDbLine
 62
7
  6
CONTINUOUS
 10
6.8343389816
 20
13.7780477814
 11
6.8343389816
 21
12.1780477814
  0
LINE
  5
241
100
AcDbEntity
  8
LAYER_FEATURE
100
AcDbLine
 62
7
  6
CONTINUOUS
 10
5.2108720839
 20
13.7780477814
 11
5.0088720839
 21
13.8620477814
  0
LINE
  5
242
100
AcDbEntity
  8
02___PRT_ALL_AXES
100
AcDbLine
 62
7
  6
CONTINUOUS
 10
7.1308720839
 20
11.2380477814
 11
7.1308720839
 21
12.0320477814
  0
LINE
  5
243
100
AcDbEntity
  8
LAYER_FEATURE
100
AcDbLine
 62
7
  6
CONTINUOUS
 10
7.1328720839
 20
13.8620477814
 11
7.1328720839
 21
13.9620477814
  0
LINE
  5
244
100
AcDbEntity
  8
LAYER_FEATURE
100
AcDbLine
 62
7
  6
CONTINUOUS
 10
5.2108721705
 20
13.7780477814
 11
6.9308719973
 21
13.7780477814
  0
LINE
  5
245
100
AcDbEntity
  8
LAYER_FEATURE
100
AcDbLine
 62
7
  6
CONTINUOUS
 10
5.0088720839
 20
13.8620477814
 11
7.1328720839
 21
13.8620477814
  0
LINE
  5
246
100
AcDbEntity
  8
LAYER_FEATURE
100
AcDbLine
 62
7
  6
CONTINUOUS
 10
5.0088720839
 20
13.9620477814
 11
7.1328720839
 21
13.9620477814
  0
LINE
  5
247
100
AcDbEntity
  8
LAYER_FEATURE
100
AcDbLine
 62
7
  6
CONTINUOUS
 10
14.4798726217
 20
6.5133420692
 11
14.4871552569
 21
6.5206247044
  0
LINE
  5
248
100
AcDbEntity
  8
02___PRT_ALL_AXES
100
AcDbLine
 62
7
  6
CONTINUOUS
 10
14.1983552569
 20
6.5206247044
 11
14.1983552569
 21
4.4006247044
  0
LINE
  5
249
100
AcDbEntity
  8
LAYER_FEATURE
100
AcDbLine
 62
7
  6
CONTINUOUS
 10
16.9223552569
 20
4.3986247044
 11
16.8223552569
 21
4.3986247044
  0
LINE
  5
24A
100
AcDbEntity
  8
LAYER_CHAMFER_FEAT
100
AcDbLine
 62
7
  6
CONTINUOUS
 10
14.9923552569
 20
4.4006247044
 11
14.1983552569
 21
4.4006247044
  0
LINE
  5
24B
100
AcDbEntity
  8
02___PRT_ALL_AXES
100
AcDbLine
 62
7
  6
CONTINUOUS
 10
15.1383552569
 20
4.6926247044
 11
16.7383552569
 21
4.6926247044
  0
LINE
  5
24C
100
AcDbEntity
  8
LAYER_CHAMFER_FEAT
100
AcDbLine
 62
7
  6
CONTINUOUS
 10
14.9923552569
 20
6.5206247044
 11
14.9923552569
 21
4.4006247044
  0
LINE
  5
24D
100
AcDbEntity
  8
LAYER_CUT_FEAT
100
AcDbLine
 62
7
  6
CONTINUOUS
 10
16.7383552569
 20
4.795981639
 11
15.1383552569
 21
4.795981639
  0
LINE
  5
24E
100
AcDbEntity
  8
LAYER_CHAMFER_FEAT
100
AcDbLine
 62
7
  6
CONTINUOUS
 10
15.1383552569
 20
6.3746247044
 11
15.1383552569
 21
4.5466247044
  0
LINE
  5
24F
100
AcDbEntity
  8
LAYER_CUT_FEAT
100
AcDbLine
 62
7
  6
CONTINUOUS
 10
16.7383552569
 20
5.0966091367
 11
15.1383552569
 21
5.0966091367
  0
LINE
  5
250
100
AcDbEntity
  8
LAYER_CUT_FEAT
100
AcDbLine
 62
7
  6
CONTINUOUS
 10
16.7383552569
 20
5.499408271
 11
15.1383552569
 21
5.499408271
  0
LINE
  5
251
100
AcDbEntity
  8
LAYER_CUT_FEAT
100
AcDbLine
 62
7
  6
CONTINUOUS
 10
16.7383552569
 20
5.6293578358
 11
15.1383552569
 21
5.6293578358
  0
LINE
  5
252
100
AcDbEntity
  8
LAYER_FEATURE
100
AcDbLine
 62
7
  6
CONTINUOUS
 10
14.8528378925
 20
6.5133420688
 11
14.8455552569
 21
6.5206247044
  0
LINE
  5
253
100
AcDbEntity
  8
LAYER_CHAMFER_FEAT
100
AcDbLine
 62
7
  6
CONTINUOUS
 10
14.9923552569
 20
4.4006247044
 11
15.1383552569
 21
4.5466247044
  0
LINE
  5
254
100
AcDbEntity
  8
LAYER_CHAMFER_FEAT
100
AcDbLine
 62
7
  6
CONTINUOUS
 10
14.9923552569
 20
6.5206247044
 11
15.1383552569
 21
6.3746247044
  0
LINE
  5
255
100
AcDbEntity
  8
LAYER_CUT_FEAT
100
AcDbLine
 62
7
  6
CONTINUOUS
 10
16.7383552569
 20
5.9963059656
 11
15.1383552569
 21
5.9963059656
  0
LINE
  5
256
100
AcDbEntity
  8
LAYER_FEATURE
100
AcDbLine
 62
7
  6
CONTINUOUS
 10
16.8223552569
 20
6.5226247044
 11
16.7383552569
 21
6.3206247044
  0
LINE
  5
257
100
AcDbEntity
  8
LAYER_CUT_FEAT
100
AcDbLine
 62
7
  6
CONTINUOUS
 10
16.7383552569
 20
6.2058787973
 11
15.1383552569
 21
6.2058787973
  0
LINE
  5
258
100
AcDbEntity
  8
LAYER_FEATURE
100
AcDbLine
 62
7
  6
CONTINUOUS
 10
16.8223552569
 20
4.3986247044
 11
16.7383552569
 21
4.6006247044
  0
LINE
  5
259
100
AcDbEntity
  8
02___PRT_ALL_AXES
100
AcDbLine
 62
7
  6
CONTINUOUS
 10
14.9923552569
 20
6.5206247044
 11
14.8903552569
 21
6.5206247044
  0
LINE
  5
25A
100
AcDbEntity
  8
02___PRT_ALL_AXES
100
AcDbLine
 62
7
  6
CONTINUOUS
 10
14.4423552569
 20
6.5206247044
 11
14.1983552569
 21
6.5206247044
  0
LINE
  5
25B
100
AcDbEntity
  8
LAYER_FEATURE
100
AcDbLine
 62
7
  6
CONTINUOUS
 10
14.4871552569
 20
6.5206247044
 11
14.8455552569
 21
6.5206247044
  0
LINE
  5
25C
100
AcDbEntity
  8
LAYER_FEATURE
100
AcDbLine
 62
7
  6
CONTINUOUS
 10
16.9223552569
 20
6.5226247044
 11
16.8223552569
 21
6.5226247044
  0
LINE
  5
25D
100
AcDbEntity
  8
LAYER_FEATURE
100
AcDbLine
 62
7
  6
CONTINUOUS
 10
16.7383552569
 20
6.3206247044
 11
16.7383552569
 21
4.6006247044
  0
LINE
  5
25E
100
AcDbEntity
  8
LAYER_FEATURE
100
AcDbLine
 62
7
  6
CONTINUOUS
 10
16.8223552569
 20
6.5226247044
 11
16.8223552569
 21
4.3986247044
  0
LINE
  5
25F
100
AcDbEntity
  8
LAYER_FEATURE
100
AcDbLine
 62
7
  6
CONTINUOUS
 10
16.9223552569
 20
6.5226247044
 11
16.9223552569
 21
4.3986247044
  0
LINE
  5
260
100
AcDbEntity
  8
LAYER_FEATURE
100
AcDbLine
 62
7
  6
CONTINUOUS
 10
14.760975164
 20
13.8122946514
 11
14.7851817963
 21
13.8906273424
  0
LINE
  5
261
100
AcDbEntity
  8
02___PRT_ALL_AXES
100
AcDbLine
 62
7
  6
CONTINUOUS
 10
14.1277039731
 20
11.7562543458
 11
14.3199046339
 21
12.378215912
  0
LINE
  5
262
100
AcDbEntity
  8
LAYER_CUT_FEAT
100
AcDbLine
 62
7
  6
CONTINUOUS
 10
15.055816948
 20
13.7289606259
 11
14.7362945945
 21
12.6949859109
  0
LINE
  5
263
100
AcDbEntity
  8
LAYER_CUT_FEAT
100
AcDbLine
 62
7
  6
CONTINUOUS
 10
15.2950369983
 20
13.8742312411
 11
14.9441301724
 21
12.7386963364
  0
LINE
  5
264
100
AcDbEntity
  8
LAYER_CUT_FEAT
100
AcDbLine
 62
7
  6
CONTINUOUS
 10
14.8112751706
 20
12.4687956921
 11
14.8543280843
 21
12.3810630782
  0
LINE
  5
265
100
AcDbEntity
  8
LAYER_CUT_FEAT
100
AcDbLine
 62
7
  6
CONTINUOUS
 10
14.8112751706
 20
12.4687956921
 11
14.8437225214
 21
12.3810630782
  0
LINE
  5
266
100
AcDbEntity
  8
LAYER_CUT_FEAT
100
AcDbLine
 62
7
  6
CONTINUOUS
 10
14.6638235112
 20
11.6249061205
 11
14.6541408583
 21
11.5935730441
  0
LINE
  5
267
100
AcDbEntity
  8
LAYER_CUT_FEAT
100
AcDbLine
 62
7
  6
CONTINUOUS
 10
14.8979453779
 20
12.556528306
 11
14.8112751706
 21
12.4687956921
  0
LINE
  5
268
100
AcDbEntity
  8
LAYER_CUT_FEAT
100
AcDbLine
 62
7
  6
CONTINUOUS
 10
14.8979453779
 20
12.556528306
 11
14.966274756
 21
12.4172876731
  0
LINE
  5
269
100
AcDbEntity
  8
LAYER_CUT_FEAT
100
AcDbLine
 62
7
  6
CONTINUOUS
 10
14.966274756
 20
12.4172876731
 11
14.9304888264
 21
12.3810630782
  0
LINE
  5
26A
100
AcDbEntity
  8
LAYER_CUT_FEAT
100
AcDbLine
 62
7
  6
CONTINUOUS
 10
15.0495102868
 20
12.4687956921
 11
15.017062936
 21
12.556528306
  0
LINE
  5
26B
100
AcDbEntity
  8
LAYER_CUT_FEAT
100
AcDbLine
 62
7
  6
CONTINUOUS
 10
15.668253258
 20
13.8831453516
 11
15.3116243611
 21
12.7290938183
  0
LINE
  5
26C
100
AcDbEntity
  8
LAYER_CUT_FEAT
100
AcDbLine
 62
7
  6
CONTINUOUS
 10
14.9628400795
 20
12.3810630782
 11
15.0495102868
 21
12.4687956921
  0
LINE
  5
26D
100
AcDbEntity
  8
LAYER_CUT_FEAT
100
AcDbLine
 62
7
  6
CONTINUOUS
 10
14.8437225214
 20
12.3810630782
 11
14.9628400795
 21
12.3810630782
  0
LINE
  5
26E
100
AcDbEntity
  8
LAYER_CUT_FEAT
100
AcDbLine
 62
7
  6
CONTINUOUS
 10
15.7933428919
 20
13.8492208073
 11
15.4390765825
 21
12.7028146098
  0
LINE
  5
26F
100
AcDbEntity
  8
LAYER_CUT_FEAT
100
AcDbLine
 62
7
  6
CONTINUOUS
 10
14.9986260091
 20
12.4172876731
 11
14.966274756
 21
12.4172876731
  0
LINE
  5
270
100
AcDbEntity
  8
LAYER_CUT_FEAT
100
AcDbLine
 62
7
  6
CONTINUOUS
 10
15.017062936
 20
12.556528306
 11
14.8979453779
 21
12.556528306
  0
LINE
  5
271
100
AcDbEntity
  8
LAYER_CUT_FEAT
100
AcDbLine
 62
7
  6
CONTINUOUS
 10
16.1744260709
 20
13.7052255664
 11
15.8184649077
 21
12.5533348202
  0
LINE
  5
272
100
AcDbEntity
  8
LAYER_CHAMFER_FEAT
100
AcDbLine
 62
7
  6
CONTINUOUS
 10
14.7328756998
 20
12.6941818618
 11
14.8508279059
 21
12.721921636
  0
LINE
  5
273
100
AcDbEntity
  8
LAYER_CHAMFER_FEAT
100
AcDbLine
 62
7
  6
CONTINUOUS
 10
16.1826827893
 20
12.2461575855
 11
16.1009445849
 21
12.3356063638
  0
LINE
  5
274
100
AcDbEntity
  8
LAYER_CUT_FEAT
100
AcDbLine
 62
7
  6
CONTINUOUS
 10
15.6364419306
 20
11.3243442963
 11
15.6267592777
 21
11.2930112199
  0
LINE
  5
275
100
AcDbEntity
  8
LAYER_CUT_FEAT
100
AcDbLine
 62
7
  6
CONTINUOUS
 10
16.4352425576
 20
13.4708258387
 11
16.0885126525
 21
12.3488074546
  0
LINE
  5
276
100
AcDbEntity
  8
LAYER_FEATURE
100
AcDbLine
 62
7
  6
CONTINUOUS
 10
16.4929848619
 20
13.2204419119
 11
16.4932131128
 21
13.2212705452
  0
LINE
  5
277
100
AcDbEntity
  8
LAYER_CUT_FEAT
100
AcDbLine
 62
7
  6
CONTINUOUS
 10
16.4929849602
 20
13.2204418815
 11
16.1895517735
 21
12.2385317293
  0
LINE
  5
278
100
AcDbEntity
  8
02___PRT_ALL_AXES
100
AcDbLine
 62
7
  6
CONTINUOUS
 10
16.1531961629
 20
11.1303299183
 11
16.3453968237
 21
11.7522914845
  0
LINE
  5
279
100
AcDbEntity
  8
LAYER_FEATURE
100
AcDbLine
 62
7
  6
CONTINUOUS
 10
16.7902890372
 20
13.1851892344
 11
16.8144956695
 21
13.2635219253
  0
ARC
  5
27A
100
AcDbEntity
  8
LAYER_FEATURE
100
AcDbCircle
 62
7
  6
CONTINUOUS
 10
6.1303672762
 20
5.5201198968
 40
1.062
100
AcDbArc
 50
86.683868168
 51
93.316131832
  0
ARC
  5
27B
100
AcDbEntity
  8
LAYER_FEATURE
100
AcDbCircle
 62
7
  6
CONTINUOUS
 10
6.1303672762
 20
5.5201198968
 40
1.062
100
AcDbArc
 50
100.6142085906
 51
79.3857914094
  0
CIRCLE
  5
27C
100
AcDbEntity
  8
02___PRT_ALL_AXES
100
AcDbCircle
 62
7
  6
CONTINUOUS
 10
6.1303672762
 20
5.5201198968
 40
1.06
  0
CIRCLE
  5
27D
100
AcDbEntity
  8
LAYER_CUT_FEAT
100
AcDbCircle
 62
7
  6
CONTINUOUS
 10
6.1303672762
 20
5.5201198968
 40
0.517
  0
CIRCLE
  5
27E
100
AcDbEntity
  8
LAYER_CUT_FEAT
100
AcDbCircle
 62
7
  6
CONTINUOUS
 10
6.1303672762
 20
5.5201198968
 40
0.509
  0
CIRCLE
  5
27F
100
AcDbEntity
  8
LAYER_CHAMFER_FEAT
100
AcDbCircle
 62
7
  6
CONTINUOUS
 10
6.1303672762
 20
5.5201198968
 40
0.2875
  0
CIRCLE
  5
280
100
AcDbEntity
  8
LAYER_CHAMFER_FEAT
100
AcDbCircle
 62
7
  6
CONTINUOUS
 10
6.1303672762
 20
5.5201198968
 40
0.25
  0
CIRCLE
  5
281
100
AcDbEntity
  8
02___PRT_ALL_AXES
100
AcDbCircle
 62
7
  6
CONTINUOUS
 10
6.0708720839
 20
11.7060477814
 40
0.224
  0
CIRCLE
  5
282
100
AcDbEntity
  8
LAYER_FEATURE
100
AcDbCircle
 62
7
  6
CONTINUOUS
 10
6.0708720839
 20
11.7060477814
 40
0.1792
  0
ARC
  5
283
100
AcDbEntity
  8
LAYER_FEATURE
100
AcDbCircle
 62
7
  6
CONTINUOUS
 10
15.5020023428
 20
12.6293133561
 40
1.2820884211
100
AcDbArc
 50
78.7154407063
 51
80.9447022462
  0
ARC
  5
284
100
AcDbEntity
  8
LAYER_FEATURE
100
AcDbCircle
 62
7
  6
CONTINUOUS
 10
15.5585937118
 20
12.7202126671
 40
1.1769930473
100
AcDbArc
 50
59.4906324757
 51
61.850713446
  0
ARC
  5
285
100
AcDbEntity
  8
LAYER_FEATURE
100
AcDbCircle
 62
7
  6
CONTINUOUS
 10
15.4876257238
 20
13.1792971625
 40
0.7286863818
100
AcDbArc
 50
100.8542669975
 51
104.1034228021
  0
ARC
  5
286
100
AcDbEntity
  8
LAYER_FEATURE
100
AcDbCircle
 62
7
  6
CONTINUOUS
 10
15.9532766866
 20
13.1711320097
 40
0.5732028617
100
AcDbArc
 50
33.3456922928
 51
37.1587410438
  0
ARC
  5
287
100
AcDbEntity
  8
LAYER_FEATURE
100
AcDbCircle
 62
7
  6
CONTINUOUS
 10
15.2934683898
 20
13.5662861456
 40
0.2886212115
100
AcDbArc
 50
138.7480067201
 51
144.7733138005
  0
ARC
  5
288
100
AcDbEntity
  8
LAYER_FEATURE
100
AcDbCircle
 62
7
  6
CONTINUOUS
 10
16.2448519791
 20
13.2813683876
 40
0.2555291358
100
AcDbArc
 50
346.3971753915
 51
352.9322418273
  0
ARC
  5
289
100
AcDbEntity
  8
LAYER_CUT_FEAT
100
AcDbCircle
 62
7
  6
CONTINUOUS
 10
15.4759762737
 20
11.3738918788
 40
0.1679412502
100
AcDbArc
 50
342.8406851211
 51
351.3460849593
  0
ARC
  5
28A
100
AcDbEntity
  8
LAYER_CUT_FEAT
100
AcDbCircle
 62
7
  6
CONTINUOUS
 10
14.8241854073
 20
11.5753151898
 40
0.1678548767
100
AcDbArc
 50
154.6502302039
 51
162.8160978498
  0
SPLINE
  5
28B
100
AcDbEntity
  8
02___PRT_ALL_AXES
100
AcDbSpline
 62
7
  6
CONTINUOUS
 70
0
 71
3
 72
31
 73
27
 74
0
 42
0.0000001
 43
0.0000001
 44
0.0000000001
 40
0.0
 40
0.0
 40
0.0
 40
0.0
 40
0.0097924596
 40
0.0386907445
 40
0.0853472527
 40
0.1477526162
 40
0.1841033531
 40
0.22343404
 40
0.2653787747
 40
0.309549888
 40
0.3555375796
 40
0.4029107603
 40
0.4512195681
 40
0.5000000004
 40
0.5487804327
 40
0.5970892404
 40
0.644462421
 40
0.6904501124
 40
0.7346212256
 40
0.7765659604
 40
0.8158966472
 40
0.8522473841
 40
0.9146527475
 40
0.9613092557
 40
0.9902075404
 40
1.0
 40
1.0
 40
1.0
 40
1.0
 10
14.8903552569
 20
6.5206247044
 30
0.0
 10
14.8889137656
 20
6.5203200866
 30
0.0
 10
14.8832160695
 20
6.519127143
 30
0.0
 10
14.8706282362
 20
6.5165887694
 30
0.0
 10
14.8502219022
 20
6.5127843995
 30
0.0
 10
14.8286301293
 20
6.5092405016
 30
0.0
 10
14.8080644468
 20
6.5062880029
 30
0.0
 10
14.7905086731
 20
6.5040464959
 30
0.0
 10
14.771747743
 20
6.5019739244
 30
0.0
 10
14.7519546564
 20
6.5001510827
 30
0.0
 10
14.7313153975
 20
6.4986502202
 30
0.0
 10
14.7100283115
 20
6.4975318428
 30
0.0
 10
14.6883025351
 20
6.4968417556
 30
0.0
 10
14.6663552568
 20
6.4966084631
 30
0.0
 10
14.6444079784
 20
6.4968417556
 30
0.0
 10
14.6226822021
 20
6.4975318429
 30
0.0
 10
14.6013951161
 20
6.4986502203
 30
0.0
 10
14.5807558572
 20
6.5001510828
 30
0.0
 10
14.5609627707
 20
6.5019739244
 30
0.0
 10
14.5422018406
 20
6.5040464959
 30
0.0
 10
14.524646067
 20
6.506288003
 30
0.0
 10
14.5040803845
 20
6.5092405016
 30
0.0
 10
14.4824886116
 20
6.5127843995
 30
0.0
 10
14.4620822776
 20
6.5165887694
 30
0.0
 10
14.4494944444
 20
6.519127143
 30
0.0
 10
14.4437967483
 20
6.5203200866
 30
0.0
 10
14.4423552569
 20
6.5206247044
 30
0.0
  0
SPLINE
  5
28C
100
AcDbEntity
  8
LAYER_CUT_FEAT
100
AcDbSpline
 62
7
  6
CONTINUOUS
 70
0
 71
3
 72
82
 73
78
 74
0
 42
0.0000001
 43
0.0000001
 44
0.0000000001
 40
0.0
 40
0.0
 40
0.0
 40
0.0
 40
0.0131061013
 40
0.0265342127
 40
0.0402891344
 40
0.0543740711
 40
0.0687893414
 40
0.0835332279
 40
0.0986019105
 40
0.1139896611
 40
0.1296889912
 40
0.14569078
 40
0.1619844044
 40
0.1785578541
 40
0.1953978508
 40
0.2124899584
 40
0.2298186844
 40
0.2473675769
 40
0.2651193143
 40
0.2830557981
 40
0.3011582405
 40
0.3194072467
 40
0.3377828949
 40
0.3562648129
 40
0.3748322575
 40
0.3934641908
 40
0.4121393543
 40
0.4308363411
 40
0.4495336697
 40
0.4682098581
 40
0.4868434967
 40
0.5054133205
 40
0.5238982824
 40
0.5422776287
 40
0.5605309763
 40
0.5786383876
 40
0.5965804489
 40
0.6143383498
 40
0.6318939693
 40
0.6492299628
 40
0.666329849
 40
0.6831781018
 40
0.6997602473
 40
0.7160629693
 40
0.7320742203
 40
0.7477833302
 40
0.7631811269
 40
0.7782600634
 40
0.7930143563
 40
0.8074401312
 40
0.8215355664
 40
0.8353010468
 40
0.8487393221
 40
0.8553377674
 40
0.8618566182
 40
0.8682969508
 40
0.8746600198
 40
0.8809472716
 40
0.8871603179
 40
0.8993700751
 40
0.9113071705
 40
0.9171802214
 40
0.9229928313
 40
0.9287479661
 40
0.9344487839
 40
0.9400986343
 40
0.9457010344
 40
0.9512596869
 40
0.9567784485
 40
0.9622613323
 40
0.9677124954
 40
0.9731362156
 40
0.9785368909
 40
0.9839190098
 40
0.9892871416
 40
0.9946459156
 40
1.0
 40
1.0
 40
1.0
 40
1.0
 10
14.671630022
 20
11.443292132
 30
0.0
 10
14.6737962657
 20
11.4388777916
 30
0.0
 10
14.6784059555
 20
11.4300489158
 30
0.0
 10
14.6860266014
 20
11.4169887842
 30
0.0
 10
14.6944235808
 20
11.4039744245
 30
0.0
 10
14.7035820946
 20
11.3910283803
 30
0.0
 10
14.7134866222
 20
11.378172428
 30
0.0
 10
14.7241201614
 20
11.3654284349
 30
0.0
 10
14.735464552
 20
11.3528180203
 30
0.0
 10
14.7475004144
 20
11.3403626124
 30
0.0
 10
14.7602072038
 20
11.3280833879
 30
0.0
 10
14.7735632399
 20
11.3160012403
 30
0.0
 10
14.7875457379
 20
11.3041367438
 30
0.0
 10
14.8021308348
 20
11.2925101038
 30
0.0
 10
14.8172936386
 20
11.2811411305
 30
0.0
 10
14.8330082737
 20
11.2700492056
 30
0.0
 10
14.8492479229
 20
11.2592532462
 30
0.0
 10
14.865984872
 20
11.2487716752
 30
0.0
 10
14.8831905478
 20
11.2386223744
 30
0.0
 10
14.9008355736
 20
11.228822662
 30
0.0
 10
14.9188898233
 20
11.2193892657
 30
0.0
 10
14.9373224714
 20
11.210338292
 30
0.0
 10
14.9561020457
 20
11.2016852017
 30
0.0
 10
14.9751964742
 20
11.1934447685
 30
0.0
 10
14.994573145
 20
11.1856310605
 30
0.0
 10
15.0141989652
 20
11.1782574219
 30
0.0
 10
15.0340404165
 20
11.1713364475
 30
0.0
 10
15.0540636127
 20
11.1648799646
 30
0.0
 10
15.0742343535
 20
11.1588989993
 30
0.0
 10
15.094518186
 20
11.1534037612
 30
0.0
 10
15.1148804665
 20
11.1484036353
 30
0.0
 10
15.1352864182
 20
11.1439071623
 30
0.0
 10
15.1557011912
 20
11.1399220284
 30
0.0
 10
15.1760899208
 20
11.1364550389
 30
0.0
 10
15.1964177886
 20
11.1335121088
 30
0.0
 10
15.2166500837
 20
11.1310982632
 30
0.0
 10
15.2367522612
 20
11.1292176263
 30
0.0
 10
15.256690001
 20
11.1278734182
 30
0.0
 10
15.2764292679
 20
11.1270679383
 30
0.0
 10
15.2959363708
 20
11.1268025604
 30
0.0
 10
15.3151780209
 20
11.1270777445
 30
0.0
 10
15.3341213865
 20
11.1278930333
 30
0.0
 10
15.3527341495
 20
11.1292470579
 30
0.0
 10
15.3709845632
 20
11.1311375315
 30
0.0
 10
15.388841508
 20
11.1335612498
 30
0.0
 10
15.4062745422
 20
11.1365141142
 30
0.0
 10
15.4232539509
 20
11.1399911379
 30
0.0
 10
15.4397507939
 20
11.1439864586
 30
0.0
 10
15.4557369638
 20
11.1484933479
 30
0.0
 10
15.4711852075
 20
11.1535042033
 30
0.0
 10
15.4860692648
 20
11.1590106309
 30
0.0
 10
15.5003635366
 20
11.1650032842
 30
0.0
 10
15.511832878
 20
11.1704267352
 30
0.0
 10
15.5206840949
 20
11.1750025828
 30
0.0
 10
15.5271200212
 20
11.1785285188
 30
0.0
 10
15.5333907017
 20
11.1821676901
 30
0.0
 10
15.5394934649
 20
11.1859185785
 30
0.0
 10
15.5454257751
 20
11.1897795801
 30
0.0
 10
15.5530598754
 20
11.1950413027
 30
0.0
 10
15.5621744324
 20
11.2018830939
 30
0.0
 10
15.5707887252
 20
11.2091497407
 30
0.0
 10
15.5773014534
 20
11.2151627107
 30
0.0
 10
15.5819731948
 20
11.2197459937
 30
0.0
 10
15.5864561627
 20
11.2244249699
 30
0.0
 10
15.5907484588
 20
11.2291976933
 30
0.0
 10
15.5948482623
 20
11.2340620815
 30
0.0
 10
15.59875375
 20
11.2390161106
 30
0.0
 10
15.6024632869
 20
11.2440576188
 30
0.0
 10
15.6059752439
 20
11.2491844729
 30
0.0
 10
15.6092880904
 20
11.2543944826
 30
0.0
 10
15.6124004386
 20
11.2596853871
 30
0.0
 10
15.6153108731
 20
11.2650549563
 30
0.0
 10
15.6180181966
 20
11.2705008497
 30
0.0
 10
15.6205212002
 20
11.2760207395
 30
0.0
 10
15.6228187998
 20
11.2816122786
 30
0.0
 10
15.624910019
 20
11.287272943
 30
0.0
 10
15.6261661865
 20
11.2910919978
 30
0.0
 10
15.6267592696
 20
11.2930112224
 30
0.0
  0
SPLINE
  5
28D
100
AcDbEntity
  8
LAYER_CUT_FEAT
100
AcDbSpline
 62
7
  6
CONTINUOUS
 70
0
 71
3
 72
81
 73
77
 74
0
 42
0.0000001
 43
0.0000001
 44
0.0000000001
 40
0.0
 40
0.0
 40
0.0
 40
0.0
 40
0.0131061272
 40
0.026534231
 40
0.040289174
 40
0.0543741235
 40
0.0687894065
 40
0.0835333066
 40
0.0986020032
 40
0.1139897694
 40
0.1296891153
 40
0.145690919
 40
0.1619845571
 40
0.1785580224
 40
0.1953980362
 40
0.2124901612
 40
0.2298189036
 40
0.247367811
 40
0.2651195647
 40
0.2830560665
 40
0.3011585272
 40
0.3194075508
 40
0.3377832154
 40
0.3562651504
 40
0.3748326132
 40
0.3934645648
 40
0.4121397457
 40
0.4308367498
 40
0.4495340965
 40
0.4682103031
 40
0.4868439591
 40
0.5054137996
 40
0.5238987789
 40
0.542278144
 40
0.5605315099
 40
0.5786389375
 40
0.5965810139
 40
0.6143389312
 40
0.6318945695
 40
0.6492305816
 40
0.6663304831
 40
0.6831787489
 40
0.6997609089
 40
0.7160636489
 40
0.732074918
 40
0.7477840425
 40
0.7631818504
 40
0.7782607991
 40
0.7930151081
 40
0.8074408999
 40
0.8215363493
 40
0.8353018397
 40
0.8487401251
 40
0.8618564856
 40
0.8682968259
 40
0.874659902
 40
0.8809471561
 40
0.8871602131
 40
0.8993699801
 40
0.9113070846
 40
0.9171801445
 40
0.922992757
 40
0.928747899
 40
0.934448722
 40
0.9400985764
 40
0.945700984
 40
0.9512596398
 40
0.956778408
 40
0.9622612966
 40
0.9677124643
 40
0.9731361905
 40
0.9785368701
 40
0.9839189948
 40
0.9892871314
 40
0.9946459106
 40
1.0
 40
1.0
 40
1.0
 40
1.0
 10
15.6166386019
 20
11.443292132
 30
0.0
 10
15.6144383089
 20
11.4477758576
 30
0.0
 10
15.6097561712
 20
11.4567434963
 30
0.0
 10
15.6020157478
 20
11.4700088941
 30
0.0
 10
15.5934867966
 20
11.4832277987
 30
0.0
 10
15.5841843343
 20
11.4963773178
 30
0.0
 10
15.5741241367
 20
11.5094353276
 30
0.0
 10
15.5633234723
 20
11.5223796211
 30
0.0
 10
15.5518007805
 20
11.5351882346
 30
0.0
 10
15.5395757477
 20
11.5478394046
 30
0.0
 10
15.5266692424
 20
11.5603116215
 30
0.0
 10
15.5131032883
 20
11.5725836647
 30
0.0
 10
15.4989010301
 20
11.5846346401
 30
0.0
 10
15.4840866985
 20
11.5964440174
 30
0.0
 10
15.4686855775
 20
11.6079916763
 30
0.0
 10
15.4527239514
 20
11.6192579319
 30
0.0
 10
15.4362290615
 20
11.6302235709
 30
0.0
 10
15.41922906
 20
11.6408698862
 30
0.0
 10
15.4017529629
 20
11.6511787067
 30
0.0
 10
15.3838306067
 20
11.66113244
 30
0.0
 10
15.3654925941
 20
11.6707140986
 30
0.0
 10
15.3467702371
 20
11.6799073248
 30
0.0
 10
15.3276955052
 20
11.6886964208
 30
0.0
 10
15.3083009702
 20
11.6970663746
 30
0.0
 10
15.2886197535
 20
11.7050028894
 30
0.0
 10
15.2686854704
 20
11.7124924158
 30
0.0
 10
15.2485321679
 20
11.7195221639
 30
0.0
 10
15.2281942665
 20
11.7260801272
 30
0.0
 10
15.2077065023
 20
11.732155103
 30
0.0
 10
15.1871038666
 20
11.73773671
 30
0.0
 10
15.1664215492
 20
11.7428154182
 30
0.0
 10
15.1456948746
 20
11.7473825572
 30
0.0
 10
15.124959241
 20
11.7514303278
 30
0.0
 10
15.1042500604
 20
11.754951816
 30
0.0
 10
15.0836026974
 20
11.7579410031
 30
0.0
 10
15.0630524094
 20
11.760392782
 30
0.0
 10
15.0426342848
 20
11.7623029702
 30
0.0
 10
15.0223831818
 20
11.7636683055
 30
0.0
 10
15.00233367
 20
11.7644864528
 30
0.0
 10
14.9825199709
 20
11.7647560069
 30
0.0
 10
14.9629758987
 20
11.7644764936
 30
0.0
 10
14.9437348008
 20
11.7636483829
 30
0.0
 10
14.9248295001
 20
11.762273075
 30
0.0
 10
14.9062922407
 20
11.7603528954
 30
0.0
 10
14.8881546337
 20
11.7578910898
 30
0.0
 10
14.8704476033
 20
11.7548918136
 30
0.0
 10
14.8532013318
 20
11.7513601329
 30
0.0
 10
14.8364452079
 20
11.747302013
 30
0.0
 10
14.8202077829
 20
11.742724296
 30
0.0
 10
14.8045167194
 20
11.7376346837
 30
0.0
 10
14.789398777
 20
11.7320417377
 30
0.0
 10
14.7748796648
 20
11.7259548006
 30
0.0
 10
14.7609843828
 20
11.7193842121
 30
0.0
 10
14.7498774343
 20
11.7134791008
 30
0.0
 10
14.7413335697
 20
11.7085207016
 30
0.0
 10
14.7351348595
 20
11.704710854
 30
0.0
 10
14.7291093286
 20
11.7007891534
 30
0.0
 10
14.721355223
 20
11.6954447566
 30
0.0
 10
14.7120974207
 20
11.6884954194
 30
0.0
 10
14.70334775
 20
11.6811145478
 30
0.0
 10
14.6967326393
 20
11.6750070951
 30
0.0
 10
14.6919874883
 20
11.6703517579
 30
0.0
 10
14.6874340509
 20
11.6655992529
 30
0.0
 10
14.683074292
 20
11.6607515158
 30
0.0
 10
14.6789100645
 20
11.6558106629
 30
0.0
 10
14.6749431734
 20
11.6507787874
 30
0.0
 10
14.6711753534
 20
11.6456580256
 30
0.0
 10
14.6676081844
 20
11.640450603
 30
0.0
 10
14.6642432728
 20
11.6351587044
 30
0.0
 10
14.6610820182
 20
11.6297846363
 30
0.0
 10
14.6581258205
 20
11.6243306838
 30
0.0
 10
14.6553759666
 20
11.618799186
 30
0.0
 10
14.6528336065
 20
11.6131925476
 30
0.0
 10
14.6504999014
 20
11.6075131228
 30
0.0
 10
14.6483758225
 20
11.6017634866
 30
0.0
 10
14.647099899
 20
11.5978844115
 30
0.0
 10
14.6464974958
 20
11.5959350217
 30
0.0
  0
SPLINE
  5
28E
100
AcDbEntity
  8
LAYER_CHAMFER_FEAT
100
AcDbSpline
 62
7
  6
CONTINUOUS
 70
0
 71
3
 72
29
 73
25
 74
0
 42
0.0000001
 43
0.0000001
 44
0.0000000001
 40
0.0
 40
0.0
 40
0.0
 40
0.0
 40
0.0738968667
 40
0.146002732
 40
0.2163226433
 40
0.2848760285
 40
0.3516979152
 40
0.41683983
 40
0.4803705284
 40
0.5423768702
 40
0.6029643621
 40
0.6622571391
 40
0.6914660132
 40
0.7204062193
 40
0.7490983237
 40
0.7775638604
 40
0.8058254166
 40
0.8339063983
 40
0.8618309997
 40
0.8896241842
 40
0.9173114692
 40
0.9449188791
 40
0.9724728384
 40
1.0
 40
1.0
 40
1.0
 40
1.0
 10
14.9936136554
 20
11.6170817591
 30
0.0
 10
14.9909456708
 20
11.6162576689
 30
0.0
 10
14.9857067769
 20
11.6145218723
 30
0.0
 10
14.9780634143
 20
11.6116168661
 30
0.0
 10
14.9707449342
 20
11.6084476009
 30
0.0
 10
14.9637653963
 20
11.6050199863
 30
0.0
 10
14.9571380059
 20
11.6013403761
 30
0.0
 10
14.9508753704
 20
11.5974156043
 30
0.0
 10
14.9449894668
 20
11.5932529282
 30
0.0
 10
14.9394915525
 20
11.5888600053
 30
0.0
 10
14.9343923525
 20
11.5842451847
 30
0.0
 10
14.9304636601
 20
11.5802012011
 30
0.0
 10
14.9275354865
 20
11.5768655983
 30
0.0
 10
14.925455603
 20
11.5743265675
 30
0.0
 10
14.923482218
 20
11.5717391647
 30
0.0
 10
14.9216162933
 20
11.569104559
 30
0.0
 10
14.9198586928
 20
11.5664240428
 30
0.0
 10
14.9182102647
 20
11.5636988849
 30
0.0
 10
14.9166718439
 20
11.5609303633
 30
0.0
 10
14.9152441221
 20
11.5581198271
 30
0.0
 10
14.9139278055
 20
11.5552686121
 30
0.0
 10
14.9127235558
 20
11.5523780549
 30
0.0
 10
14.911631918
 20
11.5494496182
 30
0.0
 10
14.910979452
 20
11.5474725396
 30
0.0
 10
14.9106723458
 20
11.5464787334
 30
0.0
  0
SPLINE
  5
28F
100
AcDbEntity
  8
LAYER_CHAMFER_FEAT
100
AcDbSpline
 62
7
  6
CONTINUOUS
 70
0
 71
3
 72
29
 73
25
 74
0
 42
0.0000001
 43
0.0000001
 44
0.0000000001
 40
0.0
 40
0.0
 40
0.0
 40
0.0
 40
0.0739147546
 40
0.1460366347
 40
0.2163703237
 40
0.2849350966
 40
0.351765845
 40
0.4169138586
 40
0.4804478168
 40
0.5424546492
 40
0.6030398313
 40
0.6623275744
 40
0.6915330408
 40
0.7204691968
 40
0.7491567066
 40
0.777617162
 40
0.8058731259
 40
0.8339481091
 40
0.8618663533
 40
0.8896528427
 40
0.9173331923
 40
0.9449334723
 40
0.9724801644
 40
1.0
 40
1.0
 40
1.0
 40
1.0
 10
15.3596191789
 20
11.5040860765
 30
0.0
 10
15.3613622992
 20
11.5018979453
 30
0.0
 10
15.3647186543
 20
11.4975039667
 30
0.0
 10
15.3694050353
 20
11.4907849853
 30
0.0
 10
15.3736730926
 20
11.4840307506
 30
0.0
 10
15.3775145347
 20
11.4772541465
 30
0.0
 10
15.3809220144
 20
11.4704679242
 30
0.0
 10
15.3838889033
 20
11.463684874
 30
0.0
 10
15.3864093735
 20
11.4569178006
 30
0.0
 10
15.3884784595
 20
11.4501794421
 30
0.0
 10
15.3900919635
 20
11.4434827836
 30
0.0
 10
15.3910589116
 20
11.4379193127
 30
0.0
 10
15.3915979052
 20
11.4335068591
 30
0.0
 10
15.3918847455
 20
11.4302323625
 30
0.0
 10
15.3920560582
 20
11.426978046
 30
0.0
 10
15.3921117381
 20
11.4237454219
 30
0.0
 10
15.3920517188
 20
11.4205360504
 30
0.0
 10
15.3918760779
 20
11.4173514654
 30
0.0
 10
15.3915848555
 20
11.4141931954
 30
0.0
 10
15.3911781714
 20
11.4110627588
 30
0.0
 10
15.390656268
 20
11.4079616558
 30
0.0
 10
15.3900193397
 20
11.4048913679
 30
0.0
 10
15.3892677117
 20
11.4018534297
 30
0.0
 10
15.3886902871
 20
11.3998502032
 30
0.0
 10
15.3883827644
 20
11.3988550488
 30
0.0
  0
SPLINE
  5
290
100
AcDbEntity
  8
02___PRT_ALL_AXES
100
AcDbSpline
 62
7
  6
CONTINUOUS
 70
0
 71
3
 72
62
 73
58
 74
0
 42
0.0000001
 43
0.0000001
 44
0.0000000001
 40
0.0
 40
0.0
 40
0.0
 40
0.0
 40
0.0136478331
 40
0.0272739924
 40
0.0408845629
 40
0.0544858647
 40
0.0680844575
 40
0.0816871284
 40
0.0953008781
 40
0.1089328987
 40
0.1225905314
 40
0.1362812646
 40
0.1500126659
 40
0.1637923656
 40
0.1776279708
 40
0.1915270633
 40
0.2054970961
 40
0.2195453699
 40
0.2336789465
 40
0.2479046143
 40
0.2622288191
 40
0.2766576039
 40
0.2911965715
 40
0.3058508074
 40
0.3206248819
 40
0.3355227629
 40
0.3505478252
 40
0.3657027792
 40
0.380989702
 40
0.3964099745
 40
0.4119642961
 40
0.4276526676
 40
0.4594243122
 40
0.4755079253
 40
0.4917186795
 40
0.5245039925
 40
0.5410729463
 40
0.5577513931
 40
0.5745333347
 40
0.5914121645
 40
0.6083806988
 40
0.6254311589
 40
0.6597416672
 40
0.6942733917
 40
0.7289456303
 40
0.7636707288
 40
0.7983550836
 40
0.8329004347
 40
0.867205382
 40
0.8842365694
 40
0.9011691493
 40
0.9179904622
 40
0.9346879064
 40
0.9512490406
 40
0.9676624767
 40
0.9839172193
 40
1.0
 40
1.0
 40
1.0
 40
1.0
 10
15.1364590382
 20
12.5573404404
 30
0.0
 10
15.1373370805
 20
12.5555511767
 30
0.0
 10
15.1390156425
 20
12.5519375384
 30
0.0
 10
15.1412967287
 20
12.5464178865
 30
0.0
 10
15.1433354832
 20
12.5408113049
 30
0.0
 10
15.1451284727
 20
12.5351256016
 30
0.0
 10
15.1466727797
 20
12.5293685538
 30
0.0
 10
15.1479656081
 20
12.5235480024
 30
0.0
 10
15.1490045818
 20
12.5176718594
 30
0.0
 10
15.1497875709
 20
12.5117480646
 30
0.0
 10
15.1503128006
 20
12.5057845907
 30
0.0
 10
15.1505788813
 20
12.499789423
 30
0.0
 10
15.1505846938
 20
12.4937705375
 30
0.0
 10
15.150329652
 20
12.4877358893
 30
0.0
 10
15.1498133544
 20
12.4816933967
 30
0.0
 10
15.149036047
 20
12.4756509003
 30
0.0
 10
15.1479981183
 20
12.4696161845
 30
0.0
 10
15.1467006409
 20
12.4635968936
 30
0.0
 10
15.1451448592
 20
12.4576005915
 30
0.0
 10
15.1433326396
 20
12.4516346533
 30
0.0
 10
15.1412661204
 20
12.4457063248
 30
0.0
 10
15.1389479235
 20
12.4398226499
 30
0.0
 10
15.1363810727
 20
12.4339904698
 30
0.0
 10
15.1335689115
 20
12.4282164425
 30
0.0
 10
15.1305152932
 20
12.4225069351
 30
0.0
 10
15.1272242508
 20
12.4168681686
 30
0.0
 10
15.1237003778
 20
12.4113059982
 30
0.0
 10
15.1199483667
 20
12.4058261642
 30
0.0
 10
15.1159734348
 20
12.4004340002
 30
0.0
 10
15.1117809112
 20
12.3951347447
 30
0.0
 10
15.1073764695
 20
12.3899331638
 30
0.0
 10
15.101203878
 20
12.3831062173
 30
0.0
 10
15.0946537477
 20
12.3765228228
 30
0.0
 10
15.0877617576
 20
12.3701939016
 30
0.0
 10
15.080574373
 20
12.3639737058
 30
0.0
 10
15.0730653863
 20
12.3580231241
 30
0.0
 10
15.0652682216
 20
12.3523475273
 30
0.0
 10
15.0592476365
 20
12.348206766
 30
0.0
 10
15.0530830182
 20
12.3442002136
 30
0.0
 10
15.0467819348
 20
12.3403303551
 30
0.0
 10
15.0403520662
 20
12.3365996986
 30
0.0
 10
15.031600127
 20
12.3318045297
 30
0.0
 10
15.0203844785
 20
12.3261761938
 30
0.0
 10
15.0065689787
 20
12.3200272787
 30
0.0
 10
14.9924346732
 20
12.3144836791
 30
0.0
 10
14.9780498383
 20
12.3095586354
 30
0.0
 10
14.9634838118
 20
12.3052638969
 30
0.0
 10
14.9488074327
 20
12.3016099807
 30
0.0
 10
14.9365148749
 20
12.2991005361
 30
0.0
 10
14.9266866821
 20
12.2974224719
 30
0.0
 10
14.9193500849
 20
12.2963324511
 30
0.0
 10
14.9120398514
 20
12.2954087272
 30
0.0
 10
14.9047649734
 20
12.294651915
 30
0.0
 10
14.8975343762
 20
12.2940625221
 30
0.0
 10
14.8903567903
 20
12.293640954
 30
0.0
 10
14.8832412293
 20
12.2933875509
 30
0.0
 10
14.8785185594
 20
12.2933304643
 30
0.0
 10
14.8761698723
 20
12.2933304643
 30
0.0
  0
SPLINE
  5
291
100
AcDbEntity
  8
LAYER_CUT_FEAT
100
AcDbSpline
 62
7
  6
CONTINUOUS
 70
0
 71
3
 72
23
 73
19
 74
0
 42
0.0000001
 43
0.0000001
 44
0.0000000001
 40
0.0
 40
0.0
 40
0.0
 40
0.0
 40
0.0581641119
 40
0.1164420938
 40
0.1749467093
 40
0.2337885826
 40
0.2930751387
 40
0.3529097493
 40
0.4133909227
 40
0.4746115731
 40
0.5366585827
 40
0.5996122072
 40
0.6635460539
 40
0.72852679
 40
0.7946131943
 40
0.8618582375
 40
0.9303096873
 40
1.0
 40
1.0
 40
1.0
 40
1.0
 10
15.6344026401
 20
11.2906492423
 30
0.0
 10
15.63530395
 20
11.2935659008
 30
0.0
 10
15.6369508152
 20
11.2994549482
 30
0.0
 10
15.6389439561
 20
11.3084224197
 30
0.0
 10
15.6404593053
 20
11.3175191678
 30
0.0
 10
15.641495262
 20
11.3267360157
 30
0.0
 10
15.6420509736
 20
11.3360640891
 30
0.0
 10
15.64212597
 20
11.3454943214
 30
0.0
 10
15.6417202422
 20
11.3550175941
 30
0.0
 10
15.6408343483
 20
11.3646247216
 30
0.0
 10
15.639469188
 20
11.3743064507
 30
0.0
 10
15.6376262188
 20
11.3840534927
 30
0.0
 10
15.6353073184
 20
11.3938565216
 30
0.0
 10
15.6325147577
 20
11.4037061284
 30
0.0
 10
15.6292513995
 20
11.4135929253
 30
0.0
 10
15.6255203229
 20
11.4235076217
 30
0.0
 10
15.6213252802
 20
11.4334404246
 30
0.0
 10
15.6182499744
 20
11.4400085
 30
0.0
 10
15.6166386019
 20
11.443292132
 30
0.0
  0
SPLINE
  5
292
100
AcDbEntity
  8
LAYER_CUT_FEAT
100
AcDbSpline
 62
7
  6
CONTINUOUS
 70
0
 71
3
 72
23
 73
19
 74
0
 42
0.0000001
 43
0.0000001
 44
0.0000000001
 40
0.0
 40
0.0
 40
0.0
 40
0.0
 40
0.0581641106
 40
0.1164420944
 40
0.1749467108
 40
0.23378858
 40
0.2930751419
 40
0.3529097467
 40
0.4133909226
 40
0.4746115783
 40
0.5366585788
 40
0.5996122046
 40
0.6635460631
 40
0.7285268001
 40
0.7946131505
 40
0.8618582381
 40
0.9303098072
 40
1.0
 40
1.0
 40
1.0
 40
1.0
 10
14.6541408663
 20
11.5935730416
 30
0.0
 10
14.653253501
 20
11.5907015159
 30
0.0
 10
14.6516321129
 20
11.5849035966
 30
0.0
 10
14.6496698181
 20
11.5760748854
 30
0.0
 10
14.6481779239
 20
11.5671188988
 30
0.0
 10
14.6471579838
 20
11.5580446725
 30
0.0
 10
14.6466108851
 20
11.5488609401
 30
0.0
 10
14.6465370392
 20
11.5395766303
 30
0.0
 10
14.6469364919
 20
11.5302007194
 30
0.0
 10
14.6478086822
 20
11.5207422522
 30
0.0
 10
14.6491527098
 20
11.511210336
 30
0.0
 10
14.6509671682
 20
11.5016141197
 30
0.0
 10
14.6532501825
 20
11.4919627803
 30
0.0
 10
14.6559995325
 20
11.4822655877
 30
0.0
 10
14.6592123929
 20
11.4725317782
 30
0.0
 10
14.6628857361
 20
11.4627704949
 30
0.0
 10
14.6670158696
 20
11.4529913906
 30
0.0
 10
14.6700435864
 20
11.4465249479
 30
0.0
 10
14.671630022
 20
11.443292132
 30
0.0
  0
SPLINE
  5
293
100
AcDbEntity
  8
LAYER_CHAMFER_FEAT
100
AcDbSpline
 62
7
  6
CONTINUOUS
 70
0
 71
3
 72
39
 73
35
 74
0
 42
0.0000001
 43
0.0000001
 44
0.0000000001
 40
0.0
 40
0.0
 40
0.0
 40
0.0
 40
0.0378630245
 40
0.0752495785
 40
0.1121557643
 40
0.148578729
 40
0.1845166092
 40
0.2199686515
 40
0.2549352162
 40
0.2894178283
 40
0.3234192578
 40
0.3569434989
 40
0.38999591
 40
0.4225831488
 40
0.4547133275
 40
0.4863959516
 40
0.5176420353
 40
0.5484640839
 40
0.5788761354
 40
0.6088937957
 40
0.6385342018
 40
0.6678160894
 40
0.6967596993
 40
0.725386834
 40
0.7537207423
 40
0.7817861211
 40
0.8096090043
 40
0.8372166869
 40
0.864637621
 40
0.8919012705
 40
0.919037997
 40
0.9460788727
 40
0.9730555373
 40
1.0
 40
1.0
 40
1.0
 40
1.0
 10
14.7328757001
 20
12.6941818615
 30
0.0
 10
14.7261897641
 20
12.692609478
 30
0.0
 10
14.712934326
 20
12.6893450974
 30
0.0
 10
14.6932878393
 20
12.6840537065
 30
0.0
 10
14.6740141105
 20
12.6784011779
 30
0.0
 10
14.6551244727
 20
12.6723908897
 30
0.0
 10
14.6366299194
 20
12.6660262687
 30
0.0
 10
14.6185412313
 20
12.6593110402
 30
0.0
 10
14.6008689527
 20
12.6522490912
 30
0.0
 10
14.5836233952
 20
12.6448444963
 30
0.0
 10
14.5668145982
 20
12.6371015898
 30
0.0
 10
14.5504523916
 20
12.6290247946
 30
0.0
 10
14.5345462884
 20
12.6206188647
 30
0.0
 10
14.5191056089
 20
12.6118885879
 30
0.0
 10
14.5041393318
 20
12.6028390936
 30
0.0
 10
14.4896562321
 20
12.5934755607
 30
0.0
 10
14.4756647544
 20
12.5838034497
 30
0.0
 10
14.4621730921
 20
12.5738283458
 30
0.0
 10
14.4491891542
 20
12.5635560152
 30
0.0
 10
14.4367205248
 20
12.5529924438
 30
0.0
 10
14.4247745654
 20
12.5421437
 30
0.0
 10
14.4133582374
 20
12.5310161445
 30
0.0
 10
14.4024783257
 20
12.5196161643
 30
0.0
 10
14.3921411746
 20
12.5079504538
 30
0.0
 10
14.3823529456
 20
12.4960257434
 30
0.0
 10
14.3731193809
 20
12.4838490215
 30
0.0
 10
14.3644459698
 20
12.4714273739
 30
0.0
 10
14.3563378585
 20
12.4587680596
 30
0.0
 10
14.3487998279
 20
12.4458785108
 30
0.0
 10
14.3418364131
 20
12.4327662453
 30
0.0
 10
14.3354516784
 20
12.4194390309
 30
0.0
 10
14.329649486
 20
12.4059045709
 30
0.0
 10
14.3244332795
 20
12.3921712078
 30
0.0
 10
14.3213477316
 20
12.3828857364
 30
0.0
 10
14.3199046416
 20
12.3782159096
 30
0.0
  0
SPLINE
  5
294
100
AcDbEntity
  8
LAYER_CHAMFER_FEAT
100
AcDbSpline
 62
7
  6
CONTINUOUS
 70
0
 71
3
 72
39
 73
35
 74
0
 42
0.0000001
 43
0.0000001
 44
0.0000000001
 40
0.0
 40
0.0
 40
0.0
 40
0.0
 40
0.0378630353
 40
0.07524958
 40
0.1121557715
 40
0.1485787345
 40
0.1845166122
 40
0.2199686611
 40
0.2549352157
 40
0.2894178393
 40
0.3234192557
 40
0.3569435083
 40
0.3899959093
 40
0.4225831546
 40
0.4547133305
 40
0.4863959535
 40
0.517642042
 40
0.5484640829
 40
0.5788761435
 40
0.6088937933
 40
0.6385342084
 40
0.6678160881
 40
0.6967597032
 40
0.7253868352
 40
0.7537207434
 40
0.7817861246
 40
0.8096090037
 40
0.8372166907
 40
0.8646376201
 40
0.8919012731
 40
0.9190379968
 40
0.9460788736
 40
0.9730555378
 40
1.0
 40
1.0
 40
1.0
 40
1.0
 10
16.1826827822
 20
12.246157584
 30
0.0
 10
16.187315987
 20
12.2410873208
 30
0.0
 10
16.1964187909
 20
12.2309137376
 30
0.0
 10
16.2096548026
 20
12.2154608636
 30
0.0
 10
16.2223793301
 20
12.199920141
 30
0.0
 10
16.234584876
 20
12.1843007089
 30
0.0
 10
16.2462643129
 20
12.168611615
 30
0.0
 10
16.2574108589
 20
12.1528620305
 30
0.0
 10
16.2680179488
 20
12.1370610733
 30
0.0
 10
16.2780794503
 20
12.1212179864
 30
0.0
 10
16.2875894139
 20
12.1053419379
 30
0.0
 10
16.2965423365
 20
12.0894422044
 30
0.0
 10
16.3049329293
 20
12.0735280035
 30
0.0
 10
16.3127563001
 20
12.0576086084
 30
0.0
 10
16.320007855
 20
12.0416932768
 30
0.0
 10
16.3266833064
 20
12.0257912558
 30
0.0
 10
16.3327787717
 20
12.0099118202
 30
0.0
 10
16.338290581
 20
11.994064182
 30
0.0
 10
16.3432155556
 20
11.9782576011
 30
0.0
 10
16.3475506793
 20
11.9625012529
 30
0.0
 10
16.3512934488
 20
11.9468043484
 30
0.0
 10
16.3544415509
 20
11.9311760236
 30
0.0
 10
16.3569931267
 20
11.9156254143
 30
0.0
 10
16.3589466067
 20
11.9001616037
 30
0.0
 10
16.360300763
 20
11.8847936373
 30
0.0
 10
16.3610547889
 20
11.8695305207
 30
0.0
 10
16.3612081011
 20
11.854381201
 30
0.0
 10
16.3607606467
 20
11.8393545752
 30
0.0
 10
16.3597125286
 20
11.8244594808
 30
0.0
 10
16.3580644126
 20
11.8097046732
 30
0.0
 10
16.3558171495
 20
11.7950988762
 30
0.0
 10
16.3529720617
 20
11.7806506063
 30
0.0
 10
16.3495308715
 20
11.7663687195
 30
0.0
 10
16.3468399059
 20
11.7569613136
 30
0.0
 10
16.3453968159
 20
11.7522914869
 30
0.0
  0
SPLINE
  5
295
100
AcDbEntity
  8
LAYER_FEATURE
100
AcDbSpline
 62
7
  6
CONTINUOUS
 70
0
 71
3
 72
39
 73
35
 74
0
 42
0.0000001
 43
0.0000001
 44
0.0000000001
 40
0.0
 40
0.0
 40
0.0
 40
0.0
 40
0.0268994081
 40
0.0538314556
 40
0.0808285899
 40
0.1079228659
 40
0.1351457707
 40
0.1625280453
 40
0.1900995171
 40
0.2178889757
 40
0.245924007
 40
0.2742309312
 40
0.3028346584
 40
0.3317586582
 40
0.3610248769
 40
0.3906536966
 40
0.4206639399
 40
0.4510727998
 40
0.4818959188
 40
0.5131473127
 40
0.5448394706
 40
0.576983324
 40
0.6095883052
 40
0.642662399
 40
0.6762121329
 40
0.7102427043
 40
0.7447579257
 40
0.7797603744
 40
0.8152513557
 40
0.8512310043
 40
0.8876983191
 40
0.9246511813
 40
0.9620864672
 40
1.0
 40
1.0
 40
1.0
 40
1.0
 10
14.760975164
 20
13.8122946514
 30
0.0
 10
14.7595182956
 20
13.8075802237
 30
0.0
 10
14.75680314
 20
13.7980823906
 30
0.0
 10
14.7533359395
 20
13.783662017
 30
0.0
 10
14.7504751993
 20
13.7690725101
 30
0.0
 10
14.7482226612
 20
13.7543229578
 30
0.0
 10
14.7465796217
 20
13.7394220968
 30
0.0
 10
14.7455470518
 20
13.7243788658
 30
0.0
 10
14.7451254546
 20
13.7092022503
 30
0.0
 10
14.7453151089
 20
13.6939013121
 30
0.0
 10
14.7461157448
 20
13.6784851704
 30
0.0
 10
14.7475269074
 20
13.6629630106
 30
0.0
 10
14.7495476238
 20
13.6473440575
 30
0.0
 10
14.7521766603
 20
13.631637592
 30
0.0
 10
14.7554123899
 20
13.6158529351
 30
0.0
 10
14.7592527932
 20
13.5999994327
 30
0.0
 10
14.7636955934
 20
13.5840864918
 30
0.0
 10
14.7687380206
 20
13.5681235033
 30
0.0
 10
14.7743771139
 20
13.5521199366
 30
0.0
 10
14.780609414
 20
13.5360852245
 30
0.0
 10
14.7874312323
 20
13.520028861
 30
0.0
 10
14.7948384708
 20
13.5039603238
 30
0.0
 10
14.8028266974
 20
13.487889096
 30
0.0
 10
14.8113911896
 20
13.4718246908
 30
0.0
 10
14.8205267943
 20
13.4557765606
 30
0.0
 10
14.8302281456
 20
13.4397542244
 30
0.0
 10
14.840489419
 20
13.4237671031
 30
0.0
 10
14.8513045726
 20
13.407824674
 30
0.0
 10
14.8626671618
 20
13.3919363341
 30
0.0
 10
14.8745704558
 20
13.376111472
 30
0.0
 10
14.887007411
 20
13.3603594601
 30
0.0
 10
14.8999706427
 20
13.3446895516
 30
0.0
 10
14.9134524398
 20
13.3291111428
 30
0.0
 10
14.922722436
 20
13.3188570383
 30
0.0
 10
14.9274403385
 20
13.3137471562
 30
0.0
  0
SPLINE
  5
296
100
AcDbEntity
  8
LAYER_FEATURE
100
AcDbSpline
 62
7
  6
CONTINUOUS
 70
0
 71
3
 72
39
 73
35
 74
0
 42
0.0000001
 43
0.0000001
 44
0.0000000001
 40
0.0
 40
0.0
 40
0.0
 40
0.0
 40
0.0270223761
 40
0.0540762003
 40
0.0811927439
 40
0.1084029136
 40
0.1357370938
 40
0.1632249737
 40
0.190895401
 40
0.2187762543
 40
0.2468942976
 40
0.2752751164
 40
0.303942974
 40
0.3329208028
 40
0.3622300845
 40
0.3918908644
 40
0.4219216861
 40
0.4523395915
 40
0.4831601322
 40
0.5143973328
 40
0.5460637769
 40
0.5781705395
 40
0.6107273163
 40
0.6437423589
 40
0.6772225963
 40
0.7111736153
 40
0.745599731
 40
0.7805040369
 40
0.8158884072
 40
0.8517536152
 40
0.8880992795
 40
0.9249240185
 40
0.9622253841
 40
1.0
 40
1.0
 40
1.0
 40
1.0
 10
16.7902890372
 20
13.1851892344
 30
0.0
 10
16.7888623071
 20
13.1805723342
 30
0.0
 10
16.7858143295
 20
13.171391495
 30
0.0
 10
16.7806688706
 20
13.157810134
 30
0.0
 10
16.7749515551
 20
13.1444226496
 30
0.0
 10
16.7686658454
 20
13.1312370077
 30
0.0
 10
16.7618153161
 20
13.1182606883
 30
0.0
 10
16.7544039416
 20
13.1055011346
 30
0.0
 10
16.7464360288
 20
13.0929656101
 30
0.0
 10
16.7379161345
 20
13.0806612963
 30
0.0
 10
16.728849241
 20
13.0685951485
 30
0.0
 10
16.7192405004
 20
13.0567740836
 30
0.0
 10
16.7090955176
 20
13.0452047471
 30
0.0
 10
16.6984200584
 20
13.0338937554
 30
0.0
 10
16.6872202988
 20
13.0228474633
 30
0.0
 10
16.6755026266
 20
13.012072148
 30
0.0
 10
16.6632737569
 20
13.0015738887
 30
0.0
 10
16.6505406885
 20
12.9913585984
 30
0.0
 10
16.6373106644
 20
12.981432079
 30
0.0
 10
16.6235912671
 20
12.9717998735
 30
0.0
 10
16.6093902692
 20
12.9624674841
 30
0.0
 10
16.5947158006
 20
12.9534400981
 30
0.0
 10
16.5795761707
 20
12.9447228773
 30
0.0
 10
16.5639800196
 20
12.9363206783
 30
0.0
 10
16.5479361922
 20
12.92823828
 30
0.0
 10
16.5314538129
 20
12.9204802248
 30
0.0
 10
16.5145422461
 20
12.9130508823
 30
0.0
 10
16.4972110847
 20
12.9059544771
 30
0.0
 10
16.4794701871
 20
12.8991949634
 30
0.0
 10
16.4613296024
 20
12.892776225
 30
0.0
 10
16.4427996576
 20
12.8867018155
 30
0.0
 10
16.4238908224
 20
12.8809752328
 30
0.0
 10
16.404613958
 20
12.8755996754
 30
0.0
 10
16.3916058614
 20
12.8722728271
 30
0.0
 10
16.3850442636
 20
12.8706675492
 30
0.0
  0
SPLINE
  5
297
100
AcDbEntity
  8
02___PRT_ALL_AXES
100
AcDbSpline
 62
7
  6
CONTINUOUS
 70
0
 71
3
 72
38
 73
34
 74
0
 42
0.0000001
 43
0.0000001
 44
0.0000000001
 40
0.0
 40
0.0
 40
0.0
 40
0.0
 40
0.0379370584
 40
0.0754722932
 40
0.1125826862
 40
0.1492526533
 40
0.1854692065
 40
0.2212198641
 40
0.2564932537
 40
0.2912806559
 40
0.3255752341
 40
0.3593725493
 40
0.392670129
 40
0.42546818
 40
0.4577691559
 40
0.4895783066
 40
0.5209033487
 40
0.5517548644
 40
0.6120834509
 40
0.6416052238
 40
0.6707234394
 40
0.6994626293
 40
0.7278499842
 40
0.755915387
 40
0.7836911263
 40
0.8112119106
 40
0.8385144601
 40
0.8656374177
 40
0.8926209324
 40
0.9195064358
 40
0.9463362364
 40
0.9731531081
 40
1.0
 40
1.0
 40
1.0
 40
1.0
 10
14.8761698723
 20
12.2933304643
 30
0.0
 10
14.8740816815
 20
12.2933304643
 30
0.0
 10
14.8699272688
 20
12.2933751182
 30
0.0
 10
14.8637331599
 20
12.2935783489
 30
0.0
 10
14.8576148048
 20
12.2939174597
 30
0.0
 10
14.8515782724
 20
12.2943922217
 30
0.0
 10
14.8456291291
 20
12.2950023997
 30
0.0
 10
14.8397728493
 20
12.2957476242
 30
0.0
 10
14.8340148287
 20
12.2966275519
 30
0.0
 10
14.8283602986
 20
12.2976416659
 30
0.0
 10
14.8228142968
 20
12.2987894743
 30
0.0
 10
14.8173816887
 20
12.3000703345
 30
0.0
 10
14.812067173
 20
12.3014836309
 30
0.0
 10
14.8068752684
 20
12.3030285996
 30
0.0
 10
14.8018103099
 20
12.3047045044
 30
0.0
 10
14.7968764877
 20
12.3065104575
 30
0.0
 10
14.7920776649
 20
12.3084456635
 30
0.0
 10
14.7859111607
 20
12.311176194
 30
0.0
 10
14.7799770269
 20
12.3141791626
 30
0.0
 10
14.7743073802
 20
12.3174584289
 30
0.0
 10
14.7702378291
 20
12.320024309
 30
0.0
 10
14.7663237981
 20
12.3227128511
 30
0.0
 10
14.7625680557
 20
12.3255228324
 30
0.0
 10
14.7589733039
 20
12.328452869
 30
0.0
 10
14.7555421162
 20
12.3315015791
 30
0.0
 10
14.7522768796
 20
12.334667433
 30
0.0
 10
14.7491799158
 20
12.337948904
 30
0.0
 10
14.7462533265
 20
12.3413442879
 30
0.0
 10
14.7434991865
 20
12.3448518902
 30
0.0
 10
14.7409193228
 20
12.3484698086
 30
0.0
 10
14.7385155499
 20
12.3521961785
 30
0.0
 10
14.7362894731
 20
12.3560287845
 30
0.0
 10
14.7349262824
 20
12.3586506923
 30
0.0
 10
14.7342752716
 20
12.3599773142
 30
0.0
  0
SPLINE
  5
298
100
AcDbEntity
  8
02___PRT_ALL_AXES
100
AcDbSpline
 62
7
  6
CONTINUOUS
 70
0
 71
3
 72
82
 73
78
 74
0
 42
0.0000001
 43
0.0000001
 44
0.0000000001
 40
0.0
 40
0.0
 40
0.0
 40
0.0
 40
0.0053117365
 40
0.0106263082
 40
0.0159465426
 40
0.0212752528
 40
0.0266152291
 40
0.0319692331
 40
0.0373399895
 40
0.0427301811
 40
0.0481424405
 40
0.053579347
 40
0.0590434178
 40
0.0645371061
 40
0.0700627939
 40
0.0756227903
 40
0.0812193251
 40
0.0868545483
 40
0.0925305253
 40
0.0982492357
 40
0.104012571
 40
0.1098223329
 40
0.1215871146
 40
0.1335569891
 40
0.1396227243
 40
0.1457437794
 40
0.1581557548
 40
0.1708018476
 40
0.1836888945
 40
0.1968223804
 40
0.2102064891
 40
0.223844159
 40
0.2377371405
 40
0.2518860542
 40
0.2662904502
 40
0.2809488654
 40
0.2958588805
 40
0.3110171741
 40
0.3264195762
 40
0.3420611183
 40
0.3579360826
 40
0.3740380486
 40
0.3903599368
 40
0.4068940525
 40
0.4236321255
 40
0.44056535
 40
0.4576844218
 40
0.4749795744
 40
0.492440614
 40
0.5100569531
 40
0.5278176431
 40
0.5457114058
 40
0.5637266645
 40
0.5818515739
 40
0.6000740496
 40
0.6183817969
 40
0.6367623392
 40
0.655203046
 40
0.6736911606
 40
0.6922138274
 40
0.7107581188
 40
0.7293110627
 40
0.7478596689
 40
0.7663909562
 40
0.7848919794
 40
0.803349856
 40
0.8217517933
 40
0.8400851158
 40
0.8583372928
 40
0.8764959661
 40
0.8945489781
 40
0.9124844008
 40
0.9302905658
 40
0.947956089
 40
0.9654699191
 40
0.9828213187
 40
1.0
 40
1.0
 40
1.0
 40
1.0
 10
14.1277039745
 20
11.7562543453
 30
0.0
 10
14.1267400033
 20
11.7531349293
 30
0.0
 10
14.1248994109
 20
11.7468668882
 30
0.0
 10
14.1224035045
 20
11.7373868517
 30
0.0
 10
14.1201728583
 20
11.7278301251
 30
0.0
 10
14.1182081004
 20
11.7181993038
 30
0.0
 10
14.1165097143
 20
11.7084968859
 30
0.0
 10
14.1150781649
 20
11.6987254138
 30
0.0
 10
14.1139137966
 20
11.6888874455
 30
0.0
 10
14.1130169348
 20
11.6789855519
 30
0.0
 10
14.1123877806
 20
11.6690223245
 30
0.0
 10
14.1120265188
 20
11.6590003664
 30
0.0
 10
14.1119332107
 20
11.6489222973
 30
0.0
 10
14.1121078965
 20
11.6387907501
 30
0.0
 10
14.112550502
 20
11.6286083698
 30
0.0
 10
14.1132609203
 20
11.6183778154
 30
0.0
 10
14.1142389446
 20
11.6081017553
 30
0.0
 10
14.1154843196
 20
11.5977828718
 30
0.0
 10
14.1169967087
 20
11.5874238511
 30
0.0
 10
14.1187757044
 20
11.5770274089
 30
0.0
 10
14.1208208552
 20
11.566596196
 30
0.0
 10
14.1239145809
 20
11.5525875174
 30
0.0
 10
14.1284540553
 20
11.534996844
 30
0.0
 10
14.1338294372
 20
11.5174793136
 30
0.0
 10
14.1386454723
 20
11.5034326308
 30
0.0
 10
14.1438548306
 20
11.4892371628
 30
0.0
 10
14.1510262176
 20
11.4714581817
 30
0.0
 10
14.1606226744
 20
11.45019359
 30
0.0
 10
14.1712394322
 20
11.4289228764
 30
0.0
 10
14.1828652238
 20
11.4076683304
 30
0.0
 10
14.1954878824
 20
11.3864518904
 30
0.0
 10
14.2090941899
 20
11.3652955495
 30
0.0
 10
14.2236699324
 20
11.3442212179
 30
0.0
 10
14.2391998997
 20
11.323250734
 30
0.0
 10
14.2556679017
 20
11.302405834
 30
0.0
 10
14.273056782
 20
11.2817081321
 30
0.0
 10
14.291348434
 20
11.2611790972
 30
0.0
 10
14.3105238172
 20
11.2408400314
 30
0.0
 10
14.3305629763
 20
11.2207120464
 30
0.0
 10
14.3514450598
 20
11.2008160418
 30
0.0
 10
14.3731483415
 20
11.1811726826
 30
0.0
 10
14.3956502415
 20
11.1618023769
 30
0.0
 10
14.4189273492
 20
11.1427252543
 30
0.0
 10
14.4429554473
 20
11.1239611443
 30
0.0
 10
14.4677095365
 20
11.1055295551
 30
0.0
 10
14.493163861
 20
11.0874496525
 30
0.0
 10
14.5192919353
 20
11.0697402401
 30
0.0
 10
14.5460665717
 20
11.0524197384
 30
0.0
 10
14.5734599085
 20
11.0355061663
 30
0.0
 10
14.6014434384
 20
11.0190171208
 30
0.0
 10
14.629988039
 20
11.0029697592
 30
0.0
 10
14.6590640025
 20
10.9873807808
 30
0.0
 10
14.688641067
 20
10.9722664089
 30
0.0
 10
14.7186884479
 20
10.957642374
 30
0.0
 10
14.74917487
 20
10.943523897
 30
0.0
 10
14.7800686002
 20
10.9299256735
 30
0.0
 10
14.8113374805
 20
10.9168618579
 30
0.0
 10
14.842948962
 20
10.9043460489
 30
0.0
 10
14.8748701382
 20
10.892391275
 30
0.0
 10
14.90706778
 20
10.8810099809
 30
0.0
 10
14.93950837
 20
10.8702140144
 30
0.0
 10
14.9721581377
 20
10.8600146141
 30
0.0
 10
15.0049830948
 20
10.8504223976
 30
0.0
 10
15.0379490706
 20
10.8414473501
 30
0.0
 10
15.0710217478
 20
10.8330988147
 30
0.0
 10
15.1041666985
 20
10.8253854818
 30
0.0
 10
15.1373494197
 20
10.8183153809
 30
0.0
 10
15.1705353699
 20
10.8118958715
 30
0.0
 10
15.2036900052
 20
10.8061336359
 30
0.0
 10
15.2367788148
 20
10.8010346725
 30
0.0
 10
15.2697673581
 20
10.796604289
 30
0.0
 10
15.3026212989
 20
10.7928470972
 30
0.0
 10
15.3353064462
 20
10.7897670096
 30
0.0
 10
15.3677887733
 20
10.7873672312
 30
0.0
 10
15.4000345197
 20
10.7856502659
 30
0.0
 10
15.4320099433
 20
10.7846178975
 30
0.0
 10
15.4532352264
 20
10.7843855657
 30
0.0
 10
15.4637944466
 20
10.7843855657
 30
0.0
  0
SPLINE
  5
299
100
AcDbEntity
  8
02___PRT_ALL_AXES
100
AcDbSpline
 62
7
  6
CONTINUOUS
 70
0
 71
3
 72
50
 73
46
 74
0
 42
0.0000001
 43
0.0000001
 44
0.0000000001
 40
0.0
 40
0.0
 40
0.0
 40
0.0
 40
0.0123991726
 40
0.0248055256
 40
0.0372262185
 40
0.0496683701
 40
0.0621390386
 40
0.0746452007
 40
0.0871937359
 40
0.0997914041
 40
0.1124448341
 40
0.1251605024
 40
0.1379447228
 40
0.1508036307
 40
0.1637431709
 40
0.1767690898
 40
0.1898869199
 40
0.2031019805
 40
0.2164193601
 40
0.2298439222
 40
0.24338029
 40
0.2570328524
 40
0.2847009794
 40
0.3128805971
 40
0.3271714889
 40
0.3415998273
 40
0.3708778147
 40
0.4007351318
 40
0.4311870129
 40
0.4622452087
 40
0.4939181342
 40
0.5262110255
 40
0.5591261004
 40
0.5926627193
 40
0.6268175451
 40
0.6615846987
 40
0.6969559097
 40
0.7329206624
 40
0.7694663354
 40
0.8065783344
 40
0.8442402234
 40
0.8824338324
 40
0.9211394252
 40
0.9603356509
 40
1.0
 40
1.0
 40
1.0
 40
1.0
 10
16.1531961614
 20
11.1303299187
 30
0.0
 10
16.1521920539
 20
11.1270806211
 30
0.0
 10
16.150087664
 20
11.1206092422
 30
0.0
 10
16.1466460245
 20
11.110994683
 30
0.0
 10
16.1429198645
 20
11.1014740199
 30
0.0
 10
16.1389102952
 20
11.0920500601
 30
0.0
 10
16.1346184298
 20
11.0827254574
 30
0.0
 10
16.1300455168
 20
11.0735028547
 30
0.0
 10
16.1251928361
 20
11.0643848768
 30
0.0
 10
16.1200617923
 20
11.0553740976
 30
0.0
 10
16.1146538313
 20
11.0464730792
 30
0.0
 10
16.1089705055
 20
11.0376843353
 30
0.0
 10
16.1030134293
 20
11.0290103559
 30
0.0
 10
16.0967842976
 20
11.0204535958
 30
0.0
 10
16.0902848913
 20
11.0120164678
 30
0.0
 10
16.0835170472
 20
11.003701366
 30
0.0
 10
16.0764827057
 20
10.9955106245
 30
0.0
 10
16.0691838495
 20
10.987446572
 30
0.0
 10
16.0616225659
 20
10.979511464
 30
0.0
 10
16.0538010003
 20
10.9717075651
 30
0.0
 10
16.045721332
 20
10.9640370198
 30
0.0
 10
16.0345585157
 20
10.9539461576
 30
0.0
 10
16.0199583413
 20
10.9416775144
 30
0.0
 10
16.004667199
 20
10.9299921443
 30
0.0
 10
15.9919574494
 20
10.9209335175
 30
0.0
 10
15.9788033643
 20
10.9119857555
 30
0.0
 10
15.961755941
 20
10.9011794288
 30
0.0
 10
15.9404709289
 20
10.8888882672
 30
0.0
 10
15.9182828177
 20
10.8772243803
 30
0.0
 10
15.8952169448
 20
10.8662009251
 30
0.0
 10
15.8712992889
 20
10.8558301358
 30
0.0
 10
15.8465568637
 20
10.8461235883
 30
0.0
 10
15.8210175767
 20
10.8370921098
 30
0.0
 10
15.7947102337
 20
10.8287457876
 30
0.0
 10
15.7676645005
 20
10.8210939501
 30
0.0
 10
15.7399108746
 20
10.8141451567
 30
0.0
 10
15.7114806522
 20
10.8079071857
 30
0.0
 10
15.6824058944
 20
10.8023870241
 30
0.0
 10
15.6527193917
 20
10.7975908588
 30
0.0
 10
15.6224546288
 20
10.7935240673
 30
0.0
 10
15.5916457437
 20
10.7901912125
 30
0.0
 10
15.5603275028
 20
10.7875960307
 30
0.0
 10
15.5285352037
 20
10.78574144
 30
0.0
 10
15.4963049151
 20
10.7846295097
 30
0.0
 10
15.4746737817
 20
10.7843855657
 30
0.0
 10
15.4637944466
 20
10.7843855657
 30
0.0
  0
SPLINE
  5
29A
100
AcDbEntity
  8
LAYER_CHAMFER_FEAT
100
AcDbSpline
 62
7
  6
CONTINUOUS
 70
0
 71
3
 72
15
 73
11
 74
0
 42
0.0000001
 43
0.0000001
 44
0.0000000001
 40
0.0
 40
0.0
 40
0.0
 40
0.0
 40
0.1317629009
 40
0.2617726516
 40
0.3899189827
 40
0.5161208785
 40
0.640298916
 40
0.7623789527
 40
0.8822974713
 40
1.0
 40
1.0
 40
1.0
 40
1.0
 10
15.0527505313
 20
11.6220049979
 30
0.0
 10
15.0494310482
 20
11.6220049979
 30
0.0
 10
15.0428359132
 20
11.621921308
 30
0.0
 10
15.0330190665
 20
11.6215393739
 30
0.0
 10
15.0233557524
 20
11.6209022765
 30
0.0
 10
15.0138600761
 20
11.6200109626
 30
0.0
 10
15.0045454432
 20
11.6188667404
 30
0.0
 10
14.995425151
 20
11.6174711605
 30
0.0
 10
14.9865123821
 20
11.6158262602
 30
0.0
 10
14.9806617487
 20
11.6145529079
 30
0.0
 10
14.977775237
 20
11.6138740632
 30
0.0
  0
SPLINE
  5
29B
100
AcDbEntity
  8
LAYER_CHAMFER_FEAT
100
AcDbSpline
 62
7
  6
CONTINUOUS
 70
0
 71
3
 72
39
 73
35
 74
0
 42
0.0000001
 43
0.0000001
 44
0.0000000001
 40
0.0
 40
0.0
 40
0.0
 40
0.0
 40
0.0305396317
 40
0.0614592648
 40
0.0927264973
 40
0.1243126017
 40
0.1561858833
 40
0.1883135686
 40
0.2206623636
 40
0.2531980744
 40
0.2858858944
 40
0.3186905397
 40
0.3515763218
 40
0.3845072997
 40
0.4174473826
 40
0.4503604476
 40
0.4832104666
 40
0.5159616058
 40
0.5485783621
 40
0.5810256782
 40
0.6132690421
 40
0.6452746446
 40
0.6770094873
 40
0.7084414864
 40
0.7395396541
 40
0.7702742069
 40
0.8006166771
 40
0.8305401237
 40
0.860019248
 40
0.88903052
 40
0.917552424
 40
0.9455655904
 40
0.9730529466
 40
1.0
 40
1.0
 40
1.0
 40
1.0
 10
15.0527505313
 20
11.6220049979
 30
0.0
 10
15.0563393391
 20
11.6220049979
 30
0.0
 10
15.0635619643
 20
11.6219059188
 30
0.0
 10
15.0744508948
 20
11.6214672087
 30
0.0
 10
15.0854475301
 20
11.6207380553
 30
0.0
 10
15.0965336456
 20
11.6197197032
 30
0.0
 10
15.1076913645
 20
11.6184138154
 30
0.0
 10
15.1189024692
 20
11.6168225103
 30
0.0
 10
15.1301486772
 20
11.6149483675
 30
0.0
 10
15.1414116758
 20
11.6127944626
 30
0.0
 10
15.1526731085
 20
11.6103643071
 30
0.0
 10
15.1639146154
 20
11.6076618356
 30
0.0
 10
15.1751178813
 20
11.6046914766
 30
0.0
 10
15.1862646479
 20
11.6014580743
 30
0.0
 10
15.1973367395
 20
11.5979668717
 30
0.0
 10
15.2083161173
 20
11.5942235821
 30
0.0
 10
15.2191848885
 20
11.5902343107
 30
0.0
 10
15.2299253289
 20
11.5860055323
 30
0.0
 10
15.2405199424
 20
11.5815441612
 30
0.0
 10
15.2509514655
 20
11.5768574727
 30
0.0
 10
15.2612028863
 20
11.5719530779
 30
0.0
 10
15.2712575093
 20
11.5668389893
 30
0.0
 10
15.2810989545
 20
11.5615235448
 30
0.0
 10
15.2907111725
 20
11.5560153777
 30
0.0
 10
15.3000785139
 20
11.5503234796
 30
0.0
 10
15.3091857237
 20
11.5444571267
 30
0.0
 10
15.31801795
 20
11.5384258443
 30
0.0
 10
15.3265608195
 20
11.5322394688
 30
0.0
 10
15.3348004251
 20
11.525908075
 30
0.0
 10
15.342723331
 20
11.5194419343
 30
0.0
 10
15.3503166408
 20
11.5128515877
 30
0.0
 10
15.3575680291
 20
11.5061477224
 30
0.0
 10
15.3644655521
 20
11.4993413208
 30
0.0
 10
15.3688650846
 20
11.4946956776
 30
0.0
 10
15.3710012091
 20
11.4923580433
 30
0.0
  0
SPLINE
  5
29C
100
AcDbEntity
  8
LAYER_FEATURE
100
AcDbSpline
 62
7
  6
CONTINUOUS
 70
0
 71
3
 72
81
 73
77
 74
0
 42
0.0000001
 43
0.0000001
 44
0.0000000001
 40
0.0
 40
0.0
 40
0.0
 40
0.0
 40
0.0171785434
 40
0.0345301985
 40
0.0520439474
 40
0.0697095103
 40
0.0875156976
 40
0.1054511359
 40
0.1235041688
 40
0.141662861
 40
0.1599150584
 40
0.1782484011
 40
0.196650358
 40
0.2151082545
 40
0.2336092981
 40
0.2521406055
 40
0.2706892317
 40
0.2892421958
 40
0.3077865074
 40
0.326309194
 40
0.3447973288
 40
0.363238056
 40
0.381618618
 40
0.3999263848
 40
0.4181488805
 40
0.4362738102
 40
0.4542890881
 40
0.4721828697
 40
0.4899435793
 40
0.5075599384
 40
0.5250209963
 40
0.5423161669
 40
0.5594352577
 40
0.5763685016
 40
0.5931065918
 40
0.6096407245
 40
0.6259626312
 40
0.6420646158
 40
0.6579395964
 40
0.6735811546
 40
0.6889835743
 40
0.7041418857
 40
0.7190519159
 40
0.7337103461
 40
0.7481147587
 40
0.7622636891
 40
0.7761566844
 40
0.789794368
 40
0.8031784921
 40
0.8163119933
 40
0.829199053
 40
0.8418451585
 40
0.8480802639
 40
0.8542578095
 40
0.8603788712
 40
0.8664446141
 40
0.8784145007
 40
0.8901792945
 40
0.8959890641
 40
0.901752405
 40
0.9131462508
 40
0.9243771277
 40
0.9299371303
 40
0.9354628234
 40
0.9409565184
 40
0.9464205949
 40
0.9518575068
 40
0.957269773
 40
0.9626599696
 40
0.9680307322
 40
0.9733847421
 40
0.9787247239
 40
0.9840534402
 40
0.9893736803
 40
0.9946882577
 40
1.0
 40
1.0
 40
1.0
 40
1.0
 10
15.4758842706
 20
14.2372244202
 30
0.0
 10
15.4864633174
 20
14.2372244202
 30
0.0
 10
15.5077286972
 20
14.2369916329
 30
0.0
 10
15.5397644402
 20
14.2359573455
 30
0.0
 10
15.572071123
 20
14.234237115
 30
0.0
 10
15.6046146913
 20
14.2318328281
 30
0.0
 10
15.6373615202
 20
14.2287469212
 30
0.0
 10
15.6702774492
 20
14.2249826363
 30
0.0
 10
15.7033282333
 20
14.2205438982
 30
0.0
 10
15.7364794759
 20
14.2154353187
 30
0.0
 10
15.7696966662
 20
14.209662206
 30
0.0
 10
15.802945231
 20
14.2032305813
 30
0.0
 10
15.8361905614
 20
14.1961471434
 30
0.0
 10
15.8693980506
 20
14.1884192619
 30
0.0
 10
15.9025331279
 20
14.1800549693
 30
0.0
 10
15.9355613027
 20
14.1710629847
 30
0.0
 10
15.9684481943
 20
14.1614526723
 30
0.0
 10
16.0011595667
 20
14.1512340326
 30
0.0
 10
16.0336613636
 20
14.1404176916
 30
0.0
 10
16.0659197544
 20
14.1290149206
 30
0.0
 10
16.0979011603
 20
14.1170375935
 30
0.0
 10
16.1295722881
 20
14.1044981747
 30
0.0
 10
16.1609001643
 20
14.091409706
 30
0.0
 10
16.191852183
 20
14.0777858229
 30
0.0
 10
16.2223961282
 20
14.0636407103
 30
0.0
 10
16.2525002048
 20
14.0489890876
 30
0.0
 10
16.2821330726
 20
14.0338461936
 30
0.0
 10
16.3112638945
 20
14.0182277994
 30
0.0
 10
16.3398623545
 20
14.0021501624
 30
0.0
 10
16.3678986865
 20
13.9856300099
 30
0.0
 10
16.3953437054
 20
13.9686845209
 30
0.0
 10
16.4221688574
 20
13.9513313365
 30
0.0
 10
16.4483462318
 20
13.9335885124
 30
0.0
 10
16.4738485867
 20
13.915474501
 30
0.0
 10
16.4986493777
 20
13.8970081309
 30
0.0
 10
16.522722809
 20
13.8782086147
 30
0.0
 10
16.5460438382
 20
13.8590954999
 30
0.0
 10
16.568588199
 20
13.8396886507
 30
0.0
 10
16.5903324262
 20
13.8200082246
 30
0.0
 10
16.611253907
 20
13.8000746785
 30
0.0
 10
16.631330879
 20
13.7799087184
 30
0.0
 10
16.6505424476
 20
13.7595312809
 30
0.0
 10
16.6688686073
 20
13.7389635085
 30
0.0
 10
16.6862902933
 20
13.7182267524
 30
0.0
 10
16.7027893704
 20
13.6973425244
 30
0.0
 10
16.7183486454
 20
13.6763324768
 30
0.0
 10
16.7329518829
 20
13.65521838
 30
0.0
 10
16.74658386
 20
13.6340221157
 30
0.0
 10
16.7592303321
 20
13.6127656617
 30
0.0
 10
16.770878088
 20
13.59147096
 30
0.0
 10
16.7815147889
 20
13.5701603127
 30
0.0
 10
16.7895644936
 20
13.5523230609
 30
0.0
 10
16.7954802389
 20
13.5380690805
 30
0.0
 10
16.7996370742
 20
13.5274384496
 30
0.0
 10
16.8035335284
 20
13.5168206367
 30
0.0
 10
16.808358646
 20
13.5027474941
 30
0.0
 10
16.8137441711
 20
13.4851968813
 30
0.0
 10
16.8182921925
 20
13.4675730526
 30
0.0
 10
16.8213917839
 20
13.4535378832
 30
0.0
 10
16.8241132238
 20
13.4396572822
 30
0.0
 10
16.8268573183
 20
13.4223843454
 30
0.0
 10
16.828725605
 20
13.4051202437
 30
0.0
 10
16.8296777285
 20
13.3914087793
 30
0.0
 10
16.8301211627
 20
13.3812071414
 30
0.0
 10
16.8302961885
 20
13.3710564905
 30
0.0
 10
16.8302027031
 20
13.3609594028
 30
0.0
 10
16.8298407458
 20
13.3509185369
 30
0.0
 10
16.8292104302
 20
13.3409365092
 30
0.0
 10
16.8283118505
 20
13.3310159349
 30
0.0
 10
16.8271452991
 20
13.3211594032
 30
0.0
 10
16.8257110502
 20
13.3113694938
 30
0.0
 10
16.8240094477
 20
13.3016487717
 30
0.0
 10
16.8220409955
 20
13.2919997767
 30
0.0
 10
16.8198061368
 20
13.2824250191
 30
0.0
 10
16.8173055107
 20
13.2729270988
 30
0.0
 10
16.8154614607
 20
13.2666472268
 30
0.0
 10
16.8144956695
 20
13.2635219253
 30
0.0
  0
SPLINE
  5
29D
100
AcDbEntity
  8
LAYER_CHAMFER_FEAT
100
AcDbSpline
 62
7
  6
CONTINUOUS
 70
0
 71
3
 72
17
 73
13
 74
0
 42
0.0000001
 43
0.0000001
 44
0.0000000001
 40
0.0
 40
0.0
 40
0.0
 40
0.0
 40
0.1317653157
 40
0.2617699078
 40
0.3899157208
 40
0.516117651
 40
0.6402943001
 40
0.7016019866
 40
0.7623769753
 40
0.8226114727
 40
0.8822983958
 40
1.0
 40
1.0
 40
1.0
 40
1.0
 10
15.0891841459
 20
12.7477709381
 30
0.0
 10
15.0786308077
 20
12.7477709381
 30
0.0
 10
15.0576640805
 20
12.7475049378
 30
0.0
 10
15.0264550953
 20
12.7462906297
 30
0.0
 10
14.9957343605
 20
12.7442652215
 30
0.0
 10
14.9655464142
 20
12.7414316979
 30
0.0
 10
14.9407652575
 20
12.7383875082
 30
0.0
 10
14.9212469187
 20
12.7355465859
 30
0.0
 10
14.9068298115
 20
12.7332258184
 30
0.0
 10
14.8925777654
 20
12.7307067623
 30
0.0
 10
14.8738900972
 20
12.7271019196
 30
0.0
 10
14.8600045025
 20
12.7240797597
 30
0.0
 10
14.8508279107
 20
12.721921631
 30
0.0
  0
SPLINE
  5
29E
100
AcDbEntity
  8
LAYER_CHAMFER_FEAT
100
AcDbSpline
 62
7
  6
CONTINUOUS
 70
0
 71
3
 72
44
 73
40
 74
0
 42
0.0000001
 43
0.0000001
 44
0.0000000001
 40
0.0
 40
0.0
 40
0.0
 40
0.0
 40
0.0152209687
 40
0.0305408752
 40
0.0614594641
 40
0.0927268112
 40
0.1243128733
 40
0.1561859451
 40
0.1883135356
 40
0.2206622042
 40
0.2531977853
 40
0.2858854832
 40
0.3186900005
 40
0.3515756569
 40
0.3845065082
 40
0.4174464636
 40
0.4503594029
 40
0.4832092936
 40
0.5159603079
 40
0.5485769408
 40
0.5810241287
 40
0.6132673708
 40
0.6452728516
 40
0.6770075661
 40
0.7084394473
 40
0.7395374979
 40
0.7702719258
 40
0.8006142847
 40
0.8156303142
 40
0.830538355
 40
0.8453352879
 40
0.860018126
 40
0.8745839775
 40
0.8890300972
 40
0.9033538481
 40
0.9175527424
 40
0.9455657903
 40
0.9730530459
 40
1.0
 40
1.0
 40
1.0
 40
1.0
 10
15.0891841459
 20
12.7477709381
 30
0.0
 10
15.094870563
 20
12.7477709381
 30
0.0
 10
15.1062805245
 20
12.747692903
 30
0.0
 10
15.1292370388
 20
12.7472270935
 30
0.0
 10
15.1581727114
 20
12.7460611978
 30
0.0
 10
15.1931320526
 20
12.7437431606
 30
0.0
 10
15.2283763945
 20
12.7405057125
 30
0.0
 10
15.2638482317
 20
12.7363541039
 30
0.0
 10
15.2994897748
 20
12.7312951237
 30
0.0
 10
15.3352429493
 20
12.7253370058
 30
0.0
 10
15.3710494915
 20
12.7184894641
 30
0.0
 10
15.4068510484
 20
12.7107636554
 30
0.0
 10
15.4425892722
 20
12.7021721703
 30
0.0
 10
15.4782059168
 20
12.6927290127
 30
0.0
 10
15.5136429331
 20
12.6824495743
 30
0.0
 10
15.5488425642
 20
12.6713506095
 30
0.0
 10
15.5837474402
 20
12.6594502084
 30
0.0
 10
15.6183006718
 20
12.6467677666
 30
0.0
 10
15.6524459434
 20
12.6333239538
 30
0.0
 10
15.6861276057
 20
12.6191406798
 30
0.0
 10
15.7192907662
 20
12.604241058
 30
0.0
 10
15.7518813805
 20
12.5886493678
 30
0.0
 10
15.7838463402
 20
12.5723910175
 30
0.0
 10
15.8151335638
 20
12.5554924955
 30
0.0
 10
15.8456920629
 20
12.5379813386
 30
0.0
 10
15.8754720948
 20
12.5198860432
 30
0.0
 10
15.9044249895
 20
12.5012361747
 30
0.0
 10
15.9279043324
 20
12.485202829
 30
0.0
 10
15.9462302676
 20
12.4721218313
 30
0.0
 10
15.9596918868
 20
12.4622253582
 30
0.0
 10
15.9729121616
 20
12.4522136096
 30
0.0
 10
15.9858857671
 20
12.4420906984
 30
0.0
 10
15.9986073695
 20
12.4318606974
 30
0.0
 10
16.0110718068
 20
12.4215278368
 30
0.0
 10
16.0232740173
 20
12.4110962506
 30
0.0
 10
16.0391152028
 20
12.3971251714
 30
0.0
 10
16.058238788
 20
12.3794454668
 30
0.0
 10
16.0801668473
 20
12.3578071338
 30
0.0
 10
16.0941535545
 20
12.343038005
 30
0.0
 10
16.1009445774
 20
12.3356063622
 30
0.0
  0
SPLINE
  5
29F
100
AcDbEntity
  8
LAYER_FEATURE
100
AcDbSpline
 62
7
  6
CONTINUOUS
 70
0
 71
3
 72
50
 73
46
 74
0
 42
0.0000001
 43
0.0000001
 44
0.0000000001
 40
0.0
 40
0.0
 40
0.0
 40
0.0
 40
0.0396640277
 40
0.0788607383
 40
0.1175661132
 40
0.1557597858
 40
0.1934216688
 40
0.2305336611
 40
0.2670793354
 40
0.3030440885
 40
0.3384153023
 40
0.3731824544
 40
0.4073372776
 40
0.440873897
 40
0.4737889751
 40
0.5060818681
 40
0.5377547909
 40
0.5688129847
 40
0.5992648671
 40
0.6291221867
 40
0.6584001731
 40
0.6728285114
 40
0.6871194008
 40
0.7152990183
 40
0.7429671477
 40
0.7566197079
 40
0.7701560796
 40
0.7835806381
 40
0.7968980195
 40
0.8101130803
 40
0.8232309089
 40
0.8362568299
 40
0.8491963686
 40
0.8620552766
 40
0.8748394982
 40
0.8875551649
 40
0.9002085962
 40
0.912806264
 40
0.9253547987
 40
0.9378609619
 40
0.9503316293
 40
0.9627737816
 40
0.9751944743
 40
0.9876008273
 40
1.0
 40
1.0
 40
1.0
 40
1.0
 10
15.4758842706
 20
14.2372244202
 30
0.0
 10
15.4649844968
 20
14.2372244202
 30
0.0
 10
15.4433125055
 20
14.2369799998
 30
0.0
 10
15.4110214191
 20
14.2358660008
 30
0.0
 10
15.3791690453
 20
14.2340078811
 30
0.0
 10
15.3477917561
 20
14.231407825
 30
0.0
 10
15.3169247274
 20
14.2280686773
 30
0.0
 10
15.2866028652
 20
14.2239942074
 30
0.0
 10
15.2568603521
 20
14.2191889913
 30
0.0
 10
15.2277307348
 20
14.2136584163
 30
0.0
 10
15.199246869
 20
14.2074086807
 30
0.0
 10
15.1714408792
 20
14.2004467727
 30
0.0
 10
15.1443441187
 20
14.1927804937
 30
0.0
 10
15.1179871388
 20
14.1844184245
 30
0.0
 10
15.0923996612
 20
14.1753699109
 30
0.0
 10
15.0676105504
 20
14.1656450518
 30
0.0
 10
15.0436477703
 20
14.1552546894
 30
0.0
 10
15.0205383794
 20
14.1442104327
 30
0.0
 10
14.9983084026
 20
14.1325245403
 30
0.0
 10
14.9769832256
 20
14.120210194
 30
0.0
 10
14.9599036405
 20
14.1093834726
 30
0.0
 10
14.9467247355
 20
14.1004188312
 30
0.0
 10
14.9339910115
 20
14.091343105
 30
0.0
 10
14.9186710186
 20
14.0796356875
 30
0.0
 10
14.9040432859
 20
14.0673439079
 30
0.0
 10
14.8928594198
 20
14.0572339918
 30
0.0
 10
14.8847644916
 20
14.0495489906
 30
0.0
 10
14.8769281834
 20
14.0417303514
 30
0.0
 10
14.8693526252
 20
14.0337802801
 30
0.0
 10
14.8620399966
 20
14.0257010129
 30
0.0
 10
14.8549923911
 20
14.01749481
 30
0.0
 10
14.8482117662
 20
14.0091640289
 30
0.0
 10
14.8417001045
 20
14.0007109755
 30
0.0
 10
14.8354592213
 20
13.9921380698
 30
0.0
 10
14.8294908942
 20
13.983447732
 30
0.0
 10
14.8237968607
 20
13.9746423953
 30
0.0
 10
14.8183786833
 20
13.9657245908
 30
0.0
 10
14.8132379618
 20
13.9566968077
 30
0.0
 10
14.8083761352
 20
13.9475616211
 30
0.0
 10
14.8037945722
 20
13.938321628
 30
0.0
 10
14.7994946342
 20
13.9289794199
 30
0.0
 10
14.7954774806
 20
13.9195376876
 30
0.0
 10
14.7917442968
 20
13.9099990579
 30
0.0
 10
14.7882961709
 20
13.9003663558
 30
0.0
 10
14.7861877997
 20
13.8938827703
 30
0.0
 10
14.7851817963
 20
13.8906273424
 30
0.0
  0
SPLINE
  5
2A0
100
AcDbEntity
  8
LAYER_FEATURE
100
AcDbSpline
 62
7
  6
CONTINUOUS
 70
0
 71
3
 72
19
 73
15
 74
0
 42
0.0000001
 43
0.0000001
 44
0.0000000001
 40
0.0
 40
0.0
 40
0.0
 40
0.0
 40
0.0564858811
 40
0.1131378158
 40
0.1701193249
 40
0.2275894228
 40
0.2857002803
 40
0.3445951339
 40
0.404407911
 40
0.4652607412
 40
0.5904714455
 40
0.7210050623
 40
0.8574083157
 40
1.0
 40
1.0
 40
1.0
 40
1.0
 10
16.4352425499
 20
13.470825841
 30
0.0
 10
16.43533277
 20
13.4711177861
 30
0.0
 10
16.4354941402
 20
13.471708712
 30
0.0
 10
16.4356774679
 20
13.4726111953
 30
0.0
 10
16.4358020549
 20
13.4735290474
 30
0.0
 10
16.4358676663
 20
13.4744608744
 30
0.0
 10
16.4358742377
 20
13.4754053183
 30
0.0
 10
16.4358218197
 20
13.4763609913
 30
0.0
 10
16.4357104364
 20
13.4773265259
 30
0.0
 10
16.435481534
 20
13.4786374186
 30
0.0
 10
16.4350440872
 20
13.4802970807
 30
0.0
 10
16.4342933603
 20
13.4822847774
 30
0.0
 10
16.4333166771
 20
13.4842765506
 30
0.0
 10
16.4325363432
 20
13.4855707784
 30
0.0
 10
16.4321127372
 20
13.4862154229
 30
0.0
  0
SPLINE
  5
2A1
100
AcDbEntity
  8
02___PRT_ALL_AXES
100
AcDbSpline
 62
7
  6
CONTINUOUS
 70
0
 71
3
 72
56
 73
52
 74
0
 42
0.0000001
 43
0.0000001
 44
0.0000000001
 40
0.0
 40
0.0
 40
0.0
 40
0.0
 40
0.0114320941
 40
0.0229205363
 40
0.034486672
 40
0.0461510416
 40
0.05793303
 40
0.0698508321
 40
0.0819211767
 40
0.0941592968
 40
0.1065787842
 40
0.1191915392
 40
0.1320077964
 40
0.1450359856
 40
0.1582829336
 40
0.1717536686
 40
0.1854517337
 40
0.1993789654
 40
0.2135358409
 40
0.2279213304
 40
0.2425331683
 40
0.2573678275
 40
0.2724206739
 40
0.2876860705
 40
0.3031574337
 40
0.3188274226
 40
0.3346879159
 40
0.3507302396
 40
0.3669451455
 40
0.383323001
 40
0.3998537786
 40
0.4165272141
 40
0.4333328324
 40
0.4502600389
 40
0.4672981576
 40
0.4844365062
 40
0.5189688692
 40
0.5537756383
 40
0.5887751971
 40
0.623889243
 40
0.6590433887
 40
0.6941677068
 40
0.7291970534
 40
0.7640714197
 40
0.7987361654
 40
0.8331422947
 40
0.86724668
 40
0.9010122467
 40
0.9344082924
 40
0.9674100868
 40
1.0
 40
1.0
 40
1.0
 40
1.0
 10
14.7342752716
 20
12.3599773142
 30
0.0
 10
14.7335487525
 20
12.3614578059
 30
0.0
 10
14.7321689327
 20
12.3644644732
 30
0.0
 10
14.7303285891
 20
12.3690886896
 30
0.0
 10
14.7287149738
 20
12.3738323262
 30
0.0
 10
14.7273295147
 20
12.3786915009
 30
0.0
 10
14.7261731721
 20
12.3836622791
 30
0.0
 10
14.7252468494
 20
12.3887404815
 30
0.0
 10
14.7245511251
 20
12.3939217015
 30
0.0
 10
14.7240864214
 20
12.3992013036
 30
0.0
 10
14.7238529139
 20
12.4045744109
 30
0.0
 10
14.7238505333
 20
12.4100359083
 30
0.0
 10
14.7240790349
 20
12.4155804285
 30
0.0
 10
14.7245378492
 20
12.4212023725
 30
0.0
 10
14.7252262837
 20
12.4268958749
 30
0.0
 10
14.7261432739
 20
12.4326548618
 30
0.0
 10
14.7272876467
 20
12.4384729888
 30
0.0
 10
14.7286578561
 20
12.4443437278
 30
0.0
 10
14.7302522244
 20
12.4502602977
 30
0.0
 10
14.7320687435
 20
12.4562157537
 30
0.0
 10
14.7341052267
 20
12.4622029421
 30
0.0
 10
14.7363592232
 20
12.4682145567
 30
0.0
 10
14.7388280558
 20
12.4742431421
 30
0.0
 10
14.7415088517
 20
12.4802811016
 30
0.0
 10
14.7443984818
 20
12.486320756
 30
0.0
 10
14.7474936771
 20
12.4923543009
 30
0.0
 10
14.7507909052
 20
12.4983739079
 30
0.0
 10
14.7542865297
 20
12.5043716494
 30
0.0
 10
14.7579766715
 20
12.5103396187
 30
0.0
 10
14.7618573591
 20
12.5162698487
 30
0.0
 10
14.7659244176
 20
12.5221544175
 30
0.0
 10
14.7701735753
 20
12.5279853894
 30
0.0
 10
14.7746004082
 20
12.5337548888
 30
0.0
 10
14.7792003692
 20
12.5394550632
 30
0.0
 10
14.7839688453
 20
12.5450781676
 30
0.0
 10
14.7905612348
 20
12.5524806699
 30
0.0
 10
14.7991942456
 20
12.5614932117
 30
0.0
 10
14.810122029
 20
12.5718518959
 30
0.0
 10
14.8216029255
 20
12.5817236421
 30
0.0
 10
14.8335934085
 20
12.5910518102
 30
0.0
 10
14.8460482957
 20
12.5997820347
 30
0.0
 10
14.8589202962
 20
12.6078622251
 30
0.0
 10
14.8721599
 20
12.6152429697
 30
0.0
 10
14.8857151765
 20
12.621877907
 30
0.0
 10
14.8995316579
 20
12.6277241893
 30
0.0
 10
14.9135522735
 20
12.6327430004
 30
0.0
 10
14.9277174244
 20
12.6369001059
 30
0.0
 10
14.9419650536
 20
12.6401664488
 30
0.0
 10
14.9562312728
 20
12.642518634
 30
0.0
 10
14.970449463
 20
12.6439395414
 30
0.0
 10
14.9799142981
 20
12.6442609199
 30
0.0
 10
14.9846155851
 20
12.6442609199
 30
0.0
  0
SPLINE
  5
2A2
100
AcDbEntity
  8
LAYER_FEATURE
100
AcDbSpline
 62
7
  6
CONTINUOUS
 70
0
 71
3
 72
11
 73
7
 74
0
 42
0.0000001
 43
0.0000001
 44
0.0000000001
 40
0.0
 40
0.0
 40
0.0
 40
0.0
 40
0.2420120886
 40
0.489427975
 40
0.7421519254
 40
1.0
 40
1.0
 40
1.0
 40
1.0
 10
16.1394487221
 20
13.5922591201
 30
0.0
 10
16.1404969951
 20
13.5909906955
 30
0.0
 10
16.1426682322
 20
13.5884674971
 30
0.0
 10
16.1461020283
 20
13.5847683214
 30
0.0
 10
16.1497429549
 20
13.5811191367
 30
0.0
 10
16.152279008
 20
13.5787472876
 30
0.0
 10
16.1535790273
 20
13.5775709859
 30
0.0
  0
SPLINE
  5
2A3
100
AcDbEntity
  8
LAYER_FEATURE
100
AcDbSpline
 62
7
  6
CONTINUOUS
 70
0
 71
3
 72
28
 73
24
 74
0
 42
0.0000001
 43
0.0000001
 44
0.0000000001
 40
0.0
 40
0.0
 40
0.0
 40
0.0
 40
0.0241854979
 40
0.0484380036
 40
0.0728235566
 40
0.097406457
 40
0.1222484664
 40
0.1474078705
 40
0.1729394013
 40
0.1988931709
 40
0.2522265328
 40
0.3077348734
 40
0.3363863721
 40
0.3656603429
 40
0.4261256926
 40
0.4892268281
 40
0.5549818296
 40
0.6233525105
 40
0.6942516804
 40
0.7675495121
 40
0.8430753672
 40
0.9206389588
 40
1.0
 40
1.0
 40
1.0
 40
1.0
 10
16.1744260632
 20
13.7052255688
 30
0.0
 10
16.1745136382
 20
13.7055089545
 30
0.0
 10
16.1746708148
 20
13.7060823257
 30
0.0
 10
16.1748512652
 20
13.7069575994
 30
0.0
 10
16.1749763849
 20
13.7078474282
 30
0.0
 10
16.1750459641
 20
13.70875054
 30
0.0
 10
16.175059914
 20
13.7096656971
 30
0.0
 10
16.1750182873
 20
13.7105916323
 30
0.0
 10
16.1749210845
 20
13.7115270973
 30
0.0
 10
16.1747158546
 20
13.7127966889
 30
0.0
 10
16.1743168114
 20
13.71440439
 30
0.0
 10
16.1737457104
 20
13.7159938679
 30
0.0
 10
16.1731855587
 20
13.7172676813
 30
0.0
 10
16.1725419867
 20
13.7185696765
 30
0.0
 10
16.1716028252
 20
13.7201945391
 30
0.0
 10
16.1702854911
 20
13.7221090412
 30
0.0
 10
16.1687729348
 20
13.7239990458
 30
0.0
 10
16.1670734154
 20
13.725854447
 30
0.0
 10
16.1651960667
 20
13.7276654212
 30
0.0
 10
16.1631510186
 20
13.729422266
 30
0.0
 10
16.160949233
 20
13.7311156896
 30
0.0
 10
16.15860266
 20
13.7327364419
 30
0.0
 10
16.1569670728
 20
13.7337522645
 30
0.0
 10
16.1561286328
 20
13.7342465184
 30
0.0
  0
SPLINE
  5
2A4
100
AcDbEntity
  8
LAYER_FEATURE
100
AcDbSpline
 62
7
  6
CONTINUOUS
 70
0
 71
3
 72
40
 73
36
 74
0
 42
0.0000001
 43
0.0000001
 44
0.0000000001
 40
0.0
 40
0.0
 40
0.0
 40
0.0
 40
0.0113144213
 40
0.0226688688
 40
0.0455359736
 40
0.0686868174
 40
0.092198135
 40
0.1161406163
 40
0.1405778994
 40
0.1655661434
 40
0.1911538965
 40
0.2173818721
 40
0.24428315
 40
0.2718835071
 40
0.3002015393
 40
0.3292492347
 40
0.359032347
 40
0.3895506723
 40
0.4207986923
 40
0.4527658236
 40
0.4854367965
 40
0.518792188
 40
0.5528085616
 40
0.5874589165
 40
0.6227130407
 40
0.6585376276
 40
0.6948967422
 40
0.7317520077
 40
0.769062727
 40
0.8067864123
 40
0.8448789184
 40
0.8832938507
 40
0.9219843143
 40
0.9609047293
 40
1.0
 40
1.0
 40
1.0
 40
1.0
 10
15.7899950474
 20
13.8386406311
 30
0.0
 10
15.7898741388
 20
13.8380405828
 30
0.0
 10
15.7896547417
 20
13.8368336153
 30
0.0
 10
15.7893059292
 20
13.8343944856
 30
0.0
 10
15.7890399771
 20
13.8312989129
 30
0.0
 10
15.7889938458
 20
13.8275344725
 30
0.0
 10
15.7892197084
 20
13.8237182862
 30
0.0
 10
15.7897170141
 20
13.8198579249
 30
0.0
 10
15.7904846329
 20
13.8159608128
 30
0.0
 10
15.7915208755
 20
13.8120344364
 30
0.0
 10
15.7928236418
 20
13.8080863081
 30
0.0
 10
15.7943902812
 20
13.8041239435
 30
0.0
 10
15.7962176633
 20
13.8001548593
 30
0.0
 10
15.7983022436
 20
13.796186608
 30
0.0
 10
15.800639929
 20
13.7922266975
 30
0.0
 10
15.803226204
 20
13.7882826407
 30
0.0
 10
15.8060561095
 20
13.7843619415
 30
0.0
 10
15.8091241736
 20
13.7804720205
 30
0.0
 10
15.8124245345
 20
13.7766202895
 30
0.0
 10
15.8159508727
 20
13.7728140817
 30
0.0
 10
15.8196964161
 20
13.7690606227
 30
0.0
 10
15.823654024
 20
13.7653670941
 30
0.0
 10
15.8278161123
 20
13.7617405274
 30
0.0
 10
15.8321747121
 20
13.758187834
 30
0.0
 10
15.8367215069
 20
13.7547158274
 30
0.0
 10
15.8414477784
 20
13.7513311146
 30
0.0
 10
15.8463444894
 20
13.7480401717
 30
0.0
 10
15.8514022802
 20
13.7448493121
 30
0.0
 10
15.8566114524
 20
13.7417646071
 30
0.0
 10
15.8619620562
 20
13.7387919764
 30
0.0
 10
15.8674438379
 20
13.7359371263
 30
0.0
 10
15.8730462704
 20
13.7332054887
 30
0.0
 10
15.8787587688
 20
13.7306022684
 30
0.0
 10
15.8845701998
 20
13.7281325621
 30
0.0
 10
15.8884958828
 20
13.7265810122
 30
0.0
 10
15.8904725268
 20
13.7258284775
 30
0.0
  0
SPLINE
  5
2A5
100
AcDbEntity
  8
LAYER_FEATURE
100
AcDbSpline
 62
7
  6
CONTINUOUS
 70
0
 71
3
 72
37
 73
33
 74
0
 42
0.0000001
 43
0.0000001
 44
0.0000000001
 40
0.0
 40
0.0
 40
0.0
 40
0.0
 40
0.0218171232
 40
0.0437644433
 40
0.0659729948
 40
0.0885648703
 40
0.1116502734
 40
0.1353272247
 40
0.1596802745
 40
0.1847789581
 40
0.2106785667
 40
0.237420212
 40
0.2650316097
 40
0.2935282647
 40
0.3229138227
 40
0.3531818916
 40
0.3843161358
 40
0.4162918928
 40
0.4490766286
 40
0.4826307644
 40
0.5169087284
 40
0.5518590727
 40
0.5874257893
 40
0.6235482669
 40
0.6601623561
 40
0.69720064
 40
0.7722571333
 40
0.8481438776
 40
0.8862133674
 40
0.9242635558
 40
0.9622216897
 40
1.0
 40
1.0
 40
1.0
 40
1.0
 10
15.7933428731
 20
13.8492208131
 30
0.0
 10
15.7934729743
 20
13.8496418059
 30
0.0
 10
15.7936936728
 20
13.8504993549
 30
0.0
 10
15.7939019156
 20
13.8518173356
 30
0.0
 10
15.7939873301
 20
13.8531646588
 30
0.0
 10
15.7939497881
 20
13.8545370297
 30
0.0
 10
15.793789472
 20
13.8559302708
 30
0.0
 10
15.7935070981
 20
13.8573401471
 30
0.0
 10
15.7931035931
 20
13.8587624268
 30
0.0
 10
15.7925803556
 20
13.8601929092
 30
0.0
 10
15.7919390159
 20
13.8616273636
 30
0.0
 10
15.7911815733
 20
13.8630615724
 30
0.0
 10
15.7903103652
 20
13.8644913411
 30
0.0
 10
15.7893279807
 20
13.8659124373
 30
0.0
 10
15.7882374212
 20
13.8673207214
 30
0.0
 10
15.7870418983
 20
13.8687120028
 30
0.0
 10
15.7857450131
 20
13.8700822073
 30
0.0
 10
15.7843506116
 20
13.8714272678
 30
0.0
 10
15.7828628421
 20
13.8727431966
 30
0.0
 10
15.781286151
 20
13.8740261166
 30
0.0
 10
15.7796252016
 20
13.8752721792
 30
0.0
 10
15.7778849703
 20
13.8764777283
 30
0.0
 10
15.7760706096
 20
13.8776391367
 30
0.0
 10
15.7741875464
 20
13.8787529751
 30
0.0
 10
15.7722413626
 20
13.8798159313
 30
0.0
 10
15.7695584031
 20
13.8811669524
 30
0.0
 10
15.7660849805
 20
13.8827067973
 30
0.0
 10
15.7625016839
 20
13.8840309347
 30
0.0
 10
15.7595749029
 20
13.8849592195
 30
0.0
 10
15.7573576136
 20
13.8855868702
 30
0.0
 10
15.7551274687
 20
13.8861431973
 30
0.0
 10
15.7536320682
 20
13.8864664709
 30
0.0
 10
15.7528838028
 20
13.8866157114
 30
0.0
  0
SPLINE
  5
2A6
100
AcDbEntity
  8
LAYER_CUT_FEAT
100
AcDbSpline
 62
7
  6
CONTINUOUS
 70
0
 71
3
 72
23
 73
19
 74
0
 42
0.0000001
 43
0.0000001
 44
0.0000000001
 40
0.0
 40
0.0
 40
0.0
 40
0.0
 40
0.0581641119
 40
0.1164420938
 40
0.1749467093
 40
0.2337885826
 40
0.2930751387
 40
0.3529097493
 40
0.4133909227
 40
0.4746115731
 40
0.5366585827
 40
0.5996122072
 40
0.6635460539
 40
0.72852679
 40
0.7946131943
 40
0.8618582375
 40
0.9303096873
 40
1.0
 40
1.0
 40
1.0
 40
1.0
 10
14.6464974958
 20
11.5959350217
 30
0.0
 10
14.645596186
 20
11.5930183632
 30
0.0
 10
14.6439493208
 20
11.5871293158
 30
0.0
 10
14.6419561798
 20
11.5781618443
 30
0.0
 10
14.6404408307
 20
11.5690650963
 30
0.0
 10
14.6394048739
 20
11.5598482483
 30
0.0
 10
14.6388491623
 20
11.550520175
 30
0.0
 10
14.638774166
 20
11.5410899426
 30
0.0
 10
14.6391798937
 20
11.5315666699
 30
0.0
 10
14.6400657876
 20
11.5219595424
 30
0.0
 10
14.641430948
 20
11.5122778133
 30
0.0
 10
14.6432739172
 20
11.5025307713
 30
0.0
 10
14.6455928176
 20
11.4927277424
 30
0.0
 10
14.6483853783
 20
11.4828781357
 30
0.0
 10
14.6516487364
 20
11.4729913387
 30
0.0
 10
14.655379813
 20
11.4630766423
 30
0.0
 10
14.6595748558
 20
11.4531438395
 30
0.0
 10
14.6626501615
 20
11.446575764
 30
0.0
 10
14.6642615341
 20
11.443292132
 30
0.0
  0
SPLINE
  5
2A7
100
AcDbEntity
  8
02___PRT_ALL_AXES
100
AcDbSpline
 62
7
  6
CONTINUOUS
 70
0
 71
3
 72
33
 73
29
 74
0
 42
0.0000001
 43
0.0000001
 44
0.0000000001
 40
0.0
 40
0.0
 40
0.0
 40
0.0
 40
0.0678876346
 40
0.1349614919
 40
0.2012197068
 40
0.2666692286
 40
0.3313241842
 40
0.3952057415
 40
0.4268693883
 40
0.4583503863
 40
0.4896529727
 40
0.5207817276
 40
0.5517414887
 40
0.5825374044
 40
0.6131748746
 40
0.6436595859
 40
0.673997481
 40
0.7041947682
 40
0.7342579148
 40
0.7641936626
 40
0.794009047
 40
0.823711379
 40
0.8533082689
 40
0.8828076295
 40
0.9122177231
 40
0.9415471325
 40
0.9708047978
 40
1.0
 40
1.0
 40
1.0
 40
1.0
 10
14.9846155851
 20
12.6442609199
 30
0.0
 10
14.9887884599
 20
12.6442609199
 30
0.0
 10
14.997086554
 20
12.6440108395
 30
0.0
 10
15.0094102276
 20
12.6428718967
 30
0.0
 10
15.0214896636
 20
12.6409779441
 30
0.0
 10
15.0332765682
 20
12.6383398962
 30
0.0
 10
15.0447240727
 20
12.6349729975
 30
0.0
 10
15.0539714237
 20
12.63156517
 30
0.0
 10
15.061151045
 20
12.6284931831
 30
0.0
 10
15.0664080431
 20
12.6260272491
 30
0.0
 10
15.0715473612
 20
12.6233961091
 30
0.0
 10
15.0765640364
 20
12.6206032926
 30
0.0
 10
15.0814530927
 20
12.6176524656
 30
0.0
 10
15.0862097227
 20
12.6145474925
 30
0.0
 10
15.0908292226
 20
12.6112923685
 30
0.0
 10
15.0953070104
 20
12.6078912326
 30
0.0
 10
15.0996386412
 20
12.6043483751
 30
0.0
 10
15.1038197623
 20
12.6006681779
 30
0.0
 10
15.1078461879
 20
12.5968551914
 30
0.0
 10
15.1117137956
 20
12.5929140134
 30
0.0
 10
15.1154186606
 20
12.5888494208
 30
0.0
 10
15.1189568935
 20
12.5846662068
 30
0.0
 10
15.122324832
 20
12.5803693494
 30
0.0
 10
15.1255188256
 20
12.5759638183
 30
0.0
 10
15.1285354777
 20
12.5714547729
 30
0.0
 10
15.1313714005
 20
12.5668473234
 30
0.0
 10
15.1340234317
 20
12.5621468724
 30
0.0
 10
15.1356684618
 20
12.5589514673
 30
0.0
 10
15.1364590382
 20
12.5573404404
 30
0.0
  0
SPLINE
  5
2A8
100
AcDbEntity
  8
LAYER_CUT_FEAT
100
AcDbSpline
 62
7
  6
CONTINUOUS
 70
0
 71
3
 72
15
 73
11
 74
0
 42
0.0000001
 43
0.0000001
 44
0.0000000001
 40
0.0
 40
0.0
 40
0.0
 40
0.0
 40
0.1233983571
 40
0.2471078765
 40
0.3712034768
 40
0.4957588047
 40
0.6208462388
 40
0.7465365901
 40
0.8728987837
 40
1.0
 40
1.0
 40
1.0
 40
1.0
 10
14.6522097892
 20
11.6119088266
 30
0.0
 10
14.6518542217
 20
11.6102101907
 30
0.0
 10
14.6511939424
 20
11.6067975684
 30
0.0
 10
14.6503578435
 20
11.6016436544
 30
0.0
 10
14.6496752466
 20
11.5964507193
 30
0.0
 10
14.6491463228
 20
11.5912204327
 30
0.0
 10
14.6487712599
 20
11.5859543901
 30
0.0
 10
14.6485501827
 20
11.5806542057
 30
0.0
 10
14.6484831071
 20
11.5753215694
 30
0.0
 10
14.6485409155
 20
11.5717568008
 30
0.0
 10
14.6485952372
 20
11.5699700984
 30
0.0
  0
SPLINE
  5
2A9
100
AcDbEntity
  8
LAYER_CUT_FEAT
100
AcDbSpline
 62
7
  6
CONTINUOUS
 70
0
 71
3
 72
82
 73
78
 74
0
 42
0.0000001
 43
0.0000001
 44
0.0000000001
 40
0.0
 40
0.0
 40
0.0
 40
0.0
 40
0.0131061013
 40
0.0265342127
 40
0.0402891344
 40
0.0543740711
 40
0.0687893414
 40
0.0835332279
 40
0.0986019105
 40
0.1139896611
 40
0.1296889912
 40
0.14569078
 40
0.1619844044
 40
0.1785578541
 40
0.1953978508
 40
0.2124899584
 40
0.2298186844
 40
0.2473675769
 40
0.2651193143
 40
0.2830557981
 40
0.3011582405
 40
0.3194072467
 40
0.3377828949
 40
0.3562648129
 40
0.3748322575
 40
0.3934641908
 40
0.4121393543
 40
0.4308363411
 40
0.4495336697
 40
0.4682098581
 40
0.4868434967
 40
0.5054133205
 40
0.5238982824
 40
0.5422776287
 40
0.5605309763
 40
0.5786383876
 40
0.5965804489
 40
0.6143383498
 40
0.6318939693
 40
0.6492299628
 40
0.666329849
 40
0.6831781018
 40
0.6997602473
 40
0.7160629693
 40
0.7320742203
 40
0.7477833302
 40
0.7631811269
 40
0.7782600634
 40
0.7930143563
 40
0.8074401312
 40
0.8215355664
 40
0.8353010468
 40
0.8487393221
 40
0.8553377674
 40
0.8618566182
 40
0.8682969508
 40
0.8746600198
 40
0.8809472716
 40
0.8871603179
 40
0.8993700751
 40
0.9113071705
 40
0.9171802214
 40
0.9229928313
 40
0.9287479661
 40
0.9344487839
 40
0.9400986343
 40
0.9457010344
 40
0.9512596869
 40
0.9567784485
 40
0.9622613323
 40
0.9677124954
 40
0.9731362156
 40
0.9785368909
 40
0.9839190098
 40
0.9892871416
 40
0.9946459156
 40
1.0
 40
1.0
 40
1.0
 40
1.0
 10
15.6092701139
 20
11.443292132
 30
0.0
 10
15.6071038703
 20
11.4477064724
 30
0.0
 10
15.6024941805
 20
11.4565353482
 30
0.0
 10
15.5948735345
 20
11.4695954798
 30
0.0
 10
15.5864765552
 20
11.4826098396
 30
0.0
 10
15.5773180414
 20
11.4955558837
 30
0.0
 10
15.5674135137
 20
11.508411836
 30
0.0
 10
15.5567799746
 20
11.5211558292
 30
0.0
 10
15.545435584
 20
11.5337662438
 30
0.0
 10
15.5333997215
 20
11.5462216516
 30
0.0
 10
15.5206929321
 20
11.5585008761
 30
0.0
 10
15.507336896
 20
11.5705830238
 30
0.0
 10
15.493354398
 20
11.5824475203
 30
0.0
 10
15.4787693012
 20
11.5940741603
 30
0.0
 10
15.4636064974
 20
11.6054431335
 30
0.0
 10
15.4478918623
 20
11.6165350584
 30
0.0
 10
15.4316522131
 20
11.6273310178
 30
0.0
 10
15.414915264
 20
11.6378125888
 30
0.0
 10
15.3977095882
 20
11.6479618896
 30
0.0
 10
15.3800645624
 20
11.6577616021
 30
0.0
 10
15.3620103127
 20
11.6671949984
 30
0.0
 10
15.3435776645
 20
11.676245972
 30
0.0
 10
15.3247980902
 20
11.6848990624
 30
0.0
 10
15.3057036617
 20
11.6931394956
 30
0.0
 10
15.286326991
 20
11.7009532036
 30
0.0
 10
15.2667011707
 20
11.7083268422
 30
0.0
 10
15.2468597194
 20
11.7152478166
 30
0.0
 10
15.2268365233
 20
11.7217042994
 30
0.0
 10
15.2066657825
 20
11.7276852648
 30
0.0
 10
15.18638195
 20
11.7331805028
 30
0.0
 10
15.1660196695
 20
11.7381806288
 30
0.0
 10
15.1456137178
 20
11.7426771017
 30
0.0
 10
15.1251989447
 20
11.7466622357
 30
0.0
 10
15.1048102151
 20
11.7501292251
 30
0.0
 10
15.0844823474
 20
11.7530721552
 30
0.0
 10
15.0642500522
 20
11.7554860008
 30
0.0
 10
15.0441478748
 20
11.7573666377
 30
0.0
 10
15.0242101349
 20
11.7587108459
 30
0.0
 10
15.0044708681
 20
11.7595163258
 30
0.0
 10
14.9849637651
 20
11.7597817037
 30
0.0
 10
14.965722115
 20
11.7595065196
 30
0.0
 10
14.9467787495
 20
11.7586912307
 30
0.0
 10
14.9281659865
 20
11.7573372061
 30
0.0
 10
14.9099155728
 20
11.7554467326
 30
0.0
 10
14.8920586279
 20
11.7530230143
 30
0.0
 10
14.8746255938
 20
11.7500701498
 30
0.0
 10
14.857646185
 20
11.7465931262
 30
0.0
 10
14.8411493421
 20
11.7425978055
 30
0.0
 10
14.8251631721
 20
11.7380909162
 30
0.0
 10
14.8097149285
 20
11.7330800607
 30
0.0
 10
14.7948308712
 20
11.7275736331
 30
0.0
 10
14.7805365994
 20
11.7215809799
 30
0.0
 10
14.769067258
 20
11.7161575289
 30
0.0
 10
14.7602160411
 20
11.7115816813
 30
0.0
 10
14.7537801147
 20
11.7080557452
 30
0.0
 10
14.7475094343
 20
11.7044165739
 30
0.0
 10
14.741406671
 20
11.7006656855
 30
0.0
 10
14.7354743609
 20
11.696804684
 30
0.0
 10
14.7278402606
 20
11.6915429614
 30
0.0
 10
14.7187257035
 20
11.6847011701
 30
0.0
 10
14.7101114107
 20
11.6774345234
 30
0.0
 10
14.7035986825
 20
11.6714215533
 30
0.0
 10
14.6989269412
 20
11.6668382704
 30
0.0
 10
14.6944439732
 20
11.6621592942
 30
0.0
 10
14.6901516771
 20
11.6573865708
 30
0.0
 10
14.6860518737
 20
11.6525221826
 30
0.0
 10
14.682146386
 20
11.6475681534
 30
0.0
 10
14.678436849
 20
11.6425266452
 30
0.0
 10
14.6749248921
 20
11.6373997912
 30
0.0
 10
14.6716120456
 20
11.6321897815
 30
0.0
 10
14.6684996973
 20
11.6268988769
 30
0.0
 10
14.6655892628
 20
11.6215293078
 30
0.0
 10
14.6628819393
 20
11.6160834143
 30
0.0
 10
14.6603789357
 20
11.6105635245
 30
0.0
 10
14.6580813362
 20
11.6049719855
 30
0.0
 10
14.655990117
 20
11.599311321
 30
0.0
 10
14.6547339494
 20
11.5954922663
 30
0.0
 10
14.6541408663
 20
11.5935730416
 30
0.0
  0
SPLINE
  5
2AA
100
AcDbEntity
  8
LAYER_CUT_FEAT
100
AcDbSpline
 62
7
  6
CONTINUOUS
 70
0
 71
3
 72
23
 73
19
 74
0
 42
0.0000001
 43
0.0000001
 44
0.0000000001
 40
0.0
 40
0.0
 40
0.0
 40
0.0
 40
0.0581641106
 40
0.1164420944
 40
0.1749467108
 40
0.23378858
 40
0.2930751419
 40
0.3529097467
 40
0.4133909226
 40
0.4746115783
 40
0.5366585788
 40
0.5996122046
 40
0.6635460631
 40
0.7285268001
 40
0.7946131505
 40
0.8618582381
 40
0.9303098072
 40
1.0
 40
1.0
 40
1.0
 40
1.0
 10
15.6267592696
 20
11.2930112224
 30
0.0
 10
15.6276466349
 20
11.2958827481
 30
0.0
 10
15.629268023
 20
11.3016806675
 30
0.0
 10
15.6312303178
 20
11.3105093786
 30
0.0
 10
15.6327222121
 20
11.3194653653
 30
0.0
 10
15.6337421521
 20
11.3285395915
 30
0.0
 10
15.6342892508
 20
11.337723324
 30
0.0
 10
15.6343630968
 20
11.3470076338
 30
0.0
 10
15.6339636441
 20
11.3563835447
 30
0.0
 10
15.6330914538
 20
11.3658420118
 30
0.0
 10
15.6317474262
 20
11.3753739281
 30
0.0
 10
15.6299329678
 20
11.3849701443
 30
0.0
 10
15.6276499535
 20
11.3946214838
 30
0.0
 10
15.6249006035
 20
11.4043186764
 30
0.0
 10
15.621687743
 20
11.4140524858
 30
0.0
 10
15.6180143998
 20
11.4238137691
 30
0.0
 10
15.6138842663
 20
11.4335928735
 30
0.0
 10
15.6108565495
 20
11.4400593162
 30
0.0
 10
15.6092701139
 20
11.443292132
 30
0.0
  0
SPLINE
  5
2AB
100
AcDbEntity
  8
02___PRT_ALL_AXES
100
AcDbSpline
 62
7
  6
CONTINUOUS
 70
0
 71
3
 72
82
 73
78
 74
0
 42
0.0000001
 43
0.0000001
 44
0.0000000001
 40
0.0
 40
0.0
 40
0.0
 40
0.0
 40
0.0171786813
 40
0.0345300809
 40
0.052043911
 40
0.0697094342
 40
0.0875155992
 40
0.1054510219
 40
0.1235040339
 40
0.1416627072
 40
0.1599148842
 40
0.1782482067
 40
0.196650144
 40
0.2151080206
 40
0.2336090438
 40
0.2521403311
 40
0.2706889373
 40
0.2892418812
 40
0.3077861726
 40
0.3263088394
 40
0.344796954
 40
0.3632376608
 40
0.3816182031
 40
0.3999259504
 40
0.4181484261
 40
0.4362733355
 40
0.4542885942
 40
0.4721823569
 40
0.4899430469
 40
0.507559386
 40
0.5250204256
 40
0.5423155782
 40
0.55943465
 40
0.5763678745
 40
0.5931059475
 40
0.6096400632
 40
0.6259619514
 40
0.6420639174
 40
0.6579388817
 40
0.6735804238
 40
0.6889828259
 40
0.7041411195
 40
0.7190511346
 40
0.7337095498
 40
0.7481139458
 40
0.7622628595
 40
0.776155841
 40
0.7897935109
 40
0.8031776196
 40
0.8163111055
 40
0.8291981524
 40
0.8418442452
 40
0.8542562206
 40
0.8603772757
 40
0.8664430109
 40
0.8784128854
 40
0.8901776671
 40
0.895987429
 40
0.9017507643
 40
0.9074694747
 40
0.9131454517
 40
0.9187806749
 40
0.9243772097
 40
0.9299372061
 40
0.9354628939
 40
0.9409565822
 40
0.946420653
 40
0.9518575595
 40
0.9572698189
 40
0.9626600105
 40
0.9680307669
 40
0.9733847709
 40
0.9787247472
 40
0.9840534574
 40
0.9893736918
 40
0.9946882635
 40
1.0
 40
1.0
 40
1.0
 40
1.0
 10
14.8171056893
 20
12.1021986984
 30
0.0
 10
14.8276649095
 20
12.1021986984
 30
0.0
 10
14.8488901927
 20
12.1019663666
 30
0.0
 10
14.8808656163
 20
12.1009339981
 30
0.0
 10
14.9131113627
 20
12.0992170329
 30
0.0
 10
14.9455936898
 20
12.0968172545
 30
0.0
 10
14.978278837
 20
12.0937371669
 30
0.0
 10
15.0111327779
 20
12.0899799751
 30
0.0
 10
15.0441213211
 20
12.0855495916
 30
0.0
 10
15.0772101307
 20
12.0804506281
 30
0.0
 10
15.110364766
 20
12.0746883926
 30
0.0
 10
15.1435507163
 20
12.0682688832
 30
0.0
 10
15.1767334375
 20
12.0611987822
 30
0.0
 10
15.2098783881
 20
12.0534854494
 30
0.0
 10
15.2429510653
 20
12.0451369139
 30
0.0
 10
15.2759170412
 20
12.0361618665
 30
0.0
 10
15.3087419983
 20
12.0265696499
 30
0.0
 10
15.341391766
 20
12.0163702496
 30
0.0
 10
15.373832356
 20
12.0055742832
 30
0.0
 10
15.4060299978
 20
11.9941929891
 30
0.0
 10
15.437951174
 20
11.9822382152
 30
0.0
 10
15.4695626554
 20
11.9697224061
 30
0.0
 10
15.5008315358
 20
11.9566585906
 30
0.0
 10
15.5317252659
 20
11.943060367
 30
0.0
 10
15.562211688
 20
11.9289418901
 30
0.0
 10
15.5922590689
 20
11.9143178551
 30
0.0
 10
15.6218361334
 20
11.8992034832
 30
0.0
 10
15.650912097
 20
11.8836145048
 30
0.0
 10
15.6794566976
 20
11.8675671433
 30
0.0
 10
15.7074402275
 20
11.8510780978
 30
0.0
 10
15.7348335642
 20
11.8341645256
 30
0.0
 10
15.7616082007
 20
11.816844024
 30
0.0
 10
15.787736275
 20
11.7991346115
 30
0.0
 10
15.8131905995
 20
11.781054709
 30
0.0
 10
15.8379446886
 20
11.7626231197
 30
0.0
 10
15.8619727868
 20
11.7438590098
 30
0.0
 10
15.8852498945
 20
11.7247818872
 30
0.0
 10
15.9077517944
 20
11.7054115815
 30
0.0
 10
15.9294550761
 20
11.6857682222
 30
0.0
 10
15.9503371597
 20
11.6658722176
 30
0.0
 10
15.9703763187
 20
11.6457442327
 30
0.0
 10
15.989551702
 20
11.6254051668
 30
0.0
 10
16.0078433539
 20
11.604876132
 30
0.0
 10
16.0252322343
 20
11.58417843
 30
0.0
 10
16.0417002363
 20
11.56333353
 30
0.0
 10
16.0572302036
 20
11.5423630461
 30
0.0
 10
16.0718059461
 20
11.5212887145
 30
0.0
 10
16.0854122536
 20
11.5001323736
 30
0.0
 10
16.0980349121
 20
11.4789159336
 30
0.0
 10
16.1096607037
 20
11.4576613876
 30
0.0
 10
16.1202774615
 20
11.4363906741
 30
0.0
 10
16.1298739184
 20
11.4151260824
 30
0.0
 10
16.1370453053
 20
11.3973471013
 30
0.0
 10
16.1422546637
 20
11.3831516333
 30
0.0
 10
16.1470706987
 20
11.3691049505
 30
0.0
 10
16.1524460806
 20
11.35158742
 30
0.0
 10
16.1569855551
 20
11.3339967467
 30
0.0
 10
16.1600792807
 20
11.3199880681
 30
0.0
 10
16.1621244316
 20
11.3095568551
 30
0.0
 10
16.1639034273
 20
11.2991604129
 30
0.0
 10
16.1654158164
 20
11.2888013922
 30
0.0
 10
16.1666611913
 20
11.2784825088
 30
0.0
 10
16.1676392157
 20
11.2682064486
 30
0.0
 10
16.168349634
 20
11.2579758943
 30
0.0
 10
16.1687922395
 20
11.2477935139
 30
0.0
 10
16.1689669253
 20
11.2376619667
 30
0.0
 10
16.1688736172
 20
11.2275838976
 30
0.0
 10
16.1685123553
 20
11.2175619396
 30
0.0
 10
16.1678832012
 20
11.2075987121
 30
0.0
 10
16.1669863394
 20
11.1976968186
 30
0.0
 10
16.165821971
 20
11.1878588502
 30
0.0
 10
16.1643904216
 20
11.1780873781
 30
0.0
 10
16.1626920356
 20
11.1683849602
 30
0.0
 10
16.1607272776
 20
11.158754139
 30
0.0
 10
16.1584966315
 20
11.1491974124
 30
0.0
 10
16.156000725
 20
11.1397173759
 30
0.0
 10
16.1541601327
 20
11.1334493348
 30
0.0
 10
16.1531961614
 20
11.1303299187
 30
0.0
  0
SPLINE
  5
2AC
100
AcDbEntity
  8
LAYER_CHAMFER_FEAT
100
AcDbSpline
 62
7
  6
CONTINUOUS
 70
0
 71
3
 72
82
 73
78
 74
0
 42
0.0000001
 43
0.0000001
 44
0.0000000001
 40
0.0
 40
0.0
 40
0.0
 40
0.0
 40
0.0157578757
 40
0.0311472664
 40
0.0461644974
 40
0.0608086365
 40
0.0750817284
 40
0.0889890339
 40
0.1025392236
 40
0.1157445798
 40
0.1286211971
 40
0.1411891278
 40
0.153472441
 40
0.1654992204
 40
0.1714271734
 40
0.1773033118
 40
0.1831322118
 40
0.1889186402
 40
0.1946675698
 40
0.200384139
 40
0.2060736333
 40
0.211741478
 40
0.2173931948
 40
0.2230343882
 40
0.2286707152
 40
0.2343078553
 40
0.2399514858
 40
0.2456072487
 40
0.2512807315
 40
0.2569774288
 40
0.2627027247
 40
0.268461874
 40
0.2742599603
 40
0.2801019017
 40
0.2859924194
 40
0.2919360128
 40
0.3039976407
 40
0.316320059
 40
0.328930788
 40
0.3418533276
 40
0.3551071465
 40
0.3687077788
 40
0.3826669887
 40
0.3969929515
 40
0.411690438
 40
0.4267610547
 40
0.4422034758
 40
0.4580136483
 40
0.4741849837
 40
0.4907085847
 40
0.5075734371
 40
0.5247665702
 40
0.5422732204
 40
0.5600770116
 40
0.5781601005
 40
0.5965032992
 40
0.6150862176
 40
0.6338874033
 40
0.6528844563
 40
0.6720541343
 40
0.6913724804
 40
0.7108149348
 40
0.7303564357
 40
0.749971522
 40
0.769634447
 40
0.7893192768
 40
0.8089999883
 40
0.8286505768
 40
0.8482451564
 40
0.8677580588
 40
0.887163942
 40
0.9064378741
 40
0.9255555131
 40
0.9444931078
 40
0.9632274211
 40
0.9817372777
 40
1.0
 40
1.0
 40
1.0
 40
1.0
 10
14.977775237
 20
11.6138740632
 30
0.0
 10
14.9744633456
 20
11.6130951784
 30
0.0
 10
14.9679456545
 20
11.6114301619
 30
0.0
 10
14.958393823
 20
11.6085729465
 30
0.0
 10
14.9491990375
 20
11.6053906096
 30
0.0
 10
14.9403795094
 20
11.6018893168
 30
0.0
 10
14.9319524921
 20
11.5980757771
 30
0.0
 10
14.9239345315
 20
11.5939573332
 30
0.0
 10
14.9163413898
 20
11.589541882
 30
0.0
 10
14.9091880488
 20
11.5848378589
 30
0.0
 10
14.9024886877
 20
11.5798542841
 30
0.0
 10
14.8962565813
 20
11.5746006665
 30
0.0
 10
14.8905043783
 20
11.5690873242
 30
0.0
 10
14.8860989639
 20
11.5642615813
 30
0.0
 10
14.8828328132
 20
11.5602847486
 30
0.0
 10
14.8805214702
 20
11.5572585167
 30
0.0
 10
14.8783380075
 20
11.5541761569
 30
0.0
 10
14.8762835295
 20
11.5510391116
 30
0.0
 10
14.8743590369
 20
11.5478489621
 30
0.0
 10
14.8725654768
 20
11.5446072841
 30
0.0
 10
14.8709037972
 20
11.5413156531
 30
0.0
 10
14.8693747695
 20
11.5379757284
 30
0.0
 10
14.8679791827
 20
11.5345891495
 30
0.0
 10
14.8667177568
 20
11.5311575881
 30
0.0
 10
14.865591062
 20
11.5276827671
 30
0.0
 10
14.8645997138
 20
11.5241663916
 30
0.0
 10
14.8637441858
 20
11.5206102151
 30
0.0
 10
14.8630248654
 20
11.5170160086
 30
0.0
 10
14.8624421716
 20
11.5133855438
 30
0.0
 10
14.8619963329
 20
11.5097206324
 30
0.0
 10
14.8616875686
 20
11.506023088
 30
0.0
 10
14.8615160699
 20
11.5022947422
 30
0.0
 10
14.8614818464
 20
11.4985374401
 30
0.0
 10
14.8615849446
 20
11.4947530515
 30
0.0
 10
14.8618253202
 20
11.4909433992
 30
0.0
 10
14.8623310111
 20
11.4858080811
 30
0.0
 10
14.8633115795
 20
11.4793283806
 30
0.0
 10
14.8650283773
 20
11.4715220466
 30
0.0
 10
14.8672873528
 20
11.463661609
 30
0.0
 10
14.8700837484
 20
11.4557627326
 30
0.0
 10
14.8734117994
 20
11.4478407547
 30
0.0
 10
14.8772647348
 20
11.4399111182
 30
0.0
 10
14.8816348275
 20
11.4319892449
 30
0.0
 10
14.8865133922
 20
11.4240905568
 30
0.0
 10
14.8918907474
 20
11.4162304163
 30
0.0
 10
14.8977562696
 20
11.4084241246
 30
0.0
 10
14.904098416
 20
11.4006868991
 30
0.0
 10
14.9109047286
 20
11.3930338433
 30
0.0
 10
14.9181618206
 20
11.3854798881
 30
0.0
 10
14.9258554422
 20
11.378039794
 30
0.0
 10
14.9339705041
 20
11.3707281205
 30
0.0
 10
14.942491085
 20
11.3635591839
 30
0.0
 10
14.9514004514
 20
11.3565470124
 30
0.0
 10
14.9606811194
 20
11.349705347
 30
0.0
 10
14.9703148844
 20
11.3430476133
 30
0.0
 10
14.9802828333
 20
11.3365868677
 30
0.0
 10
14.9905653893
 20
11.330335776
 30
0.0
 10
15.0011423659
 20
11.3243066088
 30
0.0
 10
15.0119930025
 20
11.3185112164
 30
0.0
 10
15.023095984
 20
11.3129609686
 30
0.0
 10
15.0344294998
 20
11.307666758
 30
0.0
 10
15.0459712923
 20
11.3026389877
 30
0.0
 10
15.0576986952
 20
11.2978875466
 30
0.0
 10
15.0695886645
 20
11.2934217543
 30
0.0
 10
15.0816178412
 20
11.28925038
 30
0.0
 10
15.0937625971
 20
11.2853816276
 30
0.0
 10
15.1059990748
 20
11.2818231052
 30
0.0
 10
15.1183032304
 20
11.2785817886
 30
0.0
 10
15.1306508921
 20
11.275664044
 30
0.0
 10
15.1430178068
 20
11.2730756164
 30
0.0
 10
15.1553796781
 20
11.2708215924
 30
0.0
 10
15.1677122256
 20
11.268906381
 30
0.0
 10
15.1799912347
 20
11.2673337506
 30
0.0
 10
15.1921925343
 20
11.2661068192
 30
0.0
 10
15.2042923463
 20
11.2652279356
 30
0.0
 10
15.2162665915
 20
11.2646989201
 30
0.0
 10
15.2242065416
 20
11.2645792661
 30
0.0
 10
15.2281496046
 20
11.2645792661
 30
0.0
  0
SPLINE
  5
2AD
100
AcDbEntity
  8
LAYER_CHAMFER_FEAT
100
AcDbSpline
 62
7
  6
CONTINUOUS
 70
0
 71
3
 72
61
 73
57
 74
0
 42
0.0000001
 43
0.0000001
 44
0.0000000001
 40
0.0
 40
0.0
 40
0.0
 40
0.0
 40
0.0106255473
 40
0.0212737366
 40
0.0319669787
 40
0.042727206
 40
0.0535756822
 40
0.0645327797
 40
0.0756178425
 40
0.0868490158
 40
0.098243163
 40
0.1098157626
 40
0.1215808682
 40
0.1335510732
 40
0.1457374987
 40
0.1581498183
 40
0.1707962559
 40
0.1836836617
 40
0.1968175041
 40
0.210201987
 40
0.223840026
 40
0.237733397
 40
0.2518826926
 40
0.2662874934
 40
0.2809463039
 40
0.2958567384
 40
0.3110154405
 40
0.3264182759
 40
0.3420602398
 40
0.3579356504
 40
0.374038051
 40
0.3903603972
 40
0.4068949602
 40
0.4236335017
 40
0.4576846856
 40
0.4924399069
 40
0.527816082
 40
0.5637243442
 40
0.6000710449
 40
0.636758706
 40
0.6736869376
 40
0.7107533278
 40
0.7478543153
 40
0.7848860532
 40
0.8033444352
 40
0.8217468815
 40
0.8400807107
 40
0.8583333924
 40
0.8764925456
 40
0.8945460656
 40
0.912482041
 40
0.9302886643
 40
0.9479544317
 40
0.9654689258
 40
0.9828216999
 40
1.0
 40
1.0
 40
1.0
 40
1.0
 10
14.9106723458
 20
11.5464787334
 30
0.0
 10
14.91021757
 20
11.5450070629
 30
0.0
 10
14.9093899996
 20
11.5420342151
 30
0.0
 10
14.9083999325
 20
11.5375047381
 30
0.0
 10
14.9076615861
 20
11.5329075886
 30
0.0
 10
14.9071757084
 20
11.5282478379
 30
0.0
 10
14.9069428074
 20
11.5235303665
 30
0.0
 10
14.9069630351
 20
11.5187601739
 30
0.0
 10
14.9072363457
 20
11.5139422827
 30
0.0
 10
14.9077623623
 20
11.509081753
 30
0.0
 10
14.9085404854
 20
11.5041836772
 30
0.0
 10
14.909569829
 20
11.4992531709
 30
0.0
 10
14.9108492548
 20
11.4942953712
 30
0.0
 10
14.9123773805
 20
11.4893154381
 30
0.0
 10
14.9141525428
 20
11.4843185362
 30
0.0
 10
14.9161728718
 20
11.479309859
 30
0.0
 10
14.9184361918
 20
11.4742945825
 30
0.0
 10
14.9209401507
 20
11.4692779213
 30
0.0
 10
14.9236820718
 20
11.4642650467
 30
0.0
 10
14.926659126
 20
11.4592611787
 30
0.0
 10
14.9298681475
 20
11.4542714659
 30
0.0
 10
14.9333058362
 20
11.4493011155
 30
0.0
 10
14.9369685501
 20
11.444355235
 30
0.0
 10
14.940852527
 20
11.4394389978
 30
0.0
 10
14.9449536637
 20
11.4345574508
 30
0.0
 10
14.9492677467
 20
11.4297157118
 30
0.0
 10
14.9537902287
 20
11.4249187474
 30
0.0
 10
14.958516459
 20
11.4201715967
 30
0.0
 10
14.9634414656
 20
11.4154791271
 30
0.0
 10
14.9685601764
 20
11.4108462757
 30
0.0
 10
14.9738672174
 20
11.4062777904
 30
0.0
 10
14.9793571077
 20
11.4017784893
 30
0.0
 10
14.9850241199
 20
11.3973529595
 30
0.0
 10
14.9928527515
 20
11.3915239017
 30
0.0
 10
15.0030476856
 20
11.3844557976
 30
0.0
 10
15.0158206506
 20
11.3763886878
 30
0.0
 10
15.0291490618
 20
11.3687215384
 30
0.0
 10
15.0429774221
 20
11.3614862708
 30
0.0
 10
15.057248376
 20
11.354712878
 30
0.0
 10
15.0719026537
 20
11.3484294903
 30
0.0
 10
15.0868793859
 20
11.3426622036
 30
0.0
 10
15.1021163989
 20
11.3374349633
 30
0.0
 10
15.1175502517
 20
11.3327695288
 30
0.0
 10
15.1305365647
 20
11.3293622518
 30
0.0
 10
15.1409701404
 20
11.3269342004
 30
0.0
 10
15.1487962738
 20
11.3252667107
 30
0.0
 10
15.156623146
 20
11.323752688
 30
0.0
 10
15.1644426323
 20
11.3223936579
 30
0.0
 10
15.1722465971
 20
11.3211910845
 30
0.0
 10
15.180026919
 20
11.3201461669
 30
0.0
 10
15.1877754975
 20
11.3192600567
 30
0.0
 10
15.1954842257
 20
11.3185336067
 30
0.0
 10
15.2031451387
 20
11.3179676273
 30
0.0
 10
15.210750388
 20
11.3175626635
 30
0.0
 10
15.2182917949
 20
11.3173192186
 30
0.0
 10
15.2232977635
 20
11.3172643991
 30
0.0
 10
15.2257880218
 20
11.3172643991
 30
0.0
  0
SPLINE
  5
2AE
100
AcDbEntity
  8
LAYER_CUT_FEAT
100
AcDbSpline
 62
7
  6
CONTINUOUS
 70
0
 71
3
 72
81
 73
77
 74
0
 42
0.0000001
 43
0.0000001
 44
0.0000000001
 40
0.0
 40
0.0
 40
0.0
 40
0.0
 40
0.0131061272
 40
0.026534231
 40
0.040289174
 40
0.0543741235
 40
0.0687894065
 40
0.0835333066
 40
0.0986020032
 40
0.1139897694
 40
0.1296891153
 40
0.145690919
 40
0.1619845571
 40
0.1785580224
 40
0.1953980362
 40
0.2124901612
 40
0.2298189036
 40
0.247367811
 40
0.2651195647
 40
0.2830560665
 40
0.3011585272
 40
0.3194075508
 40
0.3377832154
 40
0.3562651504
 40
0.3748326132
 40
0.3934645648
 40
0.4121397457
 40
0.4308367498
 40
0.4495340965
 40
0.4682103031
 40
0.4868439591
 40
0.5054137996
 40
0.5238987789
 40
0.542278144
 40
0.5605315099
 40
0.5786389375
 40
0.5965810139
 40
0.6143389312
 40
0.6318945695
 40
0.6492305816
 40
0.6663304831
 40
0.6831787489
 40
0.6997609089
 40
0.7160636489
 40
0.732074918
 40
0.7477840425
 40
0.7631818504
 40
0.7782607991
 40
0.7930151081
 40
0.8074408999
 40
0.8215363493
 40
0.8353018397
 40
0.8487401251
 40
0.8618564856
 40
0.8682968259
 40
0.874659902
 40
0.8809471561
 40
0.8871602131
 40
0.8993699801
 40
0.9113070846
 40
0.9171801445
 40
0.922992757
 40
0.928747899
 40
0.934448722
 40
0.9400985764
 40
0.945700984
 40
0.9512596398
 40
0.956778408
 40
0.9622612966
 40
0.9677124643
 40
0.9731361905
 40
0.9785368701
 40
0.9839189948
 40
0.9892871314
 40
0.9946459106
 40
1.0
 40
1.0
 40
1.0
 40
1.0
 10
14.6642615341
 20
11.443292132
 30
0.0
 10
14.666461827
 20
11.4388084064
 30
0.0
 10
14.6711439647
 20
11.4298407677
 30
0.0
 10
14.6788843881
 20
11.41657537
 30
0.0
 10
14.6874133393
 20
11.4033564654
 30
0.0
 10
14.6967158017
 20
11.3902069462
 30
0.0
 10
14.7067759993
 20
11.3771489364
 30
0.0
 10
14.7175766636
 20
11.3642046429
 30
0.0
 10
14.7290993555
 20
11.3513960294
 30
0.0
 10
14.7413243882
 20
11.3387448595
 30
0.0
 10
14.7542308935
 20
11.3262726425
 30
0.0
 10
14.7677968477
 20
11.3140005993
 30
0.0
 10
14.7819991059
 20
11.301949624
 30
0.0
 10
14.7968134374
 20
11.2901402467
 30
0.0
 10
14.8122145585
 20
11.2785925877
 30
0.0
 10
14.8281761846
 20
11.2673263321
 30
0.0
 10
14.8446710745
 20
11.2563606931
 30
0.0
 10
14.8616710759
 20
11.2457143779
 30
0.0
 10
14.8791471731
 20
11.2354055574
 30
0.0
 10
14.8970695292
 20
11.225451824
 30
0.0
 10
14.9154075419
 20
11.2158701654
 30
0.0
 10
14.9341298988
 20
11.2066769393
 30
0.0
 10
14.9532046308
 20
11.1978878433
 30
0.0
 10
14.9725991657
 20
11.1895178895
 30
0.0
 10
14.9922803825
 20
11.1815813747
 30
0.0
 10
15.0122146656
 20
11.1740918483
 30
0.0
 10
15.0323679681
 20
11.1670621001
 30
0.0
 10
15.0527058694
 20
11.1605041368
 30
0.0
 10
15.0731936336
 20
11.154429161
 30
0.0
 10
15.0937962694
 20
11.1488475541
 30
0.0
 10
15.1144785868
 20
11.1437688459
 30
0.0
 10
15.1352052613
 20
11.1392017069
 30
0.0
 10
15.1559408949
 20
11.1351539363
 30
0.0
 10
15.1766500756
 20
11.131632448
 30
0.0
 10
15.1972974385
 20
11.1286432609
 30
0.0
 10
15.2178477266
 20
11.1261914821
 30
0.0
 10
15.2382658512
 20
11.1242812939
 30
0.0
 10
15.2585169541
 20
11.1229159586
 30
0.0
 10
15.278566466
 20
11.1220978113
 30
0.0
 10
15.2983801651
 20
11.1218282571
 30
0.0
 10
15.3179242373
 20
11.1221077704
 30
0.0
 10
15.3371653352
 20
11.1229358812
 30
0.0
 10
15.3560706358
 20
11.124311189
 30
0.0
 10
15.3746078952
 20
11.1262313686
 30
0.0
 10
15.3927455022
 20
11.1286931743
 30
0.0
 10
15.4104525327
 20
11.1316924504
 30
0.0
 10
15.4276988041
 20
11.1352241311
 30
0.0
 10
15.4444549281
 20
11.139282251
 30
0.0
 10
15.460692353
 20
11.1438599681
 30
0.0
 10
15.4763834166
 20
11.1489495803
 30
0.0
 10
15.4915013589
 20
11.1545425264
 30
0.0
 10
15.5060204712
 20
11.1606294635
 30
0.0
 10
15.5199157531
 20
11.1672000519
 30
0.0
 10
15.5310227017
 20
11.1731051632
 30
0.0
 10
15.5395665663
 20
11.1780635624
 30
0.0
 10
15.5457652765
 20
11.18187341
 30
0.0
 10
15.5517908073
 20
11.1857951107
 30
0.0
 10
15.5595449129
 20
11.1911395075
 30
0.0
 10
15.5688027153
 20
11.1980888446
 30
0.0
 10
15.577552386
 20
11.2054697162
 30
0.0
 10
15.5841674966
 20
11.211577169
 30
0.0
 10
15.5889126476
 20
11.2162325061
 30
0.0
 10
15.5934660851
 20
11.2209850112
 30
0.0
 10
15.5978258439
 20
11.2258327483
 30
0.0
 10
15.6019900714
 20
11.2307736012
 30
0.0
 10
15.6059569626
 20
11.2358054767
 30
0.0
 10
15.6097247825
 20
11.2409262384
 30
0.0
 10
15.6132919515
 20
11.2461336611
 30
0.0
 10
15.6166568632
 20
11.2514255597
 30
0.0
 10
15.6198181177
 20
11.2567996278
 30
0.0
 10
15.6227743154
 20
11.2622535802
 30
0.0
 10
15.6255241694
 20
11.267785078
 30
0.0
 10
15.6280665295
 20
11.2733917164
 30
0.0
 10
15.6304002345
 20
11.2790711413
 30
0.0
 10
15.6325243134
 20
11.2848207775
 30
0.0
 10
15.633800237
 20
11.2886998525
 30
0.0
 10
15.6344026401
 20
11.2906492423
 30
0.0
  0
SPLINE
  5
2AF
100
AcDbEntity
  8
LAYER_CHAMFER_FEAT
100
AcDbSpline
 62
7
  6
CONTINUOUS
 70
0
 71
3
 72
39
 73
35
 74
0
 42
0.0000001
 43
0.0000001
 44
0.0000000001
 40
0.0
 40
0.0
 40
0.0
 40
0.0
 40
0.0248034973
 40
0.0496643313
 40
0.0746391973
 40
0.0997834813
 40
0.1251507488
 40
0.1507921135
 40
0.1767559268
 40
0.2030872574
 40
0.229827768
 40
0.2570153691
 40
0.2846842137
 40
0.3128645622
 40
0.3415828084
 40
0.3708615628
 40
0.4007196368
 40
0.4311723226
 40
0.4622313007
 40
0.4939050669
 40
0.5261987717
 40
0.55911472
 40
0.5926521866
 40
0.6268079095
 40
0.6615759567
 40
0.696948096
 40
0.732913745
 40
0.7694603489
 40
0.806573442
 40
0.8442362923
 40
0.8824303758
 40
0.9211371704
 40
0.9603365276
 40
1.0
 40
1.0
 40
1.0
 40
1.0
 10
15.3883827644
 20
11.3988550488
 30
0.0
 10
15.3879090465
 20
11.3973220813
 30
0.0
 10
15.3868700008
 20
11.3942797413
 30
0.0
 10
15.3850434442
 20
11.3898074722
 30
0.0
 10
15.3829500776
 20
11.385429106
 30
0.0
 10
15.3805925194
 20
11.381149824
 30
0.0
 10
15.3779734102
 20
11.3769745173
 30
0.0
 10
15.3750959073
 20
11.3729078932
 30
0.0
 10
15.371963279
 20
11.3689546143
 30
0.0
 10
15.3685792278
 20
11.3651190878
 30
0.0
 10
15.3649476126
 20
11.3614056703
 30
0.0
 10
15.361072647
 20
11.3578184885
 30
0.0
 10
15.3569587544
 20
11.35436157
 30
0.0
 10
15.3526106373
 20
11.3510387682
 30
0.0
 10
15.3480332564
 20
11.3478537691
 30
0.0
 10
15.3432317917
 20
11.3448101507
 30
0.0
 10
15.3382117129
 20
11.3419112511
 30
0.0
 10
15.3329786697
 20
11.33916036
 30
0.0
 10
15.3275386113
 20
11.3365604657
 30
0.0
 10
15.3218976477
 20
11.334114547
 30
0.0
 10
15.3160621768
 20
11.3318252457
 30
0.0
 10
15.3100387543
 20
11.3296952001
 30
0.0
 10
15.3038341968
 20
11.3277267108
 30
0.0
 10
15.2974554829
 20
11.3259220461
 30
0.0
 10
15.2909098177
 20
11.3242831697
 30
0.0
 10
15.2842045767
 20
11.3228119571
 30
0.0
 10
15.2773473256
 20
11.3215100293
 30
0.0
 10
15.270345787
 20
11.3203788534
 30
0.0
 10
15.263207863
 20
11.319419715
 30
0.0
 10
15.2559416428
 20
11.3186336584
 30
0.0
 10
15.2485552864
 20
11.3180215887
 30
0.0
 10
15.2410569866
 20
11.3175841653
 30
0.0
 10
15.2334554753
 20
11.3173219584
 30
0.0
 10
15.2283537796
 20
11.3172643991
 30
0.0
 10
15.2257880218
 20
11.3172643991
 30
0.0
  0
SPLINE
  5
2B0
100
AcDbEntity
  8
LAYER_CHAMFER_FEAT
100
AcDbSpline
 62
7
  6
CONTINUOUS
 70
0
 71
3
 72
69
 73
65
 74
0
 42
0.0000001
 43
0.0000001
 44
0.0000000001
 40
0.0
 40
0.0
 40
0.0
 40
0.0
 40
0.0357305064
 40
0.0531872556
 40
0.0703682158
 40
0.0872726548
 40
0.1039007112
 40
0.1202535033
 40
0.1363331343
 40
0.1521427539
 40
0.16768661
 40
0.1829700609
 40
0.1979996666
 40
0.2127831521
 40
0.227329526
 40
0.2416489988
 40
0.2557531094
 40
0.2696546048
 40
0.2833675509
 40
0.2969071816
 40
0.3102899693
 40
0.3235334513
 40
0.3366562414
 40
0.3496778396
 40
0.362618576
 40
0.3754994118
 40
0.3883418194
 40
0.4011675815
 40
0.4139986282
 40
0.4268568407
 40
0.4397638749
 40
0.452740977
 40
0.4658088256
 40
0.4789873631
 40
0.4922956854
 40
0.5057518874
 40
0.5193730199
 40
0.533174944
 40
0.5471723622
 40
0.5613786765
 40
0.5758060882
 40
0.5904654566
 40
0.6053664527
 40
0.6205174206
 40
0.6359255634
 40
0.667531672
 40
0.6837425354
 40
0.700227716
 40
0.7169888086
 40
0.7340264772
 40
0.7513404177
 40
0.7689294629
 40
0.7867915934
 40
0.8049239924
 40
0.8233230876
 40
0.8419845562
 40
0.8609034586
 40
0.8800742124
 40
0.8994905901
 40
0.9191455631
 40
0.9390318992
 40
0.9591424722
 40
0.9794689867
 40
1.0
 40
1.0
 40
1.0
 40
1.0
 10
15.3710012091
 20
11.4923580433
 30
0.0
 10
15.3739801079
 20
11.4890981322
 30
0.0
 10
15.3782952194
 20
11.4841340272
 30
0.0
 10
15.3837309279
 20
11.4773441381
 30
0.0
 10
15.387573497
 20
11.4722623083
 30
0.0
 10
15.3912099391
 20
11.4671562641
 30
0.0
 10
15.3946372538
 20
11.4620301606
 30
0.0
 10
15.3978525715
 20
11.4568882849
 30
0.0
 10
15.400853204
 20
11.4517349017
 30
0.0
 10
15.4036366266
 20
11.4465742881
 30
0.0
 10
15.4062005233
 20
11.441410741
 30
0.0
 10
15.4085427056
 20
11.436248533
 30
0.0
 10
15.4106612411
 20
11.4310919738
 30
0.0
 10
15.412554282
 20
11.4259453242
 30
0.0
 10
15.4142202853
 20
11.4208128905
 30
0.0
 10
15.4156577501
 20
11.4156989156
 30
0.0
 10
15.4168655265
 20
11.4106076866
 30
0.0
 10
15.4178424697
 20
11.4055434238
 30
0.0
 10
15.4185878238
 20
11.4005103802
 30
0.0
 10
15.419100814
 20
11.395512748
 30
0.0
 10
15.419381077
 20
11.3905547315
 30
0.0
 10
15.4194282258
 20
11.3856404871
 30
0.0
 10
15.4192422879
 20
11.3807741559
 30
0.0
 10
15.4188232825
 20
11.375959845
 30
0.0
 10
15.4181716263
 20
11.3712016177
 30
0.0
 10
15.4172877616
 20
11.3665035115
 30
0.0
 10
15.416172491
 20
11.3618694959
 30
0.0
 10
15.4148266901
 20
11.3573035122
 30
0.0
 10
15.4132515429
 20
11.3528094193
 30
0.0
 10
15.4114483591
 20
11.3483910331
 30
0.0
 10
15.409418696
 20
11.3440520856
 30
0.0
 10
15.4071642882
 20
11.3397962392
 30
0.0
 10
15.4046870557
 20
11.3356270856
 30
0.0
 10
15.4019891414
 20
11.331548111
 30
0.0
 10
15.3990728168
 20
11.3275627567
 30
0.0
 10
15.3959406115
 20
11.3236743173
 30
0.0
 10
15.3925951391
 20
11.3198860762
 30
0.0
 10
15.3890392934
 20
11.3162011285
 30
0.0
 10
15.3852760233
 20
11.3126225927
 30
0.0
 10
15.3813085658
 20
11.3091533613
 30
0.0
 10
15.377140201
 20
11.3057963804
 30
0.0
 10
15.3727744858
 20
11.302554338
 30
0.0
 10
15.3682150454
 20
11.2994300072
 30
0.0
 10
15.3634656699
 20
11.2964258344
 30
0.0
 10
15.3568295532
 20
11.2925514284
 30
0.0
 10
15.3498797708
 20
11.2889641902
 30
0.0
 10
15.3426511538
 20
11.2856598167
 30
0.0
 10
15.3370148107
 20
11.2832919859
 30
0.0
 10
15.3312147248
 20
11.28105774
 30
0.0
 10
15.3252555826
 20
11.2789589064
 30
0.0
 10
15.3191423963
 20
11.2769972052
 30
0.0
 10
15.3128802425
 20
11.2751742777
 30
0.0
 10
15.3064743439
 20
11.273491623
 30
0.0
 10
15.2999300354
 20
11.2719506361
 30
0.0
 10
15.2932527707
 20
11.2705526042
 30
0.0
 10
15.2864481161
 20
11.2692986645
 30
0.0
 10
15.2795217315
 20
11.2681898873
 30
0.0
 10
15.2724793866
 20
11.2672271571
 30
0.0
 10
15.2653269704
 20
11.2664113214
 30
0.0
 10
15.2580704682
 20
11.2657429924
 30
0.0
 10
15.2507158538
 20
11.2652227837
 30
0.0
 10
15.2432691487
 20
11.2648510832
 30
0.0
 10
15.2357368374
 20
11.2646282671
 30
0.0
 10
15.230687058
 20
11.2645792661
 30
0.0
 10
15.2281496046
 20
11.2645792661
 30
0.0
  0
SPLINE
  5
2B1
100
AcDbEntity
  8
LAYER_FEATURE
100
AcDbSpline
 62
7
  6
CONTINUOUS
 70
0
 71
3
 72
83
 73
79
 74
0
 42
0.0000001
 43
0.0000001
 44
0.0000000001
 40
0.0
 40
0.0
 40
0.0
 40
0.0
 40
0.0149065869
 40
0.0300588855
 40
0.0454568231
 40
0.0611006618
 40
0.0931029469
 40
0.1094571307
 40
0.1260325286
 40
0.1428183412
 40
0.1598021863
 40
0.1769702416
 40
0.194307372
 40
0.2117972679
 40
0.2294226005
 40
0.2471651486
 40
0.2650059213
 40
0.2829253056
 40
0.300903197
 40
0.3189191204
 40
0.3369523639
 40
0.3549821139
 40
0.3729875744
 40
0.3909480981
 40
0.4088433227
 40
0.4266532925
 40
0.4443585852
 40
0.4619404588
 40
0.4793809762
 40
0.4966631299
 40
0.5137709915
 40
0.5306898565
 40
0.5474063651
 40
0.5639086433
 40
0.5801864707
 40
0.5962314045
 40
0.6120369081
 40
0.627598508
 40
0.6429139368
 40
0.6579832335
 40
0.6728088575
 40
0.6873958148
 40
0.7017517153
 40
0.7088468391
 40
0.7158882751
 40
0.7298154716
 40
0.7435503316
 40
0.7571109569
 40
0.7705178554
 40
0.777171563
 40
0.783795534
 40
0.7903929184
 40
0.7969669558
 40
0.8035209878
 40
0.8100584322
 40
0.8165827681
 40
0.823097535
 40
0.8296063054
 40
0.8361126783
 40
0.8426202628
 40
0.8491326608
 40
0.8556534591
 40
0.8621862047
 40
0.8687344007
 40
0.8753014895
 40
0.8818908305
 40
0.8885057071
 40
0.9018229109
 40
0.9152789734
 40
0.9220668589
 40
0.9288975248
 40
0.9357733641
 40
0.942696633
 40
0.9566920152
 40
0.9708996878
 40
0.9780879843
 40
0.9853340515
 40
1.0
 40
1.0
 40
1.0
 40
1.0
 10
14.7653385986
 20
12.4687956921
 30
0.0
 10
14.7660540921
 20
12.4711110301
 30
0.0
 10
14.7676211733
 20
12.4757423845
 30
0.0
 10
14.770344414
 20
12.4826153628
 30
0.0
 10
14.7734531568
 20
12.4894549456
 30
0.0
 10
14.7781363444
 20
12.4985748964
 30
0.0
 10
14.7835333031
 20
12.5074899825
 30
0.0
 10
14.789575905
 20
12.5161480992
 30
0.0
 10
14.7944802066
 20
12.5225755657
 30
0.0
 10
14.799711338
 20
12.5288731471
 30
0.0
 10
14.8052568862
 20
12.5350260284
 30
0.0
 10
14.811103467
 20
12.5410193483
 30
0.0
 10
14.8172370322
 20
12.5468387308
 30
0.0
 10
14.8236428052
 20
12.5524702104
 30
0.0
 10
14.8303053804
 20
12.557900261
 30
0.0
 10
14.8372087474
 20
12.5631158173
 30
0.0
 10
14.844336293
 20
12.5681043578
 30
0.0
 10
14.8516708683
 20
12.5728539041
 30
0.0
 10
14.8591948416
 20
12.5773530294
 30
0.0
 10
14.8668901249
 20
12.5815909053
 30
0.0
 10
14.8747382005
 20
12.5855573632
 30
0.0
 10
14.882720196
 20
12.5892428669
 30
0.0
 10
14.8908169266
 20
12.5926385319
 30
0.0
 10
14.8990089188
 20
12.5957361983
 30
0.0
 10
14.9072764702
 20
12.5985284285
 30
0.0
 10
14.9155997066
 20
12.6010084943
 30
0.0
 10
14.9239586218
 20
12.6031704064
 30
0.0
 10
14.9323331149
 20
12.6050089805
 30
0.0
 10
14.9407030557
 20
12.6065197889
 30
0.0
 10
14.9490483292
 20
12.6076991633
 30
0.0
 10
14.9573488768
 20
12.6085442531
 30
0.0
 10
14.9655847492
 20
12.6090530247
 30
0.0
 10
14.973736156
 20
12.6092242223
 30
0.0
 10
14.9817835083
 20
12.6090573787
 30
0.0
 10
14.9897074683
 20
12.6085528805
 30
0.0
 10
14.997488996
 20
12.6077119032
 30
0.0
 10
15.0051093862
 20
12.6065363947
 30
0.0
 10
15.0125503162
 20
12.605029116
 30
0.0
 10
15.0197938998
 20
12.6031936422
 30
0.0
 10
15.0268226977
 20
12.6010343081
 30
0.0
 10
15.0336198112
 20
12.5985561713
 30
0.0
 10
15.0401687263
 20
12.595765187
 30
0.0
 10
15.0454269517
 20
12.5931739238
 30
0.0
 10
15.0494910469
 20
12.5909504012
 30
0.0
 10
15.0534292228
 20
12.5886459325
 30
0.0
 10
15.0581723272
 20
12.5855844279
 30
0.0
 10
15.0635771379
 20
12.5816152401
 30
0.0
 10
15.068661293
 20
12.5773735194
 30
0.0
 10
15.0726308423
 20
12.5736101884
 30
0.0
 10
15.0756304817
 20
12.5704753837
 30
0.0
 10
15.0777872477
 20
12.5680686719
 30
0.0
 10
15.0798552108
 20
12.5656021517
 30
0.0
 10
15.0818331087
 20
12.5630772464
 30
0.0
 10
15.0837197473
 20
12.5604954981
 30
0.0
 10
15.0855140184
 20
12.557858483
 30
0.0
 10
15.087214782
 20
12.5551677574
 30
0.0
 10
15.0888210464
 20
12.5524249716
 30
0.0
 10
15.0903318496
 20
12.5496317849
 30
0.0
 10
15.0917462264
 20
12.5467898585
 30
0.0
 10
15.0930633781
 20
12.5439009387
 30
0.0
 10
15.0942824909
 20
12.5409667602
 30
0.0
 10
15.0954027962
 20
12.537989085
 30
0.0
 10
15.0964236778
 20
12.5349697355
 30
0.0
 10
15.0973444777
 20
12.5319105171
 30
0.0
 10
15.0981646375
 20
12.5288132906
 30
0.0
 10
15.0988837165
 20
12.5256798996
 30
0.0
 10
15.0997088352
 20
12.52144732
 30
0.0
 10
15.1004843279
 20
12.5160709393
 30
0.0
 10
15.1009145851
 20
12.5106279746
 30
0.0
 10
15.1010548012
 20
12.5062280882
 30
0.0
 10
15.1010574226
 20
12.5028957579
 30
0.0
 10
15.1009572336
 20
12.4995429322
 30
0.0
 10
15.1006856644
 20
12.4950319574
 30
0.0
 10
15.1000865517
 20
12.4893494036
 30
0.0
 10
15.0991523629
 20
12.4836688503
 30
0.0
 10
15.0982045508
 20
12.479109442
 30
0.0
 10
15.0971138589
 20
12.4745055824
 30
0.0
 10
15.0961508021
 20
12.4710736534
 30
0.0
 10
15.0954468588
 20
12.4687956921
 30
0.0
  0
SPLINE
  5
2B2
100
AcDbEntity
  8
LAYER_FEATURE
100
AcDbSpline
 62
7
  6
CONTINUOUS
 70
0
 71
3
 72
31
 73
27
 74
0
 42
0.0000001
 43
0.0000001
 44
0.0000000001
 40
0.0
 40
0.0
 40
0.0
 40
0.0
 40
0.0708620499
 40
0.1405931594
 40
0.2091449997
 40
0.2764855923
 40
0.3096982675
 40
0.342602284
 40
0.3751977596
 40
0.407485728
 40
0.47114155
 40
0.5336071248
 40
0.5644120006
 40
0.5949388646
 40
0.6251965502
 40
0.6551950427
 40
0.7144506058
 40
0.7728161082
 40
0.8017064432
 40
0.8304199795
 40
0.8589738261
 40
0.8873859485
 40
0.9156750231
 40
0.9438603874
 40
0.9719619334
 40
1.0
 40
1.0
 40
1.0
 40
1.0
 10
14.9982814608
 20
12.6164127933
 30
0.0
 10
15.0021847149
 20
12.6164127933
 30
0.0
 10
15.0099303718
 20
12.6162259064
 30
0.0
 10
15.0214236192
 20
12.615370623
 30
0.0
 10
15.032665013
 20
12.6139452251
 30
0.0
 10
15.0418345505
 20
12.61227834
 30
0.0
 10
15.0490064588
 20
12.6106611696
 30
0.0
 10
15.0542752609
 20
12.6093149479
 30
0.0
 10
15.0594540236
 20
12.6078310331
 30
0.0
 10
15.0662007631
 20
12.6056807898
 30
0.0
 10
15.0743926445
 20
12.6026594228
 30
0.0
 10
15.0823059976
 20
12.599165981
 30
0.0
 10
15.088403412
 20
12.596110607
 30
0.0
 10
15.0928376621
 20
12.593702549
 30
0.0
 10
15.0971502953
 20
12.5911694335
 30
0.0
 10
15.10271026
 20
12.5876428705
 30
0.0
 10
15.1093472953
 20
12.5829329954
 30
0.0
 10
15.1155826331
 20
12.5777975502
 30
0.0
 10
15.1202811551
 20
12.5734680215
 30
0.0
 10
15.1236493555
 20
12.5701230756
 30
0.0
 10
15.1268705833
 20
12.5666723651
 30
0.0
 10
15.1299422708
 20
12.5631186959
 30
0.0
 10
15.132861866
 20
12.5594649873
 30
0.0
 10
15.1356269689
 20
12.5557141986
 30
0.0
 10
15.1382352904
 20
12.5518695128
 30
0.0
 10
15.1398697484
 20
12.5492433405
 30
0.0
 10
15.1406597191
 20
12.5479162637
 30
0.0
  0
SPLINE
  5
2B3
100
AcDbEntity
  8
LAYER_FEATURE
100
AcDbSpline
 62
7
  6
CONTINUOUS
 70
0
 71
3
 72
37
 73
33
 74
0
 42
0.0000001
 43
0.0000001
 44
0.0000000001
 40
0.0
 40
0.0
 40
0.0
 40
0.0
 40
0.0272319265
 40
0.0549120568
 40
0.0830414165
 40
0.1116199227
 40
0.1700823008
 40
0.1999584512
 40
0.2302387029
 40
0.2609033526
 40
0.2919297842
 40
0.3232927289
 40
0.3549645338
 40
0.3869154197
 40
0.4191137287
 40
0.4515261643
 40
0.4841180388
 40
0.5168535243
 40
0.5496958896
 40
0.5826077334
 40
0.61555122
 40
0.648488321
 40
0.68138105
 40
0.7141916927
 40
0.7468830416
 40
0.7794186382
 40
0.8117630233
 40
0.8438819353
 40
0.875742604
 40
0.9073140675
 40
0.938566727
 40
1.0
 40
1.0
 40
1.0
 40
1.0
 10
14.7377409417
 20
12.4409475655
 30
0.0
 10
14.7386353178
 20
12.4438417678
 30
0.0
 10
14.7405941525
 20
12.449630954
 30
0.0
 10
14.7439982223
 20
12.4582221693
 30
0.0
 10
14.7478841399
 20
12.4667716218
 30
0.0
 10
14.7537381198
 20
12.4781715765
 30
0.0
 10
14.7604843167
 20
12.4893154376
 30
0.0
 10
14.7680375847
 20
12.5001380679
 30
0.0
 10
14.77416795
 20
12.5081724081
 30
0.0
 10
14.7807068545
 20
12.5160443926
 30
0.0
 10
14.7876388008
 20
12.5237354858
 30
0.0
 10
14.7949470336
 20
12.5312271296
 30
0.0
 10
14.802613981
 20
12.5385013665
 30
0.0
 10
14.8106211943
 20
12.5455407192
 30
0.0
 10
14.8189494197
 20
12.5523282751
 30
0.0
 10
14.827578628
 20
12.5588477214
 30
0.0
 10
14.8364880573
 20
12.5650834012
 30
0.0
 10
14.8456562791
 20
12.5710203298
 30
0.0
 10
14.8550612461
 20
12.5766442357
 30
0.0
 10
14.8646803458
 20
12.5819415891
 30
0.0
 10
14.8744904425
 20
12.5868996577
 30
0.0
 10
14.8844679419
 20
12.5915065262
 30
0.0
 10
14.8945888517
 20
12.5957511156
 30
0.0
 10
14.904828838
 20
12.5996232108
 30
0.0
 10
14.9151632805
 20
12.6031134875
 30
0.0
 10
14.9255673308
 20
12.6062135582
 30
0.0
 10
14.9360159658
 20
12.6089159604
 30
0.0
 10
14.9464841007
 20
12.6112141879
 30
0.0
 10
14.9569464594
 20
12.6131026863
 30
0.0
 10
14.9673783093
 20
12.6145769025
 30
0.0
 10
14.9811316143
 20
12.6159772358
 30
0.0
 10
14.9914477049
 20
12.6164127933
 30
0.0
 10
14.9982814608
 20
12.6164127933
 30
0.0
  0
SPLINE
  5
2B4
100
AcDbEntity
  8
LAYER_FEATURE
100
AcDbSpline
 62
7
  6
CONTINUOUS
 70
0
 71
3
 72
83
 73
79
 74
0
 42
0.0000001
 43
0.0000001
 44
0.0000000001
 40
0.0
 40
0.0
 40
0.0
 40
0.0
 40
0.0146659485
 40
0.0219120157
 40
0.0291003122
 40
0.0433079848
 40
0.057303367
 40
0.0642266359
 40
0.0711024752
 40
0.0779331411
 40
0.0847210266
 40
0.0981770891
 40
0.1114942929
 40
0.1181091695
 40
0.1246985105
 40
0.1312655993
 40
0.1378137953
 40
0.1443465409
 40
0.1508673392
 40
0.1573797372
 40
0.1638873217
 40
0.1703936946
 40
0.176902465
 40
0.1834172319
 40
0.1899415678
 40
0.1964790122
 40
0.2030330442
 40
0.2096070816
 40
0.216204466
 40
0.222828437
 40
0.2294821446
 40
0.2428890431
 40
0.2564496684
 40
0.2701845284
 40
0.2841117249
 40
0.2911531609
 40
0.2982482847
 40
0.3126041852
 40
0.3271911425
 40
0.3420167665
 40
0.3570860632
 40
0.372401492
 40
0.3879630919
 40
0.4037685955
 40
0.4198135293
 40
0.4360913567
 40
0.4525936349
 40
0.4693101435
 40
0.4862290085
 40
0.5033368701
 40
0.5206190238
 40
0.5380595412
 40
0.5556414148
 40
0.5733467075
 40
0.5911566773
 40
0.6090519019
 40
0.6270124256
 40
0.6450178861
 40
0.6630476361
 40
0.6810808796
 40
0.699096803
 40
0.7170746944
 40
0.7349940787
 40
0.7528348514
 40
0.7705773995
 40
0.7882027321
 40
0.805692628
 40
0.8230297584
 40
0.8401978137
 40
0.8571816588
 40
0.8739674714
 40
0.8905428693
 40
0.9068970531
 40
0.9388993382
 40
0.9545431769
 40
0.9699411145
 40
0.9850934131
 40
1.0
 40
1.0
 40
1.0
 40
1.0
 10
14.7653385986
 20
12.4687956921
 30
0.0
 10
14.7646346553
 20
12.4665177308
 30
0.0
 10
14.7636715985
 20
12.4630858018
 30
0.0
 10
14.7625809066
 20
12.4584819422
 30
0.0
 10
14.7616330945
 20
12.4539225339
 30
0.0
 10
14.7606989057
 20
12.4482419806
 30
0.0
 10
14.760099793
 20
12.4425594268
 30
0.0
 10
14.7598282238
 20
12.438048452
 30
0.0
 10
14.7597280348
 20
12.4346956263
 30
0.0
 10
14.7597306562
 20
12.431363296
 30
0.0
 10
14.7598708723
 20
12.4269634096
 30
0.0
 10
14.7603011295
 20
12.4215204449
 30
0.0
 10
14.7610766222
 20
12.4161440642
 30
0.0
 10
14.7619017409
 20
12.4119114846
 30
0.0
 10
14.7626208199
 20
12.4087780936
 30
0.0
 10
14.7634409797
 20
12.4056808671
 30
0.0
 10
14.7643617796
 20
12.4026216487
 30
0.0
 10
14.7653826612
 20
12.3996022992
 30
0.0
 10
14.7665029665
 20
12.396624624
 30
0.0
 10
14.7677220793
 20
12.3936904455
 30
0.0
 10
14.769039231
 20
12.3908015257
 30
0.0
 10
14.7704536078
 20
12.3879595993
 30
0.0
 10
14.771964411
 20
12.3851664126
 30
0.0
 10
14.7735706754
 20
12.3824236268
 30
0.0
 10
14.775271439
 20
12.3797329011
 30
0.0
 10
14.7770657101
 20
12.3770958861
 30
0.0
 10
14.7789523487
 20
12.3745141378
 30
0.0
 10
14.7809302466
 20
12.3719892325
 30
0.0
 10
14.7829982097
 20
12.3695227123
 30
0.0
 10
14.7851549757
 20
12.3671160005
 30
0.0
 10
14.7881546151
 20
12.3639811958
 30
0.0
 10
14.7921241644
 20
12.3602178648
 30
0.0
 10
14.7972083195
 20
12.3559761441
 30
0.0
 10
14.8026131302
 20
12.3520069563
 30
0.0
 10
14.8073562346
 20
12.3489454517
 30
0.0
 10
14.8112944105
 20
12.346640983
 30
0.0
 10
14.8153585057
 20
12.3444174604
 30
0.0
 10
14.8206167311
 20
12.3418261972
 30
0.0
 10
14.8271656462
 20
12.3390352129
 30
0.0
 10
14.8339627597
 20
12.3365570761
 30
0.0
 10
14.8409915576
 20
12.334397742
 30
0.0
 10
14.8482351412
 20
12.3325622682
 30
0.0
 10
14.8556760712
 20
12.3310549895
 30
0.0
 10
14.8632964614
 20
12.329879481
 30
0.0
 10
14.8710779891
 20
12.3290385037
 30
0.0
 10
14.8790019491
 20
12.3285340055
 30
0.0
 10
14.8870493014
 20
12.3283671619
 30
0.0
 10
14.8952007082
 20
12.3285383595
 30
0.0
 10
14.9034365806
 20
12.3290471311
 30
0.0
 10
14.9117371282
 20
12.3298922209
 30
0.0
 10
14.9200824017
 20
12.3310715953
 30
0.0
 10
14.9284523425
 20
12.3325824037
 30
0.0
 10
14.9368268356
 20
12.3344209778
 30
0.0
 10
14.9451857508
 20
12.3365828899
 30
0.0
 10
14.9535089872
 20
12.3390629557
 30
0.0
 10
14.9617765386
 20
12.3418551859
 30
0.0
 10
14.9699685308
 20
12.3449528523
 30
0.0
 10
14.9780652614
 20
12.3483485173
 30
0.0
 10
14.9860472569
 20
12.352034021
 30
0.0
 10
14.9938953325
 20
12.3560004789
 30
0.0
 10
15.0015906158
 20
12.3602383548
 30
0.0
 10
15.0091145891
 20
12.3647374801
 30
0.0
 10
15.0164491643
 20
12.3694870264
 30
0.0
 10
15.02357671
 20
12.3744755669
 30
0.0
 10
15.030480077
 20
12.3796911232
 30
0.0
 10
15.0371426522
 20
12.3851211738
 30
0.0
 10
15.0435484252
 20
12.3907526534
 30
0.0
 10
15.0496819904
 20
12.3965720359
 30
0.0
 10
15.0555285712
 20
12.4025653558
 30
0.0
 10
15.0610741194
 20
12.4087182371
 30
0.0
 10
15.0663052508
 20
12.4150158185
 30
0.0
 10
15.0712095524
 20
12.421443285
 30
0.0
 10
15.0772521543
 20
12.4301014017
 30
0.0
 10
15.082649113
 20
12.4390164878
 30
0.0
 10
15.0873323006
 20
12.4481364386
 30
0.0
 10
15.0904410434
 20
12.4549760214
 30
0.0
 10
15.0931642841
 20
12.4618489997
 30
0.0
 10
15.0947313653
 20
12.4664803541
 30
0.0
 10
15.0954468588
 20
12.4687956921
 30
0.0
  0
SPLINE
  5
2B5
100
AcDbEntity
  8
02___PRT_ALL_AXES
100
AcDbSpline
 62
7
  6
CONTINUOUS
 70
0
 71
3
 72
50
 73
46
 74
0
 42
0.0000001
 43
0.0000001
 44
0.0000000001
 40
0.0
 40
0.0
 40
0.0
 40
0.0
 40
0.0396643491
 40
0.0788605748
 40
0.1175661676
 40
0.1557597766
 40
0.1934216656
 40
0.2305336646
 40
0.2670793376
 40
0.3030440903
 40
0.3384153013
 40
0.3731824549
 40
0.4073372807
 40
0.4408738996
 40
0.4737889745
 40
0.5060818658
 40
0.5377547913
 40
0.5688129871
 40
0.5992648682
 40
0.6291221853
 40
0.6584001727
 40
0.6728285111
 40
0.6871194029
 40
0.7152990206
 40
0.7429671476
 40
0.75661971
 40
0.7701560778
 40
0.7835806399
 40
0.7968980195
 40
0.8101130801
 40
0.8232309102
 40
0.8362568291
 40
0.8491963693
 40
0.8620552772
 40
0.8748394976
 40
0.8875551659
 40
0.9002085959
 40
0.9128062641
 40
0.9253547993
 40
0.9378609614
 40
0.9503316299
 40
0.9627737815
 40
0.9751944744
 40
0.9876008274
 40
1.0
 40
1.0
 40
1.0
 40
1.0
 10
14.8171056893
 20
12.1021986984
 30
0.0
 10
14.8062263543
 20
12.1021986984
 30
0.0
 10
14.7845952209
 20
12.1019547544
 30
0.0
 10
14.7523649323
 20
12.1008428241
 30
0.0
 10
14.7205726331
 20
12.0989882334
 30
0.0
 10
14.6892543922
 20
12.0963930516
 30
0.0
 10
14.6584455071
 20
12.0930601968
 30
0.0
 10
14.6281807442
 20
12.0889934052
 30
0.0
 10
14.5984942416
 20
12.0841972399
 30
0.0
 10
14.5694194838
 20
12.0786770783
 30
0.0
 10
14.5409892614
 20
12.0724391073
 30
0.0
 10
14.5132356355
 20
12.065490314
 30
0.0
 10
14.4861899023
 20
12.0578384764
 30
0.0
 10
14.4598825593
 20
12.0494921542
 30
0.0
 10
14.4343432723
 20
12.0404606758
 30
0.0
 10
14.409600847
 20
12.0307541282
 30
0.0
 10
14.3856831912
 20
12.020383339
 30
0.0
 10
14.3626173183
 20
12.0093598837
 30
0.0
 10
14.340429207
 20
11.9976959969
 30
0.0
 10
14.319144195
 20
11.9854048353
 30
0.0
 10
14.3020967717
 20
11.9745985086
 30
0.0
 10
14.2889426866
 20
11.9656507465
 30
0.0
 10
14.2762329369
 20
11.9565921198
 30
0.0
 10
14.2609417946
 20
11.9449067497
 30
0.0
 10
14.2463416203
 20
11.9326381064
 30
0.0
 10
14.2351788039
 20
11.9225472443
 30
0.0
 10
14.2270991357
 20
11.914876699
 30
0.0
 10
14.2192775701
 20
11.9070728001
 30
0.0
 10
14.2117162865
 20
11.899137692
 30
0.0
 10
14.2044174303
 20
11.8910736396
 30
0.0
 10
14.1973830888
 20
11.882882898
 30
0.0
 10
14.1906152446
 20
11.8745677963
 30
0.0
 10
14.1841158383
 20
11.8661306682
 30
0.0
 10
14.1778867067
 20
11.8575739082
 30
0.0
 10
14.1719296304
 20
11.8488999288
 30
0.0
 10
14.1662463047
 20
11.8401111848
 30
0.0
 10
14.1608383436
 20
11.8312101665
 30
0.0
 10
14.1557072999
 20
11.8221993872
 30
0.0
 10
14.1508546192
 20
11.8130814094
 30
0.0
 10
14.1462817061
 20
11.8038588067
 30
0.0
 10
14.1419898408
 20
11.794534204
 30
0.0
 10
14.1379802714
 20
11.7851102441
 30
0.0
 10
14.1342541114
 20
11.775589581
 30
0.0
 10
14.1308124719
 20
11.7659750218
 30
0.0
 10
14.1287080821
 20
11.7595036429
 30
0.0
 10
14.1277039745
 20
11.7562543453
 30
0.0
  0
SPLINE
  5
2B6
100
AcDbEntity
  8
LAYER_FEATURE
100
AcDbSpline
 62
7
  6
CONTINUOUS
 70
0
 71
3
 72
81
 73
77
 74
0
 42
0.0000001
 43
0.0000001
 44
0.0000000001
 40
0.0
 40
0.0
 40
0.0
 40
0.0
 40
0.0171785434
 40
0.0345301985
 40
0.0520439474
 40
0.0697095103
 40
0.0875156976
 40
0.1054511359
 40
0.1235041688
 40
0.141662861
 40
0.1599150584
 40
0.1782484011
 40
0.196650358
 40
0.2151082545
 40
0.2336092981
 40
0.2521406055
 40
0.2706892317
 40
0.2892421958
 40
0.3077865074
 40
0.326309194
 40
0.3447973288
 40
0.363238056
 40
0.381618618
 40
0.3999263848
 40
0.4181488805
 40
0.4362738102
 40
0.4542890881
 40
0.4721828697
 40
0.4899435793
 40
0.5075599384
 40
0.5250209963
 40
0.5423161669
 40
0.5594352577
 40
0.5763685016
 40
0.5931065918
 40
0.6096407245
 40
0.6259626312
 40
0.6420646158
 40
0.6579395964
 40
0.6735811546
 40
0.6889835743
 40
0.7041418857
 40
0.7190519159
 40
0.7337103461
 40
0.7481147587
 40
0.7622636891
 40
0.7761566844
 40
0.789794368
 40
0.8031784921
 40
0.8163119933
 40
0.829199053
 40
0.8418451585
 40
0.8480802639
 40
0.8542578095
 40
0.8603788712
 40
0.8664446141
 40
0.8784145007
 40
0.8901792945
 40
0.8959890641
 40
0.901752405
 40
0.9131462508
 40
0.9243771277
 40
0.9299371303
 40
0.9354628234
 40
0.9409565184
 40
0.9464205949
 40
0.9518575068
 40
0.957269773
 40
0.9626599696
 40
0.9680307322
 40
0.9733847421
 40
0.9787247239
 40
0.9840534402
 40
0.9893736803
 40
0.9946882577
 40
1.0
 40
1.0
 40
1.0
 40
1.0
 10
15.4516776382
 20
14.1588917292
 30
0.0
 10
15.4622566851
 20
14.1588917292
 30
0.0
 10
15.4835220648
 20
14.1586589419
 30
0.0
 10
15.5155578079
 20
14.1576246546
 30
0.0
 10
15.5478644907
 20
14.155904424
 30
0.0
 10
15.580408059
 20
14.1535001372
 30
0.0
 10
15.6131548878
 20
14.1504142302
 30
0.0
 10
15.6460708168
 20
14.1466499453
 30
0.0
 10
15.679121601
 20
14.1422112072
 30
0.0
 10
15.7122728436
 20
14.1371026278
 30
0.0
 10
15.7454900338
 20
14.1313295151
 30
0.0
 10
15.7787385986
 20
14.1248978903
 30
0.0
 10
15.8119839291
 20
14.1178144524
 30
0.0
 10
15.8451914183
 20
14.110086571
 30
0.0
 10
15.8783264955
 20
14.1017222784
 30
0.0
 10
15.9113546704
 20
14.0927302937
 30
0.0
 10
15.9442415619
 20
14.0831199814
 30
0.0
 10
15.9769529344
 20
14.0729013417
 30
0.0
 10
16.0094547313
 20
14.0620850006
 30
0.0
 10
16.0417131221
 20
14.0506822296
 30
0.0
 10
16.073694528
 20
14.0387049025
 30
0.0
 10
16.1053656558
 20
14.0261654837
 30
0.0
 10
16.1366935319
 20
14.013077015
 30
0.0
 10
16.1676455507
 20
13.999453132
 30
0.0
 10
16.1981894959
 20
13.9853080193
 30
0.0
 10
16.2282935725
 20
13.9706563966
 30
0.0
 10
16.2579264402
 20
13.9555135026
 30
0.0
 10
16.2870572621
 20
13.9398951085
 30
0.0
 10
16.3156557222
 20
13.9238174715
 30
0.0
 10
16.3436920541
 20
13.907297319
 30
0.0
 10
16.371137073
 20
13.8903518299
 30
0.0
 10
16.3979622251
 20
13.8729986455
 30
0.0
 10
16.4241395995
 20
13.8552558214
 30
0.0
 10
16.4496419543
 20
13.8371418101
 30
0.0
 10
16.4744427454
 20
13.81867544
 30
0.0
 10
16.4985161766
 20
13.7998759237
 30
0.0
 10
16.5218372059
 20
13.7807628089
 30
0.0
 10
16.5443815667
 20
13.7613559597
 30
0.0
 10
16.5661257939
 20
13.7416755337
 30
0.0
 10
16.5870472747
 20
13.7217419875
 30
0.0
 10
16.6071242467
 20
13.7015760274
 30
0.0
 10
16.6263358152
 20
13.68119859
 30
0.0
 10
16.6446619749
 20
13.6606308175
 30
0.0
 10
16.662083661
 20
13.6398940614
 30
0.0
 10
16.678582738
 20
13.6190098334
 30
0.0
 10
16.6941420131
 20
13.5979997858
 30
0.0
 10
16.7087452506
 20
13.5768856891
 30
0.0
 10
16.7223772276
 20
13.5556894248
 30
0.0
 10
16.7350236997
 20
13.5344329708
 30
0.0
 10
16.7466714557
 20
13.513138269
 30
0.0
 10
16.7573081566
 20
13.4918276217
 30
0.0
 10
16.7653578612
 20
13.47399037
 30
0.0
 10
16.7712736065
 20
13.4597363895
 30
0.0
 10
16.7754304418
 20
13.4491057586
 30
0.0
 10
16.7793268961
 20
13.4384879457
 30
0.0
 10
16.7841520136
 20
13.4244148031
 30
0.0
 10
16.7895375388
 20
13.4068641903
 30
0.0
 10
16.7940855602
 20
13.3892403616
 30
0.0
 10
16.7971851516
 20
13.3752051923
 30
0.0
 10
16.7999065915
 20
13.3613245912
 30
0.0
 10
16.802650686
 20
13.3440516545
 30
0.0
 10
16.8045189727
 20
13.3267875528
 30
0.0
 10
16.8054710961
 20
13.3130760883
 30
0.0
 10
16.8059145304
 20
13.3028744504
 30
0.0
 10
16.8060895562
 20
13.2927237995
 30
0.0
 10
16.8059960707
 20
13.2826267118
 30
0.0
 10
16.8056341134
 20
13.2725858459
 30
0.0
 10
16.8050037978
 20
13.2626038182
 30
0.0
 10
16.8041052182
 20
13.2526832439
 30
0.0
 10
16.8029386668
 20
13.2428267122
 30
0.0
 10
16.8015044179
 20
13.2330368028
 30
0.0
 10
16.7998028154
 20
13.2233160807
 30
0.0
 10
16.7978343632
 20
13.2136670857
 30
0.0
 10
16.7955995044
 20
13.2040923281
 30
0.0
 10
16.7930988783
 20
13.1945944078
 30
0.0
 10
16.7912548284
 20
13.1883145358
 30
0.0
 10
16.7902890372
 20
13.1851892344
 30
0.0
  0
SPLINE
  5
2B7
100
AcDbEntity
  8
LAYER_FEATURE
100
AcDbSpline
 62
7
  6
CONTINUOUS
 70
0
 71
3
 72
70
 73
66
 74
0
 42
0.0000001
 43
0.0000001
 44
0.0000000001
 40
0.0
 40
0.0
 40
0.0
 40
0.0
 40
0.0208281453
 40
0.0414803734
 40
0.0619485981
 40
0.0822269189
 40
0.1023097372
 40
0.12219131
 40
0.1418662564
 40
0.161329639
 40
0.1805768597
 40
0.1996036572
 40
0.2184061925
 40
0.2369810167
 40
0.2553251414
 40
0.273435998
 40
0.2913115263
 40
0.3089501322
 40
0.3263507675
 40
0.3435129065
 40
0.3604366029
 40
0.3771224962
 40
0.393571837
 40
0.409786526
 40
0.4257691085
 40
0.4415228397
 40
0.4570516548
 40
0.4723602493
 40
0.4874540355
 40
0.5023392204
 40
0.5170227638
 40
0.5315124337
 40
0.5458167773
 40
0.5599451421
 40
0.5739076608
 40
0.5877152342
 40
0.6013795236
 40
0.614912899
 40
0.6283284287
 40
0.6416398001
 40
0.6548612935
 40
0.6680076886
 40
0.6810942118
 40
0.6941364384
 40
0.7071502135
 40
0.7201515543
 40
0.7331565532
 40
0.7461812814
 40
0.7592416893
 40
0.77235351
 40
0.7855321732
 40
0.798792708
 40
0.8121496818
 40
0.8256171055
 40
0.8392084005
 40
0.8529363137
 40
0.8668129062
 40
0.8808494896
 40
0.8950566226
 40
0.9094440803
 40
0.9240208456
 40
0.9387951163
 40
0.9537742835
 40
0.9689649754
 40
1.0
 40
1.0
 40
1.0
 40
1.0
 10
15.4929625241
 20
13.9675270552
 30
0.0
 10
15.486499906
 20
13.9675270552
 30
0.0
 10
15.473628985
 20
13.9674207394
 30
0.0
 10
15.4544125724
 20
13.9669379418
 30
0.0
 10
15.435377644
 20
13.9661326437
 30
0.0
 10
15.4165360442
 20
13.9650054029
 30
0.0
 10
15.397898957
 20
13.9635568773
 30
0.0
 10
15.3794775861
 20
13.9617879503
 30
0.0
 10
15.3612830953
 20
13.959699669
 30
0.0
 10
15.3433264709
 20
13.9572932926
 30
0.0
 10
15.3256185345
 20
13.9545702909
 30
0.0
 10
15.3081699752
 20
13.9515322611
 30
0.0
 10
15.2909913181
 20
13.9481810839
 30
0.0
 10
15.2740929364
 20
13.9445187101
 30
0.0
 10
15.2574850137
 20
13.9405474143
 30
0.0
 10
15.2411775837
 20
13.936269507
 30
0.0
 10
15.2251804703
 20
13.9316876332
 30
0.0
 10
15.2095033396
 20
13.9268044777
 30
0.0
 10
15.1941556364
 20
13.9216230295
 30
0.0
 10
15.1791466319
 20
13.9161463573
 30
0.0
 10
15.1644853756
 20
13.9103777724
 30
0.0
 10
15.1501807165
 20
13.9043207299
 30
0.0
 10
15.1362412937
 20
13.8979788491
 30
0.0
 10
15.1226755093
 20
13.8913559645
 30
0.0
 10
15.1094915766
 20
13.8844559967
 30
0.0
 10
15.0966974301
 20
13.8772831442
 30
0.0
 10
15.0843008392
 20
13.8698416307
 30
0.0
 10
15.0723092572
 20
13.862135994
 30
0.0
 10
15.0607299862
 20
13.8541707708
 30
0.0
 10
15.0495699923
 20
13.845950808
 30
0.0
 10
15.0388360829
 20
13.8374809674
 30
0.0
 10
15.0285347357
 20
13.8287663772
 30
0.0
 10
15.0186722349
 20
13.8198122308
 30
0.0
 10
15.0092545685
 20
13.8106239193
 30
0.0
 10
15.0002874714
 20
13.8012069652
 30
0.0
 10
14.9917764364
 20
13.7915670137
 30
0.0
 10
14.9837266279
 20
13.7817099047
 30
0.0
 10
14.9761430299
 20
13.7716415373
 30
0.0
 10
14.9690302227
 20
13.7613680484
 30
0.0
 10
14.9623926564
 20
13.7508955961
 30
0.0
 10
14.9562343233
 20
13.7402305869
 30
0.0
 10
14.950559102
 20
13.7293794429
 30
0.0
 10
14.9453704021
 20
13.7183488095
 30
0.0
 10
14.9406714882
 20
13.7071453694
 30
0.0
 10
14.9364651937
 20
13.69577598
 30
0.0
 10
14.9327541332
 20
13.684247567
 30
0.0
 10
14.9295405655
 20
13.6725671774
 30
0.0
 10
14.9268264328
 20
13.6607419505
 30
0.0
 10
14.924613416
 20
13.6487791043
 30
0.0
 10
14.9229027794
 20
13.6366859554
 30
0.0
 10
14.9216956157
 20
13.6244698758
 30
0.0
 10
14.9209925247
 20
13.6121383231
 30
0.0
 10
14.9207939933
 20
13.5996988055
 30
0.0
 10
14.9210999864
 20
13.5871588916
 30
0.0
 10
14.9219103633
 20
13.5745262054
 30
0.0
 10
14.9232244891
 20
13.5618084061
 30
0.0
 10
14.9250415789
 20
13.5490132095
 30
0.0
 10
14.9273604268
 20
13.536148354
 30
0.0
 10
14.9301795985
 20
13.5232216215
 30
0.0
 10
14.9334973316
 20
13.5102408256
 30
0.0
 10
14.9373115555
 20
13.4972137763
 30
0.0
 10
14.9416199303
 20
13.4841484103
 30
0.0
 10
14.9464198621
 20
13.4710523322
 30
0.0
 10
14.9535211848
 20
13.4534367535
 30
0.0
 10
14.9595054109
 20
13.4403890027
 30
0.0
 10
14.9637705544
 20
13.431755435
 30
0.0
  0
SPLINE
  5
2B8
100
AcDbEntity
  8
LAYER_FEATURE
100
AcDbSpline
 62
7
  6
CONTINUOUS
 70
0
 71
3
 72
99
 73
95
 74
0
 42
0.0000001
 43
0.0000001
 44
0.0000000001
 40
0.0
 40
0.0
 40
0.0
 40
0.0
 40
0.0181152117
 40
0.0364507502
 40
0.0549896804
 40
0.0737149754
 40
0.0926086003
 40
0.1116521041
 40
0.1308264911
 40
0.1501123535
 40
0.1694899223
 40
0.1889391373
 40
0.2084397132
 40
0.2279712039
 40
0.247513067
 40
0.2670447279
 40
0.2865456435
 40
0.3059953665
 40
0.3253736096
 40
0.3446603111
 40
0.3638356999
 40
0.3828803625
 40
0.4017753104
 40
0.4205020494
 40
0.4390426505
 40
0.4573798236
 40
0.4754969935
 40
0.4933783779
 40
0.5110090694
 40
0.52837512
 40
0.5454636309
 40
0.5539003304
 40
0.5622633401
 40
0.57055138
 40
0.5787632677
 40
0.5868978926
 40
0.5949542508
 40
0.6029314203
 40
0.6108285852
 40
0.6263795183
 40
0.6416031984
 40
0.6564970134
 40
0.6638203095
 40
0.671061068
 40
0.6782195343
 40
0.6852961013
 40
0.6922912927
 40
0.6992057972
 40
0.7060404397
 40
0.7127962159
 40
0.7194742728
 40
0.7260759254
 40
0.7326026595
 40
0.7390561234
 40
0.7517495959
 40
0.7641741497
 40
0.770292229
 40
0.7763506649
 40
0.7823523448
 40
0.7883003368
 40
0.7941978675
 40
0.8000483379
 40
0.8058552972
 40
0.81162245
 40
0.8173536381
 40
0.8230528325
 40
0.828724125
 40
0.8343717074
 40
0.8399998667
 40
0.8456129609
 40
0.8512154097
 40
0.856811673
 40
0.8624062362
 40
0.8680035906
 40
0.8736082175
 40
0.8792245678
 40
0.8848570487
 40
0.8905100018
 40
0.896187692
 40
0.9018942896
 40
0.9076338556
 40
0.9134103341
 40
0.9192275306
 40
0.9250891165
 40
0.9309986028
 40
0.9369593497
 40
0.9429745467
 40
0.9490472155
 40
0.9551802064
 40
0.9613761865
 40
0.9676376562
 40
0.973966924
 40
0.9868361432
 40
1.0
 40
1.0
 40
1.0
 40
1.0
 10
15.4929625241
 20
13.9675270552
 30
0.0
 10
15.5034801687
 20
13.9675270552
 30
0.0
 10
15.5246443794
 20
13.9672426634
 30
0.0
 10
15.5565497106
 20
13.9659826981
 30
0.0
 10
15.5887662574
 20
13.9638885647
 30
0.0
 10
15.6212432041
 20
13.9609636174
 30
0.0
 10
15.6539299351
 20
13.9572123836
 30
0.0
 10
15.6867752476
 20
13.952640762
 30
0.0
 10
15.7197277775
 20
13.9472558931
 30
0.0
 10
15.7527359606
 20
13.9410662053
 30
0.0
 10
15.7857481506
 20
13.934081382
 30
0.0
 10
15.8187126913
 20
13.9263123556
 30
0.0
 10
15.8515779997
 20
13.9177712841
 30
0.0
 10
15.8842926473
 20
13.9084715333
 30
0.0
 10
15.9168054403
 20
13.898427656
 30
0.0
 10
15.9490655007
 20
13.8876553688
 30
0.0
 10
15.9810223455
 20
13.8761715279
 30
0.0
 10
16.0126259662
 20
13.8639941015
 30
0.0
 10
16.0438269095
 20
13.851142146
 30
0.0
 10
16.0745763541
 20
13.8376357732
 30
0.0
 10
16.1048261874
 20
13.8234961168
 30
0.0
 10
16.1345290802
 20
13.8087452993
 30
0.0
 10
16.1636385616
 20
13.7934063969
 30
0.0
 10
16.1921090912
 20
13.7775034025
 30
0.0
 10
16.2198961311
 20
13.7610611877
 30
0.0
 10
16.2469562145
 20
13.7441054638
 30
0.0
 10
16.2732470223
 20
13.7266627402
 30
0.0
 10
16.2987274274
 20
13.7087602921
 30
0.0
 10
16.3233576273
 20
13.6904260643
 30
0.0
 10
16.3470989546
 20
13.6716888181
 30
0.0
 10
16.3661922328
 20
13.6556955859
 30
0.0
 10
16.3809852714
 20
13.6427220403
 30
0.0
 10
16.3917882746
 20
13.6329507741
 30
0.0
 10
16.4023420317
 20
13.6231011663
 30
0.0
 10
16.4126424778
 20
13.6131770929
 30
0.0
 10
16.4226855334
 20
13.6031823891
 30
0.0
 10
16.4324672943
 20
13.5931210202
 30
0.0
 10
16.441983951
 20
13.5829968442
 30
0.0
 10
16.454250762
 20
13.5694895497
 30
0.0
 10
16.468909459
 20
13.552475363
 30
0.0
 10
16.4854748101
 20
13.5317644379
 30
0.0
 10
16.4983992399
 20
13.5142782634
 30
0.0
 10
16.5081475134
 20
13.5002239828
 30
0.0
 10
16.5151232051
 20
13.4897155709
 30
0.0
 10
16.5218013498
 20
13.4791848573
 30
0.0
 10
16.5281794021
 20
13.4686359394
 30
0.0
 10
16.5342547923
 20
13.4580729126
 30
0.0
 10
16.5400252045
 20
13.4474999446
 30
0.0
 10
16.5454883104
 20
13.4369211289
 30
0.0
 10
16.5506420099
 20
13.4263406299
 30
0.0
 10
16.5554842557
 20
13.4157625607
 30
0.0
 10
16.5600131274
 20
13.4051910822
 30
0.0
 10
16.5642269085
 20
13.394630239
 30
0.0
 10
16.5693939993
 20
13.380646953
 30
0.0
 10
16.5750720622
 20
13.3632085079
 30
0.0
 10
16.5797349637
 20
13.3456719769
 30
0.0
 10
16.5828069165
 20
13.3317211707
 30
0.0
 10
16.5847750781
 20
13.3213504821
 30
0.0
 10
16.5864182182
 20
13.3110233666
 30
0.0
 10
16.5877357754
 20
13.3007438015
 30
0.0
 10
16.5887271152
 20
13.2905158279
 30
0.0
 10
16.5893919205
 20
13.2803434666
 30
0.0
 10
16.5897298385
 20
13.2702307071
 30
0.0
 10
16.5897407607
 20
13.2601815287
 30
0.0
 10
16.5894246594
 20
13.2501998819
 30
0.0
 10
16.5887816099
 20
13.2402896985
 30
0.0
 10
16.5878119163
 20
13.2304548767
 30
0.0
 10
16.5865158576
 20
13.2206993011
 30
0.0
 10
16.5848940306
 20
13.2110268062
 30
0.0
 10
16.5829469766
 20
13.2014412204
 30
0.0
 10
16.5806755221
 20
13.1919463144
 30
0.0
 10
16.5780805265
 20
13.1825458399
 30
0.0
 10
16.5751630053
 20
13.1732435104
 30
0.0
 10
16.5719241523
 20
13.1640429804
 30
0.0
 10
16.5683651764
 20
13.1549479056
 30
0.0
 10
16.5644875745
 20
13.1459618361
 30
0.0
 10
16.5602927934
 20
13.1370883515
 30
0.0
 10
16.5557825719
 20
13.1283309105
 30
0.0
 10
16.5509586484
 20
13.1196929829
 30
0.0
 10
16.5458229529
 20
13.111177957
 30
0.0
 10
16.5403775363
 20
13.102789165
 30
0.0
 10
16.5346245108
 20
13.0945299313
 30
0.0
 10
16.528566219
 20
13.0864034454
 30
0.0
 10
16.522204983
 20
13.0784129489
 30
0.0
 10
16.5155433874
 20
13.0705615114
 30
0.0
 10
16.5085840085
 20
13.0628522506
 30
0.0
 10
16.5013296235
 20
13.0552881513
 30
0.0
 10
16.493783088
 20
13.0478721714
 30
0.0
 10
16.4859473512
 20
13.0406072259
 30
0.0
 10
16.4778255509
 20
13.0334961136
 30
0.0
 10
16.4694207744
 20
13.0265416276
 30
0.0
 10
16.4577778265
 20
13.017431454
 30
0.0
 10
16.4425182808
 20
13.0064527771
 30
0.0
 10
16.4298082591
 20
12.9982596866
 30
0.0
 10
16.4232863976
 20
12.9942748081
 30
0.0
  0
SPLINE
  5
2B9
100
AcDbEntity
  8
LAYER_CUT_FEAT
100
AcDbSpline
 62
7
  6
CONTINUOUS
 70
0
 71
3
 72
15
 73
11
 74
0
 42
0.0000001
 43
0.0000001
 44
0.0000000001
 40
0.0
 40
0.0
 40
0.0
 40
0.0
 40
0.1271018713
 40
0.2534667995
 40
0.3791608707
 40
0.5042519656
 40
0.6288095901
 40
0.7529049561
 40
0.8766105565
 40
1.0
 40
1.0
 40
1.0
 40
1.0
 10
15.6178741915
 20
11.2701921189
 30
0.0
 10
15.6189214936
 20
11.2716250667
 30
0.0
 10
15.6209699635
 20
11.2745121963
 30
0.0
 10
15.6239095812
 20
11.2789166922
 30
0.0
 10
15.6267059166
 20
11.2833804833
 30
0.0
 10
15.6293580959
 20
11.2879021689
 30
0.0
 10
15.6318652736
 20
11.2924804104
 30
0.0
 10
15.6342267224
 20
11.2971138112
 30
0.0
 10
15.6364417067
 20
11.3018009065
 30
0.0
 10
15.6378217868
 20
11.3049640497
 30
0.0
 10
15.6384868817
 20
11.3065535447
 30
0.0
  0
SPLINE
  5
2BA
100
AcDbEntity
  8
LAYER_CHAMFER_FEAT
100
AcDbSpline
 62
7
  6
CONTINUOUS
 70
0
 71
3
 72
18
 73
14
 74
0
 42
0.0000001
 43
0.0000001
 44
0.0000000001
 40
0.0
 40
0.0
 40
0.0
 40
0.0
 40
0.0660963367
 40
0.1317679029
 40
0.2617717057
 40
0.3899172853
 40
0.5161187636
 40
0.6402950168
 40
0.7623738431
 40
0.8226081563
 40
0.8822948902
 40
0.941427463
 40
1.0
 40
1.0
 40
1.0
 40
1.0
 10
15.0093063501
 20
12.7241602646
 30
0.0
 10
15.0031669324
 20
12.7241602646
 30
0.0
 10
14.9909273787
 20
12.7240823357
 30
0.0
 10
14.9666164913
 20
12.7236130891
 30
0.0
 10
14.9365569781
 20
12.722443483
 30
0.0
 10
14.9009292139
 20
12.7200945649
 30
0.0
 10
14.8659189
 20
12.7168083974
 30
0.0
 10
14.8315763546
 20
12.7125896298
 30
0.0
 10
14.8034306688
 20
12.7082828455
 30
0.0
 10
14.7812946503
 20
12.7043703201
 30
0.0
 10
14.7649634351
 20
12.7012200395
 30
0.0
 10
14.7488355437
 20
12.6978420008
 30
0.0
 10
14.7381717747
 20
12.6954273805
 30
0.0
 10
14.7328757001
 20
12.6941818615
 30
0.0
  0
SPLINE
  5
2BB
100
AcDbEntity
  8
LAYER_FEATURE
100
AcDbSpline
 62
7
  6
CONTINUOUS
 70
0
 71
3
 72
21
 73
17
 74
0
 42
0.0000001
 43
0.0000001
 44
0.0000000001
 40
0.0
 40
0.0
 40
0.0
 40
0.0
 40
0.0594384751
 40
0.1190525011
 40
0.1788999511
 40
0.2390370621
 40
0.2995179086
 40
0.3603942229
 40
0.4217149406
 40
0.4835260172
 40
0.5458700988
 40
0.6087865856
 40
0.6723114202
 40
0.7364761319
 40
0.8668113893
 40
1.0
 40
1.0
 40
1.0
 40
1.0
 10
14.7388071104
 20
12.3517933263
 30
0.0
 10
14.7381609829
 20
12.3534731863
 30
0.0
 10
14.7369441176
 20
12.3568681807
 30
0.0
 10
14.7353511621
 20
12.3620477567
 30
0.0
 10
14.7339899358
 20
12.3673149526
 30
0.0
 10
14.7328620777
 20
12.3726637718
 30
0.0
 10
14.7319687401
 20
12.3780882723
 30
0.0
 10
14.7313109579
 20
12.3835824079
 30
0.0
 10
14.7308894002
 20
12.3891400571
 30
0.0
 10
14.7307045341
 20
12.394755032
 30
0.0
 10
14.7307565338
 20
12.4004210925
 30
0.0
 10
14.7310453018
 20
12.4061319285
 30
0.0
 10
14.7315705469
 20
12.4118812653
 30
0.0
 10
14.73259045
 20
12.4196293513
 30
0.0
 10
14.7344629258
 20
12.4293840772
 30
0.0
 10
14.7365501976
 20
12.4370943162
 30
0.0
 10
14.7377409417
 20
12.4409475655
 30
0.0
  0
SPLINE
  5
2BC
100
AcDbEntity
  8
LAYER_CHAMFER_FEAT
100
AcDbSpline
 62
7
  6
CONTINUOUS
 70
0
 71
3
 72
47
 73
43
 74
0
 42
0.0000001
 43
0.0000001
 44
0.0000000001
 40
0.0
 40
0.0
 40
0.0
 40
0.0
 40
0.0152209945
 40
0.0305408431
 40
0.0614592801
 40
0.0927265846
 40
0.1243125525
 40
0.1561855477
 40
0.1883130559
 40
0.2206616425
 40
0.2531971407
 40
0.2858847548
 40
0.318689188
 40
0.3515747604
 40
0.3845055278
 40
0.4174453996
 40
0.4503582555
 40
0.4832080627
 40
0.5159589933
 40
0.5485755424
 40
0.581022647
 40
0.6132658067
 40
0.6452712062
 40
0.6770058404
 40
0.708437642
 40
0.7395356137
 40
0.7702699632
 40
0.7854921818
 40
0.8006129491
 40
0.8156289402
 40
0.8305369427
 40
0.8453338383
 40
0.8600166386
 40
0.8745824532
 40
0.8890285364
 40
0.9033522499
 40
0.9175511096
 40
0.9316227542
 40
0.9455649821
 40
0.9593757344
 40
0.9730531153
 40
1.0
 40
1.0
 40
1.0
 40
1.0
 10
15.0093063501
 20
12.7241602646
 30
0.0
 10
15.0159011288
 20
12.7241602646
 30
0.0
 10
15.0291337079
 20
12.7240697669
 30
0.0
 10
15.0557572248
 20
12.7235295486
 30
0.0
 10
15.0893149829
 20
12.7221774118
 30
0.0
 10
15.1298586182
 20
12.7194891073
 30
0.0
 10
15.1707328119
 20
12.7157345116
 30
0.0
 10
15.2118708248
 20
12.7109197375
 30
0.0
 10
15.2532056576
 20
12.7050526456
 30
0.0
 10
15.2946699516
 20
12.6981427911
 30
0.0
 10
15.336196138
 20
12.6902014387
 30
0.0
 10
15.3777165427
 20
12.6812415292
 30
0.0
 10
15.4191634982
 20
12.6712776654
 30
0.0
 10
15.4604694544
 20
12.6603260859
 30
0.0
 10
15.5015670892
 20
12.6484046397
 30
0.0
 10
15.5423894197
 20
12.6355327567
 30
0.0
 10
15.5828699108
 20
12.6217314158
 30
0.0
 10
15.6229425856
 20
12.6070231111
 30
0.0
 10
15.6625421332
 20
12.5914318151
 30
0.0
 10
15.7016040151
 20
12.5749829385
 30
0.0
 10
15.7400645721
 20
12.5577032878
 30
0.0
 10
15.7778611265
 20
12.5396210228
 30
0.0
 10
15.8149320903
 20
12.5207656058
 30
0.0
 10
15.8512170455
 20
12.5011677654
 30
0.0
 10
15.8866569197
 20
12.4808594
 30
0.0
 10
15.9211937988
 20
12.4598736923
 30
0.0
 10
15.9492639789
 20
12.441792439
 30
0.0
 10
15.9712170097
 20
12.4270145937
 30
0.0
 10
15.987369438
 20
12.4158186211
 30
0.0
 10
16.0032548225
 20
12.4044796687
 30
0.0
 10
16.0188667457
 20
12.393002374
 30
0.0
 10
16.0341987996
 20
12.3813913724
 30
0.0
 10
16.0492447733
 20
12.3696514522
 30
0.0
 10
16.0639984897
 20
12.3577873393
 30
0.0
 10
16.0784539754
 20
12.3458039294
 30
0.0
 10
16.0926052962
 20
12.3337060504
 30
0.0
 10
16.1064467165
 20
12.3214986839
 30
0.0
 10
16.1199725699
 20
12.3091867582
 30
0.0
 10
16.1331773361
 20
12.2967753453
 30
0.0
 10
16.1460557182
 20
12.2842693895
 30
0.0
 10
16.1627009955
 20
12.2675595574
 30
0.0
 10
16.1748069729
 20
12.2547763324
 30
0.0
 10
16.1826827822
 20
12.246157584
 30
0.0
  0
SPLINE
  5
2BD
100
AcDbEntity
  8
LAYER_FEATURE
100
AcDbSpline
 62
7
  6
CONTINUOUS
 70
0
 71
3
 72
50
 73
46
 74
0
 42
0.0000001
 43
0.0000001
 44
0.0000000001
 40
0.0
 40
0.0
 40
0.0
 40
0.0
 40
0.0396640277
 40
0.0788607383
 40
0.1175661132
 40
0.1557597858
 40
0.1934216688
 40
0.2305336611
 40
0.2670793354
 40
0.3030440885
 40
0.3384153023
 40
0.3731824544
 40
0.4073372776
 40
0.440873897
 40
0.4737889751
 40
0.5060818681
 40
0.5377547909
 40
0.5688129847
 40
0.5992648671
 40
0.6291221867
 40
0.6584001731
 40
0.6728285114
 40
0.6871194008
 40
0.7152990183
 40
0.7429671477
 40
0.7566197079
 40
0.7701560796
 40
0.7835806381
 40
0.7968980195
 40
0.8101130803
 40
0.8232309089
 40
0.8362568299
 40
0.8491963686
 40
0.8620552766
 40
0.8748394982
 40
0.8875551649
 40
0.9002085962
 40
0.912806264
 40
0.9253547987
 40
0.9378609619
 40
0.9503316293
 40
0.9627737816
 40
0.9751944743
 40
0.9876008273
 40
1.0
 40
1.0
 40
1.0
 40
1.0
 10
15.4516776382
 20
14.1588917292
 30
0.0
 10
15.4407778645
 20
14.1588917292
 30
0.0
 10
15.4191058732
 20
14.1586473088
 30
0.0
 10
15.3868147867
 20
14.1575333098
 30
0.0
 10
15.354962413
 20
14.1556751901
 30
0.0
 10
15.3235851237
 20
14.1530751341
 30
0.0
 10
15.292718095
 20
14.1497359864
 30
0.0
 10
15.2623962329
 20
14.1456615164
 30
0.0
 10
15.2326537197
 20
14.1408563004
 30
0.0
 10
15.2035241025
 20
14.1353257254
 30
0.0
 10
15.1750402367
 20
14.1290759898
 30
0.0
 10
15.1472342468
 20
14.1221140818
 30
0.0
 10
15.1201374863
 20
14.1144478027
 30
0.0
 10
15.0937805065
 20
14.1060857335
 30
0.0
 10
15.0681930288
 20
14.09703722
 30
0.0
 10
15.0434039181
 20
14.0873123609
 30
0.0
 10
15.019441138
 20
14.0769219985
 30
0.0
 10
14.996331747
 20
14.0658777418
 30
0.0
 10
14.9741017702
 20
14.0541918493
 30
0.0
 10
14.9527765933
 20
14.0418775031
 30
0.0
 10
14.9356970082
 20
14.0310507816
 30
0.0
 10
14.9225181031
 20
14.0220861402
 30
0.0
 10
14.9097843792
 20
14.0130104141
 30
0.0
 10
14.8944643863
 20
14.0013029965
 30
0.0
 10
14.8798366536
 20
13.989011217
 30
0.0
 10
14.8686527874
 20
13.9789013008
 30
0.0
 10
14.8605578593
 20
13.9712162996
 30
0.0
 10
14.8527215511
 20
13.9633976604
 30
0.0
 10
14.8451459929
 20
13.9554475892
 30
0.0
 10
14.8378333643
 20
13.9473683219
 30
0.0
 10
14.8307857587
 20
13.9391621191
 30
0.0
 10
14.8240051339
 20
13.9308313379
 30
0.0
 10
14.8174934721
 20
13.9223782845
 30
0.0
 10
14.811252589
 20
13.9138053789
 30
0.0
 10
14.8052842618
 20
13.9051150411
 30
0.0
 10
14.7995902284
 20
13.8963097043
 30
0.0
 10
14.794172051
 20
13.8873918998
 30
0.0
 10
14.7890313295
 20
13.8783641167
 30
0.0
 10
14.7841695029
 20
13.8692289301
 30
0.0
 10
14.7795879399
 20
13.859988937
 30
0.0
 10
14.7752880019
 20
13.8506467289
 30
0.0
 10
14.7712708483
 20
13.8412049966
 30
0.0
 10
14.7675376645
 20
13.8316663669
 30
0.0
 10
14.7640895386
 20
13.8220336649
 30
0.0
 10
14.7619811674
 20
13.8155500794
 30
0.0
 10
14.760975164
 20
13.8122946514
 30
0.0
  0
SPLINE
  5
2BE
100
AcDbEntity
  8
LAYER_FEATURE
100
AcDbSpline
 62
7
  6
CONTINUOUS
 70
0
 71
3
 72
39
 73
35
 74
0
 42
0.0000001
 43
0.0000001
 44
0.0000000001
 40
0.0
 40
0.0
 40
0.0
 40
0.0
 40
0.0213548806
 40
0.0430995958
 40
0.0653510288
 40
0.0882197536
 40
0.1117973971
 40
0.136157729
 40
0.161357901
 40
0.1874385757
 40
0.2144250683
 40
0.2423281721
 40
0.2711459246
 40
0.3008645489
 40
0.3314595032
 40
0.3628970561
 40
0.3951347899
 40
0.4281228449
 40
0.4618048758
 40
0.4961184852
 40
0.530996418
 40
0.5663670181
 40
0.6021548933
 40
0.6382817659
 40
0.6746668256
 40
0.7112275525
 40
0.747880204
 40
0.7845402912
 40
0.8211235173
 40
0.857546158
 40
0.8937244722
 40
0.9295778422
 40
0.9650316398
 40
1.0
 40
1.0
 40
1.0
 40
1.0
 10
16.4984397359
 20
13.249927267
 30
0.0
 10
16.498495823
 20
13.2503784919
 30
0.0
 10
16.4985630113
 20
13.2512955062
 30
0.0
 10
16.4985292119
 20
13.252688582
 30
0.0
 10
16.4983617794
 20
13.2541044356
 30
0.0
 10
16.4980615319
 20
13.2555378748
 30
0.0
 10
16.4976297533
 20
13.2569840957
 30
0.0
 10
16.4970680225
 20
13.2584381479
 30
0.0
 10
16.4963784326
 20
13.2598951295
 30
0.0
 10
16.4955634517
 20
13.2613501522
 30
0.0
 10
16.4946258924
 20
13.2627982994
 30
0.0
 10
16.4935690374
 20
13.2642347205
 30
0.0
 10
16.4923965047
 20
13.265654562
 30
0.0
 10
16.4911123013
 20
13.2670530148
 30
0.0
 10
16.4897208428
 20
13.2684253688
 30
0.0
 10
16.4882268566
 20
13.2697669407
 30
0.0
 10
16.4866354553
 20
13.2710731827
 30
0.0
 10
16.4849520795
 20
13.2723396589
 30
0.0
 10
16.4831824584
 20
13.2735620253
 30
0.0
 10
16.4813326561
 20
13.2747361408
 30
0.0
 10
16.4794089854
 20
13.275857985
 30
0.0
 10
16.4774180154
 20
13.2769237144
 30
0.0
 10
16.4753665663
 20
13.2779297141
 30
0.0
 10
16.4732616397
 20
13.2788725167
 30
0.0
 10
16.4711104402
 20
13.2797489106
 30
0.0
 10
16.4689203296
 20
13.2805559094
 30
0.0
 10
16.4666987902
 20
13.2812907222
 30
0.0
 10
16.4644534317
 20
13.2819508674
 30
0.0
 10
16.4621919256
 20
13.2825340749
 30
0.0
 10
16.4599220161
 20
13.2830383271
 30
0.0
 10
16.4576514857
 20
13.2834619445
 30
0.0
 10
16.4553880012
 20
13.2838034568
 30
0.0
 10
16.453139454
 20
13.2840616509
 30
0.0
 10
16.4516441578
 20
13.2841785914
 30
0.0
 10
16.4509009004
 20
13.2842226383
 30
0.0
  0
SPLINE
  5
2BF
100
AcDbEntity
  8
LAYER_FEATURE
100
AcDbSpline
 62
7
  6
CONTINUOUS
 70
0
 71
3
 72
15
 73
11
 74
0
 42
0.0000001
 43
0.0000001
 44
0.0000000001
 40
0.0
 40
0.0
 40
0.0
 40
0.0
 40
0.1264580075
 40
0.2532290537
 40
0.3799445553
 40
0.5062363117
 40
0.6317400578
 40
0.7560976514
 40
0.8789628472
 40
1.0
 40
1.0
 40
1.0
 40
1.0
 10
16.3822731668
 20
13.2994483794
 30
0.0
 10
16.3850469647
 20
13.2983737304
 30
0.0
 10
16.3906429976
 20
13.2963273994
 30
0.0
 10
16.3991485689
 20
13.2935759892
 30
0.0
 10
16.4077480009
 20
13.2911475536
 30
0.0
 10
16.4164040254
 20
13.2890526332
 30
0.0
 10
16.4250793036
 20
13.2873002629
 30
0.0
 10
16.4337364624
 20
13.2858979891
 30
0.0
 10
16.4423379303
 20
13.2848518978
 30
0.0
 10
16.4480587052
 20
13.2843910725
 30
0.0
 10
16.4509009004
 20
13.2842226383
 30
0.0
  0
SPLINE
  5
2C0
100
AcDbEntity
  8
LAYER_FEATURE
100
AcDbSpline
 62
7
  6
CONTINUOUS
 70
0
 71
3
 72
39
 73
35
 74
0
 42
0.0000001
 43
0.0000001
 44
0.0000000001
 40
0.0
 40
0.0
 40
0.0
 40
0.0
 40
0.0267672155
 40
0.0543864069
 40
0.0828295609
 40
0.1120702691
 40
0.1420710434
 40
0.1727862769
 40
0.2041646646
 40
0.2361492474
 40
0.2686781276
 40
0.3016850577
 40
0.3351003693
 40
0.3688513457
 40
0.4028628495
 40
0.4370580091
 40
0.4713585975
 40
0.5056857318
 40
0.5399603081
 40
0.5741035991
 40
0.608037792
 40
0.6416864565
 40
0.6749752811
 40
0.7078324139
 40
0.7401892321
 40
0.7719809751
 40
0.8031471421
 40
0.833632523
 40
0.8633877895
 40
0.8923703095
 40
0.9205443296
 40
0.9478833662
 40
0.9743732268
 40
1.0
 40
1.0
 40
1.0
 40
1.0
 10
16.4100993546
 20
13.5173610822
 30
0.0
 10
16.4097319375
 20
13.5178464796
 30
0.0
 10
16.4089567428
 20
13.5188113135
 30
0.0
 10
16.4076997325
 20
13.5202154707
 30
0.0
 10
16.4063342401
 20
13.5215947261
 30
0.0
 10
16.4048650715
 20
13.5229442907
 30
0.0
 10
16.4032972069
 20
13.5242596744
 30
0.0
 10
16.4016359719
 20
13.5255363514
 30
0.0
 10
16.3998870621
 20
13.5267699849
 30
0.0
 10
16.3980564549
 20
13.527956382
 30
0.0
 10
16.3961503856
 20
13.529091463
 30
0.0
 10
16.3941753867
 20
13.5301713799
 30
0.0
 10
16.3921382027
 20
13.5311924307
 30
0.0
 10
16.390045794
 20
13.5321511131
 30
0.0
 10
16.3879053284
 20
13.5330441766
 30
0.0
 10
16.3857241158
 20
13.5338685385
 30
0.0
 10
16.3835096221
 20
13.5346213912
 30
0.0
 10
16.3812694264
 20
13.535300171
 30
0.0
 10
16.3790111835
 20
13.535902526
 30
0.0
 10
16.3767426266
 20
13.5364264256
 30
0.0
 10
16.3744715125
 20
13.5368700661
 30
0.0
 10
16.3722056062
 20
13.5372319168
 30
0.0
 10
16.3699526616
 20
13.5375107703
 30
0.0
 10
16.3677203765
 20
13.5377056423
 30
0.0
 10
16.3655163822
 20
13.5378158779
 30
0.0
 10
16.3633482093
 20
13.5378411122
 30
0.0
 10
16.3612232622
 20
13.5377812201
 30
0.0
 10
16.3591487941
 20
13.5376364365
 30
0.0
 10
16.3571318774
 20
13.5374072321
 30
0.0
 10
16.3551794012
 20
13.5370943511
 30
0.0
 10
16.3532980205
 20
13.5366988998
 30
0.0
 10
16.3514940622
 20
13.5362221322
 30
0.0
 10
16.3497738543
 20
13.535665661
 30
0.0
 10
16.3486683754
 20
13.5352356839
 30
0.0
 10
16.3481321294
 20
13.5350073444
 30
0.0
  0
SPLINE
  5
2C1
100
AcDbEntity
  8
LAYER_FEATURE
100
AcDbSpline
 62
7
  6
CONTINUOUS
 70
0
 71
3
 72
39
 73
35
 74
0
 42
0.0000001
 43
0.0000001
 44
0.0000000001
 40
0.0
 40
0.0
 40
0.0
 40
0.0
 40
0.0293068624
 40
0.059257123
 40
0.0898104144
 40
0.1209271403
 40
0.1525615855
 40
0.1846653625
 40
0.2171872712
 40
0.2500735769
 40
0.2832685
 40
0.3167145033
 40
0.3503526789
 40
0.3841230833
 40
0.4179650526
 40
0.4518175367
 40
0.4856194391
 40
0.5193099314
 40
0.5528287727
 40
0.5861166603
 40
0.6191155634
 40
0.6517690501
 40
0.6840226379
 40
0.7158241934
 40
0.7471242949
 40
0.7778766089
 40
0.8080383147
 40
0.8375706064
 40
0.8664390881
 40
0.8946143768
 40
0.9220725662
 40
0.9487953641
 40
0.9747732799
 40
1.0
 40
1.0
 40
1.0
 40
1.0
 10
16.1535790273
 20
13.5775709859
 30
0.0
 10
16.1550871635
 20
13.576206373
 30
0.0
 10
16.158193365
 20
13.5735093644
 30
0.0
 10
16.1630553177
 20
13.5696072599
 30
0.0
 10
16.1681595761
 20
13.5658133616
 30
0.0
 10
16.1734922319
 20
13.5621379179
 30
0.0
 10
16.1790391366
 20
13.5585907227
 30
0.0
 10
16.1847853825
 20
13.5551812801
 30
0.0
 10
16.1907155762
 20
13.5519187125
 30
0.0
 10
16.196813831
 20
13.5488117658
 30
0.0
 10
16.2030638041
 20
13.545868775
 30
0.0
 10
16.2094487369
 20
13.5430976193
 30
0.0
 10
16.21595151
 20
13.5405057249
 30
0.0
 10
16.2225546904
 20
13.5381000441
 30
0.0
 10
16.2292405759
 20
13.5358870371
 30
0.0
 10
16.2359912353
 20
13.5338726284
 30
0.0
 10
16.2427885665
 20
13.5320622158
 30
0.0
 10
16.2496143444
 20
13.5304606571
 30
0.0
 10
16.2564502694
 20
13.5290722567
 30
0.0
 10
16.2632780117
 20
13.5279007269
 30
0.0
 10
16.2700792683
 20
13.5269492051
 30
0.0
 10
16.2768358096
 20
13.526220246
 30
0.0
 10
16.283529529
 20
13.5257158159
 30
0.0
 10
16.2901424915
 20
13.5254372587
 30
0.0
 10
16.2966569845
 20
13.5253853215
 30
0.0
 10
16.3030555632
 20
13.5255601544
 30
0.0
 10
16.3093210985
 20
13.5259613115
 30
0.0
 10
16.3154368245
 20
13.5265877258
 30
0.0
 10
16.3213863868
 20
13.5274377359
 30
0.0
 10
16.3271538861
 20
13.5285091083
 30
0.0
 10
16.3327238587
 20
13.5297990329
 30
0.0
 10
16.3380815735
 20
13.53130411
 30
0.0
 10
16.343212394
 20
13.5330203605
 30
0.0
 10
16.3465213629
 20
13.5343214621
 30
0.0
 10
16.3481321294
 20
13.5350073444
 30
0.0
  0
SPLINE
  5
2C2
100
AcDbEntity
  8
LAYER_FEATURE
100
AcDbSpline
 62
7
  6
CONTINUOUS
 70
0
 71
3
 72
39
 73
35
 74
0
 42
0.0000001
 43
0.0000001
 44
0.0000000001
 40
0.0
 40
0.0
 40
0.0
 40
0.0
 40
0.0362624922
 40
0.0729162438
 40
0.1098697601
 40
0.1470441056
 40
0.1843550068
 40
0.2217157334
 40
0.2590404076
 40
0.2962433451
 40
0.3332394165
 40
0.3699450816
 40
0.4062788199
 40
0.442161673
 40
0.4775181324
 40
0.5122764765
 40
0.5463697362
 40
0.579736399
 40
0.6123209224
 40
0.6440750715
 40
0.6749584038
 40
0.7049393657
 40
0.7339966718
 40
0.7621199078
 40
0.7893112511
 40
0.8155865911
 40
0.840976504
 40
0.8655279231
 40
0.8893047233
 40
0.9123883779
 40
0.9348772729
 40
0.9568869065
 40
0.978549548
 40
1.0
 40
1.0
 40
1.0
 40
1.0
 10
16.113864338
 20
13.7579925885
 30
0.0
 10
16.1131962444
 20
13.7583501934
 30
0.0
 10
16.111839701
 20
13.759044976
 30
0.0
 10
16.1097602796
 20
13.7600193662
 30
0.0
 10
16.1076309302
 20
13.7609289127
 30
0.0
 10
16.1054590876
 20
13.7617704629
 30
0.0
 10
16.1032521077
 20
13.7625412083
 30
0.0
 10
16.1010175317
 20
13.7632384645
 30
0.0
 10
16.0987630229
 20
13.763859861
 30
0.0
 10
16.0964962918
 20
13.7644032872
 30
0.0
 10
16.0942250834
 20
13.7648668517
 30
0.0
 10
16.0919571741
 20
13.7652489996
 30
0.0
 10
16.0897003167
 20
13.7655484125
 30
0.0
 10
16.0874622257
 20
13.765764052
 30
0.0
 10
16.0852505548
 20
13.7658952111
 30
0.0
 10
16.0830728581
 20
13.7659414085
 30
0.0
 10
16.0809365749
 20
13.7659024955
 30
0.0
 10
16.0788489975
 20
13.7657786147
 30
0.0
 10
16.0768172503
 20
13.7655701448
 30
0.0
 10
16.0748482592
 20
13.7652778197
 30
0.0
 10
16.0729487344
 20
13.7649026054
 30
0.0
 10
16.0711251498
 20
13.7644457378
 30
0.0
 10
16.0693837057
 20
13.7639087748
 30
0.0
 10
16.0677303407
 20
13.7632934599
 30
0.0
 10
16.0661706865
 20
13.7626018385
 30
0.0
 10
16.0647100601
 20
13.7618362003
 30
0.0
 10
16.0633534933
 20
13.7609990112
 30
0.0
 10
16.0621056488
 20
13.76009305
 30
0.0
 10
16.0609708892
 20
13.7591212647
 30
0.0
 10
16.0599532693
 20
13.7580868368
 30
0.0
 10
16.0590564185
 20
13.7569932878
 30
0.0
 10
16.0582836412
 20
13.7558442041
 30
0.0
 10
16.0576379863
 20
13.7546437976
 30
0.0
 10
16.0572927992
 20
13.7538096155
 30
0.0
 10
16.0571428792
 20
13.753387178
 30
0.0
  0
SPLINE
  5
2C3
100
AcDbEntity
  8
LAYER_FEATURE
100
AcDbSpline
 62
7
  6
CONTINUOUS
 70
0
 71
3
 72
43
 73
39
 74
0
 42
0.0000001
 43
0.0000001
 44
0.0000000001
 40
0.0
 40
0.0
 40
0.0
 40
0.0
 40
0.0381339447
 40
0.076349474
 40
0.1145737025
 40
0.1527401116
 40
0.1907792725
 40
0.2286232422
 40
0.266205164
 40
0.3034594866
 40
0.3403225299
 40
0.3767328436
 40
0.4126316182
 40
0.447963095
 40
0.4826750155
 40
0.5167191475
 40
0.550051756
 40
0.5826341156
 40
0.6144330947
 40
0.6454218329
 40
0.6755803579
 40
0.7048962697
 40
0.7333655054
 40
0.7609931868
 40
0.7877943702
 40
0.8137948081
 40
0.8390316924
 40
0.8635543092
 40
0.8874243254
 40
0.9107159162
 40
0.9221737624
 40
0.9335202733
 40
0.9447678439
 40
0.9559296424
 40
0.9670196585
 40
0.9780522541
 40
0.9890412232
 40
1.0
 40
1.0
 40
1.0
 40
1.0
 10
15.8904725268
 20
13.7258284775
 30
0.0
 10
15.8926628846
 20
13.7249945792
 30
0.0
 10
15.8970735824
 20
13.72339061
 30
0.0
 10
15.9037608531
 20
13.7211814511
 30
0.0
 10
15.9105126729
 20
13.7191709981
 30
0.0
 10
15.9173107094
 20
13.7173646485
 30
0.0
 10
15.9241368728
 20
13.7157672514
 30
0.0
 10
15.9309728131
 20
13.7143830834
 30
0.0
 10
15.9378002092
 20
13.7132158479
 30
0.0
 10
15.9446007618
 20
13.7122686807
 30
0.0
 10
15.9513562415
 20
13.7115441309
 30
0.0
 10
15.9580485441
 20
13.711044132
 30
0.0
 10
15.9646597398
 20
13.7107700227
 30
0.0
 10
15.9711721196
 20
13.7107225457
 30
0.0
 10
15.9775682439
 20
13.7109018471
 30
0.0
 10
15.9838309917
 20
13.7113074468
 30
0.0
 10
15.9899436071
 20
13.7119382714
 30
0.0
 10
15.9958897401
 20
13.7127926595
 30
0.0
 10
16.0016534904
 20
13.7138683701
 30
0.0
 10
16.0072194569
 20
13.7151625592
 30
0.0
 10
16.0125727723
 20
13.7166718224
 30
0.0
 10
16.017699134
 20
13.7183922089
 30
0.0
 10
16.0225848375
 20
13.7203192368
 30
0.0
 10
16.027216821
 20
13.7224478751
 30
0.0
 10
16.0315826771
 20
13.7247725911
 30
0.0
 10
16.0356706712
 20
13.7272873692
 30
0.0
 10
16.0394697404
 20
13.7299856999
 30
0.0
 10
16.0429695861
 20
13.7328606301
 30
0.0
 10
16.0461604709
 20
13.7359045066
 30
0.0
 10
16.0485681315
 20
13.7385903354
 30
0.0
 10
16.0503259595
 20
13.7408129972
 30
0.0
 10
16.0515549786
 20
13.7425077536
 30
0.0
 10
16.0527008057
 20
13.7442380313
 30
0.0
 10
16.0537626702
 20
13.7460027234
 30
0.0
 10
16.0547398885
 20
13.7478006452
 30
0.0
 10
16.0556317417
 20
13.7496306205
 30
0.0
 10
16.0564375969
 20
13.7514912354
 30
0.0
 10
16.0569176137
 20
13.7527524349
 30
0.0
 10
16.0571428792
 20
13.753387178
 30
0.0
  0
SPLINE
  5
2C4
100
AcDbEntity
  8
LAYER_FEATURE
100
AcDbSpline
 62
7
  6
CONTINUOUS
 70
0
 71
3
 72
32
 73
28
 74
0
 42
0.0000001
 43
0.0000001
 44
0.0000000001
 40
0.0
 40
0.0
 40
0.0
 40
0.0
 40
0.0794319037
 40
0.1574322417
 40
0.233670485
 40
0.3078532143
 40
0.3797145489
 40
0.4490316171
 40
0.5156290735
 40
0.5478743757
 40
0.5794010085
 40
0.6102045574
 40
0.640285975
 40
0.6696507952
 40
0.6983107138
 40
0.7262827751
 40
0.7535906164
 40
0.7802641589
 40
0.8063400248
 40
0.8318618297
 40
0.8568796972
 40
0.8814507869
 40
0.9056381782
 40
0.9295110257
 40
0.9531431914
 40
0.9766126392
 40
1.0
 40
1.0
 40
1.0
 40
1.0
 10
15.7037872106
 20
13.8954229828
 30
0.0
 10
15.7027254295
 20
13.8955920997
 30
0.0
 10
15.7006123871
 20
13.8958758009
 30
0.0
 10
15.6974589222
 20
13.896136775
 30
0.0
 10
15.6943668964
 20
13.8962281438
 30
0.0
 10
15.6913575483
 20
13.8961492984
 30
0.0
 10
15.6884512657
 20
13.8959007074
 30
0.0
 10
15.6856679507
 20
13.8954840383
 30
0.0
 10
15.6834430175
 20
13.8949938125
 30
0.0
 10
15.6817434679
 20
13.8945175894
 30
0.0
 10
15.6805248267
 20
13.8941244318
 30
0.0
 10
15.6793506804
 20
13.8936920962
 30
0.0
 10
15.6782230061
 20
13.8932213627
 30
0.0
 10
15.6771437628
 20
13.8927129635
 30
0.0
 10
15.6761147785
 20
13.8921678098
 30
0.0
 10
15.6751378408
 20
13.8915867731
 30
0.0
 10
15.6742146215
 20
13.890970854
 30
0.0
 10
15.6733467161
 20
13.8903210819
 30
0.0
 10
15.6725356465
 20
13.8896385311
 30
0.0
 10
15.6717827979
 20
13.8889243867
 30
0.0
 10
15.6710895393
 20
13.8881798066
 30
0.0
 10
15.6704570421
 20
13.8874061109
 30
0.0
 10
15.6698864944
 20
13.8866045698
 30
0.0
 10
15.669378868
 20
13.8857766127
 30
0.0
 10
15.6689351155
 20
13.8849236325
 30
0.0
 10
15.6685560414
 20
13.8840472003
 30
0.0
 10
15.6683467215
 20
13.8834478037
 30
0.0
 10
15.6682532601
 20
13.883145351
 30
0.0
  0
SPLINE
  5
2C5
100
AcDbEntity
  8
LAYER_FEATURE
100
AcDbSpline
 62
7
  6
CONTINUOUS
 70
0
 71
3
 72
16
 73
12
 74
0
 42
0.0000001
 43
0.0000001
 44
0.0000000001
 40
0.0
 40
0.0
 40
0.0
 40
0.0
 40
0.1364450503
 40
0.2700408054
 40
0.4005314662
 40
0.5277004259
 40
0.6513583975
 40
0.7713561731
 40
0.8299526563
 40
0.8875976554
 40
1.0
 40
1.0
 40
1.0
 40
1.0
 10
15.5844492372
 20
13.7810967351
 30
0.0
 10
15.5869888995
 20
13.7810369038
 30
0.0
 10
15.5920181933
 20
13.7810181675
 30
0.0
 10
15.5994721758
 20
13.7813010411
 30
0.0
 10
15.6067349161
 20
13.7818941963
 30
0.0
 10
15.6137795898
 20
13.7827954502
 30
0.0
 10
15.6205803227
 20
13.7840015755
 30
0.0
 10
15.6260665397
 20
13.7852670131
 30
0.0
 10
15.6303085673
 20
13.7864312973
 30
0.0
 10
15.6343807047
 20
13.7876732148
 30
0.0
 10
15.6373685855
 20
13.7887276889
 30
0.0
 10
15.6393189947
 20
13.7894862661
 30
0.0
  0
SPLINE
  5
2C6
100
AcDbEntity
  8
LAYER_FEATURE
100
AcDbSpline
 62
7
  6
CONTINUOUS
 70
0
 71
3
 72
39
 73
35
 74
0
 42
0.0000001
 43
0.0000001
 44
0.0000000001
 40
0.0
 40
0.0
 40
0.0
 40
0.0
 40
0.0242087628
 40
0.049099507
 40
0.0746779195
 40
0.1009479535
 40
0.1279053922
 40
0.1555404626
 40
0.183838536
 40
0.2127800515
 40
0.2423411296
 40
0.2724940285
 40
0.3032074031
 40
0.3344466588
 40
0.3661743546
 40
0.3983504513
 40
0.4309325718
 40
0.4638763559
 40
0.4971356921
 40
0.5306629367
 40
0.5644092223
 40
0.5983246812
 40
0.6323586553
 40
0.6664599699
 40
0.700577148
 40
0.7346586281
 40
0.7686530351
 40
0.8025093566
 40
0.836177172
 40
0.869607129
 40
0.9027505841
 40
0.9355601115
 40
0.9679925296
 40
1.0
 40
1.0
 40
1.0
 40
1.0
 10
15.4112959582
 20
13.8700280848
 30
0.0
 10
15.4120472718
 20
13.8685759926
 30
0.0
 10
15.413654121
 20
13.8656731941
 30
0.0
 10
15.4163254882
 20
13.8613929692
 30
0.0
 10
15.4192852489
 20
13.8571361652
 30
0.0
 10
15.4225265151
 20
13.8529124953
 30
0.0
 10
15.4260420774
 20
13.8487312378
 30
0.0
 10
15.4298240165
 20
13.8446017364
 30
0.0
 10
15.4338638534
 20
13.8405332082
 30
0.0
 10
15.4381525284
 20
13.8365347329
 30
0.0
 10
15.4426804117
 20
13.8326152337
 30
0.0
 10
15.4474373629
 20
13.8287834893
 30
0.0
 10
15.4524127184
 20
13.8250480798
 30
0.0
 10
15.4575953075
 20
13.8214173539
 30
0.0
 10
15.4629735135
 20
13.8178994553
 30
0.0
 10
15.4685352796
 20
13.814502282
 30
0.0
 10
15.4742681155
 20
13.8112334331
 30
0.0
 10
15.4801591603
 20
13.8081002443
 30
0.0
 10
15.486195203
 20
13.8051097628
 30
0.0
 10
15.492362687
 20
13.8022686821
 30
0.0
 10
15.4986477681
 20
13.799583376
 30
0.0
 10
15.5050363461
 20
13.7970598919
 30
0.0
 10
15.5115140741
 20
13.794703882
 30
0.0
 10
15.5180664065
 20
13.7925206268
 30
0.0
 10
15.5246786394
 20
13.7905150462
 30
0.0
 10
15.5313359262
 20
13.7886916378
 30
0.0
 10
15.5380233176
 20
13.7870544813
 30
0.0
 10
15.5447258021
 20
13.7856072673
 30
0.0
 10
15.5514283407
 20
13.7843532442
 30
0.0
 10
15.5581158816
 20
13.7832952185
 30
0.0
 10
15.5647733818
 20
13.782435571
 30
0.0
 10
15.5713860402
 20
13.7817762136
 30
0.0
 10
15.5779387838
 20
13.7813186876
 30
0.0
 10
15.5822882046
 20
13.7811476464
 30
0.0
 10
15.5844492372
 20
13.7810967351
 30
0.0
  0
SPLINE
  5
2C7
100
AcDbEntity
  8
LAYER_FEATURE
100
AcDbSpline
 62
7
  6
CONTINUOUS
 70
0
 71
3
 72
38
 73
34
 74
0
 42
0.0000001
 43
0.0000001
 44
0.0000000001
 40
0.0
 40
0.0
 40
0.0
 40
0.0
 40
0.0244108517
 40
0.0496436275
 40
0.0757008106
 40
0.1025838522
 40
0.1302825034
 40
0.1587760861
 40
0.1880362782
 40
0.2180279676
 40
0.2487091533
 40
0.280032176
 40
0.3119444394
 40
0.3443886688
 40
0.3773039704
 40
0.4106259581
 40
0.4442875801
 40
0.4782195169
 40
0.5465995072
 40
0.5809110489
 40
0.6152026949
 40
0.649401002
 40
0.6834331966
 40
0.7172274867
 40
0.750713709
 40
0.7838236746
 40
0.8164916265
 40
0.8486552615
 40
0.8802554886
 40
0.9112366805
 40
0.9415498229
 40
0.971153351
 40
1.0
 40
1.0
 40
1.0
 40
1.0
 10
15.4112959582
 20
13.8700280848
 30
0.0
 10
15.4110362049
 20
13.8705301199
 30
0.0
 10
15.4104735409
 20
13.8715336098
 30
0.0
 10
15.4095230586
 20
13.8730076247
 30
0.0
 10
15.4084551885
 20
13.8744704377
 30
0.0
 10
15.4072734919
 20
13.875917311
 30
0.0
 10
15.4059817148
 20
13.8773438007
 30
0.0
 10
15.4045839155
 20
13.8787453542
 30
0.0
 10
15.4030845861
 20
13.8801175809
 30
0.0
 10
15.4014884638
 20
13.8814561143
 30
0.0
 10
15.3998006269
 20
13.8827567276
 30
0.0
 10
15.3980264458
 20
13.8840153072
 30
0.0
 10
15.3961715389
 20
13.8852278278
 30
0.0
 10
15.3942418281
 20
13.88639048
 30
0.0
 10
15.3922434257
 20
13.8874995332
 30
0.0
 10
15.3901827086
 20
13.8885514766
 30
0.0
 10
15.3880661947
 20
13.8895429884
 30
0.0
 10
15.3851716866
 20
13.890783193
 30
0.0
 10
15.3822033739
 20
13.8918853079
 30
0.0
 10
15.3791794592
 20
13.8928443738
 30
0.0
 10
15.3768879002
 20
13.8934904616
 30
0.0
 10
15.3745829116
 20
13.8940603514
 30
0.0
 10
15.3722717922
 20
13.8945522803
 30
0.0
 10
15.3699618984
 20
13.8949646352
 30
0.0
 10
15.3676605836
 20
13.8952961391
 30
0.0
 10
15.3653751685
 20
13.8955457244
 30
0.0
 10
15.3631129178
 20
13.8957125848
 30
0.0
 10
15.3608810246
 20
13.8957962211
 30
0.0
 10
15.3586865948
 20
13.895796312
 30
0.0
 10
15.3565366033
 20
13.8957129192
 30
0.0
 10
15.3544377849
 20
13.8955462539
 30
0.0
 10
15.3523969784
 20
13.8952968168
 30
0.0
 10
15.3510615901
 20
13.8950729502
 30
0.0
 10
15.3504056313
 20
13.8949468598
 30
0.0
  0
SPLINE
  5
2C8
100
AcDbEntity
  8
LAYER_FEATURE
100
AcDbSpline
 62
7
  6
CONTINUOUS
 70
0
 71
3
 72
23
 73
19
 74
0
 42
0.0000001
 43
0.0000001
 44
0.0000000001
 40
0.0
 40
0.0
 40
0.0
 40
0.0
 40
0.0749418042
 40
0.1480067948
 40
0.2191575146
 40
0.288400646
 40
0.3557637446
 40
0.4212881139
 40
0.4850334297
 40
0.5470842652
 40
0.6075469906
 40
0.6665518864
 40
0.7242514838
 40
0.7808219022
 40
0.8364595545
 40
0.8913799418
 40
0.9458131118
 40
1.0
 40
1.0
 40
1.0
 40
1.0
 10
15.310064563
 20
13.886019086
 30
0.0
 10
15.3095810183
 20
13.8858973505
 30
0.0
 10
15.3086308855
 20
13.885637083
 30
0.0
 10
15.3072423902
 20
13.8851901132
 30
0.0
 10
15.3059116237
 20
13.8846923415
 30
0.0
 10
15.304641652
 20
13.8841449578
 30
0.0
 10
15.3034352544
 20
13.8835490868
 30
0.0
 10
15.3022950633
 20
13.8829060746
 30
0.0
 10
15.3012236776
 20
13.8822172355
 30
0.0
 10
15.3002234643
 20
13.8814841333
 30
0.0
 10
15.2992967201
 20
13.880708287
 30
0.0
 10
15.2984454998
 20
13.8798914444
 30
0.0
 10
15.2976718176
 20
13.8790353248
 30
0.0
 10
15.2969774063
 20
13.8781418704
 30
0.0
 10
15.296363966
 20
13.8772130198
 30
0.0
 10
15.2958328694
 20
13.8762508877
 30
0.0
 10
15.2953854894
 20
13.875257713
 30
0.0
 10
15.2951434446
 20
13.8745757072
 30
0.0
 10
15.2950369987
 20
13.874231241
 30
0.0
  0
SPLINE
  5
2C9
100
AcDbEntity
  8
LAYER_FEATURE
100
AcDbSpline
 62
7
  6
CONTINUOUS
 70
0
 71
3
 72
23
 73
19
 74
0
 42
0.0000001
 43
0.0000001
 44
0.0000000001
 40
0.0
 40
0.0
 40
0.0
 40
0.0
 40
0.0593702705
 40
0.1196223671
 40
0.180660384
 40
0.2423948401
 40
0.3047274199
 40
0.367557571
 40
0.4307824564
 40
0.4942969519
 40
0.5579945378
 40
0.6217677823
 40
0.6855088755
 40
0.7491101526
 40
0.8124646576
 40
0.875466694
 40
0.9380123361
 40
1.0
 40
1.0
 40
1.0
 40
1.0
 10
15.1389513465
 20
13.753387178
 30
0.0
 10
15.1408318267
 20
13.752117536
 30
0.0
 10
15.1446643907
 20
13.7496234785
 30
0.0
 10
15.1505719446
 20
13.7460477129
 30
0.0
 10
15.1566687334
 20
13.7426168257
 30
0.0
 10
15.1629392114
 20
13.7393394991
 30
0.0
 10
15.1693677774
 20
13.7362239231
 30
0.0
 10
15.175938244
 20
13.7332779238
 30
0.0
 10
15.1826341138
 20
13.7305088915
 30
0.0
 10
15.1894385829
 20
13.7279237956
 30
0.0
 10
15.196334557
 20
13.7255291227
 30
0.0
 10
15.2033047143
 20
13.7233308776
 30
0.0
 10
15.2103315504
 20
13.7213345856
 30
0.0
 10
15.2173974218
 20
13.7195452734
 30
0.0
 10
15.224484573
 20
13.7179674222
 30
0.0
 10
15.2315752295
 20
13.7166049882
 30
0.0
 10
15.2386514981
 20
13.7154614095
 30
0.0
 10
15.2433714334
 20
13.7148437348
 30
0.0
 10
15.2457248594
 20
13.7145725999
 30
0.0
  0
SPLINE
  5
2CA
100
AcDbEntity
  8
LAYER_FEATURE
100
AcDbSpline
 62
7
  6
CONTINUOUS
 70
0
 71
3
 72
39
 73
35
 74
0
 42
0.0000001
 43
0.0000001
 44
0.0000000001
 40
0.0
 40
0.0
 40
0.0
 40
0.0
 40
0.0331831757
 40
0.0669179178
 40
0.1011302774
 40
0.1357566781
 40
0.170728433
 40
0.205972328
 40
0.2414143648
 40
0.2769795624
 40
0.3125917896
 40
0.3481747283
 40
0.3836522218
 40
0.4189488368
 40
0.4539902326
 40
0.4887037571
 40
0.5230189676
 40
0.5568679734
 40
0.5901863285
 40
0.6229131552
 40
0.6549921559
 40
0.686372022
 40
0.7170070375
 40
0.7468582074
 40
0.775893427
 40
0.8040890071
 40
0.8314300772
 40
0.8579116818
 40
0.8835402968
 40
0.9083339988
 40
0.9323236197
 40
0.9555552301
 40
0.9780912011
 40
1.0
 40
1.0
 40
1.0
 40
1.0
 10
15.1389513465
 20
13.753387178
 30
0.0
 10
15.138337756
 20
13.7538014552
 30
0.0
 10
15.1370842841
 20
13.7546133059
 30
0.0
 10
15.1351465295
 20
13.7557700965
 30
0.0
 10
15.1331407091
 20
13.7568729027
 30
0.0
 10
15.1310733655
 20
13.7579181648
 30
0.0
 10
15.128951007
 20
13.7589026387
 30
0.0
 10
15.1267803601
 20
13.7598231368
 30
0.0
 10
15.124568367
 20
13.7606767687
 30
0.0
 10
15.1223220526
 20
13.7614607901
 30
0.0
 10
15.120048567
 20
13.7621727175
 30
0.0
 10
15.1177551509
 20
13.7628102966
 30
0.0
 10
15.1154490943
 20
13.7633714645
 30
0.0
 10
15.1131377466
 20
13.7638544797
 30
0.0
 10
15.1108284541
 20
13.7642577658
 30
0.0
 10
15.1085285687
 20
13.7645800605
 30
0.0
 10
15.1062454069
 20
13.7648203434
 30
0.0
 10
15.1039862265
 20
13.7649778186
 30
0.0
 10
15.101758215
 20
13.7650520299
 30
0.0
 10
15.0995684503
 20
13.7650426925
 30
0.0
 10
15.0974238911
 20
13.7649498627
 30
0.0
 10
15.0953313466
 20
13.7647738258
 30
0.0
 10
15.0932974602
 20
13.7645151053
 30
0.0
 10
15.0913286794
 20
13.7641745564
 30
0.0
 10
15.0894312523
 20
13.7637531866
 30
0.0
 10
15.0876111862
 20
13.7632523466
 30
0.0
 10
15.0858742499
 20
13.7626735744
 30
0.0
 10
15.0842259533
 20
13.7620186395
 30
0.0
 10
15.0826715093
 20
13.7612895949
 30
0.0
 10
15.0812158993
 20
13.7604886129
 30
0.0
 10
15.0798637417
 20
13.7596182237
 30
0.0
 10
15.0786193373
 20
13.7586809706
 30
0.0
 10
15.0774869438
 20
13.7576798493
 30
0.0
 10
15.0768001441
 20
13.756962601
 30
0.0
 10
15.0764780942
 20
13.7565948827
 30
0.0
  0
SPLINE
  5
2CB
100
AcDbEntity
  8
LAYER_FEATURE
100
AcDbSpline
 62
7
  6
CONTINUOUS
 70
0
 71
3
 72
11
 73
7
 74
0
 42
0.0000001
 43
0.0000001
 44
0.0000000001
 40
0.0
 40
0.0
 40
0.0
 40
0.0
 40
0.2536329579
 40
0.5042079642
 40
0.752646704
 40
1.0
 40
1.0
 40
1.0
 40
1.0
 10
15.0577005539
 20
13.7327665688
 30
0.0
 10
15.0574928545
 20
13.732472011
 30
0.0
 10
15.0571016915
 20
13.7318707366
 30
0.0
 10
15.0565890352
 20
13.7309308624
 30
0.0
 10
15.0561559624
 20
13.7299615089
 30
0.0
 10
15.0559207244
 20
13.7292964546
 30
0.0
 10
15.0558169475
 20
13.728960626
 30
0.0
  0
ENDSEC
  0
SECTION
  2
OBJECTS
  0
DICTIONARY
  5
C
100
AcDbDictionary
280
0
281
1
  3
ACAD_GROUP
350
D
  3
ACAD_MLINESTYLE
350
17
  3
ACAD_LAYOUT
350
1A
  3
ACAD_PLOTSETTINGS
350
19
  3
ACAD_PLOTSTYLENAME
350
E
  0
DICTIONARY
  5
D
102
{ACAD_REACTORS
330
C
102
}
100
AcDbDictionary
280
0
281
1
  0
ACDBDICTIONARYWDFLT
  5
E
102
{ACAD_REACTORS
330
C
102
}
100
AcDbDictionary
281
1
  3
Normal
350
F
100
AcDbDictionaryWithDefault
340
F
  0
DICTIONARY
  5
17
102
{ACAD_REACTORS
330
C
102
}
100
AcDbDictionary
280
0
281
1
  3
Standard
350
18
  0
DICTIONARY
  5
19
102
{ACAD_REACTORS
330
C
102
}
100
AcDbDictionary
281
1
  0
DICTIONARY
  5
1A
102
{ACAD_REACTORS
330
C
102
}
100
AcDbDictionary
281
1
  3
Model
350
2CC
  3
Layout1
350
2CD
  0
ACDBPLACEHOLDER
  5
F
102
{ACAD_REACTORS
330
E
102
}
  0
MLINESTYLE
  5
18
102
{ACAD_REACTORS
330
17
102
}
100
AcDbMlineStyle
  2
STANDARD
 70
0
  3

 62
256
 51
90.0
 52
90.0
 71
2
 49
0.5
 62
256
  6
BYLAYER
 49
-0.5
 62
256
  6
BYLAYER
  0
LAYOUT
  5
2CC
102
{ACAD_REACTORS
330
1A
102
}
100
AcDbPlotSettings
  1

  2
none_device
  4
ANSI_C_(22.00_x_17.00_Inches)
  6

 40
0.0
 41
0.0
 42
0.0
 43
0.0
 44
558.8
 45
431.8
 46
0.0
 47
0.0
 48
0.0
 49
0.0
140
0.0
141
0.0
142
1.0
143
1.0
 70
1024
 72
0
 73
0
 74
0
  7

 75
0
147
1.0
148
0.0
149
0.0
100
AcDbLayout
  1
Model
 70
0
 71
0
 10
0.0
 20
0.0
 11
22.0
 21
17.0
 12
0.0
 22
0.0
 32
0.0
 14
0.0
 24
0.0
 34
0.0
 15
0.0
 25
0.0
 35
0.0
146
0.0
 13
0.0
 23
0.0
 33
0.0
 16
1.0
 26
0.0
 36
0.0
 17
0.0
 27
1.0
 37
0.0
 76
0
330
221
345
0
346
0
  0
LAYOUT
  5
2CD
102
{ACAD_REACTORS
330
1A
102
}
100
AcDbPlotSettings
  1

  2
none_device
  4
ANSI_C_(22.00_x_17.00_Inches)
  6

 40
0.0
 41
0.0
 42
0.0
 43
0.0
 44
558.8
 45
431.8
 46
0.0
 47
0.0
 48
0.0
 49
0.0
140
0.0
141
0.0
142
1.0
143
1.0
 70
0
 72
0
 73
0
 74
0
  7

 75
0
147
1.0
148
0.0
149
0.0
100
AcDbLayout
  1
Layout1
 70
0
 71
1
 10
0.0
 20
0.0
 11
22.0
 21
17.0
 12
0.0
 22
0.0
 32
0.0
 14
0.0
 24
0.0
 34
0.0
 15
0.0
 25
0.0
 35
0.0
146
0.0
 13
0.0
 23
0.0
 33
0.0
 16
1.0
 26
0.0
 36
0.0
 17
0.0
 27
1.0
 37
0.0
 76
0
330
222
345
0
346
0
  0
ENDSEC
  0
EOF