999
DXF file: _cgs_temp_output.dxf
999
Pro/ENGINEER 2015110 by Parametric Technology Corporation
  0
SECTION
  2
HEADER
  9
$ACADVER
  1
AC1021
  9
$DWGCODEPAGE
  3
ANSI_1252
  9
$EXTMAX
 10
22.0
 20
17.0
 30
0.0
  9
$EXTMIN
 10
0.0
 20
0.0
 30
0.0
  9
$LIMMIN
 10
0.0
 20
0.0
  9
$LIMMAX
 10
22.0
 20
17.0
  9
$VIEWCTR
 10
11.0
 20
8.5
  9
$VIEWSIZE
 40
17.0
  9
$CLAYER
  8
0
  9
$LTSCALE
 40
1.21
  9
$CELTYPE
  6
BYLAYER
  9
$DIMSCALE
 40
1.0
  9
$DIMASZ
 40
0.1875
  9
$DIMEXO
 40
0.0625
  9
$DIMDLI
 40
0.836
  9
$DIMEXE
 40
0.125
  9
$DIMCEN
 40
0.198
  9
$DIMLFAC
 40
1.0
  9
$DIMBLK
  1
_CLOSED
  9
$DIMALT
 70
0
  9
$DIMALTF
 40
25.4
  9
$DIMTXT
 40
0.15625
  9
$DIMTOL
 70
0
  9
$DIMLIM
 70
0
  9
$DIMTFAC
 40
1.0
  9
$DIMGAP
 40
0.09
  9
$DIMDSEP
 70
46
  9
$AUNITS
 70
0
  9
$PDMODE
 70
3
  9
$PDSIZE
 40
0.3125
  9
$HANDSEED
  5
2DB
  9
$TILEMODE
 70
1
  9
$MEASUREMENT
 70
0
  9
$INSUNITS
 70
1
  0
ENDSEC
  0
SECTION
  2
CLASSES
  0
CLASS
  1
ACDBDICTIONARYWDFLT
  2
AcDbDictionaryWithDefault
  3
AutoCAD 2000
 90
0
 91
1
280
0
281
0
  0
CLASS
  1
ACDBPLACEHOLDER
  2
AcDbPlaceHolder
  3
AutoCAD 2000
 90
0
 91
1
280
0
281
0
  0
CLASS
  1
LAYOUT
  2
AcDbLayout
  3
AutoCAD 2000
 90
0
 91
0
280
0
281
0
  0
ENDSEC
  0
SECTION
  2
TABLES
  0
TABLE
  2
VPORT
  5
8
100
AcDbSymbolTable
 70
2
  0
VPORT
  5
1F4
100
AcDbSymbolTableRecord
100
AcDbViewportTableRecord
  2
*ACTIVE
 70
0
 10
0.0
 20
0.0
 11
1.0
 21
1.0
 12
11.0
 22
8.5
 13
0.0
 23
0.0
 14
1.0
 24
1.0
 15
0.0
 25
0.0
 16
0.0
 26
0.0
 36
1.0
 17
0.0
 27
0.0
 37
0.0
 40
17.0
 41
1.2941176471
 42
50.0
 43
0.0
 44
0.0
 50
0.0
 51
0.0
 71
0
 72
100
 73
1
 74
1
 75
0
 76
0
 77
0
 78
0
  0
ENDTAB
  0
TABLE
  2
LTYPE
  5
5
100
AcDbSymbolTable
 70
6
  0
LTYPE
  5
14
100
AcDbSymbolTableRecord
100
AcDbLinetypeTableRecord
  2
BYBLOCK
 70
0
  3

 72
65
 73
0
 40
0.0
  0
LTYPE
  5
15
100
AcDbSymbolTableRecord
100
AcDbLinetypeTableRecord
  2
BYLAYER
 70
0
  3

 72
65
 73
0
 40
0.0
  0
LTYPE
  5
16
100
AcDbSymbolTableRecord
100
AcDbLinetypeTableRecord
  2
CONTINUOUS
 70
64
  3
Solid line
 72
65
 73
0
 40
0.0
  0
LTYPE
  5
1F5
100
AcDbSymbolTableRecord
100
AcDbLinetypeTableRecord
  2
CENTER
 70
64
  3
____ _ ____ _ ____ _ ____ _ ____ _ ____ _ ____
 72
65
 73
4
 40
0.6
 49
0.375
 74
0
 49
-0.075
 74
0
 49
0.075
 74
0
 49
-0.075
 74
0
  0
LTYPE
  5
1F6
100
AcDbSymbolTableRecord
100
AcDbLinetypeTableRecord
  2
HIDDEN
 70
64
  3
- - - - - - - - - - - - - - - - - - - -
 72
65
 73
2
 40
0.2
 49
0.1
 74
0
 49
-0.1
 74
0
  0
LTYPE
  5
1F7
100
AcDbSymbolTableRecord
100
AcDbLinetypeTableRecord
  2
PHANTOM
 70
64
  3
_____ _ _ _____ _ _ _____ _ _ _____
 72
65
 73
6
 40
0.8
 49
0.45
 74
0
 49
-0.05
 74
0
 49
0.1
 74
0
 49
-0.05
 74
0
 49
0.1
 74
0
 49
-0.05
 74
0
  0
LTYPE
  5
1F8
100
AcDbSymbolTableRecord
100
AcDbLinetypeTableRecord
  2
DOT
 70
64
  3
. . . . . . . . . . . . . . . . . . . .
 72
65
 73
2
 40
0.2
 49
0.1
 74
0
 49
-0.1
 74
0
  0
LTYPE
  5
1F9
100
AcDbSymbolTableRecord
100
AcDbLinetypeTableRecord
  2
DASHED
 70
64
  3
- - - - - - - - - - - - - - - - - - - -
 72
65
 73
2
 40
0.2
 49
0.1
 74
0
 49
-0.1
 74
0
  0
ENDTAB
  0
TABLE
  2
LAYER
  5
2
100
AcDbSymbolTable
 70
36
  0
LAYER
  5
10
100
AcDbSymbolTableRecord
100
AcDbLayerTableRecord
  2
0
 70
0
 62
7
  6
CONTINUOUS
370
-3
390
F
  0
LAYER
  5
1FA
100
AcDbSymbolTableRecord
100
AcDbLayerTableRecord
  2
DEFAULT_1
 70
0
 62
7
  6
CENTER
370
-3
390
F
  0
LAYER
  5
1FB
100
AcDbSymbolTableRecord
100
AcDbLayerTableRecord
  2
DEFAULT_2
 70
0
 62
8
  6
HIDDEN
370
-3
390
F
  0
LAYER
  5
1FC
100
AcDbSymbolTableRecord
100
AcDbLayerTableRecord
  2
DEFAULT_3
 70
0
 62
7
  6
PHANTOM
370
-3
390
F
  0
LAYER
  5
1FD
100
AcDbSymbolTableRecord
100
AcDbLayerTableRecord
  2
01_ALL_DTM_PLN
 70
0
 62
7
  6
CONTINUOUS
370
-3
390
F
  0
LAYER
  5
1FE
100
AcDbSymbolTableRecord
100
AcDbLayerTableRecord
  2
01__ASM_ALL_DTM_PLN
 70
0
 62
7
  6
CONTINUOUS
370
-3
390
F
  0
LAYER
  5
1FF
100
AcDbSymbolTableRecord
100
AcDbLayerTableRecord
  2
01__ASM_DEF_DTM_PLN
 70
0
 62
7
  6
CONTINUOUS
370
-3
390
F
  0
LAYER
  5
200
100
AcDbSymbolTableRecord
100
AcDbLayerTableRecord
  2
01___PRT_ALL_DTM_PLN
 70
0
 62
7
  6
CONTINUOUS
370
-3
390
F
  0
LAYER
  5
201
100
AcDbSymbolTableRecord
100
AcDbLayerTableRecord
  2
01___PRT_DEF_DTM_PLN
 70
0
 62
7
  6
CONTINUOUS
370
-3
390
F
  0
LAYER
  5
202
100
AcDbSymbolTableRecord
100
AcDbLayerTableRecord
  2
02_ALL_AXES
 70
0
 62
7
  6
CONTINUOUS
370
-3
390
F
  0
LAYER
  5
203
100
AcDbSymbolTableRecord
100
AcDbLayerTableRecord
  2
02__ASM_ALL_AXES
 70
0
 62
7
  6
CONTINUOUS
370
-3
390
F
  0
LAYER
  5
204
100
AcDbSymbolTableRecord
100
AcDbLayerTableRecord
  2
02___PRT_ALL_AXES
 70
0
 62
7
  6
CONTINUOUS
370
-3
390
F
  0
LAYER
  5
205
100
AcDbSymbolTableRecord
100
AcDbLayerTableRecord
  2
03_ALL_CURVES
 70
0
 62
7
  6
CONTINUOUS
370
-3
390
F
  0
LAYER
  5
206
100
AcDbSymbolTableRecord
100
AcDbLayerTableRecord
  2
03__ASM_ALL_CURVES
 70
0
 62
7
  6
CONTINUOUS
370
-3
390
F
  0
LAYER
  5
207
100
AcDbSymbolTableRecord
100
AcDbLayerTableRecord
  2
03___PRT_ALL_CURVES
 70
0
 62
7
  6
CONTINUOUS
370
-3
390
F
  0
LAYER
  5
208
100
AcDbSymbolTableRecord
100
AcDbLayerTableRecord
  2
04_ALL_DTM_PNT
 70
0
 62
7
  6
CONTINUOUS
370
-3
390
F
  0
LAYER
  5
209
100
AcDbSymbolTableRecord
100
AcDbLayerTableRecord
  2
04__ASM_ALL_DTM_PNT
 70
0
 62
7
  6
CONTINUOUS
370
-3
390
F
  0
LAYER
  5
20A
100
AcDbSymbolTableRecord
100
AcDbLayerTableRecord
  2
04___PRT_ALL_DTM_PNT
 70
0
 62
7
  6
CONTINUOUS
370
-3
390
F
  0
LAYER
  5
20B
100
AcDbSymbolTableRecord
100
AcDbLayerTableRecord
  2
05_ALL_DTM_CSYS
 70
0
 62
7
  6
CONTINUOUS
370
-3
390
F
  0
LAYER
  5
20C
100
AcDbSymbolTableRecord
100
AcDbLayerTableRecord
  2
05__ASM_ALL_DTM_CSYS
 70
0
 62
7
  6
CONTINUOUS
370
-3
390
F
  0
LAYER
  5
20D
100
AcDbSymbolTableRecord
100
AcDbLayerTableRecord
  2
05__ASM_DEF_DTM_CSYS
 70
0
 62
7
  6
CONTINUOUS
370
-3
390
F
  0
LAYER
  5
20E
100
AcDbSymbolTableRecord
100
AcDbLayerTableRecord
  2
05___PRT_ALL_DTM_CSYS
 70
0
 62
7
  6
CONTINUOUS
370
-3
390
F
  0
LAYER
  5
20F
100
AcDbSymbolTableRecord
100
AcDbLayerTableRecord
  2
05___PRT_DEF_DTM_CSYS
 70
0
 62
7
  6
CONTINUOUS
370
-3
390
F
  0
LAYER
  5
210
100
AcDbSymbolTableRecord
100
AcDbLayerTableRecord
  2
06_ALL_SURFS
 70
0
 62
7
  6
CONTINUOUS
370
-3
390
F
  0
LAYER
  5
211
100
AcDbSymbolTableRecord
100
AcDbLayerTableRecord
  2
06__ASM_ALL_SURFS
 70
0
 62
7
  6
CONTINUOUS
370
-3
390
F
  0
LAYER
  5
212
100
AcDbSymbolTableRecord
100
AcDbLayerTableRecord
  2
06___PRT_ALL_SURFS
 70
0
 62
7
  6
CONTINUOUS
370
-3
390
F
  0
LAYER
  5
213
100
AcDbSymbolTableRecord
100
AcDbLayerTableRecord
  2
07__ASM_ALL_SKELETONS
 70
0
 62
7
  6
CONTINUOUS
370
-3
390
F
  0
LAYER
  5
214
100
AcDbSymbolTableRecord
100
AcDbLayerTableRecord
  2
LAYER_AXIS
 70
0
 62
7
  6
CONTINUOUS
370
-3
390
F
  0
LAYER
  5
215
100
AcDbSymbolTableRecord
100
AcDbLayerTableRecord
  2
LAYER_CHAMFER_FEAT
 70
0
 62
7
  6
CONTINUOUS
370
-3
390
F
  0
LAYER
  5
216
100
AcDbSymbolTableRecord
100
AcDbLayerTableRecord
  2
LAYER_CUT_FEAT
 70
0
 62
7
  6
CONTINUOUS
370
-3
390
F
  0
LAYER
  5
217
100
AcDbSymbolTableRecord
100
AcDbLayerTableRecord
  2
LAYER_DATUM
 70
0
 62
7
  6
CONTINUOUS
370
-3
390
F
  0
LAYER
  5
218
100
AcDbSymbolTableRecord
100
AcDbLayerTableRecord
  2
LAYER_DIM
 70
0
 62
7
  6
CONTINUOUS
370
-3
390
F
  0
LAYER
  5
219
100
AcDbSymbolTableRecord
100
AcDbLayerTableRecord
  2
LAYER_FEATURE
 70
0
 62
7
  6
CONTINUOUS
370
-3
390
F
  0
LAYER
  5
21A
100
AcDbSymbolTableRecord
100
AcDbLayerTableRecord
  2
LAYER_GEOM_FEAT
 70
0
 62
7
  6
CONTINUOUS
370
-3
390
F
  0
LAYER
  5
21B
100
AcDbSymbolTableRecord
100
AcDbLayerTableRecord
  2
LAYER_NOGEOM_FEAT
 70
0
 62
7
  6
CONTINUOUS
370
-3
390
F
  0
LAYER
  5
21C
100
AcDbSymbolTableRecord
100
AcDbLayerTableRecord
  2
LAYER_PARAMETER_DIM
 70
0
 62
7
  6
CONTINUOUS
370
-3
390
F
  0
LAYER
  5
21D
100
AcDbSymbolTableRecord
100
AcDbLayerTableRecord
  2
LAYER_PROTRUSION_FEAT
 70
0
 62
7
  6
CONTINUOUS
370
-3
390
F
  0
LAYER
  5
21E
100
AcDbSymbolTableRecord
100
AcDbLayerTableRecord
  2
LAYER_QUILT
 70
0
 62
7
  6
CONTINUOUS
370
-3
390
F
  0
LAYER
  5
21F
100
AcDbSymbolTableRecord
100
AcDbLayerTableRecord
  2
LAYER_ROUND_FEAT
 70
0
 62
7
  6
CONTINUOUS
370
-3
390
F
  0
ENDTAB
  0
TABLE
  2
STYLE
  5
3
100
AcDbSymbolTable
 70
1
  0
STYLE
  5
11
100
AcDbSymbolTableRecord
100
AcDbTextStyleTableRecord
  2
STANDARD
 70
0
 40
0.0
 41
0.8
 50
0.0
 71
0
 42
0.2
  3
txt
  4

  0
STYLE
  5
220
100
AcDbSymbolTableRecord
100
AcDbTextStyleTableRecord
  2
TEXTSTYLE_1
 70
0
 40
0.0
 41
0.8
 50
0.0
 71
0
 42
0.2
  3
gdt
  4

  0
ENDTAB
  0
TABLE
  2
VIEW
  5
6
100
AcDbSymbolTable
 70
0
  0
ENDTAB
  0
TABLE
  2
UCS
  5
7
100
AcDbSymbolTable
 70
0
  0
ENDTAB
  0
TABLE
  2
APPID
  5
9
100
AcDbSymbolTable
 70
1
  0
APPID
  5
221
100
AcDbSymbolTableRecord
100
AcDbRegAppTableRecord
  2
ACAD
 70
0
  0
ENDTAB
  0
TABLE
  2
BLOCK_RECORD
  5
1
100
AcDbSymbolTable
 70
0
  0
BLOCK_RECORD
  5
222
100
AcDbSymbolTableRecord
100
AcDbBlockTableRecord
  2
*Model_Space
  0
BLOCK_RECORD
  5
223
100
AcDbSymbolTableRecord
100
AcDbBlockTableRecord
  2
*Paper_Space
  0
ENDTAB
  0
TABLE
  2
DIMSTYLE
  5
A
100
AcDbSymbolTable
 70
1
100
AcDbDimStyleTable
 71
0
  0
DIMSTYLE
105
224
100
AcDbSymbolTableRecord
100
AcDbDimStyleTableRecord
  2
STANDARD
 70
0
  3

  4

 40
1.0
 41
0.1875
 42
0.0625
 43
0.38
 44
0.125
 45
0.0
 46
0.0
 47
0.0001
 48
0.0001
140
0.15625
141
0.09
142
0.0
143
25.4
144
1.0
145
0.0
146
1.0
147
0.09
 71
0.0
 72
0.0
 73
1
 74
1
 75
0
 76
0
 77
0
 78
4
170
0
171
2
172
0
173
0
174
0
175
0
176
0
177
0
178
0
270
2
271
4
272
4
273
2
274
2
275
0
280
0
281
0
282
0
283
1
284
4
285
0
286
0
287
3
288
0
340
11
278
46
  0
ENDTAB
  0
ENDSEC
  0
SECTION
  2
BLOCKS
  0
BLOCK
  5
20
100
AcDbEntity
  8
0
100
AcDbBlockBegin
  2
*Model_Space
 70
0
 10
0.0
 20
0.0
 30
0.0
  3
*Model_Space
  1

  0
ENDBLK
  5
21
100
AcDbEntity
  8
0
100
AcDbBlockEnd
  0
BLOCK
  5
1C
100
AcDbEntity
  8
0
100
AcDbBlockBegin
  2
*Paper_Space
 70
0
 10
0.0
 20
0.0
 30
0.0
  3
*Paper_Space
  1

  0
ENDBLK
  5
1D
100
AcDbEntity
  8
0
100
AcDbBlockEnd
  0
ENDSEC
  0
SECTION
  2
ENTITIES
  0
MTEXT
  5
225
100
AcDbEntity
  8
0
100
AcDbMText
 62
7
  6
CONTINUOUS
  7
STANDARD
 71
1
 72
1
 10
15.9560215477
 20
0.9479130325
 30
0.0
 11
1.0
 21
0.0
 31
0.0
 44
0.9
  1
SCALE: 1:3.000
 40
0.3
 41
3.36
  0
LINE
  5
226
100
AcDbEntity
  8
0
100
AcDbLine
 62
7
  6
CONTINUOUS
 10
0.0
 20
0.0
 11
0.0
 21
17.0
  0
LINE
  5
227
100
AcDbEntity
  8
0
100
AcDbLine
 62
7
  6
CONTINUOUS
 10
0.0
 20
0.0
 11
22.0
 21
0.0
  0
LINE
  5
228
100
AcDbEntity
  8
0
100
AcDbLine
 62
7
  6
CONTINUOUS
 10
0.0
 20
17.0
 11
22.0
 21
17.0
  0
LINE
  5
229
100
AcDbEntity
  8
0
100
AcDbLine
 62
7
  6
CONTINUOUS
 10
22.0
 20
0.0
 11
22.0
 21
17.0
  0
LINE
  5
22A
100
AcDbEntity
  8
LAYER_FEATURE
100
AcDbLine
 62
7
  6
CONTINUOUS
 10
5.9335672762
 20
6.2701198968
 11
5.8959512385
 21
6.2325038591
  0
LINE
  5
22B
100
AcDbEntity
  8
LAYER_FEATURE
100
AcDbLine
 62
7
  6
CONTINUOUS
 10
6.3271672762
 20
6.2701198968
 11
6.3647833138
 21
6.2325038591
  0
LINE
  5
22C
100
AcDbEntity
  8
LAYER_FEATURE
100
AcDbLine
 62
7
  6
CONTINUOUS
 10
5.9335672762
 20
6.2701198968
 11
6.3271672762
 21
6.2701198968
  0
LINE
  5
22D
100
AcDbEntity
  8
LAYER_FEATURE
100
AcDbLine
 62
7
  6
CONTINUOUS
 10
4.6653720839
 20
12.1650477814
 11
4.6653720839
 21
12.2850477814
  0
LINE
  5
22E
100
AcDbEntity
  8
LAYER_FEATURE
100
AcDbLine
 62
7
  6
CONTINUOUS
 10
4.6653720839
 20
13.6650477814
 11
4.6653720839
 21
13.7850477814
  0
LINE
  5
22F
100
AcDbEntity
  8
LAYER_CUT_FEAT
100
AcDbLine
 62
7
  6
CONTINUOUS
 10
4.9195387
 20
13.6050477814
 11
4.9195387
 21
12.3450477814
  0
LINE
  5
230
100
AcDbEntity
  8
LAYER_CUT_FEAT
100
AcDbLine
 62
7
  6
CONTINUOUS
 10
4.9770101734
 20
13.6050477814
 11
4.9770101734
 21
12.3450477814
  0
LINE
  5
231
100
AcDbEntity
  8
02___PRT_ALL_AXES
100
AcDbLine
 62
7
  6
CONTINUOUS
 10
5.3208720839
 20
11.4150477814
 11
6.8208720839
 21
11.4150477814
  0
LINE
  5
232
100
AcDbEntity
  8
LAYER_CUT_FEAT
100
AcDbLine
 62
7
  6
CONTINUOUS
 10
5.9998580007
 20
11.6670477814
 11
6.141886167
 21
11.6670477814
  0
LINE
  5
233
100
AcDbEntity
  8
LAYER_CUT_FEAT
100
AcDbLine
 62
7
  6
CONTINUOUS
 10
5.2648289153
 20
13.6050477814
 11
5.2648289153
 21
12.3450477814
  0
LINE
  5
234
100
AcDbEntity
  8
02___PRT_ALL_AXES
100
AcDbLine
 62
7
  6
CONTINUOUS
 10
5.3208720839
 20
11.4150477814
 11
5.3208720839
 21
12.1650477814
  0
LINE
  5
235
100
AcDbEntity
  8
LAYER_FEATURE
100
AcDbLine
 62
7
  6
CONTINUOUS
 10
7.2708720839
 20
13.6050477814
 11
7.4763720839
 21
13.6650477814
  0
LINE
  5
236
100
AcDbEntity
  8
LAYER_CUT_FEAT
100
AcDbLine
 62
7
  6
CONTINUOUS
 10
6.141886167
 20
11.9130477814
 11
5.9998580007
 21
11.9130477814
  0
LINE
  5
237
100
AcDbEntity
  8
LAYER_CUT_FEAT
100
AcDbLine
 62
7
  6
CONTINUOUS
 10
5.9288439176
 20
11.7900477814
 11
5.9998580007
 21
11.6670477814
  0
LINE
  5
238
100
AcDbEntity
  8
LAYER_FEATURE
100
AcDbLine
 62
7
  6
CONTINUOUS
 10
4.6653720839
 20
12.1650477814
 11
7.4763720839
 21
12.1650477814
  0
LINE
  5
239
100
AcDbEntity
  8
LAYER_CUT_FEAT
100
AcDbLine
 62
7
  6
CONTINUOUS
 10
5.7256189479
 20
13.6050477814
 11
5.7256189479
 21
12.3450477814
  0
LINE
  5
23A
100
AcDbEntity
  8
LAYER_FEATURE
100
AcDbLine
 62
7
  6
CONTINUOUS
 10
4.6653720839
 20
12.2850477814
 11
7.4763720839
 21
12.2850477814
  0
LINE
  5
23B
100
AcDbEntity
  8
LAYER_FEATURE
100
AcDbLine
 62
7
  6
CONTINUOUS
 10
4.8708721704
 20
12.3450477814
 11
7.2708719973
 21
12.3450477814
  0
LINE
  5
23C
100
AcDbEntity
  8
LAYER_CUT_FEAT
100
AcDbLine
 62
7
  6
CONTINUOUS
 10
6.2129002501
 20
11.7900477814
 11
6.141886167
 21
11.9130477814
  0
LINE
  5
23D
100
AcDbEntity
  8
LAYER_CUT_FEAT
100
AcDbLine
 62
7
  6
CONTINUOUS
 10
5.899994624
 20
13.6050477814
 11
5.899994624
 21
12.3450477814
  0
LINE
  5
23E
100
AcDbEntity
  8
LAYER_FEATURE
100
AcDbLine
 62
7
  6
CONTINUOUS
 10
4.6653720839
 20
12.2850477814
 11
4.8708720839
 21
12.3450477814
  0
LINE
  5
23F
100
AcDbEntity
  8
LAYER_FEATURE
100
AcDbLine
 62
7
  6
CONTINUOUS
 10
7.4763720839
 20
12.2850477814
 11
7.2708720839
 21
12.3450477814
  0
LINE
  5
240
100
AcDbEntity
  8
LAYER_CUT_FEAT
100
AcDbLine
 62
7
  6
CONTINUOUS
 10
6.2538188277
 20
13.6050477814
 11
6.2538188277
 21
12.3450477814
  0
LINE
  5
241
100
AcDbEntity
  8
LAYER_CUT_FEAT
100
AcDbLine
 62
7
  6
CONTINUOUS
 10
6.4279954595
 20
13.6050477814
 11
6.4279954595
 21
12.3450477814
  0
LINE
  5
242
100
AcDbEntity
  8
LAYER_CUT_FEAT
100
AcDbLine
 62
7
  6
CONTINUOUS
 10
5.9998580007
 20
11.9130477814
 11
5.9288439176
 21
11.7900477814
  0
LINE
  5
243
100
AcDbEntity
  8
LAYER_CUT_FEAT
100
AcDbLine
 62
7
  6
CONTINUOUS
 10
6.141886167
 20
11.6670477814
 11
6.2129002501
 21
11.7900477814
  0
LINE
  5
244
100
AcDbEntity
  8
LAYER_FEATURE
100
AcDbLine
 62
7
  6
CONTINUOUS
 10
4.8708720839
 20
13.6050477814
 11
4.6653720839
 21
13.6650477814
  0
LINE
  5
245
100
AcDbEntity
  8
02___PRT_ALL_AXES
100
AcDbLine
 62
7
  6
CONTINUOUS
 10
6.8208720839
 20
11.4150477814
 11
6.8208720839
 21
12.1650477814
  0
LINE
  5
246
100
AcDbEntity
  8
LAYER_CUT_FEAT
100
AcDbLine
 62
7
  6
CONTINUOUS
 10
6.8858671189
 20
13.6050477814
 11
6.8858671189
 21
12.3450477814
  0
LINE
  5
247
100
AcDbEntity
  8
LAYER_CUT_FEAT
100
AcDbLine
 62
7
  6
CONTINUOUS
 10
7.1687167228
 20
13.6050477814
 11
7.1687167228
 21
12.3450477814
  0
LINE
  5
248
100
AcDbEntity
  8
LAYER_FEATURE
100
AcDbLine
 62
7
  6
CONTINUOUS
 10
4.8708721704
 20
13.6050477814
 11
7.2708719973
 21
13.6050477814
  0
LINE
  5
249
100
AcDbEntity
  8
LAYER_FEATURE
100
AcDbLine
 62
7
  6
CONTINUOUS
 10
4.6653720839
 20
13.6650477814
 11
7.4763720839
 21
13.6650477814
  0
LINE
  5
24A
100
AcDbEntity
  8
LAYER_CUT_FEAT
100
AcDbLine
 62
7
  6
CONTINUOUS
 10
7.2211323221
 20
13.6050477814
 11
7.2211323221
 21
12.3450477814
  0
LINE
  5
24B
100
AcDbEntity
  8
LAYER_FEATURE
100
AcDbLine
 62
7
  6
CONTINUOUS
 10
4.6653720839
 20
13.7850477814
 11
7.4763720839
 21
13.7850477814
  0
LINE
  5
24C
100
AcDbEntity
  8
LAYER_FEATURE
100
AcDbLine
 62
7
  6
CONTINUOUS
 10
7.4763720839
 20
12.1650477814
 11
7.4763720839
 21
12.2850477814
  0
LINE
  5
24D
100
AcDbEntity
  8
LAYER_FEATURE
100
AcDbLine
 62
7
  6
CONTINUOUS
 10
7.4763720839
 20
13.6650477814
 11
7.4763720839
 21
13.7850477814
  0
LINE
  5
24E
100
AcDbEntity
  8
LAYER_FEATURE
100
AcDbLine
 62
7
  6
CONTINUOUS
 10
16.7453552569
 20
4.0551247044
 11
16.6253552569
 21
4.0551247044
  0
LINE
  5
24F
100
AcDbEntity
  8
LAYER_FEATURE
100
AcDbLine
 62
7
  6
CONTINUOUS
 10
15.2453552569
 20
4.0551247044
 11
15.1253552569
 21
4.0551247044
  0
LINE
  5
250
100
AcDbEntity
  8
LAYER_FEATURE
100
AcDbLine
 62
7
  6
CONTINUOUS
 10
14.5420575438
 20
6.1991269913
 11
14.5535552569
 21
6.2106247044
  0
LINE
  5
251
100
AcDbEntity
  8
02___PRT_ALL_AXES
100
AcDbLine
 62
7
  6
CONTINUOUS
 10
14.3753552569
 20
6.2106247044
 11
14.3753552569
 21
4.7106247044
  0
LINE
  5
252
100
AcDbEntity
  8
02___PRT_ALL_AXES
100
AcDbLine
 62
7
  6
CONTINUOUS
 10
15.3053552569
 20
4.3056247044
 11
16.5653552569
 21
4.3056247044
  0
LINE
  5
253
100
AcDbEntity
  8
LAYER_CUT_FEAT
100
AcDbLine
 62
7
  6
CONTINUOUS
 10
16.5653552569
 20
4.4126749544
 11
15.3053552569
 21
4.4126749544
  0
LINE
  5
254
100
AcDbEntity
  8
02___PRT_ALL_AXES
100
AcDbLine
 62
7
  6
CONTINUOUS
 10
15.1253552569
 20
4.7106247044
 11
14.3753552569
 21
4.7106247044
  0
LINE
  5
255
100
AcDbEntity
  8
LAYER_CUT_FEAT
100
AcDbLine
 62
7
  6
CONTINUOUS
 10
16.5653552569
 20
4.747261631
 11
15.3053552569
 21
4.747261631
  0
LINE
  5
256
100
AcDbEntity
  8
LAYER_FEATURE
100
AcDbLine
 62
7
  6
CONTINUOUS
 10
15.1253552569
 20
6.8661247044
 11
15.1253552569
 21
4.0551247044
  0
LINE
  5
257
100
AcDbEntity
  8
LAYER_FEATURE
100
AcDbLine
 62
7
  6
CONTINUOUS
 10
15.2453552569
 20
6.8661247044
 11
15.2453552569
 21
4.0551247044
  0
LINE
  5
258
100
AcDbEntity
  8
LAYER_FEATURE
100
AcDbLine
 62
7
  6
CONTINUOUS
 10
15.3053552569
 20
6.6606247044
 11
15.3053552569
 21
4.2606247044
  0
LINE
  5
259
100
AcDbEntity
  8
LAYER_CUT_FEAT
100
AcDbLine
 62
7
  6
CONTINUOUS
 10
16.5653552569
 20
5.2335877053
 11
15.3053552569
 21
5.2335877053
  0
LINE
  5
25A
100
AcDbEntity
  8
LAYER_CUT_FEAT
100
AcDbLine
 62
7
  6
CONTINUOUS
 10
16.5653552569
 20
5.4094340555
 11
15.3053552569
 21
5.4094340555
  0
LINE
  5
25B
100
AcDbEntity
  8
LAYER_FEATURE
100
AcDbLine
 62
7
  6
CONTINUOUS
 10
15.3053552569
 20
4.2606247044
 11
15.2453552569
 21
4.0551247044
  0
LINE
  5
25C
100
AcDbEntity
  8
LAYER_FEATURE
100
AcDbLine
 62
7
  6
CONTINUOUS
 10
14.9586529704
 20
6.199126991
 11
14.9471552569
 21
6.2106247044
  0
LINE
  5
25D
100
AcDbEntity
  8
LAYER_FEATURE
100
AcDbLine
 62
7
  6
CONTINUOUS
 10
15.3053552569
 20
6.6606247044
 11
15.2453552569
 21
6.8661247044
  0
LINE
  5
25E
100
AcDbEntity
  8
LAYER_CUT_FEAT
100
AcDbLine
 62
7
  6
CONTINUOUS
 10
16.5653552569
 20
5.9319910834
 11
15.3053552569
 21
5.9319910834
  0
LINE
  5
25F
100
AcDbEntity
  8
LAYER_FEATURE
100
AcDbLine
 62
7
  6
CONTINUOUS
 10
16.6253552569
 20
6.8661247044
 11
16.5653552569
 21
6.6606247044
  0
LINE
  5
260
100
AcDbEntity
  8
LAYER_FEATURE
100
AcDbLine
 62
7
  6
CONTINUOUS
 10
16.6253552569
 20
4.0551247044
 11
16.5653552569
 21
4.2606247044
  0
LINE
  5
261
100
AcDbEntity
  8
02___PRT_ALL_AXES
100
AcDbLine
 62
7
  6
CONTINUOUS
 10
15.1253552569
 20
6.2106247044
 11
14.9963552569
 21
6.2106247044
  0
LINE
  5
262
100
AcDbEntity
  8
02___PRT_ALL_AXES
100
AcDbLine
 62
7
  6
CONTINUOUS
 10
14.5043552569
 20
6.2106247044
 11
14.3753552569
 21
6.2106247044
  0
LINE
  5
263
100
AcDbEntity
  8
LAYER_FEATURE
100
AcDbLine
 62
7
  6
CONTINUOUS
 10
14.553555349
 20
6.2106247044
 11
14.9471551649
 21
6.2106247044
  0
LINE
  5
264
100
AcDbEntity
  8
LAYER_CUT_FEAT
100
AcDbLine
 62
7
  6
CONTINUOUS
 10
16.5653552569
 20
6.3582472398
 11
15.3053552569
 21
6.3582472398
  0
LINE
  5
265
100
AcDbEntity
  8
LAYER_FEATURE
100
AcDbLine
 62
7
  6
CONTINUOUS
 10
16.5653552569
 20
6.6606247044
 11
16.5653552569
 21
4.2606247044
  0
LINE
  5
266
100
AcDbEntity
  8
LAYER_FEATURE
100
AcDbLine
 62
7
  6
CONTINUOUS
 10
16.6253552569
 20
6.8661247044
 11
16.6253552569
 21
4.0551247044
  0
LINE
  5
267
100
AcDbEntity
  8
LAYER_FEATURE
100
AcDbLine
 62
7
  6
CONTINUOUS
 10
16.7453552569
 20
6.8661247044
 11
16.7453552569
 21
4.0551247044
  0
LINE
  5
268
100
AcDbEntity
  8
LAYER_CUT_FEAT
100
AcDbLine
 62
7
  6
CONTINUOUS
 10
16.5653552569
 20
6.5905523763
 11
15.3053552569
 21
6.5905523763
  0
LINE
  5
269
100
AcDbEntity
  8
LAYER_CUT_FEAT
100
AcDbLine
 62
7
  6
CONTINUOUS
 10
16.5653552569
 20
6.5930988802
 11
15.3053552569
 21
6.5930988802
  0
LINE
  5
26A
100
AcDbEntity
  8
LAYER_FEATURE
100
AcDbLine
 62
7
  6
CONTINUOUS
 10
16.7453552569
 20
6.8661247044
 11
16.6253552569
 21
6.8661247044
  0
LINE
  5
26B
100
AcDbEntity
  8
LAYER_FEATURE
100
AcDbLine
 62
7
  6
CONTINUOUS
 10
15.2453552569
 20
6.8661247044
 11
15.1253552569
 21
6.8661247044
  0
LINE
  5
26C
100
AcDbEntity
  8
LAYER_FEATURE
100
AcDbLine
 62
7
  6
CONTINUOUS
 10
13.9321947499
 20
12.3812953007
 11
13.9612427087
 21
12.4752945299
  0
LINE
  5
26D
100
AcDbEntity
  8
LAYER_FEATURE
100
AcDbLine
 62
7
  6
CONTINUOUS
 10
14.295294235
 20
13.5562856652
 11
14.3243421938
 21
13.6502848943
  0
LINE
  5
26E
100
AcDbEntity
  8
LAYER_CUT_FEAT
100
AcDbLine
 62
7
  6
CONTINUOUS
 10
14.507318762
 20
13.3777509691
 11
14.3416034783
 21
12.8414961145
  0
LINE
  5
26F
100
AcDbEntity
  8
LAYER_CUT_FEAT
100
AcDbLine
 62
7
  6
CONTINUOUS
 10
14.63375553
 20
13.6100400166
 11
14.4033454351
 21
12.8644326763
  0
LINE
  5
270
100
AcDbEntity
  8
LAYER_CUT_FEAT
100
AcDbLine
 62
7
  6
CONTINUOUS
 10
14.4696189748
 20
12.2152186543
 11
14.4841429542
 21
12.2622182689
  0
LINE
  5
271
100
AcDbEntity
  8
LAYER_CUT_FEAT
100
AcDbLine
 62
7
  6
CONTINUOUS
 10
14.9792787927
 20
13.7708059527
 11
14.7185976353
 21
12.927241418
  0
LINE
  5
272
100
AcDbEntity
  8
02___PRT_ALL_AXES
100
AcDbLine
 62
7
  6
CONTINUOUS
 10
14.3769233708
 20
11.6002654665
 11
14.5584731133
 21
12.1877606487
  0
LINE
  5
273
100
AcDbEntity
  8
LAYER_CUT_FEAT
100
AcDbLine
 62
7
  6
CONTINUOUS
 10
14.8246658713
 20
12.1387850052
 11
14.8719471961
 21
12.0424357953
  0
LINE
  5
274
100
AcDbEntity
  8
LAYER_CUT_FEAT
100
AcDbLine
 62
7
  6
CONTINUOUS
 10
14.8246658713
 20
12.1387850052
 11
14.8603000155
 21
12.0424357953
  0
LINE
  5
275
100
AcDbEntity
  8
LAYER_CUT_FEAT
100
AcDbLine
 62
7
  6
CONTINUOUS
 10
14.9198483311
 20
12.2351342151
 11
14.9948886303
 21
12.0822181629
  0
LINE
  5
276
100
AcDbEntity
  8
LAYER_CUT_FEAT
100
AcDbLine
 62
7
  6
CONTINUOUS
 10
14.8603000155
 20
12.0424357953
 11
14.9911166195
 21
12.0424357953
  0
LINE
  5
277
100
AcDbEntity
  8
LAYER_CUT_FEAT
100
AcDbLine
 62
7
  6
CONTINUOUS
 10
15.0304172386
 20
12.0822181629
 11
14.9948886303
 21
12.0822181629
  0
LINE
  5
278
100
AcDbEntity
  8
LAYER_CUT_FEAT
100
AcDbLine
 62
7
  6
CONTINUOUS
 10
15.0862990792
 20
12.1387850052
 11
15.050664935
 21
12.2351342151
  0
LINE
  5
279
100
AcDbEntity
  8
LAYER_CUT_FEAT
100
AcDbLine
 62
7
  6
CONTINUOUS
 10
15.4612488987
 20
13.7800456818
 11
15.1921918955
 21
12.9093769003
  0
LINE
  5
27A
100
AcDbEntity
  8
LAYER_CUT_FEAT
100
AcDbLine
 62
7
  6
CONTINUOUS
 10
15.6307382338
 20
13.7386058045
 11
15.364393113
 21
12.8767126776
  0
LINE
  5
27B
100
AcDbEntity
  8
LAYER_CUT_FEAT
100
AcDbLine
 62
7
  6
CONTINUOUS
 10
14.9198483311
 20
12.2351342151
 11
14.8246658713
 21
12.1387850052
  0
LINE
  5
27C
100
AcDbEntity
  8
LAYER_CUT_FEAT
100
AcDbLine
 62
7
  6
CONTINUOUS
 10
15.050664935
 20
12.2351342151
 11
14.9198483311
 21
12.2351342151
  0
LINE
  5
27D
100
AcDbEntity
  8
LAYER_CUT_FEAT
100
AcDbLine
 62
7
  6
CONTINUOUS
 10
14.9948886303
 20
12.0822181629
 11
14.9555880111
 21
12.0424357953
  0
LINE
  5
27E
100
AcDbEntity
  8
LAYER_CUT_FEAT
100
AcDbLine
 62
7
  6
CONTINUOUS
 10
14.9911166195
 20
12.0424357953
 11
15.0862990792
 21
12.1387850052
  0
LINE
  5
27F
100
AcDbEntity
  8
LAYER_CUT_FEAT
100
AcDbLine
 62
7
  6
CONTINUOUS
 10
15.9692523049
 20
13.6356424933
 11
15.7026881448
 21
12.7730405549
  0
LINE
  5
280
100
AcDbEntity
  8
LAYER_CUT_FEAT
100
AcDbLine
 62
7
  6
CONTINUOUS
 10
16.1329239544
 20
13.574649649
 11
15.8637826902
 21
12.7037081988
  0
LINE
  5
281
100
AcDbEntity
  8
02___PRT_ALL_AXES
100
AcDbLine
 62
7
  6
CONTINUOUS
 10
15.8100546372
 20
11.1573944093
 11
15.9916043797
 21
11.7448895915
  0
LINE
  5
282
100
AcDbEntity
  8
LAYER_CUT_FEAT
100
AcDbLine
 62
7
  6
CONTINUOUS
 10
16.5295956056
 20
13.2972052951
 11
16.2684782514
 21
12.4522292272
  0
LINE
  5
283
100
AcDbEntity
  8
LAYER_CUT_FEAT
100
AcDbLine
 62
7
  6
CONTINUOUS
 10
16.0804585182
 20
11.717431586
 11
16.0949824976
 21
11.7644312005
  0
LINE
  5
284
100
AcDbEntity
  8
LAYER_CUT_FEAT
100
AcDbLine
 62
7
  6
CONTINUOUS
 10
16.7298804925
 20
12.9698319006
 11
16.4981789633
 21
12.2200454773
  0
LINE
  5
285
100
AcDbEntity
  8
LAYER_CUT_FEAT
100
AcDbLine
 62
7
  6
CONTINUOUS
 10
16.7085437535
 20
12.7054611615
 11
16.54035631
 21
12.1612063948
  0
LINE
  5
286
100
AcDbEntity
  8
LAYER_FEATURE
100
AcDbLine
 62
7
  6
CONTINUOUS
 10
16.6178827431
 20
11.5513549395
 11
16.6469307019
 21
11.6453541687
  0
LINE
  5
287
100
AcDbEntity
  8
LAYER_FEATURE
100
AcDbLine
 62
7
  6
CONTINUOUS
 10
16.9809822282
 20
12.7263453039
 11
17.010030187
 21
12.8203445331
  0
CIRCLE
  5
288
100
AcDbEntity
  8
LAYER_FEATURE
100
AcDbCircle
 62
7
  6
CONTINUOUS
 10
6.1303672762
 20
5.5201198968
 40
1.4055
  0
CIRCLE
  5
289
100
AcDbEntity
  8
LAYER_FEATURE
100
AcDbCircle
 62
7
  6
CONTINUOUS
 10
6.1303672762
 20
5.5201198968
 40
1.2
  0
CIRCLE
  5
28A
100
AcDbEntity
  8
LAYER_CUT_FEAT
100
AcDbCircle
 62
7
  6
CONTINUOUS
 10
6.1303672762
 20
5.5201198968
 40
0.843
  0
CIRCLE
  5
28B
100
AcDbEntity
  8
02___PRT_ALL_AXES
100
AcDbCircle
 62
7
  6
CONTINUOUS
 10
6.1303672762
 20
5.5201198968
 40
0.75
  0
CIRCLE
  5
28C
100
AcDbEntity
  8
LAYER_CHAMFER_FEAT
100
AcDbCircle
 62
7
  6
CONTINUOUS
 10
6.1303672762
 20
5.5201198968
 40
0.43125
  0
CIRCLE
  5
28D
100
AcDbEntity
  8
LAYER_CHAMFER_FEAT
100
AcDbCircle
 62
7
  6
CONTINUOUS
 10
6.1303672762
 20
5.5201198968
 40
0.375
  0
CIRCLE
  5
28E
100
AcDbEntity
  8
02___PRT_ALL_AXES
100
AcDbCircle
 62
7
  6
CONTINUOUS
 10
6.0708720839
 20
11.7900477814
 40
0.246
  0
CIRCLE
  5
28F
100
AcDbEntity
  8
LAYER_FEATURE
100
AcDbCircle
 62
7
  6
CONTINUOUS
 10
6.0708720839
 20
11.7900477814
 40
0.1968
  0
ARC
  5
290
100
AcDbEntity
  8
LAYER_FEATURE
100
AcDbCircle
 62
7
  6
CONTINUOUS
 10
15.2650303311
 20
11.9006509437
 40
1.9071153961
100
AcDbArc
 50
63.8521722265
 51
66.1488021352
  0
ARC
  5
291
100
AcDbEntity
  8
LAYER_FEATURE
100
AcDbCircle
 62
7
  6
CONTINUOUS
 10
15.2480264002
 20
11.9174772198
 40
1.8959510667
100
AcDbArc
 50
79.9129906314
 51
82.2186287169
  0
ARC
  5
292
100
AcDbEntity
  8
LAYER_FEATURE
100
AcDbCircle
 62
7
  6
CONTINUOUS
 10
15.6648725658
 20
12.4771102057
 40
1.202682988
100
AcDbArc
 50
44.6504287001
 51
47.7735963693
  0
ARC
  5
293
100
AcDbEntity
  8
LAYER_FEATURE
100
AcDbCircle
 62
7
  6
CONTINUOUS
 10
15.2378923368
 20
12.6281117813
 40
1.1822723529
100
AcDbArc
 50
98.424794122
 51
101.5838109671
  0
ARC
  5
294
100
AcDbEntity
  8
LAYER_FEATURE
100
AcDbCircle
 62
7
  6
CONTINUOUS
 10
16.2069244028
 20
12.847857918
 40
0.5394756945
100
AcDbArc
 50
14.160476924
 51
19.4909940574
  0
ARC
  5
295
100
AcDbEntity
  8
LAYER_FEATURE
100
AcDbCircle
 62
7
  6
CONTINUOUS
 10
14.9963450181
 20
13.227982217
 40
0.5290480281
100
AcDbArc
 50
127.087833232
 51
132.4881875758
  0
ARC
  5
296
100
AcDbEntity
  8
LAYER_FEATURE
100
AcDbCircle
 62
7
  6
CONTINUOUS
 10
15.0757561844
 20
12.1598156668
 40
0.1287626774
100
AcDbArc
 50
29.1010805868
 51
32.6151390967
  0
ARC
  5
297
100
AcDbEntity
  8
LAYER_FEATURE
100
AcDbCircle
 62
7
  6
CONTINUOUS
 10
14.8652360396
 20
12.056508448
 40
0.1287377271
100
AcDbArc
 50
199.6541593121
 51
202.3042032045
  0
SPLINE
  5
298
100
AcDbEntity
  8
02___PRT_ALL_AXES
100
AcDbSpline
 62
7
  6
CONTINUOUS
 70
0
 71
3
 72
31
 73
27
 74
0
 42
0.0000001
 43
0.0000001
 44
0.0000000001
 40
0.0
 40
0.0
 40
0.0
 40
0.0
 40
0.0100465825
 40
0.0395568416
 40
0.0868380177
 40
0.1495629227
 40
0.1859120785
 40
0.2251365896
 40
0.2668879379
 40
0.3108021053
 40
0.356493811
 40
0.4035522986
 40
0.4515405862
 40
0.5000000002
 40
0.5484594141
 40
0.5964477017
 40
0.6435061894
 40
0.6891978951
 40
0.7331120624
 40
0.7748634107
 40
0.8140879218
 40
0.8504370776
 40
0.9131619825
 40
0.9604431585
 40
0.9899534176
 40
1.0
 40
1.0
 40
1.0
 40
1.0
 10
14.9963552569
 20
6.2106247044
 30
0.0
 10
14.9947608495
 20
6.2101017361
 30
0.0
 10
14.9884778051
 20
6.2080587565
 30
0.0
 10
14.9746391483
 20
6.2037150716
 30
0.0
 10
14.9522656962
 20
6.1971935302
 30
0.0
 10
14.9285920441
 20
6.1910795258
 30
0.0
 10
14.906064705
 20
6.1859663381
 30
0.0
 10
14.886857382
 20
6.1820740261
 30
0.0
 10
14.8663114986
 20
6.1784576257
 30
0.0
 10
14.8446031705
 20
6.1752605523
 30
0.0
 10
14.8219275299
 20
6.1726149579
 30
0.0
 10
14.7985006356
 20
6.1706349937
 30
0.0
 10
14.774558938
 20
6.1694092581
 30
0.0
 10
14.7503552568
 20
6.1689941911
 30
0.0
 10
14.7261515756
 20
6.1694092581
 30
0.0
 10
14.7022098781
 20
6.1706349937
 30
0.0
 10
14.6787829838
 20
6.172614958
 30
0.0
 10
14.6561073431
 20
6.1752605523
 30
0.0
 10
14.6343990151
 20
6.1784576257
 30
0.0
 10
14.6138531317
 20
6.1820740261
 30
0.0
 10
14.5946458087
 20
6.1859663382
 30
0.0
 10
14.5721184697
 20
6.1910795258
 30
0.0
 10
14.5484448176
 20
6.1971935302
 30
0.0
 10
14.5260713655
 20
6.2037150716
 30
0.0
 10
14.5122327088
 20
6.2080587566
 30
0.0
 10
14.5059496643
 20
6.2101017361
 30
0.0
 10
14.5043552569
 20
6.2106247044
 30
0.0
  0
SPLINE
  5
299
100
AcDbEntity
  8
02___PRT_ALL_AXES
100
AcDbSpline
 62
7
  6
CONTINUOUS
 70
0
 71
3
 72
38
 73
34
 74
0
 42
0.0000001
 43
0.0000001
 44
0.0000000001
 40
0.0
 40
0.0
 40
0.0
 40
0.0
 40
0.0393761784
 40
0.0782794587
 40
0.1166799957
 40
0.1545564127
 40
0.191889692
 40
0.2286617399
 40
0.2648564344
 40
0.3004609588
 40
0.3354648959
 40
0.369860905
 40
0.4036443591
 40
0.4368140554
 40
0.4693717825
 40
0.5013229265
 40
0.5326761059
 40
0.5634437136
 40
0.5936415485
 40
0.6232892904
 40
0.6810205252
 40
0.7091725576
 40
0.7368900358
 40
0.7642108742
 40
0.7911765953
 40
0.8178317833
 40
0.8442241119
 40
0.870403766
 40
0.8964232543
 40
0.9223368068
 40
0.9481999397
 40
0.9740689015
 40
1.0
 40
1.0
 40
1.0
 40
1.0
 10
14.8959341597
 20
11.9460865854
 30
0.0
 10
14.8936312113
 20
11.9460865854
 30
0.0
 10
14.8890528402
 20
11.9461304985
 30
0.0
 10
14.882231216
 20
11.946330678
 30
0.0
 10
14.8755026139
 20
11.9466647698
 30
0.0
 10
14.868874019
 20
11.9471325909
 30
0.0
 10
14.8623518183
 20
11.9477339488
 30
0.0
 10
14.855942245
 20
11.9484685705
 30
0.0
 10
14.8496513359
 20
11.9493361909
 30
0.0
 10
14.8434848515
 20
11.9503364311
 30
0.0
 10
14.8374482464
 20
11.9514689356
 30
0.0
 10
14.8315467083
 20
11.9527332637
 30
0.0
 10
14.8257851387
 20
11.9541290022
 30
0.0
 10
14.8201681592
 20
11.9556556631
 30
0.0
 10
14.8147001076
 20
11.9573127964
 30
0.0
 10
14.8093850525
 20
11.9590998905
 30
0.0
 10
14.8042267834
 20
11.9610164868
 30
0.0
 10
14.7992288839
 20
11.9630620478
 30
0.0
 10
14.7943945067
 20
11.9652361959
 30
0.0
 10
14.7882263476
 20
11.9682783772
 30
0.0
 10
14.7823331538
 20
11.9716002896
 30
0.0
 10
14.7767521418
 20
11.9752079748
 30
0.0
 10
14.7727779554
 20
11.9780174655
 30
0.0
 10
14.7689829732
 20
11.9809525762
 30
0.0
 10
14.7653690811
 20
11.9840128329
 30
0.0
 10
14.7619381894
 20
11.9871977314
 30
0.0
 10
14.7586920112
 20
11.990506688
 30
0.0
 10
14.7556322093
 20
11.9939391306
 30
0.0
 10
14.7527602736
 20
11.9974943697
 30
0.0
 10
14.7500776704
 20
12.0011716963
 30
0.0
 10
14.7475856635
 20
12.0049702994
 30
0.0
 10
14.7452855942
 20
12.0088891655
 30
0.0
 10
14.7438834201
 20
12.011576382
 30
0.0
 10
14.7432152935
 20
12.012937884
 30
0.0
  0
SPLINE
  5
29A
100
AcDbEntity
  8
LAYER_CUT_FEAT
100
AcDbSpline
 62
7
  6
CONTINUOUS
 70
0
 71
3
 72
23
 73
19
 74
0
 42
0.0000001
 43
0.0000001
 44
0.0000000001
 40
0.0
 40
0.0
 40
0.0
 40
0.0
 40
0.0692290796
 40
0.1372839673
 40
0.2042057222
 40
0.2700404889
 40
0.3348394599
 40
0.3986607263
 40
0.4615685323
 40
0.5236330959
 40
0.5849306324
 40
0.6455429804
 40
0.7055571831
 40
0.7650650681
 40
0.8241626113
 40
0.8829492325
 40
0.9415270486
 40
1.0
 40
1.0
 40
1.0
 40
1.0
 10
14.4932911007
 20
11.9774694816
 30
0.0
 10
14.4909374711
 20
11.9825948852
 30
0.0
 10
14.4864521988
 20
11.9928436651
 30
0.0
 10
14.4803570858
 20
12.008327344
 30
0.0
 10
14.4749582589
 20
12.0237751597
 30
0.0
 10
14.4702605637
 20
12.0391734758
 30
0.0
 10
14.4662682743
 20
12.0545089379
 30
0.0
 10
14.4629850078
 20
12.0697680695
 30
0.0
 10
14.4604137491
 20
12.0849375077
 30
0.0
 10
14.458556948
 20
12.1000039429
 30
0.0
 10
14.4574163581
 20
12.1149541133
 30
0.0
 10
14.4569931041
 20
12.12977484
 30
0.0
 10
14.4572877419
 20
12.1444530245
 30
0.0
 10
14.4583001083
 20
12.158975674
 30
0.0
 10
14.4600293875
 20
12.1733298678
 30
0.0
 10
14.4624742206
 20
12.1875029665
 30
0.0
 10
14.4656323177
 20
12.2014818748
 30
0.0
 10
14.4682125056
 20
12.2106673233
 30
0.0
 10
14.4696189749
 20
12.2152186542
 30
0.0
  0
SPLINE
  5
29B
100
AcDbEntity
  8
LAYER_CHAMFER_FEAT
100
AcDbSpline
 62
7
  6
CONTINUOUS
 70
0
 71
3
 72
28
 73
24
 74
0
 42
0.0000001
 43
0.0000001
 44
0.0000000001
 40
0.0
 40
0.0
 40
0.0
 40
0.0
 40
0.0739466903
 40
0.1460971176
 40
0.2164555449
 40
0.2850408898
 40
0.3518876606
 40
0.4170469197
 40
0.4805872163
 40
0.5425953953
 40
0.6031770258
 40
0.6624565598
 40
0.7205770933
 40
0.7492568168
 40
0.7777085641
 40
0.8059550324
 40
0.83401974
 40
0.8619270675
 40
0.8897021046
 40
0.9173705276
 40
0.9449585564
 40
0.9724927654
 40
1.0
 40
1.0
 40
1.0
 40
1.0
 10
14.873960719
 20
11.6397377419
 30
0.0
 10
14.8699351416
 20
11.6385051532
 30
0.0
 10
14.8620302779
 20
11.6359074618
 30
0.0
 10
14.8504965412
 20
11.6315555055
 30
0.0
 10
14.8394526575
 20
11.626803715
 30
0.0
 10
14.8289199707
 20
11.6216610768
 30
0.0
 10
14.8189185549
 20
11.6161371795
 30
0.0
 10
14.8094676065
 20
11.6102423288
 30
0.0
 10
14.8005853054
 20
11.6039874951
 30
0.0
 10
14.7922888145
 20
11.5973843898
 30
0.0
 10
14.784594196
 20
11.5904452793
 30
0.0
 10
14.7775167118
 20
11.5831834676
 30
0.0
 10
14.7721203558
 20
11.5768456154
 30
0.0
 10
14.7681339427
 20
11.5716322137
 30
0.0
 10
14.7653194153
 20
11.5676677459
 30
0.0
 10
14.7626685741
 20
11.5636338815
 30
0.0
 10
14.7601827136
 20
11.5595324683
 30
0.0
 10
14.7578630355
 20
11.5553655045
 30
0.0
 10
14.7557106297
 20
11.5511350047
 30
0.0
 10
14.7537266148
 20
11.546842978
 30
0.0
 10
14.7519118811
 20
11.5424915024
 30
0.0
 10
14.7502673583
 20
11.5380827502
 30
0.0
 10
14.7492848116
 20
11.5351061094
 30
0.0
 10
14.7488224287
 20
11.5336098376
 30
0.0
  0
SPLINE
  5
29C
100
AcDbEntity
  8
LAYER_CHAMFER_FEAT
100
AcDbSpline
 62
7
  6
CONTINUOUS
 70
0
 71
3
 72
28
 73
24
 74
0
 42
0.0000001
 43
0.0000001
 44
0.0000000001
 40
0.0
 40
0.0
 40
0.0
 40
0.0
 40
0.0739369536
 40
0.1460786831
 40
0.2164295894
 40
0.2850087126
 40
0.351850667
 40
0.4170065947
 40
0.4805450881
 40
0.5425530043
 40
0.6031358931
 40
0.6624181475
 40
0.7205427587
 40
0.7492249798
 40
0.7776795088
 40
0.8059290162
 40
0.8339969927
 40
0.8619077932
 40
0.889686474
 40
0.9173586806
 40
0.9449505992
 40
0.9724887688
 40
1.0
 40
1.0
 40
1.0
 40
1.0
 10
15.42203498
 20
11.4702812765
 30
0.0
 10
15.4246590745
 20
11.4669945226
 30
0.0
 10
15.4297119486
 20
11.4603942389
 30
0.0
 10
15.4367677437
 20
11.4503007821
 30
0.0
 10
15.4431943051
 20
11.4401538376
 30
0.0
 10
15.4489791192
 20
11.4299728256
 30
0.0
 10
15.4541110583
 20
11.4197769469
 30
0.0
 10
15.4585801214
 20
11.4095854987
 30
0.0
 10
15.4623775144
 20
11.3994177521
 30
0.0
 10
15.4654956986
 20
11.3892930168
 30
0.0
 10
15.4679283562
 20
11.3792304404
 30
0.0
 10
15.4696704122
 20
11.3692495744
 30
0.0
 10
15.4705472993
 20
11.3609787502
 30
0.0
 10
15.4708955666
 20
11.3544304114
 30
0.0
 10
15.47098161
 20
11.3495730404
 30
0.0
 10
15.4708936105
 20
11.3447506808
 30
0.0
 10
15.4706315382
 20
11.3399655835
 30
0.0
 10
15.4701955364
 20
11.3352200707
 30
0.0
 10
15.4695858344
 20
11.330516416
 30
0.0
 10
15.4688026446
 20
11.3258569041
 30
0.0
 10
15.4678464064
 20
11.3212437472
 30
0.0
 10
15.4667175702
 20
11.3166792598
 30
0.0
 10
15.4658500825
 20
11.3136694843
 30
0.0
 10
15.4653880406
 20
11.3121743156
 30
0.0
  0
SPLINE
  5
29D
100
AcDbEntity
  8
LAYER_FEATURE
100
AcDbSpline
 62
7
  6
CONTINUOUS
 70
0
 71
3
 72
48
 73
44
 74
0
 42
0.0000001
 43
0.0000001
 44
0.0000000001
 40
0.0
 40
0.0
 40
0.0
 40
0.0
 40
0.0125939765
 40
0.0251944603
 40
0.0378079405
 40
0.0504408756
 40
0.0630996727
 40
0.0757906736
 40
0.0885201431
 40
0.1012942446
 40
0.1141190391
 40
0.127000461
 40
0.1399443092
 40
0.1529562439
 40
0.1660417575
 40
0.1792061874
 40
0.2057901848
 40
0.2327494369
 40
0.2463821024
 40
0.2601218017
 40
0.2879362624
 40
0.3162241754
 40
0.3305548048
 40
0.3450133204
 40
0.3743233136
 40
0.4041753796
 40
0.4345859488
 40
0.4655683758
 40
0.4971330498
 40
0.5292875088
 40
0.5620365659
 40
0.5953824461
 40
0.6293249173
 40
0.6638614178
 40
0.698987175
 40
0.7346953339
 40
0.7709770803
 40
0.8078217547
 40
0.8452169599
 40
0.88314866
 40
0.9216012889
 40
0.9605578484
 40
1.0
 40
1.0
 40
1.0
 40
1.0
 10
13.9321947561
 20
12.3812952988
 30
0.0
 10
13.9309372242
 20
12.3772259359
 30
0.0
 10
13.9285342886
 20
12.3690497614
 30
0.0
 10
13.9252699712
 20
12.3566853442
 30
0.0
 10
13.9223460445
 20
12.3442224045
 30
0.0
 10
13.9197633555
 20
12.3316642058
 30
0.0
 10
13.9175225021
 20
12.3190139062
 30
0.0
 10
13.9156240427
 20
12.3062747173
 30
0.0
 10
13.9140685054
 20
12.2934498566
 30
0.0
 10
13.9128562006
 20
12.28054258
 30
0.0
 10
13.9119874948
 20
12.2675561469
 30
0.0
 10
13.9114625692
 20
12.2544938487
 30
0.0
 10
13.9112815284
 20
12.2413589813
 30
0.0
 10
13.911444468
 20
12.2281548916
 30
0.0
 10
13.9119512734
 20
12.2148848235
 30
0.0
 10
13.9130889749
 20
12.1970512006
 30
0.0
 10
13.9153796701
 20
12.1745974147
 30
0.0
 10
13.9187939675
 20
12.1521273512
 30
0.0
 10
13.9222000846
 20
12.134069564
 30
0.0
 10
13.9260895154
 20
12.1158137875
 30
0.0
 10
13.9318145379
 20
12.092888749
 30
0.0
 10
13.9386157291
 20
12.0700517351
 30
0.0
 10
13.9447196981
 20
12.0517376537
 30
0.0
 10
13.9513271961
 20
12.0332316632
 30
0.0
 10
13.9604345325
 20
12.0100507025
 30
0.0
 10
13.9726392887
 20
11.9823165824
 30
0.0
 10
13.9861568474
 20
11.954567694
 30
0.0
 10
14.0009733134
 20
11.9268321926
 30
0.0
 10
14.0170736818
 20
11.8991377968
 30
0.0
 10
14.0344416266
 20
11.8715123006
 30
0.0
 10
14.0530595691
 20
11.8439833956
 30
0.0
 10
14.0729086965
 20
11.8165786972
 30
0.0
 10
14.0939689773
 20
11.789325702
 30
0.0
 10
14.1162191791
 20
11.7622517703
 30
0.0
 10
14.1396368664
 20
11.7353840827
 30
0.0
 10
14.1641984339
 20
11.7087496217
 30
0.0
 10
14.1898791371
 20
11.6823751473
 30
0.0
 10
14.216653112
 20
11.6562871696
 30
0.0
 10
14.2444934031
 20
11.6305119194
 30
0.0
 10
14.2733719501
 20
11.6050753213
 30
0.0
 10
14.3032597205
 20
11.5800029194
 30
0.0
 10
14.3341264077
 20
11.5553200901
 30
0.0
 10
14.3552095427
 20
11.5392376975
 30
0.0
 10
14.3659045098
 20
11.5312657628
 30
0.0
  0
SPLINE
  5
29E
100
AcDbEntity
  8
LAYER_FEATURE
100
AcDbSpline
 62
7
  6
CONTINUOUS
 70
0
 71
3
 72
34
 73
30
 74
0
 42
0.0000001
 43
0.0000001
 44
0.0000000001
 40
0.0
 40
0.0
 40
0.0
 40
0.0
 40
0.0281885822
 40
0.0563982989
 40
0.0846502038
 40
0.1129651997
 40
0.1413639508
 40
0.1698668276
 40
0.1984938129
 40
0.2272644683
 40
0.2561978343
 40
0.2853124201
 40
0.314626103
 40
0.3441561377
 40
0.3739190621
 40
0.4039307192
 40
0.4342061772
 40
0.4647597551
 40
0.4956049652
 40
0.5267545328
 40
0.5900080027
 40
0.6546116402
 40
0.7206381083
 40
0.7881474211
 40
0.8224757177
 40
0.8571916159
 40
0.8922992817
 40
0.9278021229
 40
1.0
 40
1.0
 40
1.0
 40
1.0
 10
14.2952942412
 20
13.5562856633
 30
0.0
 10
14.2937791596
 20
13.5513828716
 30
0.0
 10
14.2909115678
 20
13.5415221582
 30
0.0
 10
14.2871042777
 20
13.5265870484
 30
0.0
 10
14.2837916599
 20
13.5115107576
 30
0.0
 10
14.2809750533
 20
13.496299045
 30
0.0
 10
14.27865539
 20
13.480957469
 30
0.0
 10
14.2768336024
 20
13.4654916836
 30
0.0
 10
14.2755102447
 20
13.4499073877
 30
0.0
 10
14.2746858895
 20
13.4342103102
 30
0.0
 10
14.2743607092
 20
13.4184062272
 30
0.0
 10
14.2745349098
 20
13.4025009477
 30
0.0
 10
14.2752082951
 20
13.3865003107
 30
0.0
 10
14.2763806942
 20
13.3704101967
 30
0.0
 10
14.2780515567
 20
13.3542364992
 30
0.0
 10
14.2802203261
 20
13.3379851614
 30
0.0
 10
14.2828861116
 20
13.3216621179
 30
0.0
 10
14.2860479576
 20
13.3052733925
 30
0.0
 10
14.289704677
 20
13.2888248433
 30
0.0
 10
14.2952663038
 20
13.2667104188
 30
0.0
 10
14.3034704478
 20
13.2389356508
 30
0.0
 10
14.3152188136
 20
13.2056373013
 30
0.0
 10
14.3289028314
 20
13.1722485067
 30
0.0
 10
14.3418294917
 20
13.1445454917
 30
0.0
 10
14.3531006564
 20
13.1223870068
 30
0.0
 10
14.3620717282
 20
13.1056816444
 30
0.0
 10
14.3715096842
 20
13.0889895036
 30
0.0
 10
14.3847848163
 20
13.0666354199
 30
0.0
 10
14.3953241136
 20
13.0500942506
 30
0.0
 10
14.4026034726
 20
13.0391510438
 30
0.0
  0
SPLINE
  5
29F
100
AcDbEntity
  8
LAYER_FEATURE
100
AcDbSpline
 62
7
  6
CONTINUOUS
 70
0
 71
3
 72
50
 73
46
 74
0
 42
0.0000001
 43
0.0000001
 44
0.0000000001
 40
0.0
 40
0.0
 40
0.0
 40
0.0
 40
0.0125945503
 40
0.025195605
 40
0.0378096533
 40
0.0504431488
 40
0.0631024987
 40
0.0757940433
 40
0.0885240413
 40
0.1012986613
 40
0.1141239552
 40
0.12700586
 40
0.1399501746
 40
0.1529625492
 40
0.1660484874
 40
0.1792133139
 40
0.1924621905
 40
0.2058000937
 40
0.2192318066
 40
0.2327619332
 40
0.2463948629
 40
0.260134796
 40
0.2879496396
 40
0.3162378186
 40
0.3305685294
 40
0.3450271052
 40
0.3743371123
 40
0.4041890706
 40
0.4345994191
 40
0.4655815156
 40
0.4971457471
 40
0.529299657
 40
0.5620480719
 40
0.5953932302
 40
0.6293349044
 40
0.6638705354
 40
0.6989953631
 40
0.7347025496
 40
0.770983295
 40
0.8078269441
 40
0.8452211119
 40
0.883151767
 40
0.9216033745
 40
0.9605589882
 40
1.0
 40
1.0
 40
1.0
 40
1.0
 10
16.6178827369
 20
11.5513549414
 30
0.0
 10
16.6166254355
 20
11.5472863246
 30
0.0
 10
16.6139971754
 20
11.5391814179
 30
0.0
 10
16.6097176504
 20
11.5271331736
 30
0.0
 10
16.6051015469
 20
11.5151956077
 30
0.0
 10
16.6001501458
 20
11.5033718364
 30
0.0
 10
16.5948646309
 20
11.4916648438
 30
0.0
 10
16.5892463758
 20
11.4800775891
 30
0.0
 10
16.5832968244
 20
11.4686129882
 30
0.0
 10
16.5770174321
 20
11.4572739707
 30
0.0
 10
16.570409862
 20
11.4460633623
 30
0.0
 10
16.5634757411
 20
11.4349840235
 30
0.0
 10
16.5562168446
 20
11.4240387434
 30
0.0
 10
16.5486350416
 20
11.4132302629
 30
0.0
 10
16.5407321997
 20
11.4025613494
 30
0.0
 10
16.5325103835
 20
11.3920346465
 30
0.0
 10
16.5239716391
 20
11.3816528352
 30
0.0
 10
16.5151181344
 20
11.3714185309
 30
0.0
 10
16.5059521394
 20
11.3613342757
 30
0.0
 10
16.4964759383
 20
11.3514026713
 30
0.0
 10
16.4866919203
 20
11.3416261151
 30
0.0
 10
16.4731852104
 20
11.3287490634
 30
0.0
 10
16.4555298333
 20
11.3130525265
 30
0.0
 10
16.4370358249
 20
11.2980355945
 30
0.0
 10
16.4216683087
 20
11.2863591977
 30
0.0
 10
16.4057769448
 20
11.2748084164
 30
0.0
 10
16.3851855348
 20
11.2608080689
 30
0.0
 10
16.3594694592
 20
11.244795756
 30
0.0
 10
16.3326614482
 20
11.2295115881
 30
0.0
 10
16.3047888379
 20
11.2149709734
 30
0.0
 10
16.2758796515
 20
11.2011883072
 30
0.0
 10
16.2459630301
 20
11.1881773207
 30
0.0
 10
16.2150690817
 20
11.1759509672
 30
0.0
 10
16.1832288923
 20
11.1645214413
 30
0.0
 10
16.1504744985
 20
11.1539001341
 30
0.0
 10
16.1168388538
 20
11.1440976373
 30
0.0
 10
16.0823557921
 20
11.1351237387
 30
0.0
 10
16.0470599961
 20
11.1269874086
 30
0.0
 10
16.0109869685
 20
11.1196967905
 30
0.0
 10
15.9741730019
 20
11.1132591658
 30
0.0
 10
15.9366551337
 20
11.1076809754
 30
0.0
 10
15.8984711286
 20
11.1029678011
 30
0.0
 10
15.8596593262
 20
11.0991243651
 30
0.0
 10
15.8202591161
 20
11.0961545507
 30
0.0
 10
15.7937853862
 20
11.094767369
 30
0.0
 10
15.780460975
 20
11.0942174621
 30
0.0
  0
SPLINE
  5
2A0
100
AcDbEntity
  8
LAYER_FEATURE
100
AcDbSpline
 62
7
  6
CONTINUOUS
 70
0
 71
3
 72
31
 73
27
 74
0
 42
0.0000001
 43
0.0000001
 44
0.0000000001
 40
0.0
 40
0.0
 40
0.0
 40
0.0
 40
0.0282015403
 40
0.0564241117
 40
0.0846886691
 40
0.1130160108
 40
0.1414267103
 40
0.1699410334
 40
0.1985788857
 40
0.2273597244
 40
0.2563025296
 40
0.2854257091
 40
0.3147470969
 40
0.3442838532
 40
0.3740524877
 40
0.4040687606
 40
0.434347723
 40
0.4649036285
 40
0.5268935609
 40
0.5901431261
 40
0.6547377955
 40
0.7207502347
 40
0.7882405459
 40
0.8572566509
 40
0.9278347756
 40
1.0
 40
1.0
 40
1.0
 40
1.0
 10
16.980982222
 20
12.7263453059
 30
0.0
 10
16.9794711649
 20
12.7214555377
 30
0.0
 10
16.9762846242
 20
12.7117219605
 30
0.0
 10
16.9710181818
 20
12.6972805527
 30
0.0
 10
16.9652662135
 20
12.6830007783
 30
0.0
 10
16.9590309139
 20
12.6688880729
 30
0.0
 10
16.9523145286
 20
12.6549475592
 30
0.0
 10
16.9451195804
 20
12.6411843271
 30
0.0
 10
16.9374486583
 20
12.6276034352
 30
0.0
 10
16.9293046552
 20
12.6142098033
 30
0.0
 10
16.9206904909
 20
12.6010083678
 30
0.0
 10
16.9116094161
 20
12.5880038859
 30
0.0
 10
16.9020646837
 20
12.5752011574
 30
0.0
 10
16.8920598866
 20
12.5626047782
 30
0.0
 10
16.8815986076
 20
12.5502193922
 30
0.0
 10
16.8706847904
 20
12.5380494588
 30
0.0
 10
16.8593222541
 20
12.5260993677
 30
0.0
 10
16.8435050039
 20
12.5103906428
 30
0.0
 10
16.8226063666
 20
12.4913245607
 30
0.0
 10
16.7959258765
 20
12.4695056565
 30
0.0
 10
16.7675617238
 20
12.448667869
 30
0.0
 10
16.7375560732
 20
12.4288415066
 30
0.0
 10
16.7059527185
 20
12.410054728
 30
0.0
 10
16.6727976262
 20
12.3923343072
 30
0.0
 10
16.6381397972
 20
12.3757058308
 30
0.0
 10
16.6143308236
 20
12.3654776342
 30
0.0
 10
16.6021985026
 20
12.3605461017
 30
0.0
  0
SPLINE
  5
2A1
100
AcDbEntity
  8
LAYER_CUT_FEAT
100
AcDbSpline
 62
7
  6
CONTINUOUS
 70
0
 71
3
 72
23
 73
19
 74
0
 42
0.0000001
 43
0.0000001
 44
0.0000000001
 40
0.0
 40
0.0
 40
0.0
 40
0.0
 40
0.0584728563
 40
0.117050583
 40
0.1758371243
 40
0.234934604
 40
0.2944424475
 40
0.3544566308
 40
0.4150689895
 40
0.4763665736
 40
0.5384312144
 40
0.6013391306
 40
0.665160579
 40
0.7299597499
 40
0.7957946404
 40
0.8627169569
 40
0.9307722577
 40
1.0
 40
1.0
 40
1.0
 40
1.0
 10
16.0804585181
 20
11.717431586
 30
0.0
 10
16.0790520115
 20
11.7128801343
 30
0.0
 10
16.0760001203
 20
11.7038401876
 30
0.0
 10
16.070720959
 20
11.6905163419
 30
0.0
 10
16.0647433025
 20
11.6774345735
 30
0.0
 10
16.0580726356
 20
11.6646069924
 30
0.0
 10
16.0507149654
 20
11.6520448045
 30
0.0
 10
16.0426769206
 20
11.6397591312
 30
0.0
 10
16.0339656873
 20
11.6277607989
 30
0.0
 10
16.0245891134
 20
11.6160603118
 30
0.0
 10
16.0145555751
 20
11.6046679087
 30
0.0
 10
16.0038739923
 20
11.5935935565
 30
0.0
 10
15.992553896
 20
11.5828468673
 30
0.0
 10
15.9806053081
 20
11.5724371862
 30
0.0
 10
15.9680387951
 20
11.5623735806
 30
0.0
 10
15.9548654105
 20
11.5526647036
 30
0.0
 10
15.9410969893
 20
11.5433191225
 30
0.0
 10
15.9316113423
 20
11.5373875948
 30
0.0
 10
15.9267763596
 20
11.5344836599
 30
0.0
  0
SPLINE
  5
2A2
100
AcDbEntity
  8
02___PRT_ALL_AXES
100
AcDbSpline
 62
7
  6
CONTINUOUS
 70
0
 71
3
 72
59
 73
55
 74
0
 42
0.0000001
 43
0.0000001
 44
0.0000000001
 40
0.0
 40
0.0
 40
0.0
 40
0.0
 40
0.0142192893
 40
0.0284026949
 40
0.0425525689
 40
0.0566715701
 40
0.0707627434
 40
0.0848295372
 40
0.098875848
 40
0.1129060369
 40
0.1269249606
 40
0.1409379773
 40
0.1549509522
 40
0.1689702421
 40
0.1830026511
 40
0.1970554348
 40
0.2111361925
 40
0.2252528597
 40
0.2394135574
 40
0.2536265782
 40
0.2679002437
 40
0.2822428043
 40
0.296662379
 40
0.311166766
 40
0.3257634725
 40
0.3404594916
 40
0.3552613149
 40
0.3701748113
 40
0.385205172
 40
0.400356901
 40
0.4310338472
 40
0.4622308616
 40
0.4780290271
 40
0.4939586936
 40
0.5100186695
 40
0.5262069462
 40
0.55895332
 40
0.5921689926
 40
0.6258092836
 40
0.6598172524
 40
0.6941240471
 40
0.7286492356
 40
0.7633013616
 40
0.7979787054
 40
0.8325705104
 40
0.8669586248
 40
0.8840386748
 40
0.901021306
 40
0.917890812
 40
0.9346314672
 40
0.9512275352
 40
0.9676641409
 40
0.9839271051
 40
1.0
 40
1.0
 40
1.0
 40
1.0
 10
15.1848992666
 20
12.2296848966
 30
0.0
 10
15.1859091477
 20
12.2276269718
 30
0.0
 10
15.1878434212
 20
12.2234749975
 30
0.0
 10
15.1904849331
 20
12.217141868
 30
0.0
 10
15.1928581869
 20
12.2107204889
 30
0.0
 10
15.1949585859
 20
12.2042203844
 30
0.0
 10
15.1967818258
 20
12.1976510205
 30
0.0
 10
15.198323821
 20
12.1910220149
 30
0.0
 10
15.199580879
 20
12.1843430956
 30
0.0
 10
15.2005494988
 20
12.1776240563
 30
0.0
 10
15.2012267547
 20
12.1708747915
 30
0.0
 10
15.2016099233
 20
12.1641052165
 30
0.0
 10
15.2016969495
 20
12.1573252838
 30
0.0
 10
15.2014861285
 20
12.1505449235
 30
0.0
 10
15.2009763556
 20
12.1437740193
 30
0.0
 10
15.2001671493
 20
12.1370223537
 30
0.0
 10
15.1990584617
 20
12.1302995905
 30
0.0
 10
15.1976511206
 20
12.1236151742
 30
0.0
 10
15.195946296
 20
12.1169783685
 30
0.0
 10
15.1939460619
 20
12.1103981042
 30
0.0
 10
15.1916529538
 20
12.103883027
 30
0.0
 10
15.1890701766
 20
12.0974414121
 30
0.0
 10
15.1862016317
 20
12.0910810935
 30
0.0
 10
15.183051592
 20
12.0848095586
 30
0.0
 10
15.1796251407
 20
12.0786337132
 30
0.0
 10
15.1759275959
 20
12.0725601206
 30
0.0
 10
15.171964947
 20
12.066594739
 30
0.0
 10
15.1677434899
 20
12.0607431305
 30
0.0
 10
15.1632698327
 20
12.0550102748
 30
0.0
 10
15.1569527619
 20
12.0475006736
 30
0.0
 10
15.1484520463
 20
12.038433927
 30
0.0
 10
15.1392844306
 20
12.0298907216
 30
0.0
 10
15.1315428496
 20
12.0233329814
 30
0.0
 10
15.1255131344
 20
12.0185356178
 30
0.0
 10
15.1192930001
 20
12.0138822594
 30
0.0
 10
15.1107244349
 20
12.0078493934
 30
0.0
 10
15.0995784932
 20
12.0006830296
 30
0.0
 10
15.0856295724
 20
11.9927154821
 30
0.0
 10
15.0711234749
 20
11.9853540892
 30
0.0
 10
15.0561300722
 20
11.9786052318
 30
0.0
 10
15.040720381
 20
11.9724744088
 30
0.0
 10
15.0249674145
 20
11.9669669688
 30
0.0
 10
15.0089463938
 20
11.9620882639
 30
0.0
 10
14.9927349046
 20
11.9578437287
 30
0.0
 10
14.9764131532
 20
11.9542388793
 30
0.0
 10
14.9627572846
 20
11.9517666998
 30
0.0
 10
14.951845883
 20
11.950114113
 30
0.0
 10
14.9437047615
 20
11.9490408914
 30
0.0
 10
14.9355987802
 20
11.948131658
 30
0.0
 10
14.9275386032
 20
11.9473868916
 30
0.0
 10
14.9195348585
 20
11.9468069585
 30
0.0
 10
14.9115979479
 20
11.9463921844
 30
0.0
 10
14.9037385269
 20
11.9461428372
 30
0.0
 10
14.8985253484
 20
11.9460865854
 30
0.0
 10
14.8959341597
 20
11.9460865854
 30
0.0
  0
SPLINE
  5
2A3
100
AcDbEntity
  8
LAYER_FEATURE
100
AcDbSpline
 62
7
  6
CONTINUOUS
 70
0
 71
3
 72
81
 73
77
 74
0
 42
0.0000001
 43
0.0000001
 44
0.0000000001
 40
0.0
 40
0.0
 40
0.0
 40
0.0
 40
0.0171785929
 40
0.0345301672
 40
0.0520439373
 40
0.0697094984
 40
0.0875156737
 40
0.1054511118
 40
0.1235041404
 40
0.1416628287
 40
0.1599150211
 40
0.1782483592
 40
0.1966503124
 40
0.215108205
 40
0.2336092439
 40
0.252140547
 40
0.2706891691
 40
0.2892421289
 40
0.307786436
 40
0.3263091185
 40
0.344797249
 40
0.3632379718
 40
0.3816185298
 40
0.3999262924
 40
0.4181487836
 40
0.4362737087
 40
0.4542889833
 40
0.4721827612
 40
0.4899434659
 40
0.5075598198
 40
0.5250208747
 40
0.5423160427
 40
0.5594351288
 40
0.576368367
 40
0.593106454
 40
0.6096405842
 40
0.6259624872
 40
0.6420644667
 40
0.6579394439
 40
0.6735809991
 40
0.688983415
 40
0.7041417225
 40
0.7190517502
 40
0.7337101771
 40
0.748114585
 40
0.7622635114
 40
0.7761565056
 40
0.789794187
 40
0.8031783061
 40
0.8163118027
 40
0.8291988611
 40
0.8418449655
 40
0.8542569513
 40
0.8603780115
 40
0.8664437512
 40
0.8784136356
 40
0.8901784279
 40
0.8959881948
 40
0.9017515357
 40
0.9131453779
 40
0.9187806054
 40
0.924377145
 40
0.9299371465
 40
0.9354628384
 40
0.940956532
 40
0.9464206072
 40
0.9518575181
 40
0.9572697828
 40
0.9626599783
 40
0.9680307398
 40
0.973384748
 40
0.978724729
 40
0.9840534438
 40
0.9893736827
 40
0.994688259
 40
1.0
 40
1.0
 40
1.0
 40
1.0
 10
15.2384498469
 20
14.1089875241
 30
0.0
 10
15.2524506911
 20
14.1089875241
 30
0.0
 10
15.280594261
 20
14.1086794508
 30
0.0
 10
15.3229918488
 20
14.1073106148
 30
0.0
 10
15.3657479696
 20
14.1050339874
 30
0.0
 10
15.4088176513
 20
14.1018520376
 30
0.0
 10
15.452156321
 20
14.0977680133
 30
0.0
 10
15.4957187836
 20
14.0927861881
 30
0.0
 10
15.5394597247
 20
14.0869117471
 30
0.0
 10
15.5833336134
 20
14.0801508098
 30
0.0
 10
15.627294783
 20
14.0725104151
 30
0.0
 10
15.6712974751
 20
14.0639985125
 30
0.0
 10
15.7152958847
 20
14.0546239556
 30
0.0
 10
15.7592442124
 20
14.0443965091
 30
0.0
 10
15.8030967101
 20
14.0333268231
 30
0.0
 10
15.8468077285
 20
14.0214264209
 30
0.0
 10
15.8903317645
 20
14.0087076881
 30
0.0
 10
15.9336235074
 20
13.9951838577
 30
0.0
 10
15.9766378921
 20
13.9808690138
 30
0.0
 10
16.0193301422
 20
13.9657780618
 30
0.0
 10
16.0616558161
 20
13.9499267112
 30
0.0
 10
16.1035708529
 20
13.9333314607
 30
0.0
 10
16.1450316173
 20
13.9160095787
 30
0.0
 10
16.185994953
 20
13.897979101
 30
0.0
 10
16.2264182227
 20
13.8792587995
 30
0.0
 10
16.2662593507
 20
13.8598681596
 30
0.0
 10
16.3054768664
 20
13.8398273616
 30
0.0
 10
16.3440299469
 20
13.8191572566
 30
0.0
 10
16.3818784689
 20
13.7978793604
 30
0.0
 10
16.4189830448
 20
13.7760158188
 30
0.0
 10
16.4553050604
 20
13.7535893815
 30
0.0
 10
16.4908067154
 20
13.7306233799
 30
0.0
 10
16.5254510612
 20
13.7071416994
 30
0.0
 10
16.5592020509
 20
13.683168769
 30
0.0
 10
16.5920245707
 20
13.6587295244
 30
0.0
 10
16.623884471
 20
13.6338493785
 30
0.0
 10
16.6547486018
 20
13.6085541969
 30
0.0
 10
16.684584846
 20
13.5828702667
 30
0.0
 10
16.7133621654
 20
13.5568242818
 30
0.0
 10
16.7410506253
 20
13.5304433056
 30
0.0
 10
16.7676214191
 20
13.5037547385
 30
0.0
 10
16.7930468967
 20
13.4767862914
 30
0.0
 10
16.8173005904
 20
13.4495659522
 30
0.0
 10
16.8403572569
 20
13.4221219687
 30
0.0
 10
16.862192894
 20
13.3944828108
 30
0.0
 10
16.8827847545
 20
13.3666771374
 30
0.0
 10
16.902111369
 20
13.3387337689
 30
0.0
 10
16.9201525607
 20
13.3106816575
 30
0.0
 10
16.9368894854
 20
13.2825498572
 30
0.0
 10
16.9523046247
 20
13.2543675321
 30
0.0
 10
16.9663818471
 20
13.2261637707
 30
0.0
 10
16.9791062121
 20
13.1979681276
 30
0.0
 10
16.9886150619
 20
13.1743942036
 30
0.0
 10
16.9955223766
 20
13.155571817
 30
0.0
 10
17.0019081587
 20
13.1369467117
 30
0.0
 10
17.0090356125
 20
13.1137194394
 30
0.0
 10
17.0150546969
 20
13.0903952678
 30
0.0
 10
17.0191568152
 20
13.0718204234
 30
0.0
 10
17.0227585079
 20
13.0534503784
 30
0.0
 10
17.0256743958
 20
13.0350954454
 30
0.0
 10
17.0278840338
 20
13.0167865483
 30
0.0
 10
17.0291808541
 20
13.0031609907
 30
0.0
 10
17.0301228355
 20
12.9895958777
 30
0.0
 10
17.0307096907
 20
12.976094611
 30
0.0
 10
17.0309413265
 20
12.9626607551
 30
0.0
 10
17.0308176022
 20
12.9492978052
 30
0.0
 10
17.0303385783
 20
12.9360092569
 30
0.0
 10
17.02950438
 20
12.9227985797
 30
0.0
 10
17.0283151612
 20
12.9096692319
 30
0.0
 10
17.0267713036
 20
12.8966246398
 30
0.0
 10
17.0248731303
 20
12.8836682233
 30
0.0
 10
17.022621172
 20
12.870803366
 30
0.0
 10
17.0200160228
 20
12.8580334401
 30
0.0
 10
17.0170582964
 20
12.8453617653
 30
0.0
 10
17.0137488804
 20
12.8327917699
 30
0.0
 10
17.011308357
 20
12.8244807026
 30
0.0
 10
17.0100301808
 20
12.820344535
 30
0.0
  0
SPLINE
  5
2A4
100
AcDbEntity
  8
02___PRT_ALL_AXES
100
AcDbSpline
 62
7
  6
CONTINUOUS
 70
0
 71
3
 72
77
 73
73
 74
0
 42
0.0000001
 43
0.0000001
 44
0.0000000001
 40
0.0
 40
0.0
 40
0.0
 40
0.0
 40
0.0053117602
 40
0.0106263555
 40
0.0159466137
 40
0.0212753476
 40
0.0266153477
 40
0.0319693755
 40
0.0373401558
 40
0.0427303714
 40
0.048142655
 40
0.0535795856
 40
0.0645364322
 40
0.0756212373
 40
0.0868521527
 40
0.098246036
 40
0.1098183688
 40
0.1215832031
 40
0.1335531308
 40
0.1396188921
 40
0.1457399754
 40
0.158152006
 40
0.170798155
 40
0.1836852591
 40
0.1968188033
 40
0.2102029715
 40
0.2238407021
 40
0.2377337453
 40
0.251882722
 40
0.2662871821
 40
0.2809456627
 40
0.2958557442
 40
0.3110141054
 40
0.3264165761
 40
0.3420581879
 40
0.3579332231
 40
0.3740352608
 40
0.3903572218
 40
0.4068914111
 40
0.4236295586
 40
0.4405628585
 40
0.4576820065
 40
0.4749772361
 40
0.4924383535
 40
0.5100547711
 40
0.5278155402
 40
0.5457093826
 40
0.5637247216
 40
0.5818497118
 40
0.6000722686
 40
0.6183800974
 40
0.6367607216
 40
0.6552015105
 40
0.6736897075
 40
0.6922124567
 40
0.7107568306
 40
0.7293098571
 40
0.7478585459
 40
0.7663899158
 40
0.7848910214
 40
0.8033489802
 40
0.8217509994
 40
0.8400844036
 40
0.858336662
 40
0.8764954161
 40
0.8945485086
 40
0.9124840112
 40
0.9302902552
 40
0.9479558578
 40
0.9654697636
 40
0.9828212462
 40
1.0
 40
1.0
 40
1.0
 40
1.0
 10
14.3769233718
 20
11.6002654662
 30
0.0
 10
14.3762413168
 20
11.5980583321
 30
0.0
 10
14.3749390115
 20
11.5936233972
 30
0.0
 10
14.3731730386
 20
11.5869158246
 30
0.0
 10
14.3715947529
 20
11.5801539893
 30
0.0
 10
14.3702045921
 20
11.5733397294
 30
0.0
 10
14.3690029059
 20
11.5664748106
 30
0.0
 10
14.3679900151
 20
11.5595610342
 30
0.0
 10
14.3671661717
 20
11.5526002045
 30
0.0
 10
14.366531597
 20
11.5455941582
 30
0.0
 10
14.3660864457
 20
11.5385446663
 30
0.0
 10
14.3657447521
 20
11.5290662826
 30
0.0
 10
14.3657954298
 20
11.5171096518
 30
0.0
 10
14.3666153557
 20
11.5026561525
 30
0.0
 10
14.3681934149
 20
11.4880745148
 30
0.0
 10
14.3705277774
 20
11.4733803064
 30
0.0
 10
14.3736158159
 20
11.4585887565
 30
0.0
 10
14.3774540666
 20
11.4437154618
 30
0.0
 10
14.3812574327
 20
11.4313208548
 30
0.0
 10
14.3846649941
 20
11.421382179
 30
0.0
 10
14.3883508687
 20
11.411338214
 30
0.0
 10
14.3934249592
 20
11.3987587468
 30
0.0
 10
14.4002149061
 20
11.3837130449
 30
0.0
 10
14.4077267622
 20
11.3686630118
 30
0.0
 10
14.4159525579
 20
11.3536244179
 30
0.0
 10
14.4248836838
 20
11.3386127858
 30
0.0
 10
14.4345107879
 20
11.3236436766
 30
0.0
 10
14.444823813
 20
11.3087325929
 30
0.0
 10
14.4558119972
 20
11.2938949863
 30
0.0
 10
14.4674638853
 20
11.2791462363
 30
0.0
 10
14.4797673384
 20
11.2645016358
 30
0.0
 10
14.4927095451
 20
11.2499763754
 30
0.0
 10
14.5062770333
 20
11.2355855269
 30
0.0
 10
14.5204556838
 20
11.2213440281
 30
0.0
 10
14.5352307431
 20
11.2072666664
 30
0.0
 10
14.5505868389
 20
11.1933680633
 30
0.0
 10
14.5665079946
 20
11.1796626583
 30
0.0
 10
14.5829776464
 20
11.1661646943
 30
0.0
 10
14.5999786592
 20
11.1528882014
 30
0.0
 10
14.6174933449
 20
11.1398469825
 30
0.0
 10
14.63550348
 20
11.1270545986
 30
0.0
 10
14.653990325
 20
11.1145243538
 30
0.0
 10
14.6729346432
 20
11.1022692819
 30
0.0
 10
14.692316721
 20
11.0903021317
 30
0.0
 10
14.7121163884
 20
11.0786353542
 30
0.0
 10
14.7323130398
 20
11.067281089
 30
0.0
 10
14.7528856556
 20
11.0562511516
 30
0.0
 10
14.773812824
 20
11.0455570206
 30
0.0
 10
14.7950727635
 20
11.0352098262
 30
0.0
 10
14.8166433452
 20
11.025220338
 30
0.0
 10
14.8385021167
 20
11.0155989536
 30
0.0
 10
14.8606263246
 20
11.006355688
 30
0.0
 10
14.8829929388
 20
10.997500163
 30
0.0
 10
14.9055786767
 20
10.9890415966
 30
0.0
 10
14.928360027
 20
10.9809887942
 30
0.0
 10
14.9513132746
 20
10.9733501386
 30
0.0
 10
14.9744145252
 20
10.9661335817
 30
0.0
 10
14.9976397307
 20
10.9593466358
 30
0.0
 10
15.0209647135
 20
10.9529963662
 30
0.0
 10
15.0443651926
 20
10.9470893833
 30
0.0
 10
15.0678168086
 20
10.9416318363
 30
0.0
 10
15.0912951491
 20
10.9366294062
 30
0.0
 10
15.1147757743
 20
10.9320873003
 30
0.0
 10
15.1382342426
 20
10.9280102468
 30
0.0
 10
15.1616461363
 20
10.9244024896
 30
0.0
 10
15.1849870867
 20
10.9212677843
 30
0.0
 10
15.2082327995
 20
10.9186093939
 30
0.0
 10
15.2313590832
 20
10.9164300866
 30
0.0
 10
15.254341861
 20
10.9147321306
 30
0.0
 10
15.2771572493
 20
10.9135172963
 30
0.0
 10
15.2997813696
 20
10.9127868476
 30
0.0
 10
15.3147992593
 20
10.9126224617
 30
0.0
 10
15.3222704039
 20
10.9126224617
 30
0.0
  0
SPLINE
  5
2A5
100
AcDbEntity
  8
02___PRT_ALL_AXES
100
AcDbSpline
 62
7
  6
CONTINUOUS
 70
0
 71
3
 72
45
 73
41
 74
0
 42
0.0000001
 43
0.0000001
 44
0.0000000001
 40
0.0
 40
0.0
 40
0.0
 40
0.0
 40
0.0123993107
 40
0.0248058017
 40
0.037226633
 40
0.0496689231
 40
0.0621397304
 40
0.0746460317
 40
0.0871947067
 40
0.099792515
 40
0.1124460861
 40
0.1251618956
 40
0.1508028929
 40
0.1767663136
 40
0.2030972662
 40
0.2298373752
 40
0.2570245813
 40
0.2846930166
 40
0.3128729481
 40
0.3271639971
 40
0.341592498
 40
0.3708708108
 40
0.4007284596
 40
0.4311806792
 40
0.4622392205
 40
0.4939124986
 40
0.5262057499
 40
0.5591211918
 40
0.5926581848
 40
0.6268133914
 40
0.6615809321
 40
0.6969525367
 40
0.7329176895
 40
0.769463769
 40
0.8065761808
 40
0.8442384891
 40
0.8824325236
 40
0.921138545
 40
0.9603352157
 40
1.0
 40
1.0
 40
1.0
 40
1.0
 10
15.8100546362
 20
11.1573944096
 30
0.0
 10
15.8093441828
 20
11.1550953782
 30
0.0
 10
15.8078552272
 20
11.1505165726
 30
0.0
 10
15.8054201053
 20
11.1437138183
 30
0.0
 10
15.8027836712
 20
11.1369775001
 30
0.0
 10
15.7999467118
 20
11.1303096041
 30
0.0
 10
15.7969100144
 20
11.1237120077
 30
0.0
 10
15.7936744636
 20
11.1171865816
 30
0.0
 10
15.7902409603
 20
11.1107351804
 30
0.0
 10
15.7866105137
 20
11.1043596369
 30
0.0
 10
15.7827840965
 20
11.0980617149
 30
0.0
 10
15.7774079898
 20
11.0897480017
 30
0.0
 10
15.7701939662
 20
11.0795528255
 30
0.0
 10
15.7607962337
 20
11.0676931185
 30
0.0
 10
15.7506440119
 20
11.0561865257
 30
0.0
 10
15.7397492059
 20
11.0450462646
 30
0.0
 10
15.7281242687
 20
11.0342847123
 30
0.0
 10
15.7157826882
 20
11.0239140241
 30
0.0
 10
15.7049633746
 20
11.015645976
 30
0.0
 10
15.6959706454
 20
11.0092365783
 30
0.0
 10
15.6866635026
 20
11.0029056166
 30
0.0
 10
15.6746016504
 20
10.9952596291
 30
0.0
 10
15.6595414998
 20
10.9865630523
 30
0.0
 10
15.6438423654
 20
10.9783103016
 30
0.0
 10
15.6275221726
 20
10.9705106867
 30
0.0
 10
15.6105993029
 20
10.9631728641
 30
0.0
 10
15.5930928696
 20
10.9563050242
 30
0.0
 10
15.5750226188
 20
10.9499148277
 30
0.0
 10
15.5564089322
 20
10.9440094116
 30
0.0
 10
15.5372727998
 20
10.9385953761
 30
0.0
 10
15.5176358003
 20
10.9336787771
 30
0.0
 10
15.497520077
 20
10.9292651182
 30
0.0
 10
15.4769483147
 20
10.9253593432
 30
0.0
 10
15.455943714
 20
10.9219658297
 30
0.0
 10
15.4345299668
 20
10.9190883825
 30
0.0
 10
15.4127312274
 20
10.9167302304
 30
0.0
 10
15.3905720951
 20
10.914894017
 30
0.0
 10
15.3680775426
 20
10.9135818063
 30
0.0
 10
15.3452730931
 20
10.9127950637
 30
0.0
 10
15.3299680454
 20
10.9126224617
 30
0.0
 10
15.3222704039
 20
10.9126224617
 30
0.0
  0
SPLINE
  5
2A6
100
AcDbEntity
  8
LAYER_CHAMFER_FEAT
100
AcDbSpline
 62
7
  6
CONTINUOUS
 70
0
 71
3
 72
15
 73
11
 74
0
 42
0.0000001
 43
0.0000001
 44
0.0000000001
 40
0.0
 40
0.0
 40
0.0
 40
0.0
 40
0.131764132
 40
0.2617725002
 40
0.3899186346
 40
0.5161210923
 40
0.6402989349
 40
0.7623789461
 40
0.8822975414
 40
1.0
 40
1.0
 40
1.0
 40
1.0
 10
14.961939699
 20
11.6468992367
 30
0.0
 10
14.956960428
 20
11.6468992367
 30
0.0
 10
14.9470677313
 20
11.6467737128
 30
0.0
 10
14.9323424754
 20
11.6462007949
 30
0.0
 10
14.9178475435
 20
11.6452451505
 30
0.0
 10
14.903604021
 20
11.6439081989
 30
0.0
 10
14.8896320626
 20
11.6421918383
 30
0.0
 10
14.8759516275
 20
11.6400984875
 30
0.0
 10
14.8625824747
 20
11.6376311385
 30
0.0
 10
14.8538065275
 20
11.6357210973
 30
0.0
 10
14.8494767632
 20
11.6347028287
 30
0.0
  0
SPLINE
  5
2A7
100
AcDbEntity
  8
LAYER_CHAMFER_FEAT
100
AcDbSpline
 62
7
  6
CONTINUOUS
 70
0
 71
3
 72
39
 73
35
 74
0
 42
0.0000001
 43
0.0000001
 44
0.0000000001
 40
0.0
 40
0.0
 40
0.0
 40
0.0
 40
0.0305398826
 40
0.0614592002
 40
0.0927264534
 40
0.1243126363
 40
0.1561858736
 40
0.1883135647
 40
0.2206623617
 40
0.2531980702
 40
0.2858858929
 40
0.3186905349
 40
0.3515763178
 40
0.384507296
 40
0.4174473773
 40
0.4503604439
 40
0.4832104612
 40
0.5159615996
 40
0.5485783577
 40
0.5810256721
 40
0.6132690359
 40
0.6452746387
 40
0.677009479
 40
0.7084414818
 40
0.7395396478
 40
0.7702741945
 40
0.8006166737
 40
0.8305401194
 40
0.8600192318
 40
0.8890305139
 40
0.9175524231
 40
0.9455655735
 40
0.9730529359
 40
1.0
 40
1.0
 40
1.0
 40
1.0
 10
14.961939699
 20
11.6468992367
 30
0.0
 10
14.9673229549
 20
11.6468992367
 30
0.0
 10
14.9781568817
 20
11.6467506286
 30
0.0
 10
14.9944902695
 20
11.6460925483
 30
0.0
 10
15.010985184
 20
11.6449988156
 30
0.0
 10
15.0276143692
 20
11.6434713089
 30
0.0
 10
15.0443509533
 20
11.6415124623
 30
0.0
 10
15.0611676025
 20
11.6391254949
 30
0.0
 10
15.0780369193
 20
11.6363143026
 30
0.0
 10
15.094931417
 20
11.6330834393
 30
0.0
 10
15.1118235618
 20
11.6294381883
 30
0.0
 10
15.1286858265
 20
11.6253844991
 30
0.0
 10
15.1454907268
 20
11.6209289657
 30
0.0
 10
15.1622108705
 20
11.6160788407
 30
0.0
 10
15.1788190116
 20
11.6108420484
 30
0.0
 10
15.1952880819
 20
11.6052271239
 30
0.0
 10
15.2115912325
 20
11.5992431998
 30
0.0
 10
15.2277018952
 20
11.5929000379
 30
0.0
 10
15.2435938185
 20
11.5862079876
 30
0.0
 10
15.2592410997
 20
11.579177947
 30
0.0
 10
15.2746182323
 20
11.571821358
 30
0.0
 10
15.2897001675
 20
11.5641502264
 30
0.0
 10
15.3044623323
 20
11.5561770534
 30
0.0
 10
15.3188806645
 20
11.5479148117
 30
0.0
 10
15.3329316747
 20
11.5393769618
 30
0.0
 10
15.3465924827
 20
11.5305774216
 30
0.0
 10
15.3598408334
 20
11.5215305139
 30
0.0
 10
15.3726551359
 20
11.5122509482
 30
0.0
 10
15.3850145317
 20
11.502753842
 30
0.0
 10
15.396898903
 20
11.4930546454
 30
0.0
 10
15.408288873
 20
11.4831691309
 30
0.0
 10
15.4191659367
 20
11.4731133136
 30
0.0
 10
15.4295122315
 20
11.4629037216
 30
0.0
 10
15.4361115373
 20
11.455935259
 30
0.0
 10
15.4393157265
 20
11.4524288071
 30
0.0
  0
SPLINE
  5
2A8
100
AcDbEntity
  8
LAYER_FEATURE
100
AcDbSpline
 62
7
  6
CONTINUOUS
 70
0
 71
3
 72
48
 73
44
 74
0
 42
0.0000001
 43
0.0000001
 44
0.0000000001
 40
0.0
 40
0.0
 40
0.0
 40
0.0
 40
0.0396643164
 40
0.0788610285
 40
0.1175666373
 40
0.1557604662
 40
0.1934225072
 40
0.2305346717
 40
0.2670805032
 40
0.3030454104
 40
0.3384167745
 40
0.3731840801
 40
0.4073390569
 40
0.4408758239
 40
0.473791042
 40
0.5060840726
 40
0.5377571353
 40
0.5688154668
 40
0.5992674822
 40
0.6291249306
 40
0.6584030448
 40
0.6728314457
 40
0.6871223987
 40
0.7153021386
 40
0.7429703868
 40
0.7566230099
 40
0.7701594372
 40
0.7968993662
 40
0.8232301401
 40
0.8362561141
 40
0.8491957112
 40
0.8620546759
 40
0.8748389507
 40
0.8875546761
 40
0.9002081598
 40
0.912805884
 40
0.9253544735
 40
0.9378606901
 40
0.9503314134
 40
0.9627736188
 40
0.9751943663
 40
0.9876007731
 40
1.0
 40
1.0
 40
1.0
 40
1.0
 10
14.8753503618
 20
12.9339971597
 30
0.0
 10
14.8609250541
 20
12.9339971597
 30
0.0
 10
14.8322433562
 20
12.9336736906
 30
0.0
 10
14.7895078326
 20
12.9321993599
 30
0.0
 10
14.7473529667
 20
12.9297402479
 30
0.0
 10
14.7058267915
 20
12.9262992031
 30
0.0
 10
14.664975938
 20
12.9218800218
 30
0.0
 10
14.6248465785
 20
12.9164876918
 30
0.0
 10
14.5854839568
 20
12.9101282446
 30
0.0
 10
14.5469324763
 20
12.9028088187
 30
0.0
 10
14.5092356124
 20
12.8945376202
 30
0.0
 10
14.4724358749
 20
12.8853239145
 30
0.0
 10
14.4365747612
 20
12.8751780147
 30
0.0
 10
14.401692711
 20
12.8641112676
 30
0.0
 10
14.3678290627
 20
12.8521360367
 30
0.0
 10
14.3350220099
 20
12.8392657011
 30
0.0
 10
14.3033085537
 20
12.82551462
 30
0.0
 10
14.2727245114
 20
12.8108981431
 30
0.0
 10
14.2433043296
 20
12.7954324918
 30
0.0
 10
14.2150816059
 20
12.7791351103
 30
0.0
 10
14.1924776903
 20
12.7648065292
 30
0.0
 10
14.1750361182
 20
12.7529423039
 30
0.0
 10
14.1581837152
 20
12.7409310743
 30
0.0
 10
14.1379085169
 20
12.7254369256
 30
0.0
 10
14.1185495439
 20
12.7091694336
 30
0.0
 10
14.1037482132
 20
12.6957894562
 30
0.0
 10
14.0895229367
 20
12.6822845257
 30
0.0
 10
14.0725782201
 20
12.6649581651
 30
0.0
 10
14.0566668183
 20
12.6469239508
 30
0.0
 10
14.0446595378
 20
12.6321715012
 30
0.0
 10
14.0360416438
 20
12.6209843018
 30
0.0
 10
14.0277821723
 20
12.6096385405
 30
0.0
 10
14.0198834393
 20
12.5981373201
 30
0.0
 10
14.0123476505
 20
12.5864839584
 30
0.0
 10
14.0051770214
 20
12.5746816981
 30
0.0
 10
13.9983735327
 20
12.5627339243
 30
0.0
 10
13.9919391596
 20
12.5506439977
 30
0.0
 10
13.9858757386
 20
12.5384153474
 30
0.0
 10
13.9801849563
 20
12.5260514573
 30
0.0
 10
13.9748685098
 20
12.5135558133
 30
0.0
 10
13.9699278188
 20
12.5009319587
 30
0.0
 10
13.9653644065
 20
12.4881835946
 30
0.0
 10
13.9625741099
 20
12.4796029111
 30
0.0
 10
13.9612427149
 20
12.475294528
 30
0.0
  0
SPLINE
  5
2A9
100
AcDbEntity
  8
LAYER_FEATURE
100
AcDbSpline
 62
7
  6
CONTINUOUS
 70
0
 71
3
 72
48
 73
44
 74
0
 42
0.0000001
 43
0.0000001
 44
0.0000000001
 40
0.0
 40
0.0
 40
0.0
 40
0.0
 40
0.0396643164
 40
0.0788610285
 40
0.1175666373
 40
0.1557604662
 40
0.1934225072
 40
0.2305346717
 40
0.2670805032
 40
0.3030454104
 40
0.3384167745
 40
0.3731840801
 40
0.4073390569
 40
0.4408758239
 40
0.473791042
 40
0.5060840726
 40
0.5377571353
 40
0.5688154668
 40
0.5992674822
 40
0.6291249306
 40
0.6584030448
 40
0.6728314457
 40
0.6871223987
 40
0.7153021386
 40
0.7429703868
 40
0.7566230099
 40
0.7701594372
 40
0.7968993662
 40
0.8232301401
 40
0.8362561141
 40
0.8491957112
 40
0.8620546759
 40
0.8748389507
 40
0.8875546761
 40
0.9002081598
 40
0.912805884
 40
0.9253544735
 40
0.9378606901
 40
0.9503314134
 40
0.9627736188
 40
0.9751943663
 40
0.9876007731
 40
1.0
 40
1.0
 40
1.0
 40
1.0
 10
15.2384498469
 20
14.1089875241
 30
0.0
 10
15.2240245392
 20
14.1089875241
 30
0.0
 10
15.1953428413
 20
14.1086640551
 30
0.0
 10
15.1526073177
 20
14.1071897244
 30
0.0
 10
15.1104524518
 20
14.1047306124
 30
0.0
 10
15.0689262766
 20
14.1012895676
 30
0.0
 10
15.0280754231
 20
14.0968703863
 30
0.0
 10
14.9879460636
 20
14.0914780562
 30
0.0
 10
14.9485834419
 20
14.085118609
 30
0.0
 10
14.9100319614
 20
14.0777991832
 30
0.0
 10
14.8723350975
 20
14.0695279846
 30
0.0
 10
14.83553536
 20
14.0603142789
 30
0.0
 10
14.7996742463
 20
14.0501683791
 30
0.0
 10
14.7647921961
 20
14.039101632
 30
0.0
 10
14.7309285478
 20
14.0271264012
 30
0.0
 10
14.698121495
 20
14.0142560655
 30
0.0
 10
14.6664080388
 20
14.0005049844
 30
0.0
 10
14.6358239965
 20
13.9858885075
 30
0.0
 10
14.6064038147
 20
13.9704228562
 30
0.0
 10
14.578181091
 20
13.9541254747
 30
0.0
 10
14.5555771754
 20
13.9397968937
 30
0.0
 10
14.5381356033
 20
13.9279326683
 30
0.0
 10
14.5212832003
 20
13.9159214388
 30
0.0
 10
14.501008002
 20
13.90042729
 30
0.0
 10
14.481649029
 20
13.884159798
 30
0.0
 10
14.4668476983
 20
13.8707798207
 30
0.0
 10
14.4526224218
 20
13.8572748902
 30
0.0
 10
14.4356777052
 20
13.8399485296
 30
0.0
 10
14.4197663034
 20
13.8219143153
 30
0.0
 10
14.4077590229
 20
13.8071618657
 30
0.0
 10
14.3991411289
 20
13.7959746662
 30
0.0
 10
14.3908816574
 20
13.7846289049
 30
0.0
 10
14.3829829244
 20
13.7731276845
 30
0.0
 10
14.3754471356
 20
13.7614743228
 30
0.0
 10
14.3682765065
 20
13.7496720626
 30
0.0
 10
14.3614730178
 20
13.7377242887
 30
0.0
 10
14.3550386447
 20
13.7256343621
 30
0.0
 10
14.3489752237
 20
13.7134057119
 30
0.0
 10
14.3432844415
 20
13.7010418218
 30
0.0
 10
14.3379679949
 20
13.6885461778
 30
0.0
 10
14.3330273039
 20
13.6759223231
 30
0.0
 10
14.3284638916
 20
13.6631739591
 30
0.0
 10
14.325673595
 20
13.6545932756
 30
0.0
 10
14.3243422
 20
13.6502848924
 30
0.0
  0
SPLINE
  5
2AA
100
AcDbEntity
  8
LAYER_FEATURE
100
AcDbSpline
 62
7
  6
CONTINUOUS
 70
0
 71
3
 72
81
 73
77
 74
0
 42
0.0000001
 43
0.0000001
 44
0.0000000001
 40
0.0
 40
0.0
 40
0.0
 40
0.0
 40
0.0171785929
 40
0.0345301672
 40
0.0520439373
 40
0.0697094984
 40
0.0875156737
 40
0.1054511118
 40
0.1235041404
 40
0.1416628287
 40
0.1599150211
 40
0.1782483592
 40
0.1966503124
 40
0.215108205
 40
0.2336092439
 40
0.252140547
 40
0.2706891691
 40
0.2892421289
 40
0.307786436
 40
0.3263091185
 40
0.344797249
 40
0.3632379718
 40
0.3816185298
 40
0.3999262924
 40
0.4181487836
 40
0.4362737087
 40
0.4542889833
 40
0.4721827612
 40
0.4899434659
 40
0.5075598198
 40
0.5250208747
 40
0.5423160427
 40
0.5594351288
 40
0.576368367
 40
0.593106454
 40
0.6096405842
 40
0.6259624872
 40
0.6420644667
 40
0.6579394439
 40
0.6735809991
 40
0.688983415
 40
0.7041417225
 40
0.7190517502
 40
0.7337101771
 40
0.748114585
 40
0.7622635114
 40
0.7761565056
 40
0.789794187
 40
0.8031783061
 40
0.8163118027
 40
0.8291988611
 40
0.8418449655
 40
0.8542569513
 40
0.8603780115
 40
0.8664437512
 40
0.8784136356
 40
0.8901784279
 40
0.8959881948
 40
0.9017515357
 40
0.9131453779
 40
0.9187806054
 40
0.924377145
 40
0.9299371465
 40
0.9354628384
 40
0.940956532
 40
0.9464206072
 40
0.9518575181
 40
0.9572697828
 40
0.9626599783
 40
0.9680307398
 40
0.973384748
 40
0.978724729
 40
0.9840534438
 40
0.9893736827
 40
0.994688259
 40
1.0
 40
1.0
 40
1.0
 40
1.0
 10
14.8753503618
 20
12.9339971597
 30
0.0
 10
14.889351206
 20
12.9339971597
 30
0.0
 10
14.9174947759
 20
12.9336890864
 30
0.0
 10
14.9598923637
 20
12.9323202504
 30
0.0
 10
15.0026484845
 20
12.930043623
 30
0.0
 10
15.0457181662
 20
12.9268616732
 30
0.0
 10
15.0890568359
 20
12.9227776489
 30
0.0
 10
15.1326192985
 20
12.9177958236
 30
0.0
 10
15.1763602396
 20
12.9119213826
 30
0.0
 10
15.2202341283
 20
12.9051604453
 30
0.0
 10
15.2641952979
 20
12.8975200507
 30
0.0
 10
15.30819799
 20
12.889008148
 30
0.0
 10
15.3521963996
 20
12.8796335912
 30
0.0
 10
15.3961447273
 20
12.8694061447
 30
0.0
 10
15.4399972249
 20
12.8583364586
 30
0.0
 10
15.4837082434
 20
12.8464360565
 30
0.0
 10
15.5272322794
 20
12.8337173236
 30
0.0
 10
15.5705240223
 20
12.8201934933
 30
0.0
 10
15.613538407
 20
12.8058786494
 30
0.0
 10
15.6562306571
 20
12.7907876973
 30
0.0
 10
15.698556331
 20
12.7749363468
 30
0.0
 10
15.7404713678
 20
12.7583410963
 30
0.0
 10
15.7819321322
 20
12.7410192142
 30
0.0
 10
15.8228954679
 20
12.7229887366
 30
0.0
 10
15.8633187376
 20
12.7042684351
 30
0.0
 10
15.9031598656
 20
12.6848777952
 30
0.0
 10
15.9423773813
 20
12.6648369971
 30
0.0
 10
15.9809304618
 20
12.6441668921
 30
0.0
 10
16.0187789838
 20
12.6228889959
 30
0.0
 10
16.0558835596
 20
12.6010254544
 30
0.0
 10
16.0922055753
 20
12.578599017
 30
0.0
 10
16.1277072303
 20
12.5556330154
 30
0.0
 10
16.1623515761
 20
12.532151335
 30
0.0
 10
16.1961025658
 20
12.5081784046
 30
0.0
 10
16.2289250856
 20
12.4837391599
 30
0.0
 10
16.2607849859
 20
12.458859014
 30
0.0
 10
16.2916491167
 20
12.4335638325
 30
0.0
 10
16.3214853609
 20
12.4078799022
 30
0.0
 10
16.3502626802
 20
12.3818339173
 30
0.0
 10
16.3779511402
 20
12.3554529412
 30
0.0
 10
16.404521934
 20
12.3287643741
 30
0.0
 10
16.4299474116
 20
12.3017959269
 30
0.0
 10
16.4542011053
 20
12.2745755877
 30
0.0
 10
16.4772577718
 20
12.2471316043
 30
0.0
 10
16.4990934088
 20
12.2194924464
 30
0.0
 10
16.5196852693
 20
12.191686773
 30
0.0
 10
16.5390118839
 20
12.1637434044
 30
0.0
 10
16.5570530756
 20
12.135691293
 30
0.0
 10
16.5737900003
 20
12.1075594927
 30
0.0
 10
16.5892051395
 20
12.0793771677
 30
0.0
 10
16.603282362
 20
12.0511734063
 30
0.0
 10
16.6160067269
 20
12.0229777631
 30
0.0
 10
16.6255155768
 20
11.9994038391
 30
0.0
 10
16.6324228915
 20
11.9805814525
 30
0.0
 10
16.6388086736
 20
11.9619563473
 30
0.0
 10
16.6459361274
 20
11.938729075
 30
0.0
 10
16.6519552118
 20
11.9154049033
 30
0.0
 10
16.6560573301
 20
11.8968300589
 30
0.0
 10
16.6596590228
 20
11.8784600139
 30
0.0
 10
16.6625749107
 20
11.8601050809
 30
0.0
 10
16.6647845487
 20
11.8417961839
 30
0.0
 10
16.666081369
 20
11.8281706263
 30
0.0
 10
16.6670233504
 20
11.8146055133
 30
0.0
 10
16.6676102056
 20
11.8011042465
 30
0.0
 10
16.6678418414
 20
11.7876703906
 30
0.0
 10
16.6677181171
 20
11.7743074408
 30
0.0
 10
16.6672390932
 20
11.7610188925
 30
0.0
 10
16.6664048949
 20
11.7478082153
 30
0.0
 10
16.6652156761
 20
11.7346788675
 30
0.0
 10
16.6636718185
 20
11.7216342754
 30
0.0
 10
16.6617736452
 20
11.7086778589
 30
0.0
 10
16.6595216869
 20
11.6958130015
 30
0.0
 10
16.6569165377
 20
11.6830430757
 30
0.0
 10
16.6539588113
 20
11.6703714009
 30
0.0
 10
16.6506493953
 20
11.6578014055
 30
0.0
 10
16.6482088719
 20
11.6494903381
 30
0.0
 10
16.6469306957
 20
11.6453541706
 30
0.0
  0
SPLINE
  5
2AB
100
AcDbEntity
  8
LAYER_CHAMFER_FEAT
100
AcDbSpline
 62
7
  6
CONTINUOUS
 70
0
 71
3
 72
85
 73
81
 74
0
 42
0.0000001
 43
0.0000001
 44
0.0000000001
 40
0.0
 40
0.0
 40
0.0
 40
0.0
 40
0.0157578066
 40
0.0311471313
 40
0.0461642865
 40
0.0608083514
 40
0.0750813814
 40
0.0889886264
 40
0.1025387497
 40
0.1091842265
 40
0.1157453552
 40
0.1286219147
 40
0.1411897876
 40
0.1473661324
 40
0.1534746753
 40
0.1655013992
 40
0.1714293234
 40
0.177305436
 40
0.1831343075
 40
0.1889207088
 40
0.1946696131
 40
0.2003861532
 40
0.2060756224
 40
0.2117434405
 40
0.2173951302
 40
0.2230362979
 40
0.2286725981
 40
0.2343097122
 40
0.2399533154
 40
0.2456090535
 40
0.2512825084
 40
0.2569791788
 40
0.2627044504
 40
0.2684635687
 40
0.2742616312
 40
0.2801035449
 40
0.285994032
 40
0.2919376027
 40
0.2979385361
 40
0.304000896
 40
0.316323255
 40
0.3289339281
 40
0.3418564082
 40
0.355110163
 40
0.3687107324
 40
0.3826698783
 40
0.3969957707
 40
0.4116931884
 40
0.4267637392
 40
0.4422060891
 40
0.4580161804
 40
0.4741874399
 40
0.4907109704
 40
0.5075757451
 40
0.5247687914
 40
0.5422753583
 40
0.5600790716
 40
0.5781620766
 40
0.5965051863
 40
0.6150880174
 40
0.6338891169
 40
0.6528860806
 40
0.6720556686
 40
0.6913739251
 40
0.7108162883
 40
0.7303576967
 40
0.7499726921
 40
0.7696355256
 40
0.7893202624
 40
0.8090008822
 40
0.8286513797
 40
0.8482458669
 40
0.8677586763
 40
0.8871644689
 40
0.9064383215
 40
0.9255558495
 40
0.9444933662
 40
0.9632276459
 40
0.9817372352
 40
1.0
 40
1.0
 40
1.0
 40
1.0
 10
14.8494767632
 20
11.6347028287
 30
0.0
 10
14.8445089251
 20
11.6335344987
 30
0.0
 10
14.8347323815
 20
11.631036987
 30
0.0
 10
14.8204046303
 20
11.6267511738
 30
0.0
 10
14.8066124548
 20
11.6219776534
 30
0.0
 10
14.7933831815
 20
11.6167257093
 30
0.0
 10
14.7807426067
 20
11.6110053878
 30
0.0
 10
14.7687158085
 20
11.6048278208
 30
0.0
 10
14.7591630696
 20
11.599272834
 30
0.0
 10
14.7518584098
 20
11.5946090683
 30
0.0
 10
14.7448687477
 20
11.5898636481
 30
0.0
 10
14.7365469487
 20
11.5836732013
 30
0.0
 10
14.7287116349
 20
11.5770680572
 30
0.0
 10
14.7228133351
 20
11.5715893902
 30
0.0
 10
14.7172214149
 20
11.5660449226
 30
0.0
 10
14.7119622857
 20
11.5602840622
 30
0.0
 10
14.7070631367
 20
11.5543188689
 30
0.0
 10
14.7035960962
 20
11.5497795184
 30
0.0
 10
14.7003209142
 20
11.5451559753
 30
0.0
 10
14.6972392012
 20
11.5404504037
 30
0.0
 10
14.6943524403
 20
11.535665193
 30
0.0
 10
14.6916621313
 20
11.5308026583
 30
0.0
 10
14.6891695919
 20
11.5258652229
 30
0.0
 10
14.6868760422
 20
11.5208553383
 30
0.0
 10
14.6847826965
 20
11.5157754563
 30
0.0
 10
14.6828905139
 20
11.5106281306
 30
0.0
 10
14.6812005019
 20
11.5054158882
 30
0.0
 10
14.6797134815
 20
11.5001413257
 30
0.0
 10
14.6784301518
 20
11.4948070688
 30
0.0
 10
14.6773512263
 20
11.4894157483
 30
0.0
 10
14.6764771442
 20
11.4839700585
 30
0.0
 10
14.6758083908
 20
11.4784726894
 30
0.0
 10
14.6753452788
 20
11.4729263715
 30
0.0
 10
14.6750879767
 20
11.4673338538
 30
0.0
 10
14.6750366838
 20
11.461697903
 30
0.0
 10
14.6751913232
 20
11.4560213091
 30
0.0
 10
14.6755518539
 20
11.450306872
 30
0.0
 10
14.67611808
 20
11.4445574345
 30
0.0
 10
14.6768896692
 20
11.4387757549
 30
0.0
 10
14.6781987958
 20
11.4309861309
 30
0.0
 10
14.6803564823
 20
11.4211745692
 30
0.0
 10
14.6837449236
 20
11.4093842209
 30
0.0
 10
14.6879395297
 20
11.3975358221
 30
0.0
 10
14.692931596
 20
11.3856528758
 30
0.0
 10
14.698711002
 20
11.3737584152
 30
0.0
 10
14.7052661461
 20
11.3618756107
 30
0.0
 10
14.7125839838
 20
11.3500275731
 30
0.0
 10
14.7206500163
 20
11.3382373614
 30
0.0
 10
14.7294483089
 20
11.3265279284
 30
0.0
 10
14.738961533
 20
11.3149220946
 30
0.0
 10
14.7491709862
 20
11.3034424999
 30
0.0
 10
14.7600566232
 20
11.292111566
 30
0.0
 10
14.7715970686
 20
11.2809514342
 30
0.0
 10
14.7837696649
 20
11.2699839274
 30
0.0
 10
14.7965505244
 20
11.2592305119
 30
0.0
 10
14.8099145702
 20
11.2487122505
 30
0.0
 10
14.8238355823
 20
11.2384497632
 30
0.0
 10
14.838286232
 20
11.2284631646
 30
0.0
 10
14.8532381494
 20
11.2187720385
 30
0.0
 10
14.868661982
 20
11.2093953995
 30
0.0
 10
14.8845274507
 20
11.2003516545
 30
0.0
 10
14.9008034051
 20
11.1916585643
 30
0.0
 10
14.917457876
 20
11.1833331896
 30
0.0
 10
14.9344581518
 20
11.1753918773
 30
0.0
 10
14.9517708417
 20
11.1678502251
 30
0.0
 10
14.9693619418
 20
11.1607230532
 30
0.0
 10
14.9871968965
 20
11.154024366
 30
0.0
 10
15.0052406651
 20
11.147767314
 30
0.0
 10
15.0234577996
 20
11.1419641879
 30
0.0
 10
15.041812512
 20
11.1366263893
 30
0.0
 10
15.0602687456
 20
11.1317644135
 30
0.0
 10
15.0787902412
 20
11.1273878114
 30
0.0
 10
15.0973406128
 20
11.1235051714
 30
0.0
 10
15.1158834202
 20
11.1201241213
 30
0.0
 10
15.1343822382
 20
11.1172513045
 30
0.0
 10
15.1528007529
 20
11.1148923674
 30
0.0
 10
15.1711027163
 20
11.1130519692
 30
0.0
 10
15.189252397
 20
11.1117336483
 30
0.0
 10
15.2072137645
 20
11.1109401093
 30
0.0
 10
15.219123673
 20
11.1107606391
 30
0.0
 10
15.2250383089
 20
11.1107606391
 30
0.0
  0
SPLINE
  5
2AC
100
AcDbEntity
  8
LAYER_FEATURE
100
AcDbSpline
 62
7
  6
CONTINUOUS
 70
0
 71
3
 72
21
 73
17
 74
0
 42
0.0000001
 43
0.0000001
 44
0.0000000001
 40
0.0
 40
0.0
 40
0.0
 40
0.0
 40
0.0594201848
 40
0.1190375759
 40
0.17890551
 40
0.2390756909
 40
0.2995977226
 40
0.3605189909
 40
0.4218842494
 40
0.4837355077
 40
0.546111708
 40
0.6090488378
 40
0.6725797359
 40
0.736733256
 40
0.8669866107
 40
1.0
 40
1.0
 40
1.0
 40
1.0
 10
14.7439985798
 20
12.0132085553
 30
0.0
 10
14.7433546194
 20
12.0150113911
 30
0.0
 10
14.7421446555
 20
12.0186522249
 30
0.0
 10
14.7405696031
 20
12.0241986475
 30
0.0
 10
14.73923334
 20
12.0298323233
 30
0.0
 10
14.7381373841
 20
12.0355472557
 30
0.0
 10
14.7372827638
 20
12.0413375086
 30
0.0
 10
14.7366704221
 20
12.0471970482
 30
0.0
 10
14.7363009205
 20
12.0531197696
 30
0.0
 10
14.7361746575
 20
12.059099507
 30
0.0
 10
14.7362917204
 20
12.0651300457
 30
0.0
 10
14.7366519628
 20
12.0712051041
 30
0.0
 10
14.737255029
 20
12.0773184409
 30
0.0
 10
14.7383875278
 20
12.0855528835
 30
0.0
 10
14.7404163947
 20
12.0959150081
 30
0.0
 10
14.7426442741
 20
12.1041074232
 30
0.0
 10
14.7439095306
 20
12.1082017948
 30
0.0
  0
SPLINE
  5
2AD
100
AcDbEntity
  8
02___PRT_ALL_AXES
100
AcDbSpline
 62
7
  6
CONTINUOUS
 70
0
 71
3
 72
60
 73
56
 74
0
 42
0.0000001
 43
0.0000001
 44
0.0000000001
 40
0.0
 40
0.0
 40
0.0
 40
0.0
 40
0.0107158783
 40
0.0215135491
 40
0.0324199298
 40
0.0434606183
 40
0.054659672
 40
0.0660393556
 40
0.0776198533
 40
0.0894192846
 40
0.1014533279
 40
0.113735476
 40
0.1262766651
 40
0.1390855643
 40
0.1521684155
 40
0.165529153
 40
0.1791695911
 40
0.1930892814
 40
0.2072859612
 40
0.2217553741
 40
0.2364916818
 40
0.2514874788
 40
0.2667339833
 40
0.2822212959
 40
0.2979384375
 40
0.3138736783
 40
0.3300145551
 40
0.3463481494
 40
0.3628611732
 40
0.3795401377
 40
0.3963714535
 40
0.413341573
 40
0.4304370552
 40
0.4476446921
 40
0.482342722
 40
0.5173385896
 40
0.5525396064
 40
0.5878603661
 40
0.6232230535
 40
0.6585573841
 40
0.6938004968
 40
0.7288967113
 40
0.7637973762
 40
0.7984607112
 40
0.8328517931
 40
0.8499383294
 40
0.866946872
 40
0.8838749484
 40
0.9007205515
 40
0.9174820961
 40
0.9341583714
 40
0.9507483438
 40
0.9672519558
 40
0.9836698197
 40
1.0
 40
1.0
 40
1.0
 40
1.0
 10
14.7432152935
 20
12.012937884
 30
0.0
 10
14.7424688981
 20
12.0144588812
 30
0.0
 10
14.7410544855
 20
12.0175545441
 30
0.0
 10
14.7391805767
 20
12.022328133
 30
0.0
 10
14.7375489632
 20
12.0272441097
 30
0.0
 10
14.7361606716
 20
12.0322999714
 30
0.0
 10
14.7350164743
 20
12.0374931691
 30
0.0
 10
14.7341170155
 20
12.0428207657
 30
0.0
 10
14.7334626919
 20
12.048279495
 30
0.0
 10
14.7330538073
 20
12.0538657019
 30
0.0
 10
14.7328903391
 20
12.0595753364
 30
0.0
 10
14.732972175
 20
12.0654039033
 30
0.0
 10
14.733298856
 20
12.0713464757
 30
0.0
 10
14.7338697564
 20
12.0773976459
 30
0.0
 10
14.7346839523
 20
12.0835515412
 30
0.0
 10
14.7357402368
 20
12.0898018225
 30
0.0
 10
14.73703717
 20
12.0961416634
 30
0.0
 10
14.7385729466
 20
12.1025638178
 30
0.0
 10
14.7403455535
 20
12.1090605673
 30
0.0
 10
14.7423526174
 20
12.1156238276
 30
0.0
 10
14.7445915286
 20
12.1222451183
 30
0.0
 10
14.7470593921
 20
12.1289156368
 30
0.0
 10
14.749753041
 20
12.1356262975
 30
0.0
 10
14.7526691072
 20
12.1423677481
 30
0.0
 10
14.7558039595
 20
12.1491304675
 30
0.0
 10
14.7591538182
 20
12.1559047488
 30
0.0
 10
14.7627147001
 20
12.1626808003
 30
0.0
 10
14.7664824968
 20
12.1694487449
 30
0.0
 10
14.7704529802
 20
12.1761986818
 30
0.0
 10
14.7746218102
 20
12.1829207181
 30
0.0
 10
14.7789846018
 20
12.1896049837
 30
0.0
 10
14.7835368689
 20
12.1962416712
 30
0.0
 10
14.7882741587
 20
12.2028210895
 30
0.0
 10
14.7948489432
 20
12.211527934
 30
0.0
 10
14.8035016088
 20
12.222207657
 30
0.0
 10
14.8145224298
 20
12.2346085818
 30
0.0
 10
14.8261734768
 20
12.2465578527
 30
0.0
 10
14.8384175028
 20
12.2579843024
 30
0.0
 10
14.8512164782
 20
12.2688187799
 30
0.0
 10
14.8645307813
 20
12.2789938681
 30
0.0
 10
14.878318616
 20
12.2884440571
 30
0.0
 10
14.8925352478
 20
12.2971059719
 30
0.0
 10
14.9071325149
 20
12.3049188844
 30
0.0
 10
14.9220575377
 20
12.3118251778
 30
0.0
 10
14.9347494712
 20
12.3167916401
 30
0.0
 10
14.9450094673
 20
12.3202579931
 30
0.0
 10
14.9527322963
 20
12.322594802
 30
0.0
 10
14.9604902745
 20
12.3246691219
 30
0.0
 10
14.968274756
 20
12.3264763786
 30
0.0
 10
14.9760766673
 20
12.3280127216
 30
0.0
 10
14.9838867483
 20
12.3292746088
 30
0.0
 10
14.9916955236
 20
12.330259292
 30
0.0
 10
14.9994935254
 20
12.3309644976
 30
0.0
 10
15.0072706491
 20
12.3313884916
 30
0.0
 10
15.0124488583
 20
12.331483425
 30
0.0
 10
15.0150307908
 20
12.331483425
 30
0.0
  0
SPLINE
  5
2AE
100
AcDbEntity
  8
LAYER_FEATURE
100
AcDbSpline
 62
7
  6
CONTINUOUS
 70
0
 71
3
 72
71
 73
67
 74
0
 42
0.0000001
 43
0.0000001
 44
0.0000000001
 40
0.0
 40
0.0
 40
0.0
 40
0.0
 40
0.0146663656
 40
0.0219125831
 40
0.0291010355
 40
0.0433090785
 40
0.0573048262
 40
0.0642282638
 40
0.0711042761
 40
0.0847215312
 40
0.0981779342
 40
0.1114954769
 40
0.1246982271
 40
0.1378120041
 40
0.1508640142
 40
0.1638824482
 40
0.1768960398
 40
0.1899336017
 40
0.2030235597
 40
0.2161935006
 40
0.2294697459
 40
0.2428769829
 40
0.2564379478
 40
0.2701731596
 40
0.284100713
 40
0.2982361578
 40
0.3125924195
 40
0.3271797532
 40
0.3420057546
 40
0.3570754249
 40
0.3723912435
 40
0.3879532454
 40
0.4037591461
 40
0.4198044799
 40
0.4360827256
 40
0.4525854267
 40
0.4693023525
 40
0.4862216442
 40
0.5033299459
 40
0.5206125372
 40
0.5380534919
 40
0.5556358129
 40
0.5733415578
 40
0.5911519763
 40
0.6090476533
 40
0.6270086346
 40
0.645014551
 40
0.6630447568
 40
0.6990891762
 40
0.7170675218
 40
0.7349873618
 40
0.752828588
 40
0.7705715829
 40
0.7881973627
 40
0.8056877046
 40
0.8230252734
 40
0.8401937613
 40
0.8571780389
 40
0.8739642791
 40
0.8905400937
 40
0.9068946922
 40
0.9388977842
 40
0.9545420276
 40
0.9699403675
 40
0.985092991
 40
1.0
 40
1.0
 40
1.0
 40
1.0
 10
14.7742176716
 20
12.1387850052
 30
0.0
 10
14.7734445887
 20
12.1362833078
 30
0.0
 10
14.7723869414
 20
12.1325143134
 30
0.0
 10
14.771189134
 20
12.12745829
 30
0.0
 10
14.7701482339
 20
12.1224510923
 30
0.0
 10
14.7691223
 20
12.1162126225
 30
0.0
 10
14.7684643324
 20
12.1099719772
 30
0.0
 10
14.7681661059
 20
12.105017923
 30
0.0
 10
14.7680198563
 20
12.1001247001
 30
0.0
 10
14.7681167666
 20
12.0940601312
 30
0.0
 10
14.768685487
 20
12.0868666623
 30
0.0
 10
14.7697050349
 20
12.0797976116
 30
0.0
 10
14.771173072
 20
12.0728703315
 30
0.0
 10
14.7730861149
 20
12.0661016464
 30
0.0
 10
14.7754395932
 20
12.0595080756
 30
0.0
 10
14.7782278502
 20
12.0531057219
 30
0.0
 10
14.7814440927
 20
12.0469102115
 30
0.0
 10
14.785080448
 20
12.0409366445
 30
0.0
 10
14.7891280152
 20
12.0351995657
 30
0.0
 10
14.7935768891
 20
12.0297129251
 30
0.0
 10
14.7984161392
 20
12.0244899931
 30
0.0
 10
14.8036339067
 20
12.0195433649
 30
0.0
 10
14.8092174468
 20
12.0148849445
 30
0.0
 10
14.8151531508
 20
12.0105259117
 30
0.0
 10
14.8214265576
 20
12.0064766598
 30
0.0
 10
14.8280224385
 20
12.0027468337
 30
0.0
 10
14.8349248282
 20
11.9993453172
 30
0.0
 10
14.8421170402
 20
11.9962801865
 30
0.0
 10
14.8495817045
 20
11.9935586827
 30
0.0
 10
14.8573008301
 20
11.9911872462
 30
0.0
 10
14.8652558361
 20
11.9891715044
 30
0.0
 10
14.8734275771
 20
11.9875162081
 30
0.0
 10
14.8817963967
 20
11.9862252433
 30
0.0
 10
14.8903421789
 20
11.9853016507
 30
0.0
 10
14.8990443868
 20
11.9847476151
 30
0.0
 10
14.9078821047
 20
11.9845644004
 30
0.0
 10
14.9168340954
 20
11.9847523964
 30
0.0
 10
14.9258788488
 20
11.9853111261
 30
0.0
 10
14.9349946277
 20
11.9862392343
 30
0.0
 10
14.9441595256
 20
11.9875344439
 30
0.0
 10
14.9533515167
 20
11.9891936179
 30
0.0
 10
14.962548505
 20
11.991212766
 30
0.0
 10
14.9717283813
 20
11.9935870278
 30
0.0
 10
14.9808690778
 20
11.9963106627
 30
0.0
 10
14.9899486342
 20
11.999377121
 30
0.0
 10
14.9989451604
 20
12.0027790155
 30
0.0
 10
15.0078372269
 20
12.0065082537
 30
0.0
 10
15.0195224936
 20
12.0119036299
 30
0.0
 10
15.0309105306
 20
12.0179138985
 30
0.0
 10
15.0419358512
 20
12.024506741
 30
0.0
 10
15.0499909103
 20
12.0297228195
 30
0.0
 10
15.057818452
 20
12.0352012875
 30
0.0
 10
15.0653998277
 20
12.0409291021
 30
0.0
 10
15.0727167652
 20
12.0468924542
 30
0.0
 10
15.0797516827
 20
12.0530770204
 30
0.0
 10
15.0864876467
 20
12.0594679542
 30
0.0
 10
15.0929084412
 20
12.0660499073
 30
0.0
 10
15.0989986471
 20
12.0728070846
 30
0.0
 10
15.1047435531
 20
12.0797231767
 30
0.0
 10
15.1101295199
 20
12.0867819174
 30
0.0
 10
15.1167655932
 20
12.0962903818
 30
0.0
 10
15.1226926157
 20
12.1060810548
 30
0.0
 10
15.127835754
 20
12.116096721
 30
0.0
 10
15.1312498181
 20
12.1236080415
 30
0.0
 10
15.1342405245
 20
12.1311560422
 30
0.0
 10
15.1359615113
 20
12.1362422604
 30
0.0
 10
15.1367472789
 20
12.1387850052
 30
0.0
  0
SPLINE
  5
2AF
100
AcDbEntity
  8
LAYER_FEATURE
100
AcDbSpline
 62
7
  6
CONTINUOUS
 70
0
 71
3
 72
37
 73
33
 74
0
 42
0.0000001
 43
0.0000001
 44
0.0000000001
 40
0.0
 40
0.0
 40
0.0
 40
0.0
 40
0.0272320291
 40
0.0549120075
 40
0.0830414253
 40
0.1116199289
 40
0.1700822989
 40
0.1999584494
 40
0.230238706
 40
0.2609033564
 40
0.2919297822
 40
0.3232927246
 40
0.3549645335
 40
0.3869154233
 40
0.4191137308
 40
0.4515261623
 40
0.4841180367
 40
0.5168535254
 40
0.5496958915
 40
0.5826077332
 40
0.6155512192
 40
0.6484883221
 40
0.6813810518
 40
0.7141916921
 40
0.7468830403
 40
0.7794186394
 40
0.8117630236
 40
0.8438819415
 40
0.8757425985
 40
0.9073140581
 40
0.9385667823
 40
1.0
 40
1.0
 40
1.0
 40
1.0
 10
14.7439095306
 20
12.1082017948
 30
0.0
 10
14.7448917509
 20
12.111380261
 30
0.0
 10
14.7470429641
 20
12.1177380243
 30
0.0
 10
14.7507813705
 20
12.1271730174
 30
0.0
 10
14.755048932
 20
12.1365621393
 30
0.0
 10
14.761477866
 20
12.149081734
 30
0.0
 10
14.768886624
 20
12.161320087
 30
0.0
 10
14.777181734
 20
12.1732056517
 30
0.0
 10
14.7839141937
 20
12.182029076
 30
0.0
 10
14.7910953154
 20
12.1906741989
 30
0.0
 10
14.7987080706
 20
12.1991206726
 30
0.0
 10
14.8067340713
 20
12.2073481072
 30
0.0
 10
14.8151540264
 20
12.215336775
 30
0.0
 10
14.8239476689
 20
12.2230674867
 30
0.0
 10
14.8330938459
 20
12.2305216757
 30
0.0
 10
14.842570559
 20
12.2376814326
 30
0.0
 10
14.852355018
 20
12.2445295504
 30
0.0
 10
14.8624236941
 20
12.2510495653
 30
0.0
 10
14.8727523685
 20
12.2572258105
 30
0.0
 10
14.8833162
 20
12.2630434412
 30
0.0
 10
14.8940897844
 20
12.2684884706
 30
0.0
 10
14.9050472151
 20
12.2735478038
 30
0.0
 10
14.9161621455
 20
12.2782092667
 30
0.0
 10
14.9274078474
 20
12.282461649
 30
0.0
 10
14.9387572783
 20
12.2862947247
 30
0.0
 10
14.9501831535
 20
12.2896992717
 30
0.0
 10
14.961657994
 20
12.2926670917
 30
0.0
 10
14.97315425
 20
12.2951910314
 30
0.0
 10
14.984644161
 20
12.2972650046
 30
0.0
 10
14.9961005729
 20
12.2988840151
 30
0.0
 10
15.01120465
 20
12.3004218788
 30
0.0
 10
15.0225339291
 20
12.3009002145
 30
0.0
 10
15.0300388507
 20
12.3009002145
 30
0.0
  0
SPLINE
  5
2B0
100
AcDbEntity
  8
LAYER_FEATURE
100
AcDbSpline
 62
7
  6
CONTINUOUS
 70
0
 71
3
 72
28
 73
24
 74
0
 42
0.0000001
 43
0.0000001
 44
0.0000000001
 40
0.0
 40
0.0
 40
0.0
 40
0.0
 40
0.0706870082
 40
0.1402760479
 40
0.2087211825
 40
0.2759910713
 40
0.3420662512
 40
0.3746570759
 40
0.4069486549
 40
0.4706351865
 40
0.5331584328
 40
0.5640002409
 40
0.5945684643
 40
0.6549085951
 40
0.7142622359
 40
0.772721361
 40
0.8303935684
 40
0.8589770145
 40
0.8874106126
 40
0.9157115511
 40
0.9438977206
 40
0.9719875536
 40
1.0
 40
1.0
 40
1.0
 40
1.0
 10
15.0300388507
 20
12.3009002145
 30
0.0
 10
15.0342167345
 20
12.3009002145
 30
0.0
 10
15.0425090843
 20
12.300705208
 30
0.0
 10
15.05481788
 20
12.2998131544
 30
0.0
 10
15.0668661969
 20
12.2983263429
 30
0.0
 10
15.0786160773
 20
12.2962493571
 30
0.0
 10
15.0881727586
 20
12.2940216025
 30
0.0
 10
15.0956307449
 20
12.2919474591
 30
0.0
 10
15.102891551
 20
12.289702889
 30
0.0
 10
15.1117185914
 20
12.2865482378
 30
0.0
 10
15.1202608749
 20
12.2829001435
 30
0.0
 10
15.1268550647
 20
12.2797083127
 30
0.0
 10
15.1332298027
 20
12.2763678374
 30
0.0
 10
15.1408933326
 20
12.2718658885
 30
0.0
 10
15.1496004345
 20
12.2659305738
 30
0.0
 10
15.1577518189
 20
12.2595037407
 30
0.0
 10
15.164079648
 20
12.2537369406
 30
0.0
 10
15.1688317955
 20
12.2489012688
 30
0.0
 10
15.1722316989
 20
12.2451755421
 30
0.0
 10
15.1754748013
 20
12.241343332
 30
0.0
 10
15.1785587014
 20
12.2374075946
 30
0.0
 10
15.1814808791
 20
12.2333714513
 30
0.0
 10
15.1833219238
 20
12.2306124831
 30
0.0
 10
15.1842142764
 20
12.2292178956
 30
0.0
  0
SPLINE
  5
2B1
100
AcDbEntity
  8
LAYER_FEATURE
100
AcDbSpline
 62
7
  6
CONTINUOUS
 70
0
 71
3
 72
71
 73
67
 74
0
 42
0.0000001
 43
0.0000001
 44
0.0000000001
 40
0.0
 40
0.0
 40
0.0
 40
0.0
 40
0.014907009
 40
0.0300596325
 40
0.0454579724
 40
0.0611022158
 40
0.0931053078
 40
0.1094599063
 40
0.1260357209
 40
0.1428219611
 40
0.1598062387
 40
0.1769747266
 40
0.1943122954
 40
0.2118026373
 40
0.2294284171
 40
0.247171412
 40
0.2650126382
 40
0.2829324782
 40
0.3009108238
 40
0.3369552432
 40
0.354985449
 40
0.3729913654
 40
0.3909523467
 40
0.4088480237
 40
0.4266584422
 40
0.4443641871
 40
0.4619465081
 40
0.4793874628
 40
0.4966700541
 40
0.5137783558
 40
0.5306976475
 40
0.5474145733
 40
0.5639172744
 40
0.5801955201
 40
0.5962408539
 40
0.6120467546
 40
0.6276087565
 40
0.6429245751
 40
0.6579942454
 40
0.6728202468
 40
0.6874075805
 40
0.7017638422
 40
0.715899287
 40
0.7298268404
 40
0.7435620522
 40
0.7571230171
 40
0.7705302541
 40
0.7838064994
 40
0.7969764403
 40
0.8100663983
 40
0.8231039602
 40
0.8361175518
 40
0.8491359858
 40
0.8621879959
 40
0.8753017729
 40
0.8885045231
 40
0.9018220658
 40
0.9152784688
 40
0.9288957239
 40
0.9357717362
 40
0.9426951738
 40
0.9566909215
 40
0.9708989645
 40
0.9780874169
 40
0.9853336344
 40
1.0
 40
1.0
 40
1.0
 40
1.0
 10
14.7742176716
 20
12.1387850052
 30
0.0
 10
14.7750034392
 20
12.1413277501
 30
0.0
 10
14.776724426
 20
12.1464139682
 30
0.0
 10
14.7797151324
 20
12.1539619689
 30
0.0
 10
14.7831291965
 20
12.1614732894
 30
0.0
 10
14.7882723348
 20
12.1714889556
 30
0.0
 10
14.7941993573
 20
12.1812796286
 30
0.0
 10
14.8008354306
 20
12.190788093
 30
0.0
 10
14.8062213974
 20
12.1978468338
 30
0.0
 10
14.8119663034
 20
12.2047629258
 30
0.0
 10
14.8180565093
 20
12.2115201032
 30
0.0
 10
14.8244773038
 20
12.2181020563
 30
0.0
 10
14.8312132679
 20
12.22449299
 30
0.0
 10
14.8382481853
 20
12.2306775563
 30
0.0
 10
14.8455651228
 20
12.2366409083
 30
0.0
 10
14.8531464985
 20
12.2423687229
 30
0.0
 10
14.8609740403
 20
12.2478471909
 30
0.0
 10
14.8690290993
 20
12.2530632695
 30
0.0
 10
14.8800544199
 20
12.259656112
 30
0.0
 10
14.8914424569
 20
12.2656663806
 30
0.0
 10
14.9031277237
 20
12.2710617567
 30
0.0
 10
14.9120197901
 20
12.2747909949
 30
0.0
 10
14.9210163164
 20
12.2781928895
 30
0.0
 10
14.9300958727
 20
12.2812593477
 30
0.0
 10
14.9392365692
 20
12.2839829827
 30
0.0
 10
14.9484164456
 20
12.2863572444
 30
0.0
 10
14.9576134339
 20
12.2883763925
 30
0.0
 10
14.9668054249
 20
12.2900355665
 30
0.0
 10
14.9759703228
 20
12.2913307761
 30
0.0
 10
14.9850861017
 20
12.2922588843
 30
0.0
 10
14.9941308551
 20
12.292817614
 30
0.0
 10
15.0030828458
 20
12.29300561
 30
0.0
 10
15.0119205638
 20
12.2928223954
 30
0.0
 10
15.0206227716
 20
12.2922683597
 30
0.0
 10
15.0291685538
 20
12.2913447671
 30
0.0
 10
15.0375373734
 20
12.2900538023
 30
0.0
 10
15.0457091144
 20
12.288398506
 30
0.0
 10
15.0536641205
 20
12.2863827643
 30
0.0
 10
15.061383246
 20
12.2840113277
 30
0.0
 10
15.0688479103
 20
12.2812898239
 30
0.0
 10
15.0760401223
 20
12.2782246933
 30
0.0
 10
15.082942512
 20
12.2748231767
 30
0.0
 10
15.0895383929
 20
12.2710933506
 30
0.0
 10
15.0958117997
 20
12.2670440988
 30
0.0
 10
15.1017475037
 20
12.2626850659
 30
0.0
 10
15.1073310438
 20
12.2580266455
 30
0.0
 10
15.1125488113
 20
12.2530800173
 30
0.0
 10
15.1173880615
 20
12.2478570853
 30
0.0
 10
15.1218369353
 20
12.2423704447
 30
0.0
 10
15.1258845026
 20
12.2366333659
 30
0.0
 10
15.1295208578
 20
12.230659799
 30
0.0
 10
15.1327371003
 20
12.2244642885
 30
0.0
 10
15.1355253573
 20
12.2180619348
 30
0.0
 10
15.1378788356
 20
12.211468364
 30
0.0
 10
15.1397918785
 20
12.2046996789
 30
0.0
 10
15.1412599157
 20
12.1977723988
 30
0.0
 10
15.1422794636
 20
12.1907033481
 30
0.0
 10
15.142848184
 20
12.1835098792
 30
0.0
 10
15.1429450942
 20
12.1774453103
 30
0.0
 10
15.1427988446
 20
12.1725520874
 30
0.0
 10
15.1425006181
 20
12.1675980332
 30
0.0
 10
15.1418426505
 20
12.1613573879
 30
0.0
 10
15.1408167167
 20
12.1551189181
 30
0.0
 10
15.1397758165
 20
12.1501117204
 30
0.0
 10
15.1385780092
 20
12.145055697
 30
0.0
 10
15.1375203618
 20
12.1412867026
 30
0.0
 10
15.1367472789
 20
12.1387850052
 30
0.0
  0
SPLINE
  5
2B2
100
AcDbEntity
  8
LAYER_FEATURE
100
AcDbSpline
 62
7
  6
CONTINUOUS
 70
0
 71
3
 72
14
 73
10
 74
0
 42
0.0000001
 43
0.0000001
 44
0.0000000001
 40
0.0
 40
0.0
 40
0.0
 40
0.0
 40
0.1207059121
 40
0.241844287
 40
0.3638384734
 40
0.4870948369
 40
0.6120040593
 40
0.7389378197
 40
1.0
 40
1.0
 40
1.0
 40
1.0
 10
16.7298804876
 20
12.9698319021
 30
0.0
 10
16.7300007921
 20
12.9702212186
 30
0.0
 10
16.7302133681
 20
12.97101037
 30
0.0
 10
16.730445727
 20
12.9722174868
 30
0.0
 10
16.7305914696
 20
12.9734468127
 30
0.0
 10
16.7306503856
 20
12.9746960185
 30
0.0
 10
16.7306223365
 20
12.9759630201
 30
0.0
 10
16.7304678357
 20
12.9776885258
 30
0.0
 10
16.7302226398
 20
12.9789797928
 30
0.0
 10
16.7300077691
 20
12.9798344948
 30
0.0
  0
SPLINE
  5
2B3
100
AcDbEntity
  8
LAYER_CHAMFER_FEAT
100
AcDbSpline
 62
7
  6
CONTINUOUS
 70
0
 71
3
 72
69
 73
65
 74
0
 42
0.0000001
 43
0.0000001
 44
0.0000000001
 40
0.0
 40
0.0
 40
0.0
 40
0.0
 40
0.0180026588
 40
0.0357336106
 40
0.053190388
 40
0.0703714015
 40
0.087275871
 40
0.1039039754
 40
0.1202568009
 40
0.136336474
 40
0.15214613
 40
0.1676900227
 40
0.1979982034
 40
0.2127817304
 40
0.2273281317
 40
0.2416476473
 40
0.2557517824
 40
0.2696533208
 40
0.2833662901
 40
0.2969059626
 40
0.3102887737
 40
0.3235322955
 40
0.3366551102
 40
0.3496767454
 40
0.3626175085
 40
0.3754983784
 40
0.3883408149
 40
0.4011666087
 40
0.4139976862
 40
0.4268559288
 40
0.4397629954
 40
0.452740127
 40
0.4658080087
 40
0.4789865764
 40
0.4922949317
 40
0.5057511658
 40
0.5193723306
 40
0.5331742893
 40
0.5471717387
 40
0.5613780907
 40
0.5758055327
 40
0.5904649416
 40
0.6053659675
 40
0.6359203227
 40
0.6515916189
 40
0.6675308697
 40
0.6837417785
 40
0.7002269925
 40
0.7169881308
 40
0.7340258349
 40
0.7513398213
 40
0.7689289064
 40
0.7867910819
 40
0.8049235189
 40
0.8233226603
 40
0.8419841853
 40
0.8609031307
 40
0.880073897
 40
0.8994903202
 40
0.9191454355
 40
0.9390318349
 40
0.9591422522
 40
0.9794686888
 40
1.0
 40
1.0
 40
1.0
 40
1.0
 10
15.4393157265
 20
11.4524288071
 30
0.0
 10
15.4415670794
 20
11.4499650758
 30
0.0
 10
15.4459748095
 20
11.4450186069
 30
0.0
 10
15.4523421939
 20
11.4374878121
 30
0.0
 10
15.4584103265
 20
11.4299078794
 30
0.0
 10
15.4641741499
 20
11.4222852274
 30
0.0
 10
15.469628806
 20
11.4146261239
 30
0.0
 10
15.474769791
 20
11.4069369903
 30
0.0
 10
15.4795927597
 20
11.3992241549
 30
0.0
 10
15.4840936992
 20
11.3914941247
 30
0.0
 10
15.4882688941
 20
11.3837530625
 30
0.0
 10
15.4933534123
 20
11.3735131612
 30
0.0
 10
15.4978278924
 20
11.3631882412
 30
0.0
 10
15.5016453099
 20
11.3528098047
 30
0.0
 10
15.5041443233
 20
11.3451110509
 30
0.0
 10
15.5063005454
 20
11.3374401237
 30
0.0
 10
15.5081121719
 20
11.3298032629
 30
0.0
 10
15.5095776319
 20
11.3222068807
 30
0.0
 10
15.5106956127
 20
11.3146573058
 30
0.0
 10
15.5114651522
 20
11.3071608647
 30
0.0
 10
15.51188549
 20
11.2997238353
 30
0.0
 10
15.5119562718
 20
11.2923524704
 30
0.0
 10
15.5116773061
 20
11.2850529746
 30
0.0
 10
15.5110488566
 20
11.2778315042
 30
0.0
 10
15.5100713159
 20
11.2706941701
 30
0.0
 10
15.5087455729
 20
11.2636470012
 30
0.0
 10
15.5070726167
 20
11.2566959892
 30
0.0
 10
15.5050539617
 20
11.2498470005
 30
0.0
 10
15.5026911997
 20
11.2431058752
 30
0.0
 10
15.49998646
 20
11.2364782814
 30
0.0
 10
15.4969419349
 20
11.2299698741
 30
0.0
 10
15.4935603477
 20
11.2235860916
 30
0.0
 10
15.4898444801
 20
11.2173323723
 30
0.0
 10
15.4857976217
 20
11.2112139017
 30
0.0
 10
15.4814231267
 20
11.205235876
 30
0.0
 10
15.4767248218
 20
11.1994032145
 30
0.0
 10
15.4717066141
 20
11.1937208518
 30
0.0
 10
15.4663728405
 20
11.188193435
 30
0.0
 10
15.460727944
 20
11.1828256235
 30
0.0
 10
15.4547767426
 20
11.1776217853
 30
0.0
 10
15.4485242266
 20
11.1725863116
 30
0.0
 10
15.4419755647
 20
11.1677232164
 30
0.0
 10
15.4327806864
 20
11.1614224245
 30
0.0
 10
15.4230815905
 20
11.1555399727
 30
0.0
 10
15.4129340791
 20
11.1500740157
 30
0.0
 10
15.4049920611
 20
11.1461305253
 30
0.0
 10
15.3967905419
 20
11.1423814327
 30
0.0
 10
15.388336147
 20
11.1388297192
 30
0.0
 10
15.379635981
 20
11.1354783548
 30
0.0
 10
15.3706972815
 20
11.132330091
 30
0.0
 10
15.3615274954
 20
11.1293875532
 30
0.0
 10
15.3521342683
 20
11.1266531493
 30
0.0
 10
15.3425254184
 20
11.1241291781
 30
0.0
 10
15.3327089581
 20
11.1218176886
 30
0.0
 10
15.3226930581
 20
11.1197206466
 30
0.0
 10
15.3124860746
 20
11.1178397345
 30
0.0
 10
15.3020965018
 20
11.1161765714
 30
0.0
 10
15.2915329918
 20
11.1147324733
 30
0.0
 10
15.2808043565
 20
11.1135087162
 30
0.0
 10
15.2699195818
 20
11.1125062313
 30
0.0
 10
15.2588876777
 20
11.1117259156
 30
0.0
 10
15.2477176786
 20
11.111168365
 30
0.0
 10
15.2364192269
 20
11.1108341336
 30
0.0
 10
15.2288445351
 20
11.1107606391
 30
0.0
 10
15.2250383089
 20
11.1107606391
 30
0.0
  0
SPLINE
  5
2B4
100
AcDbEntity
  8
LAYER_FEATURE
100
AcDbSpline
 62
7
  6
CONTINUOUS
 70
0
 71
3
 72
36
 73
32
 74
0
 42
0.0000001
 43
0.0000001
 44
0.0000000001
 40
0.0
 40
0.0
 40
0.0
 40
0.0
 40
0.021941635
 40
0.0440081795
 40
0.0663246113
 40
0.0890065685
 40
0.1121603272
 40
0.1358811109
 40
0.1602511083
 40
0.1853392656
 40
0.2112007748
 40
0.237877932
 40
0.2654003447
 40
0.2937858063
 40
0.3230414374
 40
0.3531639996
 40
0.3841414668
 40
0.4159532646
 40
0.4485713975
 40
0.4819612036
 40
0.5160816989
 40
0.5508867598
 40
0.5863251511
 40
0.6223415155
 40
0.6588767005
 40
0.6958682277
 40
0.7332509726
 40
0.7709572265
 40
0.8470526748
 40
0.9235915507
 40
1.0
 40
1.0
 40
1.0
 40
1.0
 10
16.7085437486
 20
12.705461163
 30
0.0
 10
16.7086967071
 20
12.7059560975
 30
0.0
 10
16.7089573787
 20
12.7069637058
 30
0.0
 10
16.7092080566
 20
12.7085115258
 30
0.0
 10
16.7093182772
 20
12.7100932198
 30
0.0
 10
16.7092878358
 20
12.7117039894
 30
0.0
 10
16.7091169465
 20
12.7133391849
 30
0.0
 10
16.7088062506
 20
12.7149940871
 30
0.0
 10
16.7083568442
 20
12.7166640198
 30
0.0
 10
16.7077700709
 20
12.7183442614
 30
0.0
 10
16.7070477708
 20
12.7200301352
 30
0.0
 10
16.7061920372
 20
12.7217169281
 30
0.0
 10
16.7052053574
 20
12.723399945
 30
0.0
 10
16.7040905833
 20
12.725074519
 30
0.0
 10
16.7028508453
 20
12.7267359511
 30
0.0
 10
16.7014897034
 20
12.7283796436
 30
0.0
 10
16.7000109677
 20
12.7300009704
 30
0.0
 10
16.6984188284
 20
12.7315954084
 30
0.0
 10
16.6967177789
 20
12.7331584941
 30
0.0
 10
16.6949125919
 20
12.7346858121
 30
0.0
 10
16.693008386
 20
12.73617311
 30
0.0
 10
16.6910104996
 20
12.7376161634
 30
0.0
 10
16.6889245851
 20
12.7390109382
 30
0.0
 10
16.6867565197
 20
12.740353497
 30
0.0
 10
16.6845124082
 20
12.7416400413
 30
0.0
 10
16.6821986061
 20
12.7428669725
 30
0.0
 10
16.6798215938
 20
12.7440308024
 30
0.0
 10
16.6765673496
 20
12.7454984174
 30
0.0
 10
16.6723859032
 20
12.7471532724
 30
0.0
 10
16.6672429519
 20
12.7488341135
 30
0.0
 10
16.6637462244
 20
12.7497460801
 30
0.0
 10
16.6619874421
 20
12.7501473026
 30
0.0
  0
SPLINE
  5
2B5
100
AcDbEntity
  8
LAYER_FEATURE
100
AcDbSpline
 62
7
  6
CONTINUOUS
 70
0
 71
3
 72
23
 73
19
 74
0
 42
0.0000001
 43
0.0000001
 44
0.0000000001
 40
0.0
 40
0.0
 40
0.0
 40
0.0
 40
0.0696910344
 40
0.138141676
 40
0.205386594
 40
0.271473319
 40
0.3364539513
 40
0.4003877722
 40
0.4633414323
 40
0.5253884235
 40
0.5866090836
 40
0.6470902522
 40
0.7069248621
 40
0.7662114206
 40
0.8250532911
 40
0.8835579089
 40
0.9418358884
 40
1.0
 40
1.0
 40
1.0
 40
1.0
 10
16.0660171439
 20
12.0133247347
 30
0.0
 10
16.0686446122
 20
12.0079705172
 30
0.0
 10
16.0736591017
 20
11.9972608853
 30
0.0
 10
16.0804993366
 20
11.9810648481
 30
0.0
 10
16.0865830649
 20
11.9648983812
 30
0.0
 10
16.0919042056
 20
11.9487773592
 30
0.0
 10
16.0964576069
 20
11.9327169471
 30
0.0
 10
16.1002387438
 20
11.9167325267
 30
0.0
 10
16.103243816
 20
11.9008393802
 30
0.0
 10
16.1054697666
 20
11.8850527255
 30
0.0
 10
16.1069143065
 20
11.8693877231
 30
0.0
 10
16.1075758466
 20
11.8538594447
 30
0.0
 10
16.1074535647
 20
11.8384828771
 30
0.0
 10
16.1065474521
 20
11.823272884
 30
0.0
 10
16.1048582467
 20
11.8082442537
 30
0.0
 10
16.1023873986
 20
11.7934114478
 30
0.0
 10
16.0991374283
 20
11.778789447
 30
0.0
 10
16.0964521484
 20
11.7691869868
 30
0.0
 10
16.0949824975
 20
11.7644312006
 30
0.0
  0
SPLINE
  5
2B6
100
AcDbEntity
  8
LAYER_FEATURE
100
AcDbSpline
 62
7
  6
CONTINUOUS
 70
0
 71
3
 72
23
 73
19
 74
0
 42
0.0000001
 43
0.0000001
 44
0.0000000001
 40
0.0
 40
0.0
 40
0.0
 40
0.0
 40
0.0532366319
 40
0.10675689
 40
0.1608371553
 40
0.2157393679
 40
0.2717058408
 40
0.3289544236
 40
0.3876757897
 40
0.4480321869
 40
0.5101559711
 40
0.5741517391
 40
0.6400961825
 40
0.7080397495
 40
0.7780063675
 40
0.850003638
 40
0.9240210277
 40
1.0
 40
1.0
 40
1.0
 40
1.0
 10
16.5295956052
 20
13.2972052952
 30
0.0
 10
16.529742629
 20
13.2976810555
 30
0.0
 10
16.5299948628
 20
13.2986488688
 30
0.0
 10
16.5302436751
 20
13.3001344643
 30
0.0
 10
16.5303627439
 20
13.3016517275
 30
0.0
 10
16.5303518713
 20
13.3031963786
 30
0.0
 10
16.5302111774
 20
13.3047643105
 30
0.0
 10
16.5299411739
 20
13.3063513435
 30
0.0
 10
16.5295427279
 20
13.3079533179
 30
0.0
 10
16.5290169523
 20
13.3095660401
 30
0.0
 10
16.5283653942
 20
13.3111853587
 30
0.0
 10
16.5275897649
 20
13.3128070673
 30
0.0
 10
16.5266922038
 20
13.3144270164
 30
0.0
 10
16.5256750659
 20
13.3160409954
 30
0.0
 10
16.5245410655
 20
13.3176448774
 30
0.0
 10
16.5232931006
 20
13.3192345797
 30
0.0
 10
16.5219345062
 20
13.3208058346
 30
0.0
 10
16.5209698234
 20
13.3218253103
 30
0.0
 10
16.5204705913
 20
13.3223311167
 30
0.0
  0
SPLINE
  5
2B7
100
AcDbEntity
  8
LAYER_FEATURE
100
AcDbSpline
 62
7
  6
CONTINUOUS
 70
0
 71
3
 72
81
 73
77
 74
0
 42
0.0000001
 43
0.0000001
 44
0.0000000001
 40
0.0
 40
0.0
 40
0.0
 40
0.0
 40
0.0171785929
 40
0.0345301672
 40
0.0520439373
 40
0.0697094984
 40
0.0875156737
 40
0.1054511118
 40
0.1235041404
 40
0.1416628287
 40
0.1599150211
 40
0.1782483592
 40
0.1966503124
 40
0.215108205
 40
0.2336092439
 40
0.252140547
 40
0.2706891691
 40
0.2892421289
 40
0.307786436
 40
0.3263091185
 40
0.344797249
 40
0.3632379718
 40
0.3816185298
 40
0.3999262924
 40
0.4181487836
 40
0.4362737087
 40
0.4542889833
 40
0.4721827612
 40
0.4899434659
 40
0.5075598198
 40
0.5250208747
 40
0.5423160427
 40
0.5594351288
 40
0.576368367
 40
0.593106454
 40
0.6096405842
 40
0.6259624872
 40
0.6420644667
 40
0.6579394439
 40
0.6735809991
 40
0.688983415
 40
0.7041417225
 40
0.7190517502
 40
0.7337101771
 40
0.748114585
 40
0.7622635114
 40
0.7761565056
 40
0.789794187
 40
0.8031783061
 40
0.8163118027
 40
0.8291988611
 40
0.8418449655
 40
0.8542569513
 40
0.8603780115
 40
0.8664437512
 40
0.8784136356
 40
0.8901784279
 40
0.8959881948
 40
0.9017515357
 40
0.9131453779
 40
0.9187806054
 40
0.924377145
 40
0.9299371465
 40
0.9354628384
 40
0.940956532
 40
0.9464206072
 40
0.9518575181
 40
0.9572697828
 40
0.9626599783
 40
0.9680307398
 40
0.973384748
 40
0.978724729
 40
0.9840534438
 40
0.9893736827
 40
0.994688259
 40
1.0
 40
1.0
 40
1.0
 40
1.0
 10
15.2094018881
 20
14.014988295
 30
0.0
 10
15.2234027323
 20
14.014988295
 30
0.0
 10
15.2515463022
 20
14.0146802217
 30
0.0
 10
15.29394389
 20
14.0133113857
 30
0.0
 10
15.3367000108
 20
14.0110347583
 30
0.0
 10
15.3797696925
 20
14.0078528084
 30
0.0
 10
15.4231083622
 20
14.0037687842
 30
0.0
 10
15.4666708248
 20
13.9987869589
 30
0.0
 10
15.5104117659
 20
13.9929125179
 30
0.0
 10
15.5542856546
 20
13.9861515806
 30
0.0
 10
15.5982468242
 20
13.978511186
 30
0.0
 10
15.6422495163
 20
13.9699992833
 30
0.0
 10
15.6862479259
 20
13.9606247265
 30
0.0
 10
15.7301962536
 20
13.9503972799
 30
0.0
 10
15.7740487512
 20
13.9393275939
 30
0.0
 10
15.8177597697
 20
13.9274271918
 30
0.0
 10
15.8612838057
 20
13.9147084589
 30
0.0
 10
15.9045755486
 20
13.9011846286
 30
0.0
 10
15.9475899333
 20
13.8868697847
 30
0.0
 10
15.9902821834
 20
13.8717788326
 30
0.0
 10
16.0326078573
 20
13.8559274821
 30
0.0
 10
16.0745228941
 20
13.8393322316
 30
0.0
 10
16.1159836585
 20
13.8220103495
 30
0.0
 10
16.1569469942
 20
13.8039798718
 30
0.0
 10
16.1973702639
 20
13.7852595703
 30
0.0
 10
16.2372113919
 20
13.7658689305
 30
0.0
 10
16.2764289076
 20
13.7458281324
 30
0.0
 10
16.3149819881
 20
13.7251580274
 30
0.0
 10
16.3528305101
 20
13.7038801312
 30
0.0
 10
16.3899350859
 20
13.6820165896
 30
0.0
 10
16.4262571016
 20
13.6595901523
 30
0.0
 10
16.4617587566
 20
13.6366241507
 30
0.0
 10
16.4964031024
 20
13.6131424703
 30
0.0
 10
16.5301540921
 20
13.5891695399
 30
0.0
 10
16.5629766119
 20
13.5647302952
 30
0.0
 10
16.5948365122
 20
13.5398501493
 30
0.0
 10
16.625700643
 20
13.5145549678
 30
0.0
 10
16.6555368872
 20
13.4888710375
 30
0.0
 10
16.6843142066
 20
13.4628250526
 30
0.0
 10
16.7120026665
 20
13.4364440765
 30
0.0
 10
16.7385734603
 20
13.4097555093
 30
0.0
 10
16.7639989379
 20
13.3827870622
 30
0.0
 10
16.7882526316
 20
13.355566723
 30
0.0
 10
16.8113092981
 20
13.3281227395
 30
0.0
 10
16.8331449351
 20
13.3004835817
 30
0.0
 10
16.8537367956
 20
13.2726779082
 30
0.0
 10
16.8730634102
 20
13.2447345397
 30
0.0
 10
16.8911046019
 20
13.2166824283
 30
0.0
 10
16.9078415266
 20
13.188550628
 30
0.0
 10
16.9232566658
 20
13.1603683029
 30
0.0
 10
16.9373338883
 20
13.1321645416
 30
0.0
 10
16.9500582532
 20
13.1039688984
 30
0.0
 10
16.9595671031
 20
13.0803949744
 30
0.0
 10
16.9664744178
 20
13.0615725878
 30
0.0
 10
16.9728601999
 20
13.0429474825
 30
0.0
 10
16.9799876537
 20
13.0197202103
 30
0.0
 10
16.9860067381
 20
12.9963960386
 30
0.0
 10
16.9901088564
 20
12.9778211942
 30
0.0
 10
16.9937105491
 20
12.9594511492
 30
0.0
 10
16.996626437
 20
12.9410962162
 30
0.0
 10
16.998836075
 20
12.9227873192
 30
0.0
 10
17.0001328953
 20
12.9091617616
 30
0.0
 10
17.0010748767
 20
12.8955966486
 30
0.0
 10
17.0016617319
 20
12.8820953818
 30
0.0
 10
17.0018933677
 20
12.8686615259
 30
0.0
 10
17.0017696434
 20
12.8552985761
 30
0.0
 10
17.0012906195
 20
12.8420100277
 30
0.0
 10
17.0004564212
 20
12.8287993506
 30
0.0
 10
16.9992672024
 20
12.8156700028
 30
0.0
 10
16.9977233448
 20
12.8026254107
 30
0.0
 10
16.9958251715
 20
12.7896689942
 30
0.0
 10
16.9935732132
 20
12.7768041368
 30
0.0
 10
16.990968064
 20
12.7640342109
 30
0.0
 10
16.9880103376
 20
12.7513625361
 30
0.0
 10
16.9847009216
 20
12.7387925408
 30
0.0
 10
16.9822603982
 20
12.7304814734
 30
0.0
 10
16.980982222
 20
12.7263453059
 30
0.0
  0
SPLINE
  5
2B8
100
AcDbEntity
  8
LAYER_FEATURE
100
AcDbSpline
 62
7
  6
CONTINUOUS
 70
0
 71
3
 72
67
 73
63
 74
0
 42
0.0000001
 43
0.0000001
 44
0.0000000001
 40
0.0
 40
0.0
 40
0.0
 40
0.0
 40
0.0206820435
 40
0.0412134647
 40
0.0615880425
 40
0.0818012076
 40
0.1018487592
 40
0.1217263226
 40
0.1414296583
 40
0.1609548621
 40
0.1802982352
 40
0.1994563037
 40
0.2184258098
 40
0.2372037749
 40
0.2557874603
 40
0.274174418
 40
0.2923624641
 40
0.3103497292
 40
0.3281346338
 40
0.3457159341
 40
0.3630927043
 40
0.3802643775
 40
0.3972307331
 40
0.4139919337
 40
0.4305485178
 40
0.4469014311
 40
0.4630520256
 40
0.4790020844
 40
0.510307421
 40
0.5408430107
 40
0.5706397067
 40
0.5997362794
 40
0.6140379977
 40
0.6281829673
 40
0.6421783381
 40
0.656031758
 40
0.6697513841
 40
0.6833458507
 40
0.6968242734
 40
0.7101962082
 40
0.7234716472
 40
0.7366609687
 40
0.7497749231
 40
0.7628245761
 40
0.7758212832
 40
0.7887766292
 40
0.8017023909
 40
0.8146104758
 40
0.8275128754
 40
0.8404216061
 40
0.8533486546
 40
0.8663059259
 40
0.8793051833
 40
0.8923580063
 40
0.9054757288
 40
0.9186694092
 40
0.9319497689
 40
0.9453271774
 40
0.958811592
 40
0.9724125583
 40
0.9861391535
 40
1.0
 40
1.0
 40
1.0
 40
1.0
 10
15.2575640123
 20
13.8402478319
 30
0.0
 10
15.249739121
 20
13.8402478319
 30
0.0
 10
15.2341460818
 20
13.8401360648
 30
0.0
 10
15.2108494369
 20
13.8396291287
 30
0.0
 10
15.1877400668
 20
13.8387836138
 30
0.0
 10
15.1648288489
 20
13.8375999817
 30
0.0
 10
15.1421260042
 20
13.8360787208
 30
0.0
 10
15.1196417655
 20
13.8342205818
 30
0.0
 10
15.0973863877
 20
13.8320263269
 30
0.0
 10
15.0753699918
 20
13.8294970249
 30
0.0
 10
15.053602564
 20
13.8266337554
 30
0.0
 10
15.0320939771
 20
13.8234378811
 30
0.0
 10
15.0108540045
 20
13.8199107827
 30
0.0
 10
14.9898922828
 20
13.8160541222
 30
0.0
 10
14.9692183338
 20
13.8118695845
 30
0.0
 10
14.9488415337
 20
13.8073591233
 30
0.0
 10
14.9287711413
 20
13.8025247238
 30
0.0
 10
14.9090162574
 20
13.797368628
 30
0.0
 10
14.8895858589
 20
13.7918931183
 30
0.0
 10
14.8704887551
 20
13.78610072
 30
0.0
 10
14.8517336251
 20
13.7799940088
 30
0.0
 10
14.833328972
 20
13.7735757878
 30
0.0
 10
14.81528316
 20
13.7668489214
 30
0.0
 10
14.7976043743
 20
13.7598164856
 30
0.0
 10
14.7803006394
 20
13.752481624
 30
0.0
 10
14.7633798455
 20
13.7448476972
 30
0.0
 10
14.746849529
 20
13.7369180571
 30
0.0
 10
14.7254744084
 20
13.726024333
 30
0.0
 10
14.6997489272
 20
13.7116990074
 30
0.0
 10
14.6703593821
 20
13.6932759097
 30
0.0
 10
14.6426986223
 20
13.6737610758
 30
0.0
 10
14.6210064528
 20
13.6565185611
 30
0.0
 10
14.6045909163
 20
13.6422135992
 30
0.0
 10
14.592811832
 20
13.6312963594
 30
0.0
 10
14.5815010656
 20
13.6201348624
 30
0.0
 10
14.5706636965
 20
13.6087340298
 30
0.0
 10
14.5603046836
 20
13.5970990868
 30
0.0
 10
14.5504288075
 20
13.5852352614
 30
0.0
 10
14.5410405552
 20
13.573147979
 30
0.0
 10
14.5321442909
 20
13.5608426858
 30
0.0
 10
14.5237440468
 20
13.5483250203
 30
0.0
 10
14.5158437524
 20
13.5356006353
 30
0.0
 10
14.5084469763
 20
13.5226753737
 30
0.0
 10
14.5015572015
 20
13.509555087
 30
0.0
 10
14.4951775223
 20
13.4962458102
 30
0.0
 10
14.489310964
 20
13.4827535847
 30
0.0
 10
14.4839601373
 20
13.4690846231
 30
0.0
 10
14.479127599
 20
13.4552451453
 30
0.0
 10
14.4748154688
 20
13.4412415255
 30
0.0
 10
14.4710258257
 20
13.4270801485
 30
0.0
 10
14.467760294
 20
13.4127675323
 30
0.0
 10
14.4650204677
 20
13.3983102116
 30
0.0
 10
14.4628074744
 20
13.3837148304
 30
0.0
 10
14.4611224182
 20
13.3689880572
 30
0.0
 10
14.4599659318
 20
13.3541366446
 30
0.0
 10
14.4593386275
 20
13.3391673786
 30
0.0
 10
14.4592406472
 20
13.3240871053
 30
0.0
 10
14.4596721117
 20
13.3089027096
 30
0.0
 10
14.4606326756
 20
13.2936211292
 30
0.0
 10
14.4621219789
 20
13.2782492868
 30
0.0
 10
14.4641391623
 20
13.2627943756
 30
0.0
 10
14.4658268514
 20
13.2524920648
 30
0.0
 10
14.4667567256
 20
13.2473310202
 30
0.0
  0
SPLINE
  5
2B9
100
AcDbEntity
  8
LAYER_FEATURE
100
AcDbSpline
 62
7
  6
CONTINUOUS
 70
0
 71
3
 72
86
 73
82
 74
0
 42
0.0000001
 43
0.0000001
 44
0.0000000001
 40
0.0
 40
0.0
 40
0.0
 40
0.0
 40
0.0178448012
 40
0.0358921645
 40
0.0541278099
 40
0.0725373687
 40
0.0911056687
 40
0.1098171933
 40
0.1286559762
 40
0.1476057036
 40
0.1666497502
 40
0.1857712315
 40
0.2049530515
 40
0.2241779514
 40
0.2434285563
 40
0.2626874224
 40
0.2819370837
 40
0.3011600987
 40
0.3203390974
 40
0.3394568283
 40
0.3584962062
 40
0.3774403593
 40
0.3962726784
 40
0.4149768655
 40
0.433536984
 40
0.4519375101
 40
0.470163385
 40
0.4882000694
 40
0.5060335997
 40
0.5236506449
 40
0.5410385669
 40
0.5581854824
 40
0.575080329
 40
0.5917129323
 40
0.6080740789
 40
0.6241555911
 40
0.6399504074
 40
0.6554526646
 40
0.6706577854
 40
0.6855625704
 40
0.7001652932
 40
0.7144657992
 40
0.7284656071
 40
0.7421680115
 40
0.7555781843
 40
0.7687032712
 40
0.7815524821
 40
0.7941371686
 40
0.806470884
 40
0.8185694201
 40
0.8304508109
 40
0.8363169061
 40
0.8421364907
 40
0.8479124231
 40
0.8536476917
 40
0.8593454016
 40
0.8650087708
 40
0.8706411253
 40
0.8762458845
 40
0.8818265607
 40
0.88738674
 40
0.8929300796
 40
0.8984602909
 40
0.9039811303
 40
0.9094963859
 40
0.9150098648
 40
0.92052538
 40
0.9260467382
 40
0.9315777251
 40
0.9371220949
 40
0.9426835558
 40
0.9482657593
 40
0.9538722892
 40
0.9595066483
 40
0.9651722543
 40
0.9708724215
 40
0.9766103643
 40
0.9823891777
 40
0.9882118417
 40
0.9940812084
 40
1.0
 40
1.0
 40
1.0
 40
1.0
 10
15.2575640123
 20
13.8402478319
 30
0.0
 10
15.2711784186
 20
13.8402478319
 30
0.0
 10
15.2985628946
 20
13.8399064548
 30
0.0
 10
15.3398348134
 20
13.8383922894
 30
0.0
 10
15.3814895216
 20
13.8358749915
 30
0.0
 10
15.4234704249
 20
13.8323580285
 30
0.0
 10
15.4657211471
 20
13.8278460947
 30
0.0
 10
15.5081846732
 20
13.8223453008
 30
0.0
 10
15.5508037944
 20
13.8158630496
 30
0.0
 10
15.593521058
 20
13.8084080833
 30
0.0
 10
15.6362788845
 20
13.7999904477
 30
0.0
 10
15.6790196357
 20
13.7906214922
 30
0.0
 10
15.721685695
 20
13.7803138479
 30
0.0
 10
15.7642195454
 20
13.7690814111
 30
0.0
 10
15.8065638472
 20
13.7569393245
 30
0.0
 10
15.8486615156
 20
13.7439039567
 30
0.0
 10
15.8904557979
 20
13.7299928802
 30
0.0
 10
15.9318903504
 20
13.715224848
 30
0.0
 10
15.9729093141
 20
13.699619767
 30
0.0
 10
16.0134573924
 20
13.6831986752
 30
0.0
 10
16.0534799253
 20
13.6659837104
 30
0.0
 10
16.0929229626
 20
13.6479980788
 30
0.0
 10
16.1317333373
 20
13.6292660239
 30
0.0
 10
16.1698587369
 20
13.6098127934
 30
0.0
 10
16.2072477743
 20
13.5896646042
 30
0.0
 10
16.2438500572
 20
13.5688486074
 30
0.0
 10
16.2796162559
 20
13.5473928499
 30
0.0
 10
16.314498172
 20
13.5253262387
 30
0.0
 10
16.3484488034
 20
13.5026785002
 30
0.0
 10
16.3814224057
 20
13.4794801371
 30
0.0
 10
16.4133745538
 20
13.4557623868
 30
0.0
 10
16.4442622013
 20
13.4315571781
 30
0.0
 10
16.4740437374
 20
13.4068970867
 30
0.0
 10
16.5026790424
 20
13.3818152905
 30
0.0
 10
16.5301295401
 20
13.356345522
 30
0.0
 10
16.5563582509
 20
13.3305220234
 30
0.0
 10
16.5813298396
 20
13.304379499
 30
0.0
 10
16.6050106578
 20
13.2779530643
 30
0.0
 10
16.6273687856
 20
13.2512781979
 30
0.0
 10
16.6483740703
 20
13.2243906934
 30
0.0
 10
16.6679981616
 20
13.1973266102
 30
0.0
 10
16.6862145436
 20
13.1701222257
 30
0.0
 10
16.7029985628
 20
13.1428139881
 30
0.0
 10
16.7183274565
 20
13.1154384718
 30
0.0
 10
16.7321803769
 20
13.0880323337
 30
0.0
 10
16.744538406
 20
13.0606322757
 30
0.0
 10
16.7553845767
 20
13.0332749879
 30
0.0
 10
16.7647038816
 20
13.0059971912
 30
0.0
 10
16.7724833217
 20
12.9788353309
 30
0.0
 10
16.7787118178
 20
12.9518265524
 30
0.0
 10
16.7826189516
 20
12.929380776
 30
0.0
 10
16.7849499466
 20
12.9115503526
 30
0.0
 10
16.7862990333
 20
12.8982948526
 30
0.0
 10
16.787255674
 20
12.8851053898
 30
0.0
 10
16.7878195896
 20
12.871986311
 30
0.0
 10
16.7879905613
 20
12.8589420845
 30
0.0
 10
16.787768483
 20
12.8459771187
 30
0.0
 10
16.7871534779
 20
12.8330958063
 30
0.0
 10
16.7861456508
 20
12.8203025157
 30
0.0
 10
16.7847454279
 20
12.8076015786
 30
0.0
 10
16.7829531781
 20
12.7949973117
 30
0.0
 10
16.7807695737
 20
12.7824939837
 30
0.0
 10
16.7781953021
 20
12.7700958441
 30
0.0
 10
16.7752312397
 20
12.7578071025
 30
0.0
 10
16.7718784156
 20
12.7456319228
 30
0.0
 10
16.7681379061
 20
12.7335744567
 30
0.0
 10
16.7640110642
 20
12.7216387709
 30
0.0
 10
16.7594991988
 20
12.7098289497
 30
0.0
 10
16.7546039366
 20
12.6981489656
 30
0.0
 10
16.749326872
 20
12.6866028099
 30
0.0
 10
16.7436698499
 20
12.675194377
 30
0.0
 10
16.7376347851
 20
12.6639275367
 30
0.0
 10
16.7312237159
 20
12.6528061166
 30
0.0
 10
16.7244388759
 20
12.6418338489
 30
0.0
 10
16.7172825076
 20
12.631014489
 30
0.0
 10
16.7097571281
 20
12.620351638
 30
0.0
 10
16.701865221
 20
12.60984895
 30
0.0
 10
16.693609541
 20
12.5995099269
 30
0.0
 10
16.6849928298
 20
12.5893380614
 30
0.0
 10
16.6760181216
 20
12.5793368666
 30
0.0
 10
16.669825001
 20
12.5728134831
 30
0.0
 10
16.6666712255
 20
12.5695816456
 30
0.0
  0
SPLINE
  5
2BA
100
AcDbEntity
  8
LAYER_FEATURE
100
AcDbSpline
 62
7
  6
CONTINUOUS
 70
0
 71
3
 72
24
 73
20
 74
0
 42
0.0000001
 43
0.0000001
 44
0.0000000001
 40
0.0
 40
0.0
 40
0.0
 40
0.0
 40
0.0613106788
 40
0.1236439325
 40
0.1868266828
 40
0.2506777898
 40
0.3150099279
 40
0.3796314009
 40
0.4443479155
 40
0.5089643302
 40
0.5732863967
 40
0.6371225099
 40
0.7002854808
 40
0.7625943572
 40
0.8238762872
 40
0.8839685253
 40
0.9427203923
 40
0.9715542461
 40
1.0
 40
1.0
 40
1.0
 40
1.0
 10
16.4702675279
 20
13.1052700947
 30
0.0
 10
16.4734408935
 20
13.1032827303
 30
0.0
 10
16.4799293438
 20
13.0994149207
 30
0.0
 10
16.4899689497
 20
13.0939874186
 30
0.0
 10
16.5003605641
 20
13.0889047523
 30
0.0
 10
16.5110574714
 20
13.0841897943
 30
0.0
 10
16.5220118959
 20
13.0798635907
 30
0.0
 10
16.5331748149
 20
13.0759455057
 30
0.0
 10
16.5444962913
 20
13.0724530657
 30
0.0
 10
16.5559256699
 20
13.069401897
 30
0.0
 10
16.5674118171
 20
13.0668056501
 30
0.0
 10
16.5789033491
 20
13.0646759393
 30
0.0
 10
16.5903488732
 20
13.0630222909
 30
0.0
 10
16.6016971983
 20
13.0618521045
 30
0.0
 10
16.612897657
 20
13.061170615
 30
0.0
 10
16.6239000159
 20
13.0609808996
 30
0.0
 10
16.6329189035
 20
13.0612348749
 30
0.0
 10
16.6399910593
 20
13.0616890011
 30
0.0
 10
16.6434759107
 20
13.0619985458
 30
0.0
 10
16.6452042243
 20
13.0621741698
 30
0.0
  0
SPLINE
  5
2BB
100
AcDbEntity
  8
LAYER_FEATURE
100
AcDbSpline
 62
7
  6
CONTINUOUS
 70
0
 71
3
 72
30
 73
26
 74
0
 42
0.0000001
 43
0.0000001
 44
0.0000000001
 40
0.0
 40
0.0
 40
0.0
 40
0.0
 40
0.0235133553
 40
0.0471061729
 40
0.0708565255
 40
0.094840037
 40
0.1191284942
 40
0.143789191
 40
0.1688839233
 40
0.1944685793
 40
0.2205928381
 40
0.2472997171
 40
0.2746260775
 40
0.3026019542
 40
0.3312516861
 40
0.3605931248
 40
0.4213823848
 40
0.4850225219
 40
0.5514753229
 40
0.6206374783
 40
0.6923495548
 40
0.7664052317
 40
0.8425561227
 40
0.920525106
 40
1.0
 40
1.0
 40
1.0
 40
1.0
 10
16.1329239466
 20
13.5746496514
 30
0.0
 10
16.133040863
 20
13.5750279869
 30
0.0
 10
16.1332482101
 20
13.5757945448
 30
0.0
 10
16.1334775394
 20
13.5769665573
 30
0.0
 10
16.1336251555
 20
13.5781596583
 30
0.0
 10
16.1336907194
 20
13.5793717553
 30
0.0
 10
16.1336742408
 20
13.5806008131
 30
0.0
 10
16.1335757238
 20
13.581844759
 30
0.0
 10
16.1333954121
 20
13.583101515
 30
0.0
 10
16.133133638
 20
13.5843689919
 30
0.0
 10
16.1327908603
 20
13.5856450853
 30
0.0
 10
16.132367723
 20
13.5869277053
 30
0.0
 10
16.1318649004
 20
13.5882147218
 30
0.0
 10
16.1312833212
 20
13.5895040476
 30
0.0
 10
16.1306238874
 20
13.5907935573
 30
0.0
 10
16.1296307598
 20
13.5925306986
 30
0.0
 10
16.1281949572
 20
13.5946900341
 30
0.0
 10
16.1262027293
 20
13.5972168394
 30
0.0
 10
16.1239342172
 20
13.5996934032
 30
0.0
 10
16.121404456
 20
13.6021035642
 30
0.0
 10
16.1186300098
 20
13.6044317458
 30
0.0
 10
16.1156290957
 20
13.6066627356
 30
0.0
 10
16.1124213615
 20
13.6087820162
 30
0.0
 10
16.1090279956
 20
13.6107755817
 30
0.0
 10
16.1066758313
 20
13.6120022254
 30
0.0
 10
16.1054744345
 20
13.6125921935
 30
0.0
  0
SPLINE
  5
2BC
100
AcDbEntity
  8
LAYER_FEATURE
100
AcDbSpline
 62
7
  6
CONTINUOUS
 70
0
 71
3
 72
51
 73
47
 74
0
 42
0.0000001
 43
0.0000001
 44
0.0000000001
 40
0.0
 40
0.0
 40
0.0
 40
0.0
 40
0.025997242
 40
0.0393704
 40
0.0529919239
 40
0.0668605084
 40
0.0809738219
 40
0.0953286507
 40
0.1099208656
 40
0.1247455659
 40
0.1397970381
 40
0.1705516838
 40
0.2021282924
 40
0.2344584281
 40
0.2674655832
 40
0.3010663619
 40
0.3351715839
 40
0.3696873254
 40
0.4045159101
 40
0.4395568635
 40
0.4747078404
 40
0.5098655351
 40
0.5449265838
 40
0.5797884655
 40
0.6143504107
 40
0.6485143266
 40
0.682185747
 40
0.7152748184
 40
0.7476973329
 40
0.7636351793
 40
0.7793779822
 40
0.7949172738
 40
0.810245229
 40
0.8253545649
 40
0.8402387333
 40
0.8548918128
 40
0.8693087199
 40
0.8834850883
 40
0.8974174848
 40
0.9111033081
 40
0.924541052
 40
0.937730117
 40
0.9506709409
 40
0.963365128
 40
0.9758161193
 40
1.0
 40
1.0
 40
1.0
 40
1.0
 10
16.0980017111
 20
13.4618168434
 30
0.0
 10
16.099500762
 20
13.4593509847
 30
0.0
 10
16.101908763
 20
13.4556985099
 30
0.0
 10
16.1053860916
 20
13.4509534022
 30
0.0
 10
16.1081839739
 20
13.4473821051
 30
0.0
 10
16.1111437554
 20
13.4438362951
 30
0.0
 10
16.1142622634
 20
13.4403196927
 30
0.0
 10
16.1175360859
 20
13.4368361866
 30
0.0
 10
16.1209616216
 20
13.4333895495
 30
0.0
 10
16.1245351662
 20
13.4299835422
 30
0.0
 10
16.129527584
 20
13.4254691588
 30
0.0
 10
16.1361185193
 20
13.4199547406
 30
0.0
 10
16.1444955544
 20
13.4136053709
 30
0.0
 10
16.1533603462
 20
13.4075044356
 30
0.0
 10
16.1626741074
 20
13.4016785926
 30
0.0
 10
16.1723962873
 20
13.3961531752
 30
0.0
 10
16.1824844805
 20
13.3909522719
 30
0.0
 10
16.1928946867
 20
13.386098559
 30
0.0
 10
16.2035814842
 20
13.3816132121
 30
0.0
 10
16.2144982359
 20
13.3775158044
 30
0.0
 10
16.2255972941
 20
13.3738242197
 30
0.0
 10
16.2368302119
 20
13.3705545718
 30
0.0
 10
16.2481479581
 20
13.3677211326
 30
0.0
 10
16.2595011332
 20
13.3653362689
 30
0.0
 10
16.2708401944
 20
13.3634103889
 30
0.0
 10
16.2821156553
 20
13.3619518982
 30
0.0
 10
16.293278381
 20
13.3609671607
 30
0.0
 10
16.304279535
 20
13.3604604932
 30
0.0
 10
16.3133238994
 20
13.3604383579
 30
0.0
 10
16.3204364271
 20
13.3606653592
 30
0.0
 10
16.3256704724
 20
13.3609547791
 30
0.0
 10
16.3308285974
 20
13.3613640582
 30
0.0
 10
16.335905196
 20
13.3618926917
 30
0.0
 10
16.3408947096
 20
13.3625401717
 30
0.0
 10
16.345791693
 20
13.363305725
 30
0.0
 10
16.3505907889
 20
13.3641885908
 30
0.0
 10
16.3552867638
 20
13.3651877387
 30
0.0
 10
16.359874476
 20
13.3663021577
 30
0.0
 10
16.3643489271
 20
13.3675305624
 30
0.0
 10
16.3687052175
 20
13.3688716979
 30
0.0
 10
16.3729386073
 20
13.3703240384
 30
0.0
 10
16.3770444519
 20
13.3718860949
 30
0.0
 10
16.3810182327
 20
13.3735560559
 30
0.0
 10
16.3848557822
 20
13.3753322968
 30
0.0
 10
16.389737021
 20
13.3778151312
 30
0.0
 10
16.3932552434
 20
13.3798658879
 30
0.0
 10
16.3955151127
 20
13.381314813
 30
0.0
  0
SPLINE
  5
2BD
100
AcDbEntity
  8
LAYER_FEATURE
100
AcDbSpline
 62
7
  6
CONTINUOUS
 70
0
 71
3
 72
37
 73
33
 74
0
 42
0.0000001
 43
0.0000001
 44
0.0000000001
 40
0.0
 40
0.0
 40
0.0
 40
0.0
 40
0.0217287984
 40
0.0435950579
 40
0.0657305862
 40
0.0882628569
 40
0.1113054092
 40
0.1349584942
 40
0.1593080404
 40
0.1844242104
 40
0.2103620634
 40
0.2371617747
 40
0.2648495134
 40
0.2934387148
 40
0.3229306044
 40
0.3533157766
 40
0.3845749938
 40
0.4166799818
 40
0.4495947922
 40
0.4832761344
 40
0.517674461
 40
0.5527347138
 40
0.5883966846
 40
0.6245960525
 40
0.6612646774
 40
0.6983312788
 40
0.7357220568
 40
0.7733609306
 40
0.8490628651
 40
0.9248153123
 40
0.9625221867
 40
1.0
 40
1.0
 40
1.0
 40
1.0
 10
15.6307382247
 20
13.7386058073
 30
0.0
 10
15.6308986058
 20
13.7391248412
 30
0.0
 10
15.6311697194
 20
13.7401826206
 30
0.0
 10
15.6314218671
 20
13.7418089549
 30
0.0
 10
15.6315194464
 20
13.7434720094
 30
0.0
 10
15.6314622561
 20
13.7451661959
 30
0.0
 10
15.631250708
 20
13.7468861848
 30
0.0
 10
15.6308856603
 20
13.7486265273
 30
0.0
 10
15.6303684233
 20
13.750381795
 30
0.0
 10
15.6297008321
 20
13.7521465944
 30
0.0
 10
15.6288850535
 20
13.7539154984
 30
0.0
 10
15.6279237321
 20
13.7556830995
 30
0.0
 10
15.6268199448
 20
13.757444015
 30
0.0
 10
15.6255771173
 20
13.7591928315
 30
0.0
 10
15.6241991674
 20
13.7609242213
 30
0.0
 10
15.6226903672
 20
13.7626328649
 30
0.0
 10
15.6210553862
 20
13.7643134969
 30
0.0
 10
15.6192993209
 20
13.7659609745
 30
0.0
 10
15.6174275842
 20
13.7675701863
 30
0.0
 10
15.6154459893
 20
13.7691361801
 30
0.0
 10
15.6133606807
 20
13.7706541242
 30
0.0
 10
15.6111781008
 20
13.7721192922
 30
0.0
 10
15.6089050369
 20
13.7735271826
 30
0.0
 10
15.6065485241
 20
13.7748734113
 30
0.0
 10
15.6041158674
 20
13.7761538043
 30
0.0
 10
15.6016146316
 20
13.7773644117
 30
0.0
 10
15.5990525328
 20
13.7785014575
 30
0.0
 10
15.5955595387
 20
13.7799173156
 30
0.0
 10
15.5910942513
 20
13.7814805306
 30
0.0
 10
15.5865369529
 20
13.782757108
 30
0.0
 10
15.5828578563
 20
13.7835987699
 30
0.0
 10
15.5810124452
 20
13.7839584026
 30
0.0
 10
15.580089917
 20
13.7841224105
 30
0.0
  0
SPLINE
  5
2BE
100
AcDbEntity
  8
02___PRT_ALL_AXES
100
AcDbSpline
 62
7
  6
CONTINUOUS
 70
0
 71
3
 72
45
 73
41
 74
0
 42
0.0000001
 43
0.0000001
 44
0.0000000001
 40
0.0
 40
0.0
 40
0.0
 40
0.0
 40
0.0396647843
 40
0.078861455
 40
0.1175674764
 40
0.1557615109
 40
0.1934238192
 40
0.230536231
 40
0.2670823105
 40
0.3030474633
 40
0.3384190679
 40
0.3731866086
 40
0.4073418152
 40
0.4408788082
 40
0.4737942501
 40
0.5060875014
 40
0.5377607795
 40
0.5688193208
 40
0.5992715404
 40
0.6291291892
 40
0.658407502
 40
0.6728360029
 40
0.6871270519
 40
0.7153069834
 40
0.7429754187
 40
0.7701626248
 40
0.7969027338
 40
0.8232336864
 40
0.8491971071
 40
0.8748381044
 40
0.8875539139
 40
0.900207485
 40
0.9128052933
 40
0.9253539683
 40
0.9378602696
 40
0.9503310769
 40
0.962773367
 40
0.9751941983
 40
0.9876006893
 40
1.0
 40
1.0
 40
1.0
 40
1.0
 10
14.864707604
 20
11.8450374141
 30
0.0
 10
14.8570099625
 20
11.8450374141
 30
0.0
 10
14.8417049149
 20
11.8448648121
 30
0.0
 10
14.8189004654
 20
11.8440780694
 30
0.0
 10
14.7964059128
 20
11.8427658588
 30
0.0
 10
14.7742467805
 20
11.8409296454
 30
0.0
 10
14.7524480411
 20
11.8385714933
 30
0.0
 10
14.7310342939
 20
11.8356940461
 30
0.0
 10
14.7100296933
 20
11.8323005326
 30
0.0
 10
14.6894579309
 20
11.8283947576
 30
0.0
 10
14.6693422076
 20
11.8239810987
 30
0.0
 10
14.6497052081
 20
11.8190644997
 30
0.0
 10
14.6305690758
 20
11.8136504642
 30
0.0
 10
14.6119553891
 20
11.8077450481
 30
0.0
 10
14.5938851383
 20
11.8013548516
 30
0.0
 10
14.576378705
 20
11.7944870117
 30
0.0
 10
14.5594558353
 20
11.7871491891
 30
0.0
 10
14.5431356425
 20
11.7793495742
 30
0.0
 10
14.5274365081
 20
11.7710968235
 30
0.0
 10
14.5123763575
 20
11.7624002467
 30
0.0
 10
14.5003145053
 20
11.7547542592
 30
0.0
 10
14.4910073625
 20
11.7484232975
 30
0.0
 10
14.4820146333
 20
11.7420138997
 30
0.0
 10
14.4711953197
 20
11.7337458517
 30
0.0
 10
14.4588537392
 20
11.7233751635
 30
0.0
 10
14.447228802
 20
11.7126136112
 30
0.0
 10
14.436333996
 20
11.7014733501
 30
0.0
 10
14.4261817742
 20
11.6899667573
 30
0.0
 10
14.4167840418
 20
11.6781070503
 30
0.0
 10
14.4095700182
 20
11.6679118741
 30
0.0
 10
14.4041939114
 20
11.6595981609
 30
0.0
 10
14.4003674942
 20
11.6533002389
 30
0.0
 10
14.3967370476
 20
11.6469246954
 30
0.0
 10
14.3933035443
 20
11.6404732942
 30
0.0
 10
14.3900679936
 20
11.6339478681
 30
0.0
 10
14.3870312962
 20
11.6273502717
 30
0.0
 10
14.3841943367
 20
11.6206823757
 30
0.0
 10
14.3815579026
 20
11.6139460575
 30
0.0
 10
14.3791227807
 20
11.6071433032
 30
0.0
 10
14.3776338251
 20
11.6025644976
 30
0.0
 10
14.3769233718
 20
11.6002654662
 30
0.0
  0
SPLINE
  5
2BF
100
AcDbEntity
  8
LAYER_FEATURE
100
AcDbSpline
 62
7
  6
CONTINUOUS
 70
0
 71
3
 72
78
 73
74
 74
0
 42
0.0000001
 43
0.0000001
 44
0.0000000001
 40
0.0
 40
0.0
 40
0.0
 40
0.0
 40
0.0055645506
 40
0.0111391332
 40
0.0167301909
 40
0.0223443512
 40
0.0336652593
 40
0.0451528494
 40
0.0568520207
 40
0.0627948901
 40
0.0688055178
 40
0.0810452414
 40
0.0936040117
 40
0.1000120816
 40
0.1065091086
 40
0.1197779738
 40
0.1334278582
 40
0.1474697451
 40
0.1619102327
 40
0.1767518152
 40
0.1919931698
 40
0.2076294993
 40
0.2236528237
 40
0.240052223
 40
0.2568141082
 40
0.2739224915
 40
0.2913592021
 40
0.3091040718
 40
0.3271351668
 40
0.3454289826
 40
0.363960604
 40
0.3827038713
 40
0.4016315684
 40
0.4207155727
 40
0.4399269939
 40
0.4592363355
 40
0.4786136461
 40
0.4980286526
 40
0.5174509038
 40
0.5368499204
 40
0.5561953289
 40
0.575457001
 40
0.5946052087
 40
0.6136107617
 40
0.6324451461
 40
0.6510806907
 40
0.6694907253
 40
0.6876497242
 40
0.705533474
 40
0.7231192772
 40
0.7403861169
 40
0.7573148372
 40
0.7738883703
 40
0.7900919749
 40
0.80591344
 40
0.8213433333
 40
0.8363753077
 40
0.8510063725
 40
0.8652371668
 40
0.8790722769
 40
0.8925205775
 40
0.9055954909
 40
0.9183152385
 40
0.9307030721
 40
0.9427873986
 40
0.9546017259
 40
0.966184506
 40
0.9719035109
 40
0.9775811209
 40
0.9832232931
 40
0.9888361723
 40
0.9944261944
 40
1.0
 40
1.0
 40
1.0
 40
1.0
 10
15.6295068416
 20
13.7347457288
 30
0.0
 10
15.6292830399
 20
13.7339601281
 30
0.0
 10
15.6288681715
 20
13.7323778509
 30
0.0
 10
15.6283457295
 20
13.7299774325
 30
0.0
 10
15.6279230765
 20
13.7275499777
 30
0.0
 10
15.6274917021
 20
13.724270687
 30
0.0
 10
15.6272047361
 20
13.7201031099
 30
0.0
 10
15.6272642184
 20
13.7150328
 30
0.0
 10
15.6276470846
 20
13.7107693125
 30
0.0
 10
15.628150054
 20
13.7073331542
 30
0.0
 10
15.6287925323
 20
13.7038395468
 30
0.0
 10
15.6298498955
 20
13.6994381499
 30
0.0
 10
15.6312210045
 20
13.6950634735
 30
0.0
 10
15.6325089674
 20
13.6915538036
 30
0.0
 10
15.6339452501
 20
13.6879895032
 30
0.0
 10
15.6359874577
 20
13.6835260321
 30
0.0
 10
15.6388012529
 20
13.6782087094
 30
0.0
 10
15.6419886322
 20
13.6729050069
 30
0.0
 10
15.6455420258
 20
13.6676272993
 30
0.0
 10
15.6494531226
 20
13.6623877303
 30
0.0
 10
15.6537127514
 20
13.6571984012
 30
0.0
 10
15.6583109705
 20
13.6520713075
 30
0.0
 10
15.6632370731
 20
13.6470183307
 30
0.0
 10
15.6684795795
 20
13.642051181
 30
0.0
 10
15.6740262691
 20
13.6371813734
 30
0.0
 10
15.6798642287
 20
13.6324202193
 30
0.0
 10
15.6859798741
 20
13.6277787971
 30
0.0
 10
15.6923589514
 20
13.6232678905
 30
0.0
 10
15.6989865973
 20
13.6188979912
 30
0.0
 10
15.7058473773
 20
13.6146792805
 30
0.0
 10
15.7129253089
 20
13.6106215912
 30
0.0
 10
15.7202038879
 20
13.606734363
 30
0.0
 10
15.7276661493
 20
13.6030266538
 30
0.0
 10
15.7352947049
 20
13.5995071187
 30
0.0
 10
15.7430717675
 20
13.5961839592
 30
0.0
 10
15.7509791999
 20
13.5930649125
 30
0.0
 10
15.7589985664
 20
13.5901572549
 30
0.0
 10
15.7671111726
 20
13.5874677807
 30
0.0
 10
15.7752980962
 20
13.5850027481
 30
0.0
 10
15.7835402456
 20
13.5827679003
 30
0.0
 10
15.791818404
 20
13.580768458
 30
0.0
 10
15.8001132701
 20
13.5790090903
 30
0.0
 10
15.8084055004
 20
13.5774938842
 30
0.0
 10
15.8166757628
 20
13.5762263721
 30
0.0
 10
15.8249047794
 20
13.5752095248
 30
0.0
 10
15.8330733683
 20
13.5744457081
 30
0.0
 10
15.8411624926
 20
13.5739366932
 30
0.0
 10
15.8491533043
 20
13.5736836739
 30
0.0
 10
15.857027188
 20
13.5736872606
 30
0.0
 10
15.8647658059
 20
13.5739474367
 30
0.0
 10
15.8723511423
 20
13.5744636021
 30
0.0
 10
15.8797655403
 20
13.5752345823
 30
0.0
 10
15.8869917468
 20
13.5762586103
 30
0.0
 10
15.894012958
 20
13.5775333151
 30
0.0
 10
15.9008128493
 20
13.5790557705
 30
0.0
 10
15.9073756083
 20
13.5808225059
 30
0.0
 10
15.9136859828
 20
13.5828294721
 30
0.0
 10
15.9197293099
 20
13.5850720783
 30
0.0
 10
15.9254915321
 20
13.5875452266
 30
0.0
 10
15.9309592235
 20
13.5902433186
 30
0.0
 10
15.9361196374
 20
13.5931602232
 30
0.0
 10
15.9409607008
 20
13.5962893367
 30
0.0
 10
15.9454710211
 20
13.5996236017
 30
0.0
 10
15.949639908
 20
13.6031554553
 30
0.0
 10
15.9534574503
 20
13.6068769113
 30
0.0
 10
15.9569143231
 20
13.6107792561
 30
0.0
 10
15.9594987269
 20
13.6141895057
 30
0.0
 10
15.9613726166
 20
13.6169953495
 30
0.0
 10
15.9626773739
 20
13.6191301454
 30
0.0
 10
15.9638864751
 20
13.6213026968
 30
0.0
 10
15.9649991964
 20
13.6235118026
 30
0.0
 10
15.9660148684
 20
13.6257561213
 30
0.0
 10
15.9666275991
 20
13.6272766929
 30
0.0
 10
15.9669173447
 20
13.6280418885
 30
0.0
  0
SPLINE
  5
2C0
100
AcDbEntity
  8
02___PRT_ALL_AXES
100
AcDbSpline
 62
7
  6
CONTINUOUS
 70
0
 71
3
 72
46
 73
42
 74
0
 42
0.0000001
 43
0.0000001
 44
0.0000000001
 40
0.0
 40
0.0
 40
0.0
 40
0.0
 40
0.0123992809
 40
0.0248057417
 40
0.0372265433
 40
0.0496688029
 40
0.0621395805
 40
0.0746458516
 40
0.0871944957
 40
0.0997922748
 40
0.1124458135
 40
0.1251615943
 40
0.1379459248
 40
0.1508049455
 40
0.1767683023
 40
0.2030991908
 40
0.2298392362
 40
0.2570263777
 40
0.2846947465
 40
0.3128746091
 40
0.3271656243
 40
0.341594088
 40
0.3708723298
 40
0.4007299082
 40
0.4311820561
 40
0.4622405229
 40
0.4939137235
 40
0.5262068948
 40
0.5591222562
 40
0.5926591693
 40
0.6268142948
 40
0.6615817518
 40
0.69695327
 40
0.7329183338
 40
0.7694643244
 40
0.8065766505
 40
0.8442388555
 40
0.8824328507
 40
0.921138628
 40
0.9603355108
 40
1.0
 40
1.0
 40
1.0
 40
1.0
 10
14.5584731166
 20
12.1877606477
 30
0.0
 10
14.5591835729
 20
12.1900596782
 30
0.0
 10
14.5606725252
 20
12.1946384848
 30
0.0
 10
14.5631076438
 20
12.2014412404
 30
0.0
 10
14.5657440851
 20
12.2081775556
 30
0.0
 10
14.5685810363
 20
12.2148454553
 30
0.0
 10
14.5716177397
 20
12.2214430487
 30
0.0
 10
14.5748532898
 20
12.2279684757
 30
0.0
 10
14.5782867869
 20
12.2344198774
 30
0.0
 10
14.5819172499
 20
12.2407954232
 30
0.0
 10
14.585743628
 20
12.2470933229
 30
0.0
 10
14.5897648531
 20
12.2533117582
 30
0.0
 10
14.5939797846
 20
12.2594490439
 30
0.0
 10
14.599874776
 20
12.2675468339
 30
0.0
 10
14.6077316219
 20
12.277462103
 30
0.0
 10
14.6178837084
 20
12.2889684888
 30
0.0
 10
14.6287785529
 20
12.3001088056
 30
0.0
 10
14.6404034818
 20
12.310870341
 30
0.0
 10
14.6527450659
 20
12.3212410325
 30
0.0
 10
14.6635643769
 20
12.3295090822
 30
0.0
 10
14.6725571077
 20
12.335918477
 30
0.0
 10
14.6818642467
 20
12.3422494436
 30
0.0
 10
14.6939260997
 20
12.3498954297
 30
0.0
 10
14.7089862516
 20
12.3585920052
 30
0.0
 10
14.7246853879
 20
12.3668447539
 30
0.0
 10
14.7410055813
 20
12.3746443681
 30
0.0
 10
14.7579284501
 20
12.3819821915
 30
0.0
 10
14.7754348817
 20
12.3888500334
 30
0.0
 10
14.7935051316
 20
12.3952402313
 30
0.0
 10
14.812118819
 20
12.401145646
 30
0.0
 10
14.8312549523
 20
12.40655968
 30
0.0
 10
14.850891952
 20
12.4114762786
 30
0.0
 10
14.8710076744
 20
12.4158899384
 30
0.0
 10
14.8915794357
 20
12.4197957153
 30
0.0
 10
14.9125840363
 20
12.4231892303
 30
0.0
 10
14.9339977821
 20
12.4260666743
 30
0.0
 10
14.95579653
 20
12.4284248287
 30
0.0
 10
14.9779556416
 20
12.4302610319
 30
0.0
 10
15.0004502338
 20
12.4315732581
 30
0.0
 10
15.0232546755
 20
12.4323599874
 30
0.0
 10
15.0385597437
 20
12.4325325963
 30
0.0
 10
15.0462573465
 20
12.4325325963
 30
0.0
  0
SPLINE
  5
2C1
100
AcDbEntity
  8
LAYER_FEATURE
100
AcDbSpline
 62
7
  6
CONTINUOUS
 70
0
 71
3
 72
81
 73
77
 74
0
 42
0.0000001
 43
0.0000001
 44
0.0000000001
 40
0.0
 40
0.0
 40
0.0
 40
0.0
 40
0.00535409
 40
0.0107128691
 40
0.0160810069
 40
0.0214631311
 40
0.0268638117
 40
0.0322875382
 40
0.0377387057
 40
0.0432215961
 40
0.0487403628
 40
0.0542990208
 40
0.0599014275
 40
0.0655512828
 40
0.0712521065
 40
0.0770072482
 40
0.0828198617
 40
0.0886929221
 40
0.1006300285
 40
0.1128397961
 40
0.1190528518
 40
0.1253401061
 40
0.1381425009
 40
0.1446613591
 40
0.1512598121
 40
0.1646981004
 40
0.1784635933
 40
0.192559043
 40
0.2069848346
 40
0.2217391447
 40
0.2368180959
 40
0.2522159063
 40
0.2679250315
 40
0.2839362997
 40
0.3002390396
 40
0.3168212011
 40
0.3336694693
 40
0.3507693726
 40
0.3681053851
 40
0.385661024
 40
0.4034189431
 40
0.4213610218
 40
0.4394684514
 40
0.4577218181
 40
0.4761011837
 40
0.4945861641
 40
0.5131560062
 40
0.5317896638
 40
0.5504658716
 40
0.5691632194
 40
0.5878602252
 40
0.6065354079
 40
0.6251673606
 40
0.6437348242
 40
0.6622167603
 40
0.6805924266
 40
0.6988414519
 40
0.7169439136
 40
0.7348804158
 40
0.7526321704
 40
0.7701810804
 40
0.7875098255
 40
0.8046019521
 40
0.8214419661
 40
0.838015431
 40
0.8543090705
 40
0.8703108766
 40
0.8860102238
 40
0.9013979903
 40
0.9164666853
 40
0.9312105868
 40
0.9456258753
 40
0.9597108115
 40
0.9734658098
 40
0.9868937982
 40
1.0
 40
1.0
 40
1.0
 40
1.0
 10
14.4841429543
 20
12.2622182688
 30
0.0
 10
14.4851252162
 20
12.2653968656
 30
0.0
 10
14.4872057021
 20
12.2717219282
 30
0.0
 10
14.4906690991
 20
12.2810970772
 30
0.0
 10
14.4944744001
 20
12.2903577034
 30
0.0
 10
14.498619825
 20
12.2994996907
 30
0.0
 10
14.5031036615
 20
12.3085191194
 30
0.0
 10
14.507923911
 20
12.3174121264
 30
0.0
 10
14.513078519
 20
12.326174879
 30
0.0
 10
14.51856524
 20
12.3348036234
 30
0.0
 10
14.5243816917
 20
12.3432946682
 30
0.0
 10
14.5305253832
 20
12.3516443583
 30
0.0
 10
14.5369936181
 20
12.3598491562
 30
0.0
 10
14.5437836552
 20
12.3679055093
 30
0.0
 10
14.5508925084
 20
12.375810039
 30
0.0
 10
14.5583171595
 20
12.3835592942
 30
0.0
 10
14.5660544232
 20
12.3911500995
 30
0.0
 10
14.5768407612
 20
12.4011086759
 30
0.0
 10
14.5911076484
 20
12.4131436371
 30
0.0
 10
14.6062030255
 20
12.4244749288
 30
0.0
 10
14.61884663
 20
12.4331893517
 30
0.0
 10
14.6320252395
 20
12.441766616
 30
0.0
 10
14.6456973183
 20
12.449923809
 30
0.0
 10
14.659823394
 20
12.4576627931
 30
0.0
 10
14.6744827868
 20
12.4652413165
 30
0.0
 10
14.6934781239
 20
12.4742235468
 30
0.0
 10
14.7171521478
 20
12.4841485268
 30
0.0
 10
14.7418029494
 20
12.4932682072
 30
0.0
 10
14.7673881607
 20
12.5015671241
 30
0.0
 10
14.7938642774
 20
12.5090313739
 30
0.0
 10
14.8211861599
 20
12.5156483807
 30
0.0
 10
14.8493072595
 20
12.521406995
 30
0.0
 10
14.8781796506
 20
12.5262974982
 30
0.0
 10
14.9077541206
 20
12.5303116299
 30
0.0
 10
14.9379802493
 20
12.5334426044
 30
0.0
 10
14.9688064942
 20
12.5356851275
 30
0.0
 10
15.0001802782
 20
12.537035408
 30
0.0
 10
15.0320480794
 20
12.5374911676
 30
0.0
 10
15.0643555226
 20
12.5370516476
 30
0.0
 10
15.0970474729
 20
12.5357176124
 30
0.0
 10
15.1300681308
 20
12.5334913493
 30
0.0
 10
15.163361128
 20
12.5303766658
 30
0.0
 10
15.1968696248
 20
12.5263788843
 30
0.0
 10
15.230536408
 20
12.5215048337
 30
0.0
 10
15.264303989
 20
12.5157628386
 30
0.0
 10
15.2981147032
 20
12.5091627054
 30
0.0
 10
15.331910809
 20
12.501715706
 30
0.0
 10
15.365634587
 20
12.4934345587
 30
0.0
 10
15.3992284394
 20
12.4843334069
 30
0.0
 10
15.4326349891
 20
12.4744277946
 30
0.0
 10
15.4657971781
 20
12.4637346398
 30
0.0
 10
15.498658366
 20
12.4522722064
 30
0.0
 10
15.5311624272
 20
12.4400600723
 30
0.0
 10
15.5632538472
 20
12.4271190952
 30
0.0
 10
15.5948778185
 20
12.4134713769
 30
0.0
 10
15.6259803336
 20
12.3991402247
 30
0.0
 10
15.6565082787
 20
12.384150111
 30
0.0
 10
15.6864095243
 20
12.368526631
 30
0.0
 10
15.7156330147
 20
12.3522964582
 30
0.0
 10
15.7441288555
 20
12.3354872976
 30
0.0
 10
15.7718483989
 20
12.3181278373
 30
0.0
 10
15.7987443267
 20
12.3002476982
 30
0.0
 10
15.8247707312
 20
12.281877382
 30
0.0
 10
15.8498831934
 20
12.263048217
 30
0.0
 10
15.8740388582
 20
12.2437923033
 30
0.0
 10
15.8971965071
 20
12.2241424557
 30
0.0
 10
15.9193166258
 20
12.2041321442
 30
0.0
 10
15.9403614702
 20
12.1837954351
 30
0.0
 10
15.9602951263
 20
12.1631669296
 30
0.0
 10
15.9790835712
 20
12.1422817019
 30
0.0
 10
15.9966947136
 20
12.1211752418
 30
0.0
 10
16.0130984774
 20
12.0998833679
 30
0.0
 10
16.0282667431
 20
12.0784422654
 30
0.0
 10
16.0421736677
 20
12.0568880603
 30
0.0
 10
16.054794929
 20
12.03525803
 30
0.0
 10
16.062429412
 20
12.0206357636
 30
0.0
 10
16.0660171439
 20
12.0133247347
 30
0.0
  0
SPLINE
  5
2C2
100
AcDbEntity
  8
LAYER_CHAMFER_FEAT
100
AcDbSpline
 62
7
  6
CONTINUOUS
 70
0
 71
3
 72
58
 73
54
 74
0
 42
0.0000001
 43
0.0000001
 44
0.0000000001
 40
0.0
 40
0.0
 40
0.0
 40
0.0
 40
0.0106255961
 40
0.0212738377
 40
0.0319671271
 40
0.042727408
 40
0.0535759325
 40
0.064533083
 40
0.0756181978
 40
0.0868494219
 40
0.0982436261
 40
0.1098162752
 40
0.1215814417
 40
0.1335516976
 40
0.1457381852
 40
0.1581505595
 40
0.1707970587
 40
0.183684524
 40
0.1968184278
 40
0.2102029744
 40
0.2238410767
 40
0.2377345128
 40
0.2518838772
 40
0.2662887414
 40
0.2809476277
 40
0.2958581226
 40
0.3110169078
 40
0.3264198015
 40
0.3420618538
 40
0.3579373235
 40
0.3740398147
 40
0.3903622242
 40
0.4068968763
 40
0.4236354871
 40
0.4405692572
 40
0.4576888824
 40
0.4924442682
 40
0.5278206097
 40
0.5637290403
 40
0.6000759112
 40
0.6367637445
 40
0.6736921498
 40
0.7107587145
 40
0.7478598762
 40
0.7848917872
 40
0.8217511721
 40
0.858336203
 40
0.8945473343
 40
0.9302883609
 40
0.947954276
 40
0.965468697
 40
0.9828214056
 40
1.0
 40
1.0
 40
1.0
 40
1.0
 10
14.7488224287
 20
11.5336098376
 30
0.0
 10
14.7481402587
 20
11.5314023338
 30
0.0
 10
14.7468988735
 20
11.5269430692
 30
0.0
 10
14.7454138225
 20
11.5201488434
 30
0.0
 10
14.7443062597
 20
11.5132531258
 30
0.0
 10
14.7435774755
 20
11.5062634963
 30
0.0
 10
14.7432281048
 20
11.4991872904
 30
0.0
 10
14.743258452
 20
11.4920320011
 30
0.0
 10
14.7436684243
 20
11.4848051652
 30
0.0
 10
14.7444574318
 20
11.477514368
 30
0.0
 10
14.7456246408
 20
11.4701672591
 30
0.0
 10
14.7471686282
 20
11.4627714926
 30
0.0
 10
14.7490877954
 20
11.4553348014
 30
0.0
 10
14.7513799586
 20
11.447864893
 30
0.0
 10
14.7540427231
 20
11.4403695482
 30
0.0
 10
14.7570732016
 20
11.4328565257
 30
0.0
 10
14.760468191
 20
11.4253336154
 30
0.0
 10
14.7642241247
 20
11.4178086213
 30
0.0
 10
14.7683370073
 20
11.4102893098
 30
0.0
 10
14.7728025891
 20
11.402783508
 30
0.0
 10
14.7776161216
 20
11.3952989391
 30
0.0
 10
14.7827726518
 20
11.3878434109
 30
0.0
 10
14.7882667306
 20
11.3804245967
 30
0.0
 10
14.7940926831
 20
11.3730502291
 30
0.0
 10
14.8002444069
 20
11.3657279266
 30
0.0
 10
14.8067155075
 20
11.3584652937
 30
0.0
 10
14.8134992587
 20
11.3512698773
 30
0.0
 10
14.8205885729
 20
11.3441491159
 30
0.0
 10
14.8279761151
 20
11.3371104502
 30
0.0
 10
14.8356541498
 20
11.3301611325
 30
0.0
 10
14.8436147395
 20
11.3233084454
 30
0.0
 10
14.8518495557
 20
11.3165594514
 30
0.0
 10
14.8603500698
 20
11.3099212119
 30
0.0
 10
14.8691074031
 20
11.3034006054
 30
0.0
 10
14.8781124967
 20
11.297004388
 30
0.0
 10
14.8904987247
 20
11.2886091323
 30
0.0
 10
14.9065450414
 20
11.2784746723
 30
0.0
 10
14.9265374481
 20
11.266974074
 30
0.0
 10
14.9472800457
 20
11.2561211374
 30
0.0
 10
14.9686864608
 20
11.245961056
 30
0.0
 10
14.9906678787
 20
11.2365359711
 30
0.0
 10
15.0131329856
 20
11.2278850384
 30
0.0
 10
15.0359884707
 20
11.2200441908
 30
0.0
 10
15.059139384
 20
11.2130460005
 30
0.0
 10
15.0824895553
 20
11.2069195386
 30
0.0
 10
15.1059419659
 20
11.2016902551
 30
0.0
 10
15.1293992721
 20
11.1973798656
 30
0.0
 10
15.1527638018
 20
11.1940062979
 30
0.0
 10
15.1721509851
 20
11.1919795155
 30
0.0
 10
15.1875315925
 20
11.1908431759
 30
0.0
 10
15.1989394496
 20
11.1902357399
 30
0.0
 10
15.2102515312
 20
11.1898705586
 30
0.0
 10
15.2177605008
 20
11.1897883385
 30
0.0
 10
15.2214959346
 20
11.1897883385
 30
0.0
  0
SPLINE
  5
2C3
100
AcDbEntity
  8
LAYER_CUT_FEAT
100
AcDbSpline
 62
7
  6
CONTINUOUS
 70
0
 71
3
 72
81
 73
77
 74
0
 42
0.0000001
 43
0.0000001
 44
0.0000000001
 40
0.0
 40
0.0
 40
0.0
 40
0.0
 40
0.00535409
 40
0.0107128691
 40
0.0160810069
 40
0.0214631311
 40
0.0268638117
 40
0.0322875382
 40
0.0377387057
 40
0.0432215961
 40
0.0487403628
 40
0.0542990208
 40
0.0599014275
 40
0.0655512828
 40
0.0712521065
 40
0.0770072482
 40
0.0828198617
 40
0.0886929221
 40
0.1006300285
 40
0.1128397961
 40
0.1190528518
 40
0.1253401061
 40
0.1381425009
 40
0.1446613591
 40
0.1512598121
 40
0.1646981004
 40
0.1784635933
 40
0.192559043
 40
0.2069848346
 40
0.2217391447
 40
0.2368180959
 40
0.2522159063
 40
0.2679250315
 40
0.2839362997
 40
0.3002390396
 40
0.3168212011
 40
0.3336694693
 40
0.3507693726
 40
0.3681053851
 40
0.385661024
 40
0.4034189431
 40
0.4213610218
 40
0.4394684514
 40
0.4577218181
 40
0.4761011837
 40
0.4945861641
 40
0.5131560062
 40
0.5317896638
 40
0.5504658716
 40
0.5691632194
 40
0.5878602252
 40
0.6065354079
 40
0.6251673606
 40
0.6437348242
 40
0.6622167603
 40
0.6805924266
 40
0.6988414519
 40
0.7169439136
 40
0.7348804158
 40
0.7526321704
 40
0.7701810804
 40
0.7875098255
 40
0.8046019521
 40
0.8214419661
 40
0.838015431
 40
0.8543090705
 40
0.8703108766
 40
0.8860102238
 40
0.9013979903
 40
0.9164666853
 40
0.9312105868
 40
0.9456258753
 40
0.9597108115
 40
0.9734658098
 40
0.9868937982
 40
1.0
 40
1.0
 40
1.0
 40
1.0
 10
14.4696189749
 20
12.2152186542
 30
0.0
 10
14.4706012368
 20
12.2183972511
 30
0.0
 10
14.4726817227
 20
12.2247223136
 30
0.0
 10
14.4761451197
 20
12.2340974626
 30
0.0
 10
14.4799504207
 20
12.2433580888
 30
0.0
 10
14.4840958456
 20
12.2525000761
 30
0.0
 10
14.4885796821
 20
12.2615195049
 30
0.0
 10
14.4933999316
 20
12.2704125118
 30
0.0
 10
14.4985545396
 20
12.2791752645
 30
0.0
 10
14.5040412606
 20
12.2878040088
 30
0.0
 10
14.5098577123
 20
12.2962950536
 30
0.0
 10
14.5160014038
 20
12.3046447437
 30
0.0
 10
14.5224696386
 20
12.3128495416
 30
0.0
 10
14.5292596758
 20
12.3209058947
 30
0.0
 10
14.536368529
 20
12.3288104244
 30
0.0
 10
14.5437931801
 20
12.3365596796
 30
0.0
 10
14.5515304438
 20
12.3441504849
 30
0.0
 10
14.5623167818
 20
12.3541090613
 30
0.0
 10
14.576583669
 20
12.3661440226
 30
0.0
 10
14.5916790461
 20
12.3774753143
 30
0.0
 10
14.6043226506
 20
12.3861897371
 30
0.0
 10
14.6175012601
 20
12.3947670014
 30
0.0
 10
14.6311733389
 20
12.4029241944
 30
0.0
 10
14.6452994146
 20
12.4106631785
 30
0.0
 10
14.6599588073
 20
12.4182417019
 30
0.0
 10
14.6789541445
 20
12.4272239322
 30
0.0
 10
14.7026281684
 20
12.4371489122
 30
0.0
 10
14.72727897
 20
12.4462685926
 30
0.0
 10
14.7528641813
 20
12.4545675095
 30
0.0
 10
14.779340298
 20
12.4620317594
 30
0.0
 10
14.8066621805
 20
12.4686487662
 30
0.0
 10
14.8347832801
 20
12.4744073804
 30
0.0
 10
14.8636556712
 20
12.4792978837
 30
0.0
 10
14.8932301412
 20
12.4833120153
 30
0.0
 10
14.9234562699
 20
12.4864429899
 30
0.0
 10
14.9542825148
 20
12.4886855129
 30
0.0
 10
14.9856562988
 20
12.4900357934
 30
0.0
 10
15.0175241
 20
12.4904915531
 30
0.0
 10
15.0498315432
 20
12.490052033
 30
0.0
 10
15.0825234935
 20
12.4887179979
 30
0.0
 10
15.1155441514
 20
12.4864917348
 30
0.0
 10
15.1488371486
 20
12.4833770513
 30
0.0
 10
15.1823456454
 20
12.4793792698
 30
0.0
 10
15.2160124286
 20
12.4745052192
 30
0.0
 10
15.2497800096
 20
12.4687632241
 30
0.0
 10
15.2835907238
 20
12.4621630908
 30
0.0
 10
15.3173868296
 20
12.4547160914
 30
0.0
 10
15.3511106075
 20
12.4464349442
 30
0.0
 10
15.38470446
 20
12.4373337923
 30
0.0
 10
15.4181110097
 20
12.42742818
 30
0.0
 10
15.4512731987
 20
12.4167350252
 30
0.0
 10
15.4841343866
 20
12.4052725918
 30
0.0
 10
15.5166384477
 20
12.3930604577
 30
0.0
 10
15.5487298678
 20
12.3801194807
 30
0.0
 10
15.580353839
 20
12.3664717624
 30
0.0
 10
15.6114563542
 20
12.3521406101
 30
0.0
 10
15.6419842993
 20
12.3371504964
 30
0.0
 10
15.6718855449
 20
12.3215270164
 30
0.0
 10
15.7011090353
 20
12.3052968437
 30
0.0
 10
15.7296048761
 20
12.288487683
 30
0.0
 10
15.7573244195
 20
12.2711282227
 30
0.0
 10
15.7842203473
 20
12.2532480836
 30
0.0
 10
15.8102467518
 20
12.2348777674
 30
0.0
 10
15.835359214
 20
12.2160486024
 30
0.0
 10
15.8595148788
 20
12.1967926888
 30
0.0
 10
15.8826725277
 20
12.1771428411
 30
0.0
 10
15.9047926464
 20
12.1571325297
 30
0.0
 10
15.9258374908
 20
12.1367958205
 30
0.0
 10
15.9457711469
 20
12.1161673151
 30
0.0
 10
15.9645595918
 20
12.0952820873
 30
0.0
 10
15.9821707341
 20
12.0741756272
 30
0.0
 10
15.998574498
 20
12.0528837533
 30
0.0
 10
16.0137427637
 20
12.0314426508
 30
0.0
 10
16.0276496883
 20
12.0098884457
 30
0.0
 10
16.0402709496
 20
11.9882584154
 30
0.0
 10
16.0479054326
 20
11.973636149
 30
0.0
 10
16.0514931645
 20
11.9663251201
 30
0.0
  0
SPLINE
  5
2C4
100
AcDbEntity
  8
02___PRT_ALL_AXES
100
AcDbSpline
 62
7
  6
CONTINUOUS
 70
0
 71
3
 72
75
 73
71
 74
0
 42
0.0000001
 43
0.0000001
 44
0.0000000001
 40
0.0
 40
0.0
 40
0.0
 40
0.0
 40
0.0171786892
 40
0.0345303607
 40
0.052044229
 40
0.069709889
 40
0.0875161642
 40
0.1054517028
 40
0.1235048325
 40
0.1416636226
 40
0.1599159172
 40
0.1782493581
 40
0.1966514145
 40
0.2151094104
 40
0.233610553
 40
0.2521419599
 40
0.270690686
 40
0.2892437497
 40
0.3077881608
 40
0.3263109471
 40
0.3447991812
 40
0.3632400074
 40
0.3816206683
 40
0.3999285336
 40
0.4181511268
 40
0.4362761536
 40
0.4542915291
 40
0.4721854073
 40
0.4899462114
 40
0.5075626641
 40
0.5250238169
 40
0.5423190818
 40
0.5594382638
 40
0.5763715969
 40
0.5931097777
 40
0.6096440006
 40
0.6259659951
 40
0.6420680648
 40
0.6579431309
 40
0.6735847738
 40
0.6889872759
 40
0.7041456685
 40
0.7190557797
 40
0.7337142887
 40
0.7481187774
 40
0.7622677831
 40
0.7761608551
 40
0.7897986129
 40
0.8031828071
 40
0.8163163772
 40
0.8292035078
 40
0.8418496831
 40
0.8542617384
 40
0.860382833
 40
0.8664486067
 40
0.8784185581
 40
0.8901834163
 40
0.9017557731
 40
0.9131496792
 40
0.9243806165
 40
0.9354654436
 40
0.9464223124
 40
0.9572705583
 40
0.9680305606
 40
0.9733845989
 40
0.9787246098
 40
0.9840533545
 40
0.9893736232
 40
0.9946882293
 40
1.0
 40
1.0
 40
1.0
 40
1.0
 10
15.0462573465
 20
12.4325325963
 30
0.0
 10
15.053728448
 20
12.4325325963
 30
0.0
 10
15.0687463616
 20
12.4323682029
 30
0.0
 10
15.0913704746
 20
12.4316377674
 30
0.0
 10
15.1141859072
 20
12.4304229183
 30
0.0
 10
15.1371686616
 20
12.4287249728
 30
0.0
 10
15.1602949528
 20
12.4265456642
 30
0.0
 10
15.1835406639
 20
12.4238872729
 30
0.0
 10
15.2068816143
 20
12.4207525659
 30
0.0
 10
15.230293508
 20
12.4171448085
 30
0.0
 10
15.2537519763
 20
12.4130677569
 30
0.0
 10
15.2772326017
 20
12.4085256531
 30
0.0
 10
15.3007109419
 20
12.4035232215
 30
0.0
 10
15.3241625576
 20
12.3980656726
 30
0.0
 10
15.3475630366
 20
12.3921586897
 30
0.0
 10
15.3708880197
 20
12.3858084217
 30
0.0
 10
15.3941132257
 20
12.3790214778
 30
0.0
 10
15.417214476
 20
12.3718049195
 30
0.0
 10
15.4401677228
 20
12.3641662621
 30
0.0
 10
15.462949073
 20
12.3561134595
 30
0.0
 10
15.4855348115
 20
12.3476548947
 30
0.0
 10
15.5079014266
 20
12.3387993715
 30
0.0
 10
15.5300256339
 20
12.3295561046
 30
0.0
 10
15.5518844042
 20
12.3199347185
 30
0.0
 10
15.5734549857
 20
12.3099452299
 30
0.0
 10
15.594714926
 20
12.2995980368
 30
0.0
 10
15.6156420955
 20
12.2889039077
 30
0.0
 10
15.6362147105
 20
12.277873969
 30
0.0
 10
15.6564113604
 20
12.2665197021
 30
0.0
 10
15.6762110274
 20
12.2548529243
 30
0.0
 10
15.6955931062
 20
12.2428857753
 30
0.0
 10
15.7145374258
 20
12.2306307051
 30
0.0
 10
15.7330242699
 20
12.2181004594
 30
0.0
 10
15.7510344031
 20
12.2053080739
 30
0.0
 10
15.7685490882
 20
12.1922668547
 30
0.0
 10
15.7855501022
 20
12.1789903628
 30
0.0
 10
15.8020197558
 20
12.1654924004
 30
0.0
 10
15.8179409107
 20
12.1517869947
 30
0.0
 10
15.8332970042
 20
12.1378883902
 30
0.0
 10
15.8480720629
 20
12.1238110283
 30
0.0
 10
15.8622507149
 20
12.1095695304
 30
0.0
 10
15.8758182056
 20
12.0951786834
 30
0.0
 10
15.8887604114
 20
12.0806534224
 30
0.0
 10
15.901063862
 20
12.0660088207
 30
0.0
 10
15.9127157495
 20
12.0512600706
 30
0.0
 10
15.9237039354
 20
12.0364224647
 30
0.0
 10
15.9340169635
 20
12.0215113822
 30
0.0
 10
15.9436440668
 20
12.0065422726
 30
0.0
 10
15.9525751899
 20
11.9915306396
 30
0.0
 10
15.9608009846
 20
11.9764920456
 30
0.0
 10
15.9683128429
 20
11.961442013
 30
0.0
 10
15.9751027923
 20
11.9463963116
 30
0.0
 10
15.9801768846
 20
11.9338168451
 30
0.0
 10
15.9838627525
 20
11.9237728782
 30
0.0
 10
15.9872703169
 20
11.9138342039
 30
0.0
 10
15.9910736798
 20
11.901439596
 30
0.0
 10
15.9949119331
 20
11.8865663008
 30
0.0
 10
15.9979999754
 20
11.8717747545
 30
0.0
 10
16.0003343363
 20
11.8570805337
 30
0.0
 10
16.0019123949
 20
11.8424989403
 30
0.0
 10
16.0027323078
 20
11.8280452793
 30
0.0
 10
16.0027930099
 20
11.8137346515
 30
0.0
 10
16.0020943134
 20
11.7995824223
 30
0.0
 10
16.0008775282
 20
11.7879131865
 30
0.0
 10
15.9995248413
 20
11.7786802809
 30
0.0
 10
15.9983231548
 20
11.7718153206
 30
0.0
 10
15.9969330008
 20
11.7650010704
 30
0.0
 10
15.9953547048
 20
11.7582392345
 30
0.0
 10
15.9935887412
 20
11.7515316604
 30
0.0
 10
15.9922864341
 20
11.7470967257
 30
0.0
 10
15.9916043764
 20
11.7448895925
 30
0.0
  0
SPLINE
  5
2C5
100
AcDbEntity
  8
LAYER_CHAMFER_FEAT
100
AcDbSpline
 62
7
  6
CONTINUOUS
 70
0
 71
3
 72
39
 73
35
 74
0
 42
0.0000001
 43
0.0000001
 44
0.0000000001
 40
0.0
 40
0.0
 40
0.0
 40
0.0
 40
0.0248034963
 40
0.0496643347
 40
0.0746391942
 40
0.099783485
 40
0.1251507464
 40
0.1507921142
 40
0.1767559258
 40
0.2030872574
 40
0.2298277661
 40
0.2570153712
 40
0.2846842088
 40
0.3128645651
 40
0.3415828039
 40
0.3708615622
 40
0.4007196409
 40
0.4311723134
 40
0.4622313148
 40
0.493905049
 40
0.5261987895
 40
0.5591147003
 40
0.5926522007
 40
0.6268079011
 40
0.6615759528
 40
0.6969480925
 40
0.7329137578
 40
0.7694603575
 40
0.8065733574
 40
0.8442363193
 40
0.8824305683
 40
0.9211370727
 40
0.9603360377
 40
1.0
 40
1.0
 40
1.0
 40
1.0
 10
15.4653880406
 20
11.3121743156
 30
0.0
 10
15.4646774573
 20
11.3098748664
 30
0.0
 10
15.4631189379
 20
11.3053113387
 30
0.0
 10
15.460379043
 20
11.2986029594
 30
0.0
 10
15.45723904
 20
11.2920353879
 30
0.0
 10
15.4537026687
 20
11.2856164832
 30
0.0
 10
15.4497740265
 20
11.2793535101
 30
0.0
 10
15.4454577619
 20
11.2732535809
 30
0.0
 10
15.4407588238
 20
11.2673236592
 30
0.0
 10
15.4356827445
 20
11.2615703717
 30
0.0
 10
15.430235325
 20
11.2560002417
 30
0.0
 10
15.4244228709
 20
11.250619476
 30
0.0
 10
15.4182520398
 20
11.245434088
 30
0.0
 10
15.4117298564
 20
11.2404498962
 30
0.0
 10
15.4048637907
 20
11.235672389
 30
0.0
 10
15.397661592
 20
11.2311069629
 30
0.0
 10
15.3901314689
 20
11.2267586238
 30
0.0
 10
15.3822819141
 20
11.2226322639
 30
0.0
 10
15.3741218118
 20
11.2187324589
 30
0.0
 10
15.3656603835
 20
11.2150635341
 30
0.0
 10
15.3569071603
 20
11.2116296335
 30
0.0
 10
15.3478720413
 20
11.2084345147
 30
0.0
 10
15.3385651937
 20
11.2054818234
 30
0.0
 10
15.32899713
 20
11.202774797
 30
0.0
 10
15.31917863
 20
11.2003164961
 30
0.0
 10
15.3091207667
 20
11.1981096772
 30
0.0
 10
15.2988348907
 20
11.1961567733
 30
0.0
 10
15.2883325872
 20
11.194460033
 30
0.0
 10
15.2776257039
 20
11.1930212933
 30
0.0
 10
15.2667263522
 20
11.1918422374
 30
0.0
 10
15.2556468203
 20
11.1909241176
 30
0.0
 10
15.2443994201
 20
11.1902679943
 30
0.0
 10
15.2329971723
 20
11.1898746672
 30
0.0
 10
15.2253446189
 20
11.1897883385
 30
0.0
 10
15.2214959346
 20
11.1897883385
 30
0.0
  0
SPLINE
  5
2C6
100
AcDbEntity
  8
LAYER_CUT_FEAT
100
AcDbSpline
 62
7
  6
CONTINUOUS
 70
0
 71
3
 72
23
 73
19
 74
0
 42
0.0000001
 43
0.0000001
 44
0.0000000001
 40
0.0
 40
0.0
 40
0.0
 40
0.0
 40
0.0696910344
 40
0.138141676
 40
0.205386594
 40
0.271473319
 40
0.3364539513
 40
0.4003877722
 40
0.4633414323
 40
0.5253884235
 40
0.5866090836
 40
0.6470902522
 40
0.7069248621
 40
0.7662114206
 40
0.8250532911
 40
0.8835579089
 40
0.9418358884
 40
1.0
 40
1.0
 40
1.0
 40
1.0
 10
16.0514931645
 20
11.9663251201
 30
0.0
 10
16.0541206328
 20
11.9609709026
 30
0.0
 10
16.0591351223
 20
11.9502612707
 30
0.0
 10
16.0659753572
 20
11.9340652335
 30
0.0
 10
16.0720590855
 20
11.9178987666
 30
0.0
 10
16.0773802262
 20
11.9017777446
 30
0.0
 10
16.0819336275
 20
11.8857173325
 30
0.0
 10
16.0857147644
 20
11.8697329122
 30
0.0
 10
16.0887198366
 20
11.8538397656
 30
0.0
 10
16.0909457872
 20
11.838053111
 30
0.0
 10
16.0923903271
 20
11.8223881086
 30
0.0
 10
16.0930518672
 20
11.8068598302
 30
0.0
 10
16.0929295853
 20
11.7914832625
 30
0.0
 10
16.0920234727
 20
11.7762732694
 30
0.0
 10
16.0903342673
 20
11.7612446391
 30
0.0
 10
16.0878634192
 20
11.7464118332
 30
0.0
 10
16.0846134489
 20
11.7317898324
 30
0.0
 10
16.081928169
 20
11.7221873722
 30
0.0
 10
16.0804585181
 20
11.717431586
 30
0.0
  0
SPLINE
  5
2C7
100
AcDbEntity
  8
LAYER_FEATURE
100
AcDbSpline
 62
7
  6
CONTINUOUS
 70
0
 71
3
 72
36
 73
32
 74
0
 42
0.0000001
 43
0.0000001
 44
0.0000000001
 40
0.0
 40
0.0
 40
0.0
 40
0.0
 40
0.0470556924
 40
0.0717881295
 40
0.0973476351
 40
0.1237439321
 40
0.1509750726
 40
0.1790295986
 40
0.2078869705
 40
0.2375185512
 40
0.2678882133
 40
0.2989535247
 40
0.3306662228
 40
0.3629728374
 40
0.3958156097
 40
0.4291327492
 40
0.4628592039
 40
0.4969271936
 40
0.531266562
 40
0.6004616522
 40
0.6698662711
 40
0.7044661994
 40
0.7388966375
 40
0.7730850951
 40
0.8069606563
 40
0.8404545884
 40
0.8735007646
 40
0.9060353092
 40
0.9379990562
 40
0.9693401259
 40
1.0
 40
1.0
 40
1.0
 40
1.0
 10
16.7154848752
 20
13.0278586702
 30
0.0
 10
16.7150521232
 20
13.0290846588
 30
0.0
 10
16.7142461863
 20
13.0309063751
 30
0.0
 10
16.7129245865
 20
13.0332499953
 30
0.0
 10
16.7117715468
 20
13.0350293683
 30
0.0
 10
16.7104773038
 20
13.0367947431
 30
0.0
 10
16.7090457992
 20
13.0385408283
 30
0.0
 10
16.7074816584
 20
13.0402620678
 30
0.0
 10
16.7057898455
 20
13.0419530834
 30
0.0
 10
16.703975702
 20
13.0436085057
 30
0.0
 10
16.7020450096
 20
13.0452231399
 30
0.0
 10
16.7000038807
 20
13.0467918676
 30
0.0
 10
16.697858782
 20
13.0483097108
 30
0.0
 10
16.695616539
 20
13.0497718905
 30
0.0
 10
16.6932842495
 20
13.0511737397
 30
0.0
 10
16.6908693237
 20
13.0525108256
 30
0.0
 10
16.6883794428
 20
13.0537789118
 30
0.0
 10
16.6858224704
 20
13.0549739579
 30
0.0
 10
16.6823260541
 20
13.0564685585
 30
0.0
 10
16.6778419386
 20
13.0581293883
 30
0.0
 10
16.6732533171
 20
13.0595000051
 30
0.0
 10
16.6695390462
 20
13.0604155758
 30
0.0
 10
16.6667487228
 20
13.0610074968
 30
0.0
 10
16.6639600863
 20
13.0615033936
 30
0.0
 10
16.6611819667
 20
13.0619017307
 30
0.0
 10
16.658423188
 20
13.0622012278
 30
0.0
 10
16.6556925186
 20
13.0624009083
 30
0.0
 10
16.6529986417
 20
13.062500191
 30
0.0
 10
16.65035
 20
13.062498717
 30
0.0
 10
16.6477551792
 20
13.0623964613
 30
0.0
 10
16.6460470005
 20
13.0622598092
 30
0.0
 10
16.6452042243
 20
13.0621741698
 30
0.0
  0
SPLINE
  5
2C8
100
AcDbEntity
  8
LAYER_FEATURE
100
AcDbSpline
 62
7
  6
CONTINUOUS
 70
0
 71
3
 72
48
 73
44
 74
0
 42
0.0000001
 43
0.0000001
 44
0.0000000001
 40
0.0
 40
0.0
 40
0.0
 40
0.0
 40
0.0396643164
 40
0.0788610285
 40
0.1175666373
 40
0.1557604662
 40
0.1934225072
 40
0.2305346717
 40
0.2670805032
 40
0.3030454104
 40
0.3384167745
 40
0.3731840801
 40
0.4073390569
 40
0.4408758239
 40
0.473791042
 40
0.5060840726
 40
0.5377571353
 40
0.5688154668
 40
0.5992674822
 40
0.6291249306
 40
0.6584030448
 40
0.6728314457
 40
0.6871223987
 40
0.7153021386
 40
0.7429703868
 40
0.7566230099
 40
0.7701594372
 40
0.7968993662
 40
0.8232301401
 40
0.8362561141
 40
0.8491957112
 40
0.8620546759
 40
0.8748389507
 40
0.8875546761
 40
0.9002081598
 40
0.912805884
 40
0.9253544735
 40
0.9378606901
 40
0.9503314134
 40
0.9627736188
 40
0.9751943663
 40
0.9876007731
 40
1.0
 40
1.0
 40
1.0
 40
1.0
 10
14.846302403
 20
12.8399979305
 30
0.0
 10
14.8318770953
 20
12.8399979305
 30
0.0
 10
14.8031953973
 20
12.8396744615
 30
0.0
 10
14.7604598738
 20
12.8382001308
 30
0.0
 10
14.7183050079
 20
12.8357410188
 30
0.0
 10
14.6767788327
 20
12.832299974
 30
0.0
 10
14.6359279792
 20
12.8278807927
 30
0.0
 10
14.5957986197
 20
12.8224884626
 30
0.0
 10
14.556435998
 20
12.8161290154
 30
0.0
 10
14.5178845174
 20
12.8088095896
 30
0.0
 10
14.4801876536
 20
12.800538391
 30
0.0
 10
14.4433879161
 20
12.7913246853
 30
0.0
 10
14.4075268023
 20
12.7811787855
 30
0.0
 10
14.3726447522
 20
12.7701120384
 30
0.0
 10
14.3387811039
 20
12.7581368076
 30
0.0
 10
14.3059740511
 20
12.7452664719
 30
0.0
 10
14.2742605949
 20
12.7315153908
 30
0.0
 10
14.2436765526
 20
12.7168989139
 30
0.0
 10
14.2142563708
 20
12.7014332626
 30
0.0
 10
14.1860336471
 20
12.6851358811
 30
0.0
 10
14.1634297314
 20
12.6708073001
 30
0.0
 10
14.1459881594
 20
12.6589430747
 30
0.0
 10
14.1291357564
 20
12.6469318452
 30
0.0
 10
14.1088605581
 20
12.6314376964
 30
0.0
 10
14.089501585
 20
12.6151702045
 30
0.0
 10
14.0747002544
 20
12.6017902271
 30
0.0
 10
14.0604749779
 20
12.5882852966
 30
0.0
 10
14.0435302613
 20
12.570958936
 30
0.0
 10
14.0276188595
 20
12.5529247217
 30
0.0
 10
14.015611579
 20
12.5381722721
 30
0.0
 10
14.006993685
 20
12.5269850726
 30
0.0
 10
13.9987342135
 20
12.5156393113
 30
0.0
 10
13.9908354805
 20
12.504138091
 30
0.0
 10
13.9832996917
 20
12.4924847292
 30
0.0
 10
13.9761290626
 20
12.480682469
 30
0.0
 10
13.9693255739
 20
12.4687346951
 30
0.0
 10
13.9628912008
 20
12.4566447685
 30
0.0
 10
13.9568277798
 20
12.4444161183
 30
0.0
 10
13.9511369975
 20
12.4320522282
 30
0.0
 10
13.945820551
 20
12.4195565842
 30
0.0
 10
13.94087986
 20
12.4069327295
 30
0.0
 10
13.9363164477
 20
12.3941843655
 30
0.0
 10
13.9335261511
 20
12.385603682
 30
0.0
 10
13.9321947561
 20
12.3812952988
 30
0.0
  0
SPLINE
  5
2C9
100
AcDbEntity
  8
LAYER_FEATURE
100
AcDbSpline
 62
7
  6
CONTINUOUS
 70
0
 71
3
 72
36
 73
32
 74
0
 42
0.0000001
 43
0.0000001
 44
0.0000000001
 40
0.0
 40
0.0
 40
0.0
 40
0.0
 40
0.0298759625
 40
0.0604673517
 40
0.0917207469
 40
0.1235885403
 40
0.1560154144
 40
0.1889409249
 40
0.2223018956
 40
0.2560321187
 40
0.290062806
 40
0.3243231686
 40
0.3932340915
 40
0.4621869165
 40
0.4964993929
 40
0.530602564
 40
0.5644251687
 40
0.5978978687
 40
0.6309536162
 40
0.6635281523
 40
0.6955607407
 40
0.7269944215
 40
0.7577768665
 40
0.7878609734
 40
0.8172052974
 40
0.8457751628
 40
0.8735432359
 40
0.9004904388
 40
0.9266063044
 40
0.9518911431
 40
1.0
 40
1.0
 40
1.0
 40
1.0
 10
16.4731499836
 20
13.367690907
 30
0.0
 10
16.4725353965
 20
13.3682491727
 30
0.0
 10
16.4712660735
 20
13.3693513714
 30
0.0
 10
16.4692723486
 20
13.3709407245
 30
0.0
 10
16.467171696
 20
13.3724813835
 30
0.0
 10
16.4649709454
 20
13.373968379
 30
0.0
 10
16.4626770198
 20
13.3753970935
 30
0.0
 10
16.4602971802
 20
13.3767629413
 30
0.0
 10
16.457839004
 20
13.3780616035
 30
0.0
 10
16.4553103063
 20
13.3792889685
 30
0.0
 10
16.452719073
 20
13.3804411224
 30
0.0
 10
16.449185245
 20
13.3818748043
 30
0.0
 10
16.4446666088
 20
13.3834553647
 30
0.0
 10
16.4400542545
 20
13.3847422984
 30
0.0
 10
16.4363308542
 20
13.3855878513
 30
0.0
 10
16.4335403791
 20
13.386125826
 30
0.0
 10
16.4307565902
 20
13.3865668511
 30
0.0
 10
16.4279883012
 20
13.3869095625
 30
0.0
 10
16.4252443097
 20
13.3871528572
 30
0.0
 10
16.4225333238
 20
13.3872959458
 30
0.0
 10
16.4198639507
 20
13.3873384071
 30
0.0
 10
16.4172446573
 20
13.3872800673
 30
0.0
 10
16.4146837503
 20
13.38712112
 30
0.0
 10
16.4121893457
 20
13.3868620767
 30
0.0
 10
16.4097693484
 20
13.3865037037
 30
0.0
 10
16.4074314213
 20
13.3860471623
 30
0.0
 10
16.4051829382
 20
13.3854938443
 30
0.0
 10
16.4030311061
 20
13.3848454739
 30
0.0
 10
16.4009824524
 20
13.3841039921
 30
0.0
 10
16.3984404326
 20
13.383012821
 30
0.0
 10
16.3966406404
 20
13.38203645
 30
0.0
 10
16.3955151127
 20
13.381314813
 30
0.0
  0
SPLINE
  5
2CA
100
AcDbEntity
  8
LAYER_FEATURE
100
AcDbSpline
 62
7
  6
CONTINUOUS
 70
0
 71
3
 72
37
 73
33
 74
0
 42
0.0000001
 43
0.0000001
 44
0.0000000001
 40
0.0
 40
0.0
 40
0.0
 40
0.0
 40
0.0375816726
 40
0.0753751794
 40
0.1512519537
 40
0.2270189812
 40
0.2646707495
 40
0.302062899
 40
0.3391205766
 40
0.3757712548
 40
0.4119449353
 40
0.4475748294
 40
0.4825979301
 40
0.5169553633
 40
0.5505934224
 40
0.5834638114
 40
0.6155245604
 40
0.6467409163
 40
0.6770857325
 40
0.7065409171
 40
0.7350979637
 40
0.7627590109
 40
0.7895382053
 40
0.8154621852
 40
0.8405715502
 40
0.8649213857
 40
0.8885816645
 40
0.9116378573
 40
0.934189505
 40
0.9563489374
 40
0.978241702
 40
1.0
 40
1.0
 40
1.0
 40
1.0
 10
16.036196694
 20
13.6448962173
 30
0.0
 10
16.035344321
 20
13.6452731737
 30
0.0
 10
16.033622264
 20
13.6460013102
 30
0.0
 10
16.0301218107
 20
13.6473505377
 30
0.0
 10
16.0256592733
 20
13.648829775
 30
0.0
 10
16.0211155964
 20
13.6500232463
 30
0.0
 10
16.017456217
 20
13.6507984213
 30
0.0
 10
16.0147187466
 20
13.6512861362
 30
0.0
 10
16.0119912751
 20
13.6516798316
 30
0.0
 10
16.0092821264
 20
13.6519783439
 30
0.0
 10
16.0065995934
 20
13.6521807238
 30
0.0
 10
16.0039518814
 20
13.6522863644
 30
0.0
 10
16.0013470885
 20
13.6522949553
 30
0.0
 10
15.9987931764
 20
13.6522064275
 30
0.0
 10
15.9962979489
 20
13.6520210881
 30
0.0
 10
15.9938690267
 20
13.6517394687
 30
0.0
 10
15.9915138256
 20
13.6513624115
 30
0.0
 10
15.9892395263
 20
13.6508910818
 30
0.0
 10
15.9870530727
 20
13.6503268436
 30
0.0
 10
15.9849611235
 20
13.6496714206
 30
0.0
 10
15.9829700575
 20
13.6489267542
 30
0.0
 10
15.9810859611
 20
13.648095027
 30
0.0
 10
15.9793145745
 20
13.6471787433
 30
0.0
 10
15.9776613523
 20
13.6461805545
 30
0.0
 10
15.9761313861
 20
13.6451034193
 30
0.0
 10
15.9747294262
 20
13.6439505186
 30
0.0
 10
15.973459919
 20
13.6427252235
 30
0.0
 10
15.9723268906
 20
13.6414312238
 30
0.0
 10
15.9713340728
 20
13.6400724306
 30
0.0
 10
15.9704846964
 20
13.6386529807
 30
0.0
 10
15.9697816673
 20
13.6371774714
 30
0.0
 10
15.9694116429
 20
13.6361580259
 30
0.0
 10
15.9692523207
 20
13.6356424884
 30
0.0
  0
SPLINE
  5
2CB
100
AcDbEntity
  8
02___PRT_ALL_AXES
100
AcDbSpline
 62
7
  6
CONTINUOUS
 70
0
 71
3
 72
23
 73
19
 74
0
 42
0.0000001
 43
0.0000001
 44
0.0000000001
 40
0.0
 40
0.0
 40
0.0
 40
0.0
 40
0.0662849408
 40
0.1319535134
 40
0.1970254857
 40
0.2615242332
 40
0.3254762505
 40
0.3889092556
 40
0.451851001
 40
0.5143282084
 40
0.5763658238
 40
0.6379865351
 40
0.699210766
 40
0.7600568787
 40
0.8205418572
 40
0.8806821583
 40
0.9404950314
 40
1.0
 40
1.0
 40
1.0
 40
1.0
 10
15.0150307908
 20
12.331483425
 30
0.0
 10
15.019641281
 20
12.331483425
 30
0.0
 10
15.0288224221
 20
12.3311828886
 30
0.0
 10
15.0424685338
 20
12.3298186853
 30
0.0
 10
15.0558690446
 20
12.3275532346
 30
0.0
 10
15.0689667169
 20
12.3244029608
 30
0.0
 10
15.0817070287
 20
12.3203902901
 30
0.0
 10
15.0940374307
 20
12.3155429713
 30
0.0
 10
15.1059079508
 20
12.3098934117
 30
0.0
 10
15.1172712476
 20
12.303477938
 30
0.0
 10
15.1280826257
 20
12.2963361112
 30
0.0
 10
15.1382999047
 20
12.2885100966
 30
0.0
 10
15.14788321
 20
12.280044153
 30
0.0
 10
15.1567947358
 20
12.2709841965
 30
0.0
 10
15.1649984424
 20
12.2613776152
 30
0.0
 10
15.172460007
 20
12.2512727517
 30
0.0
 10
15.1791460495
 20
12.2407201028
 30
0.0
 10
15.1830759046
 20
12.2334005238
 30
0.0
 10
15.1848992666
 20
12.2296848966
 30
0.0
  0
SPLINE
  5
2CC
100
AcDbEntity
  8
LAYER_FEATURE
100
AcDbSpline
 62
7
  6
CONTINUOUS
 70
0
 71
3
 72
27
 73
23
 74
0
 42
0.0000001
 43
0.0000001
 44
0.0000000001
 40
0.0
 40
0.0
 40
0.0
 40
0.0
 40
0.0794910828
 40
0.1574425889
 40
0.2335499875
 40
0.3075446717
 40
0.3791862279
 40
0.448276255
 40
0.5146627849
 40
0.5782493857
 40
0.6390038844
 40
0.6969681923
 40
0.7522682781
 40
0.8051232454
 40
0.8307407604
 40
0.8558749301
 40
0.8805812384
 40
0.9049206974
 40
0.9289598094
 40
0.9527693291
 40
0.9764237706
 40
1.0
 40
1.0
 40
1.0
 40
1.0
 10
15.5047257391
 20
13.7959702053
 30
0.0
 10
15.5034151259
 20
13.7961491465
 30
0.0
 10
15.5008102501
 20
13.7964410549
 30
0.0
 10
15.4969295341
 20
13.7966793145
 30
0.0
 10
15.4931329005
 20
13.7967127449
 30
0.0
 10
15.4894449746
 20
13.7965411384
 30
0.0
 10
15.4858894079
 20
13.7961655219
 30
0.0
 10
15.4824890628
 20
13.7955882486
 30
0.0
 10
15.4792657377
 20
13.7948128825
 30
0.0
 10
15.4762400773
 20
13.7938441811
 30
0.0
 10
15.4734314844
 20
13.792688042
 30
0.0
 10
15.4708579609
 20
13.7913513376
 30
0.0
 10
15.4685364153
 20
13.7898422282
 30
0.0
 10
15.4668062902
 20
13.7884333473
 30
0.0
 10
15.4655701829
 20
13.7872302158
 30
0.0
 10
15.464724661
 20
13.7863007811
 30
0.0
 10
15.4639526061
 20
13.7853365582
 30
0.0
 10
15.4632553491
 20
13.784339032
 30
0.0
 10
15.4626340083
 20
13.7833098934
 30
0.0
 10
15.4620897093
 20
13.7822507629
 30
0.0
 10
15.4616233367
 20
13.7811635045
 30
0.0
 10
15.4613647321
 20
13.7804205124
 30
0.0
 10
15.461248904
 20
13.7800456801
 30
0.0
  0
SPLINE
  5
2CD
100
AcDbEntity
  8
LAYER_FEATURE
100
AcDbSpline
 62
7
  6
CONTINUOUS
 70
0
 71
3
 72
45
 73
41
 74
0
 42
0.0000001
 43
0.0000001
 44
0.0000000001
 40
0.0
 40
0.0
 40
0.0
 40
0.0
 40
0.0242880876
 40
0.0367884734
 40
0.0495295549
 40
0.0625143179
 40
0.0757439925
 40
0.0892186744
 40
0.1029374818
 40
0.116898684
 40
0.131099519
 40
0.1455364248
 40
0.1602049667
 40
0.1751000179
 40
0.1902156739
 40
0.2210797945
 40
0.2527401315
 40
0.2851283149
 40
0.3181684502
 40
0.3517782262
 40
0.3858699522
 40
0.4203515372
 40
0.4551274257
 40
0.4900994995
 40
0.5251679565
 40
0.5602321742
 40
0.5951915662
 40
0.6299464387
 40
0.6643988551
 40
0.6984535162
 40
0.7320186648
 40
0.7650070244
 40
0.7973367832
 40
0.8289326359
 40
0.859726899
 40
0.8896607138
 40
0.9186853567
 40
0.9467636691
 40
0.9738716199
 40
1.0
 40
1.0
 40
1.0
 40
1.0
 10
15.1368155272
 20
13.7655317563
 30
0.0
 10
15.1378952721
 20
13.7630896082
 30
0.0
 10
15.1396843867
 20
13.7594563579
 30
0.0
 10
15.1423588564
 20
13.7547123988
 30
0.0
 10
15.1445541453
 20
13.7511276677
 30
0.0
 10
15.1469169631
 20
13.7475547766
 30
0.0
 10
15.1494448237
 20
13.7439972832
 30
0.0
 10
15.1521350617
 20
13.7404590808
 30
0.0
 10
15.1549847432
 20
13.7369438797
 30
0.0
 10
15.1579908741
 20
13.7334554637
 30
0.0
 10
15.1611501979
 20
13.7299974937
 30
0.0
 10
15.164459389
 20
13.7265736969
 30
0.0
 10
15.1679148681
 20
13.7231876808
 30
0.0
 10
15.1715130058
 20
13.7198430686
 30
0.0
 10
15.1765301565
 20
13.7154129885
 30
0.0
 10
15.1831385818
 20
13.7100048125
 30
0.0
 10
15.1915182601
 20
13.7037810953
 30
0.0
 10
15.2003665273
 20
13.6978052015
 30
0.0
 10
15.2096455941
 20
13.6921026211
 30
0.0
 10
15.2193160229
 20
13.6866975644
 30
0.0
 10
15.2293366406
 20
13.6816130343
 30
0.0
 10
15.2396647852
 20
13.6768706715
 30
0.0
 10
15.2502564701
 20
13.6724906716
 30
0.0
 10
15.2610665786
 20
13.6684916911
 30
0.0
 10
15.2720490574
 20
13.6648907667
 30
0.0
 10
15.2831571162
 20
13.6617032401
 30
0.0
 10
15.2943434293
 20
13.6589426916
 30
0.0
 10
15.3055603414
 20
13.6566208813
 30
0.0
 10
15.3167600732
 20
13.6547476997
 30
0.0
 10
15.3278949292
 20
13.653331126
 30
0.0
 10
15.3389175045
 20
13.6523771965
 30
0.0
 10
15.3497808911
 20
13.6518899815
 30
0.0
 10
15.3604388815
 20
13.6518715732
 30
0.0
 10
15.3708461711
 20
13.6523220836
 30
0.0
 10
15.3809585487
 20
13.6532396515
 30
0.0
 10
15.3907331068
 20
13.6546204716
 30
0.0
 10
15.4001283513
 20
13.6564587963
 30
0.0
 10
15.4091046274
 20
13.6587470922
 30
0.0
 10
15.4176233651
 20
13.6614757027
 30
0.0
 10
15.4230745403
 20
13.6636207126
 30
0.0
 10
15.4257083825
 20
13.6647671008
 30
0.0
  0
SPLINE
  5
2CE
100
AcDbEntity
  8
LAYER_FEATURE
100
AcDbSpline
 62
7
  6
CONTINUOUS
 70
0
 71
3
 72
37
 73
33
 74
0
 42
0.0000001
 43
0.0000001
 44
0.0000000001
 40
0.0
 40
0.0
 40
0.0
 40
0.0
 40
0.0238036709
 40
0.0484123002
 40
0.0738403601
 40
0.1000992723
 40
0.1271871099
 40
0.155091386
 40
0.1837912208
 40
0.2132576769
 40
0.2434546551
 40
0.27433946
 40
0.3058638933
 40
0.337974676
 40
0.3706140359
 40
0.4037205484
 40
0.4372293894
 40
0.4710730616
 40
0.5051818838
 40
0.539484364
 40
0.6083698546
 40
0.6771505843
 40
0.7113227805
 40
0.7452503833
 40
0.7788630736
 40
0.8120926419
 40
0.8448735599
 40
0.8771434409
 40
0.9088427532
 40
0.9399172009
 40
0.9703203085
 40
1.0
 40
1.0
 40
1.0
 40
1.0
 10
15.1368155272
 20
13.7655317563
 30
0.0
 10
15.1365476705
 20
13.7661375898
 30
0.0
 10
15.1359588806
 20
13.7673506932
 30
0.0
 10
15.1349420144
 20
13.7691377507
 30
0.0
 10
15.1337802157
 20
13.7709163335
 30
0.0
 10
15.1324773583
 20
13.7726806875
 30
0.0
 10
15.1310375843
 20
13.7744254029
 30
0.0
 10
15.1294654302
 20
13.7761449423
 30
0.0
 10
15.1277659178
 20
13.7778339066
 30
0.0
 10
15.1259444462
 20
13.7794869858
 30
0.0
 10
15.1240067651
 20
13.7810989276
 30
0.0
 10
15.1219590465
 20
13.7826646659
 30
0.0
 10
15.1198077759
 20
13.7841792314
 30
0.0
 10
15.1175597715
 20
13.7856378127
 30
0.0
 10
15.1152221859
 20
13.7870358151
 30
0.0
 10
15.1128024227
 20
13.7883687721
 30
0.0
 10
15.1103081711
 20
13.7896324676
 30
0.0
 10
15.1077473658
 20
13.7908228966
 30
0.0
 10
15.1051280969
 20
13.7919362633
 30
0.0
 10
15.1015642811
 20
13.7933150895
 30
0.0
 10
15.0970190107
 20
13.7948236326
 30
0.0
 10
15.0923895596
 20
13.7960356196
 30
0.0
 10
15.0886612251
 20
13.7968186544
 30
0.0
 10
15.0858729566
 20
13.7973086104
 30
0.0
 10
15.0830957779
 20
13.7977008806
 30
0.0
 10
15.0803384803
 20
13.7979942579
 30
0.0
 10
15.0776098199
 20
13.7981877948
 30
0.0
 10
15.0749184674
 20
13.7982808503
 30
0.0
 10
15.0722729763
 20
13.7982731823
 30
0.0
 10
15.0696816344
 20
13.7981647642
 30
0.0
 10
15.067152845
 20
13.7979559151
 30
0.0
 10
15.0654932579
 20
13.7977476249
 30
0.0
 10
15.0646763001
 20
13.7976262621
 30
0.0
  0
SPLINE
  5
2CF
100
AcDbEntity
  8
LAYER_FEATURE
100
AcDbSpline
 62
7
  6
CONTINUOUS
 70
0
 71
3
 72
23
 73
19
 74
0
 42
0.0000001
 43
0.0000001
 44
0.0000000001
 40
0.0
 40
0.0
 40
0.0
 40
0.0
 40
0.0757895051
 40
0.1496308092
 40
0.2214699458
 40
0.2913002483
 40
0.3591333696
 40
0.4249966537
 40
0.4889427835
 40
0.5510502129
 40
0.6114243223
 40
0.6701970719
 40
0.7275293419
 40
0.7836089233
 40
0.8386498649
 40
0.8928891873
 40
0.9465827513
 40
1.0
 40
1.0
 40
1.0
 40
1.0
 10
15.0004907097
 20
13.7863036409
 30
0.0
 10
14.999808851
 20
13.7861635554
 30
0.0
 10
14.9984682685
 20
13.7858586568
 30
0.0
 10
14.9965062816
 20
13.7853191612
 30
0.0
 10
14.9946238927
 20
13.7847045817
 30
0.0
 10
14.9928260008
 20
13.7840165368
 30
0.0
 10
14.9911170598
 20
13.7832567095
 30
0.0
 10
14.9895013942
 20
13.7824269392
 30
0.0
 10
14.9879831071
 20
13.781529294
 30
0.0
 10
14.9865660908
 20
13.7805659312
 30
0.0
 10
14.9852539329
 20
13.7795392721
 30
0.0
 10
14.9840500759
 20
13.7784517703
 30
0.0
 10
14.9829576151
 20
13.777306176
 30
0.0
 10
14.981979485
 20
13.7761052934
 30
0.0
 10
14.9811182827
 20
13.7748521919
 30
0.0
 10
14.980376344
 20
13.7735500269
 30
0.0
 10
14.9797557583
 20
13.7722023165
 30
0.0
 10
14.9794236501
 20
13.7712746989
 30
0.0
 10
14.9792787933
 20
13.7708059525
 30
0.0
  0
SPLINE
  5
2D0
100
AcDbEntity
  8
LAYER_FEATURE
100
AcDbSpline
 62
7
  6
CONTINUOUS
 70
0
 71
3
 72
23
 73
19
 74
0
 42
0.0000001
 43
0.0000001
 44
0.0000000001
 40
0.0
 40
0.0
 40
0.0
 40
0.0
 40
0.0574496898
 40
0.1163183584
 40
0.1764741532
 40
0.237772634
 40
0.3000580463
 40
0.3631655606
 40
0.4269228892
 40
0.4911520364
 40
0.5556709215
 40
0.6202949894
 40
0.684838791
 40
0.7491175589
 40
0.8129487881
 40
0.8761538362
 40
0.9385595596
 40
1.0
 40
1.0
 40
1.0
 40
1.0
 10
14.7546060229
 20
13.6392776107
 30
0.0
 10
14.7572458424
 20
13.6370913621
 30
0.0
 10
14.7627003601
 20
13.63279575
 30
0.0
 10
14.7712662659
 20
13.6266677174
 30
0.0
 10
14.7802861037
 20
13.620797399
 30
0.0
 10
14.789721249
 20
13.6152099356
 30
0.0
 10
14.7995316512
 20
13.6099290177
 30
0.0
 10
14.8096755422
 20
13.6049771221
 30
0.0
 10
14.8201097545
 20
13.6003753177
 30
0.0
 10
14.8307898648
 20
13.596143195
 30
0.0
 10
14.8416703983
 20
13.5922987741
 30
0.0
 10
14.8527050218
 20
13.5888584259
 30
0.0
 10
14.8638467422
 20
13.5858368016
 30
0.0
 10
14.8750481187
 20
13.5832467682
 30
0.0
 10
14.8862614357
 20
13.5810993548
 30
0.0
 10
14.8974390274
 20
13.5794037019
 30
0.0
 10
14.9085330539
 20
13.5781670391
 30
0.0
 10
14.9159062388
 20
13.5776475931
 30
0.0
 10
14.9195675017
 20
13.5774676685
 30
0.0
  0
SPLINE
  5
2D1
100
AcDbEntity
  8
LAYER_FEATURE
100
AcDbSpline
 62
7
  6
CONTINUOUS
 70
0
 71
3
 72
36
 73
32
 74
0
 42
0.0000001
 43
0.0000001
 44
0.0000000001
 40
0.0
 40
0.0
 40
0.0
 40
0.0
 40
0.0308588113
 40
0.0623896099
 40
0.094532652
 40
0.1272350359
 40
0.1604366762
 40
0.1940728795
 40
0.2280768198
 40
0.2623791707
 40
0.2969085212
 40
0.3315919922
 40
0.4011165087
 40
0.4703678028
 40
0.5047115073
 40
0.5387682348
 40
0.5724681534
 40
0.6057439248
 40
0.6385310527
 40
0.6707684251
 40
0.7023990951
 40
0.7333705394
 40
0.7636355939
 40
0.793153085
 40
0.8218883155
 40
0.8498142697
 40
0.8769122296
 40
0.9031727769
 40
0.9285962373
 40
0.9531948392
 40
1.0
 40
1.0
 40
1.0
 40
1.0
 10
14.7546060229
 20
13.6392776107
 30
0.0
 10
14.7539504432
 20
13.6398205494
 30
0.0
 10
14.7526015646
 20
13.6408902354
 30
0.0
 10
14.75049465
 20
13.6424277059
 30
0.0
 10
14.7482878944
 20
13.6439113022
 30
0.0
 10
14.7459884671
 20
13.6453362396
 30
0.0
 10
14.7436036018
 20
13.6466980913
 30
0.0
 10
14.7411408523
 20
13.6479924817
 30
0.0
 10
14.7386080605
 20
13.6492153168
 30
0.0
 10
14.7360132798
 20
13.6503627251
 30
0.0
 10
14.7333647071
 20
13.6514310443
 30
0.0
 10
14.7297703087
 20
13.652746418
 30
0.0
 10
14.7251991684
 20
13.6541719511
 30
0.0
 10
14.7205546918
 20
13.655297697
 30
0.0
 10
14.7168243036
 20
13.6560090033
 30
0.0
 10
14.7140411907
 20
13.656444035
 30
0.0
 10
14.711274149
 20
13.6567806407
 30
0.0
 10
14.7085319368
 20
13.6570177867
 30
0.0
 10
14.7058232665
 20
13.657154705
 30
0.0
 10
14.7031567319
 20
13.6571909426
 30
0.0
 10
14.7005407943
 20
13.6571264166
 30
0.0
 10
14.6979837485
 20
13.6569612896
 30
0.0
 10
14.6954936993
 20
13.6566960906
 30
0.0
 10
14.6930785323
 20
13.6563316637
 30
0.0
 10
14.690745899
 20
13.6558691011
 30
0.0
 10
14.68850318
 20
13.6553098873
 30
0.0
 10
14.6863574452
 20
13.6546557235
 30
0.0
 10
14.6843155822
 20
13.6539086509
 30
0.0
 10
14.6823837572
 20
13.6530708638
 30
0.0
 10
14.6800035457
 20
13.6518570801
 30
0.0
 10
14.6783378794
 20
13.6507896293
 30
0.0
 10
14.6773086322
 20
13.6500101787
 30
0.0
  0
SPLINE
  5
2D2
100
AcDbEntity
  8
LAYER_FEATURE
100
AcDbSpline
 62
7
  6
CONTINUOUS
 70
0
 71
3
 72
14
 73
10
 74
0
 42
0.0000001
 43
0.0000001
 44
0.0000000001
 40
0.0
 40
0.0
 40
0.0
 40
0.0
 40
0.2603605465
 40
0.3871665448
 40
0.5120758836
 40
0.6354395343
 40
0.7576255707
 40
0.8790143287
 40
1.0
 40
1.0
 40
1.0
 40
1.0
 10
14.6390057746
 20
13.6181110176
 30
0.0
 10
14.6383829078
 20
13.6175395265
 30
0.0
 10
14.6375040077
 20
13.6166350717
 30
0.0
 10
14.6364638065
 20
13.6153370252
 30
0.0
 10
14.6357651969
 20
13.6143384095
 30
0.0
 10
14.6351427996
 20
13.6133081314
 30
0.0
 10
14.6345975683
 20
13.6122477854
 30
0.0
 10
14.6341304623
 20
13.6111592243
 30
0.0
 10
14.6338715133
 20
13.6104153105
 30
0.0
 10
14.6337555368
 20
13.6100400145
 30
0.0
  0
SPLINE
  5
2D3
100
AcDbEntity
  8
LAYER_FEATURE
100
AcDbSpline
 62
7
  6
CONTINUOUS
 70
0
 71
3
 72
34
 73
30
 74
0
 42
0.0000001
 43
0.0000001
 44
0.0000000001
 40
0.0
 40
0.0
 40
0.0
 40
0.0
 40
0.0777114255
 40
0.1550310264
 40
0.2314466459
 40
0.3064670358
 40
0.3796293354
 40
0.4153849033
 40
0.4505218034
 40
0.4849955268
 40
0.5187660742
 40
0.5517977172
 40
0.5840602452
 40
0.6155288265
 40
0.6461851254
 40
0.6760175923
 40
0.7050221944
 40
0.7332032869
 40
0.7605738725
 40
0.7871569245
 40
0.8129852645
 40
0.8381029124
 40
0.8625647077
 40
0.8864369985
 40
0.9097971403
 40
0.9327330501
 40
0.9553415195
 40
0.9777266375
 40
1.0
 40
1.0
 40
1.0
 40
1.0
 10
14.565828187
 20
13.3902234677
 30
0.0
 10
14.5642174118
 20
13.3907454835
 30
0.0
 10
14.5609735467
 20
13.3916955469
 30
0.0
 10
14.5560582646
 20
13.3928349633
 30
0.0
 10
14.5511426152
 20
13.3936772463
 30
0.0
 10
14.5462754304
 20
13.3942140181
 30
0.0
 10
14.5422690438
 20
13.3944038203
 30
0.0
 10
14.5391297446
 20
13.3943953127
 30
0.0
 10
14.5368350137
 20
13.3943103959
 30
0.0
 10
14.534587885
 20
13.3941470742
 30
0.0
 10
14.5323938898
 20
13.3939058
 30
0.0
 10
14.530258464
 20
13.3935871012
 30
0.0
 10
14.5281868794
 20
13.3931918145
 30
0.0
 10
14.5261842613
 20
13.3927208547
 30
0.0
 10
14.5242555522
 20
13.3921754
 30
0.0
 10
14.5224055183
 20
13.391556761
 30
0.0
 10
14.5206387345
 20
13.3908664261
 30
0.0
 10
14.5189595584
 20
13.3901060916
 30
0.0
 10
14.5173721692
 20
13.3892775386
 30
0.0
 10
14.5158804785
 20
13.3883828205
 30
0.0
 10
14.5144882442
 20
13.387424014
 30
0.0
 10
14.5131989166
 20
13.3864034884
 30
0.0
 10
14.5120158009
 20
13.3853236404
 30
0.0
 10
14.5109418852
 20
13.3841871305
 30
0.0
 10
14.5099799703
 20
13.3829967005
 30
0.0
 10
14.5091325892
 20
13.3817553042
 30
0.0
 10
14.5084019573
 20
13.3804660408
 30
0.0
 10
14.5077900863
 20
13.3791322919
 30
0.0
 10
14.5074620435
 20
13.3782146493
 30
0.0
 10
14.507318761
 20
13.3777509694
 30
0.0
  0
SPLINE
  5
2D4
100
AcDbEntity
  8
LAYER_FEATURE
100
AcDbSpline
 62
7
  6
CONTINUOUS
 70
0
 71
3
 72
48
 73
44
 74
0
 42
0.0000001
 43
0.0000001
 44
0.0000000001
 40
0.0
 40
0.0
 40
0.0
 40
0.0
 40
0.0396643164
 40
0.0788610285
 40
0.1175666373
 40
0.1557604662
 40
0.1934225072
 40
0.2305346717
 40
0.2670805032
 40
0.3030454104
 40
0.3384167745
 40
0.3731840801
 40
0.4073390569
 40
0.4408758239
 40
0.473791042
 40
0.5060840726
 40
0.5377571353
 40
0.5688154668
 40
0.5992674822
 40
0.6291249306
 40
0.6584030448
 40
0.6728314457
 40
0.6871223987
 40
0.7153021386
 40
0.7429703868
 40
0.7566230099
 40
0.7701594372
 40
0.7968993662
 40
0.8232301401
 40
0.8362561141
 40
0.8491957112
 40
0.8620546759
 40
0.8748389507
 40
0.8875546761
 40
0.9002081598
 40
0.912805884
 40
0.9253544735
 40
0.9378606901
 40
0.9503314134
 40
0.9627736188
 40
0.9751943663
 40
0.9876007731
 40
1.0
 40
1.0
 40
1.0
 40
1.0
 10
15.2094018881
 20
14.014988295
 30
0.0
 10
15.1949765804
 20
14.014988295
 30
0.0
 10
15.1662948825
 20
14.0146648259
 30
0.0
 10
15.1235593589
 20
14.0131904952
 30
0.0
 10
15.081404493
 20
14.0107313832
 30
0.0
 10
15.0398783178
 20
14.0072903384
 30
0.0
 10
14.9990274643
 20
14.0028711571
 30
0.0
 10
14.9588981048
 20
13.9974788271
 30
0.0
 10
14.9195354831
 20
13.9911193799
 30
0.0
 10
14.8809840026
 20
13.983799954
 30
0.0
 10
14.8432871387
 20
13.9755287555
 30
0.0
 10
14.8064874012
 20
13.9663150497
 30
0.0
 10
14.7706262875
 20
13.95616915
 30
0.0
 10
14.7357442373
 20
13.9451024029
 30
0.0
 10
14.701880589
 20
13.933127172
 30
0.0
 10
14.6690735362
 20
13.9202568364
 30
0.0
 10
14.63736008
 20
13.9065057553
 30
0.0
 10
14.6067760377
 20
13.8918892784
 30
0.0
 10
14.5773558559
 20
13.8764236271
 30
0.0
 10
14.5491331322
 20
13.8601262455
 30
0.0
 10
14.5265292166
 20
13.8457976645
 30
0.0
 10
14.5090876445
 20
13.8339334392
 30
0.0
 10
14.4922352415
 20
13.8219222096
 30
0.0
 10
14.4719600432
 20
13.8064280608
 30
0.0
 10
14.4526010702
 20
13.7901605689
 30
0.0
 10
14.4377997395
 20
13.7767805915
 30
0.0
 10
14.423574463
 20
13.763275661
 30
0.0
 10
14.4066297464
 20
13.7459493004
 30
0.0
 10
14.3907183446
 20
13.7279150861
 30
0.0
 10
14.3787110641
 20
13.7131626365
 30
0.0
 10
14.3700931701
 20
13.7019754371
 30
0.0
 10
14.3618336986
 20
13.6906296758
 30
0.0
 10
14.3539349656
 20
13.6791284554
 30
0.0
 10
14.3463991768
 20
13.6674750936
 30
0.0
 10
14.3392285477
 20
13.6556728334
 30
0.0
 10
14.332425059
 20
13.6437250596
 30
0.0
 10
14.3259906859
 20
13.631635133
 30
0.0
 10
14.3199272649
 20
13.6194064827
 30
0.0
 10
14.3142364826
 20
13.6070425926
 30
0.0
 10
14.3089200361
 20
13.5945469486
 30
0.0
 10
14.3039793451
 20
13.581923094
 30
0.0
 10
14.2994159328
 20
13.5691747299
 30
0.0
 10
14.2966256362
 20
13.5605940464
 30
0.0
 10
14.2952942412
 20
13.5562856633
 30
0.0
  0
SPLINE
  5
2D5
100
AcDbEntity
  8
LAYER_FEATURE
100
AcDbSpline
 62
7
  6
CONTINUOUS
 70
0
 71
3
 72
111
 73
107
 74
0
 42
0.0000001
 43
0.0000001
 44
0.0000000001
 40
0.0
 40
0.0
 40
0.0
 40
0.0
 40
0.0090813538
 40
0.0182297215
 40
0.0274417692
 40
0.0367147883
 40
0.0554318127
 40
0.0743571136
 40
0.0934656287
 40
0.1127314297
 40
0.132127897
 40
0.1516278355
 40
0.171203602
 40
0.1908272277
 40
0.2104705394
 40
0.2301052802
 40
0.2497032299
 40
0.2692363249
 40
0.2886767792
 40
0.3079972068
 40
0.3271707457
 40
0.3461711838
 40
0.3649730891
 40
0.3835519423
 40
0.4018842755
 40
0.4199478157
 40
0.437721634
 40
0.4464940672
 40
0.4551869173
 40
0.4637980232
 40
0.47232533
 40
0.4807669121
 40
0.4891209641
 40
0.497385818
 40
0.5055599439
 40
0.5136419562
 40
0.5216306267
 40
0.5295248794
 40
0.5373238148
 40
0.545026697
 40
0.5526329824
 40
0.560142308
 40
0.5675545148
 40
0.5748696461
 40
0.5820879588
 40
0.5962351281
 40
0.6031667974
 40
0.6100049787
 40
0.6167511257
 40
0.6234069434
 40
0.6299744124
 40
0.6364557821
 40
0.6428535825
 40
0.6491706277
 40
0.655410013
 40
0.6615751264
 40
0.6676696338
 40
0.6736974917
 40
0.6796629267
 40
0.6855704412
 40
0.6914247925
 40
0.6972309863
 40
0.7029942577
 40
0.7087200508
 40
0.714414001
 40
0.720081904
 40
0.725729695
 40
0.7313634133
 40
0.7369891755
 40
0.7426131405
 40
0.7482414769
 40
0.75388033
 40
0.759535788
 40
0.7652138503
 40
0.7709203979
 40
0.7766611617
 40
0.7824417016
 40
0.7882673752
 40
0.7941433259
 40
0.8000744558
 40
0.8060654183
 40
0.8121206016
 40
0.8182441195
 40
0.8244398095
 40
0.830711219
 40
0.8370616172
 40
0.8434939782
 40
0.8500110005
 40
0.8633070064
 40
0.8700913818
 40
0.8769684291
 40
0.8839394923
 40
0.8910056583
 40
0.8981677798
 40
0.9054264643
 40
0.9127821032
 40
0.9202348595
 40
0.927784694
 40
0.9354313596
 40
0.9431744177
 40
0.9510132441
 40
0.9589470317
 40
0.9669748096
 40
0.9750954335
 40
0.9833076127
 40
1.0
 40
1.0
 40
1.0
 40
1.0
 10
14.923512486
 20
12.7592566966
 30
0.0
 10
14.9320678662
 20
12.7592566966
 30
0.0
 10
14.9492420488
 20
12.7591221116
 30
0.0
 10
14.9750884228
 20
12.7585220599
 30
0.0
 10
15.0011032589
 20
12.7575232738
 30
0.0
 10
15.0361019206
 20
12.7556549946
 30
0.0
 10
15.0801808415
 20
12.7523189392
 30
0.0
 10
15.1333608809
 20
12.7467484223
 30
0.0
 10
15.1868749434
 20
12.7396102708
 30
0.0
 10
15.24060838
 20
12.7309197637
 30
0.0
 10
15.2944464482
 20
12.7206954705
 30
0.0
 10
15.3482740667
 20
12.7089592431
 30
0.0
 10
15.4019761978
 20
12.6957361645
 30
0.0
 10
15.4554380583
 20
12.681054496
 30
0.0
 10
15.5085453779
 20
12.6649456181
 30
0.0
 10
15.5611846422
 20
12.647443964
 30
0.0
 10
15.6132433386
 20
12.6285869432
 30
0.0
 10
15.6646101974
 20
12.608414861
 30
0.0
 10
15.7151754322
 20
12.5869708317
 30
0.0
 10
15.7648309751
 20
12.5643006844
 30
0.0
 10
15.8134707106
 20
12.5404528635
 30
0.0
 10
15.8609907002
 20
12.5154783244
 30
0.0
 10
15.9072894166
 20
12.4894304151
 30
0.0
 10
15.9522679225
 20
12.4623647855
 30
0.0
 10
15.9958302269
 20
12.4343391668
 30
0.0
 10
16.0378829679
 20
12.405413609
 30
0.0
 10
16.0717403814
 20
12.3805028747
 30
0.0
 10
16.0979858865
 20
12.3601712726
 30
0.0
 10
16.117152557
 20
12.3448027412
 30
0.0
 10
16.1358764758
 20
12.329256897
 30
0.0
 10
16.1541476463
 20
12.3135419451
 30
0.0
 10
16.1719563161
 20
12.2976663454
 30
0.0
 10
16.1892929382
 20
12.2816385458
 30
0.0
 10
16.2061482536
 20
12.265467131
 30
0.0
 10
16.222513247
 20
12.2491607414
 30
0.0
 10
16.2383791505
 20
12.2327280736
 30
0.0
 10
16.2537375066
 20
12.2161779381
 30
0.0
 10
16.2685800579
 20
12.1995191323
 30
0.0
 10
16.282898914
 20
12.1827606049
 30
0.0
 10
16.2966863605
 20
12.1659112522
 30
0.0
 10
16.3099350678
 20
12.1489801242
 30
0.0
 10
16.3226379133
 20
12.1319762042
 30
0.0
 10
16.3347880833
 20
12.1149086601
 30
0.0
 10
16.3463792132
 20
12.0977863533
 30
0.0
 10
16.3609812216
 20
12.0750501554
 30
0.0
 10
16.3745541084
 20
12.0520897306
 30
0.0
 10
16.3870319518
 20
12.0289352587
 30
0.0
 10
16.3957401168
 20
12.011677575
 30
0.0
 10
16.4038563796
 20
11.994420561
 30
0.0
 10
16.4113763963
 20
11.9771732149
 30
0.0
 10
16.4182961375
 20
11.9599448131
 30
0.0
 10
16.4246118412
 20
11.9427445253
 30
0.0
 10
16.4303200893
 20
11.9255815416
 30
0.0
 10
16.4354178052
 20
11.908465036
 30
0.0
 10
16.4399021618
 20
11.8914041401
 30
0.0
 10
16.4437707774
 20
11.8744079972
 30
0.0
 10
16.4470214366
 20
11.8574856788
 30
0.0
 10
16.4496524338
 20
11.8406462681
 30
0.0
 10
16.4516622097
 20
11.8238987732
 30
0.0
 10
16.4530497015
 20
11.8072521916
 30
0.0
 10
16.4538140532
 20
11.7907154563
 30
0.0
 10
16.4539548199
 20
11.774297462
 30
0.0
 10
16.4534718801
 20
11.7580070441
 30
0.0
 10
16.4523654032
 20
11.7418529824
 30
0.0
 10
16.4506360083
 20
11.7258439849
 30
0.0
 10
16.4482844997
 20
11.7099887033
 30
0.0
 10
16.4453122153
 20
11.6942956888
 30
0.0
 10
16.4417206358
 20
11.6787734414
 30
0.0
 10
16.4375117757
 20
11.6634303338
 30
0.0
 10
16.4326878345
 20
11.6482746786
 30
0.0
 10
16.427251463
 20
11.6333146564
 30
0.0
 10
16.4212055991
 20
11.6185583509
 30
0.0
 10
16.4145535083
 20
11.6040137383
 30
0.0
 10
16.4072988561
 20
11.5896886384
 30
0.0
 10
16.3994455213
 20
11.5755908048
 30
0.0
 10
16.3909978595
 20
11.5617277733
 30
0.0
 10
16.3819603783
 20
11.5481070456
 30
0.0
 10
16.372338069
 20
11.5347358734
 30
0.0
 10
16.3621360885
 20
11.5216214673
 30
0.0
 10
16.3513600129
 20
11.508770807
 30
0.0
 10
16.3400156537
 20
11.4961907753
 30
0.0
 10
16.3281091434
 20
11.4838880882
 30
0.0
 10
16.3156469311
 20
11.4718692781
 30
0.0
 10
16.3026357009
 20
11.4601407937
 30
0.0
 10
16.2890824962
 20
11.4487088057
 30
0.0
 10
16.2749946042
 20
11.4375795008
 30
0.0
 10
16.2603794497
 20
11.4267585906
 30
0.0
 10
16.2400662338
 20
11.4126567863
 30
0.0
 10
16.2188492222
 20
11.399295294
 30
0.0
 10
16.1968092041
 20
11.3866733359
 30
0.0
 10
16.1796814192
 20
11.3774779422
 30
0.0
 10
16.1620778059
 20
11.368623182
 30
0.0
 10
16.1440075166
 20
11.3601135269
 30
0.0
 10
16.1254802696
 20
11.3519536198
 30
0.0
 10
16.106505981
 20
11.3441477097
 30
0.0
 10
16.0870947777
 20
11.3367000259
 30
0.0
 10
16.0672570581
 20
11.3296144662
 30
0.0
 10
16.0470034148
 20
11.3228948475
 30
0.0
 10
16.0263446834
 20
11.3165447222
 30
0.0
 10
16.0052919065
 20
11.3105674718
 30
0.0
 10
15.9838563377
 20
11.3049663029
 30
0.0
 10
15.9620494331
 20
11.2997441534
 30
0.0
 10
15.9398828846
 20
11.2949038746
 30
0.0
 10
15.9173683864
 20
11.2904479428
 30
0.0
 10
15.8867365283
 20
11.2849931269
 30
0.0
 10
15.8635238829
 20
11.2815328253
 30
0.0
 10
15.8479314251
 20
11.279490842
 30
0.0
  0
SPLINE
  5
2D6
100
AcDbEntity
  8
LAYER_FEATURE
100
AcDbSpline
 62
7
  6
CONTINUOUS
 70
0
 71
3
 72
85
 73
81
 74
0
 42
0.0000001
 43
0.0000001
 44
0.0000000001
 40
0.0
 40
0.0
 40
0.0
 40
0.0
 40
0.0202771878
 40
0.0403366128
 40
0.0601676565
 40
0.0797615724
 40
0.0991095481
 40
0.1182035284
 40
0.1370361365
 40
0.1556006607
 40
0.1738911494
 40
0.1919024462
 40
0.2096302307
 40
0.2270710709
 40
0.2442224839
 40
0.2610829877
 40
0.2776521507
 40
0.2939306505
 40
0.3099203413
 40
0.3256243051
 40
0.3410469049
 40
0.3561938426
 40
0.3710722187
 40
0.3784136756
 40
0.3856913154
 40
0.4000596482
 40
0.4141894774
 40
0.4280938417
 40
0.4417872964
 40
0.4552858946
 40
0.4686071513
 40
0.4817699771
 40
0.4947945812
 40
0.5012622296
 40
0.5077034367
 40
0.5141210342
 40
0.5205179097
 40
0.5268969999
 40
0.5332612802
 40
0.5396137633
 40
0.5459574892
 40
0.552295518
 40
0.558630925
 40
0.5649667903
 40
0.5713061942
 40
0.5776522072
 40
0.5840078851
 40
0.5903762605
 40
0.5967603342
 40
0.6031630734
 40
0.6095873986
 40
0.6160361814
 40
0.6225122407
 40
0.6290183288
 40
0.6355571364
 40
0.6487422905
 40
0.6620887767
 40
0.675615299
 40
0.6893391586
 40
0.696280535
 40
0.7032770538
 40
0.7174415913
 40
0.7318464382
 40
0.7391429412
 40
0.7465036263
 40
0.7614214671
 40
0.7766090164
 40
0.7920731586
 40
0.8078193984
 40
0.8238519086
 40
0.8401735785
 40
0.8567860808
 40
0.873689931
 40
0.8908845393
 40
0.9083682642
 40
0.9261384777
 40
0.9441916193
 40
0.9625232404
 40
0.9811280558
 40
1.0
 40
1.0
 40
1.0
 40
1.0
 10
14.923512486
 20
12.7592566966
 30
0.0
 10
14.9122225376
 20
12.7592566966
 30
0.0
 10
14.88976314
 20
12.7590244868
 30
0.0
 10
14.8562771774
 20
12.7579672857
 30
0.0
 10
14.8232016969
 20
12.7562039092
 30
0.0
 10
14.7905684838
 20
12.7537361121
 30
0.0
 10
14.7584082087
 20
12.7505661567
 30
0.0
 10
14.7267514171
 20
12.7466970608
 30
0.0
 10
14.6956280877
 20
12.7421324808
 30
0.0
 10
14.6650677
 20
12.7368766998
 30
0.0
 10
14.635099205
 20
12.7309346708
 30
0.0
 10
14.6057509797
 20
12.724312007
 30
0.0
 10
14.5770508174
 20
12.7170149439
 30
0.0
 10
14.5490259036
 20
12.7090503316
 30
0.0
 10
14.521702776
 20
12.7004256677
 30
0.0
 10
14.4951073047
 20
12.691149072
 30
0.0
 10
14.4692646798
 20
12.6812292557
 30
0.0
 10
14.4441993925
 20
12.6706755139
 30
0.0
 10
14.4199351835
 20
12.6594977598
 30
0.0
 10
14.3964950656
 20
12.6477064937
 30
0.0
 10
14.3739012171
 20
12.6353127174
 30
0.0
 10
14.3521753169
 20
12.6223281789
 30
0.0
 10
14.3347338031
 20
12.6109753754
 30
0.0
 10
14.321242539
 20
12.6016076872
 30
0.0
 10
14.3081733103
 20
12.5921359766
 30
0.0
 10
14.2924059578
 20
12.5799532748
 30
0.0
 10
14.2743493276
 20
12.5647322479
 30
0.0
 10
14.2572552185
 20
12.548986401
 30
0.0
 10
14.2411402221
 20
12.5327306611
 30
0.0
 10
14.2260198363
 20
12.5159803093
 30
0.0
 10
14.2119086243
 20
12.498751073
 30
0.0
 10
14.1988204376
 20
12.4810596138
 30
0.0
 10
14.1887527824
 20
12.4659093465
 30
0.0
 10
14.1812312029
 20
12.4535822906
 30
0.0
 10
14.1758656977
 20
12.4442533508
 30
0.0
 10
14.1707645172
 20
12.4348221278
 30
0.0
 10
14.1659288359
 20
12.4252907927
 30
0.0
 10
14.1613597771
 20
12.4156616543
 30
0.0
 10
14.1570584857
 20
12.4059369714
 30
0.0
 10
14.1530259599
 20
12.3961190761
 30
0.0
 10
14.1492631443
 20
12.3862103113
 30
0.0
 10
14.1457709946
 20
12.3762130163
 30
0.0
 10
14.1425502855
 20
12.3661295943
 30
0.0
 10
14.1396018047
 20
12.3559624392
 30
0.0
 10
14.1369262849
 20
12.3457139669
 30
0.0
 10
14.1345243019
 20
12.3353866348
 30
0.0
 10
14.1323964777
 20
12.3249828907
 30
0.0
 10
14.130543306
 20
12.3145052179
 30
0.0
 10
14.1289651858
 20
12.3039561178
 30
0.0
 10
14.1276625536
 20
12.2933380937
 30
0.0
 10
14.1266356662
 20
12.2826536833
 30
0.0
 10
14.1258847621
 20
12.2719054227
 30
0.0
 10
14.125410062
 20
12.2610958906
 30
0.0
 10
14.1252116153
 20
12.2502275798
 30
0.0
 10
14.1253157064
 20
12.2356222685
 30
0.0
 10
14.1261429077
 20
12.2172195589
 30
0.0
 10
14.1282381168
 20
12.1950059839
 30
0.0
 10
14.1314362467
 20
12.172621443
 30
0.0
 10
14.1350042242
 20
12.1539141459
 30
0.0
 10
14.1383987863
 20
12.1388902577
 30
0.0
 10
14.1421858469
 20
12.1237073922
 30
0.0
 10
14.1476106015
 20
12.1046556855
 30
0.0
 10
14.1538891976
 20
12.0856925737
 30
0.0
 10
14.1594423598
 20
12.0704931144
 30
0.0
 10
14.1654033101
 20
12.0551420631
 30
0.0
 10
14.1735317652
 20
12.0359242756
 30
0.0
 10
14.1843013447
 20
12.0129447399
 30
0.0
 10
14.1961192235
 20
11.989966521
 30
0.0
 10
14.2089740066
 20
11.9670115539
 30
0.0
 10
14.2228534706
 20
11.9441014427
 30
0.0
 10
14.2377443684
 20
11.9212578206
 30
0.0
 10
14.2536325349
 20
11.8985022458
 30
0.0
 10
14.2705028848
 20
11.8758562137
 30
0.0
 10
14.2883394073
 20
11.8533411194
 30
0.0
 10
14.3071251602
 20
11.8309782266
 30
0.0
 10
14.3268423287
 20
11.8087886682
 30
0.0
 10
14.3474722189
 20
11.7867934437
 30
0.0
 10
14.3689953163
 20
11.7650133131
 30
0.0
 10
14.3913910378
 20
11.7434690268
 30
0.0
 10
14.4067817114
 20
11.7293753461
 30
0.0
 10
14.4146147084
 20
11.7223715997
 30
0.0
  0
SPLINE
  5
2D7
100
AcDbEntity
  8
LAYER_FEATURE
100
AcDbSpline
 62
7
  6
CONTINUOUS
 70
0
 71
3
 72
81
 73
77
 74
0
 42
0.0000001
 43
0.0000001
 44
0.0000000001
 40
0.0
 40
0.0
 40
0.0
 40
0.0
 40
0.0171785929
 40
0.0345301672
 40
0.0520439373
 40
0.0697094984
 40
0.0875156737
 40
0.1054511118
 40
0.1235041404
 40
0.1416628287
 40
0.1599150211
 40
0.1782483592
 40
0.1966503124
 40
0.215108205
 40
0.2336092439
 40
0.252140547
 40
0.2706891691
 40
0.2892421289
 40
0.307786436
 40
0.3263091185
 40
0.344797249
 40
0.3632379718
 40
0.3816185298
 40
0.3999262924
 40
0.4181487836
 40
0.4362737087
 40
0.4542889833
 40
0.4721827612
 40
0.4899434659
 40
0.5075598198
 40
0.5250208747
 40
0.5423160427
 40
0.5594351288
 40
0.576368367
 40
0.593106454
 40
0.6096405842
 40
0.6259624872
 40
0.6420644667
 40
0.6579394439
 40
0.6735809991
 40
0.688983415
 40
0.7041417225
 40
0.7190517502
 40
0.7337101771
 40
0.748114585
 40
0.7622635114
 40
0.7761565056
 40
0.789794187
 40
0.8031783061
 40
0.8163118027
 40
0.8291988611
 40
0.8418449655
 40
0.8542569513
 40
0.8603780115
 40
0.8664437512
 40
0.8784136356
 40
0.8901784279
 40
0.8959881948
 40
0.9017515357
 40
0.9131453779
 40
0.9187806054
 40
0.924377145
 40
0.9299371465
 40
0.9354628384
 40
0.940956532
 40
0.9464206072
 40
0.9518575181
 40
0.9572697828
 40
0.9626599783
 40
0.9680307398
 40
0.973384748
 40
0.978724729
 40
0.9840534438
 40
0.9893736827
 40
0.994688259
 40
1.0
 40
1.0
 40
1.0
 40
1.0
 10
14.846302403
 20
12.8399979305
 30
0.0
 10
14.8603032472
 20
12.8399979305
 30
0.0
 10
14.8884468171
 20
12.8396898572
 30
0.0
 10
14.9308444049
 20
12.8383210212
 30
0.0
 10
14.9736005257
 20
12.8360443938
 30
0.0
 10
15.0166702074
 20
12.832862444
 30
0.0
 10
15.0600088771
 20
12.8287784197
 30
0.0
 10
15.1035713397
 20
12.8237965945
 30
0.0
 10
15.1473122808
 20
12.8179221535
 30
0.0
 10
15.1911861695
 20
12.8111612162
 30
0.0
 10
15.2351473391
 20
12.8035208215
 30
0.0
 10
15.2791500312
 20
12.7950089189
 30
0.0
 10
15.3231484408
 20
12.785634362
 30
0.0
 10
15.3670967685
 20
12.7754069155
 30
0.0
 10
15.4109492661
 20
12.7643372295
 30
0.0
 10
15.4546602846
 20
12.7524368273
 30
0.0
 10
15.4981843205
 20
12.7397180945
 30
0.0
 10
15.5414760635
 20
12.7261942641
 30
0.0
 10
15.5844904481
 20
12.7118794202
 30
0.0
 10
15.6271826983
 20
12.6967884682
 30
0.0
 10
15.6695083722
 20
12.6809371176
 30
0.0
 10
15.711423409
 20
12.6643418671
 30
0.0
 10
15.7528841734
 20
12.6470199851
 30
0.0
 10
15.7938475091
 20
12.6289895074
 30
0.0
 10
15.8342707788
 20
12.6102692059
 30
0.0
 10
15.8741119068
 20
12.590878566
 30
0.0
 10
15.9133294225
 20
12.570837768
 30
0.0
 10
15.951882503
 20
12.550167663
 30
0.0
 10
15.989731025
 20
12.5288897668
 30
0.0
 10
16.0268356008
 20
12.5070262252
 30
0.0
 10
16.0631576165
 20
12.4845997879
 30
0.0
 10
16.0986592715
 20
12.4616337863
 30
0.0
 10
16.1333036173
 20
12.4381521058
 30
0.0
 10
16.167054607
 20
12.4141791754
 30
0.0
 10
16.1998771268
 20
12.3897399308
 30
0.0
 10
16.231737027
 20
12.3648597849
 30
0.0
 10
16.2626011579
 20
12.3395646033
 30
0.0
 10
16.2924374021
 20
12.3138806731
 30
0.0
 10
16.3212147214
 20
12.2878346882
 30
0.0
 10
16.3489031814
 20
12.261453712
 30
0.0
 10
16.3754739752
 20
12.2347651449
 30
0.0
 10
16.4008994528
 20
12.2077966978
 30
0.0
 10
16.4251531465
 20
12.1805763586
 30
0.0
 10
16.448209813
 20
12.1531323751
 30
0.0
 10
16.47004545
 20
12.1254932172
 30
0.0
 10
16.4906373105
 20
12.0976875438
 30
0.0
 10
16.5099639251
 20
12.0697441753
 30
0.0
 10
16.5280051167
 20
12.0416920639
 30
0.0
 10
16.5447420415
 20
12.0135602636
 30
0.0
 10
16.5601571807
 20
11.9853779385
 30
0.0
 10
16.5742344032
 20
11.9571741771
 30
0.0
 10
16.5869587681
 20
11.928978534
 30
0.0
 10
16.596467618
 20
11.90540461
 30
0.0
 10
16.6033749327
 20
11.8865822234
 30
0.0
 10
16.6097607148
 20
11.8679571181
 30
0.0
 10
16.6168881685
 20
11.8447298458
 30
0.0
 10
16.622907253
 20
11.8214056742
 30
0.0
 10
16.6270093713
 20
11.8028308298
 30
0.0
 10
16.630611064
 20
11.7844607848
 30
0.0
 10
16.6335269519
 20
11.7661058518
 30
0.0
 10
16.6357365899
 20
11.7477969547
 30
0.0
 10
16.6370334102
 20
11.7341713971
 30
0.0
 10
16.6379753916
 20
11.7206062842
 30
0.0
 10
16.6385622468
 20
11.7071050174
 30
0.0
 10
16.6387938826
 20
11.6936711615
 30
0.0
 10
16.6386701583
 20
11.6803082116
 30
0.0
 10
16.6381911344
 20
11.6670196633
 30
0.0
 10
16.6373569361
 20
11.6538089862
 30
0.0
 10
16.6361677172
 20
11.6406796383
 30
0.0
 10
16.6346238596
 20
11.6276350462
 30
0.0
 10
16.6327256864
 20
11.6146786297
 30
0.0
 10
16.6304737281
 20
11.6018137724
 30
0.0
 10
16.6278685789
 20
11.5890438465
 30
0.0
 10
16.6249108524
 20
11.5763721717
 30
0.0
 10
16.6216014365
 20
11.5638021763
 30
0.0
 10
16.6191609131
 20
11.555491109
 30
0.0
 10
16.6178827369
 20
11.5513549414
 30
0.0
  0
SPLINE
  5
2D8
100
AcDbEntity
  8
02___PRT_ALL_AXES
100
AcDbSpline
 62
7
  6
CONTINUOUS
 70
0
 71
3
 72
77
 73
73
 74
0
 42
0.0000001
 43
0.0000001
 44
0.0000000001
 40
0.0
 40
0.0
 40
0.0
 40
0.0
 40
0.0171787538
 40
0.0345302364
 40
0.0520441422
 40
0.0697097448
 40
0.0875159888
 40
0.1054514914
 40
0.1235045839
 40
0.141663338
 40
0.1599155964
 40
0.1782490006
 40
0.1966510198
 40
0.2151089786
 40
0.2336100842
 40
0.2521414541
 40
0.2706901429
 40
0.2892431694
 40
0.3077875433
 40
0.3263102925
 40
0.3447984895
 40
0.3632392784
 40
0.3816199026
 40
0.3999277314
 40
0.4181502882
 40
0.4362752784
 40
0.4542906174
 40
0.4721844598
 40
0.4899452289
 40
0.5075616465
 40
0.5250227639
 40
0.5423179935
 40
0.5594371415
 40
0.5763704414
 40
0.5931085889
 40
0.6096427782
 40
0.6259647392
 40
0.6420667769
 40
0.6579418121
 40
0.6735834239
 40
0.6889858946
 40
0.7041442558
 40
0.7190543373
 40
0.7337128179
 40
0.748117278
 40
0.7622662547
 40
0.7761592979
 40
0.7897970285
 40
0.8031811967
 40
0.8163147409
 40
0.829201845
 40
0.841847994
 40
0.8542600246
 40
0.8603811079
 40
0.8664468692
 40
0.8784167969
 40
0.8901816312
 40
0.901753964
 40
0.9131478473
 40
0.9243787627
 40
0.9354635678
 40
0.9464204144
 40
0.951857345
 40
0.9572696286
 40
0.9626598442
 40
0.9680306245
 40
0.9733846523
 40
0.9787246524
 40
0.9840533863
 40
0.9893736445
 40
0.9946882398
 40
1.0
 40
1.0
 40
1.0
 40
1.0
 10
14.864707604
 20
11.8450374141
 30
0.0
 10
14.8721787486
 20
11.8450374141
 30
0.0
 10
14.8871966383
 20
11.8448730282
 30
0.0
 10
14.9098207586
 20
11.8441425795
 30
0.0
 10
14.932636147
 20
11.8429277452
 30
0.0
 10
14.9556189248
 20
11.8412297891
 30
0.0
 10
14.9787452084
 20
11.8390504818
 30
0.0
 10
15.0019909212
 20
11.8363920915
 30
0.0
 10
15.0253318717
 20
11.8332573862
 30
0.0
 10
15.0487437653
 20
11.829649629
 30
0.0
 10
15.0722022337
 20
11.8255725755
 30
0.0
 10
15.0956828589
 20
11.8210304696
 30
0.0
 10
15.1191611993
 20
11.8160280395
 30
0.0
 10
15.1426128153
 20
11.8105704925
 30
0.0
 10
15.1660132945
 20
11.8046635096
 30
0.0
 10
15.1893382773
 20
11.79831324
 30
0.0
 10
15.2125634827
 20
11.7915262941
 30
0.0
 10
15.2356647333
 20
11.7843097372
 30
0.0
 10
15.2586179809
 20
11.7766710816
 30
0.0
 10
15.2813993312
 20
11.7686182792
 30
0.0
 10
15.3039850691
 20
11.7601597128
 30
0.0
 10
15.3263516834
 20
11.7513041878
 30
0.0
 10
15.3484758912
 20
11.7420609222
 30
0.0
 10
15.3703346627
 20
11.7324395378
 30
0.0
 10
15.3919052445
 20
11.7224500496
 30
0.0
 10
15.4131651839
 20
11.7121028552
 30
0.0
 10
15.4340923523
 20
11.7014087242
 30
0.0
 10
15.4546649681
 20
11.6903787868
 30
0.0
 10
15.4748616195
 20
11.6790245215
 30
0.0
 10
15.4946612869
 20
11.6673577441
 30
0.0
 10
15.5140433647
 20
11.6553905939
 30
0.0
 10
15.5329876829
 20
11.643135522
 30
0.0
 10
15.5514745279
 20
11.6306052772
 30
0.0
 10
15.569484663
 20
11.6178128933
 30
0.0
 10
15.5869993487
 20
11.6047716744
 30
0.0
 10
15.6040003615
 20
11.5914951815
 30
0.0
 10
15.6204700133
 20
11.5779972175
 30
0.0
 10
15.636391169
 20
11.5642918125
 30
0.0
 10
15.6517472648
 20
11.5503932094
 30
0.0
 10
15.6665223241
 20
11.5363158477
 30
0.0
 10
15.6807009746
 20
11.5220743489
 30
0.0
 10
15.6942684629
 20
11.5076835004
 30
0.0
 10
15.7072106695
 20
11.49315824
 30
0.0
 10
15.7195141226
 20
11.4785136395
 30
0.0
 10
15.7311660107
 20
11.4637648895
 30
0.0
 10
15.7421541949
 20
11.4489272829
 30
0.0
 10
15.75246722
 20
11.4340161992
 30
0.0
 10
15.7620943241
 20
11.41904709
 30
0.0
 10
15.77102545
 20
11.4040354579
 30
0.0
 10
15.7792512457
 20
11.388996864
 30
0.0
 10
15.7867631018
 20
11.3739468309
 30
0.0
 10
15.7935530487
 20
11.358901129
 30
0.0
 10
15.7986271392
 20
11.3463216617
 30
0.0
 10
15.8023130138
 20
11.3362776968
 30
0.0
 10
15.8057205752
 20
11.3263390209
 30
0.0
 10
15.8095239413
 20
11.313944414
 30
0.0
 10
15.813362192
 20
11.2990711192
 30
0.0
 10
15.8164502306
 20
11.2842795694
 30
0.0
 10
15.818784593
 20
11.269585361
 30
0.0
 10
15.8203626522
 20
11.2550037233
 30
0.0
 10
15.8211825781
 20
11.240550224
 30
0.0
 10
15.8212332558
 20
11.2285935932
 30
0.0
 10
15.8208915622
 20
11.2191152095
 30
0.0
 10
15.8204464109
 20
11.2120657176
 30
0.0
 10
15.8198118362
 20
11.2050596712
 30
0.0
 10
15.8189879929
 20
11.1980988416
 30
0.0
 10
15.817975102
 20
11.1911850652
 30
0.0
 10
15.8167734159
 20
11.1843201464
 30
0.0
 10
15.815383255
 20
11.1775058865
 30
0.0
 10
15.8138049693
 20
11.1707440512
 30
0.0
 10
15.8120389965
 20
11.1640364785
 30
0.0
 10
15.8107366911
 20
11.1596015437
 30
0.0
 10
15.8100546362
 20
11.1573944096
 30
0.0
  0
ENDSEC
  0
SECTION
  2
OBJECTS
  0
DICTIONARY
  5
C
100
AcDbDictionary
280
0
281
1
  3
ACAD_GROUP
350
D
  3
ACAD_MLINESTYLE
350
17
  3
ACAD_LAYOUT
350
1A
  3
ACAD_PLOTSETTINGS
350
19
  3
ACAD_PLOTSTYLENAME
350
E
  0
DICTIONARY
  5
D
102
{ACAD_REACTORS
330
C
102
}
100
AcDbDictionary
280
0
281
1
  0
ACDBDICTIONARYWDFLT
  5
E
102
{ACAD_REACTORS
330
C
102
}
100
AcDbDictionary
281
1
  3
Normal
350
F
100
AcDbDictionaryWithDefault
340
F
  0
DICTIONARY
  5
17
102
{ACAD_REACTORS
330
C
102
}
100
AcDbDictionary
280
0
281
1
  3
Standard
350
18
  0
DICTIONARY
  5
19
102
{ACAD_REACTORS
330
C
102
}
100
AcDbDictionary
281
1
  0
DICTIONARY
  5
1A
102
{ACAD_REACTORS
330
C
102
}
100
AcDbDictionary
281
1
  3
Model
350
2D9
  3
Layout1
350
2DA
  0
ACDBPLACEHOLDER
  5
F
102
{ACAD_REACTORS
330
E
102
}
  0
MLINESTYLE
  5
18
102
{ACAD_REACTORS
330
17
102
}
100
AcDbMlineStyle
  2
STANDARD
 70
0
  3

 62
256
 51
90.0
 52
90.0
 71
2
 49
0.5
 62
256
  6
BYLAYER
 49
-0.5
 62
256
  6
BYLAYER
  0
LAYOUT
  5
2D9
102
{ACAD_REACTORS
330
1A
102
}
100
AcDbPlotSettings
  1

  2
none_device
  4
ANSI_C_(22.00_x_17.00_Inches)
  6

 40
0.0
 41
0.0
 42
0.0
 43
0.0
 44
558.8
 45
431.8
 46
0.0
 47
0.0
 48
0.0
 49
0.0
140
0.0
141
0.0
142
1.0
143
1.0
 70
1024
 72
0
 73
0
 74
0
  7

 75
0
147
1.0
148
0.0
149
0.0
100
AcDbLayout
  1
Model
 70
0
 71
0
 10
0.0
 20
0.0
 11
22.0
 21
17.0
 12
0.0
 22
0.0
 32
0.0
 14
0.0
 24
0.0
 34
0.0
 15
0.0
 25
0.0
 35
0.0
146
0.0
 13
0.0
 23
0.0
 33
0.0
 16
1.0
 26
0.0
 36
0.0
 17
0.0
 27
1.0
 37
0.0
 76
0
330
222
345
0
346
0
  0
LAYOUT
  5
2DA
102
{ACAD_REACTORS
330
1A
102
}
100
AcDbPlotSettings
  1

  2
none_device
  4
ANSI_C_(22.00_x_17.00_Inches)
  6

 40
0.0
 41
0.0
 42
0.0
 43
0.0
 44
558.8
 45
431.8
 46
0.0
 47
0.0
 48
0.0
 49
0.0
140
0.0
141
0.0
142
1.0
143
1.0
 70
0
 72
0
 73
0
 74
0
  7

 75
0
147
1.0
148
0.0
149
0.0
100
AcDbLayout
  1
Layout1
 70
0
 71
1
 10
0.0
 20
0.0
 11
22.0
 21
17.0
 12
0.0
 22
0.0
 32
0.0
 14
0.0
 24
0.0
 34
0.0
 15
0.0
 25
0.0
 35
0.0
146
0.0
 13
0.0
 23
0.0
 33
0.0
 16
1.0
 26
0.0
 36
0.0
 17
0.0
 27
1.0
 37
0.0
 76
0
330
223
345
0
346
0
  0
ENDSEC
  0
EOF