999
DXF file: _cgs_temp_output.dxf
999
Pro/ENGINEER 2016360 by Parametric Technology Corporation
  0
SECTION
  2
HEADER
  9
$ACADVER
  1
AC1021
  9
$DWGCODEPAGE
  3
ANSI_1252
  9
$EXTMAX
 10
22.0
 20
17.0
 30
0.0
  9
$EXTMIN
 10
0.0
 20
0.0
 30
0.0
  9
$LIMMIN
 10
0.0
 20
0.0
  9
$LIMMAX
 10
22.0
 20
17.0
  9
$VIEWCTR
 10
11.0
 20
8.5
  9
$VIEWSIZE
 40
17.0
  9
$CLAYER
  8
0
  9
$LTSCALE
 40
1.21
  9
$CELTYPE
  6
BYLAYER
  9
$DIMSCALE
 40
1.0
  9
$DIMASZ
 40
0.1875
  9
$DIMEXO
 40
0.0625
  9
$DIMDLI
 40
0.836
  9
$DIMEXE
 40
0.125
  9
$DIMCEN
 40
0.198
  9
$DIMLFAC
 40
1.0
  9
$DIMBLK
  1
_CLOSED
  9
$DIMALT
 70
0
  9
$DIMALTF
 40
25.4
  9
$DIMTXT
 40
0.15625
  9
$DIMTOL
 70
0
  9
$DIMLIM
 70
0
  9
$DIMTFAC
 40
1.0
  9
$DIMGAP
 40
0.09
  9
$DIMDSEP
 70
46
  9
$AUNITS
 70
0
  9
$PDMODE
 70
3
  9
$PDSIZE
 40
0.3125
  9
$HANDSEED
  5
300
  9
$TILEMODE
 70
1
  9
$MEASUREMENT
 70
0
  9
$INSUNITS
 70
1
  0
ENDSEC
  0
SECTION
  2
CLASSES
  0
CLASS
  1
ACDBDICTIONARYWDFLT
  2
AcDbDictionaryWithDefault
  3
AutoCAD 2000
 90
0
 91
1
280
0
281
0
  0
CLASS
  1
ACDBPLACEHOLDER
  2
AcDbPlaceHolder
  3
AutoCAD 2000
 90
0
 91
1
280
0
281
0
  0
CLASS
  1
LAYOUT
  2
AcDbLayout
  3
AutoCAD 2000
 90
0
 91
0
280
0
281
0
  0
ENDSEC
  0
SECTION
  2
TABLES
  0
TABLE
  2
VPORT
  5
8
100
AcDbSymbolTable
 70
2
  0
VPORT
  5
1F4
100
AcDbSymbolTableRecord
100
AcDbViewportTableRecord
  2
*ACTIVE
 70
0
 10
0.0
 20
0.0
 11
1.0
 21
1.0
 12
11.0
 22
8.5
 13
0.0
 23
0.0
 14
1.0
 24
1.0
 15
0.0
 25
0.0
 16
0.0
 26
0.0
 36
1.0
 17
0.0
 27
0.0
 37
0.0
 40
17.0
 41
1.2941176471
 42
50.0
 43
0.0
 44
0.0
 50
0.0
 51
0.0
 71
0
 72
100
 73
1
 74
1
 75
0
 76
0
 77
0
 78
0
  0
ENDTAB
  0
TABLE
  2
LTYPE
  5
5
100
AcDbSymbolTable
 70
6
  0
LTYPE
  5
14
100
AcDbSymbolTableRecord
100
AcDbLinetypeTableRecord
  2
BYBLOCK
 70
0
  3

 72
65
 73
0
 40
0.0
  0
LTYPE
  5
15
100
AcDbSymbolTableRecord
100
AcDbLinetypeTableRecord
  2
BYLAYER
 70
0
  3

 72
65
 73
0
 40
0.0
  0
LTYPE
  5
16
100
AcDbSymbolTableRecord
100
AcDbLinetypeTableRecord
  2
CONTINUOUS
 70
64
  3
Solid line
 72
65
 73
0
 40
0.0
  0
LTYPE
  5
1F5
100
AcDbSymbolTableRecord
100
AcDbLinetypeTableRecord
  2
CENTER
 70
64
  3
____ _ ____ _ ____ _ ____ _ ____ _ ____ _ ____
 72
65
 73
4
 40
0.6
 49
0.375
 74
0
 49
-0.075
 74
0
 49
0.075
 74
0
 49
-0.075
 74
0
  0
LTYPE
  5
1F6
100
AcDbSymbolTableRecord
100
AcDbLinetypeTableRecord
  2
HIDDEN
 70
64
  3
- - - - - - - - - - - - - - - - - - - -
 72
65
 73
2
 40
0.2
 49
0.1
 74
0
 49
-0.1
 74
0
  0
LTYPE
  5
1F7
100
AcDbSymbolTableRecord
100
AcDbLinetypeTableRecord
  2
PHANTOM
 70
64
  3
_____ _ _ _____ _ _ _____ _ _ _____
 72
65
 73
6
 40
0.8
 49
0.45
 74
0
 49
-0.05
 74
0
 49
0.1
 74
0
 49
-0.05
 74
0
 49
0.1
 74
0
 49
-0.05
 74
0
  0
LTYPE
  5
1F8
100
AcDbSymbolTableRecord
100
AcDbLinetypeTableRecord
  2
DOT
 70
64
  3
. . . . . . . . . . . . . . . . . . . .
 72
65
 73
2
 40
0.2
 49
0.1
 74
0
 49
-0.1
 74
0
  0
LTYPE
  5
1F9
100
AcDbSymbolTableRecord
100
AcDbLinetypeTableRecord
  2
DASHED
 70
64
  3
- - - - - - - - - - - - - - - - - - - -
 72
65
 73
2
 40
0.2
 49
0.1
 74
0
 49
-0.1
 74
0
  0
ENDTAB
  0
TABLE
  2
LAYER
  5
2
100
AcDbSymbolTable
 70
36
  0
LAYER
  5
10
100
AcDbSymbolTableRecord
100
AcDbLayerTableRecord
  2
0
 70
0
 62
7
  6
CONTINUOUS
370
-3
390
F
  0
LAYER
  5
1FA
100
AcDbSymbolTableRecord
100
AcDbLayerTableRecord
  2
DEFAULT_1
 70
0
 62
7
  6
CENTER
370
-3
390
F
  0
LAYER
  5
1FB
100
AcDbSymbolTableRecord
100
AcDbLayerTableRecord
  2
DEFAULT_2
 70
0
 62
8
  6
HIDDEN
370
-3
390
F
  0
LAYER
  5
1FC
100
AcDbSymbolTableRecord
100
AcDbLayerTableRecord
  2
DEFAULT_3
 70
0
 62
7
  6
PHANTOM
370
-3
390
F
  0
LAYER
  5
1FD
100
AcDbSymbolTableRecord
100
AcDbLayerTableRecord
  2
01_ALL_DTM_PLN
 70
0
 62
7
  6
CONTINUOUS
370
-3
390
F
  0
LAYER
  5
1FE
100
AcDbSymbolTableRecord
100
AcDbLayerTableRecord
  2
01__ASM_ALL_DTM_PLN
 70
0
 62
7
  6
CONTINUOUS
370
-3
390
F
  0
LAYER
  5
1FF
100
AcDbSymbolTableRecord
100
AcDbLayerTableRecord
  2
01__ASM_DEF_DTM_PLN
 70
0
 62
7
  6
CONTINUOUS
370
-3
390
F
  0
LAYER
  5
200
100
AcDbSymbolTableRecord
100
AcDbLayerTableRecord
  2
01___PRT_ALL_DTM_PLN
 70
0
 62
7
  6
CONTINUOUS
370
-3
390
F
  0
LAYER
  5
201
100
AcDbSymbolTableRecord
100
AcDbLayerTableRecord
  2
01___PRT_DEF_DTM_PLN
 70
0
 62
7
  6
CONTINUOUS
370
-3
390
F
  0
LAYER
  5
202
100
AcDbSymbolTableRecord
100
AcDbLayerTableRecord
  2
02_ALL_AXES
 70
0
 62
7
  6
CONTINUOUS
370
-3
390
F
  0
LAYER
  5
203
100
AcDbSymbolTableRecord
100
AcDbLayerTableRecord
  2
02__ASM_ALL_AXES
 70
0
 62
7
  6
CONTINUOUS
370
-3
390
F
  0
LAYER
  5
204
100
AcDbSymbolTableRecord
100
AcDbLayerTableRecord
  2
02___PRT_ALL_AXES
 70
0
 62
7
  6
CONTINUOUS
370
-3
390
F
  0
LAYER
  5
205
100
AcDbSymbolTableRecord
100
AcDbLayerTableRecord
  2
03_ALL_CURVES
 70
0
 62
7
  6
CONTINUOUS
370
-3
390
F
  0
LAYER
  5
206
100
AcDbSymbolTableRecord
100
AcDbLayerTableRecord
  2
03__ASM_ALL_CURVES
 70
0
 62
7
  6
CONTINUOUS
370
-3
390
F
  0
LAYER
  5
207
100
AcDbSymbolTableRecord
100
AcDbLayerTableRecord
  2
03___PRT_ALL_CURVES
 70
0
 62
7
  6
CONTINUOUS
370
-3
390
F
  0
LAYER
  5
208
100
AcDbSymbolTableRecord
100
AcDbLayerTableRecord
  2
04_ALL_DTM_PNT
 70
0
 62
7
  6
CONTINUOUS
370
-3
390
F
  0
LAYER
  5
209
100
AcDbSymbolTableRecord
100
AcDbLayerTableRecord
  2
04__ASM_ALL_DTM_PNT
 70
0
 62
7
  6
CONTINUOUS
370
-3
390
F
  0
LAYER
  5
20A
100
AcDbSymbolTableRecord
100
AcDbLayerTableRecord
  2
04___PRT_ALL_DTM_PNT
 70
0
 62
7
  6
CONTINUOUS
370
-3
390
F
  0
LAYER
  5
20B
100
AcDbSymbolTableRecord
100
AcDbLayerTableRecord
  2
05_ALL_DTM_CSYS
 70
0
 62
7
  6
CONTINUOUS
370
-3
390
F
  0
LAYER
  5
20C
100
AcDbSymbolTableRecord
100
AcDbLayerTableRecord
  2
05__ASM_ALL_DTM_CSYS
 70
0
 62
7
  6
CONTINUOUS
370
-3
390
F
  0
LAYER
  5
20D
100
AcDbSymbolTableRecord
100
AcDbLayerTableRecord
  2
05__ASM_DEF_DTM_CSYS
 70
0
 62
7
  6
CONTINUOUS
370
-3
390
F
  0
LAYER
  5
20E
100
AcDbSymbolTableRecord
100
AcDbLayerTableRecord
  2
05___PRT_ALL_DTM_CSYS
 70
0
 62
7
  6
CONTINUOUS
370
-3
390
F
  0
LAYER
  5
20F
100
AcDbSymbolTableRecord
100
AcDbLayerTableRecord
  2
05___PRT_DEF_DTM_CSYS
 70
0
 62
7
  6
CONTINUOUS
370
-3
390
F
  0
LAYER
  5
210
100
AcDbSymbolTableRecord
100
AcDbLayerTableRecord
  2
06_ALL_SURFS
 70
0
 62
7
  6
CONTINUOUS
370
-3
390
F
  0
LAYER
  5
211
100
AcDbSymbolTableRecord
100
AcDbLayerTableRecord
  2
06__ASM_ALL_SURFS
 70
0
 62
7
  6
CONTINUOUS
370
-3
390
F
  0
LAYER
  5
212
100
AcDbSymbolTableRecord
100
AcDbLayerTableRecord
  2
06___PRT_ALL_SURFS
 70
0
 62
7
  6
CONTINUOUS
370
-3
390
F
  0
LAYER
  5
213
100
AcDbSymbolTableRecord
100
AcDbLayerTableRecord
  2
07__ASM_ALL_SKELETONS
 70
0
 62
7
  6
CONTINUOUS
370
-3
390
F
  0
LAYER
  5
214
100
AcDbSymbolTableRecord
100
AcDbLayerTableRecord
  2
LAYER_AXIS
 70
0
 62
7
  6
CONTINUOUS
370
-3
390
F
  0
LAYER
  5
215
100
AcDbSymbolTableRecord
100
AcDbLayerTableRecord
  2
LAYER_CHAMFER_FEAT
 70
0
 62
7
  6
CONTINUOUS
370
-3
390
F
  0
LAYER
  5
216
100
AcDbSymbolTableRecord
100
AcDbLayerTableRecord
  2
LAYER_CUT_FEAT
 70
0
 62
7
  6
CONTINUOUS
370
-3
390
F
  0
LAYER
  5
217
100
AcDbSymbolTableRecord
100
AcDbLayerTableRecord
  2
LAYER_DATUM
 70
0
 62
7
  6
CONTINUOUS
370
-3
390
F
  0
LAYER
  5
218
100
AcDbSymbolTableRecord
100
AcDbLayerTableRecord
  2
LAYER_DIM
 70
0
 62
7
  6
CONTINUOUS
370
-3
390
F
  0
LAYER
  5
219
100
AcDbSymbolTableRecord
100
AcDbLayerTableRecord
  2
LAYER_FEATURE
 70
0
 62
7
  6
CONTINUOUS
370
-3
390
F
  0
LAYER
  5
21A
100
AcDbSymbolTableRecord
100
AcDbLayerTableRecord
  2
LAYER_GEOM_FEAT
 70
0
 62
7
  6
CONTINUOUS
370
-3
390
F
  0
LAYER
  5
21B
100
AcDbSymbolTableRecord
100
AcDbLayerTableRecord
  2
LAYER_NOGEOM_FEAT
 70
0
 62
7
  6
CONTINUOUS
370
-3
390
F
  0
LAYER
  5
21C
100
AcDbSymbolTableRecord
100
AcDbLayerTableRecord
  2
LAYER_PARAMETER_DIM
 70
0
 62
7
  6
CONTINUOUS
370
-3
390
F
  0
LAYER
  5
21D
100
AcDbSymbolTableRecord
100
AcDbLayerTableRecord
  2
LAYER_PROTRUSION_FEAT
 70
0
 62
7
  6
CONTINUOUS
370
-3
390
F
  0
LAYER
  5
21E
100
AcDbSymbolTableRecord
100
AcDbLayerTableRecord
  2
LAYER_ROUND_FEAT
 70
0
 62
7
  6
CONTINUOUS
370
-3
390
F
  0
ENDTAB
  0
TABLE
  2
STYLE
  5
3
100
AcDbSymbolTable
 70
1
  0
STYLE
  5
11
100
AcDbSymbolTableRecord
100
AcDbTextStyleTableRecord
  2
STANDARD
 70
0
 40
0.0
 41
0.8
 50
0.0
 71
0
 42
0.2
  3
txt
  4

  0
STYLE
  5
21F
100
AcDbSymbolTableRecord
100
AcDbTextStyleTableRecord
  2
TEXTSTYLE_1
 70
0
 40
0.0
 41
0.8
 50
0.0
 71
0
 42
0.2
  3
gdt
  4

  0
ENDTAB
  0
TABLE
  2
VIEW
  5
6
100
AcDbSymbolTable
 70
0
  0
ENDTAB
  0
TABLE
  2
UCS
  5
7
100
AcDbSymbolTable
 70
0
  0
ENDTAB
  0
TABLE
  2
APPID
  5
9
100
AcDbSymbolTable
 70
1
  0
APPID
  5
220
100
AcDbSymbolTableRecord
100
AcDbRegAppTableRecord
  2
ACAD
 70
0
  0
ENDTAB
  0
TABLE
  2
BLOCK_RECORD
  5
1
100
AcDbSymbolTable
 70
0
  0
BLOCK_RECORD
  5
221
100
AcDbSymbolTableRecord
100
AcDbBlockTableRecord
  2
*Model_Space
  0
BLOCK_RECORD
  5
222
100
AcDbSymbolTableRecord
100
AcDbBlockTableRecord
  2
*Paper_Space
  0
ENDTAB
  0
TABLE
  2
DIMSTYLE
  5
A
100
AcDbSymbolTable
 70
1
100
AcDbDimStyleTable
 71
0
  0
DIMSTYLE
105
223
100
AcDbSymbolTableRecord
100
AcDbDimStyleTableRecord
  2
STANDARD
 70
0
  3

  4

 40
1.0
 41
0.1875
 42
0.0625
 43
0.38
 44
0.125
 45
0.0
 46
0.0
 47
0.0001
 48
0.0001
140
0.15625
141
0.09
142
0.0
143
25.4
144
1.0
145
0.0
146
1.0
147
0.09
 71
0.0
 72
0.0
 73
1
 74
1
 75
0
 76
0
 77
0
 78
4
 79
1
170
0
171
3
172
0
173
0
174
0
175
0
176
0
177
0
178
0
270
2
179
4
271
4
272
4
273
2
274
2
275
0
280
0
281
0
282
0
283
1
284
4
285
0
286
0
287
3
288
0
340
11
278
46
  0
ENDTAB
  0
ENDSEC
  0
SECTION
  2
BLOCKS
  0
BLOCK
  5
20
100
AcDbEntity
  8
0
100
AcDbBlockBegin
  2
*Model_Space
 70
0
 10
0.0
 20
0.0
 30
0.0
  3
*Model_Space
  1

  0
ENDBLK
  5
21
100
AcDbEntity
  8
0
100
AcDbBlockEnd
  0
BLOCK
  5
1C
100
AcDbEntity
  8
0
100
AcDbBlockBegin
  2
*Paper_Space
 70
0
 10
0.0
 20
0.0
 30
0.0
  3
*Paper_Space
  1

  0
ENDBLK
  5
1D
100
AcDbEntity
  8
0
100
AcDbBlockEnd
  0
ENDSEC
  0
SECTION
  2
ENTITIES
  0
MTEXT
  5
224
100
AcDbEntity
  8
0
100
AcDbMText
 62
7
  6
CONTINUOUS
  7
STANDARD
 71
1
 72
1
 10
15.9560215477
 20
0.9479130325
 30
0.0
 11
1.0
 21
0.0
 31
0.0
 44
0.9
  1
SCALE: 1:4.000
 40
0.3
 41
3.36
  0
LINE
  5
225
100
AcDbEntity
  8
0
100
AcDbLine
 62
7
  6
CONTINUOUS
 10
0.0
 20
0.0
 11
0.0
 21
17.0
  0
LINE
  5
226
100
AcDbEntity
  8
0
100
AcDbLine
 62
7
  6
CONTINUOUS
 10
0.0
 20
0.0
 11
22.0
 21
0.0
  0
LINE
  5
227
100
AcDbEntity
  8
0
100
AcDbLine
 62
7
  6
CONTINUOUS
 10
0.0
 20
17.0
 11
22.0
 21
17.0
  0
LINE
  5
228
100
AcDbEntity
  8
0
100
AcDbLine
 62
7
  6
CONTINUOUS
 10
22.0
 20
0.0
 11
22.0
 21
17.0
  0
LINE
  5
229
100
AcDbEntity
  8
LAYER_FEATURE
100
AcDbLine
 62
7
  6
CONTINUOUS
 10
5.9095672762
 20
6.8901198968
 11
5.8878473533
 21
6.8683999738
  0
LINE
  5
22A
100
AcDbEntity
  8
LAYER_FEATURE
100
AcDbLine
 62
7
  6
CONTINUOUS
 10
7.5003672762
 20
5.2993198968
 11
7.4785947403
 21
5.2775473609
  0
LINE
  5
22B
100
AcDbEntity
  8
LAYER_FEATURE
100
AcDbLine
 62
7
  6
CONTINUOUS
 10
6.3511672762
 20
6.8901198968
 11
6.3728871991
 21
6.8683999738
  0
LINE
  5
22C
100
AcDbEntity
  8
LAYER_FEATURE
100
AcDbLine
 62
7
  6
CONTINUOUS
 10
7.5003672762
 20
5.7409198968
 11
7.4785947403
 21
5.7626924326
  0
LINE
  5
22D
100
AcDbEntity
  8
LAYER_FEATURE
100
AcDbLine
 62
7
  6
CONTINUOUS
 10
7.5003672762
 20
5.7409198968
 11
7.5003672762
 21
5.2993198968
  0
LINE
  5
22E
100
AcDbEntity
  8
LAYER_FEATURE
100
AcDbLine
 62
7
  6
CONTINUOUS
 10
5.9095672762
 20
6.8901198968
 11
6.3511672762
 21
6.8901198968
  0
LINE
  5
22F
100
AcDbEntity
  8
02___PRT_ALL_AXES
100
AcDbLine
 62
7
  6
CONTINUOUS
 10
4.7008720839
 20
11.4560477814
 11
4.7008720839
 21
12.2570477814
  0
LINE
  5
230
100
AcDbEntity
  8
LAYER_FEATURE
100
AcDbLine
 62
7
  6
CONTINUOUS
 10
4.7008720839
 20
13.6160477814
 11
4.7008720839
 21
13.7440477814
  0
LINE
  5
231
100
AcDbEntity
  8
LAYER_CUT_FEAT
100
AcDbLine
 62
7
  6
CONTINUOUS
 10
5.0054873224
 20
13.5280477814
 11
5.0054873224
 21
12.4080477814
  0
LINE
  5
232
100
AcDbEntity
  8
02___PRT_ALL_AXES
100
AcDbLine
 62
7
  6
CONTINUOUS
 10
4.700872106
 20
11.4560477814
 11
7.4408720617
 21
11.4560477814
  0
LINE
  5
233
100
AcDbEntity
  8
LAYER_CUT_FEAT
100
AcDbLine
 62
7
  6
CONTINUOUS
 10
5.1239425218
 20
13.5280477814
 11
5.1239425218
 21
12.4080477814
  0
LINE
  5
234
100
AcDbEntity
  8
LAYER_CHAMFER_FEAT
100
AcDbLine
 62
7
  6
CONTINUOUS
 10
4.7008720839
 20
12.2570477814
 11
4.8518720839
 21
12.4080477814
  0
LINE
  5
235
100
AcDbEntity
  8
LAYER_CUT_FEAT
100
AcDbLine
 62
7
  6
CONTINUOUS
 10
5.9911977467
 20
11.7860477814
 11
6.150546421
 21
11.7860477814
  0
LINE
  5
236
100
AcDbEntity
  8
LAYER_CUT_FEAT
100
AcDbLine
 62
7
  6
CONTINUOUS
 10
5.3992140817
 20
13.5280477814
 11
5.3992140817
 21
12.4080477814
  0
LINE
  5
237
100
AcDbEntity
  8
LAYER_CUT_FEAT
100
AcDbLine
 62
7
  6
CONTINUOUS
 10
6.150546421
 20
12.0620477814
 11
5.9911977467
 21
12.0620477814
  0
LINE
  5
238
100
AcDbEntity
  8
LAYER_CUT_FEAT
100
AcDbLine
 62
7
  6
CONTINUOUS
 10
5.9115234096
 20
11.9240477814
 11
5.9911977467
 21
11.7860477814
  0
LINE
  5
239
100
AcDbEntity
  8
LAYER_FEATURE
100
AcDbLine
 62
7
  6
CONTINUOUS
 10
7.2508720839
 20
13.5280477814
 11
7.4408720839
 21
13.6160477814
  0
LINE
  5
23A
100
AcDbEntity
  8
LAYER_CHAMFER_FEAT
100
AcDbLine
 62
7
  6
CONTINUOUS
 10
4.7008720839
 20
12.2570477814
 11
7.4408720839
 21
12.2570477814
  0
LINE
  5
23B
100
AcDbEntity
  8
LAYER_CUT_FEAT
100
AcDbLine
 62
7
  6
CONTINUOUS
 10
5.7837050486
 20
13.5280477814
 11
5.7837050486
 21
12.4080477814
  0
LINE
  5
23C
100
AcDbEntity
  8
LAYER_CUT_FEAT
100
AcDbLine
 62
7
  6
CONTINUOUS
 10
5.9306522196
 20
13.5280477814
 11
5.9306522196
 21
12.4080477814
  0
LINE
  5
23D
100
AcDbEntity
  8
LAYER_CHAMFER_FEAT
100
AcDbLine
 62
7
  6
CONTINUOUS
 10
4.8518721818
 20
12.4080477814
 11
7.2898719859
 21
12.4080477814
  0
LINE
  5
23E
100
AcDbEntity
  8
LAYER_CUT_FEAT
100
AcDbLine
 62
7
  6
CONTINUOUS
 10
6.2302207582
 20
11.9240477814
 11
6.150546421
 21
12.0620477814
  0
LINE
  5
23F
100
AcDbEntity
  8
LAYER_CUT_FEAT
100
AcDbLine
 62
7
  6
CONTINUOUS
 10
6.2109334413
 20
13.5280477814
 11
6.2109334413
 21
12.4080477814
  0
LINE
  5
240
100
AcDbEntity
  8
LAYER_CUT_FEAT
100
AcDbLine
 62
7
  6
CONTINUOUS
 10
5.9911977467
 20
12.0620477814
 11
5.9115234096
 21
11.9240477814
  0
LINE
  5
241
100
AcDbEntity
  8
LAYER_CUT_FEAT
100
AcDbLine
 62
7
  6
CONTINUOUS
 10
6.3569656892
 20
13.5280477814
 11
6.3569656892
 21
12.4080477814
  0
LINE
  5
242
100
AcDbEntity
  8
LAYER_FEATURE
100
AcDbLine
 62
7
  6
CONTINUOUS
 10
4.8908720839
 20
13.5280477814
 11
4.7008720839
 21
13.6160477814
  0
LINE
  5
243
100
AcDbEntity
  8
LAYER_CUT_FEAT
100
AcDbLine
 62
7
  6
CONTINUOUS
 10
6.150546421
 20
11.7860477814
 11
6.2302207582
 21
11.9240477814
  0
LINE
  5
244
100
AcDbEntity
  8
LAYER_CUT_FEAT
100
AcDbLine
 62
7
  6
CONTINUOUS
 10
6.7411240302
 20
13.5280477814
 11
6.7411240302
 21
12.4080477814
  0
LINE
  5
245
100
AcDbEntity
  8
LAYER_FEATURE
100
AcDbLine
 62
7
  6
CONTINUOUS
 10
7.4322571409
 20
12.1534627244
 11
7.4408720839
 21
12.1448477814
  0
LINE
  5
246
100
AcDbEntity
  8
LAYER_CHAMFER_FEAT
100
AcDbLine
 62
7
  6
CONTINUOUS
 10
7.4408720839
 20
12.2570477814
 11
7.2898720839
 21
12.4080477814
  0
LINE
  5
247
100
AcDbEntity
  8
LAYER_CUT_FEAT
100
AcDbLine
 62
7
  6
CONTINUOUS
 10
7.0167027757
 20
13.5280477814
 11
7.0167027757
 21
12.4080477814
  0
LINE
  5
248
100
AcDbEntity
  8
LAYER_FEATURE
100
AcDbLine
 62
7
  6
CONTINUOUS
 10
4.8908721787
 20
13.5280477814
 11
7.250871989
 21
13.5280477814
  0
LINE
  5
249
100
AcDbEntity
  8
LAYER_CUT_FEAT
100
AcDbLine
 62
7
  6
CONTINUOUS
 10
7.1360518568
 20
13.5280477814
 11
7.1360518568
 21
12.4080477814
  0
LINE
  5
24A
100
AcDbEntity
  8
LAYER_FEATURE
100
AcDbLine
 62
7
  6
CONTINUOUS
 10
4.7008720839
 20
13.6160477814
 11
7.4408720839
 21
13.6160477814
  0
LINE
  5
24B
100
AcDbEntity
  8
LAYER_FEATURE
100
AcDbLine
 62
7
  6
CONTINUOUS
 10
4.7008720839
 20
13.7440477814
 11
7.4408720839
 21
13.7440477814
  0
LINE
  5
24C
100
AcDbEntity
  8
02___PRT_ALL_AXES
100
AcDbLine
 62
7
  6
CONTINUOUS
 10
7.4408720839
 20
11.4560477814
 11
7.4408720839
 21
11.6480477814
  0
LINE
  5
24D
100
AcDbEntity
  8
LAYER_FEATURE
100
AcDbLine
 62
7
  6
CONTINUOUS
 10
7.4408720839
 20
11.7032477814
 11
7.4408720839
 21
12.1448477814
  0
LINE
  5
24E
100
AcDbEntity
  8
02___PRT_ALL_AXES
100
AcDbLine
 62
7
  6
CONTINUOUS
 10
7.4408720839
 20
12.2000477814
 11
7.4408720839
 21
12.2570477814
  0
LINE
  5
24F
100
AcDbEntity
  8
LAYER_FEATURE
100
AcDbLine
 62
7
  6
CONTINUOUS
 10
7.4408720839
 20
13.6160477814
 11
7.4408720839
 21
13.7440477814
  0
LINE
  5
250
100
AcDbEntity
  8
LAYER_FEATURE
100
AcDbLine
 62
7
  6
CONTINUOUS
 10
7.4322571402
 20
11.6946328377
 11
7.4408720839
 21
11.7032477814
  0
LINE
  5
251
100
AcDbEntity
  8
LAYER_FEATURE
100
AcDbLine
 62
7
  6
CONTINUOUS
 10
14.6549402985
 20
6.8220097461
 11
14.6635552569
 21
6.8306247044
  0
LINE
  5
252
100
AcDbEntity
  8
LAYER_FEATURE
100
AcDbLine
 62
7
  6
CONTINUOUS
 10
16.7043552569
 20
4.0906247044
 11
16.5763552569
 21
4.0906247044
  0
LINE
  5
253
100
AcDbEntity
  8
LAYER_CHAMFER_FEAT
100
AcDbLine
 62
7
  6
CONTINUOUS
 10
15.2173552569
 20
4.0906247044
 11
14.4163552569
 21
4.0906247044
  0
LINE
  5
254
100
AcDbEntity
  8
02___PRT_ALL_AXES
100
AcDbLine
 62
7
  6
CONTINUOUS
 10
14.4163552569
 20
6.8306247044
 11
14.4163552569
 21
4.0906247044
  0
LINE
  5
255
100
AcDbEntity
  8
02___PRT_ALL_AXES
100
AcDbLine
 62
7
  6
CONTINUOUS
 10
15.3683552569
 20
4.3926247044
 11
16.4883552569
 21
4.3926247044
  0
LINE
  5
256
100
AcDbEntity
  8
LAYER_CUT_FEAT
100
AcDbLine
 62
7
  6
CONTINUOUS
 10
16.4883552569
 20
4.4689968398
 11
15.3683552569
 21
4.4689968398
  0
LINE
  5
257
100
AcDbEntity
  8
LAYER_CUT_FEAT
100
AcDbLine
 62
7
  6
CONTINUOUS
 10
14.7463552569
 20
5.5402990416
 11
14.7463552569
 21
5.3809503673
  0
LINE
  5
258
100
AcDbEntity
  8
LAYER_CUT_FEAT
100
AcDbLine
 62
7
  6
CONTINUOUS
 10
16.4883552569
 20
4.7090388752
 11
15.3683552569
 21
4.7090388752
  0
LINE
  5
259
100
AcDbEntity
  8
LAYER_CUT_FEAT
100
AcDbLine
 62
7
  6
CONTINUOUS
 10
15.0223552569
 20
5.3809503673
 11
15.0223552569
 21
5.5402990416
  0
LINE
  5
25A
100
AcDbEntity
  8
LAYER_CUT_FEAT
100
AcDbLine
 62
7
  6
CONTINUOUS
 10
14.8843552569
 20
5.6199733787
 11
14.7463552569
 21
5.5402990416
  0
LINE
  5
25B
100
AcDbEntity
  8
LAYER_CUT_FEAT
100
AcDbLine
 62
7
  6
CONTINUOUS
 10
14.7463552569
 20
5.3809503673
 11
14.8843552569
 21
5.3012760301
  0
LINE
  5
25C
100
AcDbEntity
  8
LAYER_CHAMFER_FEAT
100
AcDbLine
 62
7
  6
CONTINUOUS
 10
15.2173552569
 20
6.8306247044
 11
15.2173552569
 21
4.0906247044
  0
LINE
  5
25D
100
AcDbEntity
  8
LAYER_CUT_FEAT
100
AcDbLine
 62
7
  6
CONTINUOUS
 10
16.4883552569
 20
5.0717238735
 11
15.3683552569
 21
5.0717238735
  0
LINE
  5
25E
100
AcDbEntity
  8
LAYER_CHAMFER_FEAT
100
AcDbLine
 62
7
  6
CONTINUOUS
 10
15.3683552569
 20
6.6796247044
 11
15.3683552569
 21
4.2416247044
  0
LINE
  5
25F
100
AcDbEntity
  8
LAYER_CUT_FEAT
100
AcDbLine
 62
7
  6
CONTINUOUS
 10
14.8843552569
 20
5.3012760301
 11
15.0223552569
 21
5.3809503673
  0
LINE
  5
260
100
AcDbEntity
  8
LAYER_CUT_FEAT
100
AcDbLine
 62
7
  6
CONTINUOUS
 10
15.0223552569
 20
5.5402990416
 11
14.8843552569
 21
5.6199733787
  0
LINE
  5
261
100
AcDbEntity
  8
LAYER_CUT_FEAT
100
AcDbLine
 62
7
  6
CONTINUOUS
 10
16.4883552569
 20
5.4943403035
 11
15.3683552569
 21
5.4943403035
  0
LINE
  5
262
100
AcDbEntity
  8
LAYER_CUT_FEAT
100
AcDbLine
 62
7
  6
CONTINUOUS
 10
16.4883552569
 20
5.642134643
 11
15.3683552569
 21
5.642134643
  0
LINE
  5
263
100
AcDbEntity
  8
LAYER_FEATURE
100
AcDbLine
 62
7
  6
CONTINUOUS
 10
16.5763552569
 20
6.8306247044
 11
16.4883552569
 21
6.6406247044
  0
LINE
  5
264
100
AcDbEntity
  8
LAYER_FEATURE
100
AcDbLine
 62
7
  6
CONTINUOUS
 10
16.5763552569
 20
4.0906247044
 11
16.4883552569
 21
4.2806247044
  0
LINE
  5
265
100
AcDbEntity
  8
LAYER_CUT_FEAT
100
AcDbLine
 62
7
  6
CONTINUOUS
 10
16.4883552569
 20
6.044045248
 11
15.3683552569
 21
6.044045248
  0
LINE
  5
266
100
AcDbEntity
  8
LAYER_CHAMFER_FEAT
100
AcDbLine
 62
7
  6
CONTINUOUS
 10
15.2173552569
 20
4.0906247044
 11
15.3683552569
 21
4.2416247044
  0
LINE
  5
267
100
AcDbEntity
  8
LAYER_FEATURE
100
AcDbLine
 62
7
  6
CONTINUOUS
 10
15.1137702149
 20
6.8220097465
 11
15.1051552569
 21
6.8306247044
  0
LINE
  5
268
100
AcDbEntity
  8
LAYER_CHAMFER_FEAT
100
AcDbLine
 62
7
  6
CONTINUOUS
 10
15.2173552569
 20
6.8306247044
 11
15.3683552569
 21
6.6796247044
  0
LINE
  5
269
100
AcDbEntity
  8
LAYER_FEATURE
100
AcDbLine
 62
7
  6
CONTINUOUS
 10
16.4883552569
 20
6.6406247044
 11
16.4883552569
 21
4.2806247044
  0
LINE
  5
26A
100
AcDbEntity
  8
LAYER_CUT_FEAT
100
AcDbLine
 62
7
  6
CONTINUOUS
 10
16.4883552569
 20
6.3519935043
 11
15.3683552569
 21
6.3519935043
  0
LINE
  5
26B
100
AcDbEntity
  8
LAYER_FEATURE
100
AcDbLine
 62
7
  6
CONTINUOUS
 10
16.5763552569
 20
6.8306247044
 11
16.5763552569
 21
4.0906247044
  0
LINE
  5
26C
100
AcDbEntity
  8
LAYER_CUT_FEAT
100
AcDbLine
 62
7
  6
CONTINUOUS
 10
16.4883552569
 20
6.5127323606
 11
15.3683552569
 21
6.5127323606
  0
LINE
  5
26D
100
AcDbEntity
  8
LAYER_FEATURE
100
AcDbLine
 62
7
  6
CONTINUOUS
 10
16.7043552569
 20
6.8306247044
 11
16.7043552569
 21
4.0906247044
  0
LINE
  5
26E
100
AcDbEntity
  8
LAYER_FEATURE
100
AcDbLine
 62
7
  6
CONTINUOUS
 10
16.7043552569
 20
6.8306247044
 11
16.5763552569
 21
6.8306247044
  0
LINE
  5
26F
100
AcDbEntity
  8
02___PRT_ALL_AXES
100
AcDbLine
 62
7
  6
CONTINUOUS
 10
15.2173552569
 20
6.8306247044
 11
15.1603552569
 21
6.8306247044
  0
LINE
  5
270
100
AcDbEntity
  8
02___PRT_ALL_AXES
100
AcDbLine
 62
7
  6
CONTINUOUS
 10
14.6083552569
 20
6.8306247044
 11
14.4163552569
 21
6.8306247044
  0
LINE
  5
271
100
AcDbEntity
  8
LAYER_FEATURE
100
AcDbLine
 62
7
  6
CONTINUOUS
 10
14.6635552569
 20
6.8306247044
 11
15.1051552569
 21
6.8306247044
  0
LINE
  5
272
100
AcDbEntity
  8
02___PRT_ALL_AXES
100
AcDbLine
 62
7
  6
CONTINUOUS
 10
13.8852563633
 20
12.0191679072
 11
14.0791514883
 21
12.6466127618
  0
LINE
  5
273
100
AcDbEntity
  8
LAYER_FEATURE
100
AcDbLine
 62
7
  6
CONTINUOUS
 10
14.4081196218
 20
13.711154032
 11
14.4391041112
 21
13.8114198764
  0
LINE
  5
274
100
AcDbEntity
  8
02___PRT_ALL_AXES
100
AcDbLine
 62
7
  6
CONTINUOUS
 10
14.5126561504
 20
13.0265632748
 11
14.6753548803
 21
13.5530565578
  0
LINE
  5
275
100
AcDbEntity
  8
LAYER_CUT_FEAT
100
AcDbLine
 62
7
  6
CONTINUOUS
 10
14.8283296231
 20
13.7536952177
 11
14.6123707786
 21
13.0548521408
  0
LINE
  5
276
100
AcDbEntity
  8
LAYER_CUT_FEAT
100
AcDbLine
 62
7
  6
CONTINUOUS
 10
15.1254874259
 20
13.8698119774
 11
14.890565239
 21
13.1096035017
  0
LINE
  5
277
100
AcDbEntity
  8
LAYER_CUT_FEAT
100
AcDbLine
 62
7
  6
CONTINUOUS
 10
14.5145294337
 20
11.8590330632
 11
14.5048467808
 21
11.8276999868
  0
LINE
  5
278
100
AcDbEntity
  8
LAYER_CUT_FEAT
100
AcDbLine
 62
7
  6
CONTINUOUS
 10
14.8495828304
 20
12.9409807721
 11
14.7427927536
 21
12.8328816585
  0
LINE
  5
279
100
AcDbEntity
  8
LAYER_CUT_FEAT
100
AcDbLine
 62
7
  6
CONTINUOUS
 10
16.6179315381
 20
11.8822232776
 11
16.5314790454
 21
11.8822232776
  0
LINE
  5
27A
100
AcDbEntity
  8
LAYER_CUT_FEAT
100
AcDbLine
 62
7
  6
CONTINUOUS
 10
14.9337743856
 20
12.7694164208
 11
14.889681008
 21
12.724782545
  0
LINE
  5
27B
100
AcDbEntity
  8
LAYER_CUT_FEAT
100
AcDbLine
 62
7
  6
CONTINUOUS
 10
14.9295423735
 20
12.724782545
 11
15.0363324503
 21
12.8328816585
  0
LINE
  5
27C
100
AcDbEntity
  8
LAYER_CUT_FEAT
100
AcDbLine
 62
7
  6
CONTINUOUS
 10
16.6270326822
 20
12.0398487533
 11
16.5183782291
 21
12.0398487533
  0
LINE
  5
27D
100
AcDbEntity
  8
LAYER_CUT_FEAT
100
AcDbLine
 62
7
  6
CONTINUOUS
 10
14.7427927536
 20
12.8328816585
 11
14.7958400937
 21
12.724782545
  0
LINE
  5
27E
100
AcDbEntity
  8
LAYER_CUT_FEAT
100
AcDbLine
 62
7
  6
CONTINUOUS
 10
14.7427927536
 20
12.8328816585
 11
14.7827725252
 21
12.724782545
  0
LINE
  5
27F
100
AcDbEntity
  8
LAYER_CUT_FEAT
100
AcDbLine
 62
7
  6
CONTINUOUS
 10
15.5146397924
 20
13.8786784679
 11
15.2752123248
 21
13.1038908988
  0
LINE
  5
280
100
AcDbEntity
  8
LAYER_CUT_FEAT
100
AcDbLine
 62
7
  6
CONTINUOUS
 10
14.8495828304
 20
12.9409807721
 11
14.9337743856
 21
12.7694164208
  0
LINE
  5
281
100
AcDbEntity
  8
LAYER_CUT_FEAT
100
AcDbLine
 62
7
  6
CONTINUOUS
 10
15.0363324503
 20
12.8328816585
 11
14.9963526788
 21
12.9409807721
  0
LINE
  5
282
100
AcDbEntity
  8
LAYER_CUT_FEAT
100
AcDbLine
 62
7
  6
CONTINUOUS
 10
15.9284987431
 20
13.7787615925
 11
15.6902269521
 21
13.0077137943
  0
LINE
  5
283
100
AcDbEntity
  8
LAYER_CUT_FEAT
100
AcDbLine
 62
7
  6
CONTINUOUS
 10
16.0671476911
 20
13.7293786254
 11
15.8279127456
 21
12.9552140582
  0
LINE
  5
284
100
AcDbEntity
  8
LAYER_CUT_FEAT
100
AcDbLine
 62
7
  6
CONTINUOUS
 10
14.7827725252
 20
12.724782545
 11
14.9295423735
 21
12.724782545
  0
LINE
  5
285
100
AcDbEntity
  8
LAYER_CUT_FEAT
100
AcDbLine
 62
7
  6
CONTINUOUS
 10
14.973635751
 20
12.7694164208
 11
14.9337743856
 21
12.7694164208
  0
LINE
  5
286
100
AcDbEntity
  8
LAYER_CUT_FEAT
100
AcDbLine
 62
7
  6
CONTINUOUS
 10
14.9963526788
 20
12.9409807721
 11
14.8495828304
 21
12.9409807721
  0
LINE
  5
287
100
AcDbEntity
  8
LAYER_CUT_FEAT
100
AcDbLine
 62
7
  6
CONTINUOUS
 10
16.420272541
 20
13.5270264666
 11
16.1830578099
 21
12.7593993155
  0
LINE
  5
288
100
AcDbEntity
  8
LAYER_CUT_FEAT
100
AcDbLine
 62
7
  6
CONTINUOUS
 10
15.8932017119
 20
11.4329911062
 11
15.883519059
 21
11.4016580298
  0
LINE
  5
289
100
AcDbEntity
  8
LAYER_CHAMFER_FEAT
100
AcDbLine
 62
7
  6
CONTINUOUS
 10
14.6128971112
 20
13.0549838479
 11
14.7348887764
 21
13.0836736143
  0
LINE
  5
28A
100
AcDbEntity
  8
LAYER_CHAMFER_FEAT
100
AcDbLine
 62
7
  6
CONTINUOUS
 10
16.4867043873
 20
12.475933604
 11
16.4021669293
 21
12.5684456966
  0
LINE
  5
28B
100
AcDbEntity
  8
LAYER_FEATURE
100
AcDbLine
 62
7
  6
CONTINUOUS
 10
16.563922542
 20
12.2313944284
 11
16.6056767913
 21
12.1813707431
  0
LINE
  5
28C
100
AcDbEntity
  8
LAYER_CUT_FEAT
100
AcDbLine
 62
7
  6
CONTINUOUS
 10
16.5116143599
 20
11.9227032507
 11
16.5602223769
 21
11.8236505263
  0
LINE
  5
28D
100
AcDbEntity
  8
LAYER_CUT_FEAT
100
AcDbLine
 62
7
  6
CONTINUOUS
 10
16.6551069283
 20
13.2724935691
 11
16.4286005187
 21
12.5395185591
  0
LINE
  5
28E
100
AcDbEntity
  8
LAYER_CUT_FEAT
100
AcDbLine
 62
7
  6
CONTINUOUS
 10
16.6270326822
 20
12.0398487533
 11
16.5784246651
 21
12.1389014777
  0
LINE
  5
28F
100
AcDbEntity
  8
LAYER_CUT_FEAT
100
AcDbLine
 62
7
  6
CONTINUOUS
 10
16.520715504
 20
12.0803287264
 11
16.5116143599
 21
11.9227032507
  0
LINE
  5
290
100
AcDbEntity
  8
LAYER_CUT_FEAT
100
AcDbLine
 62
7
  6
CONTINUOUS
 10
16.7310458541
 20
13.0097909834
 11
16.5448337488
 21
12.40720839
  0
LINE
  5
291
100
AcDbEntity
  8
LAYER_CUT_FEAT
100
AcDbLine
 62
7
  6
CONTINUOUS
 10
16.5784246651
 20
12.1389014777
 11
16.520715504
 21
12.0803287264
  0
LINE
  5
292
100
AcDbEntity
  8
LAYER_CUT_FEAT
100
AcDbLine
 62
7
  6
CONTINUOUS
 10
16.6179315381
 20
11.8822232776
 11
16.6270326822
 21
12.0398487533
  0
LINE
  5
293
100
AcDbEntity
  8
LAYER_CUT_FEAT
100
AcDbLine
 62
7
  6
CONTINUOUS
 10
16.5602223769
 20
11.8236505263
 11
16.6179315381
 21
11.8822232776
  0
LINE
  5
294
100
AcDbEntity
  8
02___PRT_ALL_AXES
100
AcDbLine
 62
7
  6
CONTINUOUS
 10
16.5031094765
 20
11.2101901094
 11
16.6970046016
 21
11.837634964
  0
LINE
  5
295
100
AcDbEntity
  8
LAYER_FEATURE
100
AcDbLine
 62
7
  6
CONTINUOUS
 10
17.0259727351
 20
12.9021762342
 11
17.0569572245
 21
13.0024420786
  0
LINE
  5
296
100
AcDbEntity
  8
LAYER_FEATURE
100
AcDbLine
 62
7
  6
CONTINUOUS
 10
16.563922542
 20
11.7311575756
 11
16.6056767913
 21
11.7811812609
  0
CIRCLE
  5
297
100
AcDbEntity
  8
02___PRT_ALL_AXES
100
AcDbCircle
 62
7
  6
CONTINUOUS
 10
6.1303672762
 20
5.5201198968
 40
1.37
  0
CIRCLE
  5
298
100
AcDbEntity
  8
LAYER_CUT_FEAT
100
AcDbCircle
 62
7
  6
CONTINUOUS
 10
6.1303672762
 20
5.5201198968
 40
0.7295
  0
CIRCLE
  5
299
100
AcDbEntity
  8
LAYER_CUT_FEAT
100
AcDbCircle
 62
7
  6
CONTINUOUS
 10
6.1303672762
 20
5.5201198968
 40
0.7215
  0
CIRCLE
  5
29A
100
AcDbEntity
  8
LAYER_CHAMFER_FEAT
100
AcDbCircle
 62
7
  6
CONTINUOUS
 10
6.1303672762
 20
5.5201198968
 40
0.43125
  0
CIRCLE
  5
29B
100
AcDbEntity
  8
LAYER_CHAMFER_FEAT
100
AcDbCircle
 62
7
  6
CONTINUOUS
 10
6.1303672762
 20
5.5201198968
 40
0.375
  0
CIRCLE
  5
29C
100
AcDbEntity
  8
02___PRT_ALL_AXES
100
AcDbCircle
 62
7
  6
CONTINUOUS
 10
6.0708720839
 20
11.9240477814
 40
0.276
  0
CIRCLE
  5
29D
100
AcDbEntity
  8
LAYER_FEATURE
100
AcDbCircle
 62
7
  6
CONTINUOUS
 10
6.0708720839
 20
11.9240477814
 40
0.2208
  0
CIRCLE
  5
29E
100
AcDbEntity
  8
02___PRT_ALL_AXES
100
AcDbCircle
 62
7
  6
CONTINUOUS
 10
14.8843552569
 20
5.4606247044
 40
0.276
  0
CIRCLE
  5
29F
100
AcDbEntity
  8
LAYER_FEATURE
100
AcDbCircle
 62
7
  6
CONTINUOUS
 10
14.8843552569
 20
5.4606247044
 40
0.2208
  0
ARC
  5
2A0
100
AcDbEntity
  8
LAYER_FEATURE
100
AcDbCircle
 62
7
  6
CONTINUOUS
 10
15.3367423627
 20
12.0705427469
 40
1.832581444
100
AcDbArc
 50
67.4205756083
 51
69.542275411
  0
ARC
  5
2A1
100
AcDbEntity
  8
LAYER_FEATURE
100
AcDbCircle
 62
7
  6
CONTINUOUS
 10
15.3536989099
 20
12.185800741
 40
1.716500386
100
AcDbArc
 50
81.3077164602
 51
83.5240361454
  0
ARC
  5
2A2
100
AcDbEntity
  8
LAYER_FEATURE
100
AcDbCircle
 62
7
  6
CONTINUOUS
 10
15.565060783
 20
12.466494551
 40
1.374372286
100
AcDbArc
 50
52.1657154229
 51
54.736113397
  0
ARC
  5
2A3
100
AcDbEntity
  8
LAYER_FEATURE
100
AcDbCircle
 62
7
  6
CONTINUOUS
 10
15.345529486
 20
12.767588725
 40
1.1327997691
100
AcDbArc
 50
97.3749835764
 51
100.2989753024
  0
ARC
  5
2A4
100
AcDbEntity
  8
02___PRT_ALL_AXES
100
AcDbCircle
 62
7
  6
CONTINUOUS
 10
15.8270821238
 20
12.0509292798
 40
0.8362049292
100
AcDbArc
 50
345.6602824923
 51
346.9862450859
  0
ARC
  5
2A5
100
AcDbEntity
  8
LAYER_FEATURE
100
AcDbCircle
 62
7
  6
CONTINUOUS
 10
16.0134683014
 20
12.9023737635
 40
0.745895446
100
AcDbArc
 50
31.0350246094
 51
34.8985306705
  0
ARC
  5
2A6
100
AcDbEntity
  8
LAYER_FEATURE
100
AcDbCircle
 62
7
  6
CONTINUOUS
 10
15.1626341869
 20
13.2971948001
 40
0.5686796341
100
AcDbArc
 50
120.6379021976
 51
125.2674622126
  0
ARC
  5
2A7
100
AcDbEntity
  8
LAYER_FEATURE
100
AcDbCircle
 62
7
  6
CONTINUOUS
 10
16.3457954126
 20
13.0291065912
 40
0.3861851018
100
AcDbArc
 50
357.6682032195
 51
3.6608645165
  0
ARC
  5
2A8
100
AcDbEntity
  8
LAYER_FEATURE
100
AcDbCircle
 62
7
  6
CONTINUOUS
 10
15.0108848908
 20
13.4493418802
 40
0.3511939606
100
AcDbArc
 50
156.909108165
 51
162.8232544364
  0
ARC
  5
2A9
100
AcDbEntity
  8
LAYER_FEATURE
100
AcDbCircle
 62
7
  6
CONTINUOUS
 10
14.8527101063
 20
13.8156851685
 40
0.2478991585
100
AcDbArc
 50
244.248971094
 51
251.6735602221
  0
ARC
  5
2AA
100
AcDbEntity
  8
LAYER_CUT_FEAT
100
AcDbCircle
 62
7
  6
CONTINUOUS
 10
14.7426168023
 20
11.7884488539
 40
0.2387599197
100
AcDbArc
 50
152.5515422668
 51
162.804728228
  0
ARC
  5
2AB
100
AcDbEntity
  8
LAYER_CUT_FEAT
100
AcDbCircle
 62
7
  6
CONTINUOUS
 10
15.6652526492
 20
11.5033458419
 40
0.2385599079
100
AcDbArc
 50
342.8475583492
 51
352.6387982018
  0
SPLINE
  5
2AC
100
AcDbEntity
  8
02___PRT_ALL_AXES
100
AcDbSpline
 62
7
  6
CONTINUOUS
 70
0
 71
3
 72
31
 73
27
 74
0
 42
0.0000001
 43
0.0000001
 44
0.0000000001
 40
0.0
 40
0.0
 40
0.0
 40
0.0
 40
0.0097757636
 40
0.0386338435
 40
0.0852494736
 40
0.1476343238
 40
0.1839854634
 40
0.2233233167
 40
0.2652808398
 40
0.3094687564
 40
0.3554756783
 40
0.4028692531
 40
0.4511987973
 40
0.4999999998
 40
0.5488012023
 40
0.5971307465
 40
0.6445243213
 40
0.6905312432
 40
0.7347191598
 40
0.776676683
 40
0.8160145363
 40
0.8523656759
 40
0.9147505262
 40
0.9613661564
 40
0.9902242364
 40
1.0
 40
1.0
 40
1.0
 40
1.0
 10
7.4408720839
 20
11.6480477814
 30
0.0
 10
7.4405144226
 20
11.6498231203
 30
0.0
 10
7.4391135195
 20
11.6568418093
 30
0.0
 10
7.4361325084
 20
11.6723511251
 30
0.0
 10
7.4316652889
 20
11.6974976467
 30
0.0
 10
7.427505684
 20
11.7241044906
 30
0.0
 10
7.4240410637
 20
11.7494483804
 30
0.0
 10
7.4214111895
 20
11.7710846629
 30
0.0
 10
7.4189802678
 20
11.794204717
 30
0.0
 10
7.4168429408
 20
11.8185944485
 30
0.0
 10
7.4150836649
 20
11.8440241146
 30
0.0
 10
7.4137731036
 20
11.8702492582
 30
0.0
 10
7.4129645644
 20
11.8970126891
 30
0.0
 10
7.4126912693
 20
11.9240477813
 30
0.0
 10
7.4129645643
 20
11.9510828734
 30
0.0
 10
7.4137731036
 20
11.9778463043
 30
0.0
 10
7.4150836649
 20
12.004071448
 30
0.0
 10
7.4168429408
 20
12.029501114
 30
0.0
 10
7.4189802678
 20
12.0538908456
 30
0.0
 10
7.4214111895
 20
12.0770108997
 30
0.0
 10
7.4240410637
 20
12.0986471822
 30
0.0
 10
7.427505684
 20
12.123991072
 30
0.0
 10
7.4316652889
 20
12.1505979159
 30
0.0
 10
7.4361325084
 20
12.1757444376
 30
0.0
 10
7.4391135195
 20
12.1912537535
 30
0.0
 10
7.4405144226
 20
12.1982724424
 30
0.0
 10
7.4408720839
 20
12.2000477814
 30
0.0
  0
SPLINE
  5
2AD
100
AcDbEntity
  8
02___PRT_ALL_AXES
100
AcDbSpline
 62
7
  6
CONTINUOUS
 70
0
 71
3
 72
31
 73
27
 74
0
 42
0.0000001
 43
0.0000001
 44
0.0000000001
 40
0.0
 40
0.0
 40
0.0
 40
0.0
 40
0.0097757641
 40
0.03863384
 40
0.0852494684
 40
0.1476343189
 40
0.1839854588
 40
0.2233233126
 40
0.2652808361
 40
0.3094687537
 40
0.3554756762
 40
0.4028692516
 40
0.4511987968
 40
0.5000000004
 40
0.5488012039
 40
0.597130749
 40
0.6445243243
 40
0.6905312467
 40
0.7347191641
 40
0.7766766876
 40
0.8160145415
 40
0.8523656813
 40
0.9147505317
 40
0.9613661601
 40
0.990224236
 40
1.0
 40
1.0
 40
1.0
 40
1.0
 10
15.1603552569
 20
6.8306247044
 30
0.0
 10
15.1585799179
 20
6.8302670431
 30
0.0
 10
15.1515612296
 20
6.8288661402
 30
0.0
 10
15.1360519147
 20
6.8258851293
 30
0.0
 10
15.110905394
 20
6.8214179099
 30
0.0
 10
15.0842985504
 20
6.817258305
 30
0.0
 10
15.0589546604
 20
6.8137936846
 30
0.0
 10
15.0373183777
 20
6.8111638103
 30
0.0
 10
15.0141983233
 20
6.8087328886
 30
0.0
 10
14.9898085914
 20
6.8065955615
 30
0.0
 10
14.9643789249
 20
6.8048362855
 30
0.0
 10
14.9381537809
 20
6.8035257242
 30
0.0
 10
14.9113903495
 20
6.8027171849
 30
0.0
 10
14.8843552567
 20
6.8024438899
 30
0.0
 10
14.857320164
 20
6.802717185
 30
0.0
 10
14.8305567327
 20
6.8035257242
 30
0.0
 10
14.8043315887
 20
6.8048362856
 30
0.0
 10
14.7789019223
 20
6.8065955615
 30
0.0
 10
14.7545121904
 20
6.8087328886
 30
0.0
 10
14.731392136
 20
6.8111638104
 30
0.0
 10
14.7097558533
 20
6.8137936846
 30
0.0
 10
14.6844119633
 20
6.817258305
 30
0.0
 10
14.6578051197
 20
6.8214179099
 30
0.0
 10
14.6326585991
 20
6.8258851293
 30
0.0
 10
14.6171492842
 20
6.8288661403
 30
0.0
 10
14.610130596
 20
6.8302670431
 30
0.0
 10
14.6083552569
 20
6.8306247044
 30
0.0
  0
SPLINE
  5
2AE
100
AcDbEntity
  8
LAYER_CUT_FEAT
100
AcDbSpline
 62
7
  6
CONTINUOUS
 70
0
 71
3
 72
87
 73
83
 74
0
 42
0.0000001
 43
0.0000001
 44
0.0000000001
 40
0.0
 40
0.0
 40
0.0
 40
0.0
 40
0.0131061064
 40
0.0265341012
 40
0.0402890101
 40
0.0543738965
 40
0.0687891197
 40
0.076120495
 40
0.0835336261
 40
0.0910279775
 40
0.0986028828
 40
0.1062575789
 40
0.1139911728
 40
0.1296904548
 40
0.1456921938
 40
0.1619857641
 40
0.1785591579
 40
0.1953990993
 40
0.2124911526
 40
0.2298198244
 40
0.2473686602
 40
0.2651203393
 40
0.2830567649
 40
0.301159149
 40
0.3194080965
 40
0.3377836848
 40
0.3562655429
 40
0.3748329278
 40
0.3934648013
 40
0.4121399042
 40
0.4308368302
 40
0.4495340985
 40
0.4682102271
 40
0.4868438055
 40
0.5054135684
 40
0.52389847
 40
0.5422777575
 40
0.560531047
 40
0.5786384001
 40
0.5965804026
 40
0.6143382453
 40
0.6318938085
 40
0.6492297465
 40
0.6663295771
 40
0.6831777745
 40
0.6997598668
 40
0.7160625381
 40
0.7320737377
 40
0.7477827953
 40
0.7631805397
 40
0.778259427
 40
0.793013675
 40
0.8002681182
 40
0.8074401195
 40
0.8145295095
 40
0.8215362738
 40
0.8284605216
 40
0.835302528
 40
0.8487407577
 40
0.8618570634
 40
0.8682973768
 40
0.8746604255
 40
0.8809476548
 40
0.8871606837
 40
0.8993704007
 40
0.9113074567
 40
0.9171804893
 40
0.9229930802
 40
0.9287481961
 40
0.9344489961
 40
0.9400988276
 40
0.9457012099
 40
0.9512598448
 40
0.9567785876
 40
0.9622614548
 40
0.9677125992
 40
0.9731363025
 40
0.9785369604
 40
0.9839190614
 40
0.9892871765
 40
0.9946459327
 40
1.0
 40
1.0
 40
1.0
 40
1.0
 10
14.5296374127
 20
11.6146790083
 30
0.0
 10
14.5327080423
 20
11.6084217232
 30
0.0
 10
14.5392421956
 20
11.5959069275
 30
0.0
 10
14.5500443593
 20
11.5773943959
 30
0.0
 10
14.56194695
 20
11.55894672
 30
0.0
 10
14.5749289508
 20
11.5405959925
 30
0.0
 10
14.5865621945
 20
11.5254961729
 30
0.0
 10
14.5963797154
 20
11.5134907457
 30
0.0
 10
14.6040401836
 20
11.5044788084
 30
0.0
 10
14.6119528426
 20
11.4955140806
 30
0.0
 10
14.6201143084
 20
11.4866003032
 30
0.0
 10
14.6285211556
 20
11.4777413139
 30
0.0
 10
14.6401100822
 20
11.4659489021
 30
0.0
 10
14.6551943415
 20
11.4513722428
 30
0.0
 10
14.6741262327
 20
11.4342460688
 30
0.0
 10
14.6939462415
 20
11.4174282932
 30
0.0
 10
14.7146203868
 20
11.4009477041
 30
0.0
 10
14.7361134365
 20
11.3848323476
 30
0.0
 10
14.7583887022
 20
11.3691097094
 30
0.0
 10
14.7814081717
 20
11.3538066021
 30
0.0
 10
14.8051325507
 20
11.3389491294
 30
0.0
 10
14.8295213401
 20
11.3245626419
 30
0.0
 10
14.854532903
 20
11.3106716926
 30
0.0
 10
14.8801245368
 20
11.2972999934
 30
0.0
 10
14.9062525452
 20
11.2844703742
 30
0.0
 10
14.9328723135
 20
11.2722047432
 30
0.0
 10
14.9599383833
 20
11.2605240477
 30
0.0
 10
14.9874045294
 20
11.2494482327
 30
0.0
 10
15.0152238423
 20
11.2389962128
 30
0.0
 10
15.0433488088
 20
11.2291858386
 30
0.0
 10
15.0717313931
 20
11.220033866
 30
0.0
 10
15.1003231187
 20
11.2115559274
 30
0.0
 10
15.1290751521
 20
11.2037665055
 30
0.0
 10
15.157938386
 20
11.1966789058
 30
0.0
 10
15.186863523
 20
11.1903052302
 30
0.0
 10
15.2158011627
 20
11.1846563626
 30
0.0
 10
15.2447018859
 20
11.1797419495
 30
0.0
 10
15.2735163393
 20
11.1755703845
 30
0.0
 10
15.3021953199
 20
11.1721487934
 30
0.0
 10
15.3306898602
 20
11.1694830238
 30
0.0
 10
15.3589513122
 20
11.1675776317
 30
0.0
 10
15.3869314321
 20
11.1664358724
 30
0.0
 10
15.4145824634
 20
11.1660597016
 30
0.0
 10
15.4418572186
 20
11.1664497723
 30
0.0
 10
15.4687091596
 20
11.1676054358
 30
0.0
 10
15.495092478
 20
11.169524744
 30
0.0
 10
15.5209621719
 20
11.1722044554
 30
0.0
 10
15.546274132
 20
11.1756400408
 30
0.0
 10
15.5709851865
 20
11.1798256844
 30
0.0
 10
15.5950532875
 20
11.1847543323
 30
0.0
 10
15.6184371624
 20
11.190417603
 30
0.0
 10
15.6374261627
 20
11.1957710378
 30
0.0
 10
15.6522337823
 20
11.2004183367
 30
0.0
 10
15.6630817662
 20
11.2040614376
 30
0.0
 10
15.6737293576
 20
11.2078801131
 30
0.0
 10
15.6841720546
 20
11.211872676
 30
0.0
 10
15.6944054335
 20
11.2160375222
 30
0.0
 10
15.7076845971
 20
11.2217831335
 30
0.0
 10
15.723746846
 20
11.2293784111
 30
0.0
 10
15.739247037
 20
11.2376192381
 30
0.0
 10
15.7511704557
 20
11.2445389423
 30
0.0
 10
15.7598210659
 20
11.2498557863
 30
0.0
 10
15.7682300108
 20
11.2553287091
 30
0.0
 10
15.7790512523
 20
11.262787104
 30
0.0
 10
15.7919709941
 20
11.2724852535
 30
0.0
 10
15.8041816234
 20
11.2827856217
 30
0.0
 10
15.813413325
 20
11.291308912
 30
0.0
 10
15.8200354477
 20
11.2978056502
 30
0.0
 10
15.8263899863
 20
11.3044380324
 30
0.0
 10
15.8324742586
 20
11.3112032921
 30
0.0
 10
15.8382856636
 20
11.3180984961
 30
0.0
 10
15.843821636
 20
11.3251207582
 30
0.0
 10
15.8490798589
 20
11.3322670155
 30
0.0
 10
15.8540579874
 20
11.3395342686
 30
0.0
 10
15.8587539223
 20
11.3469193649
 30
0.0
 10
15.863165607
 20
11.3544191584
 30
0.0
 10
15.8672911174
 20
11.362030436
 30
0.0
 10
15.8711287164
 20
11.3697499067
 30
0.0
 10
15.8746766598
 20
11.377574281
 30
0.0
 10
15.8779335141
 20
11.3855001885
 30
0.0
 10
15.8808977423
 20
11.3935241139
 30
0.0
 10
15.8826783601
 20
11.3989375607
 30
0.0
 10
15.8835190538
 20
11.4016580314
 30
0.0
  0
SPLINE
  5
2AF
100
AcDbEntity
  8
LAYER_CUT_FEAT
100
AcDbSpline
 62
7
  6
CONTINUOUS
 70
0
 71
3
 72
87
 73
83
 74
0
 42
0.0000001
 43
0.0000001
 44
0.0000000001
 40
0.0
 40
0.0
 40
0.0
 40
0.0
 40
0.0131061064
 40
0.0265341012
 40
0.0402890101
 40
0.0543738965
 40
0.0687891197
 40
0.076120495
 40
0.0835336261
 40
0.0910279775
 40
0.0986028828
 40
0.1062575789
 40
0.1139911728
 40
0.1296904548
 40
0.1456921938
 40
0.1619857641
 40
0.1785591579
 40
0.1953990993
 40
0.2124911526
 40
0.2298198244
 40
0.2473686602
 40
0.2651203393
 40
0.2830567649
 40
0.301159149
 40
0.3194080965
 40
0.3377836848
 40
0.3562655429
 40
0.3748329278
 40
0.3934648013
 40
0.4121399042
 40
0.4308368302
 40
0.4495340985
 40
0.4682102271
 40
0.4868438055
 40
0.5054135684
 40
0.52389847
 40
0.5422777575
 40
0.560531047
 40
0.5786384001
 40
0.5965804026
 40
0.6143382453
 40
0.6318938085
 40
0.6492297465
 40
0.6663295771
 40
0.6831777745
 40
0.6997598668
 40
0.7160625381
 40
0.7320737377
 40
0.7477827953
 40
0.7631805397
 40
0.778259427
 40
0.793013675
 40
0.8002681182
 40
0.8074401195
 40
0.8145295095
 40
0.8215362738
 40
0.8284605216
 40
0.835302528
 40
0.8487407577
 40
0.8618570634
 40
0.8682973768
 40
0.8746604255
 40
0.8809476548
 40
0.8871606837
 40
0.8993704007
 40
0.9113074567
 40
0.9171804893
 40
0.9229930802
 40
0.9287481961
 40
0.9344489961
 40
0.9400988276
 40
0.9457012099
 40
0.9512598448
 40
0.9567785876
 40
0.9622614548
 40
0.9677125992
 40
0.9731363025
 40
0.9785369604
 40
0.9839190614
 40
0.9892871765
 40
0.9946459327
 40
1.0
 40
1.0
 40
1.0
 40
1.0
 10
15.866096915
 20
11.6146790083
 30
0.0
 10
15.8629922383
 20
11.6210056743
 30
0.0
 10
15.8563856342
 20
11.6336592341
 30
0.0
 10
15.8454636959
 20
11.6523770329
 30
0.0
 10
15.8334291292
 20
11.6710292568
 30
0.0
 10
15.8203031838
 20
11.6895834574
 30
0.0
 10
15.8085409507
 20
11.704850704
 30
0.0
 10
15.798614573
 20
11.7169892474
 30
0.0
 10
15.7908691654
 20
11.7261011092
 30
0.0
 10
15.7828687707
 20
11.735165238
 30
0.0
 10
15.7746168105
 20
11.7441778515
 30
0.0
 10
15.7661167481
 20
11.7531350693
 30
0.0
 10
15.7543993233
 20
11.7650582355
 30
0.0
 10
15.7391478096
 20
11.779796521
 30
0.0
 10
15.7200060013
 20
11.7971125902
 30
0.0
 10
15.6999662281
 20
11.8141168415
 30
0.0
 10
15.6790628476
 20
11.8307801676
 30
0.0
 10
15.6573314828
 20
11.8470742113
 30
0.0
 10
15.6348092287
 20
11.8629711822
 30
0.0
 10
15.6115345191
 20
11.8784439706
 30
0.0
 10
15.5875470838
 20
11.8934661832
 30
0.0
 10
15.5628878713
 20
11.9080121881
 30
0.0
 10
15.5375989799
 20
11.9220571605
 30
0.0
 10
15.5117235858
 20
11.9355771252
 30
0.0
 10
15.4853058697
 20
11.9485489994
 30
0.0
 10
15.4583909412
 20
11.9609506318
 30
0.0
 10
15.4310247625
 20
11.972760843
 30
0.0
 10
15.4032540715
 20
11.9839594668
 30
0.0
 10
15.3751262977
 20
11.9945273788
 30
0.0
 10
15.3466894812
 20
12.0044465305
 30
0.0
 10
15.3179921906
 20
12.0136999803
 30
0.0
 10
15.2890834396
 20
12.0222719224
 30
0.0
 10
15.2600126033
 20
12.0301477135
 30
0.0
 10
15.2308293336
 20
12.0373139005
 30
0.0
 10
15.2015834744
 20
12.0437582475
 30
0.0
 10
15.1723249738
 20
12.0494697499
 30
0.0
 10
15.143103799
 20
12.054438654
 30
0.0
 10
15.1139698507
 20
12.0586564734
 30
0.0
 10
15.0849728772
 20
12.0621160031
 30
0.0
 10
15.0561623891
 20
12.0648113308
 30
0.0
 10
15.0275875738
 20
12.0667378499
 30
0.0
 10
14.9992972101
 20
12.067892269
 30
0.0
 10
14.9713395838
 20
12.0682726109
 30
0.0
 10
14.9437624058
 20
12.067878215
 30
0.0
 10
14.9166127302
 20
12.0667097375
 30
0.0
 10
14.8899368732
 20
12.064769148
 30
0.0
 10
14.8637803359
 20
12.0620597239
 30
0.0
 10
14.8381877165
 20
12.0585860447
 30
0.0
 10
14.8132026655
 20
12.0543539907
 30
0.0
 10
14.7888676972
 20
12.0493706938
 30
0.0
 10
14.7652245417
 20
12.0436446288
 30
0.0
 10
14.7460249911
 20
12.038231835
 30
0.0
 10
14.7310531844
 20
12.0335330068
 30
0.0
 10
14.7200849179
 20
12.0298495111
 30
0.0
 10
14.709319266
 20
12.0259884942
 30
0.0
 10
14.6987607802
 20
12.0219516617
 30
0.0
 10
14.6884139335
 20
12.0177406356
 30
0.0
 10
14.6749875304
 20
12.0119313169
 30
0.0
 10
14.6587471831
 20
12.0042518228
 30
0.0
 10
14.6430751258
 20
11.9959196214
 30
0.0
 10
14.6310195001
 20
11.9889231914
 30
0.0
 10
14.6222729718
 20
11.9835473943
 30
0.0
 10
14.6137707885
 20
11.9780137876
 30
0.0
 10
14.6028295609
 20
11.9704726939
 30
0.0
 10
14.5897665649
 20
11.9606670113
 30
0.0
 10
14.577420544
 20
11.9502524324
 30
0.0
 10
14.5680864812
 20
11.9416346358
 30
0.0
 10
14.5613909323
 20
11.9350658617
 30
0.0
 10
14.5549659345
 20
11.9283599396
 30
0.0
 10
14.5488141997
 20
11.9215196666
 30
0.0
 10
14.5429383578
 20
11.9145480085
 30
0.0
 10
14.5373410024
 20
11.9074478835
 30
0.0
 10
14.5320244763
 20
11.9002223884
 30
0.0
 10
14.5269911503
 20
11.8928745559
 30
0.0
 10
14.5222431468
 20
11.8854075736
 30
0.0
 10
14.5177825453
 20
11.8778246223
 30
0.0
 10
14.5136112912
 20
11.8701289508
 30
0.0
 10
14.5097311409
 20
11.8623238865
 30
0.0
 10
14.5061438578
 20
11.8544127554
 30
0.0
 10
14.5028508915
 20
11.8463989654
 30
0.0
 10
14.4998537959
 20
11.8382860706
 30
0.0
 10
14.4980534346
 20
11.8328125994
 30
0.0
 10
14.4972034193
 20
11.8300619642
 30
0.0
  0
SPLINE
  5
2B0
100
AcDbEntity
  8
LAYER_FEATURE
100
AcDbSpline
 62
7
  6
CONTINUOUS
 70
0
 71
3
 72
53
 73
49
 74
0
 42
0.0000001
 43
0.0000001
 44
0.0000000001
 40
0.0
 40
0.0
 40
0.0
 40
0.0
 40
0.009989891
 40
0.0202815886
 40
0.0308781714
 40
0.0417815498
 40
0.0529925761
 40
0.0645110128
 40
0.0763358169
 40
0.0884649589
 40
0.1008957393
 40
0.1136246458
 40
0.1266475226
 40
0.1399596059
 40
0.1535554768
 40
0.1674292758
 40
0.1815745136
 40
0.1959843354
 40
0.2106513597
 40
0.2255678265
 40
0.2407255931
 40
0.2561161005
 40
0.2717305277
 40
0.2875596372
 40
0.3035939804
 40
0.3198237601
 40
0.3528286075
 40
0.3864918196
 40
0.4207269506
 40
0.4554447176
 40
0.4905534942
 40
0.5259597864
 40
0.5615686956
 40
0.5972843772
 40
0.633010493
 40
0.668650658
 40
0.7041088853
 40
0.7392900358
 40
0.7741002696
 40
0.8084475106
 40
0.8422419348
 40
0.875396403
 40
0.9078271898
 40
0.9394538227
 40
0.9549422492
 40
0.970202358
 40
0.9852250316
 40
1.0
 40
1.0
 40
1.0
 40
1.0
 10
16.6056767897
 20
12.181370734
 30
0.0
 10
16.6064204414
 20
12.1804797998
 30
0.0
 10
16.607897117
 20
12.1786431562
 30
0.0
 10
16.6100485757
 20
12.1757721492
 30
0.0
 10
16.6121676093
 20
12.1727466224
 30
0.0
 10
16.6142525154
 20
12.1695690161
 30
0.0
 10
16.6163016432
 20
12.1662418186
 30
0.0
 10
16.6183134215
 20
12.1627676873
 30
0.0
 10
16.6202862078
 20
12.1591493452
 30
0.0
 10
16.6222185013
 20
12.1553896823
 30
0.0
 10
16.6241087265
 20
12.1514916573
 30
0.0
 10
16.6259554161
 20
12.1474583709
 30
0.0
 10
16.6277571004
 20
12.143293017
 30
0.0
 10
16.6295123336
 20
12.1389988945
 30
0.0
 10
16.6312197593
 20
12.1345794196
 30
0.0
 10
16.6328779725
 20
12.1300380861
 30
0.0
 10
16.6344857083
 20
12.1253785118
 30
0.0
 10
16.6360416439
 20
12.1206043851
 30
0.0
 10
16.6375445728
 20
12.1157195042
 30
0.0
 10
16.6389932896
 20
12.1107277459
 30
0.0
 10
16.6403866316
 20
12.105633074
 30
0.0
 10
16.6417235198
 20
12.1004395405
 30
0.0
 10
16.6430028483
 20
12.0951512648
 30
0.0
 10
16.6442236454
 20
12.0897724585
 30
0.0
 10
16.6453849018
 20
12.0843073806
 30
0.0
 10
16.646860852
 20
12.0768700402
 30
0.0
 10
16.6485479466
 20
12.0673876773
 30
0.0
 10
16.6503101311
 20
12.0557979652
 30
0.0
 10
16.6518154791
 20
12.0439714957
 30
0.0
 10
16.6530591878
 20
12.0319458786
 30
0.0
 10
16.6540372886
 20
12.0197592881
 30
0.0
 10
16.6547466585
 20
12.0074504376
 30
0.0
 10
16.6551850339
 20
11.9950584287
 30
0.0
 10
16.6553510179
 20
11.9826226317
 30
0.0
 10
16.6552440816
 20
11.9701825565
 30
0.0
 10
16.6548645666
 20
11.9577777266
 30
0.0
 10
16.6542136838
 20
11.9454475523
 30
0.0
 10
16.6532935095
 20
11.9332312043
 30
0.0
 10
16.652106978
 20
11.9211674887
 30
0.0
 10
16.6506578747
 20
11.9092947177
 30
0.0
 10
16.6489508224
 20
11.8976505998
 30
0.0
 10
16.6469912713
 20
11.886272064
 30
0.0
 10
16.644785464
 20
11.875195324
 30
0.0
 10
16.642733966
 20
11.8661838439
 30
0.0
 10
16.6409722943
 20
11.8591550102
 30
0.0
 10
16.6396032106
 20
11.8540169062
 30
0.0
 10
16.6381782995
 20
11.848980099
 30
0.0
 10
16.637183523
 20
11.8456643899
 30
0.0
 10
16.6366767652
 20
11.844024521
 30
0.0
  0
SPLINE
  5
2B1
100
AcDbEntity
  8
LAYER_FEATURE
100
AcDbSpline
 62
7
  6
CONTINUOUS
 70
0
 71
3
 72
23
 73
19
 74
0
 42
0.0000001
 43
0.0000001
 44
0.0000000001
 40
0.0
 40
0.0
 40
0.0
 40
0.0
 40
0.050737734
 40
0.1030494454
 40
0.1569516352
 40
0.2124541105
 40
0.2695606749
 40
0.3282699019
 40
0.3885748141
 40
0.4504644586
 40
0.5139231194
 40
0.578931727
 40
0.6454663983
 40
0.7134999686
 40
0.7830039012
 40
0.8539483916
 40
0.9262966331
 40
1.0
 40
1.0
 40
1.0
 40
1.0
 10
16.6056767912
 20
11.7811812617
 30
0.0
 10
16.6064408738
 20
11.7820966676
 30
0.0
 10
16.6079577705
 20
11.7839853207
 30
0.0
 10
16.6101660773
 20
11.786940566
 30
0.0
 10
16.6123400616
 20
11.7900586716
 30
0.0
 10
16.614477895
 20
11.7933369743
 30
0.0
 10
16.6165778306
 20
11.7967727507
 30
0.0
 10
16.6186380892
 20
11.8003631429
 30
0.0
 10
16.620657007
 20
11.8041051326
 30
0.0
 10
16.622632845
 20
11.8079956207
 30
0.0
 10
16.6245640162
 20
11.8120313418
 30
0.0
 10
16.6264488498
 20
11.816208939
 30
0.0
 10
16.6282858067
 20
11.8205248789
 30
0.0
 10
16.6300733325
 20
11.824975556
 30
0.0
 10
16.6318099535
 20
11.8295573213
 30
0.0
 10
16.633494237
 20
11.8342664015
 30
0.0
 10
16.635124677
 20
11.8390986357
 30
0.0
 10
16.636165366
 20
11.8423696326
 30
0.0
 10
16.6366767652
 20
11.844024521
 30
0.0
  0
SPLINE
  5
2B2
100
AcDbEntity
  8
02___PRT_ALL_AXES
100
AcDbSpline
 62
7
  6
CONTINUOUS
 70
0
 71
3
 72
38
 73
34
 74
0
 42
0.0000001
 43
0.0000001
 44
0.0000000001
 40
0.0
 40
0.0
 40
0.0
 40
0.0
 40
0.0200409868
 40
0.0402428824
 40
0.0607000081
 40
0.0815030351
 40
0.1027374785
 40
0.1244831141
 40
0.1697794059
 40
0.193473992
 40
0.2179350034
 40
0.24321001
 40
0.2693409907
 40
0.2963647314
 40
0.3243124146
 40
0.3532109663
 40
0.3830832232
 40
0.4139475771
 40
0.4458193681
 40
0.478710696
 40
0.5126301849
 40
0.5475843168
 40
0.5835769409
 40
0.6206092868
 40
0.6586810642
 40
0.6977894951
 40
0.7379296416
 40
0.7790955249
 40
0.8212798753
 40
0.8644744135
 40
0.9086694753
 40
0.953850333
 40
1.0
 40
1.0
 40
1.0
 40
1.0
 10
16.5593899652
 20
11.7052760034
 30
0.0
 10
16.5588148885
 20
11.705276001
 30
0.0
 10
16.5576597202
 20
11.7053166359
 30
0.0
 10
16.555926156
 20
11.7054986316
 30
0.0
 10
16.5541873733
 20
11.7058016994
 30
0.0
 10
16.5524436637
 20
11.7062257088
 30
0.0
 10
16.5506950713
 20
11.7067704386
 30
0.0
 10
16.5483255059
 20
11.7076693456
 30
0.0
 10
16.5459755395
 20
11.7088046568
 30
0.0
 10
16.543655166
 20
11.7101501703
 30
0.0
 10
16.5418842797
 20
11.7112935672
 30
0.0
 10
16.5401094676
 20
11.7125554031
 30
0.0
 10
16.5383307774
 20
11.7139352505
 30
0.0
 10
16.5365484731
 20
11.7154325662
 30
0.0
 10
16.534762765
 20
11.7170467482
 30
0.0
 10
16.5329739299
 20
11.7187771665
 30
0.0
 10
16.5311822758
 20
11.7206231434
 30
0.0
 10
16.5293881166
 20
11.7225839264
 30
0.0
 10
16.5275918206
 20
11.7246587292
 30
0.0
 10
16.5257937842
 20
11.7268467054
 30
0.0
 10
16.5239944179
 20
11.7291469413
 30
0.0
 10
16.5221941834
 20
11.7315584799
 30
0.0
 10
16.5203935639
 20
11.7340803033
 30
0.0
 10
16.5185930646
 20
11.7367113353
 30
0.0
 10
16.5167932382
 20
11.7394504454
 30
0.0
 10
16.5149946607
 20
11.7422964314
 30
0.0
 10
16.513197939
 20
11.7452480281
 30
0.0
 10
16.511403708
 20
11.748303933
 30
0.0
 10
16.5096126114
 20
11.7514628221
 30
0.0
 10
16.5078253143
 20
11.7547233355
 30
0.0
 10
16.5060425528
 20
11.7580839764
 30
0.0
 10
16.5042651435
 20
11.7615430554
 30
0.0
 10
16.5030966114
 20
11.7638889395
 30
0.0
 10
16.5025132158
 20
11.7650777749
 30
0.0
  0
SPLINE
  5
2B3
100
AcDbEntity
  8
LAYER_CHAMFER_FEAT
100
AcDbSpline
 62
7
  6
CONTINUOUS
 70
0
 71
3
 72
29
 73
25
 74
0
 42
0.0000001
 43
0.0000001
 44
0.0000000001
 40
0.0
 40
0.0
 40
0.0
 40
0.0
 40
0.073946061
 40
0.1460958742
 40
0.2164537027
 40
0.285038464
 40
0.3518846658
 40
0.4170433704
 40
0.4805831262
 40
0.5425907775
 40
0.6031718924
 40
0.6624509219
 40
0.6916503436
 40
0.7205794713
 40
0.7492589508
 40
0.777710456
 40
0.8059566838
 40
0.8340211526
 40
0.8619282426
 40
0.8897030433
 40
0.9173712308
 40
0.9449590249
 40
0.9724929995
 40
1.0
 40
1.0
 40
1.0
 40
1.0
 10
14.9746546349
 20
11.8755868123
 30
0.0
 10
14.9706290575
 20
11.8743542236
 30
0.0
 10
14.9627241939
 20
11.8717565322
 30
0.0
 10
14.9511904571
 20
11.8674045759
 30
0.0
 10
14.9401465735
 20
11.8626527855
 30
0.0
 10
14.9296138864
 20
11.8575101469
 30
0.0
 10
14.9196124716
 20
11.8519862509
 30
0.0
 10
14.9101615197
 20
11.8460913957
 30
0.0
 10
14.9012792313
 20
11.839836578
 30
0.0
 10
14.8929826946
 20
11.8332334154
 30
0.0
 10
14.885288241
 20
11.8262945115
 30
0.0
 10
14.8793603027
 20
11.8202120713
 30
0.0
 10
14.8749424118
 20
11.815194182
 30
0.0
 10
14.8718046715
 20
11.8113743141
 30
0.0
 10
14.8688278367
 20
11.8074812617
 30
0.0
 10
14.866013337
 20
11.8035168222
 30
0.0
 10
14.8633624885
 20
11.7994829504
 30
0.0
 10
14.8608766299
 20
11.7953815391
 30
0.0
 10
14.8585569513
 20
11.7912145748
 30
0.0
 10
14.8564045456
 20
11.7869840751
 30
0.0
 10
14.8544205308
 20
11.7826920484
 30
0.0
 10
14.852605797
 20
11.7783405728
 30
0.0
 10
14.8509612742
 20
11.7739318206
 30
0.0
 10
14.8499787275
 20
11.7709551798
 30
0.0
 10
14.8495163447
 20
11.769458908
 30
0.0
  0
SPLINE
  5
2B4
100
AcDbEntity
  8
LAYER_CHAMFER_FEAT
100
AcDbSpline
 62
7
  6
CONTINUOUS
 70
0
 71
3
 72
29
 73
25
 74
0
 42
0.0000001
 43
0.0000001
 44
0.0000000001
 40
0.0
 40
0.0
 40
0.0
 40
0.0
 40
0.0739363251
 40
0.1460774412
 40
0.2164277495
 40
0.2850062898
 40
0.3518476759
 40
0.4170030497
 40
0.480541003
 40
0.542548392
 40
0.6031307658
 40
0.6624125162
 40
0.6916138098
 40
0.7205451344
 40
0.7492271117
 40
0.7776813988
 40
0.805930666
 40
0.8339984039
 40
0.8619089671
 40
0.8896874118
 40
0.9173593831
 40
0.9449510672
 40
0.9724890026
 40
1.0
 40
1.0
 40
1.0
 40
1.0
 10
15.5227288959
 20
11.7061303469
 30
0.0
 10
15.5253529904
 20
11.702843593
 30
0.0
 10
15.5304058645
 20
11.6962433093
 30
0.0
 10
15.5374616597
 20
11.6861498525
 30
0.0
 10
15.543888221
 20
11.6760029081
 30
0.0
 10
15.5496730351
 20
11.6658218956
 30
0.0
 10
15.5548049741
 20
11.6556260185
 30
0.0
 10
15.5592740377
 20
11.6454345647
 30
0.0
 10
15.5630714292
 20
11.6352668384
 30
0.0
 10
15.5661896188
 20
11.6251420301
 30
0.0
 10
15.5686222565
 20
11.6150797167
 30
0.0
 10
15.5700812913
 20
11.6067199304
 30
0.0
 10
15.5708954275
 20
11.6000896626
 30
0.0
 10
15.571329403
 20
11.5951693942
 30
0.0
 10
15.5715894879
 20
11.5902794509
 30
0.0
 10
15.5716755246
 20
11.585422119
 30
0.0
 10
15.5715875268
 20
11.580599749
 30
0.0
 10
15.5713254541
 20
11.5758146544
 30
0.0
 10
15.5708894523
 20
11.571069141
 30
0.0
 10
15.5702797504
 20
11.5663654864
 30
0.0
 10
15.5694965605
 20
11.5617059745
 30
0.0
 10
15.5685403223
 20
11.5570928176
 30
0.0
 10
15.5674114861
 20
11.5525283302
 30
0.0
 10
15.5665439984
 20
11.5495185547
 30
0.0
 10
15.5660819565
 20
11.548023386
 30
0.0
  0
SPLINE
  5
2B5
100
AcDbEntity
  8
02___PRT_ALL_AXES
100
AcDbSpline
 62
7
  6
CONTINUOUS
 70
0
 71
3
 72
66
 73
62
 74
0
 42
0.0000001
 43
0.0000001
 44
0.0000000001
 40
0.0
 40
0.0
 40
0.0
 40
0.0
 40
0.0135993159
 40
0.0271783496
 40
0.040743505
 40
0.0543014055
 40
0.0610801709
 40
0.0678597097
 40
0.08142386
 40
0.0950019078
 40
0.1086012475
 40
0.1222294141
 40
0.1358940324
 40
0.1496027891
 40
0.1633633818
 40
0.177183456
 40
0.1910705866
 40
0.2050321893
 40
0.2190754901
 40
0.2332074419
 40
0.2474346955
 40
0.2617635319
 40
0.2761998059
 40
0.2907489115
 40
0.3054157114
 40
0.3202045385
 40
0.3351191205
 40
0.3501625733
 40
0.3653373653
 40
0.3806453117
 40
0.3960875552
 40
0.4116645434
 40
0.4273760493
 40
0.4591944664
 40
0.4753012666
 40
0.4915348168
 40
0.5243638453
 40
0.5576483839
 40
0.5913418313
 40
0.6253881696
 40
0.6597224943
 40
0.6769762563
 40
0.694273955
 40
0.7116052875
 40
0.7289595252
 40
0.7463255781
 40
0.7636919734
 40
0.7810469485
 40
0.798378455
 40
0.8156742301
 40
0.832921821
 40
0.8501086579
 40
0.8672220976
 40
0.8842494888
 40
0.9011782398
 40
0.9179959449
 40
0.9346902926
 40
0.9512490979
 40
0.967661104
 40
0.9839156724
 40
1.0
 40
1.0
 40
1.0
 40
1.0
 10
15.1431755788
 20
12.9425727305
 30
0.0
 10
15.1442531849
 20
12.9403767924
 30
0.0
 10
15.1463129158
 20
12.935941394
 30
0.0
 10
15.1491109289
 20
12.9291657054
 30
0.0
 10
15.1516105428
 20
12.9222821857
 30
0.0
 10
15.153441672
 20
12.916463545
 30
0.0
 10
15.1547532006
 20
12.911765479
 30
0.0
 10
15.1559623835
 20
12.9070388772
 30
0.0
 10
15.1572808545
 20
12.9010794123
 30
0.0
 10
15.1585505657
 20
12.8938598027
 30
0.0
 10
15.1595055284
 20
12.8865801778
 30
0.0
 10
15.1601437336
 20
12.8792503646
 30
0.0
 10
15.1604634218
 20
12.8718800702
 30
0.0
 10
15.1604634258
 20
12.8644790396
 30
0.0
 10
15.1601429611
 20
12.8570569765
 30
0.0
 10
15.159501703
 20
12.8496235435
 30
0.0
 10
15.1585399193
 20
12.8421883181
 30
0.0
 10
15.1572581817
 20
12.8347608037
 30
0.0
 10
15.1556578066
 20
12.8273503468
 30
0.0
 10
15.1537403558
 20
12.8199661964
 30
0.0
 10
15.1515081201
 20
12.8126173841
 30
0.0
 10
15.1489637344
 20
12.8053127865
 30
0.0
 10
15.1461103853
 20
12.7980610555
 30
0.0
 10
15.1429517868
 20
12.7908705895
 30
0.0
 10
15.1394919865
 20
12.7837495968
 30
0.0
 10
15.1357356897
 20
12.7767059254
 30
0.0
 10
15.1316878074
 20
12.7697472612
 30
0.0
 10
15.1273538916
 20
12.7628808821
 30
0.0
 10
15.1227397163
 20
12.756113874
 30
0.0
 10
15.1178515316
 20
12.7494529485
 30
0.0
 10
15.1126959411
 20
12.7429045607
 30
0.0
 10
15.1072797241
 20
12.7364747848
 30
0.0
 10
15.0996892211
 20
12.728033017
 30
0.0
 10
15.091634296
 20
12.7198884568
 30
0.0
 10
15.0831584389
 20
12.7120549282
 30
0.0
 10
15.0743191977
 20
12.7043537948
 30
0.0
 10
15.0627359125
 20
12.6951091156
 30
0.0
 10
15.0481075176
 20
12.6846885554
 30
0.0
 10
15.0327708633
 20
12.6749279993
 30
0.0
 10
15.0168018096
 20
12.6658537756
 30
0.0
 10
15.0030537393
 20
12.6588942995
 30
0.0
 10
14.9918100249
 20
12.6536863271
 30
0.0
 10
14.9832537183
 20
12.6499589059
 30
0.0
 10
14.9745986615
 20
12.6464190939
 30
0.0
 10
14.9658552324
 20
12.643069051
 30
0.0
 10
14.9570339854
 20
12.639910929
 30
0.0
 10
14.9481455859
 20
12.6369466814
 30
0.0
 10
14.9392007849
 20
12.6341782249
 30
0.0
 10
14.9302104379
 20
12.6316073065
 30
0.0
 10
14.9211854718
 20
12.6292355975
 30
0.0
 10
14.9121368829
 20
12.6270646435
 30
0.0
 10
14.9030757243
 20
12.6250958602
 30
0.0
 10
14.894013077
 20
12.623330581
 30
0.0
 10
14.884960052
 20
12.6217699594
 30
0.0
 10
14.8759277352
 20
12.6204150844
 30
0.0
 10
14.8669272065
 20
12.6192668606
 30
0.0
 10
14.8579695254
 20
12.6183261039
 30
0.0
 10
14.8490656342
 20
12.6175934381
 30
0.0
 10
14.8402262396
 20
12.6170693905
 30
0.0
 10
14.8314623605
 20
12.6167543836
 30
0.0
 10
14.8256453678
 20
12.6166834315
 30
0.0
 10
14.8227522967
 20
12.6166834315
 30
0.0
  0
SPLINE
  5
2B6
100
AcDbEntity
  8
LAYER_CUT_FEAT
100
AcDbSpline
 62
7
  6
CONTINUOUS
 70
0
 71
3
 72
27
 73
23
 74
0
 42
0.0000001
 43
0.0000001
 44
0.0000000001
 40
0.0
 40
0.0
 40
0.0
 40
0.0
 40
0.0290769695
 40
0.0581681962
 40
0.087287898
 40
0.1164502256
 40
0.145669236
 40
0.1749588348
 40
0.2043327664
 40
0.2338045919
 40
0.2930899057
 40
0.3529232793
 40
0.4134031746
 40
0.4746225496
 40
0.5366682669
 40
0.5996205807
 40
0.6635530745
 40
0.7285324239
 40
0.7946175931
 40
0.8618611423
 40
0.9303108282
 40
1.0
 40
1.0
 40
1.0
 40
1.0
 10
15.8911624205
 20
11.3992960524
 30
0.0
 10
15.8917982149
 20
11.4013534726
 30
0.0
 10
15.8930145719
 20
11.4054867236
 30
0.0
 10
15.8946716287
 20
11.4117359856
 30
0.0
 10
15.8961610706
 20
11.4180338469
 30
0.0
 10
15.8974825096
 20
11.4243787387
 30
0.0
 10
15.8986355988
 20
11.4307691625
 30
0.0
 10
15.8996201086
 20
11.4372035547
 30
0.0
 10
15.9004358
 20
11.4436804291
 30
0.0
 10
15.9012996395
 20
11.4523872163
 30
0.0
 10
15.9019544462
 20
11.4633776607
 30
0.0
 10
15.9020602078
 20
11.4766838055
 30
0.0
 10
15.9014877568
 20
11.4901214249
 30
0.0
 10
15.9002377197
 20
11.5036773111
 30
0.0
 10
15.8983114405
 20
11.5173384771
 30
0.0
 10
15.8957109818
 20
11.5310918008
 30
0.0
 10
15.8924389356
 20
11.5449241136
 30
0.0
 10
15.8884985761
 20
11.5588221678
 30
0.0
 10
15.8838938862
 20
11.5727726865
 30
0.0
 10
15.8786292484
 20
11.5867625521
 30
0.0
 10
15.8727099532
 20
11.6007779849
 30
0.0
 10
15.8683706125
 20
11.6100457
 30
0.0
 10
15.866096915
 20
11.6146790083
 30
0.0
  0
SPLINE
  5
2B7
100
AcDbEntity
  8
LAYER_CUT_FEAT
100
AcDbSpline
 62
7
  6
CONTINUOUS
 70
0
 71
3
 72
27
 73
23
 74
0
 42
0.0000001
 43
0.0000001
 44
0.0000000001
 40
0.0
 40
0.0
 40
0.0
 40
0.0
 40
0.0290769695
 40
0.0581681962
 40
0.087287898
 40
0.1164502256
 40
0.145669236
 40
0.1749588348
 40
0.2043327664
 40
0.2338045919
 40
0.2930899057
 40
0.3529232793
 40
0.4134031746
 40
0.4746225496
 40
0.5366682669
 40
0.5996205807
 40
0.6635530745
 40
0.7285324239
 40
0.7946175931
 40
0.8618611423
 40
0.9303108282
 40
1.0
 40
1.0
 40
1.0
 40
1.0
 10
14.504846786
 20
11.8276999852
 30
0.0
 10
14.5042179639
 20
11.8256651275
 30
0.0
 10
14.503014946
 20
11.8215772035
 30
0.0
 10
14.5013760612
 20
11.8153964735
 30
0.0
 10
14.4999029531
 20
11.8091676772
 30
0.0
 10
14.4985960056
 20
11.8028923661
 30
0.0
 10
14.4974555616
 20
11.7965720223
 30
0.0
 10
14.4964818483
 20
11.7902081923
 30
0.0
 10
14.4956751022
 20
11.7838023461
 30
0.0
 10
14.4948207359
 20
11.7751910411
 30
0.0
 10
14.4941731101
 20
11.7643211224
 30
0.0
 10
14.4940685083
 20
11.7511608984
 30
0.0
 10
14.4946346816
 20
11.7378706414
 30
0.0
 10
14.4958710103
 20
11.7244634148
 30
0.0
 10
14.4977761651
 20
11.7109520627
 30
0.0
 10
14.500348106
 20
11.6973495638
 30
0.0
 10
14.5035842696
 20
11.6836689418
 30
0.0
 10
14.5074814176
 20
11.6699232994
 30
0.0
 10
14.5120356105
 20
11.656125768
 30
0.0
 10
14.5172425141
 20
11.642289321
 30
0.0
 10
14.5230968959
 20
11.6284275873
 30
0.0
 10
14.5273886496
 20
11.6192615058
 30
0.0
 10
14.5296374127
 20
11.6146790083
 30
0.0
  0
SPLINE
  5
2B8
100
AcDbEntity
  8
LAYER_CHAMFER_FEAT
100
AcDbSpline
 62
7
  6
CONTINUOUS
 70
0
 71
3
 72
39
 73
35
 74
0
 42
0.0000001
 43
0.0000001
 44
0.0000000001
 40
0.0
 40
0.0
 40
0.0
 40
0.0
 40
0.0378630326
 40
0.0752495755
 40
0.1121557739
 40
0.1485787272
 40
0.1845166155
 40
0.2199686539
 40
0.2549352166
 40
0.2894178354
 40
0.3234192538
 40
0.3569435083
 40
0.3899959057
 40
0.4225831554
 40
0.4547133269
 40
0.4863959534
 40
0.5176420395
 40
0.548464082
 40
0.5788761418
 40
0.6088937926
 40
0.6385342064
 40
0.667816088
 40
0.6967597012
 40
0.7253868352
 40
0.7537207423
 40
0.7817861234
 40
0.8096090038
 40
0.8372166884
 40
0.8646376209
 40
0.8919012712
 40
0.9190379972
 40
0.9460788729
 40
0.9730555373
 40
1.0
 40
1.0
 40
1.0
 40
1.0
 10
14.6128971143
 20
13.0549838446
 30
0.0
 10
14.6042558573
 20
13.0529516057
 30
0.0
 10
14.5871238217
 20
13.0487325787
 30
0.0
 10
14.561731673
 20
13.0418936641
 30
0.0
 10
14.5368212777
 20
13.0345880799
 30
0.0
 10
14.5124073214
 20
13.0268200276
 30
0.0
 10
14.4885039758
 20
13.0185940838
 30
0.0
 10
14.4651252038
 20
13.0099149537
 30
0.0
 10
14.4422846191
 20
13.0007877138
 30
0.0
 10
14.4199955412
 20
12.9912176456
 30
0.0
 10
14.3982709787
 20
12.9812102679
 30
0.0
 10
14.3771235786
 20
12.9707714367
 30
0.0
 10
14.3565657125
 20
12.9599071215
 30
0.0
 10
14.3366093426
 20
12.9486236911
 30
0.0
 10
14.3172661498
 20
12.936927619
 30
0.0
 10
14.2985474206
 20
12.9248257055
 30
0.0
 10
14.2804640907
 20
12.9123249648
 30
0.0
 10
14.2630267685
 20
12.8994325923
 30
0.0
 10
14.2462456177
 20
12.8861561213
 30
0.0
 10
14.2301305313
 20
12.8725031671
 30
0.0
 10
14.2146909139
 20
12.8584817114
 30
0.0
 10
14.199935873
 20
12.8440998434
 30
0.0
 10
14.1858740838
 20
12.829365924
 30
0.0
 10
14.1725138088
 20
12.8142885377
 30
0.0
 10
14.159862989
 20
12.7988764086
 30
0.0
 10
14.147929029
 20
12.78313858
 30
0.0
 10
14.1367190725
 20
12.7670841733
 30
0.0
 10
14.1262397023
 20
12.7507226193
 30
0.0
 10
14.1164971708
 20
12.7340634747
 30
0.0
 10
14.107497272
 20
12.7171164977
 30
0.0
 10
14.0992453129
 20
12.6998916969
 30
0.0
 10
14.0917462464
 20
12.6823990488
 30
0.0
 10
14.0850045509
 20
12.6646493226
 30
0.0
 10
14.0810166219
 20
12.6526482902
 30
0.0
 10
14.0791514961
 20
12.6466127594
 30
0.0
  0
SPLINE
  5
2B9
100
AcDbEntity
  8
LAYER_CHAMFER_FEAT
100
AcDbSpline
 62
7
  6
CONTINUOUS
 70
0
 71
3
 72
40
 73
36
 74
0
 42
0.0000001
 43
0.0000001
 44
0.0000000001
 40
0.0
 40
0.0
 40
0.0
 40
0.0
 40
0.03786297
 40
0.0752494669
 40
0.1121555981
 40
0.1485785072
 40
0.184516335
 40
0.2199683223
 40
0.2549348367
 40
0.2894173956
 40
0.323418774
 40
0.3569429667
 40
0.3899953234
 40
0.4225825202
 40
0.454712643
 40
0.4863952279
 40
0.5176412582
 40
0.5484632644
 40
0.5788752697
 40
0.6088928813
 40
0.6385332495
 40
0.6678150848
 40
0.6967586604
 40
0.7253857444
 40
0.7537196156
 40
0.7817849499
 40
0.8096077908
 40
0.8372154348
 40
0.8646363239
 40
0.8918999365
 40
0.9190366191
 40
0.9460774559
 40
0.9730540796
 40
0.9865290544
 40
1.0
 40
1.0
 40
1.0
 40
1.0
 10
16.4867043852
 20
12.4759336035
 30
0.0
 10
16.4926925832
 20
12.4693805296
 30
0.0
 10
16.5044575116
 20
12.4562316389
 30
0.0
 10
16.5215644525
 20
12.4362595474
 30
0.0
 10
16.5380102907
 20
12.4161738842
 30
0.0
 10
16.5537853854
 20
12.3959865076
 30
0.0
 10
16.5688805161
 20
12.3757091016
 30
0.0
 10
16.5832868785
 20
12.3553534888
 30
0.0
 10
16.5969960752
 20
12.3349315217
 30
0.0
 10
16.6100000523
 20
12.3144550514
 30
0.0
 10
16.6222912708
 20
12.2939360339
 30
0.0
 10
16.6338624693
 20
12.2733863579
 30
0.0
 10
16.6447069331
 20
12.2528180152
 30
0.0
 10
16.6548182695
 20
12.2322429468
 30
0.0
 10
16.664190545
 20
12.2116731231
 30
0.0
 10
16.6728182851
 20
12.1911205267
 30
0.0
 10
16.6806963406
 20
12.1705970857
 30
0.0
 10
16.6878201439
 20
12.1501147805
 30
0.0
 10
16.6941853949
 20
12.1296855036
 30
0.0
 10
16.6997883723
 20
12.1093211782
 30
0.0
 10
16.7046257082
 20
12.089033664
 30
0.0
 10
16.7086944807
 20
12.0688347917
 30
0.0
 10
16.7119922919
 20
12.0487363659
 30
0.0
 10
16.7145170396
 20
12.0287501153
 30
0.0
 10
16.7162672618
 20
12.0088877481
 30
0.0
 10
16.7172417646
 20
11.989160887
 30
0.0
 10
16.7174399468
 20
11.9695811069
 30
0.0
 10
16.7168616099
 20
11.9501599028
 30
0.0
 10
16.7155069776
 20
11.9309086915
 30
0.0
 10
16.7133768704
 20
11.9118388134
 30
0.0
 10
16.7104723631
 20
11.8929614547
 30
0.0
 10
16.7067953001
 20
11.8742879543
 30
0.0
 10
16.7030874368
 20
11.8588995699
 30
0.0
 10
16.6997386861
 20
11.8467082141
 30
0.0
 10
16.697937069
 20
11.8406524483
 30
0.0
 10
16.6970045937
 20
11.8376349664
 30
0.0
  0
SPLINE
  5
2BA
100
AcDbEntity
  8
LAYER_FEATURE
100
AcDbSpline
 62
7
  6
CONTINUOUS
 70
0
 71
3
 72
36
 73
32
 74
0
 42
0.0000001
 43
0.0000001
 44
0.0000000001
 40
0.0
 40
0.0
 40
0.0
 40
0.0
 40
0.027688775
 40
0.0554029039
 40
0.0831676295
 40
0.11100796
 40
0.138948576
 40
0.1670137025
 40
0.1952270383
 40
0.2236116308
 40
0.2521898289
 40
0.280983168
 40
0.3100123458
 40
0.3392971223
 40
0.3688563152
 40
0.3987077195
 40
0.4288681174
 40
0.4593532198
 40
0.4901776851
 40
0.5213550841
 40
0.584811354
 40
0.6171182902
 40
0.6498217804
 40
0.7164451454
 40
0.7503840032
 40
0.7847466003
 40
0.8195373133
 40
0.8547596305
 40
0.8904161298
 40
0.9265085636
 40
1.0
 40
1.0
 40
1.0
 40
1.0
 10
14.4081196219
 20
13.711154032
 30
0.0
 10
14.4064873232
 20
13.7058719065
 30
0.0
 10
14.4034161824
 20
13.6952414373
 30
0.0
 10
14.399398134
 20
13.6791252117
 30
0.0
 10
14.3959696309
 20
13.6628422126
 30
0.0
 10
14.3931321794
 20
13.6464000867
 30
0.0
 10
14.3908871235
 20
13.6298061494
 30
0.0
 10
14.389235349
 20
13.6130679089
 30
0.0
 10
14.3881776691
 20
13.5961928863
 30
0.0
 10
14.3877144302
 20
13.5791886792
 30
0.0
 10
14.3878458933
 20
13.56206293
 30
0.0
 10
14.3885718765
 20
13.5448233287
 30
0.0
 10
14.3898920889
 20
13.5274776168
 30
0.0
 10
14.391805827
 20
13.5100335655
 30
0.0
 10
14.3943122514
 20
13.4924989976
 30
0.0
 10
14.397410142
 20
13.4748817581
 30
0.0
 10
14.4010981204
 20
13.4571897227
 30
0.0
 10
14.4053744374
 20
13.4394308494
 30
0.0
 10
14.4102372475
 20
13.4216128644
 30
0.0
 10
14.4175422312
 20
13.3976486378
 30
0.0
 10
14.4259835718
 20
13.3737325817
 30
0.0
 10
14.4355043096
 20
13.349911608
 30
0.0
 10
14.4459101083
 20
13.3257731627
 30
0.0
 10
14.4574051656
 20
13.301759934
 30
0.0
 10
14.4699309471
 20
13.277906518
 30
0.0
 10
14.4799413058
 20
13.2599178081
 30
0.0
 10
14.4905043938
 20
13.2419504045
 30
0.0
 10
14.5016156111
 20
13.2240121459
 30
0.0
 10
14.5132700219
 20
13.2061108977
 30
0.0
 10
14.5296239288
 20
13.1821600653
 30
0.0
 10
14.5425458148
 20
13.1644922018
 30
0.0
 10
14.551446034
 20
13.152825547
 30
0.0
  0
SPLINE
  5
2BB
100
AcDbEntity
  8
LAYER_FEATURE
100
AcDbSpline
 62
7
  6
CONTINUOUS
 70
0
 71
3
 72
37
 73
33
 74
0
 42
0.0000001
 43
0.0000001
 44
0.0000000001
 40
0.0
 40
0.0
 40
0.0
 40
0.0
 40
0.0275848452
 40
0.0551959568
 40
0.082859481
 40
0.1106013117
 40
0.1384469901
 40
0.1664215678
 40
0.1945495293
 40
0.2228546623
 40
0.2513600015
 40
0.2800877157
 40
0.3090590699
 40
0.3382943376
 40
0.3678127744
 40
0.3976325631
 40
0.4277707907
 40
0.4582434299
 40
0.4890653127
 40
0.5202501504
 40
0.5518104962
 40
0.5837578035
 40
0.6161023741
 40
0.6488534496
 40
0.7156010501
 40
0.7496162234
 40
0.7840642174
 40
0.8189490697
 40
0.8542739258
 40
0.8900409593
 40
0.9262515071
 40
1.0
 40
1.0
 40
1.0
 40
1.0
 10
17.025972735
 20
12.9021762342
 30
0.0
 10
17.0243081597
 20
12.8967896617
 30
0.0
 10
17.0207739963
 20
12.8860730457
 30
0.0
 10
17.0148673231
 20
12.8701972935
 30
0.0
 10
17.0083566933
 20
12.8545245254
 30
0.0
 10
17.0012453793
 20
12.8390623352
 30
0.0
 10
16.993536604
 20
12.8238179263
 30
0.0
 10
16.9852341063
 20
12.8087983969
 30
0.0
 10
16.9763417132
 20
12.7940108043
 30
0.0
 10
16.9668636931
 20
12.779462001
 30
0.0
 10
16.956804447
 20
12.7651588081
 30
0.0
 10
16.9461687618
 20
12.7511078444
 30
0.0
 10
16.9349615998
 20
12.7373156722
 30
0.0
 10
16.9231882526
 20
12.7237886733
 30
0.0
 10
16.9108542295
 20
12.710533136
 30
0.0
 10
16.8979653158
 20
12.6975552006
 30
0.0
 10
16.8845275521
 20
12.6848608696
 30
0.0
 10
16.8705472084
 20
12.6724560364
 30
0.0
 10
16.8560308396
 20
12.6603464085
 30
0.0
 10
16.8409851955
 20
12.6485376266
 30
0.0
 10
16.8254173176
 20
12.63703509
 30
0.0
 10
16.8093344692
 20
12.6258442014
 30
0.0
 10
16.7927440061
 20
12.6149699561
 30
0.0
 10
16.7698136865
 20
12.6008115567
 30
0.0
 10
16.7460303911
 20
12.5874031564
 30
0.0
 10
16.7214657011
 20
12.5747392848
 30
0.0
 10
16.7024580777
 20
12.5655212197
 30
0.0
 10
16.6829928727
 20
12.5566478468
 30
0.0
 10
16.6630788932
 20
12.5481232345
 30
0.0
 10
16.6427252911
 20
12.5399512041
 30
0.0
 10
16.6148455561
 20
12.5294672335
 30
0.0
 10
16.5935551155
 20
12.5222429494
 30
0.0
 10
16.5791860263
 20
12.5176904445
 30
0.0
  0
SPLINE
  5
2BC
100
AcDbEntity
  8
02___PRT_ALL_AXES
100
AcDbSpline
 62
7
  6
CONTINUOUS
 70
0
 71
3
 72
82
 73
78
 74
0
 42
0.0000001
 43
0.0000001
 44
0.0000000001
 40
0.0
 40
0.0
 40
0.0
 40
0.0
 40
0.0053117365
 40
0.0106263082
 40
0.0159465426
 40
0.0212752529
 40
0.0266152292
 40
0.0319692331
 40
0.0373399896
 40
0.042730181
 40
0.0481424407
 40
0.0535793469
 40
0.059043418
 40
0.0645371059
 40
0.0700627941
 40
0.0756227901
 40
0.0812193252
 40
0.0868545483
 40
0.0925305252
 40
0.0982492358
 40
0.1040125708
 40
0.1098223331
 40
0.1215871149
 40
0.1335569893
 40
0.1396227241
 40
0.1457437795
 40
0.1581557548
 40
0.1708018476
 40
0.1836888945
 40
0.1968223804
 40
0.2102064891
 40
0.223844159
 40
0.2377371402
 40
0.2518860537
 40
0.2662904497
 40
0.280948865
 40
0.2958588803
 40
0.3110171742
 40
0.3264195764
 40
0.3420611186
 40
0.3579360829
 40
0.3740380487
 40
0.3903599369
 40
0.4068940525
 40
0.4236321255
 40
0.4405653501
 40
0.4576844219
 40
0.4749795744
 40
0.492440614
 40
0.510056953
 40
0.5278176429
 40
0.5457114056
 40
0.5637266644
 40
0.5818515739
 40
0.6000740497
 40
0.618381797
 40
0.6367623393
 40
0.6552030461
 40
0.6736911607
 40
0.6922138274
 40
0.7107581188
 40
0.7293110627
 40
0.7478596689
 40
0.7663909562
 40
0.7848919794
 40
0.803349856
 40
0.8217517934
 40
0.840085116
 40
0.858337293
 40
0.8764959662
 40
0.8945489782
 40
0.9124844008
 40
0.9302905656
 40
0.9479560886
 40
0.9654699205
 40
0.9828213139
 40
1.0
 40
1.0
 40
1.0
 40
1.0
 10
13.8852563651
 20
12.0191679067
 30
0.0
 10
13.8840104773
 20
12.0151362086
 30
0.0
 10
13.8816315976
 20
12.0070350614
 30
0.0
 10
13.8784057582
 20
11.9947825609
 30
0.0
 10
13.8755227517
 20
11.9824309429
 30
0.0
 10
13.872983395
 20
11.9699835606
 30
0.0
 10
13.8707883131
 20
11.9574436429
 30
0.0
 10
13.8689380987
 20
11.9448144767
 30
0.0
 10
13.8674332148
 20
11.9320993659
 30
0.0
 10
13.8662740533
 20
11.9193016363
 30
0.0
 10
13.8654609133
 20
11.9064246342
 30
0.0
 10
13.8649939858
 20
11.8934717264
 30
0.0
 10
13.8648734033
 20
11.8804462977
 30
0.0
 10
13.8650991633
 20
11.8673517503
 30
0.0
 10
13.8656712213
 20
11.8541915047
 30
0.0
 10
13.8665893951
 20
11.8409689951
 30
0.0
 10
13.8678534503
 20
11.8276876725
 30
0.0
 10
13.8694630376
 20
11.8143510023
 30
0.0
 10
13.8714177266
 20
11.8009624562
 30
0.0
 10
13.8737170002
 20
11.7875255463
 30
0.0
 10
13.8763602535
 20
11.7740436937
 30
0.0
 10
13.8803587577
 20
11.7559381395
 30
0.0
 10
13.8862258092
 20
11.7332030223
 30
0.0
 10
13.8931732397
 20
11.7105624418
 30
0.0
 10
13.8993977329
 20
11.6924077654
 30
0.0
 10
13.9061305865
 20
11.6740607941
 30
0.0
 10
13.9153992632
 20
11.6510822985
 30
0.0
 10
13.9278022319
 20
11.6235988171
 30
0.0
 10
13.9415238906
 20
11.5961074232
 30
0.0
 10
13.9565496782
 20
11.5686369252
 30
0.0
 10
13.9728638688
 20
11.5412156773
 30
0.0
 10
13.9904493789
 20
11.5138721045
 30
0.0
 10
14.0092878378
 20
11.4866345248
 30
0.0
 10
14.0293595871
 20
11.4595311633
 30
0.0
 10
14.0506437025
 20
11.4325901131
 30
0.0
 10
14.0731180105
 20
11.4058393097
 30
0.0
 10
14.0967591088
 20
11.3793065009
 30
0.0
 10
14.1215423882
 20
11.3530192179
 30
0.0
 10
14.1474420568
 20
11.327004747
 30
0.0
 10
14.1744311652
 20
11.3012900997
 30
0.0
 10
14.202481633
 20
11.2759019845
 30
0.0
 10
14.2315642768
 20
11.2508667778
 30
0.0
 10
14.2616488401
 20
11.2262104965
 30
0.0
 10
14.2927040233
 20
11.2019587693
 30
0.0
 10
14.324697516
 20
11.1781368098
 30
0.0
 10
14.3575960299
 20
11.1547693887
 30
0.0
 10
14.3913653336
 20
11.1318808085
 30
0.0
 10
14.4259702881
 20
11.1094948771
 30
0.0
 10
14.4613748832
 20
11.0876348825
 30
0.0
 10
14.4975422752
 20
11.0663235685
 30
0.0
 10
14.5344348245
 20
11.0455831102
 30
0.0
 10
14.5720141358
 20
11.0254350907
 30
0.0
 10
14.6102410969
 20
11.0059004783
 30
0.0
 10
14.6490759199
 20
10.9869996035
 30
0.0
 10
14.6884781829
 20
10.9687521386
 30
0.0
 10
14.7284068722
 20
10.9511770766
 30
0.0
 10
14.7688204252
 20
10.9342927113
 30
0.0
 10
14.8096767738
 20
10.9181166184
 30
0.0
 10
14.8509333881
 20
10.9026656367
 30
0.0
 10
14.8925473212
 20
10.8879558506
 30
0.0
 10
14.9344752536
 20
10.8740025732
 30
0.0
 10
14.9766735384
 20
10.8608203298
 30
0.0
 10
15.0190982471
 20
10.8484228425
 30
0.0
 10
15.0617052158
 20
10.8368230171
 30
0.0
 10
15.1044500911
 20
10.8260329285
 30
0.0
 10
15.1472883763
 20
10.816063809
 30
0.0
 10
15.1901754782
 20
10.8069260363
 30
0.0
 10
15.2330667536
 20
10.7986291226
 30
0.0
 10
15.2759175558
 20
10.7911817048
 30
0.0
 10
15.3186832815
 20
10.7845915356
 30
0.0
 10
15.3613194175
 20
10.7788654747
 30
0.0
 10
15.4037815863
 20
10.7740094823
 30
0.0
 10
15.4460255971
 20
10.7700286148
 30
0.0
 10
15.4880074737
 20
10.7669270143
 30
0.0
 10
15.5296835762
 20
10.7647079183
 30
0.0
 10
15.5710103031
 20
10.7633736294
 30
0.0
 10
15.5984429793
 20
10.7630733518
 30
0.0
 10
15.6120902772
 20
10.7630733518
 30
0.0
  0
SPLINE
  5
2BD
100
AcDbEntity
  8
02___PRT_ALL_AXES
100
AcDbSpline
 62
7
  6
CONTINUOUS
 70
0
 71
3
 72
50
 73
46
 74
0
 42
0.0000001
 43
0.0000001
 44
0.0000000001
 40
0.0
 40
0.0
 40
0.0
 40
0.0
 40
0.0123991726
 40
0.0248055256
 40
0.0372262186
 40
0.0496683701
 40
0.0621390386
 40
0.0746452008
 40
0.0871937357
 40
0.0997914044
 40
0.1124448338
 40
0.1251605026
 40
0.1379447226
 40
0.1508036307
 40
0.1637431711
 40
0.1767690893
 40
0.1898869205
 40
0.2031019798
 40
0.2164193607
 40
0.2298439217
 40
0.2433802902
 40
0.2570328526
 40
0.28470098
 40
0.3128805977
 40
0.3271714883
 40
0.3415998275
 40
0.3708778144
 40
0.4007351314
 40
0.4311870127
 40
0.4622452085
 40
0.4939181338
 40
0.5262110249
 40
0.5591260999
 40
0.5926627195
 40
0.6268175459
 40
0.6615846996
 40
0.6969559101
 40
0.732920662
 40
0.7694663343
 40
0.8065783338
 40
0.8442402226
 40
0.8824338334
 40
0.9211394258
 40
0.9603356443
 40
1.0
 40
1.0
 40
1.0
 40
1.0
 10
16.5031094747
 20
11.2101901099
 30
0.0
 10
16.5018117125
 20
11.2059905462
 30
0.0
 10
16.4990918895
 20
11.1976265937
 30
0.0
 10
16.4946437316
 20
11.1852002299
 30
0.0
 10
16.4898278463
 20
11.1728952217
 30
0.0
 10
16.484645666
 20
11.1607151985
 30
0.0
 10
16.4790986345
 20
11.1486635884
 30
0.0
 10
16.4731883562
 20
11.1367438114
 30
0.0
 10
16.466916501
 20
11.124959252
 30
0.0
 10
16.4602848621
 20
11.1133132489
 30
0.0
 10
16.453295335
 20
11.1018090979
 30
0.0
 10
16.4459498981
 20
11.0904500652
 30
0.0
 10
16.4382506622
 20
11.0792393531
 30
0.0
 10
16.4301998024
 20
11.0681801448
 30
0.0
 10
16.4217996233
 20
11.0572755575
 30
0.0
 10
16.4130525104
 20
11.0465286749
 30
0.0
 10
16.4039609469
 20
11.0359425361
 30
0.0
 10
16.3945275295
 20
11.0255201191
 30
0.0
 10
16.3847549181
 20
11.0152643754
 30
0.0
 10
16.3746459202
 20
11.0051781971
 30
0.0
 10
16.3642033265
 20
10.9952643831
 30
0.0
 10
16.3497759138
 20
10.9822224183
 30
0.0
 10
16.3309058757
 20
10.9663657767
 30
0.0
 10
16.3111427942
 20
10.9512629897
 30
0.0
 10
16.2947160466
 20
10.939555136
 30
0.0
 10
16.277715009
 20
10.9279905807
 30
0.0
 10
16.2556820211
 20
10.9140239092
 30
0.0
 10
16.2281721464
 20
10.8981381637
 30
0.0
 10
16.1994950592
 20
10.8830631402
 30
0.0
 10
16.1696835064
 20
10.8688158444
 30
0.0
 10
16.1387710646
 20
10.8554120881
 30
0.0
 10
16.1067926474
 20
10.8428668328
 30
0.0
 10
16.0737843235
 20
10.8311940728
 30
0.0
 10
16.0397833226
 20
10.8204068463
 30
0.0
 10
16.0048279873
 20
10.8105172085
 30
0.0
 10
15.9689577349
 20
10.801536221
 30
0.0
 10
15.9322130141
 20
10.7934739368
 30
0.0
 10
15.8946352621
 20
10.7863393869
 30
0.0
 10
15.8562668582
 20
10.7801405682
 30
0.0
 10
15.8171510798
 20
10.7748844326
 30
0.0
 10
15.7773320483
 20
10.7705768758
 30
0.0
 10
15.7368546987
 20
10.7672227267
 30
0.0
 10
15.6957646537
 20
10.764825756
 30
0.0
 10
15.6541085263
 20
10.7633886378
 30
0.0
 10
15.6261513069
 20
10.7630733518
 30
0.0
 10
15.6120902772
 20
10.7630733518
 30
0.0
  0
SPLINE
  5
2BE
100
AcDbEntity
  8
02___PRT_ALL_AXES
100
AcDbSpline
 62
7
  6
CONTINUOUS
 70
0
 71
3
 72
78
 73
74
 74
0
 42
0.0000001
 43
0.0000001
 44
0.0000000001
 40
0.0
 40
0.0
 40
0.0
 40
0.0
 40
0.0136524639
 40
0.027798684
 40
0.0424201867
 40
0.0574993247
 40
0.0730163783
 40
0.0889504045
 40
0.1052796475
 40
0.1219814651
 40
0.139032556
 40
0.1564090356
 40
0.1740865737
 40
0.1920405271
 40
0.2102459997
 40
0.2286779614
 40
0.2473113164
 40
0.2661209633
 40
0.285081871
 40
0.3041691166
 40
0.3233579459
 40
0.3426238145
 40
0.3619424075
 40
0.3812896797
 40
0.4006418899
 40
0.4199756232
 40
0.4392678153
 40
0.4584957802
 40
0.4776372498
 40
0.4966704045
 40
0.5155738938
 40
0.5343268988
 40
0.5529091742
 40
0.5713010863
 40
0.5894836823
 40
0.6074387395
 40
0.6251488468
 40
0.6425974608
 40
0.6597689582
 40
0.6766487573
 40
0.6932233532
 40
0.7094803828
 40
0.7254087493
 40
0.7409986436
 40
0.7562416347
 40
0.7711307633
 40
0.7856605583
 40
0.7998271626
 40
0.8136283873
 40
0.8270637413
 40
0.8401345852
 40
0.8528441684
 40
0.865197696
 40
0.8772024917
 40
0.8888680466
 40
0.9002061376
 40
0.9112309698
 40
0.9166316507
 40
0.9219605088
 40
0.9324115321
 40
0.9426073235
 40
0.9476178724
 40
0.9525741238
 40
0.9574795881
 40
0.9623379398
 40
0.967153028
 40
0.9719288449
 40
0.9766695261
 40
0.9813793595
 40
0.9860627526
 40
0.9907242224
 40
0.9953684003
 40
1.0
 40
1.0
 40
1.0
 40
1.0
 10
16.5025132158
 20
11.7650777749
 30
0.0
 10
16.5014064958
 20
11.7673330331
 30
0.0
 10
16.4992046332
 20
11.7719505907
 30
0.0
 10
16.495990104
 20
11.7790641754
 30
0.0
 10
16.4928095013
 20
11.7864795292
 30
0.0
 10
16.4896686201
 20
11.7941848506
 30
0.0
 10
16.4865734028
 20
11.8021682009
 30
0.0
 10
16.4835300667
 20
11.8104170831
 30
0.0
 10
16.4805450063
 20
11.8189186225
 30
0.0
 10
16.4776247903
 20
11.827659632
 30
0.0
 10
16.474776131
 20
11.8366266168
 30
0.0
 10
16.4720058702
 20
11.8458058268
 30
0.0
 10
16.4693209492
 20
11.8551832895
 30
0.0
 10
16.466728385
 20
11.8647448444
 30
0.0
 10
16.4642352532
 20
11.8744761778
 30
0.0
 10
16.4618486541
 20
11.8843628421
 30
0.0
 10
16.4595757042
 20
11.8943902832
 30
0.0
 10
16.4574234981
 20
11.904543854
 30
0.0
 10
16.4553990926
 20
11.9148088282
 30
0.0
 10
16.4535094923
 20
11.9251704147
 30
0.0
 10
16.4517615933
 20
11.9356137588
 30
0.0
 10
16.450162199
 20
11.946123954
 30
0.0
 10
16.4487179667
 20
11.9566860375
 30
0.0
 10
16.4474353646
 20
11.9672849894
 30
0.0
 10
16.4463207045
 20
11.9779057413
 30
0.0
 10
16.445380027
 20
11.9885331652
 30
0.0
 10
16.4446191172
 20
11.9991520782
 30
0.0
 10
16.4440435018
 20
12.0097472459
 30
0.0
 10
16.4436583035
 20
12.02030338
 30
0.0
 10
16.4434683262
 20
12.030805151
 30
0.0
 10
16.4434779639
 20
12.0412371932
 30
0.0
 10
16.4436910961
 20
12.0515841204
 30
0.0
 10
16.4441112023
 20
12.0618305437
 30
0.0
 10
16.4447411766
 20
12.0719610937
 30
0.0
 10
16.4455833218
 20
12.0819604497
 30
0.0
 10
16.4466394371
 20
12.0918133621
 30
0.0
 10
16.4479105796
 20
12.1015047048
 30
0.0
 10
16.4493971743
 20
12.1110195025
 30
0.0
 10
16.4510990307
 20
12.1203429632
 30
0.0
 10
16.4530151204
 20
12.1294605569
 30
0.0
 10
16.4551437768
 20
12.1383580263
 30
0.0
 10
16.4574826268
 20
12.1470214367
 30
0.0
 10
16.4600284486
 20
12.1554372608
 30
0.0
 10
16.4627774104
 20
12.1635923633
 30
0.0
 10
16.4657249331
 20
12.1714740744
 30
0.0
 10
16.4688656622
 20
12.1790702524
 30
0.0
 10
16.4721936949
 20
12.1863692385
 30
0.0
 10
16.4757024029
 20
12.1933599602
 30
0.0
 10
16.4793845243
 20
12.2000319391
 30
0.0
 10
16.4832323306
 20
12.2063752318
 30
0.0
 10
16.487237452
 20
12.2123805556
 30
0.0
 10
16.4913910622
 20
12.21803922
 30
0.0
 10
16.4956839549
 20
12.2233430892
 30
0.0
 10
16.5001064049
 20
12.2282846922
 30
0.0
 10
16.5046484458
 20
12.2328571255
 30
0.0
 10
16.5092996404
 20
12.2370539129
 30
0.0
 10
16.5132850168
 20
12.2402553271
 30
0.0
 10
16.5165168712
 20
12.2426182824
 30
0.0
 10
16.5197327567
 20
12.2448210116
 30
0.0
 10
16.5238014794
 20
12.2473358825
 30
0.0
 10
16.5279754831
 20
12.2495502964
 30
0.0
 10
16.5313391144
 20
12.2511173088
 30
0.0
 10
16.5338592212
 20
12.2521856837
 30
0.0
 10
16.5363896615
 20
12.2531534901
 30
0.0
 10
16.5389290168
 20
12.2540203795
 30
0.0
 10
16.5414758075
 20
12.2547860738
 30
0.0
 10
16.5440285738
 20
12.2554502984
 30
0.0
 10
16.546585856
 20
12.2560127761
 30
0.0
 10
16.5491461796
 20
12.2564733251
 30
0.0
 10
16.5517080721
 20
12.256831774
 30
0.0
 10
16.5542700838
 20
12.2570879397
 30
0.0
 10
16.5568306897
 20
12.2572417308
 30
0.0
 10
16.5585377099
 20
12.2572759984
 30
0.0
 10
16.5593899652
 20
12.2572760006
 30
0.0
  0
SPLINE
  5
2BF
100
AcDbEntity
  8
02___PRT_ALL_AXES
100
AcDbSpline
 62
7
  6
CONTINUOUS
 70
0
 71
3
 72
38
 73
34
 74
0
 42
0.0000001
 43
0.0000001
 44
0.0000000001
 40
0.0
 40
0.0
 40
0.0
 40
0.0
 40
0.0378250378
 40
0.0752534162
 40
0.1122630223
 40
0.1488390532
 40
0.1849688204
 40
0.2206400513
 40
0.2558418465
 40
0.2905658514
 40
0.324805511
 40
0.3585565652
 40
0.3918167284
 40
0.424586319
 40
0.4568678375
 40
0.4886665303
 40
0.5199899997
 40
0.5508487255
 40
0.6112170243
 40
0.6407706325
 40
0.6699281742
 40
0.6987135623
 40
0.7271534966
 40
0.7552770876
 40
0.7831159969
 40
0.8107040281
 40
0.8380771136
 40
0.8652729139
 40
0.8923306586
 40
0.9192907523
 40
0.9461944725
 40
0.973083603
 40
1.0
 40
1.0
 40
1.0
 40
1.0
 10
14.8227522967
 20
12.6166834315
 30
0.0
 10
14.8201799807
 20
12.6166834315
 30
0.0
 10
14.815062137
 20
12.6167389421
 30
0.0
 10
14.8074311839
 20
12.6169915643
 30
0.0
 10
14.7998927046
 20
12.617413078
 30
0.0
 10
14.7924541181
 20
12.618003194
 30
0.0
 10
14.7851222688
 20
12.6187616087
 30
0.0
 10
14.7779039094
 20
12.6196878632
 30
0.0
 10
14.7708056872
 20
12.6207815092
 30
0.0
 10
14.7638340413
 20
12.6220418921
 30
0.0
 10
14.7569951887
 20
12.6234683793
 30
0.0
 10
14.7502951434
 20
12.625060153
 30
0.0
 10
14.7437397212
 20
12.6268164219
 30
0.0
 10
14.7373345185
 20
12.6287362031
 30
0.0
 10
14.7310849164
 20
12.6308185556
 30
0.0
 10
14.7249961194
 20
12.6330623253
 30
0.0
 10
14.719072942
 20
12.6354664977
 30
0.0
 10
14.7114592933
 20
12.6388588833
 30
0.0
 10
14.7041317698
 20
12.6425888041
 30
0.0
 10
14.6971299853
 20
12.6466604832
 30
0.0
 10
14.6921026581
 20
12.649846406
 30
0.0
 10
14.6872666348
 20
12.6531842047
 30
0.0
 10
14.6826253499
 20
12.6566722045
 30
0.0
 10
14.6781822618
 20
12.6603086921
 30
0.0
 10
14.6739405393
 20
12.6640917684
 30
0.0
 10
14.6699032762
 20
12.6680195462
 30
0.0
 10
14.6660733003
 20
12.6720899277
 30
0.0
 10
14.6624533786
 20
12.6763008133
 30
0.0
 10
14.6590459991
 20
12.6806498873
 30
0.0
 10
14.6558536127
 20
12.6851348017
 30
0.0
 10
14.6528783537
 20
12.6897530318
 30
0.0
 10
14.6501224174
 20
12.6945018354
 30
0.0
 10
14.6484341038
 20
12.6977498867
 30
0.0
 10
14.6476277077
 20
12.6993931561
 30
0.0
  0
SPLINE
  5
2C0
100
AcDbEntity
  8
LAYER_CHAMFER_FEAT
100
AcDbSpline
 62
7
  6
CONTINUOUS
 70
0
 71
3
 72
15
 73
11
 74
0
 42
0.0000001
 43
0.0000001
 44
0.0000000001
 40
0.0
 40
0.0
 40
0.0
 40
0.0
 40
0.131764132
 40
0.2617725002
 40
0.3899186346
 40
0.5161210923
 40
0.6402989349
 40
0.7623789461
 40
0.8822975414
 40
1.0
 40
1.0
 40
1.0
 40
1.0
 10
15.0626336149
 20
11.8827483071
 30
0.0
 10
15.0576543439
 20
11.8827483071
 30
0.0
 10
15.0477616473
 20
11.8826227832
 30
0.0
 10
15.0330363913
 20
11.8820498653
 30
0.0
 10
15.0185414595
 20
11.8810942209
 30
0.0
 10
15.0042979369
 20
11.8797572693
 30
0.0
 10
14.9903259785
 20
11.8780409087
 30
0.0
 10
14.9766455435
 20
11.8759475579
 30
0.0
 10
14.9632763906
 20
11.8734802089
 30
0.0
 10
14.9545004434
 20
11.8715701677
 30
0.0
 10
14.9501706791
 20
11.8705518991
 30
0.0
  0
SPLINE
  5
2C1
100
AcDbEntity
  8
LAYER_CHAMFER_FEAT
100
AcDbSpline
 62
7
  6
CONTINUOUS
 70
0
 71
3
 72
39
 73
35
 74
0
 42
0.0000001
 43
0.0000001
 44
0.0000000001
 40
0.0
 40
0.0
 40
0.0
 40
0.0
 40
0.0305398826
 40
0.0614592002
 40
0.0927264534
 40
0.1243126363
 40
0.1561858736
 40
0.1883135647
 40
0.2206623617
 40
0.2531980702
 40
0.2858858929
 40
0.3186905349
 40
0.3515763178
 40
0.384507296
 40
0.4174473773
 40
0.4503604439
 40
0.4832104612
 40
0.5159615996
 40
0.5485783577
 40
0.5810256721
 40
0.6132690359
 40
0.6452746387
 40
0.677009479
 40
0.7084414818
 40
0.7395396478
 40
0.7702741945
 40
0.8006166737
 40
0.8305401194
 40
0.8600192318
 40
0.8890305139
 40
0.9175524231
 40
0.9455655735
 40
0.9730529359
 40
1.0
 40
1.0
 40
1.0
 40
1.0
 10
15.0626336149
 20
11.8827483071
 30
0.0
 10
15.0680168708
 20
11.8827483071
 30
0.0
 10
15.0788507976
 20
11.882599699
 30
0.0
 10
15.0951841854
 20
11.8819416187
 30
0.0
 10
15.1116790999
 20
11.880847886
 30
0.0
 10
15.1283082851
 20
11.8793203793
 30
0.0
 10
15.1450448692
 20
11.8773615327
 30
0.0
 10
15.1618615184
 20
11.8749745653
 30
0.0
 10
15.1787308352
 20
11.872163373
 30
0.0
 10
15.1956253329
 20
11.8689325097
 30
0.0
 10
15.2125174777
 20
11.8652872587
 30
0.0
 10
15.2293797424
 20
11.8612335695
 30
0.0
 10
15.2461846428
 20
11.8567780361
 30
0.0
 10
15.2629047864
 20
11.8519279111
 30
0.0
 10
15.2795129276
 20
11.8466911188
 30
0.0
 10
15.2959819978
 20
11.8410761943
 30
0.0
 10
15.3122851484
 20
11.8350922702
 30
0.0
 10
15.3283958111
 20
11.8287491083
 30
0.0
 10
15.3442877344
 20
11.822057058
 30
0.0
 10
15.3599350156
 20
11.8150270174
 30
0.0
 10
15.3753121482
 20
11.8076704284
 30
0.0
 10
15.3903940834
 20
11.7999992968
 30
0.0
 10
15.4051562482
 20
11.7920261238
 30
0.0
 10
15.4195745804
 20
11.7837638821
 30
0.0
 10
15.4336255906
 20
11.7752260322
 30
0.0
 10
15.4472863986
 20
11.766426492
 30
0.0
 10
15.4605347493
 20
11.7573795843
 30
0.0
 10
15.4733490518
 20
11.7481000186
 30
0.0
 10
15.4857084476
 20
11.7386029124
 30
0.0
 10
15.4975928189
 20
11.7289037158
 30
0.0
 10
15.508982789
 20
11.7190182013
 30
0.0
 10
15.5198598526
 20
11.708962384
 30
0.0
 10
15.5302061474
 20
11.698752792
 30
0.0
 10
15.5368054532
 20
11.6917843294
 30
0.0
 10
15.5400096424
 20
11.6882778775
 30
0.0
  0
SPLINE
  5
2C2
100
AcDbEntity
  8
LAYER_FEATURE
100
AcDbSpline
 62
7
  6
CONTINUOUS
 70
0
 71
3
 72
82
 73
78
 74
0
 42
0.0000001
 43
0.0000001
 44
0.0000000001
 40
0.0
 40
0.0
 40
0.0
 40
0.0
 40
0.0171785589
 40
0.0345301467
 40
0.0520438915
 40
0.0697094377
 40
0.0875156
 40
0.1054510217
 40
0.123504035
 40
0.1416627074
 40
0.1599148842
 40
0.1782482071
 40
0.1966501446
 40
0.215108021
 40
0.2336090441
 40
0.2521403315
 40
0.2706889378
 40
0.2892418815
 40
0.3077861729
 40
0.3263088398
 40
0.3447969544
 40
0.363237661
 40
0.3816182032
 40
0.3999259508
 40
0.4181484268
 40
0.4362733359
 40
0.4542885942
 40
0.4721823571
 40
0.4899430477
 40
0.5075593868
 40
0.5250204257
 40
0.5423155779
 40
0.5594346503
 40
0.5763678754
 40
0.5931059477
 40
0.6096400625
 40
0.625961951
 40
0.642063918
 40
0.6579388825
 40
0.6735804236
 40
0.6889828253
 40
0.7041411198
 40
0.7190511359
 40
0.7337095505
 40
0.7481139455
 40
0.7622628593
 40
0.7761558419
 40
0.7897935121
 40
0.8031776196
 40
0.8163111048
 40
0.8291981522
 40
0.841844246
 40
0.8542562208
 40
0.8603772763
 40
0.8664430102
 40
0.8784128847
 40
0.8901776674
 40
0.8959874285
 40
0.901750765
 40
0.9074694744
 40
0.9131454517
 40
0.9187806753
 40
0.9243772093
 40
0.9299372064
 40
0.9354628938
 40
0.940956582
 40
0.9464206535
 40
0.951857559
 40
0.9572698192
 40
0.9626600104
 40
0.9680307668
 40
0.973384771
 40
0.9787247471
 40
0.9840534574
 40
0.9893736919
 40
0.9946882635
 40
1.0
 40
1.0
 40
1.0
 40
1.0
 10
15.3301233106
 20
14.2585366341
 30
0.0
 10
15.3437705073
 20
14.2585366341
 30
0.0
 10
15.3712032364
 20
14.2582363392
 30
0.0
 10
15.4125299486
 20
14.2569020815
 30
0.0
 10
15.4542061532
 20
14.2546829543
 30
0.0
 10
15.4961879784
 20
14.251581377
 30
0.0
 10
15.5384320046
 20
14.2476005043
 30
0.0
 10
15.5808941708
 20
14.2427445064
 30
0.0
 10
15.6235303061
 20
14.237018444
 30
0.0
 10
15.6662960322
 20
14.230428277
 30
0.0
 10
15.7091468347
 20
14.2229808646
 30
0.0
 10
15.7520381096
 20
14.2146839478
 30
0.0
 10
15.7949252108
 20
14.2055461715
 30
0.0
 10
15.8377634959
 20
14.1955770529
 30
0.0
 10
15.8805083721
 20
14.1847869691
 30
0.0
 10
15.9231153412
 20
14.1731871451
 30
0.0
 10
15.9655400482
 20
14.1607896523
 30
0.0
 10
16.007738332
 20
14.1476074063
 30
0.0
 10
16.0496662649
 20
14.1336541312
 30
0.0
 10
16.0912802
 20
14.1189443504
 30
0.0
 10
16.1325368136
 20
14.103493367
 30
0.0
 10
16.1733931603
 20
14.0873172702
 30
0.0
 10
16.2138067131
 20
14.070432905
 30
0.0
 10
16.2537354043
 20
14.0528578468
 30
0.0
 10
16.2931376684
 20
14.0346103843
 30
0.0
 10
16.3319724883
 20
14.0157095046
 30
0.0
 10
16.3701994473
 20
13.9961748896
 30
0.0
 10
16.4077787598
 20
13.976026872
 30
0.0
 10
16.4446713128
 20
13.9552864187
 30
0.0
 10
16.4808387044
 20
13.9339751041
 30
0.0
 10
16.5162432961
 20
13.9121151056
 30
0.0
 10
16.5508482497
 20
13.8897291736
 30
0.0
 10
16.5846175559
 20
13.8668405962
 30
0.0
 10
16.6175160722
 20
13.8434731782
 30
0.0
 10
16.6495095609
 20
13.8196512146
 30
0.0
 10
16.6805647409
 20
13.7953994852
 30
0.0
 10
16.7106493058
 20
13.7707432051
 30
0.0
 10
16.7397319549
 20
13.7457080027
 30
0.0
 10
16.7677824232
 20
13.7203198877
 30
0.0
 10
16.7947715265
 20
13.6946052367
 30
0.0
 10
16.820671193
 20
13.668590765
 30
0.0
 10
16.8454544753
 20
13.642303484
 30
0.0
 10
16.8690955779
 20
13.6157706782
 30
0.0
 10
16.8915698816
 20
13.5890198721
 30
0.0
 10
16.9128539925
 20
13.56207882
 30
0.0
 10
16.9329257433
 20
13.5349754592
 30
0.0
 10
16.9517642089
 20
13.5077378824
 30
0.0
 10
16.969349721
 20
13.4803943105
 30
0.0
 10
16.9856639044
 20
13.4529730597
 30
0.0
 10
17.0006896883
 20
13.4255025611
 30
0.0
 10
17.0144113498
 20
13.3980111681
 30
0.0
 10
17.0268143264
 20
13.3705276894
 30
0.0
 10
17.0360829968
 20
13.3475491909
 30
0.0
 10
17.0428158536
 20
13.3292022219
 30
0.0
 10
17.0490403374
 20
13.3110475428
 30
0.0
 10
17.0559877676
 20
13.2884069627
 30
0.0
 10
17.0618548391
 20
13.2656718503
 30
0.0
 10
17.0658533172
 20
13.2475662895
 30
0.0
 10
17.0684965968
 20
13.2340844429
 30
0.0
 10
17.0707958494
 20
13.2206475287
 30
0.0
 10
17.0727505446
 20
13.2072589841
 30
0.0
 10
17.0743601426
 20
13.193922315
 30
0.0
 10
17.0756241754
 20
13.1806409901
 30
0.0
 10
17.0765423744
 20
13.1674184828
 30
0.0
 10
17.077114414
 20
13.1542582359
 30
0.0
 10
17.0773401779
 20
13.1411636891
 30
0.0
 10
17.0772196062
 20
13.1281382601
 30
0.0
 10
17.076752661
 20
13.1151853528
 30
0.0
 10
17.0759395362
 20
13.1023083502
 30
0.0
 10
17.0747803692
 20
13.0895106207
 30
0.0
 10
17.0732754778
 20
13.0767955112
 30
0.0
 10
17.0714252809
 20
13.0641663423
 30
0.0
 10
17.0692301813
 20
13.0516264275
 30
0.0
 10
17.0666908321
 20
13.0391790442
 30
0.0
 10
17.0638078326
 20
13.0268274242
 30
0.0
 10
17.0605819729
 20
13.0145749293
 30
0.0
 10
17.0582031122
 20
13.0064737766
 30
0.0
 10
17.0569572244
 20
13.0024420786
 30
0.0
  0
SPLINE
  5
2C3
100
AcDbEntity
  8
LAYER_CHAMFER_FEAT
100
AcDbSpline
 62
7
  6
CONTINUOUS
 70
0
 71
3
 72
18
 73
14
 74
0
 42
0.0000001
 43
0.0000001
 44
0.0000000001
 40
0.0
 40
0.0
 40
0.0
 40
0.0
 40
0.0660964261
 40
0.131767973
 40
0.2617716679
 40
0.3899173006
 40
0.5161187609
 40
0.6402950162
 40
0.7623738405
 40
0.8226081589
 40
0.8822948867
 40
0.9414274648
 40
1.0
 40
1.0
 40
1.0
 40
1.0
 10
15.0527840243
 20
13.1181487776
 30
0.0
 10
15.0457236843
 20
13.1181487776
 30
0.0
 10
15.0316481901
 20
13.1180591601
 30
0.0
 10
15.0036906737
 20
13.1175195262
 30
0.0
 10
14.9691222414
 20
13.1161744776
 30
0.0
 10
14.9281503201
 20
13.1134732252
 30
0.0
 10
14.8878884554
 20
13.1096941297
 30
0.0
 10
14.8483945299
 20
13.1048425484
 30
0.0
 10
14.8160269916
 20
13.0998897408
 30
0.0
 10
14.790570569
 20
13.0953903456
 30
0.0
 10
14.7717896726
 20
13.091767515
 30
0.0
 10
14.7532425967
 20
13.0878827755
 30
0.0
 10
14.7409792615
 20
13.085105964
 30
0.0
 10
14.7348887766
 20
13.0836736142
 30
0.0
  0
SPLINE
  5
2C4
100
AcDbEntity
  8
LAYER_CHAMFER_FEAT
100
AcDbSpline
 62
7
  6
CONTINUOUS
 70
0
 71
3
 72
44
 73
40
 74
0
 42
0.0000001
 43
0.0000001
 44
0.0000000001
 40
0.0
 40
0.0
 40
0.0
 40
0.0
 40
0.0152210444
 40
0.0305409168
 40
0.0614593958
 40
0.0927267734
 40
0.1243128005
 40
0.156185861
 40
0.1883134333
 40
0.220662085
 40
0.2531976486
 40
0.2858853283
 40
0.3186898273
 40
0.3515754655
 40
0.3845062988
 40
0.4174462365
 40
0.4503591583
 40
0.4832090314
 40
0.515960028
 40
0.5485766428
 40
0.5810238128
 40
0.6132670374
 40
0.6452725012
 40
0.6770071988
 40
0.7084390631
 40
0.7395370965
 40
0.770271507
 40
0.8006138484
 40
0.8305371668
 40
0.8600161532
 40
0.8890273035
 40
0.9033510486
 40
0.9175499349
 40
0.9316216086
 40
0.9455638647
 40
0.9593746435
 40
0.9730520543
 40
0.9865943568
 40
1.0
 40
1.0
 40
1.0
 40
1.0
 10
15.0527840243
 20
13.1181487776
 30
0.0
 10
15.0603680295
 20
13.1181487776
 30
0.0
 10
15.0755855017
 20
13.1180447061
 30
0.0
 10
15.1062025423
 20
13.1174234542
 30
0.0
 10
15.1447939559
 20
13.1158684958
 30
0.0
 10
15.1914191297
 20
13.1127769489
 30
0.0
 10
15.2384244563
 20
13.1084591622
 30
0.0
 10
15.2857331697
 20
13.102922173
 30
0.0
 10
15.333268228
 20
13.0961750167
 30
0.0
 10
15.3809521661
 20
13.0882286837
 30
0.0
 10
15.4287072805
 20
13.0790961277
 30
0.0
 10
15.4764557459
 20
13.0687922309
 30
0.0
 10
15.5241197445
 20
13.0573337866
 30
0.0
 10
15.5716215937
 20
13.0447394696
 30
0.0
 10
15.6188838735
 20
13.0310298062
 30
0.0
 10
15.6658295534
 20
13.016227141
 30
0.0
 10
15.7123821185
 20
13.0003556001
 30
0.0
 10
15.7584656954
 20
12.9834410515
 30
0.0
 10
15.8040051761
 20
12.9655110629
 30
0.0
 10
15.8489263414
 20
12.9465948557
 30
0.0
 10
15.8931559825
 20
12.926723258
 30
0.0
 10
15.9366220209
 20
12.9059286526
 30
0.0
 10
15.9792536265
 20
12.8842449237
 30
0.0
 10
16.0209813334
 20
12.8617074008
 30
0.0
 10
16.0617371535
 20
12.8383527992
 30
0.0
 10
16.1014546865
 20
12.8142191608
 30
0.0
 10
16.1400692348
 20
12.7893457845
 30
0.0
 10
16.177517882
 20
12.7637731819
 30
0.0
 10
16.2137396958
 20
12.7375429312
 30
0.0
 10
16.2486754576
 20
12.7106978914
 30
0.0
 10
16.2767875128
 20
12.6877547875
 30
0.0
 10
16.2985777972
 20
12.6691264578
 30
0.0
 10
16.3144954496
 20
12.6550879498
 30
0.0
 10
16.3300501718
 20
12.6409292511
 30
0.0
 10
16.3452356774
 20
12.6266561076
 30
0.0
 10
16.360045735
 20
12.6122743219
 30
0.0
 10
16.3744743585
 20
12.5977897738
 30
0.0
 10
16.3885155631
 20
12.5832083781
 30
0.0
 10
16.3976611387
 20
12.5733765317
 30
0.0
 10
16.4021669292
 20
12.5684456965
 30
0.0
  0
SPLINE
  5
2C5
100
AcDbEntity
  8
LAYER_FEATURE
100
AcDbSpline
 62
7
  6
CONTINUOUS
 70
0
 71
3
 72
52
 73
48
 74
0
 42
0.0000001
 43
0.0000001
 44
0.0000000001
 40
0.0
 40
0.0
 40
0.0
 40
0.0
 40
0.0396639804
 40
0.078860463
 40
0.1175657585
 40
0.1557593097
 40
0.1934210725
 40
0.2305329582
 40
0.2670785179
 40
0.3030431581
 40
0.3384142614
 40
0.3731813105
 40
0.4073360328
 40
0.4408725474
 40
0.4737875198
 40
0.5060803125
 40
0.537753143
 40
0.5688112453
 40
0.5841129804
 40
0.599264474
 40
0.6291216971
 40
0.6438327726
 40
0.6584012171
 40
0.6728295153
 40
0.6871203607
 40
0.7152998942
 40
0.7429679367
 40
0.7566204551
 40
0.7701567821
 40
0.7835813039
 40
0.796898641
 40
0.8101136629
 40
0.8232314516
 40
0.8362573306
 40
0.8491968322
 40
0.8620556991
 40
0.8748398821
 40
0.88755551
 40
0.9002089017
 40
0.9128065317
 40
0.9253550274
 40
0.9378611525
 40
0.9503317817
 40
0.9627738957
 40
0.9751945504
 40
0.9876008653
 40
1.0
 40
1.0
 40
1.0
 40
1.0
 10
15.3301233106
 20
14.2585366341
 30
0.0
 10
15.3160623708
 20
14.2585366341
 30
0.0
 10
15.2881051056
 20
14.2582213323
 30
0.0
 10
15.2464489941
 20
14.2567842447
 30
0.0
 10
15.2053588576
 20
14.2543872407
 30
0.0
 10
15.1648815533
 20
14.2510331132
 30
0.0
 10
15.1250625055
 20
14.2467255525
 30
0.0
 10
15.0859467311
 20
14.2414694171
 30
0.0
 10
15.0475783288
 20
14.2352705945
 30
0.0
 10
15.0100005775
 20
14.228136043
 30
0.0
 10
14.9732558559
 20
14.2200737612
 30
0.0
 10
14.9373856009
 20
14.2110927777
 30
0.0
 10
14.9024302663
 20
14.2012031415
 30
0.0
 10
14.8684292645
 20
14.1904159079
 30
0.0
 10
14.835420957
 20
14.178743152
 30
0.0
 10
14.8034424879
 20
14.1661978741
 30
0.0
 10
14.7725302281
 20
14.1527942085
 30
0.0
 10
14.7475650024
 20
14.1408630404
 30
0.0
 10
14.7281679769
 20
14.1308978496
 30
0.0
 10
14.7093435699
 20
14.1207590139
 30
0.0
 10
14.6910040214
 20
14.1101686797
 30
0.0
 10
14.6731834396
 20
14.09912472
 30
0.0
 10
14.66018683
 20
14.0906864212
 30
0.0
 10
14.6474975107
 20
14.0820548339
 30
0.0
 10
14.6310708161
 20
14.0703470006
 30
0.0
 10
14.6113077042
 20
14.0552442087
 30
0.0
 10
14.5924376724
 20
14.0393875711
 30
0.0
 10
14.5780102662
 20
14.0263455989
 30
0.0
 10
14.567567675
 20
14.0164317831
 30
0.0
 10
14.557458665
 20
14.0063456171
 30
0.0
 10
14.5476860727
 20
13.9960898543
 30
0.0
 10
14.5382526344
 20
13.9856674575
 30
0.0
 10
14.5291610869
 20
13.9750813038
 30
0.0
 10
14.5204139692
 20
13.9643344261
 30
0.0
 10
14.5120137819
 20
13.9534298448
 30
0.0
 10
14.5039629411
 20
13.9423706225
 30
0.0
 10
14.4962636804
 20
13.9311599281
 30
0.0
 10
14.4889182661
 20
13.9198008801
 30
0.0
 10
14.481928727
 20
13.9082967371
 30
0.0
 10
14.4752970861
 20
13.8966507348
 30
0.0
 10
14.4690252466
 20
13.8848661672
 30
0.0
 10
14.4631149425
 20
13.8729464031
 30
0.0
 10
14.4575679382
 20
13.8608947801
 30
0.0
 10
14.452385739
 20
13.8487147656
 30
0.0
 10
14.4475698593
 20
13.8364097547
 30
0.0
 10
14.4431217108
 20
13.823983388
 30
0.0
 10
14.4404018735
 20
13.8156194401
 30
0.0
 10
14.4391041113
 20
13.8114198764
 30
0.0
  0
SPLINE
  5
2C6
100
AcDbEntity
  8
LAYER_FEATURE
100
AcDbSpline
 62
7
  6
CONTINUOUS
 70
0
 71
3
 72
23
 73
19
 74
0
 42
0.0000001
 43
0.0000001
 44
0.0000000001
 40
0.0
 40
0.0
 40
0.0
 40
0.0
 40
0.0508056224
 40
0.102004886
 40
0.1539767224
 40
0.2070720349
 40
0.2616033724
 40
0.3178388974
 40
0.3759979829
 40
0.4362513916
 40
0.498722891
 40
0.563490561
 40
0.6305923921
 40
0.7000290213
 40
0.7717638257
 40
0.8457342746
 40
0.9218596679
 40
1.0
 40
1.0
 40
1.0
 40
1.0
 10
16.4202725407
 20
13.5270264666
 30
0.0
 10
16.420419821
 20
13.5275030569
 30
0.0
 10
16.4206638991
 20
13.5284767494
 30
0.0
 10
16.4208726229
 20
13.5299768044
 30
0.0
 10
16.4209239376
 20
13.5315129862
 30
0.0
 10
16.4208178014
 20
13.5330789245
 30
0.0
 10
16.4205549787
 20
13.53466855
 30
0.0
 10
16.4201366929
 20
13.5362757207
 30
0.0
 10
16.419564837
 20
13.5378943568
 30
0.0
 10
16.4188417994
 20
13.5395183915
 30
0.0
 10
16.4179704333
 20
13.5411417332
 30
0.0
 10
16.4169542068
 20
13.5427583586
 30
0.0
 10
16.4157970092
 20
13.5443622226
 30
0.0
 10
16.4145032612
 20
13.545947297
 30
0.0
 10
16.4130779528
 20
13.5475076795
 30
0.0
 10
16.4115263784
 20
13.5490375399
 30
0.0
 10
16.4098545462
 20
13.5505309638
 30
0.0
 10
16.4086787276
 20
13.5514867012
 30
0.0
 10
16.4080729203
 20
13.5519574555
 30
0.0
  0
SPLINE
  5
2C7
100
AcDbEntity
  8
02___PRT_ALL_AXES
100
AcDbSpline
 62
7
  6
CONTINUOUS
 70
0
 71
3
 72
82
 73
78
 74
0
 42
0.0000001
 43
0.0000001
 44
0.0000000001
 40
0.0
 40
0.0
 40
0.0
 40
0.0
 40
0.0171786861
 40
0.0345300795
 40
0.0520439114
 40
0.0697094344
 40
0.0875155992
 40
0.1054510218
 40
0.1235040338
 40
0.141662707
 40
0.159914884
 40
0.1782482066
 40
0.196650144
 40
0.2151080206
 40
0.2336090438
 40
0.2521403311
 40
0.2706889373
 40
0.2892418812
 40
0.3077861726
 40
0.3263088393
 40
0.3447969539
 40
0.3632376607
 40
0.381618203
 40
0.3999259503
 40
0.4181484261
 40
0.4362733356
 40
0.4542885944
 40
0.4721823571
 40
0.489943047
 40
0.507559386
 40
0.5250204256
 40
0.5423155781
 40
0.5594346499
 40
0.5763678745
 40
0.5931059475
 40
0.6096400631
 40
0.6259619513
 40
0.6420639171
 40
0.6579388814
 40
0.6735804236
 40
0.6889828258
 40
0.7041411197
 40
0.719051135
 40
0.7337095503
 40
0.7481139463
 40
0.7622628598
 40
0.776155841
 40
0.7897935109
 40
0.8031776196
 40
0.8163111055
 40
0.8291981524
 40
0.8418442452
 40
0.8542562205
 40
0.8603772759
 40
0.8664430107
 40
0.8784128851
 40
0.8901776669
 40
0.8959874292
 40
0.9017507642
 40
0.9074694748
 40
0.9131454517
 40
0.9187806748
 40
0.9243772099
 40
0.9299372059
 40
0.9354628941
 40
0.940956582
 40
0.9464206531
 40
0.9518575593
 40
0.957269819
 40
0.9626600104
 40
0.9680307669
 40
0.9733847708
 40
0.9787247471
 40
0.9840534574
 40
0.9893736918
 40
0.9946882635
 40
1.0
 40
1.0
 40
1.0
 40
1.0
 10
14.7762755626
 20
12.4662846648
 30
0.0
 10
14.7899228605
 20
12.4662846648
 30
0.0
 10
14.8173555366
 20
12.4659843872
 30
0.0
 10
14.8586822636
 20
12.4646500983
 30
0.0
 10
14.9003583661
 20
12.4624310023
 30
0.0
 10
14.9423402427
 20
12.4593294018
 30
0.0
 10
14.9845842535
 20
12.4553485343
 30
0.0
 10
15.0270464222
 20
12.4504925419
 30
0.0
 10
15.0696825583
 20
12.4447664809
 30
0.0
 10
15.1124482839
 20
12.4381763117
 30
0.0
 10
15.1552990862
 20
12.430728894
 30
0.0
 10
15.1981903615
 20
12.4224319803
 30
0.0
 10
15.2410774635
 20
12.4132942076
 30
0.0
 10
15.2839157487
 20
12.4033250881
 30
0.0
 10
15.3266606239
 20
12.3925349995
 30
0.0
 10
15.3692675927
 20
12.380935174
 30
0.0
 10
15.4116923014
 20
12.3685376868
 30
0.0
 10
15.4538905862
 20
12.3553554434
 30
0.0
 10
15.4958185185
 20
12.341402166
 30
0.0
 10
15.5374324516
 20
12.3266923798
 30
0.0
 10
15.578689066
 20
12.3112413981
 30
0.0
 10
15.6195454146
 20
12.2950653052
 30
0.0
 10
15.6599589676
 20
12.27818094
 30
0.0
 10
15.6998876569
 20
12.260605878
 30
0.0
 10
15.7392899199
 20
12.2423584131
 30
0.0
 10
15.7781247429
 20
12.2234575383
 30
0.0
 10
15.816351704
 20
12.2039229259
 30
0.0
 10
15.8539310152
 20
12.1837749064
 30
0.0
 10
15.8908235646
 20
12.1630344481
 30
0.0
 10
15.9269909565
 20
12.1417231341
 30
0.0
 10
15.9623955517
 20
12.1198631395
 30
0.0
 10
15.9970005062
 20
12.097477208
 30
0.0
 10
16.0307698098
 20
12.0745886278
 30
0.0
 10
16.0636683238
 20
12.0512212068
 30
0.0
 10
16.0956618165
 20
12.0273992473
 30
0.0
 10
16.1267169997
 20
12.0031475201
 30
0.0
 10
16.1568015629
 20
11.9784912387
 30
0.0
 10
16.1858842068
 20
11.9534560321
 30
0.0
 10
16.2139346746
 20
11.9280679168
 30
0.0
 10
16.240923783
 20
11.9023532696
 30
0.0
 10
16.2668234516
 20
11.8763387986
 30
0.0
 10
16.291606731
 20
11.8500515157
 30
0.0
 10
16.3152478293
 20
11.8235187069
 30
0.0
 10
16.3377221373
 20
11.7967679035
 30
0.0
 10
16.3590062527
 20
11.7698268532
 30
0.0
 10
16.379078002
 20
11.7427234918
 30
0.0
 10
16.3979164608
 20
11.7154859121
 30
0.0
 10
16.4155019709
 20
11.6881423393
 30
0.0
 10
16.4318161616
 20
11.6607210914
 30
0.0
 10
16.4468419491
 20
11.6332505934
 30
0.0
 10
16.4605636079
 20
11.6057591994
 30
0.0
 10
16.4729665766
 20
11.5782757181
 30
0.0
 10
16.4822352533
 20
11.5552972225
 30
0.0
 10
16.4889681069
 20
11.5369502512
 30
0.0
 10
16.4951926001
 20
11.5187955748
 30
0.0
 10
16.5021400306
 20
11.4961549942
 30
0.0
 10
16.508007082
 20
11.4734198771
 30
0.0
 10
16.5120055863
 20
11.4553143228
 30
0.0
 10
16.5146488396
 20
11.4418324703
 30
0.0
 10
16.5169481132
 20
11.4283955604
 30
0.0
 10
16.5189028022
 20
11.4150070143
 30
0.0
 10
16.5205123894
 20
11.401670344
 30
0.0
 10
16.5217764446
 20
11.3883890215
 30
0.0
 10
16.5226946185
 20
11.3751665119
 30
0.0
 10
16.5232666764
 20
11.3620062663
 30
0.0
 10
16.5234924364
 20
11.3489117189
 30
0.0
 10
16.523371854
 20
11.3358862902
 30
0.0
 10
16.5229049265
 20
11.3229333824
 30
0.0
 10
16.5220917865
 20
11.3100563803
 30
0.0
 10
16.520932625
 20
11.2972586507
 30
0.0
 10
16.5194277411
 20
11.2845435399
 30
0.0
 10
16.5175775266
 20
11.2719143737
 30
0.0
 10
16.5153824447
 20
11.259374456
 30
0.0
 10
16.5128430881
 20
11.2469270736
 30
0.0
 10
16.5099600816
 20
11.2345754557
 30
0.0
 10
16.5067342421
 20
11.2223229552
 30
0.0
 10
16.5043553624
 20
11.214221808
 30
0.0
 10
16.5031094747
 20
11.2101901099
 30
0.0
  0
SPLINE
  5
2C8
100
AcDbEntity
  8
LAYER_FEATURE
100
AcDbSpline
 62
7
  6
CONTINUOUS
 70
0
 71
3
 72
23
 73
19
 74
0
 42
0.0000001
 43
0.0000001
 44
0.0000000001
 40
0.0
 40
0.0
 40
0.0
 40
0.0
 40
0.0512688346
 40
0.1040081659
 40
0.158274593
 40
0.2141063247
 40
0.2715240828
 40
0.3305325472
 40
0.3911216939
 40
0.4532677392
 40
0.516934441
 40
0.5820742897
 40
0.6486293144
 40
0.7165325405
 40
0.7857077598
 40
0.8560708501
 40
0.9275370613
 40
1.0
 40
1.0
 40
1.0
 40
1.0
 10
16.0459663187
 20
13.6608408721
 30
0.0
 10
16.0465154488
 20
13.6593593502
 30
0.0
 10
16.0477269721
 20
13.6563891298
 30
0.0
 10
16.0498392349
 20
13.6519895385
 30
0.0
 10
16.0522664829
 20
13.6475942396
 30
0.0
 10
16.0550028188
 20
13.6432137683
 30
0.0
 10
16.0580417171
 20
13.6388582809
 30
0.0
 10
16.0613759411
 20
13.6345379778
 30
0.0
 10
16.0649976158
 20
13.6302629881
 30
0.0
 10
16.0688981673
 20
13.6260433324
 30
0.0
 10
16.0730683668
 20
13.6218889044
 30
0.0
 10
16.0774983806
 20
13.617809484
 30
0.0
 10
16.0821777557
 20
13.613814664
 30
0.0
 10
16.0870954331
 20
13.6099138464
 30
0.0
 10
16.0922397765
 20
13.6061162459
 30
0.0
 10
16.0975987609
 20
13.6024307286
 30
0.0
 10
16.1031595475
 20
13.5988661656
 30
0.0
 10
16.1069679943
 20
13.5965906132
 30
0.0
 10
16.1089022664
 20
13.5954745077
 30
0.0
  0
SPLINE
  5
2C9
100
AcDbEntity
  8
LAYER_FEATURE
100
AcDbSpline
 62
7
  6
CONTINUOUS
 70
0
 71
3
 72
31
 73
27
 74
0
 42
0.0000001
 43
0.0000001
 44
0.0000000001
 40
0.0
 40
0.0
 40
0.0
 40
0.0
 40
0.02301042
 40
0.0461116996
 40
0.0693927675
 40
0.0929393348
 40
0.1168320168
 40
0.141145691
 40
0.165947935
 40
0.1912990324
 40
0.2438258346
 40
0.271104914
 40
0.2990940122
 40
0.3278146163
 40
0.3572805343
 40
0.3874996887
 40
0.4184731816
 40
0.4501969285
 40
0.4826611982
 40
0.5497379953
 40
0.6195479709
 40
0.691862085
 40
0.7664016024
 40
0.8428438018
 40
0.9208385681
 40
1.0
 40
1.0
 40
1.0
 40
1.0
 10
16.0671476852
 20
13.7293786273
 30
0.0
 10
16.0672525059
 20
13.7297178151
 30
0.0
 10
16.0674364871
 20
13.7304059032
 30
0.0
 10
16.0676332105
 20
13.7314592999
 30
0.0
 10
16.0677506541
 20
13.7325328168
 30
0.0
 10
16.0677884957
 20
13.7336242403
 30
0.0
 10
16.0677468172
 20
13.7347314316
 30
0.0
 10
16.0676256498
 20
13.7358521895
 30
0.0
 10
16.0674253518
 20
13.7369843883
 30
0.0
 10
16.0670489551
 20
13.7385241235
 30
0.0
 10
16.066516451
 20
13.7400614232
 30
0.0
 10
16.0658436026
 20
13.741582918
 30
0.0
 10
16.065257032
 20
13.7427390947
 30
0.0
 10
16.064596098
 20
13.7438933334
 30
0.0
 10
16.0638621304
 20
13.7450435741
 30
0.0
 10
16.0630564937
 20
13.7461875402
 30
0.0
 10
16.0621808105
 20
13.7473230927
 30
0.0
 10
16.0612367186
 20
13.7484480335
 30
0.0
 10
16.0598744273
 20
13.7499471729
 30
0.0
 10
16.0580081118
 20
13.7517793517
 30
0.0
 10
16.0555525939
 20
13.7538776534
 30
0.0
 10
16.052875744
 20
13.7558834309
 30
0.0
 10
16.0499981828
 20
13.7577812672
 30
0.0
 10
16.0469418856
 20
13.7595567496
 30
0.0
 10
16.04373044
 20
13.7611961434
 30
0.0
 10
16.0415149224
 20
13.7621844436
 30
0.0
 10
16.0403872279
 20
13.7626534562
 30
0.0
  0
SPLINE
  5
2CA
100
AcDbEntity
  8
LAYER_CUT_FEAT
100
AcDbSpline
 62
7
  6
CONTINUOUS
 70
0
 71
3
 72
87
 73
83
 74
0
 42
0.0000001
 43
0.0000001
 44
0.0000000001
 40
0.0
 40
0.0
 40
0.0
 40
0.0
 40
0.0131061064
 40
0.0265341012
 40
0.0402890101
 40
0.0543738965
 40
0.0687891197
 40
0.076120495
 40
0.0835336261
 40
0.0910279775
 40
0.0986028828
 40
0.1062575789
 40
0.1139911728
 40
0.1296904548
 40
0.1456921938
 40
0.1619857641
 40
0.1785591579
 40
0.1953990993
 40
0.2124911526
 40
0.2298198244
 40
0.2473686602
 40
0.2651203393
 40
0.2830567649
 40
0.301159149
 40
0.3194080965
 40
0.3377836848
 40
0.3562655429
 40
0.3748329278
 40
0.3934648013
 40
0.4121399042
 40
0.4308368302
 40
0.4495340985
 40
0.4682102271
 40
0.4868438055
 40
0.5054135684
 40
0.52389847
 40
0.5422777575
 40
0.560531047
 40
0.5786384001
 40
0.5965804026
 40
0.6143382453
 40
0.6318938085
 40
0.6492297465
 40
0.6663295771
 40
0.6831777745
 40
0.6997598668
 40
0.7160625381
 40
0.7320737377
 40
0.7477827953
 40
0.7631805397
 40
0.778259427
 40
0.793013675
 40
0.8002681182
 40
0.8074401195
 40
0.8145295095
 40
0.8215362738
 40
0.8284605216
 40
0.835302528
 40
0.8487407577
 40
0.8618570634
 40
0.8682973768
 40
0.8746604255
 40
0.8809476548
 40
0.8871606837
 40
0.8993704007
 40
0.9113074567
 40
0.9171804893
 40
0.9229930802
 40
0.9287481961
 40
0.9344489961
 40
0.9400988276
 40
0.9457012099
 40
0.9512598448
 40
0.9567785876
 40
0.9622614548
 40
0.9677125992
 40
0.9731363025
 40
0.9785369604
 40
0.9839190614
 40
0.9892871765
 40
0.9946459327
 40
1.0
 40
1.0
 40
1.0
 40
1.0
 10
14.5222689248
 20
11.6146790083
 30
0.0
 10
14.5253736015
 20
11.6083523423
 30
0.0
 10
14.5319802056
 20
11.5956987825
 30
0.0
 10
14.5429021438
 20
11.5769809837
 30
0.0
 10
14.5549367106
 20
11.5583287598
 30
0.0
 10
14.5680626559
 20
11.5397745592
 30
0.0
 10
14.5798248891
 20
11.5245073126
 30
0.0
 10
14.5897512668
 20
11.5123687691
 30
0.0
 10
14.5974966744
 20
11.5032569074
 30
0.0
 10
14.6054970691
 20
11.4941927786
 30
0.0
 10
14.6137490293
 20
11.4851801651
 30
0.0
 10
14.6222490917
 20
11.4762229472
 30
0.0
 10
14.6339665165
 20
11.4642997811
 30
0.0
 10
14.6492180302
 20
11.4495614956
 30
0.0
 10
14.6683598384
 20
11.4322454264
 30
0.0
 10
14.6883996116
 20
11.415241175
 30
0.0
 10
14.7093029921
 20
11.398577849
 30
0.0
 10
14.731034357
 20
11.3822838053
 30
0.0
 10
14.753556611
 20
11.3663868343
 30
0.0
 10
14.7768313207
 20
11.3509140459
 30
0.0
 10
14.8008187559
 20
11.3358918334
 30
0.0
 10
14.8254779685
 20
11.3213458284
 30
0.0
 10
14.8507668599
 20
11.3073008561
 30
0.0
 10
14.8766422539
 20
11.2937808914
 30
0.0
 10
14.90305997
 20
11.2808090172
 30
0.0
 10
14.9299748986
 20
11.2684073848
 30
0.0
 10
14.9573410773
 20
11.2565971736
 30
0.0
 10
14.9851117683
 20
11.2453985498
 30
0.0
 10
15.0132395421
 20
11.2348306378
 30
0.0
 10
15.0416763585
 20
11.224911486
 30
0.0
 10
15.0703736492
 20
11.2156580363
 30
0.0
 10
15.0992824001
 20
11.2070860942
 30
0.0
 10
15.1283532365
 20
11.1992103031
 30
0.0
 10
15.1575365062
 20
11.1920441161
 30
0.0
 10
15.1867823654
 20
11.1855997691
 30
0.0
 10
15.216040866
 20
11.1798882667
 30
0.0
 10
15.2452620408
 20
11.1749193626
 30
0.0
 10
15.2743959891
 20
11.1707015432
 30
0.0
 10
15.3033929626
 20
11.1672420135
 30
0.0
 10
15.3322034506
 20
11.1645466857
 30
0.0
 10
15.360778266
 20
11.1626201667
 30
0.0
 10
15.3890686297
 20
11.1614657476
 30
0.0
 10
15.417026256
 20
11.1610854057
 30
0.0
 10
15.444603434
 20
11.1614798015
 30
0.0
 10
15.4717531096
 20
11.1626482791
 30
0.0
 10
15.4984289666
 20
11.1645888685
 30
0.0
 10
15.5245855039
 20
11.1672982926
 30
0.0
 10
15.5501781233
 20
11.1707719718
 30
0.0
 10
15.5751631742
 20
11.1750040259
 30
0.0
 10
15.5994981426
 20
11.1799873227
 30
0.0
 10
15.6231412981
 20
11.1857133878
 30
0.0
 10
15.6423408487
 20
11.1911261816
 30
0.0
 10
15.6573126553
 20
11.1958250098
 30
0.0
 10
15.6682809218
 20
11.1995085054
 30
0.0
 10
15.6790465738
 20
11.2033695224
 30
0.0
 10
15.6896050596
 20
11.2074063549
 30
0.0
 10
15.6999519063
 20
11.211617381
 30
0.0
 10
15.7133783094
 20
11.2174266997
 30
0.0
 10
15.7296186566
 20
11.2251061938
 30
0.0
 10
15.745290714
 20
11.2334383952
 30
0.0
 10
15.7573463396
 20
11.2404348252
 30
0.0
 10
15.766092868
 20
11.2458106223
 30
0.0
 10
15.7745950513
 20
11.251344229
 30
0.0
 10
15.7855362789
 20
11.2588853226
 30
0.0
 10
15.7985992749
 20
11.2686910053
 30
0.0
 10
15.8109452958
 20
11.2791055842
 30
0.0
 10
15.8202793586
 20
11.2877233808
 30
0.0
 10
15.8269749075
 20
11.2942921549
 30
0.0
 10
15.8333999053
 20
11.300998077
 30
0.0
 10
15.83955164
 20
11.30783835
 30
0.0
 10
15.845427482
 20
11.3148100081
 30
0.0
 10
15.8510248373
 20
11.3219101331
 30
0.0
 10
15.8563413635
 20
11.3291356282
 30
0.0
 10
15.8613746894
 20
11.3364834606
 30
0.0
 10
15.8661226929
 20
11.343950443
 30
0.0
 10
15.8705832945
 20
11.3515333943
 30
0.0
 10
15.8747545485
 20
11.3592290658
 30
0.0
 10
15.8786346989
 20
11.3670341301
 30
0.0
 10
15.882221982
 20
11.3749452612
 30
0.0
 10
15.8855149483
 20
11.3829590512
 30
0.0
 10
15.8885120439
 20
11.391071946
 30
0.0
 10
15.8903124052
 20
11.3965454172
 30
0.0
 10
15.8911624205
 20
11.3992960524
 30
0.0
  0
SPLINE
  5
2CB
100
AcDbEntity
  8
LAYER_FEATURE
100
AcDbSpline
 62
7
  6
CONTINUOUS
 70
0
 71
3
 72
22
 73
18
 74
0
 42
0.0000001
 43
0.0000001
 44
0.0000000001
 40
0.0
 40
0.0
 40
0.0
 40
0.0
 40
0.0594372131
 40
0.1190498183
 40
0.1788957533
 40
0.2390312473
 40
0.2995104256
 40
0.3603850335
 40
0.4217040154
 40
0.4835134011
 40
0.5458558141
 40
0.6087706607
 40
0.6722938643
 40
0.7364572269
 40
0.8012883223
 40
0.8668134273
 40
1.0
 40
1.0
 40
1.0
 40
1.0
 10
14.6535091404
 20
12.6886987992
 30
0.0
 10
14.6527125808
 20
12.6907689012
 30
0.0
 10
14.6512123893
 20
12.6949525929
 30
0.0
 10
14.6492484363
 20
12.7013354883
 30
0.0
 10
14.6475701524
 20
12.7078264165
 30
0.0
 10
14.646179496
 20
12.7144179678
 30
0.0
 10
14.6450779138
 20
12.7211028239
 30
0.0
 10
14.6442666962
 20
12.7278735307
 30
0.0
 10
14.6437466209
 20
12.7347225382
 30
0.0
 10
14.643518338
 20
12.7416422231
 30
0.0
 10
14.6435819753
 20
12.7486248842
 30
0.0
 10
14.6439375051
 20
12.7556627594
 30
0.0
 10
14.6445844653
 20
12.7627480419
 30
0.0
 10
14.6455221002
 20
12.7698727767
 30
0.0
 10
14.6467493835
 20
12.77702929
 30
0.0
 10
14.6487807483
 20
12.7866537612
 30
0.0
 10
14.6507206295
 20
12.7938201211
 30
0.0
 10
14.6521880786
 20
12.7985687883
 30
0.0
  0
SPLINE
  5
2CC
100
AcDbEntity
  8
02___PRT_ALL_AXES
100
AcDbSpline
 62
7
  6
CONTINUOUS
 70
0
 71
3
 72
56
 73
52
 74
0
 42
0.0000001
 43
0.0000001
 44
0.0000000001
 40
0.0
 40
0.0
 40
0.0
 40
0.0
 40
0.0114895247
 40
0.0230332508
 40
0.0346521414
 40
0.0463663052
 40
0.0581948028
 40
0.0701555159
 40
0.0822648992
 40
0.0945380096
 40
0.1069882368
 40
0.1196274356
 40
0.1324657278
 40
0.1455116015
 40
0.1587718793
 40
0.1722517197
 40
0.1859547778
 40
0.1998830786
 40
0.2140373013
 40
0.2284166604
 40
0.2430191519
 40
0.2578415451
 40
0.2728795005
 40
0.2881277099
 40
0.3035799076
 40
0.3192290844
 40
0.3350674465
 40
0.3510866316
 40
0.3672777195
 40
0.3836313559
 40
0.4001378185
 40
0.4167870878
 40
0.4335689432
 40
0.4504729982
 40
0.4674887869
 40
0.4846057893
 40
0.5190989702
 40
0.5538719514
 40
0.5888436136
 40
0.623935784
 40
0.659073897
 40
0.6941875614
 40
0.7292109351
 40
0.7640831186
 40
0.798748407
 40
0.8331566162
 40
0.8672633151
 40
0.9010300511
 40
0.9344246885
 40
0.967421006
 40
1.0
 40
1.0
 40
1.0
 40
1.0
 10
14.6476277077
 20
12.6993931561
 30
0.0
 10
14.6467278623
 20
12.7012268561
 30
0.0
 10
14.6450185876
 20
12.7049502164
 30
0.0
 10
14.6427375925
 20
12.7106755041
 30
0.0
 10
14.640736621
 20
12.7165468995
 30
0.0
 10
14.6390173684
 20
12.7225594362
 30
0.0
 10
14.6375811207
 20
12.7287081404
 30
0.0
 10
14.6364290016
 20
12.7349877188
 30
0.0
 10
14.6355617283
 20
12.7413926147
 30
0.0
 10
14.634979902
 20
12.7479170003
 30
0.0
 10
14.6346836764
 20
12.7545547633
 30
0.0
 10
14.6346730734
 20
12.7612995046
 30
0.0
 10
14.634947715
 20
12.7681445428
 30
0.0
 10
14.6355069914
 20
12.7750829052
 30
0.0
 10
14.6363499968
 20
12.7821073301
 30
0.0
 10
14.6374754755
 20
12.7892102915
 30
0.0
 10
14.6388819662
 20
12.7963839654
 30
0.0
 10
14.6405675887
 20
12.8036203031
 30
0.0
 10
14.6425302833
 20
12.8109109669
 30
0.0
 10
14.6447675905
 20
12.8182474267
 30
0.0
 10
14.6472768257
 20
12.8256209116
 30
0.0
 10
14.6500549897
 20
12.833022469
 30
0.0
 10
14.6530987875
 20
12.8404429811
 30
0.0
 10
14.6564047017
 20
12.8478731545
 30
0.0
 10
14.659968881
 20
12.855303611
 30
0.0
 10
14.6637873048
 20
12.8627248202
 30
0.0
 10
14.6678556363
 20
12.8701272194
 30
0.0
 10
14.6721693725
 20
12.8775011489
 30
0.0
 10
14.6767237629
 20
12.884836939
 30
0.0
 10
14.6815138611
 20
12.8921249005
 30
0.0
 10
14.6865345542
 20
12.8993553339
 30
0.0
 10
14.6917805046
 20
12.9065185957
 30
0.0
 10
14.6972462739
 20
12.9136050414
 30
0.0
 10
14.7029261827
 20
12.9206051202
 30
0.0
 10
14.7088145213
 20
12.9275093635
 30
0.0
 10
14.7169557963
 20
12.9365972268
 30
0.0
 10
14.7276178241
 20
12.9476589885
 30
0.0
 10
14.7411137729
 20
12.9603683844
 30
0.0
 10
14.7552925052
 20
12.9724765014
 30
0.0
 10
14.7700995801
 20
12.9839143224
 30
0.0
 10
14.7854784719
 20
12.9946156726
 30
0.0
 10
14.8013700506
 20
13.0045172255
 30
0.0
 10
14.8177124838
 20
13.0135590066
 30
0.0
 10
14.8344410311
 20
13.0216848365
 30
0.0
 10
14.8514879342
 20
13.0288428949
 30
0.0
 10
14.8687823667
 20
13.0349863244
 30
0.0
 10
14.8862505507
 20
13.0400738739
 30
0.0
 10
14.903815854
 20
13.0440705878
 30
0.0
 10
14.9213995482
 20
13.0469483588
 30
0.0
 10
14.9389197266
 20
13.0486866472
 30
0.0
 10
14.9505810614
 20
13.0490798856
 30
0.0
 10
14.9563729072
 20
13.0490798856
 30
0.0
  0
SPLINE
  5
2CD
100
AcDbEntity
  8
LAYER_CUT_FEAT
100
AcDbSpline
 62
7
  6
CONTINUOUS
 70
0
 71
3
 72
27
 73
23
 74
0
 42
0.0000001
 43
0.0000001
 44
0.0000000001
 40
0.0
 40
0.0
 40
0.0
 40
0.0
 40
0.0290769695
 40
0.0581681962
 40
0.087287898
 40
0.1164502256
 40
0.145669236
 40
0.1749588348
 40
0.2043327664
 40
0.2338045919
 40
0.2930899057
 40
0.3529232793
 40
0.4134031746
 40
0.4746225496
 40
0.5366682669
 40
0.5996205807
 40
0.6635530745
 40
0.7285324239
 40
0.7946175931
 40
0.8618611423
 40
0.9303108282
 40
1.0
 40
1.0
 40
1.0
 40
1.0
 10
14.4972034193
 20
11.8300619642
 30
0.0
 10
14.4965676248
 20
11.8280045439
 30
0.0
 10
14.4953512679
 20
11.8238712929
 30
0.0
 10
14.4936942111
 20
11.817622031
 30
0.0
 10
14.4922047692
 20
11.8113241697
 30
0.0
 10
14.4908833302
 20
11.8049792779
 30
0.0
 10
14.4897302409
 20
11.7985888541
 30
0.0
 10
14.4887457311
 20
11.7921544619
 30
0.0
 10
14.4879300398
 20
11.7856775875
 30
0.0
 10
14.4870662003
 20
11.7769708003
 30
0.0
 10
14.4864113936
 20
11.7659803559
 30
0.0
 10
14.4863056319
 20
11.7526742111
 30
0.0
 10
14.486878083
 20
11.7392365916
 30
0.0
 10
14.4881281201
 20
11.7256807055
 30
0.0
 10
14.4900543992
 20
11.7120195394
 30
0.0
 10
14.4926548579
 20
11.6982662158
 30
0.0
 10
14.4959269041
 20
11.684433903
 30
0.0
 10
14.4998672637
 20
11.6705358487
 30
0.0
 10
14.5044719536
 20
11.6565853301
 30
0.0
 10
14.5097365914
 20
11.6425954645
 30
0.0
 10
14.5156558866
 20
11.6285800317
 30
0.0
 10
14.5199952273
 20
11.6193123166
 30
0.0
 10
14.5222689248
 20
11.6146790083
 30
0.0
  0
SPLINE
  5
2CE
100
AcDbEntity
  8
LAYER_CUT_FEAT
100
AcDbSpline
 62
7
  6
CONTINUOUS
 70
0
 71
3
 72
15
 73
11
 74
0
 42
0.0000001
 43
0.0000001
 44
0.0000000001
 40
0.0
 40
0.0
 40
0.0
 40
0.0
 40
0.1236303737
 40
0.2475016484
 40
0.3716904441
 40
0.4962724446
 40
0.6213221727
 40
0.7469126312
 40
0.873115341
 40
1.0
 40
1.0
 40
1.0
 40
1.0
 10
14.5028177212
 20
11.8465539633
 30
0.0
 10
14.5022453491
 20
11.844167998
 30
0.0
 10
14.5011726408
 20
11.8393735308
 30
0.0
 10
14.4997823835
 20
11.8321277758
 30
0.0
 10
14.498609984
 20
11.824824405
 30
0.0
 10
14.4976558488
 20
11.8174657704
 30
0.0
 10
14.4969202968
 20
11.8100541397
 30
0.0
 10
14.4964034856
 20
11.8025918069
 30
0.0
 10
14.4961056185
 20
11.7950811658
 30
0.0
 10
14.4960532117
 20
11.7900576489
 30
0.0
 10
14.4960631858
 20
11.7875394232
 30
0.0
  0
SPLINE
  5
2CF
100
AcDbEntity
  8
LAYER_CHAMFER_FEAT
100
AcDbSpline
 62
7
  6
CONTINUOUS
 70
0
 71
3
 72
68
 73
64
 74
0
 42
0.0000001
 43
0.0000001
 44
0.0000000001
 40
0.0
 40
0.0
 40
0.0
 40
0.0
 40
0.0106254253
 40
0.0212734957
 40
0.0319666132
 40
0.0427267211
 40
0.0535750713
 40
0.0645320455
 40
0.0756169822
 40
0.0868480257
 40
0.0982420468
 40
0.1098145099
 40
0.1215794871
 40
0.1335495507
 40
0.1396153879
 40
0.1457365409
 40
0.1581487157
 40
0.1707950116
 40
0.1836822698
 40
0.1968159624
 40
0.2102002938
 40
0.2238381769
 40
0.2377313897
 40
0.2518805266
 40
0.2662851592
 40
0.2809438099
 40
0.2958540651
 40
0.3110126066
 40
0.3264152527
 40
0.3420570535
 40
0.357932268
 40
0.3740345003
 40
0.3903566474
 40
0.4068910337
 40
0.4236293755
 40
0.4405628733
 40
0.4576822234
 40
0.4749776522
 40
0.4924389778
 40
0.5100555973
 40
0.5278165782
 40
0.545710627
 40
0.5637261791
 40
0.5818513802
 40
0.6000741507
 40
0.6183821941
 40
0.6367630325
 40
0.6552040384
 40
0.6736924507
 40
0.6922154176
 40
0.710760008
 40
0.7293132522
 40
0.7478621575
 40
0.7848934731
 40
0.8217522654
 40
0.8583367082
 40
0.8945472574
 40
0.9124830078
 40
0.9302894816
 40
0.9479551126
 40
0.9654692521
 40
0.9828216817
 40
1.0
 40
1.0
 40
1.0
 40
1.0
 10
14.8495163447
 20
11.769458908
 30
0.0
 10
14.8488341747
 20
11.7672514042
 30
0.0
 10
14.8475927894
 20
11.7627921396
 30
0.0
 10
14.8461077384
 20
11.7559979138
 30
0.0
 10
14.8450001757
 20
11.7491021962
 30
0.0
 10
14.8442713914
 20
11.7421125667
 30
0.0
 10
14.8439220207
 20
11.7350363608
 30
0.0
 10
14.843952368
 20
11.7278810715
 30
0.0
 10
14.8443623402
 20
11.7206542358
 30
0.0
 10
14.845151348
 20
11.7133634377
 30
0.0
 10
14.8463185559
 20
11.7060163323
 30
0.0
 10
14.8478625471
 20
11.6986205524
 30
0.0
 10
14.8497816996
 20
11.6911839125
 30
0.0
 10
14.8516833598
 20
11.684986601
 30
0.0
 10
14.8533871589
 20
11.6800172696
 30
0.0
 10
14.8552300856
 20
11.674995283
 30
0.0
 10
14.8577671359
 20
11.6687055524
 30
0.0
 10
14.8611621018
 20
11.6611826978
 30
0.0
 10
14.864918042
 20
11.6536576884
 30
0.0
 10
14.8690309228
 20
11.6461383811
 30
0.0
 10
14.8734965051
 20
11.6386325782
 30
0.0
 10
14.8783100375
 20
11.6311480095
 30
0.0
 10
14.8834665677
 20
11.6236924813
 30
0.0
 10
14.8889606466
 20
11.6162736671
 30
0.0
 10
14.894786599
 20
11.6088992995
 30
0.0
 10
14.9009383229
 20
11.601576997
 30
0.0
 10
14.9074094234
 20
11.5943143641
 30
0.0
 10
14.9141931746
 20
11.5871189477
 30
0.0
 10
14.9212824889
 20
11.5799981863
 30
0.0
 10
14.928670031
 20
11.5729595206
 30
0.0
 10
14.9363480657
 20
11.5660102029
 30
0.0
 10
14.9443086554
 20
11.5591575159
 30
0.0
 10
14.952543472
 20
11.5524085215
 30
0.0
 10
14.9610439842
 20
11.5457702835
 30
0.0
 10
14.9698013248
 20
11.539249671
 30
0.0
 10
14.9788063907
 20
11.5328534768
 30
0.0
 10
14.9880498175
 20
11.526588362
 30
0.0
 10
14.9975219693
 20
11.520460814
 30
0.0
 10
15.0072130163
 20
11.514477254
 30
0.0
 10
15.017112841
 20
11.5086438488
 30
0.0
 10
15.0272111747
 20
11.5029667321
 30
0.0
 10
15.0374974761
 20
11.4974517504
 30
0.0
 10
15.0479610644
 20
11.4921046941
 30
0.0
 10
15.0585910323
 20
11.486931093
 30
0.0
 10
15.0693763222
 20
11.4819363473
 30
0.0
 10
15.0803057107
 20
11.4771256621
 30
0.0
 10
15.0913678097
 20
11.4725040176
 30
0.0
 10
15.1025511225
 20
11.46807627
 30
0.0
 10
15.1138439846
 20
11.4638469704
 30
0.0
 10
15.1252346675
 20
11.4598205847
 30
0.0
 10
15.1367112782
 20
11.4560012466
 30
0.0
 10
15.1482619385
 20
11.4523929659
 30
0.0
 10
15.1637358853
 20
11.4478711253
 30
0.0
 10
15.1831835629
 20
11.4427685877
 30
0.0
 10
15.2066358975
 20
11.4375393243
 30
0.0
 10
15.2300930365
 20
11.4332289614
 30
0.0
 10
15.2496253431
 20
11.4304087069
 30
0.0
 10
15.2651710327
 20
11.4286308785
 30
0.0
 10
15.2767341824
 20
11.4275412298
 30
0.0
 10
15.2882255338
 20
11.4266922473
 30
0.0
 10
15.2996333588
 20
11.42608481
 30
0.0
 10
15.310945449
 20
11.425719629
 30
0.0
 10
15.3184544167
 20
11.4256374089
 30
0.0
 10
15.3221898506
 20
11.4256374089
 30
0.0
  0
SPLINE
  5
2D0
100
AcDbEntity
  8
LAYER_FEATURE
100
AcDbSpline
 62
7
  6
CONTINUOUS
 70
0
 71
3
 72
15
 73
11
 74
0
 42
0.0000001
 43
0.0000001
 44
0.0000000001
 40
0.0
 40
0.0
 40
0.0
 40
0.0
 40
0.1108687826
 40
0.2251120558
 40
0.3431247617
 40
0.4652490535
 40
0.5917770021
 40
0.7229519454
 40
0.8589737326
 40
1.0
 40
1.0
 40
1.0
 40
1.0
 10
16.5366594292
 20
12.2532996621
 30
0.0
 10
16.5378523624
 20
12.2527739718
 30
0.0
 10
16.5402353626
 20
12.2516155711
 30
0.0
 10
16.5437347244
 20
12.2496017614
 30
0.0
 10
16.5472049826
 20
12.2472900588
 30
0.0
 10
16.5506422052
 20
12.2446833879
 30
0.0
 10
16.5540427813
 20
12.2417847046
 30
0.0
 10
16.5574031608
 20
12.238597354
 30
0.0
 10
16.560719644
 20
12.2351249436
 30
0.0
 10
16.5628599551
 20
12.2326674637
 30
0.0
 10
16.5639225418
 20
12.2313944272
 30
0.0
  0
SPLINE
  5
2D1
100
AcDbEntity
  8
02___PRT_ALL_AXES
100
AcDbSpline
 62
7
  6
CONTINUOUS
 70
0
 71
3
 72
31
 73
27
 74
0
 42
0.0000001
 43
0.0000001
 44
0.0000000001
 40
0.0
 40
0.0
 40
0.0
 40
0.0
 40
0.0680326439
 40
0.135233804
 40
0.2016001927
 40
0.2671367515
 40
0.3318565726
 40
0.3957800603
 40
0.4589343109
 40
0.5213525306
 40
0.5523023402
 40
0.5830831518
 40
0.61370061
 40
0.6441607
 40
0.6744696882
 40
0.7046341521
 40
0.7346609581
 40
0.7645573046
 40
0.794330686
 40
0.8239889228
 40
0.8535401487
 40
0.8829928431
 40
0.9123558202
 40
0.9416382599
 40
0.9708496892
 40
1.0
 40
1.0
 40
1.0
 40
1.0
 10
14.9563729072
 20
13.0490798856
 30
0.0
 10
14.9615123916
 20
13.0490798856
 30
0.0
 10
14.9717314238
 20
13.0487741142
 30
0.0
 10
14.9869068003
 20
13.047381128
 30
0.0
 10
15.001778928
 20
13.0450644882
 30
0.0
 10
15.016288541
 20
13.0418372884
 30
0.0
 10
15.0303785529
 20
13.0377176735
 30
0.0
 10
15.0439934411
 20
13.0327283961
 30
0.0
 10
15.0570791408
 20
13.026896893
 30
0.0
 10
15.067530865
 20
13.0213448766
 30
0.0
 10
15.075571443
 20
13.0165137133
 30
0.0
 10
15.0814221234
 20
13.0127109904
 30
0.0
 10
15.0871035022
 20
13.0087238622
 30
0.0
 10
15.0926100964
 20
13.0045573731
 30
0.0
 10
15.0979363509
 20
13.0002166497
 30
0.0
 10
15.1030769986
 20
12.9957070972
 30
0.0
 10
15.1080268079
 20
12.9910341421
 30
0.0
 10
15.112780814
 20
12.9862034724
 30
0.0
 10
15.1173340924
 20
12.9812207904
 30
0.0
 10
15.1216819904
 20
12.9760920345
 30
0.0
 10
15.1258198921
 20
12.970823155
 30
0.0
 10
15.1297434668
 20
12.9654203128
 30
0.0
 10
15.1334484144
 20
12.9598896873
 30
0.0
 10
15.1369307532
 20
12.9542376112
 30
0.0
 10
15.1401864619
 20
12.9484705705
 30
0.0
 10
15.1422054438
 20
12.9445496648
 30
0.0
 10
15.1431755788
 20
12.9425727305
 30
0.0
  0
SPLINE
  5
2D2
100
AcDbEntity
  8
02___PRT_ALL_AXES
100
AcDbSpline
 62
7
  6
CONTINUOUS
 70
0
 71
3
 72
39
 73
35
 74
0
 42
0.0000001
 43
0.0000001
 44
0.0000000001
 40
0.0
 40
0.0
 40
0.0
 40
0.0
 40
0.0240503208
 40
0.0487960434
 40
0.0742307795
 40
0.1003483464
 40
0.1271376202
 40
0.1545840251
 40
0.1826702052
 40
0.2113758593
 40
0.2406780777
 40
0.2705515338
 40
0.3009686504
 40
0.331899832
 40
0.3633135985
 40
0.3951767311
 40
0.4274544272
 40
0.4601103977
 40
0.4931069705
 40
0.5264052013
 40
0.5599649484
 40
0.5937449438
 40
0.6277028616
 40
0.6617953567
 40
0.6959781595
 40
0.7302061234
 40
0.7644332455
 40
0.7986127895
 40
0.832697347
 40
0.8666388947
 40
0.9003889242
 40
0.9338985518
 40
0.9671186559
 40
1.0
 40
1.0
 40
1.0
 40
1.0
 10
16.6361338263
 20
12.1974742291
 30
0.0
 10
16.6372543966
 20
12.1951907468
 30
0.0
 10
16.6394308231
 20
12.1905095196
 30
0.0
 10
16.642460941
 20
12.1832651199
 30
0.0
 10
16.6452989371
 20
12.1757093269
 30
0.0
 10
16.647941163
 20
12.1678546862
 30
0.0
 10
16.6503848965
 20
12.159713775
 30
0.0
 10
16.6526279454
 20
12.1512997629
 30
0.0
 10
16.6546688247
 20
12.1426262031
 30
0.0
 10
16.6565068063
 20
12.1337070031
 30
0.0
 10
16.658141724
 20
12.1245563656
 30
0.0
 10
16.659574059
 20
12.1151887699
 30
0.0
 10
16.6608049665
 20
12.1056189334
 30
0.0
 10
16.6618360859
 20
12.0958617544
 30
0.0
 10
16.6626696468
 20
12.0859323
 30
0.0
 10
16.663308419
 20
12.0758457728
 30
0.0
 10
16.6637555743
 20
12.0656174834
 30
0.0
 10
16.6640147844
 20
12.0552628417
 30
0.0
 10
16.66409012
 20
12.0447973371
 30
0.0
 10
16.6639859725
 20
12.0342365294
 30
0.0
 10
16.6637071246
 20
12.0235960412
 30
0.0
 10
16.6632586273
 20
12.0128915542
 30
0.0
 10
16.6626457794
 20
12.0021388113
 30
0.0
 10
16.6618741491
 20
11.9913536111
 30
0.0
 10
16.660949469
 20
11.9805518122
 30
0.0
 10
16.6598776454
 20
11.9697493335
 30
0.0
 10
16.6586647335
 20
11.9589621513
 30
0.0
 10
16.6573168735
 20
11.9482063009
 30
0.0
 10
16.6558402956
 20
11.937497867
 30
0.0
 10
16.6542412714
 20
11.9268529777
 30
0.0
 10
16.6525260896
 20
11.9162877951
 30
0.0
 10
16.6507010334
 20
11.9058184856
 30
0.0
 10
16.6487723401
 20
11.8954612325
 30
0.0
 10
16.6474139326
 20
11.8886032624
 30
0.0
 10
16.646718644
 20
11.8851958757
 30
0.0
  0
SPLINE
  5
2D3
100
AcDbEntity
  8
02___PRT_ALL_AXES
100
AcDbSpline
 62
7
  6
CONTINUOUS
 70
0
 71
3
 72
48
 73
44
 74
0
 42
0.0000001
 43
0.0000001
 44
0.0000000001
 40
0.0
 40
0.0
 40
0.0
 40
0.0
 40
0.0484538934
 40
0.0960709231
 40
0.142801762
 40
0.1885983919
 40
0.2334146585
 40
0.2772062555
 40
0.3199309686
 40
0.3615490539
 40
0.4020230698
 40
0.4413187178
 40
0.4794043005
 40
0.5162518312
 40
0.5518364182
 40
0.5861374392
 40
0.6191381502
 40
0.6508266125
 40
0.6811958755
 40
0.710244613
 40
0.737977978
 40
0.7644080539
 40
0.7771411341
 40
0.7895568462
 40
0.8016591365
 40
0.8134527746
 40
0.8249432409
 40
0.8361367007
 40
0.8470401576
 40
0.857661633
 40
0.8780924122
 40
0.8879254841
 40
0.8975186096
 40
0.9160356785
 40
0.9337688463
 40
0.9423876368
 40
0.9508654541
 40
0.9592230979
 40
0.9674823939
 40
0.9756660549
 40
0.9837975239
 40
0.9919007566
 40
1.0
 40
1.0
 40
1.0
 40
1.0
 10
16.6372344852
 20
11.8438258394
 30
0.0
 10
16.6365693158
 20
11.8412254697
 30
0.0
 10
16.635224613
 20
11.8360762113
 30
0.0
 10
16.6331466463
 20
11.8284433883
 30
0.0
 10
16.6310274922
 20
11.820974777
 30
0.0
 10
16.6288699318
 20
11.8136788119
 30
0.0
 10
16.6266765821
 20
11.8065637213
 30
0.0
 10
16.6244499295
 20
11.7996375044
 30
0.0
 10
16.6221923083
 20
11.7929079149
 30
0.0
 10
16.6199058923
 20
11.7863824579
 30
0.0
 10
16.6175927108
 20
11.7800683446
 30
0.0
 10
16.6152546168
 20
11.7739725224
 30
0.0
 10
16.6128933185
 20
11.7681016102
 30
0.0
 10
16.6105103508
 20
11.7624619485
 30
0.0
 10
16.6081070971
 20
11.7570595344
 30
0.0
 10
16.6056847798
 20
11.7519000659
 30
0.0
 10
16.603244467
 20
11.7469888992
 30
0.0
 10
16.6007870758
 20
11.7423310751
 30
0.0
 10
16.5983133822
 20
11.7379313075
 30
0.0
 10
16.5958239986
 20
11.7337939693
 30
0.0
 10
16.5933194522
 20
11.7299231843
 30
0.0
 10
16.5911943477
 20
11.7268861096
 30
0.0
 10
16.5894850943
 20
11.7245963263
 30
0.0
 10
16.5882155185
 20
11.7229693691
 30
0.0
 10
16.5869423974
 20
11.7214118289
 30
0.0
 10
16.5856657466
 20
11.7199240738
 30
0.0
 10
16.5843855794
 20
11.7185064546
 30
0.0
 10
16.5831019086
 20
11.7171593286
 30
0.0
 10
16.5818146978
 20
11.7158829938
 30
0.0
 10
16.5801158113
 20
11.7142966665
 30
0.0
 10
16.5783881883
 20
11.7128290093
 30
0.0
 10
16.5766307703
 20
11.7114918035
 30
0.0
 10
16.5749113329
 20
11.710282216
 30
0.0
 10
16.5727501504
 20
11.7089430383
 30
0.0
 10
16.5705284669
 20
11.7078203309
 30
0.0
 10
16.5687480466
 20
11.7070752248
 30
0.0
 10
16.5674216427
 20
11.7065950716
 30
0.0
 10
16.5660916669
 20
11.7061885163
 30
0.0
 10
16.5647581131
 20
11.7058556747
 30
0.0
 10
16.5634210152
 20
11.7055966836
 30
0.0
 10
16.562080394
 20
11.7054116515
 30
0.0
 10
16.560736352
 20
11.7053006288
 30
0.0
 10
16.5598386216
 20
11.7052760052
 30
0.0
 10
16.5593899652
 20
11.7052760034
 30
0.0
  0
SPLINE
  5
2D4
100
AcDbEntity
  8
02___PRT_ALL_AXES
100
AcDbSpline
 62
7
  6
CONTINUOUS
 70
0
 71
3
 72
31
 73
27
 74
0
 42
0.0000001
 43
0.0000001
 44
0.0000000001
 40
0.0
 40
0.0
 40
0.0
 40
0.0
 40
0.0269954573
 40
0.0539747727
 40
0.0809714616
 40
0.1080190962
 40
0.1351512379
 40
0.1624012
 40
0.1898019104
 40
0.2173858038
 40
0.2451846235
 40
0.2732293336
 40
0.3015499885
 40
0.3301756094
 40
0.3884415869
 40
0.4482472644
 40
0.5097804184
 40
0.5732067709
 40
0.6056794896
 40
0.638677249
 40
0.7062967982
 40
0.7409504252
 40
0.7761780303
 40
0.8483838574
 40
0.9229815047
 40
1.0
 40
1.0
 40
1.0
 40
1.0
 10
16.5593899652
 20
12.2572760006
 30
0.0
 10
16.5603133446
 20
12.257276003
 30
0.0
 10
16.5621598062
 20
12.2572358428
 30
0.0
 10
16.5649243488
 20
12.2570547738
 30
0.0
 10
16.5676801776
 20
12.2567529746
 30
0.0
 10
16.5704253711
 20
12.2563304781
 30
0.0
 10
16.5731581148
 20
12.2557874426
 30
0.0
 10
16.575876589
 20
12.2551240678
 30
0.0
 10
16.5785789765
 20
12.2543405325
 30
0.0
 10
16.5812634976
 20
12.2534371576
 30
0.0
 10
16.583928393
 20
12.2524142828
 30
0.0
 10
16.5865718838
 20
12.2512722486
 30
0.0
 10
16.5891923058
 20
12.2500115116
 30
0.0
 10
16.5926732929
 20
12.2481622499
 30
0.0
 10
16.5969624762
 20
12.2455478025
 30
0.0
 10
16.60195824
 20
12.2419632349
 30
0.0
 10
16.6068211818
 20
12.2379189007
 30
0.0
 10
16.6107220875
 20
12.2342006143
 30
0.0
 10
16.6137655851
 20
12.2310098563
 30
0.0
 10
16.616804237
 20
12.227619279
 30
0.0
 10
16.619734074
 20
12.2240340643
 30
0.0
 10
16.6225540935
 20
12.2202695139
 30
0.0
 10
16.6253601405
 20
12.2163006405
 30
0.0
 10
16.6287483551
 20
12.2110732121
 30
0.0
 10
16.632586887
 20
12.2044459901
 30
0.0
 10
16.6349732531
 20
12.1998392286
 30
0.0
 10
16.6361338263
 20
12.1974742291
 30
0.0
  0
SPLINE
  5
2D5
100
AcDbEntity
  8
LAYER_CUT_FEAT
100
AcDbSpline
 62
7
  6
CONTINUOUS
 70
0
 71
3
 72
27
 73
23
 74
0
 42
0.0000001
 43
0.0000001
 44
0.0000000001
 40
0.0
 40
0.0
 40
0.0
 40
0.0
 40
0.0290769695
 40
0.0581681962
 40
0.087287898
 40
0.1164502256
 40
0.145669236
 40
0.1749588348
 40
0.2043327664
 40
0.2338045919
 40
0.2930899057
 40
0.3529232793
 40
0.4134031746
 40
0.4746225496
 40
0.5366682669
 40
0.5996205807
 40
0.6635530745
 40
0.7285324239
 40
0.7946175931
 40
0.8618611423
 40
0.9303108282
 40
1.0
 40
1.0
 40
1.0
 40
1.0
 10
15.8835190538
 20
11.4016580314
 30
0.0
 10
15.8841478758
 20
11.4036928891
 30
0.0
 10
15.8853508937
 20
11.4077808131
 30
0.0
 10
15.8869897785
 20
11.4139615431
 30
0.0
 10
15.8884628866
 20
11.4201903394
 30
0.0
 10
15.8897698341
 20
11.4264656505
 30
0.0
 10
15.8909102782
 20
11.4327859943
 30
0.0
 10
15.8918839914
 20
11.4391498242
 30
0.0
 10
15.8926907376
 20
11.4455556705
 30
0.0
 10
15.8935451038
 20
11.4541669755
 30
0.0
 10
15.8941927297
 20
11.4650368941
 30
0.0
 10
15.8942973315
 20
11.4781971182
 30
0.0
 10
15.8937311581
 20
11.4914873751
 30
0.0
 10
15.8924948295
 20
11.5048946018
 30
0.0
 10
15.8905896747
 20
11.5184059538
 30
0.0
 10
15.8880177337
 20
11.5320084528
 30
0.0
 10
15.8847815701
 20
11.5456890748
 30
0.0
 10
15.8808844222
 20
11.5594347171
 30
0.0
 10
15.8763302293
 20
11.5732322486
 30
0.0
 10
15.8711233257
 20
11.5870686956
 30
0.0
 10
15.8652689439
 20
11.6009304293
 30
0.0
 10
15.8609771902
 20
11.6100965108
 30
0.0
 10
15.8587284271
 20
11.6146790083
 30
0.0
  0
SPLINE
  5
2D6
100
AcDbEntity
  8
02___PRT_ALL_AXES
100
AcDbSpline
 62
7
  6
CONTINUOUS
 70
0
 71
3
 72
50
 73
46
 74
0
 42
0.0000001
 43
0.0000001
 44
0.0000000001
 40
0.0
 40
0.0
 40
0.0
 40
0.0
 40
0.0396643557
 40
0.0788605742
 40
0.1175661666
 40
0.1557597774
 40
0.1934216662
 40
0.2305336657
 40
0.267079338
 40
0.3030440899
 40
0.3384153004
 40
0.3731824541
 40
0.4073372805
 40
0.4408739001
 40
0.4737889751
 40
0.5060818662
 40
0.5377547915
 40
0.5688129873
 40
0.5992648686
 40
0.6291221856
 40
0.6584001725
 40
0.6728285117
 40
0.6871194023
 40
0.71529902
 40
0.7429671474
 40
0.7566197098
 40
0.7701560783
 40
0.7835806393
 40
0.7968980202
 40
0.8101130795
 40
0.8232309107
 40
0.8362568289
 40
0.8491963693
 40
0.8620552774
 40
0.8748394974
 40
0.8875551662
 40
0.9002085956
 40
0.9128062643
 40
0.9253547992
 40
0.9378609614
 40
0.9503316299
 40
0.9627737814
 40
0.9751944744
 40
0.9876008274
 40
1.0
 40
1.0
 40
1.0
 40
1.0
 10
14.7762755626
 20
12.4662846648
 30
0.0
 10
14.7622145328
 20
12.4662846648
 30
0.0
 10
14.7342573135
 20
12.4659693787
 30
0.0
 10
14.6926011861
 20
12.4645322606
 30
0.0
 10
14.6515111411
 20
12.4621352899
 30
0.0
 10
14.6110337915
 20
12.4587811408
 30
0.0
 10
14.57121476
 20
12.454473584
 30
0.0
 10
14.5320989815
 20
12.4492174484
 30
0.0
 10
14.4937305777
 20
12.4430186297
 30
0.0
 10
14.4561528257
 20
12.4358840798
 30
0.0
 10
14.4194081049
 20
12.4278217956
 30
0.0
 10
14.3835378525
 20
12.4188408081
 30
0.0
 10
14.3485825172
 20
12.4089511703
 30
0.0
 10
14.3145815163
 20
12.3981639438
 30
0.0
 10
14.2815731923
 20
12.3864911838
 30
0.0
 10
14.2495947751
 20
12.3739459285
 30
0.0
 10
14.2186823334
 20
12.3605421722
 30
0.0
 10
14.1888707806
 20
12.3462948764
 30
0.0
 10
14.1601936933
 20
12.3312198529
 30
0.0
 10
14.1326838187
 20
12.3153341074
 30
0.0
 10
14.1106508307
 20
12.3013674359
 30
0.0
 10
14.0936497932
 20
12.2898028806
 30
0.0
 10
14.0772230456
 20
12.2780950269
 30
0.0
 10
14.0574599641
 20
12.2629922399
 30
0.0
 10
14.0385899259
 20
12.2471355983
 30
0.0
 10
14.0241625133
 20
12.2340936335
 30
0.0
 10
14.0137199195
 20
12.2241798195
 30
0.0
 10
14.0036109217
 20
12.2140936412
 30
0.0
 10
13.9938383103
 20
12.2038378975
 30
0.0
 10
13.9844048928
 20
12.1934154805
 30
0.0
 10
13.9753133293
 20
12.1828293416
 30
0.0
 10
13.9665662165
 20
12.1720824591
 30
0.0
 10
13.9581660373
 20
12.1611778718
 30
0.0
 10
13.9501151776
 20
12.1501186635
 30
0.0
 10
13.9424159417
 20
12.1389079514
 30
0.0
 10
13.9350705048
 20
12.1275489187
 30
0.0
 10
13.9280809777
 20
12.1160447676
 30
0.0
 10
13.9214493388
 20
12.1043987646
 30
0.0
 10
13.9151774836
 20
12.0926142052
 30
0.0
 10
13.9092672053
 20
12.0806944282
 30
0.0
 10
13.9037201737
 20
12.0686428181
 30
0.0
 10
13.8985379935
 20
12.0564627949
 30
0.0
 10
13.8937221082
 20
12.0441577867
 30
0.0
 10
13.8892739503
 20
12.0317314229
 30
0.0
 10
13.8865541272
 20
12.0233674704
 30
0.0
 10
13.8852563651
 20
12.0191679067
 30
0.0
  0
SPLINE
  5
2D7
100
AcDbEntity
  8
LAYER_CHAMFER_FEAT
100
AcDbSpline
 62
7
  6
CONTINUOUS
 70
0
 71
3
 72
40
 73
36
 74
0
 42
0.0000001
 43
0.0000001
 44
0.0000000001
 40
0.0
 40
0.0
 40
0.0
 40
0.0
 40
0.0248034314
 40
0.0496642047
 40
0.0621351601
 40
0.0746416147
 40
0.0997858398
 40
0.1251530348
 40
0.1507943356
 40
0.1767580792
 40
0.2030893419
 40
0.2298297808
 40
0.2570173147
 40
0.2846860799
 40
0.3128663625
 40
0.3415845262
 40
0.3708632079
 40
0.4007212085
 40
0.4311738014
 40
0.4622327215
 40
0.4939063728
 40
0.5262000289
 40
0.5591158536
 40
0.5926532663
 40
0.6268088773
 40
0.6615768381
 40
0.6969488852
 40
0.7329144565
 40
0.7694609605
 40
0.8065738634
 40
0.8442367267
 40
0.8824308759
 40
0.921137279
 40
0.9603361414
 40
1.0
 40
1.0
 40
1.0
 40
1.0
 10
15.5660819565
 20
11.548023386
 30
0.0
 10
15.5653713732
 20
11.5457239368
 30
0.0
 10
15.5638128916
 20
11.5411604743
 30
0.0
 10
15.5615318534
 20
11.5355756657
 30
0.0
 10
15.5595096559
 20
11.5311821797
 30
0.0
 10
15.5573489261
 20
11.5268244418
 30
0.0
 10
15.5543965552
 20
11.5214654788
 30
0.0
 10
15.5504679504
 20
11.5152026008
 30
0.0
 10
15.5461516757
 20
11.5091026458
 30
0.0
 10
15.5414527403
 20
11.5031727311
 30
0.0
 10
15.5363766603
 20
11.4974194417
 30
0.0
 10
15.5309292409
 20
11.4918493122
 30
0.0
 10
15.5251167868
 20
11.4864685463
 30
0.0
 10
15.5189459557
 20
11.4812831584
 30
0.0
 10
15.5124237723
 20
11.4762989666
 30
0.0
 10
15.5055577067
 20
11.4715214594
 30
0.0
 10
15.498355508
 20
11.4669560333
 30
0.0
 10
15.4908253848
 20
11.4626076942
 30
0.0
 10
15.48297583
 20
11.4584813343
 30
0.0
 10
15.4748157277
 20
11.4545815293
 30
0.0
 10
15.4663542994
 20
11.4509126045
 30
0.0
 10
15.4576010762
 20
11.4474787039
 30
0.0
 10
15.4485659572
 20
11.4442835851
 30
0.0
 10
15.4392591096
 20
11.4413308938
 30
0.0
 10
15.4296910459
 20
11.4386238673
 30
0.0
 10
15.4198725459
 20
11.4361655665
 30
0.0
 10
15.4098146826
 20
11.4339587476
 30
0.0
 10
15.3995288066
 20
11.4320058437
 30
0.0
 10
15.3890265031
 20
11.4303091034
 30
0.0
 10
15.3783196198
 20
11.4288703637
 30
0.0
 10
15.3674202681
 20
11.4276913078
 30
0.0
 10
15.3563407362
 20
11.426773188
 30
0.0
 10
15.345093336
 20
11.4261170647
 30
0.0
 10
15.3336910882
 20
11.4257237376
 30
0.0
 10
15.3260385348
 20
11.4256374089
 30
0.0
 10
15.3221898506
 20
11.4256374089
 30
0.0
  0
SPLINE
  5
2D8
100
AcDbEntity
  8
LAYER_FEATURE
100
AcDbSpline
 62
7
  6
CONTINUOUS
 70
0
 71
3
 72
53
 73
49
 74
0
 42
0.0000001
 43
0.0000001
 44
0.0000000001
 40
0.0
 40
0.0
 40
0.0
 40
0.0
 40
0.0475505234
 40
0.0938150178
 40
0.1387380611
 40
0.1822790091
 40
0.2244004453
 40
0.2650704797
 40
0.3042652972
 40
0.341969129
 40
0.3781749806
 40
0.4128863237
 40
0.4296870618
 40
0.4461208886
 40
0.4621916698
 40
0.4779043695
 40
0.5082763951
 40
0.5229541568
 40
0.537303818
 40
0.5650570455
 40
0.5916394788
 40
0.6171726895
 40
0.6295934241
 40
0.6418081829
 40
0.653838719
 40
0.6657080507
 40
0.6774404652
 40
0.6890613831
 40
0.7005971106
 40
0.7120747049
 40
0.7235217532
 40
0.7349660971
 40
0.7464356176
 40
0.7579579544
 40
0.7695602809
 40
0.7812691068
 40
0.7931099942
 40
0.8051074474
 40
0.8172848144
 40
0.8296640441
 40
0.8422656928
 40
0.8551089551
 40
0.8815840896
 40
0.9092193192
 40
0.938115929
 40
0.9530650688
 40
0.9683580444
 40
1.0
 40
1.0
 40
1.0
 40
1.0
 10
16.5019702769
 20
12.118527483
 30
0.0
 10
16.5027046555
 20
12.1209039331
 30
0.0
 10
16.5042095646
 20
12.125575505
 30
0.0
 10
16.5066103194
 20
12.1324250405
 30
0.0
 10
16.509120293
 20
12.1390114573
 30
0.0
 10
16.5117350213
 20
12.1453231115
 30
0.0
 10
16.5144499829
 20
12.1513492121
 30
0.0
 10
16.5172605156
 20
12.1570792942
 30
0.0
 10
16.5201617531
 20
12.1625034243
 30
0.0
 10
16.5231486975
 20
12.1676122845
 30
0.0
 10
16.5262162266
 20
12.1723969486
 30
0.0
 10
16.528863424
 20
12.176147047
 30
0.0
 10
16.5310188651
 20
12.1789734778
 30
0.0
 10
16.5326346243
 20
12.1809841281
 30
0.0
 10
16.5342664552
 20
12.1829077706
 30
0.0
 10
16.5364379824
 20
12.1853279624
 30
0.0
 10
16.5386621978
 20
12.1876017841
 30
0.0
 10
16.5409399155
 20
12.1897158785
 30
0.0
 10
16.5431833147
 20
12.1916630908
 30
0.0
 10
16.5460174147
 20
12.1938769844
 30
0.0
 10
16.5494992908
 20
12.1961934631
 30
0.0
 10
16.5524591157
 20
12.1978266239
 30
0.0
 10
16.5548380508
 20
12.1989364332
 30
0.0
 10
16.5566125382
 20
12.1996662437
 30
0.0
 10
16.5583927103
 20
12.2003007337
 30
0.0
 10
16.5601778275
 20
12.2008395868
 30
0.0
 10
16.5619670898
 20
12.2012825208
 30
0.0
 10
16.563759689
 20
12.2016293589
 30
0.0
 10
16.5655548237
 20
12.2018799032
 30
0.0
 10
16.5673516802
 20
12.2020339998
 30
0.0
 10
16.5691494354
 20
12.2020916169
 30
0.0
 10
16.5709472718
 20
12.2020527103
 30
0.0
 10
16.5727443645
 20
12.2019172633
 30
0.0
 10
16.574539896
 20
12.2016853934
 30
0.0
 10
16.5763330543
 20
12.2013572138
 30
0.0
 10
16.5781230204
 20
12.2009328477
 30
0.0
 10
16.5799090002
 20
12.2004125496
 30
0.0
 10
16.5816902037
 20
12.1997965792
 30
0.0
 10
16.5834658317
 20
12.199085191
 30
0.0
 10
16.5852351095
 20
12.1982787612
 30
0.0
 10
16.5869973041
 20
12.1973776635
 30
0.0
 10
16.5893600865
 20
12.1960370498
 30
0.0
 10
16.5922944511
 20
12.194117456
 30
0.0
 10
16.5957379441
 20
12.1914664659
 30
0.0
 10
16.5985356324
 20
12.1889811824
 30
0.0
 10
16.6007482582
 20
12.1868186504
 30
0.0
 10
16.6029930447
 20
12.1844857534
 30
0.0
 10
16.6046161619
 20
12.1826414224
 30
0.0
 10
16.6056767897
 20
12.181370734
 30
0.0
  0
SPLINE
  5
2D9
100
AcDbEntity
  8
LAYER_FEATURE
100
AcDbSpline
 62
7
  6
CONTINUOUS
 70
0
 71
3
 72
83
 73
79
 74
0
 42
0.0000001
 43
0.0000001
 44
0.0000000001
 40
0.0
 40
0.0
 40
0.0
 40
0.0
 40
0.0176366786
 40
0.0357015148
 40
0.0541696928
 40
0.0730185557
 40
0.0922232048
 40
0.111757458
 40
0.1315944396
 40
0.151706347
 40
0.1720646194
 40
0.1926400154
 40
0.2134027197
 40
0.2343224345
 40
0.2553684283
 40
0.2765096607
 40
0.2977148423
 40
0.318952514
 40
0.3401911432
 40
0.3613991852
 40
0.3825451832
 40
0.4035978311
 40
0.424526063
 40
0.4452991479
 40
0.4658867356
 40
0.486258987
 40
0.5063866383
 40
0.5262410621
 40
0.5457944289
 40
0.5650197359
 40
0.583890918
 40
0.6023830141
 40
0.6204721835
 40
0.638135892
 40
0.6553530598
 40
0.6721041108
 40
0.6883712471
 40
0.7041385774
 40
0.7193922636
 40
0.7341208871
 40
0.748315601
 40
0.7619704514
 40
0.7750828414
 40
0.781436181
 40
0.7876546594
 40
0.7996894429
 40
0.811198076
 40
0.8167602511
 40
0.8221971671
 40
0.8327056363
 40
0.8427530238
 40
0.8523750565
 40
0.8570410038
 40
0.8616177747
 40
0.8661122008
 40
0.8705316197
 40
0.8748838663
 40
0.8791772962
 40
0.883420704
 40
0.8876232738
 40
0.8917945514
 40
0.8959443474
 40
0.9000826572
 40
0.9042195871
 40
0.9083652505
 40
0.9125296865
 40
0.9167227671
 40
0.9209541035
 40
0.9252329979
 40
0.9295683642
 40
0.9339686553
 40
0.9384418677
 40
0.9476342931
 40
0.9572015422
 40
0.9671886215
 40
0.977632401
 40
0.9885620795
 40
1.0
 40
1.0
 40
1.0
 40
1.0
 10
16.5019702769
 20
12.118527483
 30
0.0
 10
16.5012153566
 20
12.1160845603
 30
0.0
 10
16.4997477896
 20
12.1111204895
 30
0.0
 10
16.4976951878
 20
12.1035394844
 30
0.0
 10
16.4957677386
 20
12.0957445353
 30
0.0
 10
16.4939688533
 20
12.0877495029
 30
0.0
 10
16.4923016193
 20
12.0795682176
 30
0.0
 10
16.4907689981
 20
12.0712149909
 30
0.0
 10
16.4893736738
 20
12.062704445
 30
0.0
 10
16.4881180689
 20
12.0540514546
 30
0.0
 10
16.4870044134
 20
12.0452711484
 30
0.0
 10
16.4860346473
 20
12.0363788865
 30
0.0
 10
16.48521046
 20
12.0273902232
 30
0.0
 10
16.4845333237
 20
12.0183208804
 30
0.0
 10
16.4840044035
 20
12.0091867254
 30
0.0
 10
16.4836246284
 20
12.0000037387
 30
0.0
 10
16.4833946848
 20
11.9907879855
 30
0.0
 10
16.4833149493
 20
11.98155559
 30
0.0
 10
16.4833855755
 20
11.9723227056
 30
0.0
 10
16.4836064479
 20
11.9631054859
 30
0.0
 10
16.4839771551
 20
11.9539200571
 30
0.0
 10
16.4844970697
 20
11.9447824904
 30
0.0
 10
16.4851652744
 20
11.9357087713
 30
0.0
 10
16.485980581
 20
11.9267147731
 30
0.0
 10
16.4869415869
 20
11.9178162309
 30
0.0
 10
16.4880465885
 20
11.9090287081
 30
0.0
 10
16.4892936433
 20
11.9003675739
 30
0.0
 10
16.4906805899
 20
11.8918479778
 30
0.0
 10
16.4922049697
 20
11.8834848133
 30
0.0
 10
16.4938641194
 20
11.8752927025
 30
0.0
 10
16.4956551466
 20
11.8672859669
 30
0.0
 10
16.4975748845
 20
11.8594785925
 30
0.0
 10
16.4996199916
 20
11.8518842218
 30
0.0
 10
16.5017868888
 20
11.8445161168
 30
0.0
 10
16.5040717603
 20
11.8373871317
 30
0.0
 10
16.5064706415
 20
11.8305097107
 30
0.0
 10
16.5089793271
 20
11.8238958386
 30
0.0
 10
16.5115934278
 20
11.8175570314
 30
0.0
 10
16.5143084254
 20
11.8115043302
 30
0.0
 10
16.5171195704
 20
11.8057482515
 30
0.0
 10
16.5200220065
 20
11.8002987649
 30
0.0
 10
16.5230107154
 20
11.7951654143
 30
0.0
 10
16.5255954345
 20
11.7911168131
 30
0.0
 10
16.5277040727
 20
11.7880474223
 30
0.0
 10
16.5297920641
 20
11.7851545944
 30
0.0
 10
16.5324427412
 20
11.7817475916
 30
0.0
 10
16.535207997
 20
11.7785572083
 30
0.0
 10
16.5374519335
 20
11.776187496
 30
0.0
 10
16.5396639166
 20
11.7739893069
 30
0.0
 10
16.5424612577
 20
11.771459889
 30
0.0
 10
16.5459053735
 20
11.7687559176
 30
0.0
 10
16.5488413675
 20
11.7667921621
 30
0.0
 10
16.551206082
 20
11.7654166839
 30
0.0
 10
16.5529697074
 20
11.764490083
 30
0.0
 10
16.5547406393
 20
11.7636584155
 30
0.0
 10
16.5565181344
 20
11.7629220501
 30
0.0
 10
16.5583014213
 20
11.7622813846
 30
0.0
 10
16.5600896998
 20
11.7617366954
 30
0.0
 10
16.561882172
 20
11.7612882368
 30
0.0
 10
16.563678044
 20
11.7609362786
 30
0.0
 10
16.5654764952
 20
11.7606809732
 30
0.0
 10
16.5672767069
 20
11.7605224279
 30
0.0
 10
16.5690778597
 20
11.76046077
 30
0.0
 10
16.5708791238
 20
11.7604960163
 30
0.0
 10
16.5726796756
 20
11.7606281168
 30
0.0
 10
16.574478689
 20
11.760857044
 30
0.0
 10
16.5762753409
 20
11.7611826779
 30
0.0
 10
16.5780688246
 20
11.7616048151
 30
0.0
 10
16.5798583298
 20
11.7621232783
 30
0.0
 10
16.5816430431
 20
11.762737816
 30
0.0
 10
16.5834222212
 20
11.7634481077
 30
0.0
 10
16.5858073899
 20
11.7645321037
 30
0.0
 10
16.5887755849
 20
11.766134154
 30
0.0
 10
16.5922683293
 20
11.7684157596
 30
0.0
 10
16.5957188941
 20
11.7710694578
 30
0.0
 10
16.5991214296
 20
11.7740902468
 30
0.0
 10
16.6024703976
 20
11.7774725195
 30
0.0
 10
16.6046141959
 20
11.7799082241
 30
0.0
 10
16.6056767912
 20
11.7811812617
 30
0.0
  0
SPLINE
  5
2DA
100
AcDbEntity
  8
LAYER_CUT_FEAT
100
AcDbSpline
 62
7
  6
CONTINUOUS
 70
0
 71
3
 72
87
 73
83
 74
0
 42
0.0000001
 43
0.0000001
 44
0.0000000001
 40
0.0
 40
0.0
 40
0.0
 40
0.0
 40
0.0131061064
 40
0.0265341012
 40
0.0402890101
 40
0.0543738965
 40
0.0687891197
 40
0.076120495
 40
0.0835336261
 40
0.0910279775
 40
0.0986028828
 40
0.1062575789
 40
0.1139911728
 40
0.1296904548
 40
0.1456921938
 40
0.1619857641
 40
0.1785591579
 40
0.1953990993
 40
0.2124911526
 40
0.2298198244
 40
0.2473686602
 40
0.2651203393
 40
0.2830567649
 40
0.301159149
 40
0.3194080965
 40
0.3377836848
 40
0.3562655429
 40
0.3748329278
 40
0.3934648013
 40
0.4121399042
 40
0.4308368302
 40
0.4495340985
 40
0.4682102271
 40
0.4868438055
 40
0.5054135684
 40
0.52389847
 40
0.5422777575
 40
0.560531047
 40
0.5786384001
 40
0.5965804026
 40
0.6143382453
 40
0.6318938085
 40
0.6492297465
 40
0.6663295771
 40
0.6831777745
 40
0.6997598668
 40
0.7160625381
 40
0.7320737377
 40
0.7477827953
 40
0.7631805397
 40
0.778259427
 40
0.793013675
 40
0.8002681182
 40
0.8074401195
 40
0.8145295095
 40
0.8215362738
 40
0.8284605216
 40
0.835302528
 40
0.8487407577
 40
0.8618570634
 40
0.8682973768
 40
0.8746604255
 40
0.8809476548
 40
0.8871606837
 40
0.8993704007
 40
0.9113074567
 40
0.9171804893
 40
0.9229930802
 40
0.9287481961
 40
0.9344489961
 40
0.9400988276
 40
0.9457012099
 40
0.9512598448
 40
0.9567785876
 40
0.9622614548
 40
0.9677125992
 40
0.9731363025
 40
0.9785369604
 40
0.9839190614
 40
0.9892871765
 40
0.9946459327
 40
1.0
 40
1.0
 40
1.0
 40
1.0
 10
15.8587284271
 20
11.6146790083
 30
0.0
 10
15.8556577975
 20
11.6209362934
 30
0.0
 10
15.8491236441
 20
11.6334510891
 30
0.0
 10
15.8383214804
 20
11.6519636207
 30
0.0
 10
15.8264188897
 20
11.6704112965
 30
0.0
 10
15.813436889
 20
11.6887620241
 30
0.0
 10
15.8018036453
 20
11.7038618437
 30
0.0
 10
15.7919861244
 20
11.7158672709
 30
0.0
 10
15.7843256561
 20
11.7248792082
 30
0.0
 10
15.7764129971
 20
11.733843936
 30
0.0
 10
15.7682515313
 20
11.7427577134
 30
0.0
 10
15.7598446841
 20
11.7516167027
 30
0.0
 10
15.7482557575
 20
11.7634091144
 30
0.0
 10
15.7331714983
 20
11.7779857738
 30
0.0
 10
15.714239607
 20
11.7951119477
 30
0.0
 10
15.6944195983
 20
11.8119297234
 30
0.0
 10
15.673745453
 20
11.8284103125
 30
0.0
 10
15.6522524033
 20
11.844525669
 30
0.0
 10
15.6299771376
 20
11.8602483071
 30
0.0
 10
15.6069576681
 20
11.8755514145
 30
0.0
 10
15.583233289
 20
11.8904088872
 30
0.0
 10
15.5588444997
 20
11.9047953746
 30
0.0
 10
15.5338329367
 20
11.918686324
 30
0.0
 10
15.508241303
 20
11.9320580232
 30
0.0
 10
15.4821132945
 20
11.9448876424
 30
0.0
 10
15.4554935263
 20
11.9571532734
 30
0.0
 10
15.4284274565
 20
11.9688339689
 30
0.0
 10
15.4009613104
 20
11.9799097839
 30
0.0
 10
15.3731419974
 20
11.9903618038
 30
0.0
 10
15.3450170309
 20
12.000172178
 30
0.0
 10
15.3166344467
 20
12.0093241506
 30
0.0
 10
15.2880427211
 20
12.0178020892
 30
0.0
 10
15.2592906877
 20
12.0255915111
 30
0.0
 10
15.2304274538
 20
12.0326791107
 30
0.0
 10
15.2015023168
 20
12.0390527864
 30
0.0
 10
15.1725646771
 20
12.044701654
 30
0.0
 10
15.1436639539
 20
12.049616067
 30
0.0
 10
15.1148495005
 20
12.0537876321
 30
0.0
 10
15.0861705199
 20
12.0572092232
 30
0.0
 10
15.0576759796
 20
12.0598749928
 30
0.0
 10
15.0294145276
 20
12.0617803848
 30
0.0
 10
15.0014344077
 20
12.0629221442
 30
0.0
 10
14.9737833764
 20
12.063298315
 30
0.0
 10
14.9465086212
 20
12.0629082443
 30
0.0
 10
14.9196566802
 20
12.0617525808
 30
0.0
 10
14.8932733617
 20
12.0598332726
 30
0.0
 10
14.8674036679
 20
12.0571535612
 30
0.0
 10
14.8420917077
 20
12.0537179758
 30
0.0
 10
14.8173806532
 20
12.0495323322
 30
0.0
 10
14.7933125523
 20
12.0446036843
 30
0.0
 10
14.7699286774
 20
12.0389404136
 30
0.0
 10
14.7509396771
 20
12.0335869787
 30
0.0
 10
14.7361320575
 20
12.0289396799
 30
0.0
 10
14.7252840735
 20
12.025296579
 30
0.0
 10
14.7146364822
 20
12.0214779035
 30
0.0
 10
14.7041937851
 20
12.0174853406
 30
0.0
 10
14.6939604063
 20
12.0133204944
 30
0.0
 10
14.6806812426
 20
12.007574883
 30
0.0
 10
14.6646189938
 20
11.9999796055
 30
0.0
 10
14.6491188028
 20
11.9917387784
 30
0.0
 10
14.6371953841
 20
11.9848190743
 30
0.0
 10
14.6285447738
 20
11.9795022303
 30
0.0
 10
14.620135829
 20
11.9740293075
 30
0.0
 10
14.6093145875
 20
11.9665709126
 30
0.0
 10
14.5963948457
 20
11.9568727631
 30
0.0
 10
14.5841842164
 20
11.9465723948
 30
0.0
 10
14.5749525148
 20
11.9380491045
 30
0.0
 10
14.568330392
 20
11.9315523663
 30
0.0
 10
14.5619758535
 20
11.9249199842
 30
0.0
 10
14.5558915812
 20
11.9181547245
 30
0.0
 10
14.5500801762
 20
11.9112595205
 30
0.0
 10
14.5445442037
 20
11.9042372584
 30
0.0
 10
14.5392859808
 20
11.8970910011
 30
0.0
 10
14.5343078524
 20
11.889823748
 30
0.0
 10
14.5296119175
 20
11.8824386517
 30
0.0
 10
14.5252002328
 20
11.8749388582
 30
0.0
 10
14.5210747224
 20
11.8673275806
 30
0.0
 10
14.5172371234
 20
11.8596081099
 30
0.0
 10
14.5136891799
 20
11.8517837356
 30
0.0
 10
14.5104323256
 20
11.8438578281
 30
0.0
 10
14.5074680975
 20
11.8358339027
 30
0.0
 10
14.5056874796
 20
11.8304204558
 30
0.0
 10
14.504846786
 20
11.8276999852
 30
0.0
  0
SPLINE
  5
2DB
100
AcDbEntity
  8
LAYER_FEATURE
100
AcDbSpline
 62
7
  6
CONTINUOUS
 70
0
 71
3
 72
11
 73
7
 74
0
 42
0.0000001
 43
0.0000001
 44
0.0000000001
 40
0.0
 40
0.0
 40
0.0
 40
0.0
 40
0.2482265779
 40
0.4971946626
 40
0.7475791435
 40
1.0
 40
1.0
 40
1.0
 40
1.0
 10
16.7310458541
 20
13.0097909834
 30
0.0
 10
16.7311353847
 20
13.0100807032
 30
0.0
 10
16.7312957113
 20
13.0106670755
 30
0.0
 10
16.731478482
 20
13.0115624932
 30
0.0
 10
16.731603495
 20
13.0124729454
 30
0.0
 10
16.7316480248
 20
13.0130860497
 30
0.0
 10
16.7316607415
 20
13.0133941491
 30
0.0
  0
SPLINE
  5
2DC
100
AcDbEntity
  8
LAYER_CHAMFER_FEAT
100
AcDbSpline
 62
7
  6
CONTINUOUS
 70
0
 71
3
 72
87
 73
83
 74
0
 42
0.0000001
 43
0.0000001
 44
0.0000000001
 40
0.0
 40
0.0
 40
0.0
 40
0.0
 40
0.015757773
 40
0.0234991755
 40
0.0311478954
 40
0.0387035378
 40
0.0461659122
 40
0.0608099459
 40
0.0750829455
 40
0.0889901608
 40
0.1025402552
 40
0.1157455179
 40
0.1286220499
 40
0.141189896
 40
0.1534731241
 40
0.1595174827
 40
0.1655015623
 40
0.1714294738
 40
0.1773055739
 40
0.1831344329
 40
0.1889208219
 40
0.1946697139
 40
0.2003862418
 40
0.2060756989
 40
0.2117435049
 40
0.2173951825
 40
0.2230363382
 40
0.2286726264
 40
0.2343097284
 40
0.2399533195
 40
0.2456090456
 40
0.2512824884
 40
0.2569791466
 40
0.2627044061
 40
0.268463512
 40
0.2742615622
 40
0.2801034634
 40
0.2859939379
 40
0.291937496
 40
0.2979384166
 40
0.3040007634
 40
0.3101283393
 40
0.3163247141
 40
0.3289353603
 40
0.3418578129
 40
0.3551115393
 40
0.3687120797
 40
0.3826711959
 40
0.3969970576
 40
0.411694444
 40
0.4267649627
 40
0.4422072796
 40
0.4580173371
 40
0.4741885621
 40
0.4907120574
 40
0.507576796
 40
0.5247698056
 40
0.5422763352
 40
0.5600800105
 40
0.5781629769
 40
0.5965060474
 40
0.6150888389
 40
0.6338898982
 40
0.6528868214
 40
0.6720563685
 40
0.6913745838
 40
0.7108169055
 40
0.7303582722
 40
0.7499732257
 40
0.7696360173
 40
0.789320712
 40
0.8090012898
 40
0.8286517454
 40
0.8482461908
 40
0.8677589585
 40
0.8871647097
 40
0.9064385212
 40
0.9255560083
 40
0.9444934847
 40
0.9632277244
 40
0.9817372742
 40
1.0
 40
1.0
 40
1.0
 40
1.0
 10
14.9501706791
 20
11.8705518991
 30
0.0
 10
14.945202841
 20
11.8693835691
 30
0.0
 10
14.9378265391
 20
11.867499237
 30
0.0
 10
14.9281332093
 20
11.8647044569
 30
0.0
 10
14.9210365149
 20
11.8624976989
 30
0.0
 10
14.9140740937
 20
11.8601690215
 30
0.0
 10
14.9050317514
 20
11.8569237232
 30
0.0
 10
14.894077011
 20
11.8525747403
 30
0.0
 10
14.881436575
 20
11.8468544864
 30
0.0
 10
14.869409603
 20
11.8406768193
 30
0.0
 10
14.8580198979
 20
11.8340536317
 30
0.0
 10
14.8472899077
 20
11.8269976063
 30
0.0
 10
14.8372408035
 20
11.8195221886
 30
0.0
 10
14.8278928451
 20
11.8116419962
 30
0.0
 10
14.8206636188
 20
11.8047128421
 30
0.0
 10
14.8152594954
 20
11.7989848432
 30
0.0
 10
14.8114140864
 20
11.7946207081
 30
0.0
 10
14.8077570171
 20
11.7901679034
 30
0.0
 10
14.8042900215
 20
11.7856285983
 30
0.0
 10
14.8010148277
 20
11.7810050432
 30
0.0
 10
14.7979331178
 20
11.7762994748
 30
0.0
 10
14.7950463561
 20
11.7715142633
 30
0.0
 10
14.7923560472
 20
11.7666517287
 30
0.0
 10
14.7898635078
 20
11.7617142933
 30
0.0
 10
14.7875699581
 20
11.7567044087
 30
0.0
 10
14.7854766124
 20
11.7516245267
 30
0.0
 10
14.7835844298
 20
11.746477201
 30
0.0
 10
14.7818944179
 20
11.7412649586
 30
0.0
 10
14.7804073974
 20
11.7359903961
 30
0.0
 10
14.7791240677
 20
11.7306561392
 30
0.0
 10
14.7780451422
 20
11.7252648187
 30
0.0
 10
14.7771710602
 20
11.7198191289
 30
0.0
 10
14.7765023067
 20
11.7143217598
 30
0.0
 10
14.7760391947
 20
11.7087754419
 30
0.0
 10
14.7757818927
 20
11.7031829241
 30
0.0
 10
14.7757305997
 20
11.6975469736
 30
0.0
 10
14.7758852393
 20
11.6918703789
 30
0.0
 10
14.7762457692
 20
11.6861559446
 30
0.0
 10
14.7768119984
 20
11.6804064965
 30
0.0
 10
14.777583576
 20
11.674624857
 30
0.0
 10
14.7785601843
 20
11.6688139056
 30
0.0
 10
14.7797412655
 20
11.662976427
 30
0.0
 10
14.7815986111
 20
11.6551163036
 30
0.0
 10
14.7844388822
 20
11.6452330679
 30
0.0
 10
14.7886334338
 20
11.6333849547
 30
0.0
 10
14.7936255152
 20
11.6215019289
 30
0.0
 10
14.799404917
 20
11.6096074904
 30
0.0
 10
14.8059600623
 20
11.5977246798
 30
0.0
 10
14.8132778997
 20
11.5858766438
 30
0.0
 10
14.8213439323
 20
11.5740864317
 30
0.0
 10
14.8301422248
 20
11.5623769988
 30
0.0
 10
14.8396554489
 20
11.550771165
 30
0.0
 10
14.8498649022
 20
11.5392915703
 30
0.0
 10
14.8607505392
 20
11.5279606364
 30
0.0
 10
14.8722909845
 20
11.5168005046
 30
0.0
 10
14.8844635808
 20
11.5058329978
 30
0.0
 10
14.8972444403
 20
11.4950795823
 30
0.0
 10
14.9106084861
 20
11.4845613209
 30
0.0
 10
14.9245294983
 20
11.4742988336
 30
0.0
 10
14.9389801479
 20
11.464312235
 30
0.0
 10
14.9539320654
 20
11.4546211089
 30
0.0
 10
14.969355898
 20
11.4452444699
 30
0.0
 10
14.9852213666
 20
11.4362007249
 30
0.0
 10
15.001497321
 20
11.4275076347
 30
0.0
 10
15.018151792
 20
11.41918226
 30
0.0
 10
15.0351520677
 20
11.4112409477
 30
0.0
 10
15.0524647576
 20
11.4036992955
 30
0.0
 10
15.0700558577
 20
11.3965721236
 30
0.0
 10
15.0878908124
 20
11.3898734364
 30
0.0
 10
15.105934581
 20
11.3836163844
 30
0.0
 10
15.1241517155
 20
11.3778132583
 30
0.0
 10
15.1425064279
 20
11.3724754597
 30
0.0
 10
15.1609626615
 20
11.3676134839
 30
0.0
 10
15.1794841571
 20
11.3632368818
 30
0.0
 10
15.1980345287
 20
11.3593542418
 30
0.0
 10
15.2165773361
 20
11.3559731917
 30
0.0
 10
15.2350761541
 20
11.3531003749
 30
0.0
 10
15.2534946688
 20
11.3507414378
 30
0.0
 10
15.2717966322
 20
11.3489010396
 30
0.0
 10
15.2899463129
 20
11.3475827187
 30
0.0
 10
15.3079076804
 20
11.3467891797
 30
0.0
 10
15.3198175889
 20
11.3466097095
 30
0.0
 10
15.3257322249
 20
11.3466097095
 30
0.0
  0
SPLINE
  5
2DD
100
AcDbEntity
  8
LAYER_FEATURE
100
AcDbSpline
 62
7
  6
CONTINUOUS
 70
0
 71
3
 72
82
 73
78
 74
0
 42
0.0000001
 43
0.0000001
 44
0.0000000001
 40
0.0
 40
0.0
 40
0.0
 40
0.0
 40
0.0171785589
 40
0.0345301467
 40
0.0520438915
 40
0.0697094377
 40
0.0875156
 40
0.1054510217
 40
0.123504035
 40
0.1416627074
 40
0.1599148842
 40
0.1782482071
 40
0.1966501446
 40
0.215108021
 40
0.2336090441
 40
0.2521403315
 40
0.2706889378
 40
0.2892418815
 40
0.3077861729
 40
0.3263088398
 40
0.3447969544
 40
0.363237661
 40
0.3816182032
 40
0.3999259508
 40
0.4181484268
 40
0.4362733359
 40
0.4542885942
 40
0.4721823571
 40
0.4899430477
 40
0.5075593868
 40
0.5250204257
 40
0.5423155779
 40
0.5594346503
 40
0.5763678754
 40
0.5931059477
 40
0.6096400625
 40
0.625961951
 40
0.642063918
 40
0.6579388825
 40
0.6735804236
 40
0.6889828253
 40
0.7041411198
 40
0.7190511359
 40
0.7337095505
 40
0.7481139455
 40
0.7622628593
 40
0.7761558419
 40
0.7897935121
 40
0.8031776196
 40
0.8163111048
 40
0.8291981522
 40
0.841844246
 40
0.8542562208
 40
0.8603772763
 40
0.8664430102
 40
0.8784128847
 40
0.8901776674
 40
0.8959874285
 40
0.901750765
 40
0.9074694744
 40
0.9131454517
 40
0.9187806753
 40
0.9243772093
 40
0.9299372064
 40
0.9354628938
 40
0.940956582
 40
0.9464206535
 40
0.951857559
 40
0.9572698192
 40
0.9626600104
 40
0.9680307668
 40
0.973384771
 40
0.9787247471
 40
0.9840534574
 40
0.9893736919
 40
0.9946882635
 40
1.0
 40
1.0
 40
1.0
 40
1.0
 10
15.2991388212
 20
14.1582707896
 30
0.0
 10
15.3127860179
 20
14.1582707896
 30
0.0
 10
15.340218747
 20
14.1579704948
 30
0.0
 10
15.3815454592
 20
14.156636237
 30
0.0
 10
15.4232216638
 20
14.1544171098
 30
0.0
 10
15.465203489
 20
14.1513155326
 30
0.0
 10
15.5074475152
 20
14.1473346599
 30
0.0
 10
15.5499096814
 20
14.142478662
 30
0.0
 10
15.5925458167
 20
14.1367525995
 30
0.0
 10
15.6353115428
 20
14.1301624326
 30
0.0
 10
15.6781623453
 20
14.1227150202
 30
0.0
 10
15.7210536202
 20
14.1144181034
 30
0.0
 10
15.7639407214
 20
14.1052803271
 30
0.0
 10
15.8067790065
 20
14.0953112084
 30
0.0
 10
15.8495238827
 20
14.0845211246
 30
0.0
 10
15.8921308518
 20
14.0729213007
 30
0.0
 10
15.9345555588
 20
14.0605238078
 30
0.0
 10
15.9767538426
 20
14.0473415618
 30
0.0
 10
16.0186817755
 20
14.0333882868
 30
0.0
 10
16.0602957106
 20
14.018678506
 30
0.0
 10
16.1015523242
 20
14.0032275225
 30
0.0
 10
16.1424086709
 20
13.9870514258
 30
0.0
 10
16.1828222237
 20
13.9701670606
 30
0.0
 10
16.2227509149
 20
13.9525920024
 30
0.0
 10
16.262153179
 20
13.9343445398
 30
0.0
 10
16.3009879989
 20
13.9154436602
 30
0.0
 10
16.3392149579
 20
13.8959090452
 30
0.0
 10
16.3767942704
 20
13.8757610276
 30
0.0
 10
16.4136868234
 20
13.8550205743
 30
0.0
 10
16.449854215
 20
13.8337092596
 30
0.0
 10
16.4852588067
 20
13.8118492612
 30
0.0
 10
16.5198637603
 20
13.7894633291
 30
0.0
 10
16.5536330665
 20
13.7665747518
 30
0.0
 10
16.5865315828
 20
13.7432073337
 30
0.0
 10
16.6185250715
 20
13.7193853702
 30
0.0
 10
16.6495802516
 20
13.6951336407
 30
0.0
 10
16.6796648164
 20
13.6704773607
 30
0.0
 10
16.7087474655
 20
13.6454421583
 30
0.0
 10
16.7367979338
 20
13.6200540433
 30
0.0
 10
16.7637870371
 20
13.5943393923
 30
0.0
 10
16.7896867036
 20
13.5683249206
 30
0.0
 10
16.8144699859
 20
13.5420376396
 30
0.0
 10
16.8381110885
 20
13.5155048338
 30
0.0
 10
16.8605853922
 20
13.4887540276
 30
0.0
 10
16.8818695032
 20
13.4618129756
 30
0.0
 10
16.9019412539
 20
13.4347096148
 30
0.0
 10
16.9207797195
 20
13.407472038
 30
0.0
 10
16.9383652316
 20
13.3801284661
 30
0.0
 10
16.954679415
 20
13.3527072153
 30
0.0
 10
16.969705199
 20
13.3252367167
 30
0.0
 10
16.9834268604
 20
13.2977453237
 30
0.0
 10
16.995829837
 20
13.2702618449
 30
0.0
 10
17.0050985074
 20
13.2472833464
 30
0.0
 10
17.0118313642
 20
13.2289363774
 30
0.0
 10
17.018055848
 20
13.2107816983
 30
0.0
 10
17.0250032782
 20
13.1881411183
 30
0.0
 10
17.0308703497
 20
13.1654060059
 30
0.0
 10
17.0348688279
 20
13.1473004451
 30
0.0
 10
17.0375121074
 20
13.1338185985
 30
0.0
 10
17.03981136
 20
13.1203816843
 30
0.0
 10
17.0417660552
 20
13.1069931396
 30
0.0
 10
17.0433756532
 20
13.0936564706
 30
0.0
 10
17.044639686
 20
13.0803751457
 30
0.0
 10
17.045557885
 20
13.0671526384
 30
0.0
 10
17.0461299246
 20
13.0539923915
 30
0.0
 10
17.0463556885
 20
13.0408978447
 30
0.0
 10
17.0462351168
 20
13.0278724156
 30
0.0
 10
17.0457681716
 20
13.0149195084
 30
0.0
 10
17.0449550468
 20
13.0020425058
 30
0.0
 10
17.0437958798
 20
12.9892447763
 30
0.0
 10
17.0422909884
 20
12.9765296667
 30
0.0
 10
17.0404407915
 20
12.9639004979
 30
0.0
 10
17.0382456919
 20
12.9513605831
 30
0.0
 10
17.0357063427
 20
12.9389131997
 30
0.0
 10
17.0328233432
 20
12.9265615798
 30
0.0
 10
17.0295974835
 20
12.9143090849
 30
0.0
 10
17.0272186228
 20
12.9062079322
 30
0.0
 10
17.025972735
 20
12.9021762342
 30
0.0
  0
SPLINE
  5
2DE
100
AcDbEntity
  8
LAYER_FEATURE
100
AcDbSpline
 62
7
  6
CONTINUOUS
 70
0
 71
3
 72
69
 73
65
 74
0
 42
0.0000001
 43
0.0000001
 44
0.0000000001
 40
0.0
 40
0.0
 40
0.0
 40
0.0
 40
0.0208239694
 40
0.0414787368
 40
0.0619568535
 40
0.082252853
 40
0.1023614773
 40
0.1222773422
 40
0.1419954168
 40
0.1615110438
 40
0.1808198665
 40
0.1999178208
 40
0.218801221
 40
0.2374667195
 40
0.2559113692
 40
0.2741325986
 40
0.2921282659
 40
0.3098966553
 40
0.3274365023
 40
0.3447470239
 40
0.3618279126
 40
0.3786793965
 40
0.3953022108
 40
0.4116976723
 40
0.4278676475
 40
0.4438146194
 40
0.4595416715
 40
0.475052529
 40
0.5054403603
 40
0.5203315831
 40
0.5350281758
 40
0.5495372751
 40
0.5638667028
 40
0.5780250093
 40
0.5920214321
 40
0.6058659127
 40
0.6195690639
 40
0.6331421509
 40
0.6465970661
 40
0.6599462771
 40
0.6732027998
 40
0.6863801235
 40
0.6994921705
 40
0.7125532117
 40
0.7255778048
 40
0.7385807102
 40
0.7515768108
 40
0.7645810286
 40
0.7776082396
 40
0.7906731885
 40
0.8037904122
 40
0.8169741526
 40
0.8302382974
 40
0.843596296
 40
0.8570611181
 40
0.8706451831
 40
0.8843603282
 40
0.8982177646
 40
0.9122280439
 40
0.9264010495
 40
0.9407459556
 40
0.9552712514
 40
0.9699846961
 40
1.0
 40
1.0
 40
1.0
 40
1.0
 10
15.3357949394
 20
13.9712321276
 30
0.0
 10
15.3272546203
 20
13.9712321276
 30
0.0
 10
15.3102430465
 20
13.9710967945
 30
0.0
 10
15.2848396709
 20
13.9704824106
 30
0.0
 10
15.2596661501
 20
13.9694576559
 30
0.0
 10
15.2347369882
 20
13.9680231775
 30
0.0
 10
15.2100659143
 20
13.9661797675
 30
0.0
 10
15.1856666956
 20
13.9639284446
 30
0.0
 10
15.1615530403
 20
13.9612704745
 30
0.0
 10
15.1377384487
 20
13.9582073142
 30
0.0
 10
15.1142362308
 20
13.9547407265
 30
0.0
 10
15.0910595464
 20
13.9508725744
 30
0.0
 10
15.0682213593
 20
13.9466050941
 30
0.0
 10
15.0457344576
 20
13.941940589
 30
0.0
 10
15.0236114133
 20
13.9368817307
 30
0.0
 10
15.0018646139
 20
13.9314312845
 30
0.0
 10
14.9805062211
 20
13.9255923246
 30
0.0
 10
14.9595481871
 20
13.9193680935
 30
0.0
 10
14.9390022419
 20
13.9127620462
 30
0.0
 10
14.9188798715
 20
13.9057778999
 30
0.0
 10
14.8991923527
 20
13.8984194853
 30
0.0
 10
14.8799506796
 20
13.890690974
 30
0.0
 10
14.8611656479
 20
13.8825965827
 30
0.0
 10
14.8428477482
 20
13.8741409032
 30
0.0
 10
14.8250072422
 20
13.8653285486
 30
0.0
 10
14.8076541813
 20
13.8561645352
 30
0.0
 10
14.7907979918
 20
13.8466537155
 30
0.0
 10
14.7691484611
 20
13.8336079388
 30
0.0
 10
14.748363614
 20
13.8198071208
 30
0.0
 10
14.7285300638
 20
13.8052533848
 30
0.0
 10
14.7142955431
 20
13.7940924787
 30
0.0
 10
14.7006106742
 20
13.7826196076
 30
0.0
 10
14.68748301
 20
13.770840931
 30
0.0
 10
14.6749199491
 20
13.7587631171
 30
0.0
 10
14.6629286166
 20
13.7463928311
 30
0.0
 10
14.6515157634
 20
13.7337370106
 30
0.0
 10
14.6406878597
 20
13.7208027099
 30
0.0
 10
14.6304510587
 20
13.707597151
 30
0.0
 10
14.6208111332
 20
13.6941277576
 30
0.0
 10
14.6117736268
 20
13.6804020367
 30
0.0
 10
14.603343601
 20
13.666427752
 30
0.0
 10
14.595525953
 20
13.6522127044
 30
0.0
 10
14.5883250409
 20
13.637764957
 30
0.0
 10
14.5817450589
 20
13.6230926124
 30
0.0
 10
14.575789683
 20
13.6082039917
 30
0.0
 10
14.5704623484
 20
13.593107491
 30
0.0
 10
14.5657660633
 20
13.5778116595
 30
0.0
 10
14.5617034689
 20
13.5623251582
 30
0.0
 10
14.5582769032
 20
13.5466567444
 30
0.0
 10
14.555488207
 20
13.5308153027
 30
0.0
 10
14.5533390273
 20
13.5148097821
 30
0.0
 10
14.551830429
 20
13.4986492477
 30
0.0
 10
14.5509633299
 20
13.4823428221
 30
0.0
 10
14.5507380661
 20
13.465899715
 30
0.0
 10
14.5511547862
 20
13.4493291975
 30
0.0
 10
14.5522131432
 20
13.4326406018
 30
0.0
 10
14.5539124962
 20
13.4158433166
 30
0.0
 10
14.55625184
 20
13.3989467824
 30
0.0
 10
14.5592297481
 20
13.3819604806
 30
0.0
 10
14.5628445653
 20
13.3648939277
 30
0.0
 10
14.5670940793
 20
13.3477567538
 30
0.0
 10
14.5719760753
 20
13.330558232
 30
0.0
 10
14.5793730031
 20
13.3074069227
 30
0.0
 10
14.5857944722
 20
13.2902067455
 30
0.0
 10
14.5904410615
 20
13.2788075347
 30
0.0
  0
SPLINE
  5
2DF
100
AcDbEntity
  8
LAYER_FEATURE
100
AcDbSpline
 62
7
  6
CONTINUOUS
 70
0
 71
3
 72
102
 73
98
 74
0
 42
0.0000001
 43
0.0000001
 44
0.0000000001
 40
0.0
 40
0.0
 40
0.0
 40
0.0
 40
0.0090256869
 40
0.0181087195
 40
0.0364367046
 40
0.0549676802
 40
0.0736845893
 40
0.0925695472
 40
0.111604189
 40
0.1307696275
 40
0.150046562
 40
0.1694153326
 40
0.1888559897
 40
0.2083483582
 40
0.2278721019
 40
0.2474067875
 40
0.2669319474
 40
0.2864271438
 40
0.3058720318
 40
0.3252464231
 40
0.3445303504
 40
0.3637041321
 40
0.3827484384
 40
0.4016443582
 40
0.4203734678
 40
0.4389179008
 40
0.4572604211
 40
0.475384497
 40
0.4932743789
 40
0.5109151806
 40
0.5282929626
 40
0.5453948209
 40
0.5622089797
 40
0.578724889
 40
0.5949333278
 40
0.6029200406
 40
0.6108270927
 40
0.6186537576
 40
0.6263994104
 40
0.6340635341
 40
0.6416457284
 40
0.6491457018
 40
0.6565632945
 40
0.6638984586
 40
0.6711512898
 40
0.6783220028
 40
0.6854109641
 40
0.6924186703
 40
0.6993457743
 40
0.7061930731
 40
0.7129615218
 40
0.7196522345
 40
0.7262664843
 40
0.732805717
 40
0.7392715382
 40
0.7456657366
 40
0.7519902627
 40
0.7582472552
 40
0.7644390179
 40
0.7705680416
 40
0.7766369857
 40
0.7826486897
 40
0.7886061628
 40
0.7945125828
 40
0.8003712933
 40
0.8061857914
 40
0.8119597297
 40
0.817696896
 40
0.8234012153
 40
0.8290767266
 40
0.834727581
 40
0.8403580187
 40
0.845972361
 40
0.8515749899
 40
0.8571703342
 40
0.8627628508
 40
0.8683570082
 40
0.8739572677
 40
0.8795680679
 40
0.885193804
 40
0.890838816
 40
0.8965073662
 40
0.9022036315
 40
0.9079316816
 40
0.913695473
 40
0.9194988314
 40
0.9253454452
 40
0.9312388552
 40
0.9371824444
 40
0.9431794378
 40
0.9492328867
 40
0.9553456793
 40
0.9615205198
 40
0.9677599469
 40
0.9740663116
 40
0.9868873025
 40
1.0
 40
1.0
 40
1.0
 40
1.0
 10
15.3357949394
 20
13.9712321276
 30
0.0
 10
15.342970259
 20
13.9712321276
 30
0.0
 10
15.3573666864
 20
13.9711358971
 30
0.0
 10
15.3863284059
 20
13.9705613866
 30
0.0
 10
15.4228278831
 20
13.9691234229
 30
0.0
 10
15.4669219686
 20
13.9662640423
 30
0.0
 10
15.5113724249
 20
13.962270158
 30
0.0
 10
15.5561099146
 20
13.957147978
 30
0.0
 10
15.601064816
 20
13.9509054954
 30
0.0
 10
15.6461671349
 20
13.9435524228
 30
0.0
 10
15.6913466467
 20
13.9351002141
 30
0.0
 10
15.7365330027
 20
13.9255620289
 30
0.0
 10
15.7816558404
 20
13.9149527203
 30
0.0
 10
15.8266448937
 20
13.9032888085
 30
0.0
 10
15.8714301033
 20
13.8905884568
 30
0.0
 10
15.9159417263
 20
13.8768714423
 30
0.0
 10
15.9601104455
 20
13.8621591267
 30
0.0
 10
16.0038674786
 20
13.8464744218
 30
0.0
 10
16.0471446848
 20
13.8298417529
 30
0.0
 10
16.0898746726
 20
13.8122870211
 30
0.0
 10
16.1319909041
 20
13.7938375621
 30
0.0
 10
16.1734278001
 20
13.774522103
 30
0.0
 10
16.2141208419
 20
13.7543707176
 30
0.0
 10
16.2540066724
 20
13.7334147779
 30
0.0
 10
16.2930231953
 20
13.7116869052
 30
0.0
 10
16.3311096717
 20
13.6892209178
 30
0.0
 10
16.3682068153
 20
13.6660517775
 30
0.0
 10
16.4042568841
 20
13.6422155333
 30
0.0
 10
16.4392037721
 20
13.6177492646
 30
0.0
 10
16.4729930938
 20
13.5926910228
 30
0.0
 10
16.5055722751
 20
13.5670797623
 30
0.0
 10
16.5368906069
 20
13.5409553049
 30
0.0
 10
16.5668994234
 20
13.5143581767
 30
0.0
 10
16.595551807
 20
13.4873299013
 30
0.0
 10
16.6183720852
 20
13.4643705511
 30
0.0
 10
16.6359016738
 20
13.4458211106
 30
0.0
 10
16.6486185785
 20
13.4318955453
 30
0.0
 10
16.6609641901
 20
13.4178942994
 30
0.0
 10
16.672933735
 20
13.4038227734
 30
0.0
 10
16.684522525
 20
13.3896864433
 30
0.0
 10
16.6957260754
 20
13.3754908325
 30
0.0
 10
16.7065399749
 20
13.3612414271
 30
0.0
 10
16.7169600644
 20
13.3469438181
 30
0.0
 10
16.7269822153
 20
13.3326035139
 30
0.0
 10
16.7366025901
 20
13.3182261489
 30
0.0
 10
16.7458173648
 20
13.3038172611
 30
0.0
 10
16.7546230101
 20
13.2893825033
 30
0.0
 10
16.7630160323
 20
13.2749274496
 30
0.0
 10
16.770993196
 20
13.2604577506
 30
0.0
 10
16.7785513596
 20
13.2459790169
 30
0.0
 10
16.7856875729
 20
13.2314968833
 30
0.0
 10
16.7923990602
 20
13.2170169899
 30
0.0
 10
16.7986831556
 20
13.2025449497
 30
0.0
 10
16.8045374539
 20
13.1880864192
 30
0.0
 10
16.809959582
 20
13.173646989
 30
0.0
 10
16.8149474979
 20
13.1592323147
 30
0.0
 10
16.8194991419
 20
13.1448479677
 30
0.0
 10
16.8236128161
 20
13.1304995829
 30
0.0
 10
16.8272868039
 20
13.1161927166
 30
0.0
 10
16.830519727
 20
13.1019329661
 30
0.0
 10
16.8333102408
 20
13.0877258713
 30
0.0
 10
16.8356572673
 20
13.0735769814
 30
0.0
 10
16.8375598541
 20
13.0594918123
 30
0.0
 10
16.839017215
 20
13.0454758608
 30
0.0
 10
16.8400287984
 20
13.0315346055
 30
0.0
 10
16.8405941138
 20
13.01767349
 30
0.0
 10
16.840713005
 20
13.0038979401
 30
0.0
 10
16.8403852953
 20
12.9902133451
 30
0.0
 10
16.8396112047
 20
12.9766250635
 30
0.0
 10
16.8383909007
 20
12.9631384248
 30
0.0
 10
16.8367249496
 20
12.9497587101
 30
0.0
 10
16.8346138974
 20
12.9364911774
 30
0.0
 10
16.8320586283
 20
12.9233410251
 30
0.0
 10
16.829060091
 20
12.910313422
 30
0.0
 10
16.8256194709
 20
12.897413482
 30
0.0
 10
16.8217381279
 20
12.884646265
 30
0.0
 10
16.8174175451
 20
12.8720167976
 30
0.0
 10
16.8126594863
 20
12.8595300133
 30
0.0
 10
16.8074657406
 20
12.8471908453
 30
0.0
 10
16.8018384538
 20
12.8350040895
 30
0.0
 10
16.7957797402
 20
12.8229745719
 30
0.0
 10
16.7892920941
 20
12.8111069498
 30
0.0
 10
16.7823779798
 20
12.7994059202
 30
0.0
 10
16.7750402047
 20
12.7878760095
 30
0.0
 10
16.7672816004
 20
12.7765217605
 30
0.0
 10
16.759105263
 20
12.7653475782
 30
0.0
 10
16.7505143954
 20
12.7543578301
 30
0.0
 10
16.741512371
 20
12.7435568048
 30
0.0
 10
16.732102755
 20
12.7329486815
 30
0.0
 10
16.7222891984
 20
12.7225376298
 30
0.0
 10
16.7120756109
 20
12.7123276384
 30
0.0
 10
16.7014659253
 20
12.7023227417
 30
0.0
 10
16.6904643881
 20
12.6925267606
 30
0.0
 10
16.6790751611
 20
12.6829435187
 30
0.0
 10
16.6632929009
 20
12.6703861575
 30
0.0
 10
16.6425974793
 20
12.6552448485
 30
0.0
 10
16.6253475043
 20
12.6439353569
 30
0.0
 10
16.6164937658
 20
12.6384325928
 30
0.0
  0
SPLINE
  5
2E0
100
AcDbEntity
  8
LAYER_FEATURE
100
AcDbSpline
 62
7
  6
CONTINUOUS
 70
0
 71
3
 72
80
 73
76
 74
0
 42
0.0000001
 43
0.0000001
 44
0.0000000001
 40
0.0
 40
0.0
 40
0.0
 40
0.0
 40
0.014906751
 40
0.0300590167
 40
0.0454570627
 40
0.0611009989
 40
0.0931034473
 40
0.1094577197
 40
0.1260332001
 40
0.1428191047
 40
0.159803045
 40
0.1769711903
 40
0.1943084095
 40
0.2117984025
 40
0.229423832
 40
0.2471664718
 40
0.2650073392
 40
0.2829268223
 40
0.3009048095
 40
0.3189208278
 40
0.3369541695
 40
0.3549840162
 40
0.3729895716
 40
0.3909501927
 40
0.4088455146
 40
0.4266555774
 40
0.4443609649
 40
0.4619429348
 40
0.4793835454
 40
0.4966657898
 40
0.5137737442
 40
0.5306927004
 40
0.5474092976
 40
0.5639116652
 40
0.5801895798
 40
0.5962345976
 40
0.6120401877
 40
0.6276018731
 40
0.642917381
 40
0.6579867555
 40
0.6728124646
 40
0.6873995009
 40
0.7017554731
 40
0.7158906401
 40
0.7298179175
 40
0.74355285
 40
0.7571135429
 40
0.7705205148
 40
0.7837964959
 40
0.7969661713
 40
0.8035202389
 40
0.8100577163
 40
0.8165820891
 40
0.8230968899
 40
0.836110222
 40
0.8491283959
 40
0.8556492275
 40
0.8621820096
 40
0.8687302403
 40
0.8752973629
 40
0.8818867422
 40
0.8885016519
 40
0.895145278
 40
0.9018206843
 40
0.9085308228
 40
0.9152785191
 40
0.9220664448
 40
0.9288971464
 40
0.9357730208
 40
0.9426963144
 40
0.9566917893
 40
0.9708995605
 40
0.9780878462
 40
0.9853338866
 40
1.0
 40
1.0
 40
1.0
 40
1.0
 10
14.6861923345
 20
12.8328816585
 30
0.0
 10
14.6870739297
 20
12.8357345019
 30
0.0
 10
14.6890047887
 20
12.8414409889
 30
0.0
 10
14.6923602202
 20
12.8499094755
 30
0.0
 10
14.6961906312
 20
12.8583368038
 30
0.0
 10
14.701960979
 20
12.8695738975
 30
0.0
 10
14.7086108098
 20
12.8805585556
 30
0.0
 10
14.7160561655
 20
12.8912265837
 30
0.0
 10
14.7220989515
 20
12.8991461504
 30
0.0
 10
14.728544454
 20
12.9069056699
 30
0.0
 10
14.7353773727
 20
12.9144868899
 30
0.0
 10
14.7425811948
 20
12.921871516
 30
0.0
 10
14.7501386096
 20
12.9290418403
 30
0.0
 10
14.7580314432
 20
12.9359806218
 30
0.0
 10
14.7662406981
 20
12.9426712074
 30
0.0
 10
14.7747466253
 20
12.9490975265
 30
0.0
 10
14.7835287713
 20
12.9552441331
 30
0.0
 10
14.7925660243
 20
12.9610962405
 30
0.0
 10
14.8018366397
 20
12.9666397962
 30
0.0
 10
14.8113183201
 20
12.9718614787
 30
0.0
 10
14.8209882671
 20
12.9767487288
 30
0.0
 10
14.8308232339
 20
12.9812897788
 30
0.0
 10
14.8407995625
 20
12.985473723
 30
0.0
 10
14.8508932627
 20
12.9892905029
 30
0.0
 10
14.861080067
 20
12.9927309308
 30
0.0
 10
14.8713354876
 20
12.9957867106
 30
0.0
 10
14.8816348633
 20
12.998450502
 30
0.0
 10
14.8919534341
 20
13.0007158949
 30
0.0
 10
14.9022663977
 20
13.0025774229
 30
0.0
 10
14.9125489675
 20
13.0040305745
 30
0.0
 10
14.9227764272
 20
13.0050718519
 30
0.0
 10
14.9329241988
 20
13.0056987314
 30
0.0
 10
14.9429678967
 20
13.0059096678
 30
0.0
 10
14.9528833844
 20
13.0057040962
 30
0.0
 10
14.962646835
 20
13.0050824823
 30
0.0
 10
14.972234788
 20
13.0040462716
 30
0.0
 10
14.9816241985
 20
13.0025978836
 30
0.0
 10
14.9907924892
 20
13.0007407051
 30
0.0
 10
14.9997176145
 20
12.9984791327
 30
0.0
 10
15.0083781024
 20
12.9958185123
 30
0.0
 10
15.0167530961
 20
12.9927651263
 30
0.0
 10
15.0248223984
 20
12.9893261806
 30
0.0
 10
15.0325665403
 20
12.9855098424
 30
0.0
 10
15.0399668057
 20
12.981325173
 30
0.0
 10
15.0470052662
 20
12.9767821156
 30
0.0
 10
15.0536648245
 20
12.9718914733
 30
0.0
 10
15.059929279
 20
12.9666649646
 30
0.0
 10
15.0657833914
 20
12.9611150649
 30
0.0
 10
15.0712127178
 20
12.9552553172
 30
0.0
 10
15.0753792307
 20
12.950116788
 30
0.0
 10
15.0784833924
 20
12.9458689494
 30
0.0
 10
15.0806941736
 20
12.9426197286
 30
0.0
 10
15.0827897959
 20
12.939304366
 30
0.0
 10
15.0854274264
 20
12.9348004914
 30
0.0
 10
15.0884336842
 20
12.9290096531
 30
0.0
 10
15.0910392698
 20
12.9230265118
 30
0.0
 10
15.0928785862
 20
12.9181378348
 30
0.0
 10
15.0941364389
 20
12.9144175218
 30
0.0
 10
15.0952710093
 20
12.9106481442
 30
0.0
 10
15.0962815747
 20
12.9068319101
 30
0.0
 10
15.0971675493
 20
12.9029711486
 30
0.0
 10
15.0979284314
 20
12.899068192
 30
0.0
 10
15.098563696
 20
12.8951253865
 30
0.0
 10
15.0990730337
 20
12.891145124
 30
0.0
 10
15.0994561133
 20
12.887129801
 30
0.0
 10
15.099712681
 20
12.8830818423
 30
0.0
 10
15.099842654
 20
12.8790036915
 30
0.0
 10
15.0998458948
 20
12.8748978163
 30
0.0
 10
15.0997224303
 20
12.870766651
 30
0.0
 10
15.0993878382
 20
12.8652084867
 30
0.0
 10
15.0986496245
 20
12.8582067633
 30
0.0
 10
15.0974985803
 20
12.8512075111
 30
0.0
 10
15.0963307415
 20
12.8455896874
 30
0.0
 10
15.0949868665
 20
12.8399170774
 30
0.0
 10
15.0938002332
 20
12.8356884488
 30
0.0
 10
15.0929328694
 20
12.8328816585
 30
0.0
  0
SPLINE
  5
2E1
100
AcDbEntity
  8
LAYER_FEATURE
100
AcDbSpline
 62
7
  6
CONTINUOUS
 70
0
 71
3
 72
33
 73
29
 74
0
 42
0.0000001
 43
0.0000001
 44
0.0000000001
 40
0.0
 40
0.0
 40
0.0
 40
0.0
 40
0.0708515971
 40
0.1405736187
 40
0.2091186852
 40
0.2764542665
 40
0.3096651794
 40
0.3425679338
 40
0.375162574
 40
0.4074501763
 40
0.4711065114
 40
0.5335740388
 40
0.5643803304
 40
0.5949088224
 40
0.6251683444
 40
0.6551687622
 40
0.6849211437
 40
0.7144375715
 40
0.7437312746
 40
0.7728164542
 40
0.8017083618
 40
0.8304231488
 40
0.8589778837
 40
0.8873904259
 40
0.9156793861
 40
0.9438640176
 40
0.9719641325
 40
1.0
 40
1.0
 40
1.0
 40
1.0
 10
14.9732112182
 20
13.0147670153
 30
0.0
 10
14.9780140762
 20
13.0147670153
 30
0.0
 10
14.9875449922
 20
13.0145373695
 30
0.0
 10
15.0016875475
 20
13.0134863971
 30
0.0
 10
15.0155207371
 20
13.011734884
 30
0.0
 10
15.0268049032
 20
13.00968663
 30
0.0
 10
15.0356311705
 20
13.0076994271
 30
0.0
 10
15.0421156218
 20
13.0060451849
 30
0.0
 10
15.0484894959
 20
13.0042216889
 30
0.0
 10
15.0567936099
 20
13.0015793885
 30
0.0
 10
15.0668771276
 20
12.997866539
 30
0.0
 10
15.0766187532
 20
12.9935735313
 30
0.0
 10
15.0841256514
 20
12.9898188178
 30
0.0
 10
15.0895853328
 20
12.986859474
 30
0.0
 10
15.0948956526
 20
12.9837465088
 30
0.0
 10
15.1000522841
 20
12.9804823359
 30
0.0
 10
15.105051046
 20
12.9770697014
 30
0.0
 10
15.1098878011
 20
12.9735112964
 30
0.0
 10
15.1145586402
 20
12.9698100892
 30
0.0
 10
15.119059692
 20
12.9659690287
 30
0.0
 10
15.1233873101
 20
12.961991295
 30
0.0
 10
15.1275379142
 20
12.9578800901
 30
0.0
 10
15.1315081243
 20
12.9536387937
 30
0.0
 10
15.1352946728
 20
12.9492708515
 30
0.0
 10
15.1388944476
 20
12.9447798387
 30
0.0
 10
15.1423045263
 20
12.9401694087
 30
0.0
 10
15.145522018
 20
12.9354434096
 30
0.0
 10
15.1475388603
 20
12.9322151451
 30
0.0
 10
15.1485137828
 20
12.9305837765
 30
0.0
  0
SPLINE
  5
2E2
100
AcDbEntity
  8
LAYER_FEATURE
100
AcDbSpline
 62
7
  6
CONTINUOUS
 70
0
 71
3
 72
38
 73
34
 74
0
 42
0.0000001
 43
0.0000001
 44
0.0000000001
 40
0.0
 40
0.0
 40
0.0
 40
0.0
 40
0.0272316267
 40
0.0549111961
 40
0.0830401981
 40
0.1116182794
 40
0.1406395159
 40
0.1700945634
 40
0.1999702723
 40
0.2302500814
 40
0.2609142786
 40
0.2919402459
 40
0.3233027248
 40
0.3549740657
 40
0.3869244834
 40
0.4191223151
 40
0.4515342676
 40
0.4841256604
 40
0.5168606652
 40
0.549702546
 40
0.5826139014
 40
0.6155569005
 40
0.6484935167
 40
0.6813857603
 40
0.7141959157
 40
0.7468867808
 40
0.7794218991
 40
0.8117658054
 40
0.8438842486
 40
0.8757444347
 40
0.9073154278
 40
0.9385676902
 40
1.0
 40
1.0
 40
1.0
 40
1.0
 10
14.6521880786
 20
12.7985687883
 30
0.0
 10
14.653290082
 20
12.8021348724
 30
0.0
 10
14.6557036319
 20
12.8092679611
 30
0.0
 10
14.6598979707
 20
12.8198536158
 30
0.0
 10
14.6646858567
 20
12.8303875548
 30
0.0
 10
14.670055397
 20
12.8408440433
 30
0.0
 10
14.6759937422
 20
12.8511981725
 30
0.0
 10
14.6824864961
 20
12.8614250515
 30
0.0
 10
14.6895180084
 20
12.8715001635
 30
0.0
 10
14.6970713208
 20
12.8813993368
 30
0.0
 10
14.7051282379
 20
12.8910988189
 30
0.0
 10
14.7136693646
 20
12.9005753297
 30
0.0
 10
14.7226741494
 20
12.9098061156
 30
0.0
 10
14.7321209274
 20
12.9187690097
 30
0.0
 10
14.7419869656
 20
12.9274424915
 30
0.0
 10
14.75224853
 20
12.9358057279
 30
0.0
 10
14.7628809398
 20
12.9438386258
 30
0.0
 10
14.7738586255
 20
12.9515218799
 30
0.0
 10
14.785155189
 20
12.9588370186
 30
0.0
 10
14.7967434578
 20
12.9657664644
 30
0.0
 10
14.8085955614
 20
12.9722935623
 30
0.0
 10
14.8206829975
 20
12.9784026197
 30
0.0
 10
14.8329767003
 20
12.9840789448
 30
0.0
 10
14.84544711
 20
12.9893088788
 30
0.0
 10
14.858064239
 20
12.9940798442
 30
0.0
 10
14.8707977468
 20
12.9983803682
 30
0.0
 10
14.8836170215
 20
13.0022001039
 30
0.0
 10
14.8964912327
 20
13.0055298531
 30
0.0
 10
14.9093894712
 20
13.0083615903
 30
0.0
 10
14.9222805908
 20
13.0106884871
 30
0.0
 10
14.9351341262
 20
13.0125049379
 30
0.0
 10
14.9520801638
 20
13.014230346
 30
0.0
 10
14.9647910624
 20
13.0147670153
 30
0.0
 10
14.9732112182
 20
13.0147670153
 30
0.0
  0
SPLINE
  5
2E3
100
AcDbEntity
  8
LAYER_FEATURE
100
AcDbSpline
 62
7
  6
CONTINUOUS
 70
0
 71
3
 72
80
 73
76
 74
0
 42
0.0000001
 43
0.0000001
 44
0.0000000001
 40
0.0
 40
0.0
 40
0.0
 40
0.0
 40
0.0146661134
 40
0.0219121538
 40
0.0291004395
 40
0.0433082107
 40
0.0573036856
 40
0.0642269792
 40
0.0711028536
 40
0.0779335552
 40
0.0847214809
 40
0.0914691772
 40
0.0981793157
 40
0.104854722
 40
0.1114983481
 40
0.1181132578
 40
0.1247026371
 40
0.1312697597
 40
0.1378179904
 40
0.1443507725
 40
0.1508716041
 40
0.163889778
 40
0.1769031101
 40
0.1834179109
 40
0.1899422837
 40
0.1964797611
 40
0.2030338287
 40
0.2162035041
 40
0.2294794852
 40
0.2428864571
 40
0.25644715
 40
0.2701820825
 40
0.2841093599
 40
0.2982445269
 40
0.3126004991
 40
0.3271875354
 40
0.3420132445
 40
0.357082619
 40
0.3723981269
 40
0.3879598123
 40
0.4037654024
 40
0.4198104202
 40
0.4360883348
 40
0.4525907024
 40
0.4693072996
 40
0.4862262558
 40
0.5033342102
 40
0.5206164546
 40
0.5380570652
 40
0.5556390351
 40
0.5733444226
 40
0.5911544854
 40
0.6090498073
 40
0.6270104284
 40
0.6450159838
 40
0.6630458305
 40
0.6810791722
 40
0.6990951905
 40
0.7170731777
 40
0.7349926608
 40
0.7528335282
 40
0.770576168
 40
0.7882015975
 40
0.8056915905
 40
0.8230288097
 40
0.840196955
 40
0.8571808953
 40
0.8739667999
 40
0.8905422803
 40
0.9068965527
 40
0.9388990011
 40
0.9545429373
 40
0.9699409833
 40
0.985093249
 40
1.0
 40
1.0
 40
1.0
 40
1.0
 10
14.6861923345
 20
12.8328816585
 30
0.0
 10
14.6853249707
 20
12.8300748683
 30
0.0
 10
14.6841383374
 20
12.8258462397
 30
0.0
 10
14.6827944624
 20
12.8201736297
 30
0.0
 10
14.6816266236
 20
12.8145558059
 30
0.0
 10
14.6804755794
 20
12.8075565537
 30
0.0
 10
14.6797373657
 20
12.8005548304
 30
0.0
 10
14.6794027736
 20
12.794996666
 30
0.0
 10
14.6792793091
 20
12.7908655007
 30
0.0
 10
14.6792825499
 20
12.7867596256
 30
0.0
 10
14.6794125229
 20
12.7826814747
 30
0.0
 10
14.6796690906
 20
12.778633516
 30
0.0
 10
14.6800521703
 20
12.7746181931
 30
0.0
 10
14.6805615079
 20
12.7706379306
 30
0.0
 10
14.6811967725
 20
12.766695125
 30
0.0
 10
14.6819576546
 20
12.7627921684
 30
0.0
 10
14.6828436292
 20
12.758931407
 30
0.0
 10
14.6838541946
 20
12.7551151729
 30
0.0
 10
14.684988765
 20
12.7513457952
 30
0.0
 10
14.6862466177
 20
12.7476254822
 30
0.0
 10
14.6880859341
 20
12.7427368052
 30
0.0
 10
14.6906915197
 20
12.7367536639
 30
0.0
 10
14.6936977775
 20
12.7309628257
 30
0.0
 10
14.696335408
 20
12.7264589511
 30
0.0
 10
14.6984310303
 20
12.7231435885
 30
0.0
 10
14.7006418115
 20
12.7198943677
 30
0.0
 10
14.7037459732
 20
12.715646529
 30
0.0
 10
14.7079124861
 20
12.7105079999
 30
0.0
 10
14.7133418125
 20
12.7046482522
 30
0.0
 10
14.7191959249
 20
12.6990983524
 30
0.0
 10
14.7254603794
 20
12.6938718437
 30
0.0
 10
14.7321199377
 20
12.6889812014
 30
0.0
 10
14.7391583982
 20
12.6844381441
 30
0.0
 10
14.7465586636
 20
12.6802534747
 30
0.0
 10
14.7543028055
 20
12.6764371365
 30
0.0
 10
14.7623721078
 20
12.6729981908
 30
0.0
 10
14.7707471015
 20
12.6699448048
 30
0.0
 10
14.7794075894
 20
12.6672841843
 30
0.0
 10
14.7883327147
 20
12.665022612
 30
0.0
 10
14.7975010054
 20
12.6631654334
 30
0.0
 10
14.8068904159
 20
12.6617170455
 30
0.0
 10
14.8164783689
 20
12.6606808347
 30
0.0
 10
14.8262418195
 20
12.6600592209
 30
0.0
 10
14.8361573072
 20
12.6598536493
 30
0.0
 10
14.8462010051
 20
12.6600645857
 30
0.0
 10
14.8563487767
 20
12.6606914651
 30
0.0
 10
14.8665762364
 20
12.6617327425
 30
0.0
 10
14.8768588062
 20
12.6631858942
 30
0.0
 10
14.8871717698
 20
12.6650474221
 30
0.0
 10
14.8974903406
 20
12.6673128151
 30
0.0
 10
14.9077897163
 20
12.6699766065
 30
0.0
 10
14.9180451369
 20
12.6730323863
 30
0.0
 10
14.9282319412
 20
12.6764728142
 30
0.0
 10
14.9383256414
 20
12.6802895941
 30
0.0
 10
14.9483019701
 20
12.6844735382
 30
0.0
 10
14.9581369368
 20
12.6890145883
 30
0.0
 10
14.9678068838
 20
12.6939018383
 30
0.0
 10
14.9772885642
 20
12.6991235208
 30
0.0
 10
14.9865591796
 20
12.7046670765
 30
0.0
 10
14.9955964326
 20
12.710519184
 30
0.0
 10
15.0043785786
 20
12.7166657906
 30
0.0
 10
15.0128845058
 20
12.7230921097
 30
0.0
 10
15.0210937607
 20
12.7297826952
 30
0.0
 10
15.0289865943
 20
12.7367214768
 30
0.0
 10
15.0365440091
 20
12.7438918011
 30
0.0
 10
15.0437478312
 20
12.7512764272
 30
0.0
 10
15.0505807499
 20
12.7588576472
 30
0.0
 10
15.0570262524
 20
12.7666171666
 30
0.0
 10
15.0630690384
 20
12.7745367334
 30
0.0
 10
15.0705143941
 20
12.7852047615
 30
0.0
 10
15.0771642249
 20
12.7961894196
 30
0.0
 10
15.0829345727
 20
12.8074265133
 30
0.0
 10
15.0867649837
 20
12.8158538416
 30
0.0
 10
15.0901204152
 20
12.8243223281
 30
0.0
 10
15.0920512742
 20
12.8300288152
 30
0.0
 10
15.0929328694
 20
12.8328816585
 30
0.0
  0
SPLINE
  5
2E4
100
AcDbEntity
  8
LAYER_FEATURE
100
AcDbSpline
 62
7
  6
CONTINUOUS
 70
0
 71
3
 72
15
 73
11
 74
0
 42
0.0000001
 43
0.0000001
 44
0.0000000001
 40
0.0
 40
0.0
 40
0.0
 40
0.0
 40
0.1383905837
 40
0.272695924
 40
0.403016673
 40
0.5294745751
 40
0.6522165689
 40
0.771413882
 40
0.8872660579
 40
1.0
 40
1.0
 40
1.0
 40
1.0
 10
16.5639225408
 20
11.7311575823
 30
0.0
 10
16.5630374737
 20
11.7300972237
 30
0.0
 10
16.5612567386
 20
11.7280380783
 30
0.0
 10
16.558512262
 20
11.7250962502
 30
0.0
 10
16.5557368728
 20
11.7223502038
 30
0.0
 10
16.5529326191
 20
11.7198021501
 30
0.0
 10
16.5501016412
 20
11.7174539972
 30
0.0
 10
16.547245944
 20
11.7153076262
 30
0.0
 10
16.5443678278
 20
11.7133647478
 30
0.0
 10
16.5424099815
 20
11.7121909279
 30
0.0
 10
16.5414288051
 20
11.7116402774
 30
0.0
  0
SPLINE
  5
2E5
100
AcDbEntity
  8
LAYER_CUT_FEAT
100
AcDbSpline
 62
7
  6
CONTINUOUS
 70
0
 71
3
 72
15
 73
11
 74
0
 42
0.0000001
 43
0.0000001
 44
0.0000000001
 40
0.0
 40
0.0
 40
0.0
 40
0.0
 40
0.1268817072
 40
0.2530900503
 40
0.378690893
 40
0.5037519422
 40
0.6283423416
 40
0.7525325343
 40
0.8763942248
 40
1.0
 40
1.0
 40
1.0
 40
1.0
 10
15.8676464007
 20
11.3628675844
 30
0.0
 10
15.8690470739
 20
11.3648865792
 30
0.0
 10
15.8717846878
 20
11.3689532639
 30
0.0
 10
15.8757061444
 20
11.3751519407
 30
0.0
 10
15.8794299645
 20
11.3814304473
 30
0.0
 10
15.8829550423
 20
11.3877868453
 30
0.0
 10
15.8862803477
 20
11.39421927
 30
0.0
 10
15.8894048467
 20
11.4007258657
 30
0.0
 10
15.892327636
 20
11.4073046068
 30
0.0
 10
15.8941427007
 20
11.4117411455
 30
0.0
 10
15.8950159365
 20
11.4139700265
 30
0.0
  0
SPLINE
  5
2E6
100
AcDbEntity
  8
LAYER_CHAMFER_FEAT
100
AcDbSpline
 62
7
  6
CONTINUOUS
 70
0
 71
3
 72
16
 73
12
 74
0
 42
0.0000001
 43
0.0000001
 44
0.0000000001
 40
0.0
 40
0.0
 40
0.0
 40
0.0
 40
0.0660970902
 40
0.1317690888
 40
0.2617735712
 40
0.3899202669
 40
0.516122643
 40
0.6402998408
 40
0.7623795796
 40
0.8822978684
 40
1.0
 40
1.0
 40
1.0
 40
1.0
 10
14.9701706876
 20
13.0937295194
 30
0.0
 10
14.9622357491
 20
13.0937295194
 30
0.0
 10
14.9464166801
 20
13.0936288024
 30
0.0
 10
14.9149960172
 20
13.0930223222
 30
0.0
 10
14.8761455426
 20
13.091510657
 30
0.0
 10
14.8300983496
 20
13.0884748007
 30
0.0
 10
14.7848492006
 20
13.0842275809
 30
0.0
 10
14.7404629312
 20
13.0787750088
 30
0.0
 10
14.6970027913
 20
13.0721248063
 30
0.0
 10
14.6545314955
 20
13.0642865311
 30
0.0
 10
14.6266519605
 20
13.0582186905
 30
0.0
 10
14.6128971143
 20
13.0549838446
 30
0.0
  0
SPLINE
  5
2E7
100
AcDbEntity
  8
LAYER_FEATURE
100
AcDbSpline
 62
7
  6
CONTINUOUS
 70
0
 71
3
 72
20
 73
16
 74
0
 42
0.0000001
 43
0.0000001
 44
0.0000000001
 40
0.0
 40
0.0
 40
0.0
 40
0.0
 40
0.0570601351
 40
0.1142678177
 40
0.1717689033
 40
0.2297053056
 40
0.2882135072
 40
0.3474237503
 40
0.4074577163
 40
0.4684286351
 40
0.5935406734
 40
0.7235020013
 40
0.7904967352
 40
0.8588983435
 40
1.0
 40
1.0
 40
1.0
 40
1.0
 10
16.6551069239
 20
13.2724935705
 30
0.0
 10
16.6551917099
 20
13.2727679509
 30
0.0
 10
16.6553444549
 20
13.2733228551
 30
0.0
 10
16.6555219082
 20
13.2741694886
 30
0.0
 10
16.6556475579
 20
13.2750298288
 30
0.0
 10
16.6557212853
 20
13.2759027103
 30
0.0
 10
16.6557430199
 20
13.2767870241
 30
0.0
 10
16.6557126934
 20
13.2776816242
 30
0.0
 10
16.6556304182
 20
13.2785853936
 30
0.0
 10
16.6554500689
 20
13.2798114321
 30
0.0
 10
16.6550913783
 20
13.281364273
 30
0.0
 10
16.6545705646
 20
13.2829019751
 30
0.0
 10
16.6540567788
 20
13.2841351389
 30
0.0
 10
16.6534652585
 20
13.2853951533
 30
0.0
 10
16.652956278
 20
13.2863203496
 30
0.0
 10
16.6525905302
 20
13.2869290819
 30
0.0
  0
SPLINE
  5
2E8
100
AcDbEntity
  8
LAYER_CHAMFER_FEAT
100
AcDbSpline
 62
7
  6
CONTINUOUS
 70
0
 71
3
 72
53
 73
49
 74
0
 42
0.0000001
 43
0.0000001
 44
0.0000000001
 40
0.0
 40
0.0
 40
0.0
 40
0.0
 40
0.0152209848
 40
0.0305407466
 40
0.0459548391
 40
0.0614596629
 40
0.0770518033
 40
0.0927275058
 40
0.108482863
 40
0.1243139517
 40
0.1561868147
 40
0.1883141844
 40
0.2206626334
 40
0.2531979928
 40
0.2858854674
 40
0.3186897605
 40
0.3515751923
 40
0.3845058188
 40
0.4174455495
 40
0.4503582643
 40
0.4832079308
 40
0.5159587213
 40
0.548575131
 40
0.5810220972
 40
0.6132651194
 40
0.6452703824
 40
0.6770048812
 40
0.7084365486
 40
0.7240294125
 40
0.7395350418
 40
0.7549497495
 40
0.7702699378
 40
0.7854920906
 40
0.8006127936
 40
0.8156287204
 40
0.830536659
 40
0.8453334918
 40
0.8600162287
 40
0.8745819816
 40
0.8890280028
 40
0.9033516551
 40
0.9175504546
 40
0.931622038
 40
0.9455642079
 40
0.9593748991
 40
0.9730522241
 40
0.9865944419
 40
1.0
 40
1.0
 40
1.0
 40
1.0
 10
14.9701706876
 20
13.0937295194
 30
0.0
 10
14.9786941591
 20
13.0937295194
 30
0.0
 10
14.9957966347
 20
13.093612556
 30
0.0
 10
15.0215259301
 20
13.0930904931
 30
0.0
 10
15.0474049104
 20
13.0922213227
 30
0.0
 10
15.0734225884
 20
13.0910054758
 30
0.0
 10
15.0995685298
 20
13.0894434004
 30
0.0
 10
15.1258321772
 20
13.0875357976
 30
0.0
 10
15.1522028273
 20
13.0852833727
 30
0.0
 10
15.1875698849
 20
13.0818140144
 30
0.0
 10
15.2319758275
 20
13.0766167513
 30
0.0
 10
15.2853990072
 20
13.069033832
 30
0.0
 10
15.3389896901
 20
13.0601031652
 30
0.0
 10
15.3926603172
 20
13.0498393419
 30
0.0
 10
15.4463234847
 20
13.0382590793
 30
0.0
 10
15.4998917186
 20
13.0253812534
 30
0.0
 10
15.5532777181
 20
13.0112268514
 30
0.0
 10
15.6063944718
 20
12.9958189428
 30
0.0
 10
15.6591554075
 20
12.9791826401
 30
0.0
 10
15.7114745323
 20
12.961345058
 30
0.0
 10
15.7632665744
 20
12.9423352693
 30
0.0
 10
15.8144471224
 20
12.9221842563
 30
0.0
 10
15.8649327626
 20
12.9009248612
 30
0.0
 10
15.914641222
 20
12.8785917282
 30
0.0
 10
15.9634914778
 20
12.8552212596
 30
0.0
 10
16.0114039841
 20
12.8308515058
 30
0.0
 10
16.0583004559
 20
12.805522286
 30
0.0
 10
16.0965710846
 20
12.78359181
 30
0.0
 10
16.1266113344
 20
12.7655989789
 30
0.0
 10
16.1487814719
 20
12.7519261125
 30
0.0
 10
16.1706413353
 20
12.7380453343
 30
0.0
 10
16.1921820715
 20
12.7239623053
 30
0.0
 10
16.2133948628
 20
12.7096827376
 30
0.0
 10
16.2342710892
 20
12.6952124951
 30
0.0
 10
16.2548022063
 20
12.6805574281
 30
0.0
 10
16.2749798775
 20
12.6657235658
 30
0.0
 10
16.2947958364
 20
12.6507168964
 30
0.0
 10
16.3142420454
 20
12.6355436001
 30
0.0
 10
16.3333105298
 20
12.6202097965
 30
0.0
 10
16.3519935627
 20
12.6047218033
 30
0.0
 10
16.3702834761
 20
12.5890858646
 30
0.0
 10
16.388172864
 20
12.5733084217
 30
0.0
 10
16.4056543795
 20
12.5573958372
 30
0.0
 10
16.4227209483
 20
12.5413546601
 30
0.0
 10
16.4393655554
 20
12.5251913693
 30
0.0
 10
16.4555814806
 20
12.5089125905
 30
0.0
 10
16.4713620027
 20
12.4925249727
 30
0.0
 10
16.4816404501
 20
12.4814752275
 30
0.0
 10
16.4867043852
 20
12.4759336035
 30
0.0
  0
SPLINE
  5
2E9
100
AcDbEntity
  8
LAYER_FEATURE
100
AcDbSpline
 62
7
  6
CONTINUOUS
 70
0
 71
3
 72
52
 73
48
 74
0
 42
0.0000001
 43
0.0000001
 44
0.0000000001
 40
0.0
 40
0.0
 40
0.0
 40
0.0
 40
0.0396639804
 40
0.078860463
 40
0.1175657585
 40
0.1557593097
 40
0.1934210725
 40
0.2305329582
 40
0.2670785179
 40
0.3030431581
 40
0.3384142614
 40
0.3731813105
 40
0.4073360328
 40
0.4408725474
 40
0.4737875198
 40
0.5060803125
 40
0.537753143
 40
0.5688112453
 40
0.5841129804
 40
0.599264474
 40
0.6291216971
 40
0.6438327726
 40
0.6584012171
 40
0.6728295153
 40
0.6871203607
 40
0.7152998942
 40
0.7429679367
 40
0.7566204551
 40
0.7701567821
 40
0.7835813039
 40
0.796898641
 40
0.8101136629
 40
0.8232314516
 40
0.8362573306
 40
0.8491968322
 40
0.8620556991
 40
0.8748398821
 40
0.88755551
 40
0.9002089017
 40
0.9128065317
 40
0.9253550274
 40
0.9378611525
 40
0.9503317817
 40
0.9627738957
 40
0.9751945504
 40
0.9876008653
 40
1.0
 40
1.0
 40
1.0
 40
1.0
 10
15.2991388212
 20
14.1582707896
 30
0.0
 10
15.2850778814
 20
14.1582707896
 30
0.0
 10
15.2571206162
 20
14.1579554879
 30
0.0
 10
15.2154645047
 20
14.1565184002
 30
0.0
 10
15.1743743682
 20
14.1541213962
 30
0.0
 10
15.1338970639
 20
14.1507672688
 30
0.0
 10
15.0940780161
 20
14.1464597081
 30
0.0
 10
15.0549622418
 20
14.1412035727
 30
0.0
 10
15.0165938394
 20
14.13500475
 30
0.0
 10
14.9790160881
 20
14.1278701986
 30
0.0
 10
14.9422713665
 20
14.1198079168
 30
0.0
 10
14.9064011115
 20
14.1108269333
 30
0.0
 10
14.8714457769
 20
14.1009372971
 30
0.0
 10
14.8374447751
 20
14.0901500635
 30
0.0
 10
14.8044364676
 20
14.0784773076
 30
0.0
 10
14.7724579985
 20
14.0659320296
 30
0.0
 10
14.7415457388
 20
14.052528364
 30
0.0
 10
14.716580513
 20
14.040597196
 30
0.0
 10
14.6971834875
 20
14.0306320051
 30
0.0
 10
14.6783590805
 20
14.0204931694
 30
0.0
 10
14.660019532
 20
14.0099028352
 30
0.0
 10
14.6421989502
 20
13.9988588756
 30
0.0
 10
14.6292023406
 20
13.9904205767
 30
0.0
 10
14.6165130213
 20
13.9817889895
 30
0.0
 10
14.6000863267
 20
13.9700811561
 30
0.0
 10
14.5803232148
 20
13.9549783642
 30
0.0
 10
14.561453183
 20
13.9391217266
 30
0.0
 10
14.5470257768
 20
13.9260797545
 30
0.0
 10
14.5365831856
 20
13.9161659386
 30
0.0
 10
14.5264741756
 20
13.9060797726
 30
0.0
 10
14.5167015833
 20
13.8958240099
 30
0.0
 10
14.507268145
 20
13.885401613
 30
0.0
 10
14.4981765975
 20
13.8748154594
 30
0.0
 10
14.4894294798
 20
13.8640685817
 30
0.0
 10
14.4810292925
 20
13.8531640003
 30
0.0
 10
14.4729784517
 20
13.8421047781
 30
0.0
 10
14.465279191
 20
13.8308940836
 30
0.0
 10
14.4579337767
 20
13.8195350356
 30
0.0
 10
14.4509442376
 20
13.8080308927
 30
0.0
 10
14.4443125967
 20
13.7963848903
 30
0.0
 10
14.4380407572
 20
13.7846003228
 30
0.0
 10
14.4321304531
 20
13.7726805587
 30
0.0
 10
14.4265834488
 20
13.7606289357
 30
0.0
 10
14.4214012496
 20
13.7484489212
 30
0.0
 10
14.4165853699
 20
13.7361439103
 30
0.0
 10
14.4121372214
 20
13.7237175435
 30
0.0
 10
14.4094173841
 20
13.7153535957
 30
0.0
 10
14.4081196219
 20
13.711154032
 30
0.0
  0
SPLINE
  5
2EA
100
AcDbEntity
  8
LAYER_FEATURE
100
AcDbSpline
 62
7
  6
CONTINUOUS
 70
0
 71
3
 72
36
 73
32
 74
0
 42
0.0000001
 43
0.0000001
 44
0.0000000001
 40
0.0
 40
0.0
 40
0.0
 40
0.0
 40
0.0216998355
 40
0.043986488
 40
0.0669408345
 40
0.090637054
 40
0.1404364897
 40
0.1666348175
 40
0.1937111381
 40
0.2216659696
 40
0.2504887882
 40
0.2801592392
 40
0.3106476074
 40
0.3419164917
 40
0.3739210154
 40
0.4066100679
 40
0.4399269792
 40
0.4738099708
 40
0.5081932697
 40
0.5430072424
 40
0.5781793717
 40
0.613634632
 40
0.6492960474
 40
0.6850853504
 40
0.7209233652
 40
0.7924180029
 40
0.8631596495
 40
0.8980603426
 40
0.932546837
 40
0.9665525328
 40
1.0
 40
1.0
 40
1.0
 40
1.0
 10
16.7311924897
 20
13.0537647702
 30
0.0
 10
16.7311631503
 20
13.05422761
 30
0.0
 10
16.7310599454
 20
13.0551635205
 30
0.0
 10
16.7307791806
 20
13.0565680066
 30
0.0
 10
16.7303715319
 20
13.0579855403
 30
0.0
 10
16.7296491983
 20
13.0599179316
 30
0.0
 10
16.7286835779
 20
13.0618261163
 30
0.0
 10
16.7275090986
 20
13.0636907661
 30
0.0
 10
16.7264975778
 20
13.0651029998
 30
0.0
 10
16.7253739603
 20
13.0665002096
 30
0.0
 10
16.7241418622
 20
13.0678780387
 30
0.0
 10
16.7228053387
 20
13.0692319157
 30
0.0
 10
16.721368814
 20
13.0705574746
 30
0.0
 10
16.7198369801
 20
13.0718503386
 30
0.0
 10
16.7182148883
 20
13.0731062943
 30
0.0
 10
16.7165078717
 20
13.0743212259
 30
0.0
 10
16.7147215263
 20
13.0754911183
 30
0.0
 10
16.7128617507
 20
13.0766121686
 30
0.0
 10
16.7109346402
 20
13.0776806501
 30
0.0
 10
16.7089465503
 20
13.0786930763
 30
0.0
 10
16.7069040218
 20
13.0796461109
 30
0.0
 10
16.7048137678
 20
13.080536598
 30
0.0
 10
16.7026826921
 20
13.0813616403
 30
0.0
 10
16.7005177678
 20
13.0821184915
 30
0.0
 10
16.6975982588
 20
13.0830325678
 30
0.0
 10
16.6939119532
 20
13.0839904427
 30
0.0
 10
16.6901897613
 20
13.0846980194
 30
0.0
 10
16.6872221877
 20
13.0851049398
 30
0.0
 10
16.6850232992
 20
13.0853282716
 30
0.0
 10
16.6828488273
 20
13.0854703149
 30
0.0
 10
16.6814073834
 20
13.0855109384
 30
0.0
 10
16.6806925718
 20
13.0855172171
 30
0.0
  0
SPLINE
  5
2EB
100
AcDbEntity
  8
LAYER_FEATURE
100
AcDbSpline
 62
7
  6
CONTINUOUS
 70
0
 71
3
 72
18
 73
14
 74
0
 42
0.0000001
 43
0.0000001
 44
0.0000000001
 40
0.0
 40
0.0
 40
0.0
 40
0.0
 40
0.1272973857
 40
0.2548993525
 40
0.3823166857
 40
0.5090623151
 40
0.6346566751
 40
0.6968801313
 40
0.7586422356
 40
0.8198869876
 40
0.8805632837
 40
0.9406211257
 40
1.0
 40
1.0
 40
1.0
 40
1.0
 10
16.6021389311
 20
13.1011240131
 30
0.0
 10
16.6053238101
 20
13.0998881643
 30
0.0
 10
16.6117562022
 20
13.0975527623
 30
0.0
 10
16.621545662
 20
13.0944706864
 30
0.0
 10
16.6314450659
 20
13.0918181606
 30
0.0
 10
16.6413977547
 20
13.0896103947
 30
0.0
 10
16.649714952
 20
13.0881470581
 30
0.0
 10
16.6563476361
 20
13.0872110623
 30
0.0
 10
16.6612849258
 20
13.0866293007
 30
0.0
 10
16.6661930627
 20
13.086166481
 30
0.0
 10
16.6710651882
 20
13.0858232381
 30
0.0
 10
16.6758941443
 20
13.0856001319
 30
0.0
 10
16.6790990956
 20
13.0855312137
 30
0.0
 10
16.6806925718
 20
13.0855172171
 30
0.0
  0
SPLINE
  5
2EC
100
AcDbEntity
  8
LAYER_CHAMFER_FEAT
100
AcDbSpline
 62
7
  6
CONTINUOUS
 70
0
 71
3
 72
70
 73
66
 74
0
 42
0.0000001
 43
0.0000001
 44
0.0000000001
 40
0.0
 40
0.0
 40
0.0
 40
0.0
 40
0.0180025698
 40
0.0357334339
 40
0.0531901249
 40
0.0703710534
 40
0.0872754393
 40
0.1039034614
 40
0.120256206
 40
0.1363357996
 40
0.1521453774
 40
0.1676891932
 40
0.1829726078
 40
0.1980021706
 40
0.2127856245
 40
0.2273319538
 40
0.2416513986
 40
0.2557554639
 40
0.2696569335
 40
0.2833698351
 40
0.2969094406
 40
0.3102921855
 40
0.3235356417
 40
0.3366583916
 40
0.3496799623
 40
0.3626206614
 40
0.3755014676
 40
0.3883438405
 40
0.4011695709
 40
0.4140005849
 40
0.426858764
 40
0.4397657666
 40
0.4527428341
 40
0.4658106511
 40
0.4789891537
 40
0.4922974431
 40
0.5057536107
 40
0.519374708
 40
0.5331765985
 40
0.5471739787
 40
0.5613802604
 40
0.575807631
 40
0.5904669674
 40
0.6053679196
 40
0.6359221237
 40
0.6515933423
 40
0.6675325143
 40
0.6837433429
 40
0.7002284754
 40
0.7169895307
 40
0.7340271506
 40
0.7513410513
 40
0.7689300494
 40
0.7867921366
 40
0.8049244839
 40
0.8233235342
 40
0.8419849669
 40
0.8609038188
 40
0.8800744902
 40
0.8994908174
 40
0.9191458354
 40
0.9390321365
 40
0.9591424543
 40
0.9794687904
 40
1.0
 40
1.0
 40
1.0
 40
1.0
 10
15.5400096424
 20
11.6882778775
 30
0.0
 10
15.5422609953
 20
11.6858141462
 30
0.0
 10
15.5466687255
 20
11.6808676773
 30
0.0
 10
15.5530361098
 20
11.6733368825
 30
0.0
 10
15.5591042424
 20
11.6657569498
 30
0.0
 10
15.5648680659
 20
11.6581342977
 30
0.0
 10
15.5703227216
 20
11.6504751949
 30
0.0
 10
15.575463708
 20
11.6427860584
 30
0.0
 10
15.5802866718
 20
11.6350732335
 30
0.0
 10
15.5847876289
 20
11.6273431651
 30
0.0
 10
15.5889627597
 20
11.6196022422
 30
0.0
 10
15.5928086019
 20
11.6118569204
 30
0.0
 10
15.5963218841
 20
11.6041136126
 30
0.0
 10
15.599499672
 20
11.596378767
 30
0.0
 10
15.602339255
 20
11.5886588014
 30
0.0
 10
15.6048382317
 20
11.5809601405
 30
0.0
 10
15.6069944633
 20
11.5732891891
 30
0.0
 10
15.6088060873
 20
11.5656523346
 30
0.0
 10
15.6102715479
 20
11.5580559507
 30
0.0
 10
15.6113895286
 20
11.5505063763
 30
0.0
 10
15.6121590681
 20
11.543009935
 30
0.0
 10
15.6125794059
 20
11.5355729057
 30
0.0
 10
15.6126501877
 20
11.5282015408
 30
0.0
 10
15.612371222
 20
11.520902045
 30
0.0
 10
15.6117427725
 20
11.5136805746
 30
0.0
 10
15.6107652318
 20
11.5065432404
 30
0.0
 10
15.6094394888
 20
11.4994960716
 30
0.0
 10
15.6077665326
 20
11.4925450596
 30
0.0
 10
15.6057478776
 20
11.4856960709
 30
0.0
 10
15.6033851156
 20
11.4789549456
 30
0.0
 10
15.6006803759
 20
11.4723273517
 30
0.0
 10
15.5976358508
 20
11.4658189445
 30
0.0
 10
15.5942542636
 20
11.459435162
 30
0.0
 10
15.590538396
 20
11.4531814427
 30
0.0
 10
15.5864915377
 20
11.4470629721
 30
0.0
 10
15.5821170427
 20
11.4410849464
 30
0.0
 10
15.5774187377
 20
11.4352522849
 30
0.0
 10
15.57240053
 20
11.4295699222
 30
0.0
 10
15.5670667564
 20
11.4240425054
 30
0.0
 10
15.5614218599
 20
11.4186746939
 30
0.0
 10
15.5554706586
 20
11.4134708557
 30
0.0
 10
15.5492181425
 20
11.408435382
 30
0.0
 10
15.5426694807
 20
11.4035722868
 30
0.0
 10
15.5334746023
 20
11.3972714949
 30
0.0
 10
15.5237755064
 20
11.3913890431
 30
0.0
 10
15.513627995
 20
11.3859230861
 30
0.0
 10
15.505685977
 20
11.3819795957
 30
0.0
 10
15.4974844578
 20
11.3782305031
 30
0.0
 10
15.489030063
 20
11.3746787896
 30
0.0
 10
15.480329897
 20
11.3713274252
 30
0.0
 10
15.4713911974
 20
11.3681791614
 30
0.0
 10
15.4622214113
 20
11.3652366236
 30
0.0
 10
15.4528281842
 20
11.3625022197
 30
0.0
 10
15.4432193343
 20
11.3599782485
 30
0.0
 10
15.4334028741
 20
11.357666759
 30
0.0
 10
15.4233869741
 20
11.355569717
 30
0.0
 10
15.4131799905
 20
11.3536888049
 30
0.0
 10
15.4027904177
 20
11.3520256418
 30
0.0
 10
15.3922269077
 20
11.3505815437
 30
0.0
 10
15.3814982724
 20
11.3493577865
 30
0.0
 10
15.3706134978
 20
11.3483553017
 30
0.0
 10
15.3595815936
 20
11.347574986
 30
0.0
 10
15.3484115945
 20
11.3470174354
 30
0.0
 10
15.3371131428
 20
11.346683204
 30
0.0
 10
15.3295384511
 20
11.3466097095
 30
0.0
 10
15.3257322249
 20
11.3466097095
 30
0.0
  0
SPLINE
  5
2ED
100
AcDbEntity
  8
LAYER_FEATURE
100
AcDbSpline
 62
7
  6
CONTINUOUS
 70
0
 71
3
 72
37
 73
33
 74
0
 42
0.0000001
 43
0.0000001
 44
0.0000000001
 40
0.0
 40
0.0
 40
0.0
 40
0.0
 40
0.0260845621
 40
0.0530108383
 40
0.0807577695
 40
0.1093060106
 40
0.138625982
 40
0.1686790347
 40
0.1994204524
 40
0.2308001144
 40
0.2627623088
 40
0.2952469233
 40
0.3281900743
 40
0.3615244008
 40
0.3951799932
 40
0.429084593
 40
0.4973349677
 40
0.5656830166
 40
0.5997090577
 40
0.633533539
 40
0.6670830698
 40
0.7002862551
 40
0.7330739192
 40
0.7653799816
 40
0.7971417625
 40
0.8283005781
 40
0.8588029036
 40
0.8886001685
 40
0.9176493406
 40
0.9459159714
 40
0.9733753028
 40
1.0
 40
1.0
 40
1.0
 40
1.0
 10
16.6252267945
 20
13.3291190767
 30
0.0
 10
16.6248929149
 20
13.3295983356
 30
0.0
 10
16.6241853387
 20
13.3305523669
 30
0.0
 10
16.6230298267
 20
13.3319444164
 30
0.0
 10
16.6217668854
 20
13.3333157736
 30
0.0
 10
16.6204008234
 20
13.3346618512
 30
0.0
 10
16.6189360985
 20
13.3359783527
 30
0.0
 10
16.6173774807
 20
13.3372609128
 30
0.0
 10
16.615730138
 20
13.3385053658
 30
0.0
 10
16.6139994627
 20
13.3397076013
 30
0.0
 10
16.6121911513
 20
13.3408636842
 30
0.0
 10
16.6103111585
 20
13.3419698257
 30
0.0
 10
16.6083656506
 20
13.3430223573
 30
0.0
 10
16.606361057
 20
13.3440178557
 30
0.0
 10
16.6043039334
 20
13.3449530209
 30
0.0
 10
16.6014942128
 20
13.3461178082
 30
0.0
 10
16.5978959623
 20
13.3474030781
 30
0.0
 10
16.5942186521
 20
13.3484506197
 30
0.0
 10
16.5912472613
 20
13.3491398076
 30
0.0
 10
16.5890190667
 20
13.3495787838
 30
0.0
 10
16.5867954849
 20
13.3499391037
 30
0.0
 10
16.5845838143
 20
13.3502196248
 30
0.0
 10
16.5823913333
 20
13.3504193758
 30
0.0
 10
16.580225258
 20
13.3505377345
 30
0.0
 10
16.5780927127
 20
13.350574297
 30
0.0
 10
16.5760007055
 20
13.3505289266
 30
0.0
 10
16.5739561086
 20
13.3504018025
 30
0.0
 10
16.5719656526
 20
13.3501932792
 30
0.0
 10
16.5700358685
 20
13.3499041007
 30
0.0
 10
16.5681730007
 20
13.3495351385
 30
0.0
 10
16.566383345
 20
13.3490875819
 30
0.0
 10
16.5652248258
 20
13.3487322956
 30
0.0
 10
16.564660041
 20
13.3485413556
 30
0.0
  0
SPLINE
  5
2EE
100
AcDbEntity
  8
LAYER_FEATURE
100
AcDbSpline
 62
7
  6
CONTINUOUS
 70
0
 71
3
 72
39
 73
35
 74
0
 42
0.0000001
 43
0.0000001
 44
0.0000000001
 40
0.0
 40
0.0
 40
0.0
 40
0.0
 40
0.0292111785
 40
0.0590145823
 40
0.0893758884
 40
0.1202579621
 40
0.1516204762
 40
0.1834204354
 40
0.2156125234
 40
0.2481493125
 40
0.2809816386
 40
0.3140588691
 40
0.3473291341
 40
0.3807396393
 40
0.4142369242
 40
0.4477670961
 40
0.4812761164
 40
0.5147100494
 40
0.5480153026
 40
0.5811389212
 40
0.6140288282
 40
0.6466340708
 40
0.6789051488
 40
0.7107942641
 40
0.7422555735
 40
0.7732455596
 40
0.8037233399
 40
0.8336509127
 40
0.8629935648
 40
0.8917204459
 40
0.9198044274
 40
0.9472227181
 40
0.9739597778
 40
1.0
 40
1.0
 40
1.0
 40
1.0
 10
16.3786921781
 20
13.3925657679
 30
0.0
 10
16.3801425652
 20
13.3912863314
 30
0.0
 10
16.3831222721
 20
13.3887571392
 30
0.0
 10
16.3877701369
 20
13.3850926588
 30
0.0
 10
16.3926318983
 20
13.3815266511
 30
0.0
 10
16.3976958235
 20
13.378067716
 30
0.0
 10
16.4029498183
 20
13.3747240791
 30
0.0
 10
16.4083813102
 20
13.3715037454
 30
0.0
 10
16.4139773128
 20
13.3684144323
 30
0.0
 10
16.4197244238
 20
13.3654635142
 30
0.0
 10
16.4256088867
 20
13.3626580499
 30
0.0
 10
16.4316166246
 20
13.3600047732
 30
0.0
 10
16.4377332499
 20
13.3575100253
 30
0.0
 10
16.4439441145
 20
13.3551797686
 30
0.0
 10
16.4502343542
 20
13.3530195988
 30
0.0
 10
16.4565889075
 20
13.3510346881
 30
0.0
 10
16.462992554
 20
13.3492297727
 30
0.0
 10
16.4694299643
 20
13.3476091847
 30
0.0
 10
16.4758857275
 20
13.3461768155
 30
0.0
 10
16.482344383
 20
13.3449360743
 30
0.0
 10
16.4887904698
 20
13.3438899347
 30
0.0
 10
16.4952085602
 20
13.343040921
 30
0.0
 10
16.5015832899
 20
13.3423910468
 30
0.0
 10
16.5078994042
 20
13.3419418645
 30
0.0
 10
16.5141417917
 20
13.3416944732
 30
0.0
 10
16.5202955194
 20
13.3416494565
 30
0.0
 10
16.5263458718
 20
13.3418069159
 30
0.0
 10
16.5322783811
 20
13.3421665022
 30
0.0
 10
16.5380788733
 20
13.3427273638
 30
0.0
 10
16.5437334907
 20
13.343488168
 30
0.0
 10
16.5492286921
 20
13.3444471171
 30
0.0
 10
16.5545514986
 20
13.3456019734
 30
0.0
 10
16.5596889135
 20
13.3469499952
 30
0.0
 10
16.5630267445
 20
13.3479891781
 30
0.0
 10
16.564660041
 20
13.3485413556
 30
0.0
  0
SPLINE
  5
2EF
100
AcDbEntity
  8
LAYER_FEATURE
100
AcDbSpline
 62
7
  6
CONTINUOUS
 70
0
 71
3
 72
37
 73
33
 74
0
 42
0.0000001
 43
0.0000001
 44
0.0000000001
 40
0.0
 40
0.0
 40
0.0
 40
0.0
 40
0.0328175897
 40
0.0662298583
 40
0.1001626339
 40
0.1345519205
 40
0.2044065005
 40
0.2752068576
 40
0.3107730683
 40
0.3463417635
 40
0.3818340897
 40
0.4171717388
 40
0.452277368
 40
0.4870752083
 40
0.5214916308
 40
0.5554555089
 40
0.5888991498
 40
0.6217584417
 40
0.6539739025
 40
0.6854911214
 40
0.7162613888
 40
0.7462428806
 40
0.7754008423
 40
0.8037091871
 40
0.8311509299
 40
0.8577193438
 40
0.8834195643
 40
0.9082687902
 40
0.9322975344
 40
0.9555522254
 40
0.9780963607
 40
1.0
 40
1.0
 40
1.0
 40
1.0
 10
16.3585451392
 20
13.5886717906
 30
0.0
 10
16.3579683649
 20
13.5890798475
 30
0.0
 10
16.3567878659
 20
13.589880278
 30
0.0
 10
16.3549581251
 20
13.5910222396
 30
0.0
 10
16.3530583605
 20
13.5921131945
 30
0.0
 10
16.3504270739
 20
13.5935020116
 30
0.0
 10
16.3470040355
 20
13.5950857084
 30
0.0
 10
16.3434593433
 20
13.5964461032
 30
0.0
 10
16.3405556304
 20
13.5973993011
 30
0.0
 10
16.3383518116
 20
13.5980433424
 30
0.0
 10
16.3361327639
 20
13.598613222
 30
0.0
 10
16.3339057749
 20
13.5991071135
 30
0.0
 10
16.3316781753
 20
13.5995233495
 30
0.0
 10
16.329457301
 20
13.5998605813
 30
0.0
 10
16.3272504628
 20
13.6001177039
 30
0.0
 10
16.3250649184
 20
13.6002938394
 30
0.0
 10
16.3229078628
 20
13.6003884533
 30
0.0
 10
16.3207863857
 20
13.6004011856
 30
0.0
 10
16.3187074628
 20
13.6003320215
 30
0.0
 10
16.3166779236
 20
13.6001811792
 30
0.0
 10
16.3147044347
 20
13.599949119
 30
0.0
 10
16.312793469
 20
13.5996366382
 30
0.0
 10
16.3109513004
 20
13.5992446898
 30
0.0
 10
16.309183963
 20
13.5987745749
 30
0.0
 10
16.3074972514
 20
13.5982277864
 30
0.0
 10
16.3058967
 20
13.5976060524
 30
0.0
 10
16.3043875444
 20
13.5969113893
 30
0.0
 10
16.3029747858
 20
13.5961459344
 30
0.0
 10
16.3016630603
 20
13.5953121885
 30
0.0
 10
16.3004566829
 20
13.594412667
 30
0.0
 10
16.2993599236
 20
13.5934503388
 30
0.0
 10
16.2986954025
 20
13.5927598099
 30
0.0
 10
16.2983840919
 20
13.5924056131
 30
0.0
  0
SPLINE
  5
2F0
100
AcDbEntity
  8
LAYER_FEATURE
100
AcDbSpline
 62
7
  6
CONTINUOUS
 70
0
 71
3
 72
39
 73
35
 74
0
 42
0.0000001
 43
0.0000001
 44
0.0000000001
 40
0.0
 40
0.0
 40
0.0
 40
0.0
 40
0.0343094597
 40
0.0690208092
 40
0.1040687749
 40
0.139392129
 40
0.1749250391
 40
0.2106012139
 40
0.2463535869
 40
0.2821145537
 40
0.3178165077
 40
0.353392162
 40
0.3887749493
 40
0.4238993922
 40
0.4587014844
 40
0.4931191239
 40
0.5270925119
 40
0.5605645575
 40
0.5934813238
 40
0.6257925435
 40
0.6574520833
 40
0.6884184456
 40
0.7186553382
 40
0.7481323383
 40
0.7768254981
 40
0.8047180159
 40
0.8318009957
 40
0.8580743053
 40
0.8835472993
 40
0.9082397171
 40
0.9321824059
 40
0.9554176034
 40
0.9780017539
 40
1.0
 40
1.0
 40
1.0
 40
1.0
 10
16.1089022664
 20
13.5954745077
 30
0.0
 10
16.1109004284
 20
13.5943215368
 30
0.0
 10
16.1149594736
 20
13.5920695391
 30
0.0
 10
16.1211866841
 20
13.588875312
 30
0.0
 10
16.1275742763
 20
13.5858521568
 30
0.0
 10
16.1341040651
 20
13.5830086081
 30
0.0
 10
16.1407578603
 20
13.5803526365
 30
0.0
 10
16.1475169224
 20
13.5778917016
 30
0.0
 10
16.1543622718
 20
13.5756327068
 30
0.0
 10
16.1612746855
 20
13.5735820035
 30
0.0
 10
16.1682347476
 20
13.5717453618
 30
0.0
 10
16.1752229064
 20
13.5701279299
 30
0.0
 10
16.182219534
 20
13.5687342467
 30
0.0
 10
16.1892049818
 20
13.5675682299
 30
0.0
 10
16.1961596353
 20
13.5666331661
 30
0.0
 10
16.2030639666
 20
13.5659316705
 30
0.0
 10
16.2098985957
 20
13.5654657102
 30
0.0
 10
16.2166443417
 20
13.5652366004
 30
0.0
 10
16.2232822783
 20
13.5652450026
 30
0.0
 10
16.2297937885
 20
13.5654908904
 30
0.0
 10
16.2361606191
 20
13.5659735838
 30
0.0
 10
16.2423649271
 20
13.5666917535
 30
0.0
 10
16.2483893308
 20
13.5676434293
 30
0.0
 10
16.2542169653
 20
13.5688259727
 30
0.0
 10
16.2598315242
 20
13.5702361229
 30
0.0
 10
16.2652172962
 20
13.5718700109
 30
0.0
 10
16.2703592062
 20
13.573723176
 30
0.0
 10
16.2752428623
 20
13.575790549
 30
0.0
 10
16.2798545798
 20
13.5780664955
 30
0.0
 10
16.2841814038
 20
13.5805448571
 30
0.0
 10
16.2882110581
 20
13.5832189123
 30
0.0
 10
16.2919322708
 20
13.5860814908
 30
0.0
 10
16.2953339584
 20
13.589124542
 30
0.0
 10
16.2974076027
 20
13.5912946025
 30
0.0
 10
16.2983840919
 20
13.5924056131
 30
0.0
  0
SPLINE
  5
2F1
100
AcDbEntity
  8
LAYER_FEATURE
100
AcDbSpline
 62
7
  6
CONTINUOUS
 70
0
 71
3
 72
34
 73
30
 74
0
 42
0.0000001
 43
0.0000001
 44
0.0000000001
 40
0.0
 40
0.0
 40
0.0
 40
0.0
 40
0.0383782598
 40
0.0768297729
 40
0.1536258916
 40
0.229838535
 40
0.3049183085
 40
0.3783431809
 40
0.4496289475
 40
0.4843383141
 40
0.5183563598
 40
0.551640243
 40
0.5841520665
 40
0.6158602723
 40
0.6467396452
 40
0.676772482
 40
0.7059491043
 40
0.7342686361
 40
0.7617400979
 40
0.7883827245
 40
0.8142274732
 40
0.8393168726
 40
0.863706504
 40
0.8874643251
 40
0.9106713576
 40
0.9334204424
 40
0.9558155919
 40
0.9779693119
 40
1.0
 40
1.0
 40
1.0
 40
1.0
 10
15.9772592047
 20
13.7875438896
 30
0.0
 10
15.9766082941
 20
13.7877867444
 30
0.0
 10
15.9752978051
 20
13.7882533054
 30
0.0
 10
15.9726508813
 20
13.7891074246
 30
0.0
 10
15.969305955
 20
13.7900237298
 30
0.0
 10
15.9652630021
 20
13.7908741007
 30
0.0
 10
15.9612356089
 20
13.7914657506
 30
0.0
 10
15.9572675546
 20
13.7917922691
 30
0.0
 10
15.9540170899
 20
13.7918409157
 30
0.0
 10
15.9514839868
 20
13.7917411421
 30
0.0
 10
15.9496423127
 20
13.7915994751
 30
0.0
 10
15.9478470581
 20
13.7913907725
 30
0.0
 10
15.9461030735
 20
13.7911155277
 30
0.0
 10
15.9444150903
 20
13.7907745293
 30
0.0
 10
15.9427876881
 20
13.7903686482
 30
0.0
 10
15.9412252744
 20
13.7898989886
 30
0.0
 10
15.9397320847
 20
13.789366791
 30
0.0
 10
15.9383121726
 20
13.7887734524
 30
0.0
 10
15.9369693815
 20
13.7881205674
 30
0.0
 10
15.9357073864
 20
13.7874098083
 30
0.0
 10
15.9345296042
 20
13.7866431003
 30
0.0
 10
15.9334393136
 20
13.7858223876
 30
0.0
 10
15.9324394861
 20
13.7849499007
 30
0.0
 10
15.9315329852
 20
13.7840278751
 30
0.0
 10
15.9307223239
 20
13.7830588353
 30
0.0
 10
15.9300099032
 20
13.7820453519
 30
0.0
 10
15.929397751
 20
13.7809902073
 30
0.0
 10
15.9288877603
 20
13.7798964554
 30
0.0
 10
15.9286164888
 20
13.7791426233
 30
0.0
 10
15.9284987426
 20
13.7787615927
 30
0.0
  0
SPLINE
  5
2F2
100
AcDbEntity
  8
LAYER_FEATURE
100
AcDbSpline
 62
7
  6
CONTINUOUS
 70
0
 71
3
 72
38
 73
34
 74
0
 42
0.0000001
 43
0.0000001
 44
0.0000000001
 40
0.0
 40
0.0
 40
0.0
 40
0.0
 40
0.0377722447
 40
0.0754608476
 40
0.1130151391
 40
0.1503937291
 40
0.2244485785
 40
0.2610464653
 40
0.2973022743
 40
0.3331771008
 40
0.3686335366
 40
0.4036357835
 40
0.4381499778
 40
0.4721441706
 40
0.505588752
 40
0.5384565499
 40
0.5707230356
 40
0.6023667433
 40
0.6333692546
 40
0.6637157677
 40
0.6933951709
 40
0.7224004111
 40
0.7507289295
 40
0.7783827339
 40
0.8053690599
 40
0.8317004269
 40
0.857395109
 40
0.882477458
 40
0.9069779732
 40
0.9309337485
 40
0.9543882857
 40
0.977391608
 40
1.0
 40
1.0
 40
1.0
 40
1.0
 10
15.7782777677
 20
13.72614779
 30
0.0
 10
15.7801013914
 20
13.7256305516
 30
0.0
 10
15.7837571488
 20
13.7246408706
 30
0.0
 10
15.7892661951
 20
13.7232908487
 30
0.0
 10
15.794787116
 20
13.7220788477
 30
0.0
 10
15.802127481
 20
13.7206543095
 30
0.0
 10
15.8094710748
 20
13.7195080972
 30
0.0
 10
15.816794022
 20
13.718649909
 30
0.0
 10
15.8222285998
 20
13.7181549174
 30
0.0
 10
15.8276171408
 20
13.7178069405
 30
0.0
 10
15.8329502698
 20
13.7176065762
 30
0.0
 10
15.838218642
 20
13.7175542114
 30
0.0
 10
15.8434130426
 20
13.7176498921
 30
0.0
 10
15.8485243861
 20
13.7178935007
 30
0.0
 10
15.8535437334
 20
13.7182845865
 30
0.0
 10
15.8584623091
 20
13.7188224735
 30
0.0
 10
15.8632715131
 20
13.7195062568
 30
0.0
 10
15.8679629452
 20
13.7203347041
 30
0.0
 10
15.8725284014
 20
13.7213064352
 30
0.0
 10
15.8769599123
 20
13.722419728
 30
0.0
 10
15.8812497353
 20
13.7236726754
 30
0.0
 10
15.8853903717
 20
13.7250631334
 30
0.0
 10
15.889374601
 20
13.7265886644
 30
0.0
 10
15.8931954402
 20
13.7282467041
 30
0.0
 10
15.8968462252
 20
13.7300343541
 30
0.0
 10
15.9003205511
 20
13.7319485807
 30
0.0
 10
15.9036123173
 20
13.733986109
 30
0.0
 10
15.9067157513
 20
13.7361434184
 30
0.0
 10
15.9096253372
 20
13.7384168733
 30
0.0
 10
15.9123359403
 20
13.7408025063
 30
0.0
 10
15.9148427215
 20
13.7432963044
 30
0.0
 10
15.9171410574
 20
13.7458937696
 30
0.0
 10
15.9185427127
 20
13.747705981
 30
0.0
 10
15.9192056211
 20
13.7486267508
 30
0.0
  0
SPLINE
  5
2F3
100
AcDbEntity
  8
LAYER_FEATURE
100
AcDbSpline
 62
7
  6
CONTINUOUS
 70
0
 71
3
 72
42
 73
38
 74
0
 42
0.0000001
 43
0.0000001
 44
0.0000000001
 40
0.0
 40
0.0
 40
0.0
 40
0.0
 40
0.0110385854
 40
0.0221217183
 40
0.0332609701
 40
0.0444679465
 40
0.0557548232
 40
0.0671335389
 40
0.0902067726
 40
0.1137742947
 40
0.1379087477
 40
0.1626729177
 40
0.1881190469
 40
0.214289102
 40
0.2412151823
 40
0.2689198758
 40
0.2974168121
 40
0.3267113999
 40
0.3568013755
 40
0.3876773418
 40
0.4193235044
 40
0.451718194
 40
0.4848342836
 40
0.5186398163
 40
0.5530984637
 40
0.5881698454
 40
0.623810032
 40
0.6599719514
 40
0.6966056561
 40
0.733658739
 40
0.7710766643
 40
0.8088030169
 40
0.8467800957
 40
0.8849485425
 40
0.9232479298
 40
0.9616205179
 40
1.0
 40
1.0
 40
1.0
 40
1.0
 10
15.6571228276
 20
13.8458523919
 30
0.0
 10
15.6569856063
 20
13.8451885491
 30
0.0
 10
15.6567387337
 20
13.8438521966
 30
0.0
 10
15.6564521503
 20
13.8418292844
 30
0.0
 10
15.6562488561
 20
13.8397858885
 30
0.0
 10
15.656129059
 20
13.8377233972
 30
0.0
 10
15.6560927725
 20
13.8356430225
 30
0.0
 10
15.6561560234
 20
13.8328343044
 30
0.0
 10
15.6564472344
 20
13.8292793652
 30
0.0
 10
15.6571287927
 20
13.824982959
 30
0.0
 10
15.6581421274
 20
13.8206459272
 30
0.0
 10
15.6594845816
 20
13.816278713
 30
0.0
 10
15.6611527352
 20
13.8118915178
 30
0.0
 10
15.6631424272
 20
13.8074946146
 30
0.0
 10
15.665448829
 20
13.8030982766
 30
0.0
 10
15.6680663884
 20
13.7987127702
 30
0.0
 10
15.6709888229
 20
13.7943483183
 30
0.0
 10
15.6742091984
 20
13.7900151245
 30
0.0
 10
15.6777198979
 20
13.7857233358
 30
0.0
 10
15.6815125965
 20
13.7814829844
 30
0.0
 10
15.6855783438
 20
13.7773040152
 30
0.0
 10
15.689907563
 20
13.7731962555
 30
0.0
 10
15.6944900231
 20
13.7691693398
 30
0.0
 10
15.6993149143
 20
13.7652327368
 30
0.0
 10
15.7043708726
 20
13.761395733
 30
0.0
 10
15.7096459596
 20
13.7576673533
 30
0.0
 10
15.7151277236
 20
13.7540563761
 30
0.0
 10
15.7208032422
 20
13.7505713354
 30
0.0
 10
15.7266591166
 20
13.7472204465
 30
0.0
 10
15.7326815157
 20
13.7440116028
 30
0.0
 10
15.7388562284
 20
13.7409523945
 30
0.0
 10
15.7451686829
 20
13.7380500413
 30
0.0
 10
15.7516039629
 20
13.7353113892
 30
0.0
 10
15.758146838
 20
13.7327429203
 30
0.0
 10
15.7647820001
 20
13.7303506441
 30
0.0
 10
15.7714935564
 20
13.7281403327
 30
0.0
 10
15.7760103338
 20
13.7267909073
 30
0.0
 10
15.7782777677
 20
13.72614779
 30
0.0
  0
SPLINE
  5
2F4
100
AcDbEntity
  8
LAYER_FEATURE
100
AcDbSpline
 62
7
  6
CONTINUOUS
 70
0
 71
3
 72
36
 73
32
 74
0
 42
0.0000001
 43
0.0000001
 44
0.0000000001
 40
0.0
 40
0.0
 40
0.0
 40
0.0
 40
0.0215600675
 40
0.0433872928
 40
0.0655961887
 40
0.0882997347
 40
0.1115974295
 40
0.1355725488
 40
0.1602939418
 40
0.1858162807
 40
0.2121793766
 40
0.239409986
 40
0.2675218477
 40
0.29651754
 40
0.326388834
 40
0.3571180046
 40
0.3886788197
 40
0.4210369976
 40
0.4541517038
 40
0.4879754562
 40
0.5224556814
 40
0.5575346225
 40
0.5931504828
 40
0.6292377015
 40
0.7025389926
 40
0.7768711521
 40
0.8516311925
 40
0.8889830728
 40
0.9262126903
 40
0.9632474316
 40
1.0
 40
1.0
 40
1.0
 40
1.0
 10
15.6571228276
 20
13.8458523919
 30
0.0
 10
15.6572138517
 20
13.8462927438
 30
0.0
 10
15.6573542583
 20
13.8471883256
 30
0.0
 10
15.6574378561
 20
13.84855574
 30
0.0
 10
15.6573950766
 20
13.8499489278
 30
0.0
 10
15.6572262668
 20
13.8513632406
 30
0.0
 10
15.656932142
 20
13.8527943957
 30
0.0
 10
15.6565137153
 20
13.8542379901
 30
0.0
 10
15.6559724536
 20
13.8556896445
 30
0.0
 10
15.6553100638
 20
13.857144947
 30
0.0
 10
15.6545287286
 20
13.858599559
 30
0.0
 10
15.653630816
 20
13.8600490593
 30
0.0
 10
15.6526191662
 20
13.8614891242
 30
0.0
 10
15.6514968514
 20
13.8629153861
 30
0.0
 10
15.6502673231
 20
13.8643235487
 30
0.0
 10
15.6489343458
 20
13.8657093621
 30
0.0
 10
15.6475019615
 20
13.8670685976
 30
0.0
 10
15.645974577
 20
13.8683971756
 30
0.0
 10
15.6443568076
 20
13.8696910036
 30
0.0
 10
15.6426536281
 20
13.8709462006
 30
0.0
 10
15.6408702006
 20
13.8721588977
 30
0.0
 10
15.6390119931
 20
13.8733254267
 30
0.0
 10
15.6370846457
 20
13.8744422346
 30
0.0
 10
15.6344168778
 20
13.87586772
 30
0.0
 10
15.6309475972
 20
13.8775016242
 30
0.0
 10
15.6266297213
 20
13.8792037778
 30
0.0
 10
15.6229263461
 20
13.8803986844
 30
0.0
 10
15.6199196796
 20
13.8812135036
 30
0.0
 10
15.6176541856
 20
13.8817506999
 30
0.0
 10
15.615384902
 20
13.8822123641
 30
0.0
 10
15.6138673781
 20
13.8824700768
 30
0.0
 10
15.6131096496
 20
13.8825858315
 30
0.0
  0
SPLINE
  5
2F5
100
AcDbEntity
  8
LAYER_FEATURE
100
AcDbSpline
 62
7
  6
CONTINUOUS
 70
0
 71
3
 72
27
 73
23
 74
0
 42
0.0000001
 43
0.0000001
 44
0.0000000001
 40
0.0
 40
0.0
 40
0.0
 40
0.0
 40
0.0794949724
 40
0.15735541
 40
0.2332951178
 40
0.307075004
 40
0.3784779144
 40
0.4473295515
 40
0.51350068
 40
0.5769155669
 40
0.6375601797
 40
0.695490897
 40
0.7508434577
 40
0.8038409127
 40
0.8295623652
 40
0.8548210781
 40
0.8796709544
 40
0.9041707584
 40
0.9283843301
 40
0.952379373
 40
0.9762268524
 40
1.0
 40
1.0
 40
1.0
 40
1.0
 10
15.5472967929
 20
13.8913485811
 30
0.0
 10
15.5463041419
 20
13.891461134
 30
0.0
 10
15.5443335963
 20
13.8916373032
 30
0.0
 10
15.5414028598
 20
13.891753039
 30
0.0
 10
15.5385417201
 20
13.8917170775
 30
0.0
 10
15.5357677239
 20
13.8915296859
 30
0.0
 10
15.5330976035
 20
13.8911919109
 30
0.0
 10
15.5305475648
 20
13.8907057513
 30
0.0
 10
15.5281330207
 20
13.8900740432
 30
0.0
 10
15.5258685572
 20
13.8893004463
 30
0.0
 10
15.5237678783
 20
13.8883894091
 30
0.0
 10
15.5218437026
 20
13.8873460482
 30
0.0
 10
15.520107984
 20
13.8861763857
 30
0.0
 10
15.5188145653
 20
13.8850907682
 30
0.0
 10
15.5178897262
 20
13.8841667617
 30
0.0
 10
15.517256402
 20
13.8834539043
 30
0.0
 10
15.5166775632
 20
13.8827155413
 30
0.0
 10
15.5161541606
 20
13.8819527343
 30
0.0
 10
15.5156869963
 20
13.8811666978
 30
0.0
 10
15.5152768188
 20
13.8803586241
 30
0.0
 10
15.5149243352
 20
13.8795298134
 30
0.0
 10
15.514728002
 20
13.8789639055
 30
0.0
 10
15.5146397929
 20
13.8786784677
 30
0.0
  0
SPLINE
  5
2F6
100
AcDbEntity
  8
LAYER_FEATURE
100
AcDbSpline
 62
7
  6
CONTINUOUS
 70
0
 71
3
 72
15
 73
11
 74
0
 42
0.0000001
 43
0.0000001
 44
0.0000000001
 40
0.0
 40
0.0
 40
0.0
 40
0.0
 40
0.1351418373
 40
0.2677479684
 40
0.3975985421
 40
0.5245157993
 40
0.6483345272
 40
0.7689197131
 40
0.8861657564
 40
1.0
 40
1.0
 40
1.0
 40
1.0
 10
15.4333824898
 20
13.7723696082
 30
0.0
 10
15.4356917146
 20
13.7723152057
 30
0.0
 10
15.4402692665
 20
13.7722899395
 30
0.0
 10
15.4470631646
 20
13.7725086568
 30
0.0
 10
15.4537032307
 20
13.7729837628
 30
0.0
 10
15.4601691056
 20
13.7737137531
 30
0.0
 10
15.4664413069
 20
13.7746965084
 30
0.0
 10
15.4725008582
 20
13.7759290988
 30
0.0
 10
15.4783292055
 20
13.7774077828
 30
0.0
 10
15.4821055641
 20
13.7785721906
 30
0.0
 10
15.4839485111
 20
13.7791960407
 30
0.0
  0
SPLINE
  5
2F7
100
AcDbEntity
  8
LAYER_FEATURE
100
AcDbSpline
 62
7
  6
CONTINUOUS
 70
0
 71
3
 72
39
 73
35
 74
0
 42
0.0000001
 43
0.0000001
 44
0.0000000001
 40
0.0
 40
0.0
 40
0.0
 40
0.0
 40
0.0238149551
 40
0.0483211979
 40
0.073530718
 40
0.0994529525
 40
0.1260881632
 40
0.1534301935
 40
0.1814672487
 40
0.2101818657
 40
0.2395516015
 40
0.2695495603
 40
0.3001447005
 40
0.3313022416
 40
0.3629841262
 40
0.3951493065
 40
0.4277540416
 40
0.4607523006
 40
0.4940960269
 40
0.5277353835
 40
0.5616191029
 40
0.5956947374
 40
0.6299088938
 40
0.66420754
 40
0.6985362455
 40
0.7328404228
 40
0.7670656285
 40
0.8011577627
 40
0.8350633225
 40
0.8687299195
 40
0.902105913
 40
0.9351409586
 40
0.9677892282
 40
1.0
 40
1.0
 40
1.0
 40
1.0
 10
15.2589661654
 20
13.864592964
 30
0.0
 10
15.2596489761
 20
13.863107105
 30
0.0
 10
15.2611257346
 20
13.8601334558
 30
0.0
 10
15.263623008
 20
13.8557426384
 30
0.0
 10
15.2664278363
 20
13.85136872
 30
0.0
 10
15.2695333172
 20
13.8470222071
 30
0.0
 10
15.2729321701
 20
13.8427131261
 30
0.0
 10
15.2766163302
 20
13.838451596
 30
0.0
 10
15.2805771039
 20
13.8342476118
 30
0.0
 10
15.2848051434
 20
13.8301110336
 30
0.0
 10
15.2892904593
 20
13.8260515649
 30
0.0
 10
15.2940224854
 20
13.822078764
 30
0.0
 10
15.2989900634
 20
13.8182019844
 30
0.0
 10
15.3041814602
 20
13.814430337
 30
0.0
 10
15.3095844361
 20
13.8107727187
 30
0.0
 10
15.3151862507
 20
13.8072377655
 30
0.0
 10
15.3209736698
 20
13.8038337944
 30
0.0
 10
15.326933036
 20
13.8005688402
 30
0.0
 10
15.3330502914
 20
13.7974506277
 30
0.0
 10
15.3393109825
 20
13.7944864985
 30
0.0
 10
15.3457003253
 20
13.7916834482
 30
0.0
 10
15.352203241
 20
13.7890481173
 30
0.0
 10
15.3588043659
 20
13.7865867156
 30
0.0
 10
15.3654881064
 20
13.7843050467
 30
0.0
 10
15.3722386834
 20
13.7822085198
 30
0.0
 10
15.3790401514
 20
13.7803020811
 30
0.0
 10
15.3858764421
 20
13.778590218
 30
0.0
 10
15.3927314117
 20
13.7770769903
 30
0.0
 10
15.3995888783
 20
13.7757659714
 30
0.0
 10
15.4064326412
 20
13.7746602477
 30
0.0
 10
15.4132465049
 20
13.7737624371
 30
0.0
 10
15.4200145325
 20
13.77307464
 30
0.0
 10
15.4267204948
 20
13.7725985482
 30
0.0
 10
15.4311713704
 20
13.7724216994
 30
0.0
 10
15.4333824898
 20
13.7723696082
 30
0.0
  0
SPLINE
  5
2F8
100
AcDbEntity
  8
LAYER_FEATURE
100
AcDbSpline
 62
7
  6
CONTINUOUS
 70
0
 71
3
 72
36
 73
32
 74
0
 42
0.0000001
 43
0.0000001
 44
0.0000000001
 40
0.0
 40
0.0
 40
0.0
 40
0.0
 40
0.0239023638
 40
0.0485984676
 40
0.0740980758
 40
0.1004098564
 40
0.1275318974
 40
0.1554508645
 40
0.1841455634
 40
0.2135879789
 40
0.2437428206
 40
0.274569172
 40
0.3060204448
 40
0.3380456441
 40
0.3705894229
 40
0.4035929153
 40
0.4369941944
 40
0.4707286317
 40
0.5047296176
 40
0.5389287156
 40
0.573256406
 40
0.6076422687
 40
0.6762970949
 40
0.7443393608
 40
0.8112215222
 40
0.8440693099
 40
0.8764361116
 40
0.9082633135
 40
0.9394989518
 40
0.9700960713
 40
1.0
 40
1.0
 40
1.0
 40
1.0
 10
15.2589661654
 20
13.864592964
 30
0.0
 10
15.2587397838
 20
13.8650855913
 30
0.0
 10
15.2582448941
 20
13.8660716179
 30
0.0
 10
15.2573968775
 20
13.8675238316
 30
0.0
 10
15.2564337467
 20
13.8689685402
 30
0.0
 10
15.2553586355
 20
13.8704012482
 30
0.0
 10
15.2541748026
 20
13.8718177246
 30
0.0
 10
15.252885837
 20
13.873213665
 30
0.0
 10
15.2514957086
 20
13.8745848589
 30
0.0
 10
15.2500086249
 20
13.8759271073
 30
0.0
 10
15.2484291617
 20
13.8772363901
 30
0.0
 10
15.2467620938
 20
13.8785086683
 30
0.0
 10
15.2450125403
 20
13.8797401163
 30
0.0
 10
15.2431858181
 20
13.8809269508
 30
0.0
 10
15.2412875088
 20
13.8820655647
 30
0.0
 10
15.2393234119
 20
13.8831524948
 30
0.0
 10
15.2372995082
 20
13.8841843929
 30
0.0
 10
15.2352220006
 20
13.8851581556
 30
0.0
 10
15.2330972071
 20
13.8860707535
 30
0.0
 10
15.2309316488
 20
13.8869194525
 30
0.0
 10
15.2287318932
 20
13.8877016254
 30
0.0
 10
15.225764159
 20
13.8886520521
 30
0.0
 10
15.2220138575
 20
13.8896599029
 30
0.0
 10
15.2174842363
 20
13.8905723417
 30
0.0
 10
15.2137094935
 20
13.8910786879
 30
0.0
 10
15.21072278
 20
13.8913234411
 30
0.0
 10
15.2085235776
 20
13.8914259219
 30
0.0
 10
15.206358672
 20
13.8914481361
 30
0.0
 10
15.2042345411
 20
13.8913899943
 30
0.0
 10
15.2021578529
 20
13.8912516202
 30
0.0
 10
15.2007929975
 20
13.8911044995
 30
0.0
 10
15.2001203603
 20
13.8910171842
 30
0.0
  0
SPLINE
  5
2F9
100
AcDbEntity
  8
LAYER_FEATURE
100
AcDbSpline
 62
7
  6
CONTINUOUS
 70
0
 71
3
 72
23
 73
19
 74
0
 42
0.0000001
 43
0.0000001
 44
0.0000000001
 40
0.0
 40
0.0
 40
0.0
 40
0.0
 40
0.0762054603
 40
0.1504381632
 40
0.2226295145
 40
0.292762731
 40
0.3608420287
 40
0.4268878182
 40
0.4909460852
 40
0.5530916502
 40
0.6134279522
 40
0.6720875857
 40
0.729234578
 40
0.7850625573
 40
0.8397946793
 40
0.8936791638
 40
0.9469860055
 40
1.0
 40
1.0
 40
1.0
 40
1.0
 10
15.143002311
 20
13.882137091
 30
0.0
 10
15.1424398924
 20
13.8820346695
 30
0.0
 10
15.1413337215
 20
13.881808961
 30
0.0
 10
15.1397134704
 20
13.8814016452
 30
0.0
 10
15.1381579514
 20
13.8809308758
 30
0.0
 10
15.1366714942
 20
13.880398001
 30
0.0
 10
15.1352580344
 20
13.8798043859
 30
0.0
 10
15.1339213649
 20
13.8791516013
 30
0.0
 10
15.1326651307
 20
13.8784413358
 30
0.0
 10
15.131492746
 20
13.8776754524
 30
0.0
 10
15.130407398
 20
13.8768559668
 30
0.0
 10
15.1294121054
 20
13.8759849875
 30
0.0
 10
15.1285096056
 20
13.8750648514
 30
0.0
 10
15.1277025036
 20
13.8740979437
 30
0.0
 10
15.126993049
 20
13.8730869302
 30
0.0
 10
15.1263833766
 20
13.8720344776
 30
0.0
 10
15.1258752251
 20
13.8709436814
 30
0.0
 10
15.1256048545
 20
13.8701919389
 30
0.0
 10
15.1254874339
 20
13.8698119749
 30
0.0
  0
SPLINE
  5
2FA
100
AcDbEntity
  8
LAYER_FEATURE
100
AcDbSpline
 62
7
  6
CONTINUOUS
 70
0
 71
3
 72
28
 73
24
 74
0
 42
0.0000001
 43
0.0000001
 44
0.0000000001
 40
0.0
 40
0.0
 40
0.0
 40
0.0
 40
0.0280751909
 40
0.0565734079
 40
0.0854743115
 40
0.1147613326
 40
0.1444180072
 40
0.1744252287
 40
0.204762674
 40
0.2354093278
 40
0.2663435436
 40
0.2975426963
 40
0.3606385553
 40
0.4245072152
 40
0.4889474937
 40
0.5537525521
 40
0.6187119985
 40
0.6836139482
 40
0.7482470716
 40
0.8124026469
 40
0.8758766388
 40
0.9384718254
 40
1.0
 40
1.0
 40
1.0
 40
1.0
 10
14.9363324179
 20
13.7749436438
 30
0.0
 10
14.937418171
 20
13.7739684875
 30
0.0
 10
14.9396330038
 20
13.7720332971
 30
0.0
 10
14.9430548647
 20
13.7691985581
 30
0.0
 10
14.9465975913
 20
13.7664132619
 30
0.0
 10
14.9502566795
 20
13.7636808682
 30
0.0
 10
14.9540277882
 20
13.761004666
 30
0.0
 10
14.9579063466
 20
13.7583878134
 30
0.0
 10
14.9618876781
 20
13.7558335601
 30
0.0
 10
14.9659669035
 20
13.7533449569
 30
0.0
 10
14.9701391299
 20
13.7509250544
 30
0.0
 10
14.9758403221
 20
13.7477824048
 30
0.0
 10
14.9831671709
 20
13.7440467661
 30
0.0
 10
14.9922141443
 20
13.7398997132
 30
0.0
 10
15.0015050751
 20
13.7360916616
 30
0.0
 10
15.0109948896
 20
13.732641087
 30
0.0
 10
15.0206376965
 20
13.7295646741
 30
0.0
 10
15.0303868186
 20
13.7268773153
 30
0.0
 10
15.0401950831
 20
13.7245920146
 30
0.0
 10
15.0500150078
 20
13.7227198312
 30
0.0
 10
15.0597991581
 20
13.7212698221
 30
0.0
 10
15.0694999444
 20
13.7202490097
 30
0.0
 10
15.0759424518
 20
13.7198541116
 30
0.0
 10
15.079138404
 20
13.7197314968
 30
0.0
  0
SPLINE
  5
2FB
100
AcDbEntity
  8
LAYER_FEATURE
100
AcDbSpline
 62
7
  6
CONTINUOUS
 70
0
 71
3
 72
36
 73
32
 74
0
 42
0.0000001
 43
0.0000001
 44
0.0000000001
 40
0.0
 40
0.0
 40
0.0
 40
0.0
 40
0.0298365243
 40
0.0603690812
 40
0.0915434434
 40
0.123313025
 40
0.1556261923
 40
0.1884246296
 40
0.2552219202
 40
0.323199098
 40
0.3918097186
 40
0.4261815066
 40
0.460500515
 40
0.4946963144
 40
0.5286993404
 40
0.5624410803
 40
0.5958548108
 40
0.6288757556
 40
0.6614418011
 40
0.693493856
 40
0.7249763064
 40
0.7558378456
 40
0.7860315274
 40
0.8155160256
 40
0.8442555866
 40
0.8722216721
 40
0.8993925014
 40
0.925754083
 40
0.9513037805
 40
0.9760494631
 40
1.0
 40
1.0
 40
1.0
 40
1.0
 10
14.9363324179
 20
13.7749436438
 30
0.0
 10
14.9358286976
 20
13.7753960542
 30
0.0
 10
14.9347894364
 20
13.7762893138
 30
0.0
 10
14.9331594867
 20
13.7775780137
 30
0.0
 10
14.9314447123
 20
13.7788275289
 30
0.0
 10
14.9296505291
 20
13.7800339853
 30
0.0
 10
14.927782319
 20
13.7811937924
 30
0.0
 10
14.9251846719
 20
13.7826821525
 30
0.0
 10
14.9217891957
 20
13.7844010457
 30
0.0
 10
14.9175410535
 20
13.7862126765
 30
0.0
 10
14.9138800629
 20
13.7875048157
 30
0.0
 10
14.910895776
 20
13.7884015511
 30
0.0
 10
14.9086392417
 20
13.7890023504
 30
0.0
 10
14.906372885
 20
13.7895290589
 30
0.0
 10
14.9041036094
 20
13.7899801235
 30
0.0
 10
14.9018383418
 20
13.7903541048
 30
0.0
 10
14.8995840097
 20
13.7906499213
 30
0.0
 10
14.8973474888
 20
13.7908666179
 30
0.0
 10
14.8951356113
 20
13.7910035662
 30
0.0
 10
14.8929551263
 20
13.7910603355
 30
0.0
 10
14.8908126855
 20
13.7910367363
 30
0.0
 10
14.8887148233
 20
13.7909328742
 30
0.0
 10
14.8866679356
 20
13.7907490014
 30
0.0
 10
14.8846782568
 20
13.7904857408
 30
0.0
 10
14.8827518468
 20
13.7901438122
 30
0.0
 10
14.8808945641
 20
13.789724291
 30
0.0
 10
14.879112079
 20
13.7892283969
 30
0.0
 10
14.877409801
 20
13.7886576421
 30
0.0
 10
14.8757928266
 20
13.788013666
 30
0.0
 10
14.8742662987
 20
13.7872983953
 30
0.0
 10
14.8732963784
 20
13.7867669729
 30
0.0
 10
14.87282896
 20
13.7864896567
 30
0.0
  0
SPLINE
  5
2FC
100
AcDbEntity
  8
LAYER_FEATURE
100
AcDbSpline
 62
7
  6
CONTINUOUS
 70
0
 71
3
 72
15
 73
11
 74
0
 42
0.0000001
 43
0.0000001
 44
0.0000000001
 40
0.0
 40
0.0
 40
0.0
 40
0.0
 40
0.1348998452
 40
0.2661129692
 40
0.3939566237
 40
0.5188718087
 40
0.6413628708
 40
0.7619781521
 40
0.8813132658
 40
1.0
 40
1.0
 40
1.0
 40
1.0
 10
14.8342819477
 20
13.7615021695
 30
0.0
 10
14.8339151721
 20
13.7612423778
 30
0.0
 10
14.8332085235
 20
13.7607054609
 30
0.0
 10
14.8322222158
 20
13.7598376446
 30
0.0
 10
14.8313277376
 20
13.7589211701
 30
0.0
 10
14.8305276617
 20
13.7579586177
 30
0.0
 10
14.8298242242
 20
13.7569524871
 30
0.0
 10
14.8292194009
 20
13.7559054701
 30
0.0
 10
14.8287150355
 20
13.7548205438
 30
0.0
 10
14.8284463782
 20
13.7540730316
 30
0.0
 10
14.8283296293
 20
13.7536952158
 30
0.0
  0
SPLINE
  5
2FD
100
AcDbEntity
  8
LAYER_FEATURE
100
AcDbSpline
 62
7
  6
CONTINUOUS
 70
0
 71
3
 72
36
 73
32
 74
0
 42
0.0000001
 43
0.0000001
 44
0.0000000001
 40
0.0
 40
0.0
 40
0.0
 40
0.0
 40
0.0366866227
 40
0.0736606935
 40
0.1108351396
 40
0.1481375038
 40
0.2228159604
 40
0.2970902428
 40
0.3703573807
 40
0.4064362368
 40
0.4420493858
 40
0.4771310859
 40
0.5116193122
 40
0.5454560314
 40
0.5785883383
 40
0.6109683646
 40
0.642554825
 40
0.6733129226
 40
0.7032158355
 40
0.732245172
 40
0.7603919524
 40
0.787657916
 40
0.8140558718
 40
0.8396115575
 40
0.8643636822
 40
0.8883657504
 40
0.9116854016
 40
0.9344047019
 40
0.9566219914
 40
0.9784492041
 40
1.0
 40
1.0
 40
1.0
 40
1.0
 10
14.7450078911
 20
13.5924056131
 30
0.0
 10
14.7443182463
 20
13.5927390498
 30
0.0
 10
14.7429222994
 20
13.5933855249
 30
0.0
 10
14.7407914504
 20
13.594289405
 30
0.0
 10
14.7386206172
 20
13.5951289855
 30
0.0
 10
14.7356812147
 20
13.5961594882
 30
0.0
 10
14.7319515213
 20
13.5972713383
 30
0.0
 10
14.7274269869
 20
13.5983133167
 30
0.0
 10
14.7236400085
 20
13.598931345
 30
0.0
 10
14.7206314738
 20
13.5992674996
 30
0.0
 10
14.7184081443
 20
13.5994388196
 30
0.0
 10
14.7162133372
 20
13.5995301103
 30
0.0
 10
14.7140537213
 20
13.5995411044
 30
0.0
 10
14.7119358899
 20
13.5994717274
 30
0.0
 10
14.7098662987
 20
13.5993222429
 30
0.0
 10
14.7078512567
 20
13.5990930304
 30
0.0
 10
14.7058968973
 20
13.598784847
 30
0.0
 10
14.7040091754
 20
13.598398557
 30
0.0
 10
14.7021938307
 20
13.5979353543
 30
0.0
 10
14.7004563863
 20
13.5973966069
 30
0.0
 10
14.6988021342
 20
13.5967838985
 30
0.0
 10
14.6972360948
 20
13.5960990863
 30
0.0
 10
14.6957630722
 20
13.5953441222
 30
0.0
 10
14.694387537
 20
13.5945213057
 30
0.0
 10
14.6931137598
 20
13.593632973
 30
0.0
 10
14.6919456607
 20
13.5926817889
 30
0.0
 10
14.6908869433
 20
13.5916705264
 30
0.0
 10
14.689940951
 20
13.5906022336
 30
0.0
 10
14.689110714
 20
13.5894800268
 30
0.0
 10
14.6883991686
 20
13.5883075295
 30
0.0
 10
14.6880035342
 20
13.5874909626
 30
0.0
 10
14.6878271052
 20
13.5870770082
 30
0.0
  0
ENDSEC
  0
SECTION
  2
OBJECTS
  0
DICTIONARY
  5
C
100
AcDbDictionary
280
0
281
1
  3
ACAD_GROUP
350
D
  3
ACAD_MLINESTYLE
350
17
  3
ACAD_LAYOUT
350
1A
  3
ACAD_PLOTSETTINGS
350
19
  3
ACAD_PLOTSTYLENAME
350
E
  0
DICTIONARY
  5
D
102
{ACAD_REACTORS
330
C
102
}
100
AcDbDictionary
280
0
281
1
  0
ACDBDICTIONARYWDFLT
  5
E
102
{ACAD_REACTORS
330
C
102
}
100
AcDbDictionary
281
1
  3
Normal
350
F
100
AcDbDictionaryWithDefault
340
F
  0
DICTIONARY
  5
17
102
{ACAD_REACTORS
330
C
102
}
100
AcDbDictionary
280
0
281
1
  3
Standard
350
18
  0
DICTIONARY
  5
19
102
{ACAD_REACTORS
330
C
102
}
100
AcDbDictionary
281
1
  0
DICTIONARY
  5
1A
102
{ACAD_REACTORS
330
C
102
}
100
AcDbDictionary
281
1
  3
Model
350
2FE
  3
Layout1
350
2FF
  0
ACDBPLACEHOLDER
  5
F
102
{ACAD_REACTORS
330
E
102
}
  0
MLINESTYLE
  5
18
102
{ACAD_REACTORS
330
17
102
}
100
AcDbMlineStyle
  2
STANDARD
 70
0
  3

 62
256
 51
90.0
 52
90.0
 71
2
 49
0.5
 62
256
  6
BYLAYER
 49
-0.5
 62
256
  6
BYLAYER
  0
LAYOUT
  5
2FE
102
{ACAD_REACTORS
330
1A
102
}
100
AcDbPlotSettings
  1

  2
none_device
  4
ANSI_C_(22.00_x_17.00_Inches)
  6

 40
0.0
 41
0.0
 42
0.0
 43
0.0
 44
558.8
 45
431.8
 46
0.0
 47
0.0
 48
0.0
 49
0.0
140
0.0
141
0.0
142
1.0
143
1.0
 70
1024
 72
0
 73
0
 74
0
  7

 75
0
147
1.0
148
0.0
149
0.0
100
AcDbLayout
  1
Model
 70
0
 71
0
 10
0.0
 20
0.0
 11
22.0
 21
17.0
 12
0.0
 22
0.0
 32
0.0
 14
0.0
 24
0.0
 34
0.0
 15
0.0
 25
0.0
 35
0.0
146
0.0
 13
0.0
 23
0.0
 33
0.0
 16
1.0
 26
0.0
 36
0.0
 17
0.0
 27
1.0
 37
0.0
 76
0
330
221
345
0
346
0
  0
LAYOUT
  5
2FF
102
{ACAD_REACTORS
330
1A
102
}
100
AcDbPlotSettings
  1

  2
none_device
  4
ANSI_C_(22.00_x_17.00_Inches)
  6

 40
0.0
 41
0.0
 42
0.0
 43
0.0
 44
558.8
 45
431.8
 46
0.0
 47
0.0
 48
0.0
 49
0.0
140
0.0
141
0.0
142
1.0
143
1.0
 70
0
 72
0
 73
0
 74
0
  7

 75
0
147
1.0
148
0.0
149
0.0
100
AcDbLayout
  1
Layout1
 70
0
 71
1
 10
0.0
 20
0.0
 11
22.0
 21
17.0
 12
0.0
 22
0.0
 32
0.0
 14
0.0
 24
0.0
 34
0.0
 15
0.0
 25
0.0
 35
0.0
146
0.0
 13
0.0
 23
0.0
 33
0.0
 16
1.0
 26
0.0
 36
0.0
 17
0.0
 27
1.0
 37
0.0
 76
0
330
222
345
0
346
0
  0
ENDSEC
  0
EOF