999
DXF file: _cgs_temp_output.dxf
999
Pro/ENGINEER 2016360 by Parametric Technology Corporation
  0
SECTION
  2
HEADER
  9
$ACADVER
  1
AC1021
  9
$DWGCODEPAGE
  3
ANSI_1252
  9
$EXTMAX
 10
22.0
 20
17.0
 30
0.0
  9
$EXTMIN
 10
0.0
 20
0.0
 30
0.0
  9
$LIMMIN
 10
0.0
 20
0.0
  9
$LIMMAX
 10
22.0
 20
17.0
  9
$VIEWCTR
 10
11.0
 20
8.5
  9
$VIEWSIZE
 40
17.0
  9
$CLAYER
  8
0
  9
$LTSCALE
 40
1.21
  9
$CELTYPE
  6
BYLAYER
  9
$DIMSCALE
 40
1.0
  9
$DIMASZ
 40
0.1875
  9
$DIMEXO
 40
0.0625
  9
$DIMDLI
 40
0.836
  9
$DIMEXE
 40
0.125
  9
$DIMCEN
 40
0.198
  9
$DIMLFAC
 40
1.0
  9
$DIMBLK
  1
_CLOSED
  9
$DIMALT
 70
0
  9
$DIMALTF
 40
25.4
  9
$DIMTXT
 40
0.15625
  9
$DIMTOL
 70
0
  9
$DIMLIM
 70
0
  9
$DIMTFAC
 40
1.0
  9
$DIMGAP
 40
0.09
  9
$DIMDSEP
 70
46
  9
$AUNITS
 70
0
  9
$PDMODE
 70
3
  9
$PDSIZE
 40
0.3125
  9
$HANDSEED
  5
307
  9
$TILEMODE
 70
1
  9
$MEASUREMENT
 70
0
  9
$INSUNITS
 70
1
  0
ENDSEC
  0
SECTION
  2
CLASSES
  0
CLASS
  1
ACDBDICTIONARYWDFLT
  2
AcDbDictionaryWithDefault
  3
AutoCAD 2000
 90
0
 91
1
280
0
281
0
  0
CLASS
  1
ACDBPLACEHOLDER
  2
AcDbPlaceHolder
  3
AutoCAD 2000
 90
0
 91
1
280
0
281
0
  0
CLASS
  1
LAYOUT
  2
AcDbLayout
  3
AutoCAD 2000
 90
0
 91
0
280
0
281
0
  0
ENDSEC
  0
SECTION
  2
TABLES
  0
TABLE
  2
VPORT
  5
8
100
AcDbSymbolTable
 70
2
  0
VPORT
  5
1F4
100
AcDbSymbolTableRecord
100
AcDbViewportTableRecord
  2
*ACTIVE
 70
0
 10
0.0
 20
0.0
 11
1.0
 21
1.0
 12
11.0
 22
8.5
 13
0.0
 23
0.0
 14
1.0
 24
1.0
 15
0.0
 25
0.0
 16
0.0
 26
0.0
 36
1.0
 17
0.0
 27
0.0
 37
0.0
 40
17.0
 41
1.2941176471
 42
50.0
 43
0.0
 44
0.0
 50
0.0
 51
0.0
 71
0
 72
100
 73
1
 74
1
 75
0
 76
0
 77
0
 78
0
  0
ENDTAB
  0
TABLE
  2
LTYPE
  5
5
100
AcDbSymbolTable
 70
6
  0
LTYPE
  5
14
100
AcDbSymbolTableRecord
100
AcDbLinetypeTableRecord
  2
BYBLOCK
 70
0
  3

 72
65
 73
0
 40
0.0
  0
LTYPE
  5
15
100
AcDbSymbolTableRecord
100
AcDbLinetypeTableRecord
  2
BYLAYER
 70
0
  3

 72
65
 73
0
 40
0.0
  0
LTYPE
  5
16
100
AcDbSymbolTableRecord
100
AcDbLinetypeTableRecord
  2
CONTINUOUS
 70
64
  3
Solid line
 72
65
 73
0
 40
0.0
  0
LTYPE
  5
1F5
100
AcDbSymbolTableRecord
100
AcDbLinetypeTableRecord
  2
CENTER
 70
64
  3
____ _ ____ _ ____ _ ____ _ ____ _ ____ _ ____
 72
65
 73
4
 40
0.6
 49
0.375
 74
0
 49
-0.075
 74
0
 49
0.075
 74
0
 49
-0.075
 74
0
  0
LTYPE
  5
1F6
100
AcDbSymbolTableRecord
100
AcDbLinetypeTableRecord
  2
HIDDEN
 70
64
  3
- - - - - - - - - - - - - - - - - - - -
 72
65
 73
2
 40
0.2
 49
0.1
 74
0
 49
-0.1
 74
0
  0
LTYPE
  5
1F7
100
AcDbSymbolTableRecord
100
AcDbLinetypeTableRecord
  2
PHANTOM
 70
64
  3
_____ _ _ _____ _ _ _____ _ _ _____
 72
65
 73
6
 40
0.8
 49
0.45
 74
0
 49
-0.05
 74
0
 49
0.1
 74
0
 49
-0.05
 74
0
 49
0.1
 74
0
 49
-0.05
 74
0
  0
LTYPE
  5
1F8
100
AcDbSymbolTableRecord
100
AcDbLinetypeTableRecord
  2
DOT
 70
64
  3
. . . . . . . . . . . . . . . . . . . .
 72
65
 73
2
 40
0.2
 49
0.1
 74
0
 49
-0.1
 74
0
  0
LTYPE
  5
1F9
100
AcDbSymbolTableRecord
100
AcDbLinetypeTableRecord
  2
DASHED
 70
64
  3
- - - - - - - - - - - - - - - - - - - -
 72
65
 73
2
 40
0.2
 49
0.1
 74
0
 49
-0.1
 74
0
  0
ENDTAB
  0
TABLE
  2
LAYER
  5
2
100
AcDbSymbolTable
 70
36
  0
LAYER
  5
10
100
AcDbSymbolTableRecord
100
AcDbLayerTableRecord
  2
0
 70
0
 62
7
  6
CONTINUOUS
370
-3
390
F
  0
LAYER
  5
1FA
100
AcDbSymbolTableRecord
100
AcDbLayerTableRecord
  2
DEFAULT_1
 70
0
 62
7
  6
CENTER
370
-3
390
F
  0
LAYER
  5
1FB
100
AcDbSymbolTableRecord
100
AcDbLayerTableRecord
  2
DEFAULT_2
 70
0
 62
8
  6
HIDDEN
370
-3
390
F
  0
LAYER
  5
1FC
100
AcDbSymbolTableRecord
100
AcDbLayerTableRecord
  2
DEFAULT_3
 70
0
 62
7
  6
PHANTOM
370
-3
390
F
  0
LAYER
  5
1FD
100
AcDbSymbolTableRecord
100
AcDbLayerTableRecord
  2
01_ALL_DTM_PLN
 70
0
 62
7
  6
CONTINUOUS
370
-3
390
F
  0
LAYER
  5
1FE
100
AcDbSymbolTableRecord
100
AcDbLayerTableRecord
  2
01__ASM_ALL_DTM_PLN
 70
0
 62
7
  6
CONTINUOUS
370
-3
390
F
  0
LAYER
  5
1FF
100
AcDbSymbolTableRecord
100
AcDbLayerTableRecord
  2
01__ASM_DEF_DTM_PLN
 70
0
 62
7
  6
CONTINUOUS
370
-3
390
F
  0
LAYER
  5
200
100
AcDbSymbolTableRecord
100
AcDbLayerTableRecord
  2
01___PRT_ALL_DTM_PLN
 70
0
 62
7
  6
CONTINUOUS
370
-3
390
F
  0
LAYER
  5
201
100
AcDbSymbolTableRecord
100
AcDbLayerTableRecord
  2
01___PRT_DEF_DTM_PLN
 70
0
 62
7
  6
CONTINUOUS
370
-3
390
F
  0
LAYER
  5
202
100
AcDbSymbolTableRecord
100
AcDbLayerTableRecord
  2
02_ALL_AXES
 70
0
 62
7
  6
CONTINUOUS
370
-3
390
F
  0
LAYER
  5
203
100
AcDbSymbolTableRecord
100
AcDbLayerTableRecord
  2
02__ASM_ALL_AXES
 70
0
 62
7
  6
CONTINUOUS
370
-3
390
F
  0
LAYER
  5
204
100
AcDbSymbolTableRecord
100
AcDbLayerTableRecord
  2
02___PRT_ALL_AXES
 70
0
 62
7
  6
CONTINUOUS
370
-3
390
F
  0
LAYER
  5
205
100
AcDbSymbolTableRecord
100
AcDbLayerTableRecord
  2
03_ALL_CURVES
 70
0
 62
7
  6
CONTINUOUS
370
-3
390
F
  0
LAYER
  5
206
100
AcDbSymbolTableRecord
100
AcDbLayerTableRecord
  2
03__ASM_ALL_CURVES
 70
0
 62
7
  6
CONTINUOUS
370
-3
390
F
  0
LAYER
  5
207
100
AcDbSymbolTableRecord
100
AcDbLayerTableRecord
  2
03___PRT_ALL_CURVES
 70
0
 62
7
  6
CONTINUOUS
370
-3
390
F
  0
LAYER
  5
208
100
AcDbSymbolTableRecord
100
AcDbLayerTableRecord
  2
04_ALL_DTM_PNT
 70
0
 62
7
  6
CONTINUOUS
370
-3
390
F
  0
LAYER
  5
209
100
AcDbSymbolTableRecord
100
AcDbLayerTableRecord
  2
04__ASM_ALL_DTM_PNT
 70
0
 62
7
  6
CONTINUOUS
370
-3
390
F
  0
LAYER
  5
20A
100
AcDbSymbolTableRecord
100
AcDbLayerTableRecord
  2
04___PRT_ALL_DTM_PNT
 70
0
 62
7
  6
CONTINUOUS
370
-3
390
F
  0
LAYER
  5
20B
100
AcDbSymbolTableRecord
100
AcDbLayerTableRecord
  2
05_ALL_DTM_CSYS
 70
0
 62
7
  6
CONTINUOUS
370
-3
390
F
  0
LAYER
  5
20C
100
AcDbSymbolTableRecord
100
AcDbLayerTableRecord
  2
05__ASM_ALL_DTM_CSYS
 70
0
 62
7
  6
CONTINUOUS
370
-3
390
F
  0
LAYER
  5
20D
100
AcDbSymbolTableRecord
100
AcDbLayerTableRecord
  2
05__ASM_DEF_DTM_CSYS
 70
0
 62
7
  6
CONTINUOUS
370
-3
390
F
  0
LAYER
  5
20E
100
AcDbSymbolTableRecord
100
AcDbLayerTableRecord
  2
05___PRT_ALL_DTM_CSYS
 70
0
 62
7
  6
CONTINUOUS
370
-3
390
F
  0
LAYER
  5
20F
100
AcDbSymbolTableRecord
100
AcDbLayerTableRecord
  2
05___PRT_DEF_DTM_CSYS
 70
0
 62
7
  6
CONTINUOUS
370
-3
390
F
  0
LAYER
  5
210
100
AcDbSymbolTableRecord
100
AcDbLayerTableRecord
  2
06_ALL_SURFS
 70
0
 62
7
  6
CONTINUOUS
370
-3
390
F
  0
LAYER
  5
211
100
AcDbSymbolTableRecord
100
AcDbLayerTableRecord
  2
06__ASM_ALL_SURFS
 70
0
 62
7
  6
CONTINUOUS
370
-3
390
F
  0
LAYER
  5
212
100
AcDbSymbolTableRecord
100
AcDbLayerTableRecord
  2
06___PRT_ALL_SURFS
 70
0
 62
7
  6
CONTINUOUS
370
-3
390
F
  0
LAYER
  5
213
100
AcDbSymbolTableRecord
100
AcDbLayerTableRecord
  2
07__ASM_ALL_SKELETONS
 70
0
 62
7
  6
CONTINUOUS
370
-3
390
F
  0
LAYER
  5
214
100
AcDbSymbolTableRecord
100
AcDbLayerTableRecord
  2
LAYER_AXIS
 70
0
 62
7
  6
CONTINUOUS
370
-3
390
F
  0
LAYER
  5
215
100
AcDbSymbolTableRecord
100
AcDbLayerTableRecord
  2
LAYER_CHAMFER_FEAT
 70
0
 62
7
  6
CONTINUOUS
370
-3
390
F
  0
LAYER
  5
216
100
AcDbSymbolTableRecord
100
AcDbLayerTableRecord
  2
LAYER_CUT_FEAT
 70
0
 62
7
  6
CONTINUOUS
370
-3
390
F
  0
LAYER
  5
217
100
AcDbSymbolTableRecord
100
AcDbLayerTableRecord
  2
LAYER_DATUM
 70
0
 62
7
  6
CONTINUOUS
370
-3
390
F
  0
LAYER
  5
218
100
AcDbSymbolTableRecord
100
AcDbLayerTableRecord
  2
LAYER_DIM
 70
0
 62
7
  6
CONTINUOUS
370
-3
390
F
  0
LAYER
  5
219
100
AcDbSymbolTableRecord
100
AcDbLayerTableRecord
  2
LAYER_FEATURE
 70
0
 62
7
  6
CONTINUOUS
370
-3
390
F
  0
LAYER
  5
21A
100
AcDbSymbolTableRecord
100
AcDbLayerTableRecord
  2
LAYER_GEOM_FEAT
 70
0
 62
7
  6
CONTINUOUS
370
-3
390
F
  0
LAYER
  5
21B
100
AcDbSymbolTableRecord
100
AcDbLayerTableRecord
  2
LAYER_NOGEOM_FEAT
 70
0
 62
7
  6
CONTINUOUS
370
-3
390
F
  0
LAYER
  5
21C
100
AcDbSymbolTableRecord
100
AcDbLayerTableRecord
  2
LAYER_PARAMETER_DIM
 70
0
 62
7
  6
CONTINUOUS
370
-3
390
F
  0
LAYER
  5
21D
100
AcDbSymbolTableRecord
100
AcDbLayerTableRecord
  2
LAYER_PROTRUSION_FEAT
 70
0
 62
7
  6
CONTINUOUS
370
-3
390
F
  0
LAYER
  5
21E
100
AcDbSymbolTableRecord
100
AcDbLayerTableRecord
  2
LAYER_QUILT
 70
0
 62
7
  6
CONTINUOUS
370
-3
390
F
  0
LAYER
  5
21F
100
AcDbSymbolTableRecord
100
AcDbLayerTableRecord
  2
LAYER_ROUND_FEAT
 70
0
 62
7
  6
CONTINUOUS
370
-3
390
F
  0
ENDTAB
  0
TABLE
  2
STYLE
  5
3
100
AcDbSymbolTable
 70
1
  0
STYLE
  5
11
100
AcDbSymbolTableRecord
100
AcDbTextStyleTableRecord
  2
STANDARD
 70
0
 40
0.0
 41
0.8
 50
0.0
 71
0
 42
0.2
  3
txt
  4

  0
STYLE
  5
220
100
AcDbSymbolTableRecord
100
AcDbTextStyleTableRecord
  2
TEXTSTYLE_1
 70
0
 40
0.0
 41
0.8
 50
0.0
 71
0
 42
0.2
  3
gdt
  4

  0
ENDTAB
  0
TABLE
  2
VIEW
  5
6
100
AcDbSymbolTable
 70
0
  0
ENDTAB
  0
TABLE
  2
UCS
  5
7
100
AcDbSymbolTable
 70
0
  0
ENDTAB
  0
TABLE
  2
APPID
  5
9
100
AcDbSymbolTable
 70
1
  0
APPID
  5
221
100
AcDbSymbolTableRecord
100
AcDbRegAppTableRecord
  2
ACAD
 70
0
  0
ENDTAB
  0
TABLE
  2
BLOCK_RECORD
  5
1
100
AcDbSymbolTable
 70
0
  0
BLOCK_RECORD
  5
222
100
AcDbSymbolTableRecord
100
AcDbBlockTableRecord
  2
*Model_Space
  0
BLOCK_RECORD
  5
223
100
AcDbSymbolTableRecord
100
AcDbBlockTableRecord
  2
*Paper_Space
  0
ENDTAB
  0
TABLE
  2
DIMSTYLE
  5
A
100
AcDbSymbolTable
 70
1
100
AcDbDimStyleTable
 71
0
  0
DIMSTYLE
105
224
100
AcDbSymbolTableRecord
100
AcDbDimStyleTableRecord
  2
STANDARD
 70
0
  3

  4

 40
1.0
 41
0.1875
 42
0.0625
 43
0.38
 44
0.125
 45
0.0
 46
0.0
 47
0.0001
 48
0.0001
140
0.15625
141
0.09
142
0.0
143
25.4
144
1.0
145
0.0
146
1.0
147
0.09
 71
0.0
 72
0.0
 73
1
 74
1
 75
0
 76
0
 77
0
 78
4
 79
1
170
0
171
3
172
0
173
0
174
0
175
0
176
0
177
0
178
0
270
2
179
4
271
4
272
4
273
2
274
2
275
0
280
0
281
0
282
0
283
1
284
4
285
0
286
0
287
3
288
0
340
11
278
46
  0
ENDTAB
  0
ENDSEC
  0
SECTION
  2
BLOCKS
  0
BLOCK
  5
20
100
AcDbEntity
  8
0
100
AcDbBlockBegin
  2
*Model_Space
 70
0
 10
0.0
 20
0.0
 30
0.0
  3
*Model_Space
  1

  0
ENDBLK
  5
21
100
AcDbEntity
  8
0
100
AcDbBlockEnd
  0
BLOCK
  5
1C
100
AcDbEntity
  8
0
100
AcDbBlockBegin
  2
*Paper_Space
 70
0
 10
0.0
 20
0.0
 30
0.0
  3
*Paper_Space
  1

  0
ENDBLK
  5
1D
100
AcDbEntity
  8
0
100
AcDbBlockEnd
  0
ENDSEC
  0
SECTION
  2
ENTITIES
  0
MTEXT
  5
225
100
AcDbEntity
  8
0
100
AcDbMText
 62
7
  6
CONTINUOUS
  7
STANDARD
 71
1
 72
1
 10
15.9560215477
 20
0.9479130325
 30
0.0
 11
1.0
 21
0.0
 31
0.0
 44
0.9
  1
SCALE: 1:2.000
 40
0.3
 41
3.36
  0
LINE
  5
226
100
AcDbEntity
  8
0
100
AcDbLine
 62
7
  6
CONTINUOUS
 10
0.0
 20
0.0
 11
0.0
 21
17.0
  0
LINE
  5
227
100
AcDbEntity
  8
0
100
AcDbLine
 62
7
  6
CONTINUOUS
 10
0.0
 20
0.0
 11
22.0
 21
0.0
  0
LINE
  5
228
100
AcDbEntity
  8
0
100
AcDbLine
 62
7
  6
CONTINUOUS
 10
0.0
 20
17.0
 11
22.0
 21
17.0
  0
LINE
  5
229
100
AcDbEntity
  8
0
100
AcDbLine
 62
7
  6
CONTINUOUS
 10
22.0
 20
0.0
 11
22.0
 21
17.0
  0
LINE
  5
22A
100
AcDbEntity
  8
LAYER_FEATURE
100
AcDbLine
 62
7
  6
CONTINUOUS
 10
5.9991672762
 20
6.0831198968
 11
5.9781977149
 21
6.0621503355
  0
LINE
  5
22B
100
AcDbEntity
  8
LAYER_FEATURE
100
AcDbLine
 62
7
  6
CONTINUOUS
 10
6.6933672762
 20
5.3889198968
 11
6.6723977149
 21
5.3679503355
  0
LINE
  5
22C
100
AcDbEntity
  8
LAYER_FEATURE
100
AcDbLine
 62
7
  6
CONTINUOUS
 10
6.2615672762
 20
6.0831198968
 11
6.2825368375
 21
6.0621503355
  0
LINE
  5
22D
100
AcDbEntity
  8
LAYER_FEATURE
100
AcDbLine
 62
7
  6
CONTINUOUS
 10
6.6933672762
 20
5.6513198968
 11
6.6723977149
 21
5.672289458
  0
LINE
  5
22E
100
AcDbEntity
  8
LAYER_FEATURE
100
AcDbLine
 62
7
  6
CONTINUOUS
 10
6.6933672762
 20
5.6513198968
 11
6.6933672762
 21
5.3889198968
  0
LINE
  5
22F
100
AcDbEntity
  8
LAYER_FEATURE
100
AcDbLine
 62
7
  6
CONTINUOUS
 10
5.9991672762
 20
6.0831198968
 11
6.2615672762
 21
6.0831198968
  0
LINE
  5
230
100
AcDbEntity
  8
LAYER_FEATURE
100
AcDbLine
 62
7
  6
CONTINUOUS
 10
5.0078720839
 20
12.0650477814
 11
5.0078720839
 21
12.1450477814
  0
LINE
  5
231
100
AcDbEntity
  8
LAYER_FEATURE
100
AcDbLine
 62
7
  6
CONTINUOUS
 10
5.0078720839
 20
13.5450477814
 11
5.0078720839
 21
13.6250477814
  0
LINE
  5
232
100
AcDbEntity
  8
02___PRT_ALL_AXES
100
AcDbLine
 62
7
  6
CONTINUOUS
 10
5.5078720839
 20
11.5750477814
 11
6.6338720839
 21
11.5750477814
  0
LINE
  5
233
100
AcDbEntity
  8
LAYER_CUT_FEAT
100
AcDbLine
 62
7
  6
CONTINUOUS
 10
5.1784459452
 20
13.4950477814
 11
5.1784459452
 21
12.1950477814
  0
LINE
  5
234
100
AcDbEntity
  8
LAYER_CUT_FEAT
100
AcDbLine
 62
7
  6
CONTINUOUS
 10
5.279718905
 20
13.4950477814
 11
5.279718905
 21
12.1950477814
  0
LINE
  5
235
100
AcDbEntity
  8
LAYER_CUT_FEAT
100
AcDbLine
 62
7
  6
CONTINUOUS
 10
6.0235293618
 20
11.7380477814
 11
6.1182148059
 21
11.7380477814
  0
LINE
  5
236
100
AcDbEntity
  8
LAYER_CUT_FEAT
100
AcDbLine
 62
7
  6
CONTINUOUS
 10
6.1182148059
 20
11.9020477814
 11
6.0235293618
 21
11.9020477814
  0
LINE
  5
237
100
AcDbEntity
  8
02___PRT_ALL_AXES
100
AcDbLine
 62
7
  6
CONTINUOUS
 10
5.5078720839
 20
11.5750477814
 11
5.5078720839
 21
12.0650477814
  0
LINE
  5
238
100
AcDbEntity
  8
LAYER_CUT_FEAT
100
AcDbLine
 62
7
  6
CONTINUOUS
 10
5.511910528
 20
13.4950477814
 11
5.511910528
 21
12.1950477814
  0
LINE
  5
239
100
AcDbEntity
  8
LAYER_FEATURE
100
AcDbLine
 62
7
  6
CONTINUOUS
 10
5.0078720839
 20
12.0650477814
 11
7.1338720839
 21
12.0650477814
  0
LINE
  5
23A
100
AcDbEntity
  8
LAYER_FEATURE
100
AcDbLine
 62
7
  6
CONTINUOUS
 10
7.0208720839
 20
13.4950477814
 11
7.1338720839
 21
13.5450477814
  0
LINE
  5
23B
100
AcDbEntity
  8
LAYER_FEATURE
100
AcDbLine
 62
7
  6
CONTINUOUS
 10
5.0078720839
 20
12.1450477814
 11
7.1338720839
 21
12.1450477814
  0
LINE
  5
23C
100
AcDbEntity
  8
LAYER_FEATURE
100
AcDbLine
 62
7
  6
CONTINUOUS
 10
5.1208721524
 20
12.1950477814
 11
7.0208720153
 21
12.1950477814
  0
LINE
  5
23D
100
AcDbEntity
  8
LAYER_CUT_FEAT
100
AcDbLine
 62
7
  6
CONTINUOUS
 10
5.9761866397
 20
11.8200477814
 11
6.0235293618
 21
11.7380477814
  0
LINE
  5
23E
100
AcDbEntity
  8
LAYER_CUT_FEAT
100
AcDbLine
 62
7
  6
CONTINUOUS
 10
6.165557528
 20
11.8200477814
 11
6.1182148059
 21
11.9020477814
  0
LINE
  5
23F
100
AcDbEntity
  8
LAYER_CUT_FEAT
100
AcDbLine
 62
7
  6
CONTINUOUS
 10
5.8348727732
 20
13.4950477814
 11
5.8348727732
 21
12.1950477814
  0
LINE
  5
240
100
AcDbEntity
  8
LAYER_CUT_FEAT
100
AcDbLine
 62
7
  6
CONTINUOUS
 10
5.9570433897
 20
13.4950477814
 11
5.9570433897
 21
12.1950477814
  0
LINE
  5
241
100
AcDbEntity
  8
LAYER_FEATURE
100
AcDbLine
 62
7
  6
CONTINUOUS
 10
5.0078720839
 20
12.1450477814
 11
5.1208720839
 21
12.1950477814
  0
LINE
  5
242
100
AcDbEntity
  8
LAYER_FEATURE
100
AcDbLine
 62
7
  6
CONTINUOUS
 10
6.6269024992
 20
11.958217366
 11
6.6338720839
 21
11.9512477814
  0
LINE
  5
243
100
AcDbEntity
  8
LAYER_FEATURE
100
AcDbLine
 62
7
  6
CONTINUOUS
 10
7.1338720839
 20
12.1450477814
 11
7.0208720839
 21
12.1950477814
  0
LINE
  5
244
100
AcDbEntity
  8
LAYER_CUT_FEAT
100
AcDbLine
 62
7
  6
CONTINUOUS
 10
6.1927625342
 20
13.4950477814
 11
6.1927625342
 21
12.1950477814
  0
LINE
  5
245
100
AcDbEntity
  8
LAYER_CUT_FEAT
100
AcDbLine
 62
7
  6
CONTINUOUS
 10
6.3148237316
 20
13.4950477814
 11
6.3148237316
 21
12.1950477814
  0
LINE
  5
246
100
AcDbEntity
  8
LAYER_CUT_FEAT
100
AcDbLine
 62
7
  6
CONTINUOUS
 10
6.0235293618
 20
11.9020477814
 11
5.9761866397
 21
11.8200477814
  0
LINE
  5
247
100
AcDbEntity
  8
LAYER_CUT_FEAT
100
AcDbLine
 62
7
  6
CONTINUOUS
 10
6.1182148059
 20
11.7380477814
 11
6.165557528
 21
11.8200477814
  0
LINE
  5
248
100
AcDbEntity
  8
LAYER_FEATURE
100
AcDbLine
 62
7
  6
CONTINUOUS
 10
5.1208720839
 20
13.4950477814
 11
5.0078720839
 21
13.5450477814
  0
LINE
  5
249
100
AcDbEntity
  8
02___PRT_ALL_AXES
100
AcDbLine
 62
7
  6
CONTINUOUS
 10
6.6338720839
 20
11.5750477814
 11
6.6338720839
 21
11.6560477814
  0
LINE
  5
24A
100
AcDbEntity
  8
LAYER_FEATURE
100
AcDbLine
 62
7
  6
CONTINUOUS
 10
6.6338720839
 20
11.6888477814
 11
6.6338720839
 21
11.9512477814
  0
LINE
  5
24B
100
AcDbEntity
  8
02___PRT_ALL_AXES
100
AcDbLine
 62
7
  6
CONTINUOUS
 10
6.6338720839
 20
11.9840477814
 11
6.6338720839
 21
12.0650477814
  0
LINE
  5
24C
100
AcDbEntity
  8
LAYER_CUT_FEAT
100
AcDbLine
 62
7
  6
CONTINUOUS
 10
6.6363015262
 20
13.4950477814
 11
6.6363015262
 21
12.1950477814
  0
LINE
  5
24D
100
AcDbEntity
  8
LAYER_CUT_FEAT
100
AcDbLine
 62
7
  6
CONTINUOUS
 10
6.8658903424
 20
13.4950477814
 11
6.8658903424
 21
12.1950477814
  0
LINE
  5
24E
100
AcDbEntity
  8
LAYER_CUT_FEAT
100
AcDbLine
 62
7
  6
CONTINUOUS
 10
6.963892188
 20
13.4950477814
 11
6.963892188
 21
12.1950477814
  0
LINE
  5
24F
100
AcDbEntity
  8
LAYER_FEATURE
100
AcDbLine
 62
7
  6
CONTINUOUS
 10
5.1208721524
 20
13.4950477814
 11
7.0208720153
 21
13.4950477814
  0
LINE
  5
250
100
AcDbEntity
  8
LAYER_FEATURE
100
AcDbLine
 62
7
  6
CONTINUOUS
 10
5.0078720839
 20
13.5450477814
 11
7.1338720839
 21
13.5450477814
  0
LINE
  5
251
100
AcDbEntity
  8
LAYER_FEATURE
100
AcDbLine
 62
7
  6
CONTINUOUS
 10
7.1338720839
 20
12.0650477814
 11
7.1338720839
 21
12.1450477814
  0
LINE
  5
252
100
AcDbEntity
  8
LAYER_FEATURE
100
AcDbLine
 62
7
  6
CONTINUOUS
 10
7.1338720839
 20
13.5450477814
 11
7.1338720839
 21
13.6250477814
  0
LINE
  5
253
100
AcDbEntity
  8
LAYER_FEATURE
100
AcDbLine
 62
7
  6
CONTINUOUS
 10
6.6269025003
 20
11.6818781978
 11
6.6338720839
 21
11.6888477814
  0
LINE
  5
254
100
AcDbEntity
  8
LAYER_FEATURE
100
AcDbLine
 62
7
  6
CONTINUOUS
 10
5.0078720839
 20
13.6250477814
 11
7.1338720839
 21
13.6250477814
  0
LINE
  5
255
100
AcDbEntity
  8
02___PRT_ALL_AXES
100
AcDbLine
 62
7
  6
CONTINUOUS
 10
14.5353552569
 20
6.0236247044
 11
14.5353552569
 21
4.8976247044
  0
LINE
  5
256
100
AcDbEntity
  8
LAYER_FEATURE
100
AcDbLine
 62
7
  6
CONTINUOUS
 10
14.6421834298
 20
6.0166528773
 11
14.6491552569
 21
6.0236247044
  0
LINE
  5
257
100
AcDbEntity
  8
LAYER_FEATURE
100
AcDbLine
 62
7
  6
CONTINUOUS
 10
16.5853552569
 20
4.3976247044
 11
16.5053552569
 21
4.3976247044
  0
LINE
  5
258
100
AcDbEntity
  8
LAYER_FEATURE
100
AcDbLine
 62
7
  6
CONTINUOUS
 10
15.1053552569
 20
4.3976247044
 11
15.0253552569
 21
4.3976247044
  0
LINE
  5
259
100
AcDbEntity
  8
02___PRT_ALL_AXES
100
AcDbLine
 62
7
  6
CONTINUOUS
 10
15.1553552569
 20
4.5656247044
 11
16.4553552569
 21
4.5656247044
  0
LINE
  5
25A
100
AcDbEntity
  8
LAYER_CUT_FEAT
100
AcDbLine
 62
7
  6
CONTINUOUS
 10
14.6983552569
 20
5.5079674265
 11
14.6983552569
 21
5.4132819824
  0
LINE
  5
25B
100
AcDbEntity
  8
LAYER_CUT_FEAT
100
AcDbLine
 62
7
  6
CONTINUOUS
 10
16.4553552569
 20
4.6276811328
 11
15.1553552569
 21
4.6276811328
  0
LINE
  5
25C
100
AcDbEntity
  8
LAYER_CUT_FEAT
100
AcDbLine
 62
7
  6
CONTINUOUS
 10
14.8623552569
 20
5.4132819824
 11
14.8623552569
 21
5.5079674265
  0
LINE
  5
25D
100
AcDbEntity
  8
LAYER_CUT_FEAT
100
AcDbLine
 62
7
  6
CONTINUOUS
 10
16.4553552569
 20
4.827296362
 11
15.1553552569
 21
4.827296362
  0
LINE
  5
25E
100
AcDbEntity
  8
LAYER_FEATURE
100
AcDbLine
 62
7
  6
CONTINUOUS
 10
15.0253552569
 20
6.5236247044
 11
15.0253552569
 21
4.3976247044
  0
LINE
  5
25F
100
AcDbEntity
  8
02___PRT_ALL_AXES
100
AcDbLine
 62
7
  6
CONTINUOUS
 10
15.0253552569
 20
4.8976247044
 11
14.5353552569
 21
4.8976247044
  0
LINE
  5
260
100
AcDbEntity
  8
LAYER_FEATURE
100
AcDbLine
 62
7
  6
CONTINUOUS
 10
15.1053552569
 20
6.5236247044
 11
15.1053552569
 21
4.3976247044
  0
LINE
  5
261
100
AcDbEntity
  8
LAYER_FEATURE
100
AcDbLine
 62
7
  6
CONTINUOUS
 10
15.1553552569
 20
6.4106247044
 11
15.1553552569
 21
4.5106247044
  0
LINE
  5
262
100
AcDbEntity
  8
LAYER_CUT_FEAT
100
AcDbLine
 62
7
  6
CONTINUOUS
 10
14.7803552569
 20
5.5553101486
 11
14.6983552569
 21
5.5079674265
  0
LINE
  5
263
100
AcDbEntity
  8
LAYER_CUT_FEAT
100
AcDbLine
 62
7
  6
CONTINUOUS
 10
14.6983552569
 20
5.4132819824
 11
14.7803552569
 21
5.3659392603
  0
LINE
  5
264
100
AcDbEntity
  8
LAYER_CUT_FEAT
100
AcDbLine
 62
7
  6
CONTINUOUS
 10
14.7803552569
 20
5.3659392603
 11
14.8623552569
 21
5.4132819824
  0
LINE
  5
265
100
AcDbEntity
  8
LAYER_CUT_FEAT
100
AcDbLine
 62
7
  6
CONTINUOUS
 10
16.4553552569
 20
5.1305409064
 11
15.1553552569
 21
5.1305409064
  0
LINE
  5
266
100
AcDbEntity
  8
LAYER_CUT_FEAT
100
AcDbLine
 62
7
  6
CONTINUOUS
 10
14.8623552569
 20
5.5079674265
 11
14.7803552569
 21
5.5553101486
  0
LINE
  5
267
100
AcDbEntity
  8
LAYER_FEATURE
100
AcDbLine
 62
7
  6
CONTINUOUS
 10
14.918527085
 20
6.0166528764
 11
14.9115552569
 21
6.0236247044
  0
LINE
  5
268
100
AcDbEntity
  8
LAYER_FEATURE
100
AcDbLine
 62
7
  6
CONTINUOUS
 10
15.1553552569
 20
4.5106247044
 11
15.1053552569
 21
4.3976247044
  0
LINE
  5
269
100
AcDbEntity
  8
LAYER_CUT_FEAT
100
AcDbLine
 62
7
  6
CONTINUOUS
 10
16.4553552569
 20
5.4849810292
 11
15.1553552569
 21
5.4849810292
  0
LINE
  5
26A
100
AcDbEntity
  8
LAYER_FEATURE
100
AcDbLine
 62
7
  6
CONTINUOUS
 10
15.1553552569
 20
6.4106247044
 11
15.1053552569
 21
6.5236247044
  0
LINE
  5
26B
100
AcDbEntity
  8
LAYER_CUT_FEAT
100
AcDbLine
 62
7
  6
CONTINUOUS
 10
16.4553552569
 20
5.6080303477
 11
15.1553552569
 21
5.6080303477
  0
LINE
  5
26C
100
AcDbEntity
  8
LAYER_FEATURE
100
AcDbLine
 62
7
  6
CONTINUOUS
 10
16.5053552569
 20
6.5236247044
 11
16.4553552569
 21
6.4106247044
  0
LINE
  5
26D
100
AcDbEntity
  8
LAYER_CUT_FEAT
100
AcDbLine
 62
7
  6
CONTINUOUS
 10
16.4553552569
 20
5.9453751416
 11
15.1553552569
 21
5.9453751416
  0
LINE
  5
26E
100
AcDbEntity
  8
LAYER_FEATURE
100
AcDbLine
 62
7
  6
CONTINUOUS
 10
16.5053552569
 20
4.3976247044
 11
16.4553552569
 21
4.5106247044
  0
LINE
  5
26F
100
AcDbEntity
  8
02___PRT_ALL_AXES
100
AcDbLine
 62
7
  6
CONTINUOUS
 10
15.0253552569
 20
6.0236247044
 11
14.9443552569
 21
6.0236247044
  0
LINE
  5
270
100
AcDbEntity
  8
02___PRT_ALL_AXES
100
AcDbLine
 62
7
  6
CONTINUOUS
 10
14.6163552569
 20
6.0236247044
 11
14.5353552569
 21
6.0236247044
  0
LINE
  5
271
100
AcDbEntity
  8
LAYER_FEATURE
100
AcDbLine
 62
7
  6
CONTINUOUS
 10
14.64915533
 20
6.0236247044
 11
14.9115551839
 21
6.0236247044
  0
LINE
  5
272
100
AcDbEntity
  8
LAYER_CUT_FEAT
100
AcDbLine
 62
7
  6
CONTINUOUS
 10
16.4553552569
 20
6.20478109
 11
15.1553552569
 21
6.20478109
  0
LINE
  5
273
100
AcDbEntity
  8
LAYER_FEATURE
100
AcDbLine
 62
7
  6
CONTINUOUS
 10
16.4553552569
 20
6.4106247044
 11
16.4553552569
 21
4.5106247044
  0
LINE
  5
274
100
AcDbEntity
  8
LAYER_CUT_FEAT
100
AcDbLine
 62
7
  6
CONTINUOUS
 10
16.4553552569
 20
6.3413945477
 11
15.1553552569
 21
6.3413945477
  0
LINE
  5
275
100
AcDbEntity
  8
LAYER_CUT_FEAT
100
AcDbLine
 62
7
  6
CONTINUOUS
 10
16.4553552569
 20
6.3428391096
 11
15.1553552569
 21
6.3428391096
  0
LINE
  5
276
100
AcDbEntity
  8
LAYER_FEATURE
100
AcDbLine
 62
7
  6
CONTINUOUS
 10
16.5053552569
 20
6.5236247044
 11
16.5053552569
 21
4.3976247044
  0
LINE
  5
277
100
AcDbEntity
  8
LAYER_FEATURE
100
AcDbLine
 62
7
  6
CONTINUOUS
 10
16.5853552569
 20
6.5236247044
 11
16.5853552569
 21
4.3976247044
  0
LINE
  5
278
100
AcDbEntity
  8
LAYER_FEATURE
100
AcDbLine
 62
7
  6
CONTINUOUS
 10
16.5853552569
 20
6.5236247044
 11
16.5053552569
 21
6.5236247044
  0
LINE
  5
279
100
AcDbEntity
  8
LAYER_FEATURE
100
AcDbLine
 62
7
  6
CONTINUOUS
 10
15.1053552569
 20
6.5236247044
 11
15.0253552569
 21
6.5236247044
  0
LINE
  5
27A
100
AcDbEntity
  8
LAYER_FEATURE
100
AcDbLine
 62
7
  6
CONTINUOUS
 10
14.2666883788
 20
12.2501705601
 11
14.2860536846
 21
12.3128367128
  0
LINE
  5
27B
100
AcDbEntity
  8
LAYER_FEATURE
100
AcDbLine
 62
7
  6
CONTINUOUS
 10
14.6249465374
 20
13.4094943863
 11
14.6443118433
 21
13.4721605391
  0
LINE
  5
27C
100
AcDbEntity
  8
LAYER_CUT_FEAT
100
AcDbLine
 62
7
  6
CONTINUOUS
 10
14.7735421436
 20
13.3213331432
 11
14.5434494913
 21
12.5767530476
  0
LINE
  5
27D
100
AcDbEntity
  8
LAYER_CUT_FEAT
100
AcDbLine
 62
7
  6
CONTINUOUS
 10
14.9042742017
 20
13.4907354726
 11
14.6323797593
 21
12.6108847346
  0
LINE
  5
27E
100
AcDbEntity
  8
LAYER_FEATURE
100
AcDbLine
 62
7
  6
CONTINUOUS
 10
14.7735495762
 20
13.3213570996
 11
14.773542152
 21
13.3213331406
  0
LINE
  5
27F
100
AcDbEntity
  8
LAYER_CUT_FEAT
100
AcDbLine
 62
7
  6
CONTINUOUS
 10
15.7704348512
 20
11.6855500954
 11
15.7190645295
 21
11.6855500954
  0
LINE
  5
280
100
AcDbEntity
  8
LAYER_CUT_FEAT
100
AcDbLine
 62
7
  6
CONTINUOUS
 10
15.7758427774
 20
11.77921161
 11
15.7112799865
 21
11.77921161
  0
LINE
  5
281
100
AcDbEntity
  8
LAYER_CUT_FEAT
100
AcDbLine
 62
7
  6
CONTINUOUS
 10
14.6851627086
 20
12.1208522114
 11
14.6972660247
 21
12.1600185568
  0
LINE
  5
282
100
AcDbEntity
  8
LAYER_CUT_FEAT
100
AcDbLine
 62
7
  6
CONTINUOUS
 10
15.1546069668
 20
13.5867868328
 11
14.8667490663
 21
12.6552783254
  0
LINE
  5
283
100
AcDbEntity
  8
LAYER_CUT_FEAT
100
AcDbLine
 62
7
  6
CONTINUOUS
 10
14.9640448468
 20
12.0943739235
 11
14.99556573
 21
12.0301411169
  0
LINE
  5
284
100
AcDbEntity
  8
LAYER_CUT_FEAT
100
AcDbLine
 62
7
  6
CONTINUOUS
 10
14.9640448468
 20
12.0943739235
 11
14.9878009429
 21
12.0301411169
  0
LINE
  5
285
100
AcDbEntity
  8
02___PRT_ALL_AXES
100
AcDbLine
 62
7
  6
CONTINUOUS
 10
14.6257863024
 20
11.7187166886
 11
14.7443988009
 21
12.1025468743
  0
LINE
  5
286
100
AcDbEntity
  8
LAYER_CUT_FEAT
100
AcDbLine
 62
7
  6
CONTINUOUS
 10
14.9878009429
 20
12.0301411169
 11
15.0750120122
 21
12.0301411169
  0
LINE
  5
287
100
AcDbEntity
  8
LAYER_CUT_FEAT
100
AcDbLine
 62
7
  6
CONTINUOUS
 10
15.0274998199
 20
12.1586067301
 11
15.0775266861
 21
12.0566626953
  0
LINE
  5
288
100
AcDbEntity
  8
LAYER_CUT_FEAT
100
AcDbLine
 62
7
  6
CONTINUOUS
 10
15.101212425
 20
12.0566626953
 11
15.0775266861
 21
12.0566626953
  0
LINE
  5
289
100
AcDbEntity
  8
LAYER_CUT_FEAT
100
AcDbLine
 62
7
  6
CONTINUOUS
 10
15.1147108892
 20
12.1586067301
 11
15.0274998199
 21
12.1586067301
  0
LINE
  5
28A
100
AcDbEntity
  8
LAYER_CUT_FEAT
100
AcDbLine
 62
7
  6
CONTINUOUS
 10
15.1384669854
 20
12.0943739235
 11
15.1147108892
 21
12.1586067301
  0
LINE
  5
28B
100
AcDbEntity
  8
LAYER_CUT_FEAT
100
AcDbLine
 62
7
  6
CONTINUOUS
 10
15.4812556295
 20
13.592879071
 11
15.1884038373
 21
12.6452103239
  0
LINE
  5
28C
100
AcDbEntity
  8
LAYER_FEATURE
100
AcDbLine
 62
7
  6
CONTINUOUS
 10
15.7383425492
 20
11.8930286053
 11
15.7631530452
 21
11.8633043865
  0
LINE
  5
28D
100
AcDbEntity
  8
LAYER_CUT_FEAT
100
AcDbLine
 62
7
  6
CONTINUOUS
 10
15.7072608758
 20
11.7096034127
 11
15.7361439004
 21
11.6507459968
  0
LINE
  5
28E
100
AcDbEntity
  8
LAYER_CUT_FEAT
100
AcDbLine
 62
7
  6
CONTINUOUS
 10
15.0274998199
 20
12.1586067301
 11
14.9640448468
 21
12.0943739235
  0
LINE
  5
28F
100
AcDbEntity
  8
LAYER_CUT_FEAT
100
AcDbLine
 62
7
  6
CONTINUOUS
 10
15.7758427774
 20
11.77921161
 11
15.7469597528
 21
11.8380690259
  0
LINE
  5
290
100
AcDbEntity
  8
LAYER_CUT_FEAT
100
AcDbLine
 62
7
  6
CONTINUOUS
 10
15.8277396687
 20
13.5079587839
 11
15.535616983
 21
12.5626494265
  0
LINE
  5
291
100
AcDbEntity
  8
LAYER_CUT_FEAT
100
AcDbLine
 62
7
  6
CONTINUOUS
 10
15.0775266861
 20
12.0566626953
 11
15.0513262733
 21
12.0301411169
  0
LINE
  5
292
100
AcDbEntity
  8
LAYER_CUT_FEAT
100
AcDbLine
 62
7
  6
CONTINUOUS
 10
15.0750120122
 20
12.0301411169
 11
15.1384669854
 21
12.0943739235
  0
LINE
  5
293
100
AcDbEntity
  8
LAYER_CUT_FEAT
100
AcDbLine
 62
7
  6
CONTINUOUS
 10
15.9437760301
 20
13.467535402
 11
15.6506138156
 21
12.5188621283
  0
LINE
  5
294
100
AcDbEntity
  8
LAYER_CUT_FEAT
100
AcDbLine
 62
7
  6
CONTINUOUS
 10
15.712668802
 20
11.8032649273
 11
15.7072608758
 21
11.7096034127
  0
LINE
  5
295
100
AcDbEntity
  8
LAYER_CUT_FEAT
100
AcDbLine
 62
7
  6
CONTINUOUS
 10
15.7704348512
 20
11.6855500954
 11
15.7758427774
 21
11.77921161
  0
LINE
  5
296
100
AcDbEntity
  8
LAYER_CUT_FEAT
100
AcDbLine
 62
7
  6
CONTINUOUS
 10
16.2390418979
 20
13.2967678059
 11
15.948637408
 21
12.3570185323
  0
LINE
  5
297
100
AcDbEntity
  8
02___PRT_ALL_AXES
100
AcDbLine
 62
7
  6
CONTINUOUS
 10
15.7015901731
 20
11.3862681483
 11
15.8202026715
 21
11.770098334
  0
LINE
  5
298
100
AcDbEntity
  8
LAYER_CUT_FEAT
100
AcDbLine
 62
7
  6
CONTINUOUS
 10
15.8794387639
 20
11.751792997
 11
15.89154208
 21
11.7909593425
  0
LINE
  5
299
100
AcDbEntity
  8
LAYER_CUT_FEAT
100
AcDbLine
 62
7
  6
CONTINUOUS
 10
15.7469597528
 20
11.8380690259
 11
15.712668802
 21
11.8032649273
  0
LINE
  5
29A
100
AcDbEntity
  8
LAYER_CUT_FEAT
100
AcDbLine
 62
7
  6
CONTINUOUS
 10
16.4343486762
 20
13.0827165475
 11
16.1551145087
 21
12.1791144505
  0
LINE
  5
29B
100
AcDbEntity
  8
LAYER_FEATURE
100
AcDbLine
 62
7
  6
CONTINUOUS
 10
15.7383425492
 20
11.5957864174
 11
15.7631530452
 21
11.6255106362
  0
LINE
  5
29C
100
AcDbEntity
  8
LAYER_CUT_FEAT
100
AcDbLine
 62
7
  6
CONTINUOUS
 10
15.7361439004
 20
11.6507459968
 11
15.7704348512
 21
11.6855500954
  0
LINE
  5
29D
100
AcDbEntity
  8
LAYER_CUT_FEAT
100
AcDbLine
 62
7
  6
CONTINUOUS
 10
16.4959260487
 20
12.862393034
 11
16.2474702621
 21
12.0583898141
  0
LINE
  5
29E
100
AcDbEntity
  8
LAYER_FEATURE
100
AcDbLine
 62
7
  6
CONTINUOUS
 10
16.2979130937
 20
11.6224746483
 11
16.3172783995
 21
11.6851408011
  0
LINE
  5
29F
100
AcDbEntity
  8
LAYER_FEATURE
100
AcDbLine
 62
7
  6
CONTINUOUS
 10
16.6561712523
 20
12.7817984746
 11
16.6755365582
 21
12.8444646273
  0
CIRCLE
  5
2A0
100
AcDbEntity
  8
LAYER_FEATURE
100
AcDbCircle
 62
7
  6
CONTINUOUS
 10
6.1303672762
 20
5.5201198968
 40
1.063
  0
CIRCLE
  5
2A1
100
AcDbEntity
  8
LAYER_FEATURE
100
AcDbCircle
 62
7
  6
CONTINUOUS
 10
6.1303672762
 20
5.5201198968
 40
0.95
  0
CIRCLE
  5
2A2
100
AcDbEntity
  8
LAYER_CUT_FEAT
100
AcDbCircle
 62
7
  6
CONTINUOUS
 10
6.1303672762
 20
5.5201198968
 40
0.625
  0
CIRCLE
  5
2A3
100
AcDbEntity
  8
02___PRT_ALL_AXES
100
AcDbCircle
 62
7
  6
CONTINUOUS
 10
6.1303672762
 20
5.5201198968
 40
0.563
  0
CIRCLE
  5
2A4
100
AcDbEntity
  8
LAYER_CHAMFER_FEAT
100
AcDbCircle
 62
7
  6
CONTINUOUS
 10
6.1303672762
 20
5.5201198968
 40
0.2875
  0
CIRCLE
  5
2A5
100
AcDbEntity
  8
LAYER_CHAMFER_FEAT
100
AcDbCircle
 62
7
  6
CONTINUOUS
 10
6.1303672762
 20
5.5201198968
 40
0.25
  0
CIRCLE
  5
2A6
100
AcDbEntity
  8
02___PRT_ALL_AXES
100
AcDbCircle
 62
7
  6
CONTINUOUS
 10
6.0708720839
 20
11.8200477814
 40
0.164
  0
CIRCLE
  5
2A7
100
AcDbEntity
  8
LAYER_FEATURE
100
AcDbCircle
 62
7
  6
CONTINUOUS
 10
6.0708720839
 20
11.8200477814
 40
0.1312
  0
CIRCLE
  5
2A8
100
AcDbEntity
  8
02___PRT_ALL_AXES
100
AcDbCircle
 62
7
  6
CONTINUOUS
 10
14.7803552569
 20
5.4606247044
 40
0.164
  0
CIRCLE
  5
2A9
100
AcDbEntity
  8
LAYER_FEATURE
100
AcDbCircle
 62
7
  6
CONTINUOUS
 10
14.7803552569
 20
5.4606247044
 40
0.1312
  0
ARC
  5
2AA
100
AcDbEntity
  8
LAYER_FEATURE
100
AcDbCircle
 62
7
  6
CONTINUOUS
 10
15.3277276298
 20
12.0786777107
 40
1.5353883537
100
AcDbArc
 50
67.2102782264
 51
69.342778869
  0
ARC
  5
2AB
100
AcDbEntity
  8
LAYER_FEATURE
100
AcDbCircle
 62
7
  6
CONTINUOUS
 10
15.3417352361
 20
12.1742822734
 40
1.4391217936
100
AcDbArc
 50
81.0872434637
 51
83.3171849155
  0
ARC
  5
2AC
100
AcDbEntity
  8
LAYER_FEATURE
100
AcDbCircle
 62
7
  6
CONTINUOUS
 10
15.523628346
 20
12.4164697356
 40
1.1438938483
100
AcDbArc
 50
51.9041783552
 51
54.500347838
  0
ARC
  5
2AD
100
AcDbEntity
  8
LAYER_FEATURE
100
AcDbCircle
 62
7
  6
CONTINUOUS
 10
15.3362015381
 20
12.6544543841
 40
0.9574343415
100
AcDbArc
 50
97.0939700387
 51
100.017170198
  0
ARC
  5
2AE
100
AcDbEntity
  8
LAYER_FEATURE
100
AcDbCircle
 62
7
  6
CONTINUOUS
 10
15.9003067457
 20
12.7790486765
 40
0.6184185387
100
AcDbArc
 50
30.6363983421
 51
34.5487045183
  0
ARC
  5
2AF
100
AcDbEntity
  8
LAYER_FEATURE
100
AcDbCircle
 62
7
  6
CONTINUOUS
 10
15.1844765706
 20
13.1019976163
 40
0.4816893338
100
AcDbArc
 50
120.1966195418
 51
124.8182282995
  0
ARC
  5
2B0
100
AcDbEntity
  8
02___PRT_ALL_AXES
100
AcDbCircle
 62
7
  6
CONTINUOUS
 10
15.4175002579
 20
11.747852863
 40
0.3669927625
100
AcDbArc
 50
340.5025774708
 51
340.6506433883
  0
ARC
  5
2B1
100
AcDbEntity
  8
LAYER_FEATURE
100
AcDbCircle
 62
7
  6
CONTINUOUS
 10
16.1752205818
 20
12.8816612702
 40
0.3216173116
100
AcDbArc
 50
357.0596591067
 51
3.1099818762
  0
ARC
  5
2B2
100
AcDbEntity
  8
LAYER_FEATURE
100
AcDbCircle
 62
7
  6
CONTINUOUS
 10
15.0547605799
 20
13.2337336957
 40
0.2945462434
100
AcDbArc
 50
156.2776214273
 51
162.6933270318
  0
ARC
  5
2B3
100
AcDbEntity
  8
LAYER_FEATURE
100
AcDbCircle
 62
7
  6
CONTINUOUS
 10
14.9216560791
 20
13.5351180378
 40
0.2003797658
100
AcDbArc
 50
243.3588148337
 51
251.8252684621
  0
ARC
  5
2B4
100
AcDbEntity
  8
LAYER_FEATURE
100
AcDbCircle
 62
7
  6
CONTINUOUS
 10
15.1312877734
 20
12.1083028088
 40
0.0860179988
100
AcDbArc
 50
29.6243616965
 51
33.5860356114
  0
ARC
  5
2B5
100
AcDbEntity
  8
LAYER_FEATURE
100
AcDbCircle
 62
7
  6
CONTINUOUS
 10
14.9912137215
 20
12.0395705405
 40
0.0859562045
100
AcDbArc
 50
198.6474426148
 51
202.0599399587
  0
SPLINE
  5
2B6
100
AcDbEntity
  8
02___PRT_ALL_AXES
100
AcDbSpline
 62
7
  6
CONTINUOUS
 70
0
 71
3
 72
31
 73
27
 74
0
 42
0.0000001
 43
0.0000001
 44
0.0000000001
 40
0.0
 40
0.0
 40
0.0
 40
0.0
 40
0.0099556381
 40
0.0392468691
 40
0.0863039299
 40
0.1489128759
 40
0.1852616903
 40
0.2245234789
 40
0.2663437767
 40
0.3103501307
 40
0.356148487
 40
0.4033205529
 40
0.4514246275
 40
0.5000000007
 40
0.5485753738
 40
0.5966794484
 40
0.6438515143
 40
0.6896498706
 40
0.7336562244
 40
0.7754765222
 40
0.8147383107
 40
0.8510871249
 40
0.9136960707
 40
0.9607531314
 40
0.9900443621
 40
1.0
 40
1.0
 40
1.0
 40
1.0
 10
6.6338720839
 20
11.6560477814
 30
0.0
 10
6.6335632713
 20
11.6571079111
 30
0.0
 10
6.6323558333
 20
11.6612900422
 30
0.0
 10
6.6297878819
 20
11.6705115928
 30
0.0
 10
6.6259347315
 20
11.6854355079
 30
0.0
 10
6.6223305648
 20
11.7012274824
 30
0.0
 10
6.6193206125
 20
11.716260101
 30
0.0
 10
6.6170315993
 20
11.7290829158
 30
0.0
 10
6.6149086428
 20
11.7427946085
 30
0.0
 10
6.6130353875
 20
11.7572742889
 30
0.0
 10
6.6114881982
 20
11.7723895072
 30
0.0
 10
6.6103321208
 20
11.7879956686
 30
0.0
 10
6.60961735
 20
11.8039367558
 30
0.0
 10
6.6093754412
 20
11.8200477816
 30
0.0
 10
6.60961735
 20
11.8361588074
 30
0.0
 10
6.6103321209
 20
11.8520998946
 30
0.0
 10
6.6114881982
 20
11.867706056
 30
0.0
 10
6.6130353875
 20
11.8828212742
 30
0.0
 10
6.6149086428
 20
11.8973009546
 30
0.0
 10
6.6170315993
 20
11.9110126473
 30
0.0
 10
6.6193206126
 20
11.9238354621
 30
0.0
 10
6.6223305649
 20
11.9388680806
 30
0.0
 10
6.6259347315
 20
11.954660055
 30
0.0
 10
6.6297878819
 20
11.9695839701
 30
0.0
 10
6.6323558333
 20
11.9788055206
 30
0.0
 10
6.6335632713
 20
11.9829876516
 30
0.0
 10
6.6338720839
 20
11.9840477814
 30
0.0
  0
SPLINE
  5
2B7
100
AcDbEntity
  8
02___PRT_ALL_AXES
100
AcDbSpline
 62
7
  6
CONTINUOUS
 70
0
 71
3
 72
31
 73
27
 74
0
 42
0.0000001
 43
0.0000001
 44
0.0000000001
 40
0.0
 40
0.0
 40
0.0
 40
0.0
 40
0.0099556421
 40
0.0392468698
 40
0.0863039293
 40
0.1489128864
 40
0.1852616873
 40
0.2245235091
 40
0.2663437897
 40
0.3103501732
 40
0.3561485087
 40
0.4033205801
 40
0.4514246381
 40
0.5000000004
 40
0.5485753625
 40
0.5966794205
 40
0.6438514919
 40
0.6896498274
 40
0.7336562108
 40
0.7754764914
 40
0.8147383131
 40
0.8510871139
 40
0.913696071
 40
0.9607531304
 40
0.990044358
 40
1.0
 40
1.0
 40
1.0
 40
1.0
 10
14.9443552569
 20
6.0236247044
 30
0.0
 10
14.9432951269
 20
6.0233158912
 30
0.0
 10
14.9391129962
 20
6.0221084515
 30
0.0
 10
14.9298914457
 20
6.0195405
 30
0.0
 10
14.9149675299
 20
6.0156873492
 30
0.0
 10
14.8991755548
 20
6.0120831874
 30
0.0
 10
14.884142934
 20
6.0090732284
 30
0.0
 10
14.8713201171
 20
6.0067842261
 30
0.0
 10
14.8576084219
 20
6.0046612516
 30
0.0
 10
14.8431287396
 20
6.002788018
 30
0.0
 10
14.828013522
 20
6.0012408069
 30
0.0
 10
14.8124073626
 20
6.000084749
 30
0.0
 10
14.7964662785
 20
5.9993699646
 30
0.0
 10
14.7803552568
 20
5.9991280648
 30
0.0
 10
14.7642442351
 20
5.9993699646
 30
0.0
 10
14.7483031511
 20
6.000084749
 30
0.0
 10
14.7326969916
 20
6.0012408069
 30
0.0
 10
14.717581774
 20
6.002788018
 30
0.0
 10
14.7031020918
 20
6.0046612516
 30
0.0
 10
14.6893903967
 20
6.0067842261
 30
0.0
 10
14.6765675797
 20
6.0090732285
 30
0.0
 10
14.661534959
 20
6.0120831874
 30
0.0
 10
14.6457429839
 20
6.0156873493
 30
0.0
 10
14.6308190681
 20
6.0195405
 30
0.0
 10
14.6215975176
 20
6.0221084515
 30
0.0
 10
14.617415387
 20
6.0233158912
 30
0.0
 10
14.6163552569
 20
6.0236247044
 30
0.0
  0
SPLINE
  5
2B8
100
AcDbEntity
  8
02___PRT_ALL_AXES
100
AcDbSpline
 62
7
  6
CONTINUOUS
 70
0
 71
3
 72
55
 73
51
 74
0
 42
0.0000001
 43
0.0000001
 44
0.0000000001
 40
0.0
 40
0.0
 40
0.0
 40
0.0
 40
0.0135238026
 40
0.0275619465
 40
0.0420924191
 40
0.0570944172
 40
0.0725452897
 40
0.0884209649
 40
0.1046965951
 40
0.1213467401
 40
0.1383453427
 40
0.155665991
 40
0.1911662464
 40
0.227634946
 40
0.2648609792
 40
0.302637868
 40
0.3407653364
 40
0.3790502119
 40
0.4173067927
 40
0.4553570629
 40
0.4930309371
 40
0.530166838
 40
0.5666127583
 40
0.5845338788
 40
0.6022308081
 40
0.6196880875
 40
0.636891239
 40
0.67047902
 40
0.7029051873
 40
0.7340988587
 40
0.7492204251
 40
0.7640181611
 40
0.7784899701
 40
0.7926353937
 40
0.8199460499
 40
0.83312493
 40
0.8459909383
 40
0.8708062726
 40
0.8827826341
 40
0.8944836847
 40
0.9059224848
 40
0.9171136564
 40
0.9280733211
 40
0.9388191968
 40
0.9493705987
 40
0.9597484624
 40
0.9699753806
 40
0.9800755263
 40
0.9900746657
 40
1.0
 40
1.0
 40
1.0
 40
1.0
 10
15.7018529496
 20
11.6159418982
 30
0.0
 10
15.7011926366
 20
11.6172874745
 30
0.0
 10
15.6998720295
 20
11.620042196
 30
0.0
 10
15.6979256464
 20
11.6242821376
 30
0.0
 10
15.6959795904
 20
11.6287018505
 30
0.0
 10
15.6940377459
 20
11.6332938899
 30
0.0
 10
15.6921041613
 20
11.6380507404
 30
0.0
 10
15.6901831252
 20
11.6429645459
 30
0.0
 10
15.6882791481
 20
11.6480272413
 30
0.0
 10
15.6863968868
 20
11.653230593
 30
0.0
 10
15.6845411545
 20
11.6585662536
 30
0.0
 10
15.682088785
 20
11.6659057379
 30
0.0
 10
15.6791252413
 20
11.675348791
 30
0.0
 10
15.6757842163
 20
11.6869819658
 30
0.0
 10
15.672672637
 20
11.6989396752
 30
0.0
 10
15.669833855
 20
11.7111540443
 30
0.0
 10
15.6673113824
 20
11.723557637
 30
0.0
 10
15.6651484121
 20
11.7360831726
 30
0.0
 10
15.6633872736
 20
11.7486631942
 30
0.0
 10
15.6620687592
 20
11.7612295775
 30
0.0
 10
15.66123128
 20
11.7737131972
 30
0.0
 10
15.6609098652
 20
11.7860432521
 30
0.0
 10
15.6610984275
 20
11.7961869969
 30
0.0
 10
15.6615404999
 20
11.8041624302
 30
0.0
 10
15.6620157071
 20
11.8100262946
 30
0.0
 10
15.66263836
 20
11.815796402
 30
0.0
 10
15.6636586332
 20
11.8232920909
 30
0.0
 10
15.6652964691
 20
11.8323747715
 30
0.0
 10
15.6678736688
 20
11.8428431807
 30
0.0
 10
15.6705362832
 20
11.8511627366
 30
0.0
 10
15.6729599436
 20
11.8574890097
 30
0.0
 10
15.6748961742
 20
11.8620133035
 30
0.0
 10
15.6769655329
 20
11.8663589477
 30
0.0
 10
15.6798612632
 20
11.8718409492
 30
0.0
 10
15.6830307842
 20
11.87701176
 30
0.0
 10
15.6864693213
 20
11.8818252029
 30
0.0
 10
15.6899637172
 20
11.8862503453
 30
0.0
 10
15.6936918826
 20
11.890314824
 30
0.0
 10
15.6976354491
 20
11.8939695541
 30
0.0
 10
15.7006336106
 20
11.8964545604
 30
0.0
 10
15.7036989606
 20
11.898712323
 30
0.0
 10
15.7068236012
 20
11.9007402581
 30
0.0
 10
15.7099994792
 20
11.9025358376
 30
0.0
 10
15.7132184333
 20
11.9040969284
 30
0.0
 10
15.7164722624
 20
11.9054215945
 30
0.0
 10
15.719752722
 20
11.9065081467
 30
0.0
 10
15.7230515002
 20
11.9073551731
 30
0.0
 10
15.7263603711
 20
11.9079614121
 30
0.0
 10
15.7296707773
 20
11.9083259363
 30
0.0
 10
15.7318798671
 20
11.9084075046
 30
0.0
 10
15.7329799063
 20
11.9084075078
 30
0.0
  0
SPLINE
  5
2B9
100
AcDbEntity
  8
02___PRT_ALL_AXES
100
AcDbSpline
 62
7
  6
CONTINUOUS
 70
0
 71
3
 72
28
 73
24
 74
0
 42
0.0000001
 43
0.0000001
 44
0.0000000001
 40
0.0
 40
0.0
 40
0.0
 40
0.0
 40
0.0773517993
 40
0.1528029046
 40
0.2261996968
 40
0.297421568
 40
0.3663852818
 40
0.433049897
 40
0.4974205443
 40
0.5595520423
 40
0.6195516253
 40
0.677580838
 40
0.7338561132
 40
0.7614247915
 40
0.7886604482
 40
0.8156045757
 40
0.8423012077
 40
0.8687968324
 40
0.8951398474
 40
0.9213802819
 40
0.9475692768
 40
0.9737585453
 40
1.0
 40
1.0
 40
1.0
 40
1.0
 10
15.011557039
 20
11.9659083103
 30
0.0
 10
15.008509133
 20
11.9659083103
 30
0.0
 10
15.0024874147
 20
11.9660273274
 30
0.0
 10
14.9935887532
 20
11.9665769944
 30
0.0
 10
14.9849629564
 20
11.967494815
 30
0.0
 10
14.9766423718
 20
11.9687793
 30
0.0
 10
14.9686566107
 20
11.9704284741
 30
0.0
 10
14.9610327374
 20
11.9724399646
 30
0.0
 10
14.9537951592
 20
11.9748111264
 30
0.0
 10
14.946965775
 20
11.9775390994
 30
0.0
 10
14.9405640193
 20
11.9806209878
 30
0.0
 10
14.9346075676
 20
11.9840534594
 30
0.0
 10
14.9299958918
 20
11.9872254708
 30
0.0
 10
14.9265554019
 20
11.9899329413
 30
0.0
 10
14.9241127957
 20
11.9920344923
 30
0.0
 10
14.9217920487
 20
11.9942200544
 30
0.0
 10
14.91959446
 20
11.9964890636
 30
0.0
 10
14.9175212659
 20
11.9988408233
 30
0.0
 10
14.9155736642
 20
12.0012746568
 30
0.0
 10
14.9137527122
 20
12.0037897596
 30
0.0
 10
14.9120594575
 20
12.0063853542
 30
0.0
 10
14.9104948357
 20
12.0090604228
 30
0.0
 10
14.9095395883
 20
12.0108933398
 30
0.0
 10
14.9090840693
 20
12.0118215914
 30
0.0
  0
SPLINE
  5
2BA
100
AcDbEntity
  8
LAYER_CUT_FEAT
100
AcDbSpline
 62
7
  6
CONTINUOUS
 70
0
 71
3
 72
21
 73
17
 74
0
 42
0.0000001
 43
0.0000001
 44
0.0000000001
 40
0.0
 40
0.0
 40
0.0
 40
0.0
 40
0.1362814767
 40
0.2683662493
 40
0.3329641547
 40
0.396663428
 40
0.4595251683
 40
0.5216155793
 40
0.5830058687
 40
0.6437719795
 40
0.7039941499
 40
0.7637565946
 40
0.8231469278
 40
0.8822555919
 40
0.9411752404
 40
1.0
 40
1.0
 40
1.0
 40
1.0
 10
14.6985182583
 20
11.9540963649
 30
0.0
 10
14.6954963024
 20
11.9612426378
 30
0.0
 10
14.690032614
 20
11.9755277904
 30
0.0
 10
14.6846077465
 20
11.9937129678
 30
0.0
 10
14.6812362215
 20
12.0081525938
 30
0.0
 10
14.6791999422
 20
12.0188470376
 30
0.0
 10
14.677639236
 20
12.0294769028
 30
0.0
 10
14.6765553932
 20
12.0400339383
 30
0.0
 10
14.6759493817
 20
12.0505097501
 30
0.0
 10
14.6758217106
 20
12.0608960395
 30
0.0
 10
14.6761726147
 20
12.0711845517
 30
0.0
 10
14.6770018421
 20
12.081367102
 30
0.0
 10
14.6783087921
 20
12.0914355504
 30
0.0
 10
14.6800925285
 20
12.1013819319
 30
0.0
 10
14.6823515083
 20
12.1111980034
 30
0.0
 10
14.6841739074
 20
12.1176524188
 30
0.0
 10
14.6851627133
 20
12.1208522099
 30
0.0
  0
SPLINE
  5
2BB
100
AcDbEntity
  8
LAYER_CHAMFER_FEAT
100
AcDbSpline
 62
7
  6
CONTINUOUS
 70
0
 71
3
 72
24
 73
20
 74
0
 42
0.0000001
 43
0.0000001
 44
0.0000000001
 40
0.0
 40
0.0
 40
0.0
 40
0.0
 40
0.0739320632
 40
0.1460696261
 40
0.2164172958
 40
0.2849941458
 40
0.3518348008
 40
0.4169905501
 40
0.4805300664
 40
0.5425401285
 40
0.6031262803
 40
0.6624129241
 40
0.7205429676
 40
0.7776770877
 40
0.8339923263
 40
0.8896798659
 40
0.9449422446
 40
0.9724845781
 40
1.0
 40
1.0
 40
1.0
 40
1.0
 10
15.0171642769
 20
11.7263782828
 30
0.0
 10
15.0144861399
 20
11.7255557108
 30
0.0
 10
15.0092272309
 20
11.7238224927
 30
0.0
 10
15.001554321
 20
11.7209198516
 30
0.0
 10
14.9942073756
 20
11.717751485
 30
0.0
 10
14.9872005677
 20
11.7143233439
 30
0.0
 10
14.9805472299
 20
11.7106417858
 30
0.0
 10
14.9742600825
 20
11.7067136881
 30
0.0
 10
14.9683511789
 20
11.7025463577
 30
0.0
 10
14.9628319235
 20
11.6981475279
 30
0.0
 10
14.957713007
 20
11.6935254124
 30
0.0
 10
14.953004409
 20
11.6886886755
 30
0.0
 10
14.9487154101
 20
11.6836464015
 30
0.0
 10
14.9448545497
 20
11.6784081608
 30
0.0
 10
14.9414295195
 20
11.672983924
 30
0.0
 10
14.9384472962
 20
11.6673844112
 30
0.0
 10
14.9363335046
 20
11.6625748205
 30
0.0
 10
14.9348725012
 20
11.6586570675
 30
0.0
 10
14.9342183711
 20
11.6566752176
 30
0.0
 10
14.9339105227
 20
11.6556790177
 30
0.0
  0
SPLINE
  5
2BC
100
AcDbEntity
  8
LAYER_CHAMFER_FEAT
100
AcDbSpline
 62
7
  6
CONTINUOUS
 70
0
 71
3
 72
24
 73
20
 74
0
 42
0.0000001
 43
0.0000001
 44
0.0000000001
 40
0.0
 40
0.0
 40
0.0
 40
0.0
 40
0.0739039979
 40
0.1460164649
 40
0.2163424347
 40
0.2849013674
 40
0.3517281605
 40
0.4168743012
 40
0.4804086215
 40
0.5424179503
 40
0.6030077313
 40
0.6623022031
 40
0.7204439949
 40
0.7775933511
 40
0.8339267799
 40
0.8896348384
 40
0.9449193427
 40
0.9724730746
 40
1.0
 40
1.0
 40
1.0
 40
1.0
 10
15.3829483867
 20
11.6131720011
 30
0.0
 10
15.3846873692
 20
11.6109858629
 30
0.0
 10
15.3880357119
 20
11.606596003
 30
0.0
 10
15.3927105665
 20
11.5998835868
 30
0.0
 10
15.3969678911
 20
11.5931362035
 30
0.0
 10
15.4007994244
 20
11.5863666861
 30
0.0
 10
15.4041978067
 20
11.5795877217
 30
0.0
 10
15.4071564711
 20
11.5728120822
 30
0.0
 10
15.4096696523
 20
11.5660525234
 30
0.0
 10
15.4117323527
 20
11.559321784
 30
0.0
 10
15.4133404043
 20
11.5526325903
 30
0.0
 10
15.4144904993
 20
11.5459976481
 30
0.0
 10
15.4151801403
 20
11.5394296122
 30
0.0
 10
15.4154076846
 20
11.5329411181
 30
0.0
 10
15.4151724205
 20
11.5265446573
 30
0.0
 10
15.4144746492
 20
11.5202529335
 30
0.0
 10
15.4135073349
 20
11.5151006878
 30
0.0
 10
15.4125049846
 20
11.5110505008
 30
0.0
 10
15.4119281213
 20
11.5090494204
 30
0.0
 10
15.4116209271
 20
11.5080553375
 30
0.0
  0
SPLINE
  5
2BD
100
AcDbEntity
  8
LAYER_FEATURE
100
AcDbSpline
 62
7
  6
CONTINUOUS
 70
0
 71
3
 72
39
 73
35
 74
0
 42
0.0000001
 43
0.0000001
 44
0.0000000001
 40
0.0
 40
0.0
 40
0.0
 40
0.0
 40
0.0202790493
 40
0.0417769542
 40
0.0645047555
 40
0.0884573794
 40
0.1136160217
 40
0.1399501485
 40
0.1674191574
 40
0.1959737122
 40
0.2255568458
 40
0.256104869
 40
0.2875482259
 40
0.3198122328
 40
0.3528177176
 40
0.3864815954
 40
0.4207174025
 40
0.455435848
 40
0.4905453075
 40
0.5259522915
 40
0.561561898
 40
0.5972782766
 40
0.6330050904
 40
0.6686459552
 40
0.704104877
 40
0.7392867093
 40
0.7740976156
 40
0.8084455385
 40
0.8422406233
 40
0.8753957499
 40
0.9078271957
 40
0.9394542625
 40
0.9702029825
 40
1.0
 40
1.0
 40
1.0
 40
1.0
 10
15.7631530442
 20
11.8633043812
 30
0.0
 10
15.7640500291
 20
11.8622297559
 30
0.0
 10
15.7658159951
 20
11.859946647
 30
0.0
 10
15.7683105302
 20
11.8562555034
 30
0.0
 10
15.7707198693
 20
11.8522101988
 30
0.0
 10
15.7730364256
 20
11.8478235931
 30
0.0
 10
15.7752530803
 20
11.8431093227
 30
0.0
 10
15.777362888
 20
11.8380821966
 30
0.0
 10
15.7793592135
 20
11.8327580174
 30
0.0
 10
15.7812357439
 20
11.8271535665
 30
0.0
 10
15.782986524
 20
11.8212865395
 30
0.0
 10
15.7846059955
 20
11.8151754945
 30
0.0
 10
15.7860890087
 20
11.8088397836
 30
0.0
 10
15.7874308408
 20
11.802299485
 30
0.0
 10
15.7886272129
 20
11.7955753371
 30
0.0
 10
15.7896743059
 20
11.7886886738
 30
0.0
 10
15.7905687856
 20
11.7816613562
 30
0.0
 10
15.7913078003
 20
11.7745156977
 30
0.0
 10
15.7918889922
 20
11.7672743913
 30
0.0
 10
15.7923105029
 20
11.7599604368
 30
0.0
 10
15.7925709851
 20
11.7525970692
 30
0.0
 10
15.7926696128
 20
11.7452076827
 30
0.0
 10
15.7926060724
 20
11.7378157539
 30
0.0
 10
15.7923805662
 20
11.7304447678
 30
0.0
 10
15.7919938087
 20
11.7231181426
 30
0.0
 10
15.7914470344
 20
11.7158591545
 30
0.0
 10
15.7907419929
 20
11.70869086
 30
0.0
 10
15.7898809335
 20
11.7016360252
 30
0.0
 10
15.7888666026
 20
11.6947170529
 30
0.0
 10
15.787702231
 20
11.6879558975
 30
0.0
 10
15.7863915293
 20
11.6813740564
 30
0.0
 10
15.7849386868
 20
11.6749922857
 30
0.0
 10
15.7833483245
 20
11.6688310176
 30
0.0
 10
15.7821805771
 20
11.6648173698
 30
0.0
 10
15.7815733195
 20
11.6628522835
 30
0.0
  0
SPLINE
  5
2BE
100
AcDbEntity
  8
LAYER_FEATURE
100
AcDbSpline
 62
7
  6
CONTINUOUS
 70
0
 71
3
 72
19
 73
15
 74
0
 42
0.0000001
 43
0.0000001
 44
0.0000000001
 40
0.0
 40
0.0
 40
0.0
 40
0.0
 40
0.0507389265
 40
0.1030521665
 40
0.1569557957
 40
0.2124597134
 40
0.2695679898
 40
0.3282785733
 40
0.3885852329
 40
0.4504764928
 40
0.5789394154
 40
0.7135033147
 40
0.8539513379
 40
1.0
 40
1.0
 40
1.0
 40
1.0
 10
15.7631530437
 20
11.6255106443
 30
0.0
 10
15.7636070613
 20
11.6260545799
 30
0.0
 10
15.7645084185
 20
11.6271768116
 30
0.0
 10
15.765820587
 20
11.628932836
 30
0.0
 10
15.7671123787
 20
11.6307856208
 30
0.0
 10
15.7683826921
 20
11.632733595
 30
0.0
 10
15.7696304652
 20
11.6347751507
 30
0.0
 10
15.7708546938
 20
11.6369085608
 30
0.0
 10
15.7720543299
 20
11.6391320739
 30
0.0
 10
15.7736394133
 20
11.6422531642
 30
0.0
 10
15.7755484968
 20
11.6463710022
 30
0.0
 10
15.777698189
 20
11.6515805346
 30
0.0
 10
15.7797270346
 20
11.657100527
 30
0.0
 10
15.7809711853
 20
11.6609037764
 30
0.0
 10
15.7815733195
 20
11.6628522835
 30
0.0
  0
SPLINE
  5
2BF
100
AcDbEntity
  8
02___PRT_ALL_AXES
100
AcDbSpline
 62
7
  6
CONTINUOUS
 70
0
 71
3
 72
32
 73
28
 74
0
 42
0.0000001
 43
0.0000001
 44
0.0000000001
 40
0.0
 40
0.0
 40
0.0
 40
0.0
 40
0.0179475296
 40
0.0361183246
 40
0.0546288506
 40
0.0735892548
 40
0.1132382017
 40
0.1341248858
 40
0.1558153049
 40
0.178374755
 40
0.2018601491
 40
0.2263212415
 40
0.2518001907
 40
0.2783325922
 40
0.3059490405
 40
0.3346745863
 40
0.3645292329
 40
0.3955296454
 40
0.4276885287
 40
0.4610145321
 40
0.4955140552
 40
0.5680416411
 40
0.6452717069
 40
0.7271642044
 40
0.8136503754
 40
0.9046400431
 40
1.0
 40
1.0
 40
1.0
 40
1.0
 10
15.7329799061
 20
11.5804075149
 30
0.0
 10
15.7326864953
 20
11.5804075131
 30
0.0
 10
15.732095754
 20
11.5804316472
 30
0.0
 10
15.731208318
 20
11.5805394307
 30
0.0
 10
15.7303156135
 20
11.5807188733
 30
0.0
 10
15.729100461
 20
11.5810584636
 30
0.0
 10
15.7278891138
 20
11.5815416033
 30
0.0
 10
15.7266902534
 20
11.582150678
 30
0.0
 10
15.725769284
 20
11.5826864367
 30
0.0
 10
15.7248422518
 20
11.5832929288
 30
0.0
 10
15.7239089034
 20
11.5839699953
 30
0.0
 10
15.7229691604
 20
11.5847174247
 30
0.0
 10
15.7220229198
 20
11.58553498
 30
0.0
 10
15.7210701162
 20
11.5864223951
 30
0.0
 10
15.7201107172
 20
11.5873793883
 30
0.0
 10
15.7191447137
 20
11.5884056364
 30
0.0
 10
15.7181721228
 20
11.5895007801
 30
0.0
 10
15.7171929954
 20
11.5906644334
 30
0.0
 10
15.7162074108
 20
11.5918961682
 30
0.0
 10
15.7152154642
 20
11.593195515
 30
0.0
 10
15.7138619479
 20
11.5950484886
 30
0.0
 10
15.7121581747
 20
11.5975335548
 30
0.0
 10
15.7101237569
 20
11.6007284982
 30
0.0
 10
15.7080688291
 20
11.6041787131
 30
0.0
 10
15.7059958787
 20
11.6078781824
 30
0.0
 10
15.703907976
 20
11.6118201301
 30
0.0
 10
15.702539742
 20
11.6145423623
 30
0.0
 10
15.7018529496
 20
11.6159418982
 30
0.0
  0
SPLINE
  5
2C0
100
AcDbEntity
  8
LAYER_FEATURE
100
AcDbSpline
 62
7
  6
CONTINUOUS
 70
0
 71
3
 72
46
 73
42
 74
0
 42
0.0000001
 43
0.0000001
 44
0.0000000001
 40
0.0
 40
0.0
 40
0.0
 40
0.0
 40
0.0124329538
 40
0.024872967
 40
0.0373270804
 40
0.0498022928
 40
0.0623055482
 40
0.0748437082
 40
0.0874235431
 40
0.1000517085
 40
0.112734728
 40
0.1254789883
 40
0.1382907061
 40
0.1511759372
 40
0.1771879116
 40
0.2035618537
 40
0.2303389473
 40
0.2575568003
 40
0.2852493219
 40
0.3134466618
 40
0.3277438972
 40
0.3421769091
 40
0.3714593199
 40
0.401314609
 40
0.4317582503
 40
0.462802307
 40
0.4944555736
 40
0.5267237249
 40
0.559609465
 40
0.5931126862
 40
0.6272306258
 40
0.6619580175
 40
0.6972872373
 40
0.7332084424
 40
0.7697097045
 40
0.8067771455
 40
0.844395062
 40
0.8825460441
 40
0.9212110875
 40
0.9603696982
 40
1.0
 40
1.0
 40
1.0
 40
1.0
 10
14.2666883851
 20
12.2501705581
 30
0.0
 10
14.2656912911
 20
12.2469439537
 30
0.0
 10
14.2637902735
 20
12.2404595151
 30
0.0
 10
14.261221493
 20
12.2306497857
 30
0.0
 10
14.2589357843
 20
12.2207583963
 30
0.0
 10
14.2569337725
 20
12.2107882179
 30
0.0
 10
14.255216067
 20
12.2007419861
 30
0.0
 10
14.2537830783
 20
12.1906225179
 30
0.0
 10
14.2526352426
 20
12.1804326208
 30
0.0
 10
14.2517728637
 20
12.1701751361
 30
0.0
 10
14.2511961462
 20
12.1598529118
 30
0.0
 10
14.250905297
 20
12.1494688414
 30
0.0
 10
14.2509003332
 20
12.1390257234
 30
0.0
 10
14.2512760613
 20
12.124983658
 30
0.0
 10
14.2524679388
 20
12.1072850316
 30
0.0
 10
14.2550365116
 20
12.085926617
 30
0.0
 10
14.2587446522
 20
12.0644039655
 30
0.0
 10
14.2635879403
 20
12.04274135
 30
0.0
 10
14.2695606084
 20
12.0209628971
 30
0.0
 10
14.2754459676
 20
12.0028218082
 30
0.0
 10
14.2807026471
 20
11.9882784332
 30
0.0
 10
14.286380934
 20
11.973577949
 30
0.0
 10
14.2941804743
 20
11.9551719161
 30
0.0
 10
14.3045898326
 20
11.9331708275
 30
0.0
 10
14.3160822105
 20
11.9111743888
 30
0.0
 10
14.3286446452
 20
11.8892071014
 30
0.0
 10
14.3422631649
 20
11.8672930818
 30
0.0
 10
14.3569226152
 20
11.8454564926
 30
0.0
 10
14.3726067119
 20
11.8237213873
 30
0.0
 10
14.3892980476
 20
11.8021117226
 30
0.0
 10
14.4069781176
 20
11.7806513254
 30
0.0
 10
14.4256273352
 20
11.7593638682
 30
0.0
 10
14.4452250514
 20
11.7382728437
 30
0.0
 10
14.4657495708
 20
11.7174015369
 30
0.0
 10
14.4871781694
 20
11.6967729931
 30
0.0
 10
14.5094871272
 20
11.6764100005
 30
0.0
 10
14.5326517574
 20
11.6563350585
 30
0.0
 10
14.5566464134
 20
11.6365703663
 30
0.0
 10
14.5814445888
 20
11.6171377484
 30
0.0
 10
14.6070186605
 20
11.5980588139
 30
0.0
 10
14.6244658419
 20
11.5856608677
 30
0.0
 10
14.6333103173
 20
11.5795244908
 30
0.0
  0
SPLINE
  5
2C1
100
AcDbEntity
  8
LAYER_FEATURE
100
AcDbSpline
 62
7
  6
CONTINUOUS
 70
0
 71
3
 72
33
 73
29
 74
0
 42
0.0000001
 43
0.0000001
 44
0.0000000001
 40
0.0
 40
0.0
 40
0.0
 40
0.0
 40
0.0285155898
 40
0.057049693
 40
0.0856207652
 40
0.1142471402
 40
0.1429469827
 40
0.1717382148
 40
0.2006384883
 40
0.2296651012
 40
0.2588349849
 40
0.2881646298
 40
0.3176700622
 40
0.3473668095
 40
0.3772698433
 40
0.4073935973
 40
0.4377518781
 40
0.4683579191
 40
0.530357587
 40
0.5617798224
 40
0.5934962633
 40
0.6578462399
 40
0.7234844705
 40
0.7568084296
 40
0.7904765991
 40
0.8588652534
 40
0.9286958559
 40
1.0
 40
1.0
 40
1.0
 40
1.0
 10
14.6249465438
 20
13.4094943844
 30
0.0
 10
14.6238802887
 20
13.4060439744
 30
0.0
 10
14.6218542757
 20
13.3991072634
 30
0.0
 10
14.619138704
 20
13.3886075097
 30
0.0
 10
14.6167469481
 20
13.3780148054
 30
0.0
 10
14.6146797889
 20
13.3673326608
 30
0.0
 10
14.6129379147
 20
13.3565644376
 30
0.0
 10
14.6115218092
 20
13.3457135862
 30
0.0
 10
14.6104319916
 20
13.3347835513
 30
0.0
 10
14.6096687241
 20
13.3237778214
 30
0.0
 10
14.6092322989
 20
13.312699895
 30
0.0
 10
14.6091228067
 20
13.3015532993
 30
0.0
 10
14.609340277
 20
13.2903415769
 30
0.0
 10
14.6098846496
 20
13.2790682963
 30
0.0
 10
14.6107556913
 20
13.2677370254
 30
0.0
 10
14.6119531705
 20
13.2563514035
 30
0.0
 10
14.6134766502
 20
13.244914907
 30
0.0
 10
14.6159524247
 20
13.229538497
 30
0.0
 10
14.6190741157
 20
13.2141352509
 30
0.0
 10
14.6228191905
 20
13.1987344286
 30
0.0
 10
14.627031299
 20
13.183145885
 30
0.0
 10
14.6331136855
 20
13.1635814842
 30
0.0
 10
14.6401948615
 20
13.1441400321
 30
0.0
 10
14.646481978
 20
13.1285625229
 30
0.0
 10
14.6532560169
 20
13.1128105573
 30
0.0
 10
14.6625197352
 20
13.093102739
 30
0.0
 10
14.6748172197
 20
13.0695809462
 30
0.0
 10
14.6837373608
 20
13.0540851646
 30
0.0
 10
14.6883925142
 20
13.046347066
 30
0.0
  0
SPLINE
  5
2C2
100
AcDbEntity
  8
LAYER_FEATURE
100
AcDbSpline
 62
7
  6
CONTINUOUS
 70
0
 71
3
 72
48
 73
44
 74
0
 42
0.0000001
 43
0.0000001
 44
0.0000000001
 40
0.0
 40
0.0
 40
0.0
 40
0.0
 40
0.0124327943
 40
0.0248726489
 40
0.0373266033
 40
0.049801659
 40
0.0623047578
 40
0.074842763
 40
0.0874224462
 40
0.1000504592
 40
0.1127333326
 40
0.1254774457
 40
0.138289021
 40
0.1511741136
 40
0.1641385843
 40
0.1771881138
 40
0.2035617995
 40
0.2303386519
 40
0.2438911791
 40
0.2575582855
 40
0.2852506037
 40
0.313447757
 40
0.3277449002
 40
0.3421778327
 40
0.3714600857
 40
0.4013152358
 40
0.4317587565
 40
0.4628027078
 40
0.4944558805
 40
0.5267239463
 40
0.559609612
 40
0.5931127717
 40
0.627230659
 40
0.661958003
 40
0.6972871761
 40
0.7332083341
 40
0.7697095519
 40
0.8067769531
 40
0.8443948093
 40
0.8825457703
 40
0.9212106911
 40
0.9603691984
 40
1.0
 40
1.0
 40
1.0
 40
1.0
 10
16.2979130873
 20
11.6224746503
 30
0.0
 10
16.2969159643
 20
11.6192479522
 30
0.0
 10
16.2948271626
 20
11.6128213374
 30
0.0
 10
16.2914136017
 20
11.6032723584
 30
0.0
 10
16.2877202772
 20
11.5938156458
 30
0.0
 10
16.2837482022
 20
11.5844539589
 30
0.0
 10
16.2794985007
 20
11.575189866
 30
0.0
 10
16.2749723745
 20
11.5660259446
 30
0.0
 10
16.2701710454
 20
11.5569647635
 30
0.0
 10
16.2650959137
 20
11.54800881
 30
0.0
 10
16.2597483429
 20
11.5391606026
 30
0.0
 10
16.2541298627
 20
11.5304225795
 30
0.0
 10
16.2482420348
 20
11.5217971619
 30
0.0
 10
16.2420864916
 20
11.5132867774
 30
0.0
 10
16.235664942
 20
11.5048936934
 30
0.0
 10
16.2267196757
 20
11.4938242354
 30
0.0
 10
16.2148684345
 20
11.4802878642
 30
0.0
 10
16.2022486464
 20
11.4672748768
 30
0.0
 10
16.1916554108
 20
11.4571279796
 30
0.0
 10
16.1806354236
 20
11.4470733701
 30
0.0
 10
16.1662235213
 20
11.4348432341
 30
0.0
 10
16.1511289797
 20
11.4231852096
 30
0.0
 10
16.138583217
 20
11.4141428609
 30
0.0
 10
16.1256006875
 20
11.4052087202
 30
0.0
 10
16.1087759974
 20
11.3944117689
 30
0.0
 10
16.087768061
 20
11.3821189544
 30
0.0
 10
16.0658685005
 20
11.3704410283
 30
0.0
 10
16.0431018455
 20
11.3593909104
 30
0.0
 10
16.0194932441
 20
11.348980627
 30
0.0
 10
15.9950688448
 20
11.3392215747
 30
0.0
 10
15.9698556615
 20
11.3301244331
 30
0.0
 10
15.9438815815
 20
11.3216991687
 30
0.0
 10
15.9171753312
 20
11.3139550102
 30
0.0
 10
15.8897664435
 20
11.3069004504
 30
0.0
 10
15.8616852265
 20
11.3005432334
 30
0.0
 10
15.8329627318
 20
11.294890344
 30
0.0
 10
15.8036307215
 20
11.2899479997
 30
0.0
 10
15.7737216443
 20
11.2857216346
 30
0.0
 10
15.74326857
 20
11.2822158857
 30
0.0
 10
15.712305227
 20
11.2794346267
 30
0.0
 10
15.6808658062
 20
11.277380898
 30
0.0
 10
15.6489851527
 20
11.2760569647
 30
0.0
 10
15.6275841748
 20
11.2756641493
 30
0.0
 10
15.6168191096
 20
11.2755876136
 30
0.0
  0
SPLINE
  5
2C3
100
AcDbEntity
  8
LAYER_FEATURE
100
AcDbSpline
 62
7
  6
CONTINUOUS
 70
0
 71
3
 72
29
 73
25
 74
0
 42
0.0000001
 43
0.0000001
 44
0.0000000001
 40
0.0
 40
0.0
 40
0.0
 40
0.0
 40
0.0283968556
 40
0.0568131708
 40
0.0852683354
 40
0.1137816151
 40
0.1423720716
 40
0.1710585197
 40
0.1998594499
 40
0.2287929864
 40
0.2578768296
 40
0.2871282001
 40
0.3165638185
 40
0.3461998254
 40
0.4061285121
 40
0.4670376276
 40
0.5290334461
 40
0.5922111058
 40
0.6566543728
 40
0.7224356133
 40
0.7896159354
 40
0.8582454624
 40
0.9283637048
 40
1.0
 40
1.0
 40
1.0
 40
1.0
 10
16.6561712459
 20
12.7817984765
 30
0.0
 10
16.6550758155
 20
12.7782536548
 30
0.0
 10
16.6527707379
 20
12.7711960743
 30
0.0
 10
16.6489748891
 20
12.7607199382
 30
0.0
 10
16.6448415979
 20
12.7503557945
 30
0.0
 10
16.6403722277
 20
12.7401073018
 30
0.0
 10
16.6355683479
 20
12.729977835
 30
0.0
 10
16.6304315257
 20
12.7199708353
 30
0.0
 10
16.6249635371
 20
12.7100896386
 30
0.0
 10
16.6191662114
 20
12.7003375723
 30
0.0
 10
16.6130414994
 20
12.6907179032
 30
0.0
 10
16.6065915134
 20
12.6812338596
 30
0.0
 10
16.5998183112
 20
12.6718885632
 30
0.0
 10
16.5903251899
 20
12.6595726269
 30
0.0
 10
16.5776441285
 20
12.6445331979
 30
0.0
 10
16.5612305446
 20
12.6271603463
 30
0.0
 10
16.5435858093
 20
12.610416788
 30
0.0
 10
16.5247342791
 20
12.5943250932
 30
0.0
 10
16.5047014127
 20
12.5789063309
 30
0.0
 10
16.4835142679
 20
12.5641808048
 30
0.0
 10
16.4612013768
 20
12.550167863
 30
0.0
 10
16.4377925527
 20
12.5368858531
 30
0.0
 10
16.4133196471
 20
12.5243524396
 30
0.0
 10
16.3964972222
 20
12.516590157
 30
0.0
 10
16.3879240361
 20
12.5128345372
 30
0.0
  0
SPLINE
  5
2C4
100
AcDbEntity
  8
LAYER_CUT_FEAT
100
AcDbSpline
 62
7
  6
CONTINUOUS
 70
0
 71
3
 72
22
 73
18
 74
0
 42
0.0000001
 43
0.0000001
 44
0.0000000001
 40
0.0
 40
0.0
 40
0.0
 40
0.0
 40
0.0588306145
 40
0.1177559067
 40
0.1768698069
 40
0.2362647462
 40
0.296031001
 40
0.3562560005
 40
0.4170237717
 40
0.4784144617
 40
0.5405038222
 40
0.6033629805
 40
0.6670580779
 40
0.7316501001
 40
0.797194832
 40
0.8637426446
 40
1.0
 40
1.0
 40
1.0
 40
1.0
 10
15.8794387591
 20
11.7517929985
 30
0.0
 10
15.8784510993
 20
11.7485969159
 30
0.0
 10
15.8763170236
 20
11.7422469657
 30
0.0
 10
15.8726493334
 20
11.7328783967
 30
0.0
 10
15.8685167473
 20
11.7236699917
 30
0.0
 10
15.8639227446
 20
11.71462935
 30
0.0
 10
15.858870954
 20
11.7057635876
 30
0.0
 10
15.8533654707
 20
11.6970797375
 30
0.0
 10
15.8474107349
 20
11.6885846403
 30
0.0
 10
15.8410114902
 20
11.6802850199
 30
0.0
 10
15.8341729086
 20
11.6721873609
 30
0.0
 10
15.8269004292
 20
11.6642980415
 30
0.0
 10
15.8191998416
 20
11.6566232176
 30
0.0
 10
15.8110773572
 20
11.6491689094
 30
0.0
 10
15.802539131
 20
11.6419407904
 30
0.0
 10
15.7905168744
 20
11.6325397376
 30
0.0
 10
15.7810319285
 20
11.6259568707
 30
0.0
 10
15.7745172268
 20
11.6217631346
 30
0.0
  0
SPLINE
  5
2C5
100
AcDbEntity
  8
02___PRT_ALL_AXES
100
AcDbSpline
 62
7
  6
CONTINUOUS
 70
0
 71
3
 72
54
 73
50
 74
0
 42
0.0000001
 43
0.0000001
 44
0.0000000001
 40
0.0
 40
0.0
 40
0.0
 40
0.0
 40
0.0140398035
 40
0.0280477255
 40
0.042027271
 40
0.055982269
 40
0.0699168844
 40
0.0838356591
 40
0.0977435143
 40
0.1116457755
 40
0.1255481514
 40
0.1394567637
 40
0.153378098
 40
0.167319009
 40
0.1812866346
 40
0.1952884205
 40
0.2093319886
 40
0.2234251338
 40
0.2375756903
 40
0.2517915056
 40
0.2660803247
 40
0.280449705
 40
0.2949069583
 40
0.309459007
 40
0.3241124037
 40
0.3388731432
 40
0.3537467126
 40
0.3687379185
 40
0.3838509629
 40
0.399089298
 40
0.4299475678
 40
0.4613303115
 40
0.4772208156
 40
0.4932414783
 40
0.5256615312
 40
0.5585696899
 40
0.591929494
 40
0.6256928455
 40
0.6598003447
 40
0.6941817273
 40
0.7287563003
 40
0.763433641
 40
0.7981144632
 40
0.8326918789
 40
0.8670530387
 40
0.9010812098
 40
0.9346585094
 40
0.9676683551
 40
1.0
 40
1.0
 40
1.0
 40
1.0
 10
15.2035400429
 20
12.1563195952
 30
0.0
 10
15.2042036298
 20
12.1549673458
 30
0.0
 10
15.2054738549
 20
12.1522382914
 30
0.0
 10
15.207205782
 20
12.1480738345
 30
0.0
 10
15.208759231
 20
12.1438491539
 30
0.0
 10
15.2101312702
 20
12.1395703871
 30
0.0
 10
15.2113193216
 20
12.1352436666
 30
0.0
 10
15.2123208658
 20
12.1308751829
 30
0.0
 10
15.2131337025
 20
12.1264711996
 30
0.0
 10
15.21375578
 20
12.1220380106
 30
0.0
 10
15.2141853489
 20
12.1175819529
 30
0.0
 10
15.2144209251
 20
12.1131093799
 30
0.0
 10
15.2144612794
 20
12.1086266466
 30
0.0
 10
15.214305592
 20
12.1041400947
 30
0.0
 10
15.2139532305
 20
12.0996560321
 30
0.0
 10
15.2134041033
 20
12.0951806968
 30
0.0
 10
15.2126582615
 20
12.0907202639
 30
0.0
 10
15.2117163617
 20
12.0862807708
 30
0.0
 10
15.2105792222
 20
12.0818681585
 30
0.0
 10
15.2092482237
 20
12.0774881732
 30
0.0
 10
15.2077250031
 20
12.0731464077
 30
0.0
 10
15.2060116245
 20
12.0688482388
 30
0.0
 10
15.2041105341
 20
12.0645988092
 30
0.0
 10
15.2020244387
 20
12.0604030592
 30
0.0
 10
15.1997565201
 20
12.0562656064
 30
0.0
 10
15.1973100869
 20
12.0521908969
 30
0.0
 10
15.1946889372
 20
12.04818299
 30
0.0
 10
15.1918969443
 20
12.0442458033
 30
0.0
 10
15.1889383502
 20
12.040382809
 30
0.0
 10
15.1847601914
 20
12.0353148301
 30
0.0
 10
15.1791376273
 20
12.0291828474
 30
0.0
 10
15.1730719525
 20
12.0233884088
 30
0.0
 10
15.1679475845
 20
12.0189312876
 30
0.0
 10
15.1626041797
 20
12.01456121
 30
0.0
 10
15.1556055926
 20
12.0093377805
 30
0.0
 10
15.1467777213
 20
12.0034828926
 30
0.0
 10
15.1375312273
 20
11.9980256696
 30
0.0
 10
15.1279118514
 20
11.9929743426
 30
0.0
 10
15.1179660532
 20
11.9883358551
 30
0.0
 10
15.1077414573
 20
11.9841164588
 30
0.0
 10
15.0972868971
 20
11.9803218915
 30
0.0
 10
15.0866525541
 20
11.9769575489
 30
0.0
 10
15.0758899908
 20
11.9740285423
 30
0.0
 10
15.0650520988
 20
11.971539683
 30
0.0
 10
15.0541929021
 20
11.9694954071
 30
0.0
 10
15.0433672462
 20
11.9678996383
 30
0.0
 10
15.0326302339
 20
11.9667556753
 30
0.0
 10
15.0220370012
 20
11.9660659868
 30
0.0
 10
15.0150258205
 20
11.9659083103
 30
0.0
 10
15.011557039
 20
11.9659083103
 30
0.0
  0
SPLINE
  5
2C6
100
AcDbEntity
  8
LAYER_FEATURE
100
AcDbSpline
 62
7
  6
CONTINUOUS
 70
0
 71
3
 72
78
 73
74
 74
0
 42
0.0000001
 43
0.0000001
 44
0.0000000001
 40
0.0
 40
0.0
 40
0.0
 40
0.0
 40
0.0171786289
 40
0.0345302627
 40
0.0520440738
 40
0.0697096817
 40
0.087515905
 40
0.1054513899
 40
0.1235044662
 40
0.1416632022
 40
0.1599154427
 40
0.1782488293
 40
0.1966508312
 40
0.2151087722
 40
0.2336098599
 40
0.2521412119
 40
0.2706898829
 40
0.2892428916
 40
0.3077872476
 40
0.326309979
 40
0.3447981584
 40
0.3632389296
 40
0.3816195358
 40
0.3999273469
 40
0.4181498865
 40
0.4362748597
 40
0.454290181
 40
0.4721840057
 40
0.4899447577
 40
0.5075611589
 40
0.5250222598
 40
0.5423174722
 40
0.5594366031
 40
0.5763698869
 40
0.5931080191
 40
0.6096421926
 40
0.6259641369
 40
0.6420661586
 40
0.657941179
 40
0.6735827768
 40
0.6889852325
 40
0.7041435781
 40
0.719053645
 40
0.7337121123
 40
0.7481165595
 40
0.762265522
 40
0.7761585509
 40
0.7897962684
 40
0.8031804247
 40
0.816313957
 40
0.829201048
 40
0.841847184
 40
0.8542592029
 40
0.8603802803
 40
0.8664460367
 40
0.8784159533
 40
0.8901807754
 40
0.9017530966
 40
0.9131469692
 40
0.9243778745
 40
0.935462669
 40
0.9409563759
 40
0.9464204658
 40
0.9518573916
 40
0.9572696695
 40
0.9626598802
 40
0.9680306552
 40
0.9733846778
 40
0.978724673
 40
0.9840534015
 40
0.9893736548
 40
0.9946882449
 40
1.0
 40
1.0
 40
1.0
 40
1.0
 10
15.3356646965
 20
13.8190839795
 30
0.0
 10
15.346253732
 20
13.8190839795
 30
0.0
 10
15.3675391241
 20
13.8188509781
 30
0.0
 10
15.3996050332
 20
13.8178157093
 30
0.0
 10
15.4319421118
 20
13.8160938619
 30
0.0
 10
15.4645163333
 20
13.8136873085
 30
0.0
 10
15.4972939971
 20
13.8105985011
 30
0.0
 10
15.5302409185
 20
13.8068306731
 30
0.0
 10
15.5633228253
 20
13.802387749
 30
0.0
 10
15.5965052827
 20
13.7972743554
 30
0.0
 10
15.6297537519
 20
13.7914958155
 30
0.0
 10
15.6630336248
 20
13.785058138
 30
0.0
 10
15.6963102587
 20
13.7779680235
 30
0.0
 10
15.7295490154
 20
13.7702328589
 30
0.0
 10
15.7627152948
 20
13.7618606969
 30
0.0
 10
15.7957745713
 20
13.7528602517
 30
0.0
 10
15.8286924288
 20
13.7432408863
 30
0.0
 10
15.8614346004
 20
13.7330126163
 30
0.0
 10
15.8939670029
 20
13.7221860944
 30
0.0
 10
15.9262557708
 20
13.7107725914
 30
0.0
 10
15.9582672913
 20
13.6987839865
 30
0.0
 10
15.9899682383
 20
13.6862327535
 30
0.0
 10
16.0213256141
 20
13.6731319624
 30
0.0
 10
16.0523067793
 20
13.6594952534
 30
0.0
 10
16.0828794853
 20
13.6453368212
 30
0.0
 10
16.1130119074
 20
13.6306714
 30
0.0
 10
16.1426726789
 20
13.6155142489
 30
0.0
 10
16.1718309312
 20
13.5998811487
 30
0.0
 10
16.2004563186
 20
13.5837883706
 30
0.0
 10
16.2285190493
 20
13.5672526607
 30
0.0
 10
16.2559899152
 20
13.550291221
 30
0.0
 10
16.2828403261
 20
13.5329216961
 30
0.0
 10
16.3090423458
 20
13.5151621611
 30
0.0
 10
16.3345687115
 20
13.4970310898
 30
0.0
 10
16.3593928621
 20
13.4785473384
 30
0.0
 10
16.3834889643
 20
13.4597301225
 30
0.0
 10
16.4068319473
 20
13.4405990054
 30
0.0
 10
16.4293975306
 20
13.4211738774
 30
0.0
 10
16.4511622387
 20
13.4014749251
 30
0.0
 10
16.4721034263
 20
13.3815226139
 30
0.0
 10
16.4921992991
 20
13.361337662
 30
0.0
 10
16.5114289488
 20
13.3409410307
 30
0.0
 10
16.5297723689
 20
13.3203538947
 30
0.0
 10
16.5472104661
 20
13.2995976157
 30
0.0
 10
16.5637250795
 20
13.2786937228
 30
0.0
 10
16.5792989966
 20
13.2576638869
 30
0.0
 10
16.5939159871
 20
13.2365299096
 30
0.0
 10
16.6075608027
 20
13.2153136923
 30
0.0
 10
16.6202191894
 20
13.1940372072
 30
0.0
 10
16.6318778872
 20
13.1727225079
 30
0.0
 10
16.6425246872
 20
13.1513915929
 30
0.0
 10
16.6521483008
 20
13.1300668171
 30
0.0
 10
16.659339982
 20
13.1122375206
 30
0.0
 10
16.6645640921
 20
13.0980018726
 30
0.0
 10
16.6693937513
 20
13.0839154581
 30
0.0
 10
16.6747843877
 20
13.0663481693
 30
0.0
 10
16.6802244634
 20
13.0452677458
 30
0.0
 10
16.6846012409
 20
13.0243032126
 30
0.0
 10
16.6879098101
 20
13.0034765362
 30
0.0
 10
16.690146462
 20
12.9828098062
 30
0.0
 10
16.691117729
 20
12.9656869986
 30
0.0
 10
16.691351943
 20
12.952100487
 30
0.0
 10
16.6912583798
 20
12.9419938437
 30
0.0
 10
16.6908961004
 20
12.931943535
 30
0.0
 10
16.6902651556
 20
12.9219521067
 30
0.0
 10
16.6893657631
 20
12.9120221895
 30
0.0
 10
16.6881980995
 20
12.9021563773
 30
0.0
 10
16.6867624877
 20
12.892357252
 30
0.0
 10
16.685059315
 20
12.8826273708
 30
0.0
 10
16.6830889742
 20
12.872969297
 30
0.0
 10
16.6808520319
 20
12.8633855193
 30
0.0
 10
16.6783490542
 20
12.8538786542
 30
0.0
 10
16.6765032505
 20
12.8475928741
 30
0.0
 10
16.6755365518
 20
12.8444646293
 30
0.0
  0
SPLINE
  5
2C7
100
AcDbEntity
  8
02___PRT_ALL_AXES
100
AcDbSpline
 62
7
  6
CONTINUOUS
 70
0
 71
3
 72
65
 73
61
 74
0
 42
0.0000001
 43
0.0000001
 44
0.0000000001
 40
0.0
 40
0.0
 40
0.0
 40
0.0
 40
0.0106254657
 40
0.021273575
 40
0.031966734
 40
0.0427268812
 40
0.0535752727
 40
0.0645322888
 40
0.0756172653
 40
0.0868483545
 40
0.0982424141
 40
0.109814926
 40
0.1215799423
 40
0.1335500553
 40
0.1457363896
 40
0.1581486121
 40
0.1707949567
 40
0.1836822601
 40
0.1968160074
 40
0.2102003826
 40
0.223838324
 40
0.2377315821
 40
0.2518807777
 40
0.2662854607
 40
0.2809441682
 40
0.2958544805
 40
0.3110130762
 40
0.3264157852
 40
0.342057639
 40
0.3579329197
 40
0.3740352063
 40
0.3903574197
 40
0.4068918646
 40
0.4236302708
 40
0.4405638325
 40
0.4576832452
 40
0.4749787423
 40
0.4924401297
 40
0.5100568198
 40
0.5278178637
 40
0.5457119829
 40
0.5637276006
 40
0.5818528711
 40
0.6000757098
 40
0.6367630918
 40
0.6736910422
 40
0.7107571501
 40
0.7478578549
 40
0.7848893101
 40
0.8217482425
 40
0.8400819303
 40
0.8583344709
 40
0.8764935058
 40
0.8945468775
 40
0.9124826574
 40
0.9302891771
 40
0.9479550521
 40
0.9654692317
 40
0.9828209754
 40
1.0
 40
1.0
 40
1.0
 40
1.0
 10
14.6257863035
 20
11.7187166883
 30
0.0
 10
14.6247621378
 20
11.7154024895
 30
0.0
 10
14.6228984361
 20
11.7087076387
 30
0.0
 10
14.620668838
 20
11.6985072501
 30
0.0
 10
14.6190060475
 20
11.6881544741
 30
0.0
 10
14.6179118809
 20
11.6776607127
 30
0.0
 10
14.6173873621
 20
11.6670369678
 30
0.0
 10
14.6174329352
 20
11.6562944943
 30
0.0
 10
14.6180484157
 20
11.6454446019
 30
0.0
 10
14.6192330148
 20
11.6344986899
 30
0.0
 10
14.6209853441
 20
11.6234682223
 30
0.0
 10
14.6233034254
 20
11.6123647214
 30
0.0
 10
14.6261846983
 20
11.6011997582
 30
0.0
 10
14.6296260272
 20
11.5899849449
 30
0.0
 10
14.6336237074
 20
11.5787319274
 30
0.0
 10
14.6381734702
 20
11.5674523777
 30
0.0
 10
14.6432704882
 20
11.5561579857
 30
0.0
 10
14.6489093795
 20
11.544860451
 30
0.0
 10
14.6550842124
 20
11.5335714734
 30
0.0
 10
14.6617885102
 20
11.5223027433
 30
0.0
 10
14.6690152564
 20
11.5110659315
 30
0.0
 10
14.6767569005
 20
11.4998726781
 30
0.0
 10
14.6850053643
 20
11.4887345814
 30
0.0
 10
14.6937520486
 20
11.4776631865
 30
0.0
 10
14.702987841
 20
11.4666699731
 30
0.0
 10
14.7127031244
 20
11.4557663443
 30
0.0
 10
14.7228877858
 20
11.4449636141
 30
0.0
 10
14.7335312262
 20
11.4342729958
 30
0.0
 10
14.7446223708
 20
11.4237055897
 30
0.0
 10
14.75614968
 20
11.4132723716
 30
0.0
 10
14.7681011608
 20
11.4029841809
 30
0.0
 10
14.7804643793
 20
11.3928517092
 30
0.0
 10
14.7932264727
 20
11.3828854884
 30
0.0
 10
14.8063741631
 20
11.37309588
 30
0.0
 10
14.819893771
 20
11.3634930637
 30
0.0
 10
14.8337712292
 20
11.3540870265
 30
0.0
 10
14.8479920973
 20
11.3448875524
 30
0.0
 10
14.862541577
 20
11.3359042118
 30
0.0
 10
14.8774045276
 20
11.3271463507
 30
0.0
 10
14.8925654798
 20
11.3186230828
 30
0.0
 10
14.9080086599
 20
11.3103432747
 30
0.0
 10
14.9237179762
 20
11.3023155538
 30
0.0
 10
14.9396771472
 20
11.2945482349
 30
0.0
 10
14.9613142445
 20
11.2845279683
 30
0.0
 10
14.9888771155
 20
11.2727097219
 30
0.0
 10
15.0226045275
 20
11.2597218691
 30
0.0
 10
15.0569182688
 20
11.2479501229
 30
0.0
 10
15.0916755492
 20
11.2374434945
 30
0.0
 10
15.1267317279
 20
11.2282456823
 30
0.0
 10
15.1561254721
 20
11.2216916155
 30
0.0
 10
15.1796674676
 20
11.2171376161
 30
0.0
 10
15.1972770072
 20
11.2140771029
 30
0.0
 10
15.2148515222
 20
11.2113688813
 30
0.0
 10
15.2323727991
 20
11.2090157622
 30
0.0
 10
15.24982258
 20
11.2070201972
 30
0.0
 10
15.2671827103
 20
11.2053842639
 30
0.0
 10
15.2844351162
 20
11.2041096646
 30
0.0
 10
15.3015618661
 20
11.2031977293
 30
0.0
 10
15.3185450392
 20
11.2026494052
 30
0.0
 10
15.3298184678
 20
11.2025260063
 30
0.0
 10
15.3354268087
 20
11.2025260063
 30
0.0
  0
SPLINE
  5
2C8
100
AcDbEntity
  8
02___PRT_ALL_AXES
100
AcDbSpline
 62
7
  6
CONTINUOUS
 70
0
 71
3
 72
39
 73
35
 74
0
 42
0.0000001
 43
0.0000001
 44
0.0000000001
 40
0.0
 40
0.0
 40
0.0
 40
0.0
 40
0.0248034971
 40
0.049664333
 40
0.0746391941
 40
0.0997834848
 40
0.1251507429
 40
0.1507921174
 40
0.1767559201
 40
0.2030872602
 40
0.2298277628
 40
0.2570153689
 40
0.2846842112
 40
0.3128645572
 40
0.3415828093
 40
0.370861553
 40
0.4007196415
 40
0.4311723098
 40
0.4622313086
 40
0.4939050531
 40
0.5261987794
 40
0.5591147052
 40
0.592652191
 40
0.6268078994
 40
0.6615759513
 40
0.6969480765
 40
0.7329137588
 40
0.7694603764
 40
0.8065733348
 40
0.8442361973
 40
0.8824307937
 40
0.9211373872
 40
0.960334624
 40
1.0
 40
1.0
 40
1.0
 40
1.0
 10
15.701590172
 20
11.3862681487
 30
0.0
 10
15.7005233485
 20
11.3828159091
 30
0.0
 10
15.6981834673
 20
11.3759645416
 30
0.0
 10
15.69407
 20
11.3658930168
 30
0.0
 10
15.6893557976
 20
11.3560329071
 30
0.0
 10
15.6840465197
 20
11.3463959959
 30
0.0
 10
15.6781483391
 20
11.3369931707
 30
0.0
 10
15.6716681562
 20
11.3278351668
 30
0.0
 10
15.6646135153
 20
11.3189323514
 30
0.0
 10
15.6569926027
 20
11.3102947719
 30
0.0
 10
15.6488142244
 20
11.3019321362
 30
0.0
 10
15.6400877917
 20
11.2938538136
 30
0.0
 10
15.6308233071
 20
11.2860688315
 30
0.0
 10
15.6210313529
 20
11.2785858729
 30
0.0
 10
15.6107230798
 20
11.2714132732
 30
0.0
 10
15.5999101966
 20
11.2645590165
 30
0.0
 10
15.5886049604
 20
11.2580307307
 30
0.0
 10
15.5768201659
 20
11.2518356816
 30
0.0
 10
15.5645691344
 20
11.2459807669
 30
0.0
 10
15.5518657017
 20
11.2404725094
 30
0.0
 10
15.5387242054
 20
11.2353170505
 30
0.0
 10
15.5251594709
 20
11.2305201428
 30
0.0
 10
15.5111867972
 20
11.2260871434
 30
0.0
 10
15.4968219409
 20
11.2220230069
 30
0.0
 10
15.4820811002
 20
11.2183322796
 30
0.0
 10
15.4669808972
 20
11.215019093
 30
0.0
 10
15.4515383608
 20
11.2120871581
 30
0.0
 10
15.435770907
 20
11.209539761
 30
0.0
 10
15.4196963206
 20
11.2073797576
 30
0.0
 10
15.4033327335
 20
11.2056095716
 30
0.0
 10
15.3866986111
 20
11.2042311873
 30
0.0
 10
15.3698127015
 20
11.2032461547
 30
0.0
 10
15.3526941614
 20
11.2026555728
 30
0.0
 10
15.3412051727
 20
11.2025260063
 30
0.0
 10
15.3354268087
 20
11.2025260063
 30
0.0
  0
SPLINE
  5
2C9
100
AcDbEntity
  8
LAYER_CHAMFER_FEAT
100
AcDbSpline
 62
7
  6
CONTINUOUS
 70
0
 71
3
 72
15
 73
11
 74
0
 42
0.0000001
 43
0.0000001
 44
0.0000000001
 40
0.0
 40
0.0
 40
0.0
 40
0.0
 40
0.131763246
 40
0.2617726251
 40
0.389918871
 40
0.5161209296
 40
0.6402989255
 40
0.7623789514
 40
0.8822974787
 40
1.0
 40
1.0
 40
1.0
 40
1.0
 10
15.0759887011
 20
11.7312052843
 30
0.0
 10
15.0726692093
 20
11.7312052843
 30
0.0
 10
15.066074075
 20
11.7311215965
 30
0.0
 10
15.0562572312
 20
11.7307396591
 30
0.0
 10
15.0465939247
 20
11.7301025626
 30
0.0
 10
15.0370982472
 20
11.7292112515
 30
0.0
 10
15.0277836123
 20
11.7280670241
 30
0.0
 10
15.0186633202
 20
11.7266714502
 30
0.0
 10
15.0097505526
 20
11.7250265447
 30
0.0
 10
15.0038999184
 20
11.7237531963
 30
0.0
 10
15.0010134075
 20
11.7230743489
 30
0.0
  0
SPLINE
  5
2CA
100
AcDbEntity
  8
LAYER_CHAMFER_FEAT
100
AcDbSpline
 62
7
  6
CONTINUOUS
 70
0
 71
3
 72
39
 73
35
 74
0
 42
0.0000001
 43
0.0000001
 44
0.0000000001
 40
0.0
 40
0.0
 40
0.0
 40
0.0
 40
0.0305397023
 40
0.0614592497
 40
0.0927264804
 40
0.1243126111
 40
0.1561858814
 40
0.1883135653
 40
0.220662362
 40
0.253198073
 40
0.2858858922
 40
0.3186905367
 40
0.3515763197
 40
0.3845072964
 40
0.4174473797
 40
0.4503604447
 40
0.4832104616
 40
0.5159616034
 40
0.5485783586
 40
0.5810256711
 40
0.6132690405
 40
0.6452746409
 40
0.6770094777
 40
0.7084414854
 40
0.7395396507
 40
0.7702741947
 40
0.8006166762
 40
0.8305401211
 40
0.8600192334
 40
0.8890305185
 40
0.9175524226
 40
0.9455655739
 40
0.9730529436
 40
1.0
 40
1.0
 40
1.0
 40
1.0
 10
15.0759887011
 20
11.7312052843
 30
0.0
 10
15.0795775172
 20
11.7312052843
 30
0.0
 10
15.0868001407
 20
11.7311062072
 30
0.0
 10
15.0976890692
 20
11.7306674942
 30
0.0
 10
15.1086856973
 20
11.7299383405
 30
0.0
 10
15.1197718149
 20
11.7289199926
 30
0.0
 10
15.130929535
 20
11.7276141009
 30
0.0
 10
15.1421406384
 20
11.7260227952
 30
0.0
 10
15.1533868474
 20
11.7241486573
 30
0.0
 10
15.1646498454
 20
11.7219947482
 30
0.0
 10
15.1759112776
 20
11.7195645911
 30
0.0
 10
15.1871527861
 20
11.7168621263
 30
0.0
 10
15.1983560507
 20
11.7138917622
 30
0.0
 10
15.2095028165
 20
11.7106583571
 30
0.0
 10
15.2205749109
 20
11.7071671633
 30
0.0
 10
15.2315542867
 20
11.7034238681
 30
0.0
 10
15.2424230563
 20
11.6994345923
 30
0.0
 10
15.253163501
 20
11.6952058248
 30
0.0
 10
15.263758112
 20
11.6907444477
 30
0.0
 10
15.2741896324
 20
11.6860577532
 30
0.0
 10
15.2844410592
 20
11.6811533709
 30
0.0
 10
15.2944956793
 20
11.6760392765
 30
0.0
 10
15.3043371203
 20
11.6707238243
 30
0.0
 10
15.3139493461
 20
11.6652156706
 30
0.0
 10
15.3233166847
 20
11.6595237678
 30
0.0
 10
15.3324238883
 20
11.6536574054
 30
0.0
 10
15.341256124
 20
11.6476261368
 30
0.0
 10
15.3497989914
 20
11.6414397582
 30
0.0
 10
15.3580385883
 20
11.6351083534
 30
0.0
 10
15.3659615049
 20
11.6286422258
 30
0.0
 10
15.3735548145
 20
11.6220518785
 30
0.0
 10
15.3808061899
 20
11.6153479998
 30
0.0
 10
15.3877037293
 20
11.6085416143
 30
0.0
 10
15.3921032534
 20
11.6038959605
 30
0.0
 10
15.3942393834
 20
11.6015583307
 30
0.0
  0
SPLINE
  5
2CB
100
AcDbEntity
  8
LAYER_FEATURE
100
AcDbSpline
 62
7
  6
CONTINUOUS
 70
0
 71
3
 72
48
 73
44
 74
0
 42
0.0000001
 43
0.0000001
 44
0.0000000001
 40
0.0
 40
0.0
 40
0.0
 40
0.0
 40
0.0396642965
 40
0.0788610385
 40
0.1175666344
 40
0.1557604665
 40
0.1934225081
 40
0.2305346714
 40
0.2670805025
 40
0.3030454096
 40
0.3384167746
 40
0.3731840812
 40
0.4073390582
 40
0.4408758236
 40
0.4737910404
 40
0.5060840715
 40
0.5377571357
 40
0.5688154687
 40
0.5992674839
 40
0.6291249298
 40
0.6584030429
 40
0.6728314478
 40
0.6871223978
 40
0.7153021394
 40
0.7429703891
 40
0.7566230086
 40
0.7701594387
 40
0.7968993654
 40
0.8232301384
 40
0.8362561156
 40
0.8491957106
 40
0.8620546758
 40
0.8748389514
 40
0.887554675
 40
0.900208161
 40
0.9128058833
 40
0.9253544739
 40
0.9378606902
 40
0.9503314131
 40
0.9627736192
 40
0.975194366
 40
0.9876007734
 40
1.0
 40
1.0
 40
1.0
 40
1.0
 10
14.9774065379
 20
12.6597601532
 30
0.0
 10
14.9664964743
 20
12.6597601532
 30
0.0
 10
14.9448040882
 20
12.6595155078
 30
0.0
 10
14.9124825937
 20
12.6584004519
 30
0.0
 10
14.8806002528
 20
12.6565405883
 30
0.0
 10
14.8491934076
 20
12.6539380777
 30
0.0
 10
14.8182973148
 20
12.6505957874
 30
0.0
 10
14.7879468996
 20
12.6465174889
 30
0.0
 10
14.7581763796
 20
12.6417077458
 30
0.0
 10
14.7290193366
 20
12.6361719582
 30
0.0
 10
14.7005086519
 20
12.6299163322
 30
0.0
 10
14.6726764768
 20
12.6229478744
 30
0.0
 10
14.6455541971
 20
12.6152743843
 30
0.0
 10
14.6191723992
 20
12.6069044402
 30
0.0
 10
14.593560833
 20
12.5978473982
 30
0.0
 10
14.5687483833
 20
12.5881133779
 30
0.0
 10
14.5447630355
 20
12.5777132381
 30
0.0
 10
14.5216318796
 20
12.5666585871
 30
0.0
 10
14.4993809707
 20
12.5549616907
 30
0.0
 10
14.4780357182
 20
12.542635743
 30
0.0
 10
14.4609400556
 20
12.5317988208
 30
0.0
 10
14.4477487314
 20
12.522825751
 30
0.0
 10
14.4350030235
 20
12.5137414708
 30
0.0
 10
14.4196685924
 20
12.5020230292
 30
0.0
 10
14.4050271135
 20
12.4897196974
 30
0.0
 10
14.3938326665
 20
12.4796002116
 30
0.0
 10
14.3830738723
 20
12.4693862507
 30
0.0
 10
14.3702583467
 20
12.4562820637
 30
0.0
 10
14.3582243315
 20
12.4426425201
 30
0.0
 10
14.3491430323
 20
12.4314850442
 30
0.0
 10
14.3426252062
 20
12.4230239934
 30
0.0
 10
14.3363784462
 20
12.414443032
 30
0.0
 10
14.3304045112
 20
12.4057444984
 30
0.0
 10
14.3247051044
 20
12.3969308796
 30
0.0
 10
14.3192818285
 20
12.388004675
 30
0.0
 10
14.3141362745
 20
12.3789683869
 30
0.0
 10
14.3092698502
 20
12.3698246089
 30
0.0
 10
14.3046839992
 20
12.3605759021
 30
0.0
 10
14.3003799914
 20
12.3512249073
 30
0.0
 10
14.2963590612
 20
12.3417742812
 30
0.0
 10
14.292622374
 20
12.3322266657
 30
0.0
 10
14.2891709735
 20
12.3225849029
 30
0.0
 10
14.2870606396
 20
12.3160952048
 30
0.0
 10
14.286053691
 20
12.3128367109
 30
0.0
  0
SPLINE
  5
2CC
100
AcDbEntity
  8
LAYER_FEATURE
100
AcDbSpline
 62
7
  6
CONTINUOUS
 70
0
 71
3
 72
48
 73
44
 74
0
 42
0.0000001
 43
0.0000001
 44
0.0000000001
 40
0.0
 40
0.0
 40
0.0
 40
0.0
 40
0.0396642965
 40
0.0788610385
 40
0.1175666344
 40
0.1557604665
 40
0.1934225081
 40
0.2305346714
 40
0.2670805025
 40
0.3030454096
 40
0.3384167746
 40
0.3731840812
 40
0.4073390582
 40
0.4408758236
 40
0.4737910404
 40
0.5060840715
 40
0.5377571357
 40
0.5688154687
 40
0.5992674839
 40
0.6291249298
 40
0.6584030429
 40
0.6728314478
 40
0.6871223978
 40
0.7153021394
 40
0.7429703891
 40
0.7566230086
 40
0.7701594387
 40
0.7968993654
 40
0.8232301384
 40
0.8362561156
 40
0.8491957106
 40
0.8620546758
 40
0.8748389514
 40
0.887554675
 40
0.900208161
 40
0.9128058833
 40
0.9253544739
 40
0.9378606902
 40
0.9503314131
 40
0.9627736192
 40
0.975194366
 40
0.9876007734
 40
1.0
 40
1.0
 40
1.0
 40
1.0
 10
15.3356646965
 20
13.8190839795
 30
0.0
 10
15.324754633
 20
13.8190839795
 30
0.0
 10
15.3030622468
 20
13.8188393341
 30
0.0
 10
15.2707407523
 20
13.8177242781
 30
0.0
 10
15.2388584114
 20
13.8158644145
 30
0.0
 10
15.2074515662
 20
13.813261904
 30
0.0
 10
15.1765554735
 20
13.8099196137
 30
0.0
 10
15.1462050583
 20
13.8058413151
 30
0.0
 10
15.1164345383
 20
13.801031572
 30
0.0
 10
15.0872774952
 20
13.7954957844
 30
0.0
 10
15.0587668106
 20
13.7892401584
 30
0.0
 10
15.0309346354
 20
13.7822717007
 30
0.0
 10
15.0038123557
 20
13.7745982105
 30
0.0
 10
14.9774305578
 20
13.7662282664
 30
0.0
 10
14.9518189916
 20
13.7571712245
 30
0.0
 10
14.927006542
 20
13.7474372042
 30
0.0
 10
14.9030211941
 20
13.7370370644
 30
0.0
 10
14.8798900382
 20
13.7259824134
 30
0.0
 10
14.8576391293
 20
13.714285517
 30
0.0
 10
14.8362938769
 20
13.7019595692
 30
0.0
 10
14.8191982142
 20
13.691122647
 30
0.0
 10
14.80600689
 20
13.6821495773
 30
0.0
 10
14.7932611822
 20
13.673065297
 30
0.0
 10
14.7779267511
 20
13.6613468555
 30
0.0
 10
14.7632852722
 20
13.6490435236
 30
0.0
 10
14.7520908252
 20
13.6389240378
 30
0.0
 10
14.741332031
 20
13.6287100769
 30
0.0
 10
14.7285165053
 20
13.61560589
 30
0.0
 10
14.7164824901
 20
13.6019663464
 30
0.0
 10
14.707401191
 20
13.5908088704
 30
0.0
 10
14.7008833649
 20
13.5823478196
 30
0.0
 10
14.6946366049
 20
13.5737668582
 30
0.0
 10
14.6886626699
 20
13.5650683247
 30
0.0
 10
14.682963263
 20
13.5562547058
 30
0.0
 10
14.6775399871
 20
13.5473285013
 30
0.0
 10
14.6723944332
 20
13.5382922131
 30
0.0
 10
14.6675280088
 20
13.5291484351
 30
0.0
 10
14.6629421578
 20
13.5198997283
 30
0.0
 10
14.6586381501
 20
13.5105487335
 30
0.0
 10
14.6546172199
 20
13.5010981075
 30
0.0
 10
14.6508805326
 20
13.4915504919
 30
0.0
 10
14.6474291322
 20
13.4819087292
 30
0.0
 10
14.6453187983
 20
13.475419031
 30
0.0
 10
14.6443118497
 20
13.4721605371
 30
0.0
  0
SPLINE
  5
2CD
100
AcDbEntity
  8
LAYER_FEATURE
100
AcDbSpline
 62
7
  6
CONTINUOUS
 70
0
 71
3
 72
78
 73
74
 74
0
 42
0.0000001
 43
0.0000001
 44
0.0000000001
 40
0.0
 40
0.0
 40
0.0
 40
0.0
 40
0.0171786289
 40
0.0345302627
 40
0.0520440738
 40
0.0697096817
 40
0.087515905
 40
0.1054513899
 40
0.1235044662
 40
0.1416632022
 40
0.1599154427
 40
0.1782488293
 40
0.1966508312
 40
0.2151087722
 40
0.2336098599
 40
0.2521412119
 40
0.2706898829
 40
0.2892428916
 40
0.3077872476
 40
0.326309979
 40
0.3447981584
 40
0.3632389296
 40
0.3816195358
 40
0.3999273469
 40
0.4181498865
 40
0.4362748597
 40
0.454290181
 40
0.4721840057
 40
0.4899447577
 40
0.5075611589
 40
0.5250222598
 40
0.5423174722
 40
0.5594366031
 40
0.5763698869
 40
0.5931080191
 40
0.6096421926
 40
0.6259641369
 40
0.6420661586
 40
0.657941179
 40
0.6735827768
 40
0.6889852325
 40
0.7041435781
 40
0.719053645
 40
0.7337121123
 40
0.7481165595
 40
0.762265522
 40
0.7761585509
 40
0.7897962684
 40
0.8031804247
 40
0.816313957
 40
0.829201048
 40
0.841847184
 40
0.8542592029
 40
0.8603802803
 40
0.8664460367
 40
0.8784159533
 40
0.8901807754
 40
0.9017530966
 40
0.9131469692
 40
0.9243778745
 40
0.935462669
 40
0.9409563759
 40
0.9464204658
 40
0.9518573916
 40
0.9572696695
 40
0.9626598802
 40
0.9680306552
 40
0.9733846778
 40
0.978724673
 40
0.9840534015
 40
0.9893736548
 40
0.9946882449
 40
1.0
 40
1.0
 40
1.0
 40
1.0
 10
14.9774065379
 20
12.6597601532
 30
0.0
 10
14.9879955733
 20
12.6597601532
 30
0.0
 10
15.0092809654
 20
12.6595271519
 30
0.0
 10
15.0413468745
 20
12.658491883
 30
0.0
 10
15.0736839532
 20
12.6567700357
 30
0.0
 10
15.1062581746
 20
12.6543634822
 30
0.0
 10
15.1390358384
 20
12.6512746748
 30
0.0
 10
15.1719827598
 20
12.6475068468
 30
0.0
 10
15.2050646666
 20
12.6430639228
 30
0.0
 10
15.238247124
 20
12.6379505291
 30
0.0
 10
15.2714955932
 20
12.6321719892
 30
0.0
 10
15.3047754661
 20
12.6257343118
 30
0.0
 10
15.3380521001
 20
12.6186441973
 30
0.0
 10
15.3712908568
 20
12.6109090326
 30
0.0
 10
15.4044571361
 20
12.6025368707
 30
0.0
 10
15.4375164126
 20
12.5935364255
 30
0.0
 10
15.4704342702
 20
12.58391706
 30
0.0
 10
15.5031764417
 20
12.5736887901
 30
0.0
 10
15.5357088442
 20
12.5628622682
 30
0.0
 10
15.5679976121
 20
12.5514487651
 30
0.0
 10
15.6000091326
 20
12.5394601602
 30
0.0
 10
15.6317100797
 20
12.5269089273
 30
0.0
 10
15.6630674555
 20
12.5138081361
 30
0.0
 10
15.6940486206
 20
12.5001714272
 30
0.0
 10
15.7246213266
 20
12.486012995
 30
0.0
 10
15.7547537487
 20
12.4713475738
 30
0.0
 10
15.7844145203
 20
12.4561904227
 30
0.0
 10
15.8135727726
 20
12.4405573225
 30
0.0
 10
15.84219816
 20
12.4244645443
 30
0.0
 10
15.8702608907
 20
12.4079288344
 30
0.0
 10
15.8977317565
 20
12.3909673948
 30
0.0
 10
15.9245821675
 20
12.3735978698
 30
0.0
 10
15.9507841872
 20
12.3558383348
 30
0.0
 10
15.9763105528
 20
12.3377072635
 30
0.0
 10
16.0011347035
 20
12.3192235122
 30
0.0
 10
16.0252308056
 20
12.3004062963
 30
0.0
 10
16.0485737887
 20
12.2812751792
 30
0.0
 10
16.0711393719
 20
12.2618500512
 30
0.0
 10
16.0929040801
 20
12.2421510989
 30
0.0
 10
16.1138452677
 20
12.2221987876
 30
0.0
 10
16.1339411405
 20
12.2020138358
 30
0.0
 10
16.1531707902
 20
12.1816172045
 30
0.0
 10
16.1715142103
 20
12.1610300685
 30
0.0
 10
16.1889523075
 20
12.1402737895
 30
0.0
 10
16.2054669208
 20
12.1193698966
 30
0.0
 10
16.2210408379
 20
12.0983400606
 30
0.0
 10
16.2356578285
 20
12.0772060833
 30
0.0
 10
16.249302644
 20
12.0559898661
 30
0.0
 10
16.2619610308
 20
12.0347133809
 30
0.0
 10
16.2736197285
 20
12.0133986817
 30
0.0
 10
16.2842665286
 20
11.9920677666
 30
0.0
 10
16.2938901422
 20
11.9707429908
 30
0.0
 10
16.3010818234
 20
11.9529136944
 30
0.0
 10
16.3063059334
 20
11.9386780464
 30
0.0
 10
16.3111355926
 20
11.9245916319
 30
0.0
 10
16.3165262291
 20
11.907024343
 30
0.0
 10
16.3219663047
 20
11.8859439196
 30
0.0
 10
16.3263430823
 20
11.8649793864
 30
0.0
 10
16.3296516515
 20
11.84415271
 30
0.0
 10
16.3318883034
 20
11.82348598
 30
0.0
 10
16.3328595704
 20
11.8063631724
 30
0.0
 10
16.3330937844
 20
11.7927766607
 30
0.0
 10
16.3330002211
 20
11.7826700174
 30
0.0
 10
16.3326379417
 20
11.7726197088
 30
0.0
 10
16.3320069969
 20
11.7626282804
 30
0.0
 10
16.3311076044
 20
11.7526983632
 30
0.0
 10
16.3299399409
 20
11.742832551
 30
0.0
 10
16.328504329
 20
11.7330334257
 30
0.0
 10
16.3268011563
 20
11.7233035446
 30
0.0
 10
16.3248308155
 20
11.7136454707
 30
0.0
 10
16.3225938732
 20
11.7040616931
 30
0.0
 10
16.3200908955
 20
11.6945548279
 30
0.0
 10
16.3182450919
 20
11.6882690479
 30
0.0
 10
16.3172783932
 20
11.685140803
 30
0.0
  0
SPLINE
  5
2CE
100
AcDbEntity
  8
LAYER_FEATURE
100
AcDbSpline
 62
7
  6
CONTINUOUS
 70
0
 71
3
 72
79
 73
75
 74
0
 42
0.0000001
 43
0.0000001
 44
0.0000000001
 40
0.0
 40
0.0
 40
0.0
 40
0.0
 40
0.0053541026
 40
0.0107128947
 40
0.0160810447
 40
0.0214631824
 40
0.026863875
 40
0.0322876152
 40
0.0377387951
 40
0.0432216986
 40
0.0487404789
 40
0.0542991491
 40
0.0599015706
 40
0.0655514372
 40
0.0770060043
 40
0.0828186345
 40
0.0886917063
 40
0.100628842
 40
0.1128386395
 40
0.1190517082
 40
0.12533898
 40
0.1381414055
 40
0.1512577981
 40
0.1646961174
 40
0.1784616419
 40
0.1925571242
 40
0.2069829498
 40
0.2217372953
 40
0.236816283
 40
0.2522141305
 40
0.2679232934
 40
0.2839345997
 40
0.3002373783
 40
0.3168195789
 40
0.3336678868
 40
0.3507678307
 40
0.3681038845
 40
0.3856595653
 40
0.4034175265
 40
0.4213596478
 40
0.4394671202
 40
0.4577205301
 40
0.4760999392
 40
0.4945849635
 40
0.5131548498
 40
0.5317885519
 40
0.5504648042
 40
0.5691621964
 40
0.5878592463
 40
0.6065344731
 40
0.62516647
 40
0.6437339777
 40
0.6622159581
 40
0.6805916685
 40
0.6988407377
 40
0.7169432423
 40
0.7348797867
 40
0.7526315829
 40
0.7701805338
 40
0.7875093195
 40
0.8046014865
 40
0.8214415408
 40
0.8380150459
 40
0.8543087251
 40
0.8703105697
 40
0.8860099542
 40
0.9013977569
 40
0.9164664871
 40
0.9312104235
 40
0.9456257446
 40
0.9597107184
 40
0.9734657384
 40
0.9868937807
 40
1.0
 40
1.0
 40
1.0
 40
1.0
 10
14.6972660295
 20
12.1600185554
 30
0.0
 10
14.6979942744
 20
12.1623751674
 30
0.0
 10
14.6995367331
 20
12.1670645721
 30
0.0
 10
14.7021045231
 20
12.1740152944
 30
0.0
 10
14.7049257404
 20
12.1808811339
 30
0.0
 10
14.7079991885
 20
12.1876589867
 30
0.0
 10
14.711323476
 20
12.1943460031
 30
0.0
 10
14.7148972298
 20
12.2009392643
 30
0.0
 10
14.718718841
 20
12.2074359755
 30
0.0
 10
14.7227866995
 20
12.2138333202
 30
0.0
 10
14.7270990223
 20
12.22012858
 30
0.0
 10
14.731653928
 20
12.2263190326
 30
0.0
 10
14.7364495492
 20
12.2324021078
 30
0.0
 10
14.7431919042
 20
12.2404020052
 30
0.0
 10
14.7503844433
 20
12.2481420106
 30
0.0
 10
14.7579951276
 20
12.2556085146
 30
0.0
 10
14.7659921764
 20
12.2629919186
 30
0.0
 10
14.7765696119
 20
12.2719145745
 30
0.0
 10
14.7877613432
 20
12.2803156051
 30
0.0
 10
14.7971352845
 20
12.2867764768
 30
0.0
 10
14.8069059776
 20
12.2931356835
 30
0.0
 10
14.8196533941
 20
12.3007411968
 30
0.0
 10
14.8356687629
 20
12.3092558712
 30
0.0
 10
14.8524669595
 20
12.3171991672
 30
0.0
 10
14.8700190167
 20
12.3245576114
 30
0.0
 10
14.8882950734
 20
12.3313189246
 30
0.0
 10
14.9072639535
 20
12.3374717452
 30
0.0
 10
14.9268933376
 20
12.3430057362
 30
0.0
 10
14.9471497767
 20
12.3479115828
 30
0.0
 10
14.967998754
 20
12.3521810167
 30
0.0
 10
14.9894047386
 20
12.3558068338
 30
0.0
 10
15.0113312439
 20
12.3587829096
 30
0.0
 10
15.0337408884
 20
12.3611042135
 30
0.0
 10
15.0565954587
 20
12.3627668201
 30
0.0
 10
15.0798559744
 20
12.3637679184
 30
0.0
 10
15.1034827546
 20
12.3641058188
 30
0.0
 10
15.1274354854
 20
12.3637799583
 30
0.0
 10
15.1516732897
 20
12.3627909044
 30
0.0
 10
15.1761547977
 20
12.361140353
 30
0.0
 10
15.2008382178
 20
12.3588311275
 30
0.0
 10
15.2256814092
 20
12.3558671737
 30
0.0
 10
15.2506419541
 20
12.3522535547
 30
0.0
 10
15.2756772307
 20
12.3479964421
 30
0.0
 10
15.3007444864
 20
12.3431031058
 30
0.0
 10
15.3258009114
 20
12.3375819025
 30
0.0
 10
15.3508037124
 20
12.3314422608
 30
0.0
 10
15.3757101862
 20
12.3246946669
 30
0.0
 10
15.4004777935
 20
12.3173506463
 30
0.0
 10
15.425064232
 20
12.3094227428
 30
0.0
 10
15.4494275087
 20
12.3009244976
 30
0.0
 10
15.4735260122
 20
12.2918704254
 30
0.0
 10
15.4973185843
 20
12.2822759898
 30
0.0
 10
15.5207645903
 20
12.2721575765
 30
0.0
 10
15.5438239889
 20
12.2615324651
 30
0.0
 10
15.566457401
 20
12.2504187989
 30
0.0
 10
15.5886261769
 20
12.2388355537
 30
0.0
 10
15.6102924644
 20
12.2268025059
 30
0.0
 10
15.6314192722
 20
12.2143401966
 30
0.0
 10
15.6519705332
 20
12.2014698957
 30
0.0
 10
15.6719111665
 20
12.1882135642
 30
0.0
 10
15.6912071365
 20
12.1745938163
 30
0.0
 10
15.7098255113
 20
12.1606338788
 30
0.0
 10
15.7277345177
 20
12.1463575503
 30
0.0
 10
15.7449035955
 20
12.1317891591
 30
0.0
 10
15.7613034474
 20
12.1169535192
 30
0.0
 10
15.7769060898
 20
12.1018758874
 30
0.0
 10
15.7916848964
 20
12.0865819178
 30
0.0
 10
15.8056146438
 20
12.0710976145
 30
0.0
 10
15.8186715386
 20
12.0554492897
 30
0.0
 10
15.8308332865
 20
12.0396634991
 30
0.0
 10
15.8420790305
 20
12.0237670724
 30
0.0
 10
15.8523896292
 20
12.0077867867
 30
0.0
 10
15.8617470251
 20
11.9917502862
 30
0.0
 10
15.8674072329
 20
11.9809093391
 30
0.0
 10
15.8700671736
 20
11.9754889497
 30
0.0
  0
SPLINE
  5
2CF
100
AcDbEntity
  8
LAYER_CUT_FEAT
100
AcDbSpline
 62
7
  6
CONTINUOUS
 70
0
 71
3
 72
79
 73
75
 74
0
 42
0.0000001
 43
0.0000001
 44
0.0000000001
 40
0.0
 40
0.0
 40
0.0
 40
0.0
 40
0.0053541026
 40
0.0107128947
 40
0.0160810447
 40
0.0214631824
 40
0.026863875
 40
0.0322876152
 40
0.0377387951
 40
0.0432216986
 40
0.0487404789
 40
0.0542991491
 40
0.0599015706
 40
0.0655514372
 40
0.0770060043
 40
0.0828186345
 40
0.0886917063
 40
0.100628842
 40
0.1128386395
 40
0.1190517082
 40
0.12533898
 40
0.1381414055
 40
0.1512577981
 40
0.1646961174
 40
0.1784616419
 40
0.1925571242
 40
0.2069829498
 40
0.2217372953
 40
0.236816283
 40
0.2522141305
 40
0.2679232934
 40
0.2839345997
 40
0.3002373783
 40
0.3168195789
 40
0.3336678868
 40
0.3507678307
 40
0.3681038845
 40
0.3856595653
 40
0.4034175265
 40
0.4213596478
 40
0.4394671202
 40
0.4577205301
 40
0.4760999392
 40
0.4945849635
 40
0.5131548498
 40
0.5317885519
 40
0.5504648042
 40
0.5691621964
 40
0.5878592463
 40
0.6065344731
 40
0.62516647
 40
0.6437339777
 40
0.6622159581
 40
0.6805916685
 40
0.6988407377
 40
0.7169432423
 40
0.7348797867
 40
0.7526315829
 40
0.7701805338
 40
0.7875093195
 40
0.8046014865
 40
0.8214415408
 40
0.8380150459
 40
0.8543087251
 40
0.8703105697
 40
0.8860099542
 40
0.9013977569
 40
0.9164664871
 40
0.9312104235
 40
0.9456257446
 40
0.9597107184
 40
0.9734657384
 40
0.9868937807
 40
1.0
 40
1.0
 40
1.0
 40
1.0
 10
14.6851627133
 20
12.1208522099
 30
0.0
 10
14.6858909583
 20
12.1232088219
 30
0.0
 10
14.6874334169
 20
12.1278982266
 30
0.0
 10
14.6900012069
 20
12.1348489489
 30
0.0
 10
14.6928224242
 20
12.1417147884
 30
0.0
 10
14.6958958724
 20
12.1484926413
 30
0.0
 10
14.6992201598
 20
12.1551796576
 30
0.0
 10
14.7027939136
 20
12.1617729188
 30
0.0
 10
14.7066155249
 20
12.16826963
 30
0.0
 10
14.7106833833
 20
12.1746669747
 30
0.0
 10
14.7149957061
 20
12.1809622345
 30
0.0
 10
14.7195506119
 20
12.1871526871
 30
0.0
 10
14.724346233
 20
12.1932357623
 30
0.0
 10
14.731088588
 20
12.2012356597
 30
0.0
 10
14.7382811271
 20
12.2089756652
 30
0.0
 10
14.7458918114
 20
12.2164421691
 30
0.0
 10
14.7538888602
 20
12.2238255731
 30
0.0
 10
14.7644662958
 20
12.232748229
 30
0.0
 10
14.7756580271
 20
12.2411492596
 30
0.0
 10
14.7850319683
 20
12.2476101314
 30
0.0
 10
14.7948026614
 20
12.2539693381
 30
0.0
 10
14.8075500779
 20
12.2615748513
 30
0.0
 10
14.8235654468
 20
12.2700895257
 30
0.0
 10
14.8403636434
 20
12.2780328218
 30
0.0
 10
14.8579157005
 20
12.285391266
 30
0.0
 10
14.8761917572
 20
12.2921525791
 30
0.0
 10
14.8951606373
 20
12.2983053997
 30
0.0
 10
14.9147900215
 20
12.3038393908
 30
0.0
 10
14.9350464605
 20
12.3087452373
 30
0.0
 10
14.9558954378
 20
12.3130146713
 30
0.0
 10
14.9773014224
 20
12.3166404883
 30
0.0
 10
14.9992279277
 20
12.3196165641
 30
0.0
 10
15.0216375722
 20
12.321937868
 30
0.0
 10
15.0444921425
 20
12.3236004746
 30
0.0
 10
15.0677526582
 20
12.3246015729
 30
0.0
 10
15.0913794384
 20
12.3249394733
 30
0.0
 10
15.1153321692
 20
12.3246136129
 30
0.0
 10
15.1395699736
 20
12.3236245589
 30
0.0
 10
15.1640514815
 20
12.3219740075
 30
0.0
 10
15.1887349016
 20
12.319664782
 30
0.0
 10
15.213578093
 20
12.3167008282
 30
0.0
 10
15.2385386379
 20
12.3130872093
 30
0.0
 10
15.2635739145
 20
12.3088300966
 30
0.0
 10
15.2886411702
 20
12.3039367603
 30
0.0
 10
15.3136975953
 20
12.298415557
 30
0.0
 10
15.3387003962
 20
12.2922759153
 30
0.0
 10
15.36360687
 20
12.2855283214
 30
0.0
 10
15.3883744774
 20
12.2781843008
 30
0.0
 10
15.4129609158
 20
12.2702563974
 30
0.0
 10
15.4373241925
 20
12.2617581521
 30
0.0
 10
15.461422696
 20
12.2527040799
 30
0.0
 10
15.4852152681
 20
12.2431096443
 30
0.0
 10
15.5086612741
 20
12.232991231
 30
0.0
 10
15.5317206728
 20
12.2223661196
 30
0.0
 10
15.5543540848
 20
12.2112524535
 30
0.0
 10
15.5765228608
 20
12.1996692082
 30
0.0
 10
15.5981891482
 20
12.1876361604
 30
0.0
 10
15.619315956
 20
12.1751738511
 30
0.0
 10
15.639867217
 20
12.1623035502
 30
0.0
 10
15.6598078503
 20
12.1490472188
 30
0.0
 10
15.6791038204
 20
12.1354274709
 30
0.0
 10
15.6977221951
 20
12.1214675333
 30
0.0
 10
15.7156312016
 20
12.1071912048
 30
0.0
 10
15.7328002793
 20
12.0926228136
 30
0.0
 10
15.7492001313
 20
12.0777871737
 30
0.0
 10
15.7648027736
 20
12.0627095419
 30
0.0
 10
15.7795815803
 20
12.0474155723
 30
0.0
 10
15.7935113276
 20
12.031931269
 30
0.0
 10
15.8065682224
 20
12.0162829442
 30
0.0
 10
15.8187299703
 20
12.0004971536
 30
0.0
 10
15.8299757144
 20
11.9846007269
 30
0.0
 10
15.8402863131
 20
11.9686204412
 30
0.0
 10
15.849643709
 20
11.9525839407
 30
0.0
 10
15.8553039167
 20
11.9417429936
 30
0.0
 10
15.8579638575
 20
11.9363226042
 30
0.0
  0
SPLINE
  5
2D0
100
AcDbEntity
  8
LAYER_CHAMFER_FEAT
100
AcDbSpline
 62
7
  6
CONTINUOUS
 70
0
 71
3
 72
84
 73
80
 74
0
 42
0.0000001
 43
0.0000001
 44
0.0000000001
 40
0.0
 40
0.0
 40
0.0
 40
0.0
 40
0.0157578373
 40
0.0311471873
 40
0.046164376
 40
0.060808478
 40
0.0750815369
 40
0.088988804
 40
0.1025389545
 40
0.1091844496
 40
0.1157455938
 40
0.1286221812
 40
0.141190076
 40
0.1534733539
 40
0.1655001055
 40
0.1773023268
 40
0.1831312081
 40
0.1889176222
 40
0.194666539
 40
0.2003830901
 40
0.2060725717
 40
0.2117404014
 40
0.2173921027
 40
0.2230332823
 40
0.2286695941
 40
0.23430672
 40
0.2399503348
 40
0.2456060845
 40
0.2512795517
 40
0.2569762328
 40
0.2627015173
 40
0.268460648
 40
0.2742587205
 40
0.2801006492
 40
0.2859911458
 40
0.2919347295
 40
0.2979356784
 40
0.3039980451
 40
0.3163204335
 40
0.3289311364
 40
0.3353528124
 40
0.3418550425
 40
0.3551088194
 40
0.3687094206
 40
0.3826686017
 40
0.3969945218
 40
0.4116919631
 40
0.4267625466
 40
0.4422049338
 40
0.4580150584
 40
0.4741863467
 40
0.4907099114
 40
0.5075747236
 40
0.5247678057
 40
0.5422744076
 40
0.5600781587
 40
0.5781612015
 40
0.5965043478
 40
0.6150872171
 40
0.6338883582
 40
0.6528853611
 40
0.6720549867
 40
0.6913732829
 40
0.7108156887
 40
0.7303571377
 40
0.7499721724
 40
0.7696350468
 40
0.7893198254
 40
0.8090004852
 40
0.8286510231
 40
0.8482455521
 40
0.8677584024
 40
0.8871642352
 40
0.9064381204
 40
0.9255557027
 40
0.9444932535
 40
0.9632275304
 40
0.9817372887
 40
1.0
 40
1.0
 40
1.0
 40
1.0
 10
15.0010134075
 20
11.7230743489
 30
0.0
 10
14.9977015163
 20
11.7222954607
 30
0.0
 10
14.9911838223
 20
11.7206304536
 30
0.0
 10
14.9816319927
 20
11.7177732343
 30
0.0
 10
14.9724372072
 20
11.714590892
 30
0.0
 10
14.9636176859
 20
11.7110896053
 30
0.0
 10
14.9551906371
 20
11.7072760557
 30
0.0
 10
14.9471727779
 20
11.7031576678
 30
0.0
 10
14.9408042892
 20
11.699454343
 30
0.0
 10
14.9359345064
 20
11.696345171
 30
0.0
 10
14.9312747406
 20
11.6931815713
 30
0.0
 10
14.9257267813
 20
11.689054521
 30
0.0
 10
14.9194947944
 20
11.6838010028
 30
0.0
 10
14.9137424532
 20
11.6782874632
 30
0.0
 10
14.9084816546
 20
11.6725248807
 30
0.0
 10
14.9044992854
 20
11.6675030164
 30
0.0
 10
14.9015762005
 20
11.6633764583
 30
0.0
 10
14.8995216993
 20
11.6602393902
 30
0.0
 10
14.8975971931
 20
11.6570492585
 30
0.0
 10
14.8958036606
 20
11.6538075623
 30
0.0
 10
14.8941419621
 20
11.6505159425
 30
0.0
 10
14.8926129303
 20
11.6471760185
 30
0.0
 10
14.8912173684
 20
11.6437894298
 30
0.0
 10
14.8899559118
 20
11.64035788
 30
0.0
 10
14.8888292354
 20
11.6368830522
 30
0.0
 10
14.8878378931
 20
11.6333666759
 30
0.0
 10
14.8869823361
 20
11.6298105057
 30
0.0
 10
14.8862630509
 20
11.6262162921
 30
0.0
 10
14.885680339
 20
11.622585831
 30
0.0
 10
14.885234489
 20
11.61892092
 30
0.0
 10
14.8849257579
 20
11.6152233736
 30
0.0
 10
14.8847542255
 20
11.6114950288
 30
0.0
 10
14.8847200154
 20
11.6077377279
 30
0.0
 10
14.8848231292
 20
11.6039533329
 30
0.0
 10
14.885063465
 20
11.6001437073
 30
0.0
 10
14.8854409539
 20
11.5963107483
 30
0.0
 10
14.8859553591
 20
11.5924562999
 30
0.0
 10
14.8868280863
 20
11.5872632013
 30
0.0
 10
14.888266533
 20
11.5807222495
 30
0.0
 10
14.890137685
 20
11.5742115284
 30
0.0
 10
14.8918976401
 20
11.5689861316
 30
0.0
 10
14.8938590008
 20
11.5636846151
 30
0.0
 10
14.8966499897
 20
11.5570409466
 30
0.0
 10
14.9005028919
 20
11.5491114284
 30
0.0
 10
14.9048730098
 20
11.5411895291
 30
0.0
 10
14.9097515628
 20
11.5332908463
 30
0.0
 10
14.9151289076
 20
11.5254306969
 30
0.0
 10
14.920994438
 20
11.5176244105
 30
0.0
 10
14.9273365942
 20
11.5098871914
 30
0.0
 10
14.9341428978
 20
11.5022341296
 30
0.0
 10
14.9413999825
 20
11.4946801685
 30
0.0
 10
14.9490936126
 20
11.4872400812
 30
0.0
 10
14.9572086799
 20
11.4799284126
 30
0.0
 10
14.9657292532
 20
11.4727594691
 30
0.0
 10
14.9746386153
 20
11.4657472927
 30
0.0
 10
14.983919291
 20
11.4589056359
 30
0.0
 10
14.9935530579
 20
11.4522479044
 30
0.0
 10
15.0035210012
 20
11.4457871519
 30
0.0
 10
15.013803555
 20
11.4395360568
 30
0.0
 10
15.0243805378
 20
11.433506899
 30
0.0
 10
15.0352311743
 20
11.4277115061
 30
0.0
 10
15.0463341521
 20
11.4221612523
 30
0.0
 10
15.0576676672
 20
11.4168670397
 30
0.0
 10
15.0692094639
 20
11.4118392785
 30
0.0
 10
15.0809368658
 20
11.4070878349
 30
0.0
 10
15.0928268331
 20
11.4026220379
 30
0.0
 10
15.1048560098
 20
11.3984506632
 30
0.0
 10
15.117000768
 20
11.394581918
 30
0.0
 10
15.1292372448
 20
11.3910233923
 30
0.0
 10
15.1415413996
 20
11.3877820724
 30
0.0
 10
15.1538890615
 20
11.3848643289
 30
0.0
 10
15.166255977
 20
11.3822759055
 30
0.0
 10
15.1786178481
 20
11.3800218784
 30
0.0
 10
15.1909503947
 20
11.3781066661
 30
0.0
 10
15.2032294043
 20
11.3765340362
 30
0.0
 10
15.2154307064
 20
11.3753071064
 30
0.0
 10
15.2275305115
 20
11.3744282229
 30
0.0
 10
15.2395047562
 20
11.3738992045
 30
0.0
 10
15.2474447035
 20
11.3737795526
 30
0.0
 10
15.2513877744
 20
11.3737795526
 30
0.0
  0
SPLINE
  5
2D1
100
AcDbEntity
  8
02___PRT_ALL_AXES
100
AcDbSpline
 62
7
  6
CONTINUOUS
 70
0
 71
3
 72
65
 73
61
 74
0
 42
0.0000001
 43
0.0000001
 44
0.0000000001
 40
0.0
 40
0.0
 40
0.0
 40
0.0
 40
0.0171790246
 40
0.0345307683
 40
0.0520449479
 40
0.0697108229
 40
0.0875173426
 40
0.1054531225
 40
0.1235064942
 40
0.1416655291
 40
0.1599180697
 40
0.1782517575
 40
0.2151106899
 40
0.2521421451
 40
0.2892428499
 40
0.3263089578
 40
0.3632369082
 40
0.3999242902
 40
0.4181471289
 40
0.4362723994
 40
0.4542880171
 40
0.4721821363
 40
0.4899431802
 40
0.5075598703
 40
0.5250212577
 40
0.5423167548
 40
0.5594361675
 40
0.5763697292
 40
0.5931081354
 40
0.6096425803
 40
0.6259647937
 40
0.6420670803
 40
0.657942361
 40
0.6735842148
 40
0.6889869238
 40
0.7041455195
 40
0.7190558318
 40
0.7337145393
 40
0.7481192223
 40
0.7622684179
 40
0.776161676
 40
0.7897996174
 40
0.8031839926
 40
0.8163177399
 40
0.8292050433
 40
0.8418513879
 40
0.8542636104
 40
0.8664499447
 40
0.8784200577
 40
0.890185074
 40
0.9017575859
 40
0.9131516455
 40
0.9243827347
 40
0.9354677112
 40
0.9464247273
 40
0.9572731188
 40
0.968033266
 40
0.978726425
 40
0.9893745343
 40
1.0
 40
1.0
 40
1.0
 40
1.0
 10
14.9919496668
 20
11.9024588306
 30
0.0
 10
14.9975580077
 20
11.9024588306
 30
0.0
 10
15.0088314363
 20
11.9023354318
 30
0.0
 10
15.0258146094
 20
11.9017871076
 30
0.0
 10
15.0429413593
 20
11.9008751724
 30
0.0
 10
15.0601937652
 20
11.8996005731
 30
0.0
 10
15.0775538955
 20
11.8979646397
 30
0.0
 10
15.0950036764
 20
11.8959690747
 30
0.0
 10
15.1125249533
 20
11.8936159556
 30
0.0
 10
15.1300994683
 20
11.890907734
 30
0.0
 10
15.1477090079
 20
11.8878472209
 30
0.0
 10
15.1712510034
 20
11.8832932214
 30
0.0
 10
15.2006447476
 20
11.8767391546
 30
0.0
 10
15.2357009263
 20
11.8675413425
 30
0.0
 10
15.2704582067
 20
11.8570347141
 30
0.0
 10
15.304771948
 20
11.8452629678
 30
0.0
 10
15.33849936
 20
11.832275115
 30
0.0
 10
15.366062231
 20
11.8204568687
 30
0.0
 10
15.3876993283
 20
11.8104366021
 30
0.0
 10
15.4036584992
 20
11.8026692832
 30
0.0
 10
15.4193678156
 20
11.7946415622
 30
0.0
 10
15.4348109956
 20
11.7863617541
 30
0.0
 10
15.4499719479
 20
11.7778384862
 30
0.0
 10
15.4648348985
 20
11.7690806252
 30
0.0
 10
15.4793843782
 20
11.7600972845
 30
0.0
 10
15.4936052463
 20
11.7508978104
 30
0.0
 10
15.5074827045
 20
11.7414917733
 30
0.0
 10
15.5210023124
 20
11.7318889569
 30
0.0
 10
15.5341500028
 20
11.7220993485
 30
0.0
 10
15.5469120962
 20
11.7121331278
 30
0.0
 10
15.5592753146
 20
11.702000656
 30
0.0
 10
15.5712267955
 20
11.6917124654
 30
0.0
 10
15.5827541047
 20
11.6812792473
 30
0.0
 10
15.5938452493
 20
11.6707118412
 30
0.0
 10
15.6044886897
 20
11.6600212228
 30
0.0
 10
15.6146733511
 20
11.6492184926
 30
0.0
 10
15.6243886345
 20
11.6383148638
 30
0.0
 10
15.6336244269
 20
11.6273216505
 30
0.0
 10
15.6423711112
 20
11.6162502555
 30
0.0
 10
15.650619575
 20
11.6051121588
 30
0.0
 10
15.6583612191
 20
11.5939189054
 30
0.0
 10
15.6655879653
 20
11.5826820936
 30
0.0
 10
15.6722922631
 20
11.5714133636
 30
0.0
 10
15.678467096
 20
11.5601243859
 30
0.0
 10
15.6841059873
 20
11.5488268512
 30
0.0
 10
15.6892030053
 20
11.5375324592
 30
0.0
 10
15.6937527681
 20
11.5262529095
 30
0.0
 10
15.6977504483
 20
11.514999892
 30
0.0
 10
15.7011917772
 20
11.5037850788
 30
0.0
 10
15.7040730501
 20
11.4926201156
 30
0.0
 10
15.7063911314
 20
11.4815166147
 30
0.0
 10
15.7081434607
 20
11.4704861471
 30
0.0
 10
15.7093280598
 20
11.4595402351
 30
0.0
 10
15.7099435403
 20
11.4486903427
 30
0.0
 10
15.7099891134
 20
11.4379478692
 30
0.0
 10
15.7094645946
 20
11.4273241243
 30
0.0
 10
15.708370428
 20
11.4168303628
 30
0.0
 10
15.7067076375
 20
11.4064775869
 30
0.0
 10
15.7044780394
 20
11.3962771982
 30
0.0
 10
15.7026143377
 20
11.3895823475
 30
0.0
 10
15.701590172
 20
11.3862681487
 30
0.0
  0
SPLINE
  5
2D2
100
AcDbEntity
  8
LAYER_FEATURE
100
AcDbSpline
 62
7
  6
CONTINUOUS
 70
0
 71
3
 72
57
 73
53
 74
0
 42
0.0000001
 43
0.0000001
 44
0.0000000001
 40
0.0
 40
0.0
 40
0.0
 40
0.0
 40
0.0146675015
 40
0.0291021272
 40
0.0433113453
 40
0.0573082425
 40
0.0711072896
 40
0.0847256866
 40
0.0981832185
 40
0.1115018775
 40
0.1247057368
 40
0.1378206172
 40
0.1508737224
 40
0.163893248
 40
0.176907932
 40
0.1899465903
 40
0.2030376488
 40
0.2162086922
 40
0.2294860507
 40
0.2428944186
 40
0.2564565224
 40
0.2701928807
 40
0.2841216064
 40
0.2982582434
 40
0.312615706
 40
0.327204261
 40
0.3420315127
 40
0.3571024494
 40
0.3879738432
 40
0.4037810733
 40
0.4198277527
 40
0.4526039191
 40
0.4693222475
 40
0.4862429608
 40
0.5206302172
 40
0.55565026
 40
0.5911634804
 40
0.6270173962
 40
0.6630508751
 40
0.6990983195
 40
0.7349937863
 40
0.7705751063
 40
0.8056880476
 40
0.8230270708
 40
0.8401970064
 40
0.873963463
 40
0.8905406748
 40
0.9068966476
 40
0.9389024361
 40
0.9545479734
 40
0.9699475848
 40
1.0
 40
1.0
 40
1.0
 40
1.0
 10
14.9304127137
 20
12.0943739235
 30
0.0
 10
14.9298973284
 20
12.0927061361
 30
0.0
 10
14.9289610166
 20
12.0893695779
 30
0.0
 10
14.9278397268
 20
12.0843358839
 30
0.0
 10
14.9270158013
 20
12.0793256446
 30
0.0
 10
14.9264913244
 20
12.0743512353
 30
0.0
 10
14.9262676594
 20
12.0694245052
 30
0.0
 10
14.9263454419
 20
12.0645573936
 30
0.0
 10
14.9267245876
 20
12.0597616805
 30
0.0
 10
14.927404298
 20
12.0550489999
 30
0.0
 10
14.9283829809
 20
12.050430807
 30
0.0
 10
14.929658333
 20
12.0459183481
 30
0.0
 10
14.9312273346
 20
12.0415226393
 30
0.0
 10
14.9330861734
 20
12.0372544051
 30
0.0
 10
14.9352303205
 20
12.0331240571
 30
0.0
 10
14.937654561
 20
12.0291416803
 30
0.0
 10
14.9403529531
 20
12.0253169713
 30
0.0
 10
14.9433188589
 20
12.021659204
 30
0.0
 10
14.9465450175
 20
12.018177241
 30
0.0
 10
14.9500235409
 20
12.0148795002
 30
0.0
 10
14.9537459036
 20
12.0117738909
 30
0.0
 10
14.9577030282
 20
12.0088678544
 30
0.0
 10
14.9618853032
 20
12.0061683569
 30
0.0
 10
14.9662825612
 20
12.0036818172
 30
0.0
 10
14.9708841583
 20
12.0014141314
 30
0.0
 10
14.9756789332
 20
11.9993707101
 30
0.0
 10
14.9806554933
 20
11.9975563563
 30
0.0
 10
14.9875712751
 20
11.9954316841
 30
0.0
 10
14.9947521227
 20
11.9938057551
 30
0.0
 10
15.002131809
 20
11.9926674412
 30
0.0
 10
15.0097812667
 20
11.9918406818
 30
0.0
 10
15.0175861895
 20
11.9915195162
 30
0.0
 10
15.0254902726
 20
11.9916855188
 30
0.0
 10
15.0335728148
 20
11.9921848089
 30
0.0
 10
15.0437822331
 20
11.9934326129
 30
0.0
 10
15.0560364875
 20
11.9958896467
 30
0.0
 10
15.0682441844
 20
11.9992907875
 30
0.0
 10
15.0802881983
 20
12.0036033061
 30
0.0
 10
15.0920536078
 20
12.0087858504
 30
0.0
 10
15.1034278568
 20
12.0147888545
 30
0.0
 10
15.1143023093
 20
12.021554999
 30
0.0
 10
15.1245725895
 20
12.0290193909
 30
0.0
 10
15.1325804936
 20
12.0357916547
 30
0.0
 10
15.1385927241
 20
12.0414959279
 30
0.0
 10
15.1442678149
 20
12.0473134243
 30
0.0
 10
15.1495374072
 20
12.0533927547
 30
0.0
 10
15.1543538997
 20
12.0597051333
 30
0.0
 10
15.1587780318
 20
12.0660442265
 30
0.0
 10
15.1627292915
 20
12.0725711785
 30
0.0
 10
15.1661581716
 20
12.0792485804
 30
0.0
 10
15.1691677794
 20
12.0858698379
 30
0.0
 10
15.1710431396
 20
12.0909567744
 30
0.0
 10
15.1720991185
 20
12.0943739235
 30
0.0
  0
SPLINE
  5
2D3
100
AcDbEntity
  8
LAYER_FEATURE
100
AcDbSpline
 62
7
  6
CONTINUOUS
 70
0
 71
3
 72
18
 73
14
 74
0
 42
0.0000001
 43
0.0000001
 44
0.0000000001
 40
0.0
 40
0.0
 40
0.0
 40
0.0
 40
0.0594178382
 40
0.1190472065
 40
0.1789383005
 40
0.2391395468
 40
0.2996975169
 40
0.3606564669
 40
0.4839175839
 40
0.6092512808
 40
0.7369136043
 40
0.8671111748
 40
1.0
 40
1.0
 40
1.0
 40
1.0
 10
14.9097698758
 20
12.0120865615
 30
0.0
 10
14.9093713543
 20
12.0132672653
 30
0.0
 10
14.908623991
 20
12.0156504713
 30
0.0
 10
14.9076554932
 20
12.0192772723
 30
0.0
 10
14.9068387933
 20
12.0229581365
 30
0.0
 10
14.9061746427
 20
12.0266892898
 30
0.0
 10
14.9056637599
 20
12.0304671441
 30
0.0
 10
14.9051857566
 20
12.0355796793
 30
0.0
 10
14.9049776748
 20
12.0420761231
 30
0.0
 10
14.9053472253
 20
12.0499662124
 30
0.0
 10
14.9063330567
 20
12.05794974
 30
0.0
 10
14.9079307538
 20
12.0659943461
 30
0.0
 10
14.9093844248
 20
12.0713223359
 30
0.0
 10
14.9102072863
 20
12.0739851165
 30
0.0
  0
SPLINE
  5
2D4
100
AcDbEntity
  8
02___PRT_ALL_AXES
100
AcDbSpline
 62
7
  6
CONTINUOUS
 70
0
 71
3
 72
48
 73
44
 74
0
 42
0.0000001
 43
0.0000001
 44
0.0000000001
 40
0.0
 40
0.0
 40
0.0
 40
0.0
 40
0.0109495556
 40
0.0219729026
 40
0.0330950457
 40
0.0443399434
 40
0.0557300297
 40
0.0672862193
 40
0.0790275007
 40
0.0909709843
 40
0.1155167468
 40
0.1281482435
 40
0.1410290094
 40
0.1541655161
 40
0.1675619956
 40
0.1812208602
 40
0.195142406
 40
0.2093253011
 40
0.2237663824
 40
0.2384610352
 40
0.2534031739
 40
0.2839965371
 40
0.3154782115
 40
0.3477635066
 40
0.3807589069
 40
0.4143660677
 40
0.448485222
 40
0.4830178986
 40
0.5178689683
 40
0.5529480954
 40
0.5881706234
 40
0.6234581299
 40
0.6587386446
 40
0.6939467644
 40
0.7290235907
 40
0.7639167549
 40
0.798580378
 40
0.8329751227
 40
0.8670682344
 40
0.9008335539
 40
0.9342516673
 40
0.967309245
 40
1.0
 40
1.0
 40
1.0
 40
1.0
 10
14.9090840693
 20
12.0118215914
 30
0.0
 10
14.9085753505
 20
12.0128582529
 30
0.0
 10
14.9076106006
 20
12.0149666272
 30
0.0
 10
14.9063295853
 20
12.0182149723
 30
0.0
 10
14.9052115346
 20
12.021555878
 30
0.0
 10
14.9042572963
 20
12.0249872858
 30
0.0
 10
14.903467403
 20
12.0285070915
 30
0.0
 10
14.9028423808
 20
12.0321129345
 30
0.0
 10
14.9023825287
 20
12.0358023713
 30
0.0
 10
14.9019863374
 20
12.0408747976
 30
0.0
 10
14.9019307824
 20
12.0460624412
 30
0.0
 10
14.9021968079
 20
12.0513358721
 30
0.0
 10
14.9025628767
 20
12.0553964803
 30
0.0
 10
14.9030930354
 20
12.0595201016
 30
0.0
 10
14.9037864633
 20
12.0637026084
 30
0.0
 10
14.9046422456
 20
12.0679393717
 30
0.0
 10
14.9056591963
 20
12.0722256013
 30
0.0
 10
14.9068360167
 20
12.0765562217
 30
0.0
 10
14.9081711635
 20
12.0809259536
 30
0.0
 10
14.9096629566
 20
12.0853293388
 30
0.0
 10
14.9118756546
 20
12.091284238
 30
0.0
 10
14.9150281094
 20
12.0987747243
 30
0.0
 10
14.9193724637
 20
12.1077325415
 30
0.0
 10
14.9242875494
 20
12.1166804248
 30
0.0
 10
14.9297513832
 20
12.125568143
 30
0.0
 10
14.9357408092
 20
12.1343455458
 30
0.0
 10
14.9422316642
 20
12.1429627216
 30
0.0
 10
14.949199074
 20
12.1513704746
 30
0.0
 10
14.9566175824
 20
12.1595205485
 30
0.0
 10
14.9644611747
 20
12.167365781
 30
0.0
 10
14.972703183
 20
12.1748601849
 30
0.0
 10
14.9813160846
 20
12.1819590025
 30
0.0
 10
14.9902712257
 20
12.1886187794
 30
0.0
 10
14.9995384819
 20
12.1947974858
 30
0.0
 10
15.0090859057
 20
12.2004547216
 30
0.0
 10
15.0188793773
 20
12.2055520222
 30
0.0
 10
15.0288823172
 20
12.2100532742
 30
0.0
 10
15.039055471
 20
12.2139252375
 30
0.0
 10
15.0493568458
 20
12.2171381434
 30
0.0
 10
15.0597416964
 20
12.2196663691
 30
0.0
 10
15.0701630267
 20
12.2214890413
 30
0.0
 10
15.0805709083
 20
12.2225907436
 30
0.0
 10
15.0875071782
 20
12.2228395366
 30
0.0
 10
15.0909547931
 20
12.2228395366
 30
0.0
  0
SPLINE
  5
2D5
100
AcDbEntity
  8
LAYER_FEATURE
100
AcDbSpline
 62
7
  6
CONTINUOUS
 70
0
 71
3
 72
30
 73
26
 74
0
 42
0.0000001
 43
0.0000001
 44
0.0000000001
 40
0.0
 40
0.0
 40
0.0
 40
0.0
 40
0.0272340165
 40
0.0549162714
 40
0.08304779
 40
0.1116284896
 40
0.1700953548
 40
0.1999737982
 40
0.2302563739
 40
0.291939604
 40
0.3233049558
 40
0.3549791916
 40
0.4191221173
 40
0.4515370406
 40
0.4841314166
 40
0.5497038243
 40
0.6155538646
 40
0.6813783909
 40
0.7468748968
 40
0.7794129905
 40
0.8117598581
 40
0.8757330672
 40
0.9073069537
 40
0.9385620119
 40
1.0
 40
1.0
 40
1.0
 40
1.0
 10
14.9102072863
 20
12.0739851165
 30
0.0
 10
14.9108620974
 20
12.076104086
 30
0.0
 10
14.9122962442
 20
12.0803425973
 30
0.0
 10
14.9147885098
 20
12.0866325946
 30
0.0
 10
14.9176335555
 20
12.0928920137
 30
0.0
 10
14.9219195111
 20
12.1012384169
 30
0.0
 10
14.926858653
 20
12.109397266
 30
0.0
 10
14.9323888149
 20
12.1173210949
 30
0.0
 10
14.9384094184
 20
12.1252115891
 30
0.0
 10
14.9449964084
 20
12.1328107279
 30
0.0
 10
14.9520902975
 20
12.1400826261
 30
0.0
 10
14.959605463
 20
12.1472128726
 30
0.0
 10
14.9675879386
 20
12.1539636129
 30
0.0
 10
14.9759812745
 20
12.1603048469
 30
0.0
 10
14.9846951996
 20
12.1664036933
 30
0.0
 10
14.9960465404
 20
12.1734665831
 30
0.0
 10
15.0102641938
 20
12.1809701862
 30
0.0
 10
15.0249706934
 20
12.1874483234
 30
0.0
 10
15.0375453896
 20
12.1919508198
 30
0.0
 10
15.0477230761
 20
12.1949834414
 30
0.0
 10
15.0578842576
 20
12.1976115023
 30
0.0
 10
15.0681076173
 20
12.1996613245
 30
0.0
 10
15.0783345557
 20
12.2011065828
 30
0.0
 10
15.088404081
 20
12.2021318468
 30
0.0
 10
15.0959568808
 20
12.2024507297
 30
0.0
 10
15.1009601663
 20
12.2024507297
 30
0.0
  0
SPLINE
  5
2D6
100
AcDbEntity
  8
LAYER_FEATURE
100
AcDbSpline
 62
7
  6
CONTINUOUS
 70
0
 71
3
 72
22
 73
18
 74
0
 42
0.0000001
 43
0.0000001
 44
0.0000000001
 40
0.0
 40
0.0
 40
0.0
 40
0.0
 40
0.1400734087
 40
0.2084643017
 40
0.2756990934
 40
0.3417578577
 40
0.406635283
 40
0.4703400466
 40
0.5328959724
 40
0.594342448
 40
0.6547347972
 40
0.7141443426
 40
0.7726581484
 40
0.8303783809
 40
0.8874212331
 40
0.943915385
 40
1.0
 40
1.0
 40
1.0
 40
1.0
 10
15.1009601663
 20
12.2024507297
 30
0.0
 10
15.1064107581
 20
12.2024507297
 30
0.0
 10
15.1145307468
 20
12.2020773182
 30
0.0
 10
15.1251836677
 20
12.2007816318
 30
0.0
 10
15.1329191034
 20
12.1994346172
 30
0.0
 10
15.1404385897
 20
12.197708704
 30
0.0
 10
15.1477198196
 20
12.1956089667
 30
0.0
 10
15.1547407228
 20
12.1931415905
 30
0.0
 10
15.1614801055
 20
12.1903138616
 30
0.0
 10
15.1679175569
 20
12.1871341412
 30
0.0
 10
15.1740335473
 20
12.1836118555
 30
0.0
 10
15.1798094682
 20
12.1797574759
 30
0.0
 10
15.1852276979
 20
12.1755824881
 30
0.0
 10
15.1902716244
 20
12.171099422
 30
0.0
 10
15.1949258246
 20
12.166321647
 30
0.0
 10
15.1991756825
 20
12.1612640153
 30
0.0
 10
15.2017383721
 20
12.1577050641
 30
0.0
 10
15.2029455913
 20
12.155886979
 30
0.0
  0
SPLINE
  5
2D7
100
AcDbEntity
  8
LAYER_FEATURE
100
AcDbSpline
 62
7
  6
CONTINUOUS
 70
0
 71
3
 72
57
 73
53
 74
0
 42
0.0000001
 43
0.0000001
 44
0.0000000001
 40
0.0
 40
0.0
 40
0.0
 40
0.0
 40
0.0300524152
 40
0.0454520266
 40
0.0610975639
 40
0.0931033524
 40
0.1094593252
 40
0.126036537
 40
0.1598029936
 40
0.1769729292
 40
0.1943119524
 40
0.2294248937
 40
0.2650062137
 40
0.3009016805
 40
0.3369491249
 40
0.3729826038
 40
0.4088365196
 40
0.44434974
 40
0.4793697828
 40
0.5137570392
 40
0.5306777525
 40
0.5473960809
 40
0.5801722473
 40
0.5962189267
 40
0.6120261568
 40
0.6428975506
 40
0.6579684873
 40
0.672795739
 40
0.687384294
 40
0.7017417566
 40
0.7158783936
 40
0.7298071193
 40
0.7435434776
 40
0.7571055814
 40
0.7705139493
 40
0.7837913078
 40
0.7969623512
 40
0.8100534097
 40
0.823092068
 40
0.836106752
 40
0.8491262776
 40
0.8621793828
 40
0.8752942632
 40
0.8884981225
 40
0.9018167815
 40
0.9152743134
 40
0.9288927104
 40
0.9426917575
 40
0.9566886547
 40
0.9708978728
 40
0.9853324985
 40
1.0
 40
1.0
 40
1.0
 40
1.0
 10
14.9304127137
 20
12.0943739235
 30
0.0
 10
14.9314686926
 20
12.0977910725
 30
0.0
 10
14.9333440527
 20
12.102878009
 30
0.0
 10
14.9363536605
 20
12.1094992665
 30
0.0
 10
14.9397825406
 20
12.1161766685
 30
0.0
 10
14.9437338004
 20
12.1227036205
 30
0.0
 10
14.9481579325
 20
12.1290427136
 30
0.0
 10
14.9529744249
 20
12.1353550922
 30
0.0
 10
14.9582440173
 20
12.1414344226
 30
0.0
 10
14.9639191081
 20
12.1472519191
 30
0.0
 10
14.9699313385
 20
12.1529561922
 30
0.0
 10
14.9779392426
 20
12.159728456
 30
0.0
 10
14.9882095229
 20
12.1671928479
 30
0.0
 10
14.9990839753
 20
12.1739589924
 30
0.0
 10
15.0104582244
 20
12.1799619965
 30
0.0
 10
15.0222236339
 20
12.1851445408
 30
0.0
 10
15.0342676477
 20
12.1894570594
 30
0.0
 10
15.0464753447
 20
12.1928582003
 30
0.0
 10
15.058729599
 20
12.195315234
 30
0.0
 10
15.0689390173
 20
12.196563038
 30
0.0
 10
15.0770215595
 20
12.1970623281
 30
0.0
 10
15.0849256426
 20
12.1972283307
 30
0.0
 10
15.0927305655
 20
12.1969071651
 30
0.0
 10
15.1003800231
 20
12.1960804057
 30
0.0
 10
15.1077597095
 20
12.1949420918
 30
0.0
 10
15.114940557
 20
12.1933161628
 30
0.0
 10
15.1218563388
 20
12.1911914906
 30
0.0
 10
15.1268328989
 20
12.1893771368
 30
0.0
 10
15.1316276738
 20
12.1873337156
 30
0.0
 10
15.1362292709
 20
12.1850660298
 30
0.0
 10
15.140626529
 20
12.18257949
 30
0.0
 10
15.144808804
 20
12.1798799925
 30
0.0
 10
15.1487659285
 20
12.176973956
 30
0.0
 10
15.1524882913
 20
12.1738683467
 30
0.0
 10
15.1559668147
 20
12.1705706059
 30
0.0
 10
15.1591929733
 20
12.167088643
 30
0.0
 10
15.1621588791
 20
12.1634308756
 30
0.0
 10
15.1648572711
 20
12.1596061666
 30
0.0
 10
15.1672815117
 20
12.1556237898
 30
0.0
 10
15.1694256587
 20
12.1514934419
 30
0.0
 10
15.1712844975
 20
12.1472252076
 30
0.0
 10
15.1728534991
 20
12.1428294989
 30
0.0
 10
15.1741288512
 20
12.1383170399
 30
0.0
 10
15.1751075341
 20
12.1336988471
 30
0.0
 10
15.1757872446
 20
12.1289861664
 30
0.0
 10
15.1761663902
 20
12.1241904533
 30
0.0
 10
15.1762441728
 20
12.1193233417
 30
0.0
 10
15.1760205078
 20
12.1143966116
 30
0.0
 10
15.1754960309
 20
12.1094222023
 30
0.0
 10
15.1746721053
 20
12.104411963
 30
0.0
 10
15.1735508156
 20
12.099378269
 30
0.0
 10
15.1726145038
 20
12.0960417109
 30
0.0
 10
15.1720991185
 20
12.0943739235
 30
0.0
  0
SPLINE
  5
2D8
100
AcDbEntity
  8
LAYER_CHAMFER_FEAT
100
AcDbSpline
 62
7
  6
CONTINUOUS
 70
0
 71
3
 72
51
 73
47
 74
0
 42
0.0000001
 43
0.0000001
 44
0.0000000001
 40
0.0
 40
0.0
 40
0.0
 40
0.0
 40
0.0357329104
 40
0.0703696342
 40
0.1039007304
 40
0.1363312953
 40
0.1676824085
 40
0.1979925563
 40
0.2273189265
 40
0.2416393763
 40
0.2557444228
 40
0.2696468673
 40
0.2833607235
 40
0.2969012778
 40
0.3102849552
 40
0.3235293386
 40
0.3366530036
 40
0.3496754852
 40
0.3626170876
 40
0.375498794
 40
0.3883420639
 40
0.4011686902
 40
0.4140006008
 40
0.4268596779
 40
0.4397675824
 40
0.4527455564
 40
0.4658142861
 40
0.4789937097
 40
0.4923029282
 40
0.5057600367
 40
0.5193820844
 40
0.5331849406
 40
0.5471832968
 40
0.5758130785
 40
0.6053700967
 40
0.6359264352
 40
0.6675346716
 40
0.7002289748
 40
0.734026443
 40
0.7689285394
 40
0.8049225372
 40
0.841982895
 40
0.8800726105
 40
0.9191443142
 40
0.9591417025
 40
1.0
 40
1.0
 40
1.0
 40
1.0
 10
15.3942393834
 20
11.6015583307
 30
0.0
 10
15.3972182894
 20
11.5982984264
 30
0.0
 10
15.4029265989
 20
11.5917315466
 30
0.0
 10
15.4108235554
 20
11.5815987441
 30
0.0
 10
15.4178981749
 20
11.5713668656
 30
0.0
 10
15.4241264252
 20
11.5610698341
 30
0.0
 10
15.4294873422
 20
11.5507411546
 30
0.0
 10
15.4339623934
 20
11.5404151924
 30
0.0
 10
15.4369641385
 20
11.5317717266
 30
0.0
 10
15.4388959254
 20
11.5248992475
 30
0.0
 10
15.4401036783
 20
11.5198079573
 30
0.0
 10
15.4410806622
 20
11.5147437178
 30
0.0
 10
15.4418259692
 20
11.5097106622
 30
0.0
 10
15.4423390096
 20
11.5047130374
 30
0.0
 10
15.442619221
 20
11.4997550165
 30
0.0
 10
15.442666422
 20
11.4948407737
 30
0.0
 10
15.4424804326
 20
11.4899744435
 30
0.0
 10
15.4420614776
 20
11.485160129
 30
0.0
 10
15.4414097735
 20
11.4804019076
 30
0.0
 10
15.4405259539
 20
11.4757037934
 30
0.0
 10
15.4394106419
 20
11.4710697873
 30
0.0
 10
15.4380648784
 20
11.4665037929
 30
0.0
 10
15.4364896984
 20
11.4620097112
 30
0.0
 10
15.4346865426
 20
11.4575913138
 30
0.0
 10
15.4326568563
 20
11.4532523769
 30
0.0
 10
15.4304024666
 20
11.448996521
 30
0.0
 10
15.4279252207
 20
11.4448273753
 30
0.0
 10
15.4252273149
 20
11.4407483949
 30
0.0
 10
15.4223109864
 20
11.4367630444
 30
0.0
 10
15.4191787787
 20
11.4328746022
 30
0.0
 10
15.4158333206
 20
11.4290863679
 30
0.0
 10
15.4122774236
 20
11.4254013908
 30
0.0
 10
15.4072223804
 20
11.4205944265
 30
0.0
 10
15.400374769
 20
11.4148599317
 30
0.0
 10
15.3914320093
 20
11.4084937001
 30
0.0
 10
15.381731772
 20
11.4026105915
 30
0.0
 10
15.3713070381
 20
11.3972297602
 30
0.0
 10
15.3601924801
 20
11.392368266
 30
0.0
 10
15.3484250745
 20
11.3880417138
 30
0.0
 10
15.3360438494
 20
11.3842640112
 30
0.0
 10
15.3230898519
 20
11.3810473654
 30
0.0
 10
15.3096060138
 20
11.3784022039
 30
0.0
 10
15.2956370713
 20
11.3763371389
 30
0.0
 10
15.2812292817
 20
11.3748588945
 30
0.0
 10
15.26643078
 20
11.3739723102
 30
0.0
 10
15.2564371622
 20
11.3737795526
 30
0.0
 10
15.2513877744
 20
11.3737795526
 30
0.0
  0
SPLINE
  5
2D9
100
AcDbEntity
  8
LAYER_FEATURE
100
AcDbSpline
 62
7
  6
CONTINUOUS
 70
0
 71
3
 72
22
 73
18
 74
0
 42
0.0000001
 43
0.0000001
 44
0.0000000001
 40
0.0
 40
0.0
 40
0.0
 40
0.0
 40
0.1381198799
 40
0.2053665018
 40
0.2714548418
 40
0.3364371496
 40
0.400372593
 40
0.4633278335
 40
0.5253764037
 40
0.5865986181
 40
0.6470813095
 40
0.7069174386
 40
0.7662055028
 40
0.8250488576
 40
0.883554958
 40
0.941834416
 40
1.0
 40
1.0
 40
1.0
 40
1.0
 10
15.8700671736
 20
11.9754889497
 30
0.0
 10
15.8739278039
 20
11.9676218123
 30
0.0
 10
15.8792474434
 20
11.9557085877
 30
0.0
 10
15.8853146687
 20
11.9395858452
 30
0.0
 10
15.8892598508
 20
11.9276334909
 30
0.0
 10
15.8926357211
 20
11.915726369
 30
0.0
 10
15.8954390645
 20
11.9038755069
 30
0.0
 10
15.8976670135
 20
11.8920923345
 30
0.0
 10
15.8993173394
 20
11.8803881127
 30
0.0
 10
15.900388326
 20
11.8687740839
 30
0.0
 10
15.9008787783
 20
11.8572614214
 30
0.0
 10
15.9007881259
 20
11.8458612382
 30
0.0
 10
15.9001163427
 20
11.834584552
 30
0.0
 10
15.8988639494
 20
11.8234423308
 30
0.0
 10
15.8970320691
 20
11.812445292
 30
0.0
 10
15.8946225583
 20
11.8016045394
 30
0.0
 10
15.8926316685
 20
11.7944852844
 30
0.0
 10
15.8915420753
 20
11.790959344
 30
0.0
  0
SPLINE
  5
2DA
100
AcDbEntity
  8
LAYER_FEATURE
100
AcDbSpline
 62
7
  6
CONTINUOUS
 70
0
 71
3
 72
78
 73
74
 74
0
 42
0.0000001
 43
0.0000001
 44
0.0000000001
 40
0.0
 40
0.0
 40
0.0
 40
0.0
 40
0.0171786289
 40
0.0345302627
 40
0.0520440738
 40
0.0697096817
 40
0.087515905
 40
0.1054513899
 40
0.1235044662
 40
0.1416632022
 40
0.1599154427
 40
0.1782488293
 40
0.1966508312
 40
0.2151087722
 40
0.2336098599
 40
0.2521412119
 40
0.2706898829
 40
0.2892428916
 40
0.3077872476
 40
0.326309979
 40
0.3447981584
 40
0.3632389296
 40
0.3816195358
 40
0.3999273469
 40
0.4181498865
 40
0.4362748597
 40
0.454290181
 40
0.4721840057
 40
0.4899447577
 40
0.5075611589
 40
0.5250222598
 40
0.5423174722
 40
0.5594366031
 40
0.5763698869
 40
0.5931080191
 40
0.6096421926
 40
0.6259641369
 40
0.6420661586
 40
0.657941179
 40
0.6735827768
 40
0.6889852325
 40
0.7041435781
 40
0.719053645
 40
0.7337121123
 40
0.7481165595
 40
0.762265522
 40
0.7761585509
 40
0.7897962684
 40
0.8031804247
 40
0.816313957
 40
0.829201048
 40
0.841847184
 40
0.8542592029
 40
0.8603802803
 40
0.8664460367
 40
0.8784159533
 40
0.8901807754
 40
0.9017530966
 40
0.9131469692
 40
0.9243778745
 40
0.935462669
 40
0.9409563759
 40
0.9464204658
 40
0.9518573916
 40
0.9572696695
 40
0.9626598802
 40
0.9680306552
 40
0.9733846778
 40
0.978724673
 40
0.9840534015
 40
0.9893736548
 40
0.9946882449
 40
1.0
 40
1.0
 40
1.0
 40
1.0
 10
15.3162993906
 20
13.7564178267
 30
0.0
 10
15.3268884261
 20
13.7564178267
 30
0.0
 10
15.3481738182
 20
13.7561848254
 30
0.0
 10
15.3802397273
 20
13.7551495565
 30
0.0
 10
15.4125768059
 20
13.7534277092
 30
0.0
 10
15.4451510274
 20
13.7510211557
 30
0.0
 10
15.4779286912
 20
13.7479323483
 30
0.0
 10
15.5108756126
 20
13.7441645203
 30
0.0
 10
15.5439575194
 20
13.7397215963
 30
0.0
 10
15.5771399768
 20
13.7346082026
 30
0.0
 10
15.610388446
 20
13.7288296627
 30
0.0
 10
15.6436683189
 20
13.7223919852
 30
0.0
 10
15.6769449529
 20
13.7153018708
 30
0.0
 10
15.7101837096
 20
13.7075667061
 30
0.0
 10
15.7433499889
 20
13.6991945442
 30
0.0
 10
15.7764092654
 20
13.690194099
 30
0.0
 10
15.809327123
 20
13.6805747335
 30
0.0
 10
15.8420692945
 20
13.6703464635
 30
0.0
 10
15.874601697
 20
13.6595199417
 30
0.0
 10
15.9068904649
 20
13.6481064386
 30
0.0
 10
15.9389019854
 20
13.6361178337
 30
0.0
 10
15.9706029325
 20
13.6235666008
 30
0.0
 10
16.0019603082
 20
13.6104658096
 30
0.0
 10
16.0329414734
 20
13.5968291007
 30
0.0
 10
16.0635141794
 20
13.5826706685
 30
0.0
 10
16.0936466015
 20
13.5680052473
 30
0.0
 10
16.1233073731
 20
13.5528480962
 30
0.0
 10
16.1524656253
 20
13.537214996
 30
0.0
 10
16.1810910127
 20
13.5211222178
 30
0.0
 10
16.2091537435
 20
13.5045865079
 30
0.0
 10
16.2366246093
 20
13.4876250683
 30
0.0
 10
16.2634750202
 20
13.4702555433
 30
0.0
 10
16.2896770399
 20
13.4524960083
 30
0.0
 10
16.3152034056
 20
13.434364937
 30
0.0
 10
16.3400275562
 20
13.4158811856
 30
0.0
 10
16.3641236584
 20
13.3970639697
 30
0.0
 10
16.3874666414
 20
13.3779328527
 30
0.0
 10
16.4100322247
 20
13.3585077247
 30
0.0
 10
16.4317969328
 20
13.3388087724
 30
0.0
 10
16.4527381205
 20
13.3188564611
 30
0.0
 10
16.4728339932
 20
13.2986715092
 30
0.0
 10
16.492063643
 20
13.278274878
 30
0.0
 10
16.5104070631
 20
13.2576877419
 30
0.0
 10
16.5278451602
 20
13.236931463
 30
0.0
 10
16.5443597736
 20
13.2160275701
 30
0.0
 10
16.5599336907
 20
13.1949977341
 30
0.0
 10
16.5745506812
 20
13.1738637568
 30
0.0
 10
16.5881954968
 20
13.1526475396
 30
0.0
 10
16.6008538835
 20
13.1313710544
 30
0.0
 10
16.6125125813
 20
13.1100563552
 30
0.0
 10
16.6231593814
 20
13.0887254401
 30
0.0
 10
16.6327829949
 20
13.0674006643
 30
0.0
 10
16.6399746762
 20
13.0495713679
 30
0.0
 10
16.6451987862
 20
13.0353357198
 30
0.0
 10
16.6500284454
 20
13.0212493054
 30
0.0
 10
16.6554190818
 20
13.0036820165
 30
0.0
 10
16.6608591575
 20
12.9826015931
 30
0.0
 10
16.665235935
 20
12.9616370598
 30
0.0
 10
16.6685445043
 20
12.9408103835
 30
0.0
 10
16.6707811562
 20
12.9201436535
 30
0.0
 10
16.6717524231
 20
12.9030208458
 30
0.0
 10
16.6719866372
 20
12.8894343342
 30
0.0
 10
16.6718930739
 20
12.8793276909
 30
0.0
 10
16.6715307945
 20
12.8692773822
 30
0.0
 10
16.6708998497
 20
12.8592859539
 30
0.0
 10
16.6700004572
 20
12.8493560367
 30
0.0
 10
16.6688327937
 20
12.8394902245
 30
0.0
 10
16.6673971818
 20
12.8296910992
 30
0.0
 10
16.6656940091
 20
12.8199612181
 30
0.0
 10
16.6637236683
 20
12.8103031442
 30
0.0
 10
16.661486726
 20
12.8007193666
 30
0.0
 10
16.6589837483
 20
12.7912125014
 30
0.0
 10
16.6571379446
 20
12.7849267214
 30
0.0
 10
16.6561712459
 20
12.7817984765
 30
0.0
  0
SPLINE
  5
2DB
100
AcDbEntity
  8
LAYER_FEATURE
100
AcDbSpline
 62
7
  6
CONTINUOUS
 70
0
 71
3
 72
54
 73
50
 74
0
 42
0.0000001
 43
0.0000001
 44
0.0000000001
 40
0.0
 40
0.0
 40
0.0
 40
0.0
 40
0.0413514713
 40
0.0820487311
 40
0.1220520835
 40
0.1613250061
 40
0.1998349696
 40
0.2375535759
 40
0.2744570321
 40
0.31052654
 40
0.3457487439
 40
0.3801161935
 40
0.41362783
 40
0.4462894872
 40
0.4781143983
 40
0.5091236928
 40
0.5393468621
 40
0.568822163
 40
0.5975969218
 40
0.6117407661
 40
0.6257314705
 40
0.6395775282
 40
0.6532880078
 40
0.6668725032
 40
0.680341141
 40
0.6937045314
 40
0.7069737527
 40
0.7201603029
 40
0.7332760628
 40
0.7463332467
 40
0.7593443474
 40
0.7723220845
 40
0.7852793386
 40
0.7982290939
 40
0.8111843706
 40
0.8241581614
 40
0.8371633691
 40
0.8502127383
 40
0.8633188041
 40
0.8764938222
 40
0.8897497314
 40
0.9030980874
 40
0.9165500372
 40
0.9301162633
 40
0.9438069669
 40
0.9576318271
 40
0.9715999884
 40
0.9857200397
 40
1.0
 40
1.0
 40
1.0
 40
1.0
 10
15.3386658054
 20
13.6470095548
 30
0.0
 10
15.3258434929
 20
13.6470095548
 30
0.0
 10
15.3003999268
 20
13.6466322889
 30
0.0
 10
15.262587366
 20
13.64490574
 30
0.0
 10
15.2254908425
 20
13.6420262158
 30
0.0
 10
15.1891833254
 20
13.6379992702
 30
0.0
 10
15.1537357276
 20
13.6328327172
 30
0.0
 10
15.1192173697
 20
13.6265365496
 30
0.0
 10
15.0856957147
 20
13.619122946
 30
0.0
 10
15.05323627
 20
13.6106062221
 30
0.0
 10
15.0219024589
 20
13.6010027999
 30
0.0
 10
14.991755509
 20
13.5903311639
 30
0.0
 10
14.9628543448
 20
13.578611815
 30
0.0
 10
14.9352554983
 20
13.5658672281
 30
0.0
 10
14.9090130031
 20
13.5521217846
 30
0.0
 10
14.8841783946
 20
13.5374017999
 30
0.0
 10
14.8608003787
 20
13.5217352241
 30
0.0
 10
14.838925734
 20
13.505152549
 30
0.0
 10
14.8218876642
 20
13.4905120564
 30
0.0
 10
14.8090735153
 20
13.4783757728
 30
0.0
 10
14.7999189828
 20
13.4691177191
 30
0.0
 10
14.7911709341
 20
13.4596569306
 30
0.0
 10
14.7828335299
 20
13.4499979944
 30
0.0
 10
14.7749109841
 20
13.4401456142
 30
0.0
 10
14.7674071701
 20
13.4301046535
 30
0.0
 10
14.7603258589
 20
13.4198800062
 30
0.0
 10
14.7536705364
 20
13.4094767197
 30
0.0
 10
14.7474445379
 20
13.3988998941
 30
0.0
 10
14.7416509513
 20
13.3881547462
 30
0.0
 10
14.7362926613
 20
13.3772465735
 30
0.0
 10
14.7313723508
 20
13.3661807538
 30
0.0
 10
14.726892441
 20
13.3549627666
 30
0.0
 10
14.722855201
 20
13.343598143
 30
0.0
 10
14.7192625807
 20
13.3320925249
 30
0.0
 10
14.7161164244
 20
13.3204515881
 30
0.0
 10
14.7134182096
 20
13.3086811156
 30
0.0
 10
14.7111693431
 20
13.2967869169
 30
0.0
 10
14.7093708361
 20
13.2847748948
 30
0.0
 10
14.7080236442
 20
13.2726509801
 30
0.0
 10
14.7071283242
 20
13.260421176
 30
0.0
 10
14.7066853684
 20
13.2480915201
 30
0.0
 10
14.7066948931
 20
13.2356681005
 30
0.0
 10
14.7071569196
 20
13.2231570449
 30
0.0
 10
14.7080711362
 20
13.2105645163
 30
0.0
 10
14.7094370909
 20
13.1978967128
 30
0.0
 10
14.7112540506
 20
13.1851598735
 30
0.0
 10
14.7135211026
 20
13.1723602139
 30
0.0
 10
14.7162370583
 20
13.1595041828
 30
0.0
 10
14.71833398
 20
13.1509493687
 30
0.0
 10
14.7194552271
 20
13.146665735
 30
0.0
  0
SPLINE
  5
2DC
100
AcDbEntity
  8
LAYER_FEATURE
100
AcDbSpline
 62
7
  6
CONTINUOUS
 70
0
 71
3
 72
88
 73
84
 74
0
 42
0.0000001
 43
0.0000001
 44
0.0000000001
 40
0.0
 40
0.0
 40
0.0
 40
0.0
 40
0.0179857242
 40
0.0361822416
 40
0.0545741965
 40
0.0731459405
 40
0.0918810481
 40
0.1107626721
 40
0.1297734854
 40
0.1488957821
 40
0.1681115213
 40
0.187402388
 40
0.2067498479
 40
0.226135203
 40
0.2455396456
 40
0.2649443136
 40
0.284330344
 40
0.3036789276
 40
0.3229713631
 40
0.3421891117
 40
0.3613138524
 40
0.3803275378
 40
0.3992124506
 40
0.4179512616
 40
0.4365270884
 40
0.4549235562
 40
0.47312486
 40
0.4911158287
 40
0.5088819916
 40
0.5264096474
 40
0.5436859368
 40
0.5606989176
 40
0.5774376441
 40
0.5938922502
 40
0.6100540372
 40
0.6259155662
 40
0.6414707557
 40
0.6567149834
 40
0.6716451939
 40
0.6862600097
 40
0.7005598469
 40
0.7145470331
 40
0.7282259255
 40
0.7416030266
 40
0.7546870942
 40
0.7611231096
 40
0.767490241
 40
0.7800240085
 40
0.7923054333
 40
0.7983578078
 40
0.8043542636
 40
0.8102975085
 40
0.8161903984
 40
0.8220359422
 40
0.8278372849
 40
0.8335977159
 40
0.8393206479
 40
0.8450096219
 40
0.8506682875
 40
0.8563004007
 40
0.8619098074
 40
0.8675004343
 40
0.8730762752
 40
0.8786413763
 40
0.884199824
 40
0.8897557282
 40
0.8953132082
 40
0.900876378
 40
0.9064493301
 40
0.9120361221
 40
0.9176407611
 40
0.9232671905
 40
0.9289192772
 40
0.9346007976
 40
0.9403154301
 40
0.946066738
 40
0.95185817
 40
0.9576930394
 40
0.9635745315
 40
0.9695056825
 40
0.9754893884
 40
0.9876241005
 40
1.0
 40
1.0
 40
1.0
 40
1.0
 10
15.3386658054
 20
13.6470095548
 30
0.0
 10
15.3498280401
 20
13.6470095548
 30
0.0
 10
15.3722843148
 20
13.6467196437
 30
0.0
 10
15.4061328395
 20
13.6454344075
 30
0.0
 10
15.44030285
 20
13.6432979772
 30
0.0
 10
15.4747446161
 20
13.6403134863
 30
0.0
 10
15.5094085225
 20
13.63648522
 30
0.0
 10
15.5442444368
 20
13.6318187292
 30
0.0
 10
15.5792020408
 20
13.6263207499
 30
0.0
 10
15.6142308163
 20
13.6199992309
 30
0.0
 10
15.6492801459
 20
13.6128633061
 30
0.0
 10
15.6842993787
 20
13.604923288
 30
0.0
 10
15.7192379058
 20
13.5961906506
 30
0.0
 10
15.7540452338
 20
13.5866780139
 30
0.0
 10
15.7886710582
 20
13.5763991265
 30
0.0
 10
15.8230653366
 20
13.5653688441
 30
0.0
 10
15.8571783612
 20
13.5536031085
 30
0.0
 10
15.8909608313
 20
13.541118924
 30
0.0
 10
15.9243639245
 20
13.5279343329
 30
0.0
 10
15.9573393676
 20
13.5140683892
 30
0.0
 10
15.9898395071
 20
13.4995411306
 30
0.0
 10
16.0218173776
 20
13.4843735492
 30
0.0
 10
16.0532267707
 20
13.4685875612
 30
0.0
 10
16.0840223012
 20
13.452205974
 30
0.0
 10
16.1141594741
 20
13.4352524536
 30
0.0
 10
16.1435947487
 20
13.4177514899
 30
0.0
 10
16.1722856016
 20
13.3997283598
 30
0.0
 10
16.2001905881
 20
13.3812090897
 30
0.0
 10
16.2272694016
 20
13.3622204171
 30
0.0
 10
16.2534829318
 20
13.3427897508
 30
0.0
 10
16.2787933211
 20
13.3229451301
 30
0.0
 10
16.303164018
 20
13.3027151829
 30
0.0
 10
16.3265598293
 20
13.2821290827
 30
0.0
 10
16.34894697
 20
13.2612165052
 30
0.0
 10
16.3702931096
 20
13.2400075836
 30
0.0
 10
16.3905674178
 20
13.2185328633
 30
0.0
 10
16.4097406065
 20
13.1968232569
 30
0.0
 10
16.4277849672
 20
13.1749099974
 30
0.0
 10
16.4446744069
 20
13.1528245914
 30
0.0
 10
16.4603844784
 20
13.1305987773
 30
0.0
 10
16.4748924152
 20
13.1082644666
 30
0.0
 10
16.4881771367
 20
13.0858537486
 30
0.0
 10
16.5002193405
 20
13.0633986761
 30
0.0
 10
16.5110012716
 20
13.0409318472
 30
0.0
 10
16.5189662846
 20
13.0221237874
 30
0.0
 10
16.5246815387
 20
13.0071071152
 30
0.0
 10
16.5299058752
 20
12.9922743527
 30
0.0
 10
16.5356370004
 20
12.9737805601
 30
0.0
 10
16.5403270672
 20
12.9551961084
 30
0.0
 10
16.5434073104
 20
12.9404121407
 30
0.0
 10
16.5453754096
 20
12.929419183
 30
0.0
 10
16.5470117728
 20
12.9184720708
 30
0.0
 10
16.54831577
 20
12.9075746749
 30
0.0
 10
16.5492869653
 20
12.8967309743
 30
0.0
 10
16.5499249173
 20
12.8859448859
 30
0.0
 10
16.5502294572
 20
12.8752203302
 30
0.0
 10
16.5502003779
 20
12.8645611949
 30
0.0
 10
16.5498377468
 20
12.8539713529
 30
0.0
 10
16.5491416218
 20
12.8434546524
 30
0.0
 10
16.548112283
 20
12.8330149162
 30
0.0
 10
16.5467500734
 20
12.8226559421
 30
0.0
 10
16.545055474
 20
12.8123815019
 30
0.0
 10
16.5430291197
 20
12.8021953305
 30
0.0
 10
16.5406716939
 20
12.7921011471
 30
0.0
 10
16.5379841144
 20
12.7821026124
 30
0.0
 10
16.5349672818
 20
12.7722033884
 30
0.0
 10
16.5316223747
 20
12.7624070553
 30
0.0
 10
16.5279505351
 20
12.7527172061
 30
0.0
 10
16.5239531726
 20
12.7431373415
 30
0.0
 10
16.5196316941
 20
12.7336709683
 30
0.0
 10
16.5149877157
 20
12.7243215129
 30
0.0
 10
16.5100229206
 20
12.7150923784
 30
0.0
 10
16.5047391197
 20
12.7059869202
 30
0.0
 10
16.4991382698
 20
12.6970084254
 30
0.0
 10
16.4932223776
 20
12.6881601769
 30
0.0
 10
16.486993658
 20
12.679445341
 30
0.0
 10
16.4804543255
 20
12.6708671193
 30
0.0
 10
16.4736068253
 20
12.6624285596
 30
0.0
 10
16.4664536115
 20
12.6541327764
 30
0.0
 10
16.4589972789
 20
12.6459826649
 30
0.0
 10
16.4486072338
 20
12.6352648187
 30
0.0
 10
16.4348580416
 20
12.6222449551
 30
0.0
 10
16.423251655
 20
12.6123991669
 30
0.0
 10
16.4172675579
 20
12.6075842406
 30
0.0
  0
LINE
  5
2DD
100
AcDbEntity
  8
LAYER_FEATURE
100
AcDbLine
 62
7
  6
CONTINUOUS
 10
16.4959260487
 20
12.862393034
 11
16.4964144804
 21
12.8651635541
  0
SPLINE
  5
2DE
100
AcDbEntity
  8
LAYER_FEATURE
100
AcDbSpline
 62
7
  6
CONTINUOUS
 70
0
 71
3
 72
15
 73
11
 74
0
 42
0.0000001
 43
0.0000001
 44
0.0000000001
 40
0.0
 40
0.0
 40
0.0
 40
0.0
 40
0.1391429446
 40
0.273945047
 40
0.4045201665
 40
0.531010609
 40
0.6535859522
 40
0.7724478013
 40
0.8878297991
 40
1.0
 40
1.0
 40
1.0
 40
1.0
 10
15.7383425491
 20
11.595786418
 30
0.0
 10
15.7377869031
 20
11.5951207287
 30
0.0
 10
15.7366685948
 20
11.5938301706
 30
0.0
 10
15.7349424573
 20
11.5919920149
 30
0.0
 10
15.7331958717
 20
11.59028412
 30
0.0
 10
15.7314303573
 20
11.5887079519
 30
0.0
 10
15.729647336
 20
11.5872649099
 30
0.0
 10
15.727848279
 20
11.5859562261
 30
0.0
 10
15.7260347585
 20
11.5847831292
 30
0.0
 10
15.7248005464
 20
11.5840827962
 30
0.0
 10
15.7241821672
 20
11.5837568493
 30
0.0
  0
SPLINE
  5
2DF
100
AcDbEntity
  8
LAYER_FEATURE
100
AcDbSpline
 62
7
  6
CONTINUOUS
 70
0
 71
3
 72
16
 73
12
 74
0
 42
0.0000001
 43
0.0000001
 44
0.0000000001
 40
0.0
 40
0.0
 40
0.0
 40
0.0
 40
0.1144269037
 40
0.2300015382
 40
0.3478155451
 40
0.4688582648
 40
0.5939816043
 40
0.7238752012
 40
0.7908048183
 40
0.8591211325
 40
1.0
 40
1.0
 40
1.0
 40
1.0
 10
16.4343486761
 20
13.0827165475
 30
0.0
 10
16.434483585
 20
13.0831531177
 30
0.0
 10
16.4347008075
 20
13.0840483363
 30
0.0
 10
16.434861755
 20
13.0854311303
 30
0.0
 10
16.4348580961
 20
13.0868496842
 30
0.0
 10
16.4346901437
 20
13.088296359
 30
0.0
 10
16.4343592137
 20
13.089763816
 30
0.0
 10
16.4339533766
 20
13.0909858837
 30
0.0
 10
16.4335522297
 20
13.0919660392
 30
0.0
 10
16.4330900725
 20
13.0929674617
 30
0.0
 10
16.432691849
 20
13.0937031855
 30
0.0
 10
16.4324054811
 20
13.0941874154
 30
0.0
  0
SPLINE
  5
2E0
100
AcDbEntity
  8
LAYER_FEATURE
100
AcDbSpline
 62
7
  6
CONTINUOUS
 70
0
 71
3
 72
15
 73
11
 74
0
 42
0.0000001
 43
0.0000001
 44
0.0000000001
 40
0.0
 40
0.0
 40
0.0
 40
0.0
 40
0.1264595275
 40
0.2533685675
 40
0.3802894917
 40
0.5067845777
 40
0.6324203814
 40
0.7567725934
 40
0.8794298114
 40
1.0
 40
1.0
 40
1.0
 40
1.0
 10
16.3904063863
 20
12.940539806
 30
0.0
 10
16.3930104006
 20
12.9394897149
 30
0.0
 10
16.3982722098
 20
12.9374944049
 30
0.0
 10
16.4062857423
 20
12.9348270746
 30
0.0
 10
16.414402737
 20
12.93249006
 30
0.0
 10
16.4225814627
 20
12.9304953943
 30
0.0
 10
16.4307800867
 20
12.9288532676
 30
0.0
 10
16.4389566948
 20
12.9275720924
 30
0.0
 10
16.4470692281
 20
12.9266584285
 30
0.0
 10
16.4524594933
 20
12.9262939273
 30
0.0
 10
16.4551339005
 20
12.9261758813
 30
0.0
  0
SPLINE
  5
2E1
100
AcDbEntity
  8
LAYER_FEATURE
100
AcDbSpline
 62
7
  6
CONTINUOUS
 70
0
 71
3
 72
23
 73
19
 74
0
 42
0.0000001
 43
0.0000001
 44
0.0000000001
 40
0.0
 40
0.0
 40
0.0
 40
0.0
 40
0.0508918383
 40
0.102173039
 40
0.154218496
 40
0.2073756138
 40
0.2619547381
 40
0.318222103
 40
0.3763963714
 40
0.436648712
 40
0.4991032842
 40
0.5638399358
 40
0.6308985112
 40
0.7002818278
 40
0.7719568586
 40
0.8458627159
 40
0.9219215344
 40
1.0
 40
1.0
 40
1.0
 40
1.0
 10
16.2390418916
 20
13.2967678079
 30
0.0
 10
16.2391595275
 20
13.297148471
 30
0.0
 10
16.2393547492
 20
13.2979260483
 30
0.0
 10
16.2395226694
 20
13.2991238262
 30
0.0
 10
16.2395656742
 20
13.3003503375
 30
0.0
 10
16.239483766
 20
13.3016005677
 30
0.0
 10
16.2392774611
 20
13.302869727
 30
0.0
 10
16.2389477589
 20
13.3041529766
 30
0.0
 10
16.238496131
 20
13.3054455268
 30
0.0
 10
16.2379244044
 20
13.3067425758
 30
0.0
 10
16.2372348539
 20
13.3080393399
 30
0.0
 10
16.2364301652
 20
13.3093310553
 30
0.0
 10
16.2355133774
 20
13.3106129482
 30
0.0
 10
16.2344879677
 20
13.3118802818
 30
0.0
 10
16.2333578213
 20
13.313128374
 30
0.0
 10
16.2321271018
 20
13.3143526296
 30
0.0
 10
16.2308005063
 20
13.3155483855
 30
0.0
 10
16.2298671898
 20
13.3163140663
 30
0.0
 10
16.22938624
 20
13.3166913367
 30
0.0
  0
SPLINE
  5
2E2
100
AcDbEntity
  8
02___PRT_ALL_AXES
100
AcDbSpline
 62
7
  6
CONTINUOUS
 70
0
 71
3
 72
39
 73
35
 74
0
 42
0.0000001
 43
0.0000001
 44
0.0000000001
 40
0.0
 40
0.0
 40
0.0
 40
0.0
 40
0.039665376
 40
0.0788626128
 40
0.1175692063
 40
0.1557638027
 40
0.1934266652
 40
0.2305396236
 40
0.2670862412
 40
0.3030519235
 40
0.3384240487
 40
0.3731921006
 40
0.407347809
 40
0.4408852948
 40
0.4738012206
 40
0.5060949469
 40
0.5377686914
 40
0.5688276902
 40
0.5992803585
 40
0.629138447
 40
0.6584171907
 40
0.6871354428
 40
0.7153157888
 40
0.7429846311
 40
0.7701722372
 40
0.7969127398
 40
0.8232440799
 40
0.8492078826
 40
0.8748492571
 40
0.9002165152
 40
0.9253608059
 40
0.950335667
 40
0.9751965029
 40
1.0
 40
1.0
 40
1.0
 40
1.0
 10
14.9919496668
 20
11.9024588306
 30
0.0
 10
14.9861713028
 20
11.9024588306
 30
0.0
 10
14.9746823141
 20
11.9023292641
 30
0.0
 10
14.957563774
 20
11.9017386822
 30
0.0
 10
14.9406778644
 20
11.9007536496
 30
0.0
 10
14.924043742
 20
11.8993752653
 30
0.0
 10
14.9076801549
 20
11.8976050793
 30
0.0
 10
14.8916055685
 20
11.895445076
 30
0.0
 10
14.8758381147
 20
11.8928976788
 30
0.0
 10
14.8603955783
 20
11.8899657439
 30
0.0
 10
14.8452953753
 20
11.8866525573
 30
0.0
 10
14.8305545346
 20
11.88296183
 30
0.0
 10
14.8161896783
 20
11.8788976936
 30
0.0
 10
14.8022170046
 20
11.8744646941
 30
0.0
 10
14.7886522701
 20
11.8696677864
 30
0.0
 10
14.7755107737
 20
11.8645123275
 30
0.0
 10
14.7628073411
 20
11.8590040701
 30
0.0
 10
14.7505563096
 20
11.8531491553
 30
0.0
 10
14.7387715151
 20
11.8469541063
 30
0.0
 10
14.7274662789
 20
11.8404258205
 30
0.0
 10
14.7166533957
 20
11.8335715638
 30
0.0
 10
14.7063451226
 20
11.8263989641
 30
0.0
 10
14.6965531684
 20
11.8189160055
 30
0.0
 10
14.6872886838
 20
11.8111310234
 30
0.0
 10
14.6785622511
 20
11.8030527008
 30
0.0
 10
14.6703838728
 20
11.794690065
 30
0.0
 10
14.6627629602
 20
11.7860524855
 30
0.0
 10
14.6557083193
 20
11.7771496702
 30
0.0
 10
14.6492281364
 20
11.7679916663
 30
0.0
 10
14.6433299558
 20
11.758588841
 30
0.0
 10
14.6380206779
 20
11.7489519299
 30
0.0
 10
14.6333064755
 20
11.7390918202
 30
0.0
 10
14.6291930082
 20
11.7290202954
 30
0.0
 10
14.626853127
 20
11.7221689279
 30
0.0
 10
14.6257863035
 20
11.7187166883
 30
0.0
  0
SPLINE
  5
2E3
100
AcDbEntity
  8
LAYER_FEATURE
100
AcDbSpline
 62
7
  6
CONTINUOUS
 70
0
 71
3
 72
35
 73
31
 74
0
 42
0.0000001
 43
0.0000001
 44
0.0000000001
 40
0.0
 40
0.0
 40
0.0
 40
0.0
 40
0.0292591942
 40
0.0590657533
 40
0.0893880342
 40
0.1201915421
 40
0.1514393119
 40
0.1830921864
 40
0.2151089815
 40
0.2474468165
 40
0.2800613461
 40
0.3129069277
 40
0.3790978043
 40
0.4456438869
 40
0.512157195
 40
0.5782503174
 40
0.6110231607
 40
0.6435494472
 40
0.6757839299
 40
0.7076827327
 40
0.7392035388
 40
0.7703057937
 40
0.8009510645
 40
0.831103192
 40
0.8607285698
 40
0.8897966896
 40
0.9182797918
 40
0.9461537334
 40
0.9734003792
 40
1.0
 40
1.0
 40
1.0
 40
1.0
 10
16.2044724174
 20
13.1850164801
 30
0.0
 10
16.2056981261
 20
13.1839707374
 30
0.0
 10
16.2082102333
 20
13.1819035539
 30
0.0
 10
16.212115553
 20
13.1789059642
 30
0.0
 10
16.2161859555
 20
13.1759881516
 30
0.0
 10
16.2204125406
 20
13.1731564714
 30
0.0
 10
16.2247861588
 20
13.170417039
 30
0.0
 10
16.2292973322
 20
13.1677758162
 30
0.0
 10
16.2339362723
 20
13.1652385124
 30
0.0
 10
16.2386929025
 20
13.1628106314
 30
0.0
 10
16.2435569561
 20
13.1604974351
 30
0.0
 10
16.2501879645
 20
13.1575655129
 30
0.0
 10
16.2586756129
 20
13.1542209675
 30
0.0
 10
16.269089008
 20
13.1507486773
 30
0.0
 10
16.2796672972
 20
13.1478370859
 30
0.0
 10
16.2885692365
 20
13.1458933803
 30
0.0
 10
16.2956961844
 20
13.1446416813
 30
0.0
 10
16.301010478
 20
13.1438595985
 30
0.0
 10
16.3062968968
 20
13.1432333459
 30
0.0
 10
16.3115440195
 20
13.1427642614
 30
0.0
 10
16.3167404531
 20
13.1424533606
 30
0.0
 10
16.3218749338
 20
13.1423013424
 30
0.0
 10
16.3269363274
 20
13.14230852
 30
0.0
 10
16.3319136627
 20
13.1424748783
 30
0.0
 10
16.3367961584
 20
13.1428000842
 30
0.0
 10
16.3415732312
 20
13.1432834299
 30
0.0
 10
16.3462345143
 20
13.1439238609
 30
0.0
 10
16.350770028
 20
13.1447200423
 30
0.0
 10
16.3551697283
 20
13.1456702546
 30
0.0
 10
16.3580410801
 20
13.1464141003
 30
0.0
 10
16.359450712
 20
13.1468120945
 30
0.0
  0
SPLINE
  5
2E4
100
AcDbEntity
  8
LAYER_FEATURE
100
AcDbSpline
 62
7
  6
CONTINUOUS
 70
0
 71
3
 72
26
 73
22
 74
0
 42
0.0000001
 43
0.0000001
 44
0.0000000001
 40
0.0
 40
0.0
 40
0.0
 40
0.0
 40
0.0230409511
 40
0.046171987
 40
0.0694815122
 40
0.0930544488
 40
0.1169711602
 40
0.1413057508
 40
0.1914650084
 40
0.2440093644
 40
0.2992610595
 40
0.3574207628
 40
0.4185781928
 40
0.4827253427
 40
0.5497699092
 40
0.619547914
 40
0.6918347568
 40
0.7663559496
 40
0.8427940814
 40
0.9208017753
 40
1.0
 40
1.0
 40
1.0
 40
1.0
 10
15.9437760283
 20
13.4675354026
 30
0.0
 10
15.943859907
 20
13.4678068452
 30
0.0
 10
15.9440072238
 20
13.4683574585
 30
0.0
 10
15.9441651132
 20
13.4692003229
 30
0.0
 10
15.9442597777
 20
13.4700592403
 30
0.0
 10
15.9442911125
 20
13.4709324364
 30
0.0
 10
15.9442590083
 20
13.4718182515
 30
0.0
 10
15.9441306264
 20
13.4730257284
 30
0.0
 10
15.9438064297
 20
13.4745631884
 30
0.0
 10
15.9431718595
 20
13.4764091372
 30
0.0
 10
15.9422936552
 20
13.4782617122
 30
0.0
 10
15.9411791362
 20
13.480107044
 30
0.0
 10
15.9398371091
 20
13.4819316789
 30
0.0
 10
15.9382779188
 20
13.4837221371
 30
0.0
 10
15.9365134509
 20
13.4854651262
 30
0.0
 10
15.9345571006
 20
13.4871476062
 30
0.0
 10
15.9324237057
 20
13.488756932
 30
0.0
 10
15.9301294639
 20
13.4902809323
 30
0.0
 10
15.9276917698
 20
13.4917080972
 30
0.0
 10
15.9251292552
 20
13.4930275177
 30
0.0
 10
15.9233609139
 20
13.4938240223
 30
0.0
 10
15.9224606283
 20
13.4942023687
 30
0.0
  0
SPLINE
  5
2E5
100
AcDbEntity
  8
LAYER_FEATURE
100
AcDbSpline
 62
7
  6
CONTINUOUS
 70
0
 71
3
 72
43
 73
39
 74
0
 42
0.0000001
 43
0.0000001
 44
0.0000000001
 40
0.0
 40
0.0
 40
0.0
 40
0.0
 40
0.0248475074
 40
0.0376889936
 40
0.0508144752
 40
0.0642273955
 40
0.0779293266
 40
0.0919202732
 40
0.1061985836
 40
0.1207612224
 40
0.1356037199
 40
0.1661008251
 40
0.1976342217
 40
0.2301279733
 40
0.2634921217
 40
0.2976248375
 40
0.3324143887
 40
0.3677409648
 40
0.4034783905
 40
0.4394957552
 40
0.4756589854
 40
0.5118323787
 40
0.5478801193
 40
0.5836677929
 40
0.619063917
 40
0.6539415062
 40
0.6881796923
 40
0.7216654232
 40
0.7542952686
 40
0.7859773648
 40
0.8166335358
 40
0.8462016283
 40
0.8746380935
 40
0.9019208497
 40
0.9280523442
 40
0.9530629372
 40
0.97701372
 40
1.0
 40
1.0
 40
1.0
 40
1.0
 10
15.9254188999
 20
13.4082239972
 30
0.0
 10
15.9261916321
 20
13.4063579888
 30
0.0
 10
15.9275016171
 20
13.4035826087
 30
0.0
 10
15.9295018029
 20
13.39996808
 30
0.0
 10
15.9311671789
 20
13.3972333493
 30
0.0
 10
15.932978713
 20
13.3945090092
 30
0.0
 10
15.9349338964
 20
13.3917986369
 30
0.0
 10
15.9370300149
 20
13.3891060783
 30
0.0
 10
15.9392640989
 20
13.3864350357
 30
0.0
 10
15.9416330737
 20
13.383789226
 30
0.0
 10
15.944997342
 20
13.3802684208
 30
0.0
 10
15.9495255386
 20
13.375956681
 30
0.0
 10
15.9553911064
 20
13.3709880871
 30
0.0
 10
15.9617045157
 20
13.3662061211
 30
0.0
 10
15.9684305172
 20
13.3616374061
 30
0.0
 10
15.9755317751
 20
13.3573072416
 30
0.0
 10
15.9829687812
 20
13.3532396942
 30
0.0
 10
15.990700155
 20
13.3494573819
 30
0.0
 10
15.9986828543
 20
13.3459813568
 30
0.0
 10
16.0068724234
 20
13.3428309755
 30
0.0
 10
16.015223244
 20
13.3400237868
 30
0.0
 10
16.0236887938
 20
13.3375754297
 30
0.0
 10
16.0322219106
 20
13.3354995442
 30
0.0
 10
16.040775061
 20
13.3338076943
 30
0.0
 10
16.0493006108
 20
13.3325093028
 30
0.0
 10
16.0577510969
 20
13.3316116021
 30
0.0
 10
16.0660794987
 20
13.3311195974
 30
0.0
 10
16.0742395069
 20
13.3310360459
 30
0.0
 10
16.0821857885
 20
13.3313614514
 30
0.0
 10
16.0898742453
 20
13.3320940774
 30
0.0
 10
16.0972622621
 20
13.3332299769
 30
0.0
 10
16.1043089427
 20
13.3347630467
 30
0.0
 10
16.1109753172
 20
13.3366850891
 30
0.0
 10
16.1172245471
 20
13.3389859345
 30
0.0
 10
16.1230219884
 20
13.341653437
 30
0.0
 10
16.1283355653
 20
13.3446739214
 30
0.0
 10
16.1331347366
 20
13.3480310601
 30
0.0
 10
16.1360285989
 20
13.3505303766
 30
0.0
 10
16.1373718241
 20
13.3518290826
 30
0.0
  0
SPLINE
  5
2E6
100
AcDbEntity
  8
LAYER_FEATURE
100
AcDbSpline
 62
7
  6
CONTINUOUS
 70
0
 71
3
 72
15
 73
11
 74
0
 42
0.0000001
 43
0.0000001
 44
0.0000000001
 40
0.0
 40
0.0
 40
0.0
 40
0.0
 40
0.1100824406
 40
0.2235792547
 40
0.340997899
 40
0.4627764985
 40
0.5892869451
 40
0.7208373023
 40
0.8576764967
 40
1.0
 40
1.0
 40
1.0
 40
1.0
 10
15.7206832476
 20
11.90664336
 30
0.0
 10
15.7214563647
 20
11.9063497875
 30
0.0
 10
15.7230020787
 20
11.9056870781
 30
0.0
 10
15.7252721229
 20
11.9044949707
 30
0.0
 10
15.7275229486
 20
11.9030928311
 30
0.0
 10
15.7297515411
 20
11.9014828355
 30
0.0
 10
15.7319551757
 20
11.8996671968
 30
0.0
 10
15.7341311215
 20
11.8976483839
 30
0.0
 10
15.7362766324
 20
11.8954291612
 30
0.0
 10
15.737657416
 20
11.8938494239
 30
0.0
 10
15.7383425482
 20
11.8930285996
 30
0.0
  0
SPLINE
  5
2E7
100
AcDbEntity
  8
02___PRT_ALL_AXES
100
AcDbSpline
 62
7
  6
CONTINUOUS
 70
0
 71
3
 72
39
 73
35
 74
0
 42
0.0000001
 43
0.0000001
 44
0.0000000001
 40
0.0
 40
0.0
 40
0.0
 40
0.0
 40
0.0248034973
 40
0.0496643335
 40
0.0746391947
 40
0.0997834851
 40
0.1251507427
 40
0.1507921168
 40
0.1767559198
 40
0.2030872608
 40
0.2298277638
 40
0.2570153696
 40
0.284684211
 40
0.312864556
 40
0.3415828085
 40
0.3708615539
 40
0.4007196437
 40
0.4311723119
 40
0.4622313094
 40
0.493905052
 40
0.5261987774
 40
0.5591147045
 40
0.5926521923
 40
0.6268079021
 40
0.6615759537
 40
0.6969480775
 40
0.7329137579
 40
0.7694603751
 40
0.8065733377
 40
0.8442361876
 40
0.8824308336
 40
0.9211372865
 40
0.9603348127
 40
1.0
 40
1.0
 40
1.0
 40
1.0
 10
14.744398801
 20
12.1025468743
 30
0.0
 10
14.7454656224
 20
12.1059991145
 30
0.0
 10
14.7478055081
 20
12.1128504807
 30
0.0
 10
14.7519189757
 20
12.1229220052
 30
0.0
 10
14.7566331793
 20
12.1327821144
 30
0.0
 10
14.7619424567
 20
12.1424190257
 30
0.0
 10
14.7678406359
 20
12.1518218515
 30
0.0
 10
14.7743208175
 20
12.1609798562
 30
0.0
 10
14.781375459
 20
12.1698826712
 30
0.0
 10
14.7889963728
 20
12.1785202499
 30
0.0
 10
14.7971747517
 20
12.1868828852
 30
0.0
 10
14.8059011841
 20
12.1949612079
 30
0.0
 10
14.8151656676
 20
12.2027461907
 30
0.0
 10
14.8249576207
 20
12.2102291503
 30
0.0
 10
14.8352658941
 20
12.2174017499
 30
0.0
 10
14.8460787787
 20
12.2242560052
 30
0.0
 10
14.8573840159
 20
12.2307842901
 30
0.0
 10
14.8691688103
 20
12.2369793391
 30
0.0
 10
14.8814198408
 20
12.2428342547
 30
0.0
 10
14.8941232722
 20
12.2483425134
 30
0.0
 10
14.9072647679
 20
12.2534979733
 30
0.0
 10
14.9208295031
 20
12.25829488
 30
0.0
 10
14.9348021779
 20
12.2627278781
 30
0.0
 10
14.9491670349
 20
12.2667920135
 30
0.0
 10
14.9639078755
 20
12.2704827408
 30
0.0
 10
14.9790080776
 20
12.2737959285
 30
0.0
 10
14.9944506132
 20
12.2767278648
 30
0.0
 10
15.0102180672
 20
12.2792752626
 30
0.0
 10
15.0262926525
 20
12.2814352638
 30
0.0
 10
15.0426562454
 20
12.2832054519
 30
0.0
 10
15.0592903531
 20
12.2845838292
 30
0.0
 10
15.0761762909
 20
12.2855688728
 30
0.0
 10
15.0932948255
 20
12.2861594451
 30
0.0
 10
15.1047838288
 20
12.2862890163
 30
0.0
 10
15.1105621653
 20
12.2862890163
 30
0.0
  0
SPLINE
  5
2E8
100
AcDbEntity
  8
02___PRT_ALL_AXES
100
AcDbSpline
 62
7
  6
CONTINUOUS
 70
0
 71
3
 72
23
 73
19
 74
0
 42
0.0000001
 43
0.0000001
 44
0.0000000001
 40
0.0
 40
0.0
 40
0.0
 40
0.0
 40
0.0562959062
 40
0.112510861
 40
0.1688496037
 40
0.2255205419
 40
0.2827327845
 40
0.3406931928
 40
0.3996034964
 40
0.4596572981
 40
0.5210373341
 40
0.5839131056
 40
0.6484390975
 40
0.7147532125
 40
0.7829743466
 40
0.8532036076
 40
0.9255279483
 40
1.0
 40
1.0
 40
1.0
 40
1.0
 10
15.7329799063
 20
11.9084075078
 30
0.0
 10
15.7341673478
 20
11.9084075112
 30
0.0
 10
15.7365416465
 20
11.908312834
 30
0.0
 10
15.7400810202
 20
11.907884382
 30
0.0
 10
15.7435822169
 20
11.9071698549
 30
0.0
 10
15.7470346342
 20
11.9061699071
 30
0.0
 10
15.7504282202
 20
11.9048856082
 30
0.0
 10
15.7537530374
 20
11.9033185252
 30
0.0
 10
15.7569994995
 20
11.9014708356
 30
0.0
 10
15.7601583
 20
11.899345175
 30
0.0
 10
15.7632205332
 20
11.8969447963
 30
0.0
 10
15.7661777618
 20
11.8942735734
 30
0.0
 10
15.7690219469
 20
11.8913358836
 30
0.0
 10
15.7717456148
 20
11.8881367916
 30
0.0
 10
15.7743418754
 20
11.8846819976
 30
0.0
 10
15.7768044159
 20
11.8809776164
 30
0.0
 10
15.7791274168
 20
11.877030735
 30
0.0
 10
15.7805586867
 20
11.8742833069
 30
0.0
 10
15.7812507036
 20
11.8728731245
 30
0.0
  0
SPLINE
  5
2E9
100
AcDbEntity
  8
LAYER_FEATURE
100
AcDbSpline
 62
7
  6
CONTINUOUS
 70
0
 71
3
 72
29
 73
25
 74
0
 42
0.0000001
 43
0.0000001
 44
0.0000000001
 40
0.0
 40
0.0
 40
0.0
 40
0.0
 40
0.0217078785
 40
0.0439768344
 40
0.0668859929
 40
0.0905085305
 40
0.1400776231
 40
0.1661218205
 40
0.1930216897
 40
0.2207810925
 40
0.2493933286
 40
0.2788422531
 40
0.3091027008
 40
0.3401420499
 40
0.3719204138
 40
0.4374925859
 40
0.5054021104
 40
0.5751498118
 40
0.6461864078
 40
0.7179291082
 40
0.7897771983
 40
0.8611278889
 40
0.9313887508
 40
1.0
 40
1.0
 40
1.0
 40
1.0
 10
16.4963642263
 20
12.8991099014
 30
0.0
 10
16.496343676
 20
12.8994922381
 30
0.0
 10
16.4962667383
 20
12.9002652837
 30
0.0
 10
16.4960494953
 20
12.9014261667
 30
0.0
 10
16.4957297737
 20
12.9025981859
 30
0.0
 10
16.4951594478
 20
12.9041958076
 30
0.0
 10
16.4943918003
 20
12.905775936
 30
0.0
 10
16.493453916
 20
12.9073225978
 30
0.0
 10
16.4926448175
 20
12.9084948196
 30
0.0
 10
16.4917444241
 20
12.9096560876
 30
0.0
 10
16.4907554888
 20
12.9108029684
 30
0.0
 10
16.4896811
 20
12.9119318531
 30
0.0
 10
16.4885246389
 20
12.9130392817
 30
0.0
 10
16.4872896741
 20
12.9141218069
 30
0.0
 10
16.4855252319
 20
12.9155421999
 30
0.0
 10
16.4831454873
 20
12.9172309944
 30
0.0
 10
16.4800745473
 20
12.91908567
 30
0.0
 10
16.4767965846
 20
12.9207666386
 30
0.0
 10
16.4733523578
 20
12.9222530015
 30
0.0
 10
16.4697845299
 20
12.9235263529
 30
0.0
 10
16.4661374027
 20
12.9245708949
 30
0.0
 10
16.4624561819
 20
12.9253736511
 30
0.0
 10
16.4587867699
 20
12.9259246842
 30
0.0
 10
16.4563429043
 20
12.9261225169
 30
0.0
 10
16.4551339005
 20
12.9261758813
 30
0.0
  0
SPLINE
  5
2EA
100
AcDbEntity
  8
LAYER_CHAMFER_FEAT
100
AcDbSpline
 62
7
  6
CONTINUOUS
 70
0
 71
3
 72
53
 73
49
 74
0
 42
0.0000001
 43
0.0000001
 44
0.0000000001
 40
0.0
 40
0.0
 40
0.0
 40
0.0
 40
0.0106257336
 40
0.021274113
 40
0.0319675399
 40
0.0427279616
 40
0.0535766237
 40
0.0645339201
 40
0.0756191727
 40
0.0868505492
 40
0.098244893
 40
0.1098176998
 40
0.1215830111
 40
0.1335534271
 40
0.1457400693
 40
0.1581526038
 40
0.1836820325
 40
0.1968161165
 40
0.2102008233
 40
0.2238391163
 40
0.2377327171
 40
0.2518822784
 40
0.2662873161
 40
0.2809464026
 40
0.2958570823
 40
0.3110160692
 40
0.3264191592
 40
0.3420614151
 40
0.3579370904
 40
0.3740397889
 40
0.3903624102
 40
0.4236339058
 40
0.4576856916
 40
0.4924415269
 40
0.5278183265
 40
0.5637272223
 40
0.6000745638
 40
0.6367628715
 40
0.6736917537
 40
0.7107587968
 40
0.7478604378
 40
0.7848928281
 40
0.82175269
 40
0.8583381948
 40
0.8945497981
 40
0.9302912688
 40
0.9654702592
 40
1.0
 40
1.0
 40
1.0
 40
1.0
 10
14.9339105227
 20
11.6556790177
 30
0.0
 10
14.9334557434
 20
11.6542073483
 30
0.0
 10
14.9326281476
 20
11.6512345067
 30
0.0
 10
14.931638123
 20
11.646705021
 30
0.0
 10
14.9308997346
 20
11.6421078778
 30
0.0
 10
14.9304138961
 20
11.6374481234
 30
0.0
 10
14.9301809599
 20
11.6327306532
 30
0.0
 10
14.9302012183
 20
11.6279604613
 30
0.0
 10
14.9304745035
 20
11.6231425681
 30
0.0
 10
14.9310005399
 20
11.618282041
 30
0.0
 10
14.9317786493
 20
11.6133839624
 30
0.0
 10
14.9328080005
 20
11.608453459
 30
0.0
 10
14.9340874259
 20
11.6034956542
 30
0.0
 10
14.9356155412
 20
11.5985157378
 30
0.0
 10
14.9373907398
 20
11.5935187702
 30
0.0
 10
14.9401097074
 20
11.5867780179
 30
0.0
 10
14.9432989033
 20
11.5800859271
 30
0.0
 10
14.9469202094
 20
11.573465425
 30
0.0
 10
14.9498972941
 20
11.5684614326
 30
0.0
 10
14.9531063276
 20
11.5634717694
 30
0.0
 10
14.9565439917
 20
11.5585013884
 30
0.0
 10
14.9602067339
 20
11.5535555347
 30
0.0
 10
14.9640906817
 20
11.5486392706
 30
0.0
 10
14.9681918472
 20
11.5437577512
 30
0.0
 10
14.9725059024
 20
11.538915984
 30
0.0
 10
14.9770284111
 20
11.5341190479
 30
0.0
 10
14.9817546164
 20
11.5293718696
 30
0.0
 10
14.986679647
 20
11.5246794259
 30
0.0
 10
14.9917983329
 20
11.5200465535
 30
0.0
 10
14.9971054088
 20
11.5154780737
 30
0.0
 10
15.0044718669
 20
11.5094407908
 30
0.0
 10
15.0141210703
 20
11.5020898856
 30
0.0
 10
15.0262857371
 20
11.4936561602
 30
0.0
 10
15.0390588511
 20
11.4855889526
 30
0.0
 10
15.0523872224
 20
11.4779218308
 30
0.0
 10
15.0662155943
 20
11.4706865564
 30
0.0
 10
15.080486546
 20
11.463913166
 30
0.0
 10
15.095140823
 20
11.4576297786
 30
0.0
 10
15.1101175614
 20
11.4518624904
 30
0.0
 10
15.1253545504
 20
11.4466352576
 30
0.0
 10
15.1407884924
 20
11.4419697954
 30
0.0
 10
15.1563552708
 20
11.4378854859
 30
0.0
 10
15.171990218
 20
11.4343992942
 30
0.0
 10
15.1876283971
 20
11.4315257044
 30
0.0
 10
15.2032048419
 20
11.4292766448
 30
0.0
 10
15.2186549699
 20
11.4276614717
 30
0.0
 10
15.233914289
 20
11.4266868809
 30
0.0
 10
15.2440206639
 20
11.4264646855
 30
0.0
 10
15.2490261915
 20
11.4264646855
 30
0.0
  0
SPLINE
  5
2EB
100
AcDbEntity
  8
LAYER_FEATURE
100
AcDbSpline
 62
7
  6
CONTINUOUS
 70
0
 71
3
 72
28
 73
24
 74
0
 42
0.0000001
 43
0.0000001
 44
0.0000000001
 40
0.0
 40
0.0
 40
0.0
 40
0.0
 40
0.025888719
 40
0.0525950425
 40
0.0801004172
 40
0.1083879665
 40
0.1374311928
 40
0.1671950472
 40
0.2287044411
 40
0.292541364
 40
0.3582475854
 40
0.4253131497
 40
0.4931924024
 40
0.5613190493
 40
0.6291206155
 40
0.6960327423
 40
0.7615137344
 40
0.8250596603
 40
0.8862210652
 40
0.9157920816
 40
0.9446326886
 40
0.9727131492
 40
1.0
 40
1.0
 40
1.0
 40
1.0
 10
16.4096637211
 20
13.1297579015
 30
0.0
 10
16.409390749
 20
13.1301548889
 30
0.0
 10
16.4088126084
 20
13.1309454144
 30
0.0
 10
16.4078689499
 20
13.1321001498
 30
0.0
 10
16.4068381416
 20
13.1332387755
 30
0.0
 10
16.4057235255
 20
13.1343576696
 30
0.0
 10
16.4045285387
 20
13.1354534637
 30
0.0
 10
16.4028143225
 20
13.1368947748
 30
0.0
 10
16.4004914017
 20
13.1386138554
 30
0.0
 10
16.3974800195
 20
13.1405096558
 30
0.0
 10
16.3942515574
 20
13.1422374597
 30
0.0
 10
16.3908461513
 20
13.1437757972
 30
0.0
 10
16.3873059767
 20
13.1451056347
 30
0.0
 10
16.3836749721
 20
13.1462104649
 30
0.0
 10
16.3799981926
 20
13.1470765779
 30
0.0
 10
16.3763212701
 20
13.1476932238
 30
0.0
 10
16.3726897243
 20
13.1480527498
 30
0.0
 10
16.3691486839
 20
13.1481506882
 30
0.0
 10
16.3662776201
 20
13.1480117205
 30
0.0
 10
16.3640655649
 20
13.1477647685
 30
0.0
 10
16.3624746529
 20
13.1475165998
 30
0.0
 10
16.3609384742
 20
13.1472041919
 30
0.0
 10
16.3599394068
 20
13.1469500721
 30
0.0
 10
16.359450712
 20
13.1468120945
 30
0.0
  0
SPLINE
  5
2EC
100
AcDbEntity
  8
02___PRT_ALL_AXES
100
AcDbSpline
 62
7
  6
CONTINUOUS
 70
0
 71
3
 72
65
 73
61
 74
0
 42
0.0000001
 43
0.0000001
 44
0.0000000001
 40
0.0
 40
0.0
 40
0.0
 40
0.0
 40
0.0171789291
 40
0.0345308212
 40
0.0520449304
 40
0.0697108277
 40
0.0875173419
 40
0.1054531223
 40
0.1235064948
 40
0.1416655296
 40
0.1599180701
 40
0.1782517576
 40
0.2151106903
 40
0.2521421454
 40
0.2892428502
 40
0.326308958
 40
0.3632369085
 40
0.3999242907
 40
0.4181471291
 40
0.4362723994
 40
0.4542880172
 40
0.4721821368
 40
0.4899431807
 40
0.5075598703
 40
0.5250212573
 40
0.5423167544
 40
0.5594361677
 40
0.5763697299
 40
0.5931081358
 40
0.6096425801
 40
0.6259647934
 40
0.6420670807
 40
0.6579423621
 40
0.6735842156
 40
0.6889869237
 40
0.704145519
 40
0.7190558316
 40
0.7337145398
 40
0.7481192228
 40
0.7622684175
 40
0.7761616751
 40
0.7897996169
 40
0.803183993
 40
0.8163177408
 40
0.8292050436
 40
0.8418513875
 40
0.8542636101
 40
0.8664499451
 40
0.8784200586
 40
0.8901850745
 40
0.9017575857
 40
0.913151645
 40
0.9243827344
 40
0.9354677115
 40
0.9464247275
 40
0.9572731187
 40
0.9680332657
 40
0.9787264248
 40
0.9893745343
 40
1.0
 40
1.0
 40
1.0
 40
1.0
 10
15.1105621653
 20
12.2862890163
 30
0.0
 10
15.116170475
 20
12.2862890163
 30
0.0
 10
15.1274439207
 20
12.2861656122
 30
0.0
 10
15.1444270884
 20
12.2856172978
 30
0.0
 10
15.1615538705
 20
12.2847053516
 30
0.0
 10
15.1788062593
 20
12.2834307599
 30
0.0
 10
15.1961663952
 20
12.2817948256
 30
0.0
 10
15.2136161747
 20
12.2797992609
 30
0.0
 10
15.2311374518
 20
12.2774461403
 30
0.0
 10
15.2487119668
 20
12.274737918
 30
0.0
 10
15.2663215063
 20
12.2716774055
 30
0.0
 10
15.2898635022
 20
12.2671234081
 30
0.0
 10
15.3192572458
 20
12.2605693392
 30
0.0
 10
15.354313424
 20
12.2513715255
 30
0.0
 10
15.3890707056
 20
12.2408649012
 30
0.0
 10
15.4233844456
 20
12.2290931511
 30
0.0
 10
15.4571118583
 20
12.2161053004
 30
0.0
 10
15.4846747298
 20
12.2042870554
 30
0.0
 10
15.506311826
 20
12.1942667868
 30
0.0
 10
15.5222709966
 20
12.1864994675
 30
0.0
 10
15.5379803133
 20
12.1784717471
 30
0.0
 10
15.5534234941
 20
12.1701919402
 30
0.0
 10
15.5685844463
 20
12.1616686723
 30
0.0
 10
15.5834473958
 20
12.1529108099
 30
0.0
 10
15.5979968747
 20
12.1439274686
 30
0.0
 10
15.6122177431
 20
12.1347279948
 30
0.0
 10
15.6260952024
 20
12.1253219588
 30
0.0
 10
15.6396148111
 20
12.1157191433
 30
0.0
 10
15.6527625007
 20
12.105929534
 30
0.0
 10
15.6655245931
 20
12.0959633125
 30
0.0
 10
15.6778878115
 20
12.0858308408
 30
0.0
 10
15.6898392935
 20
12.0755426509
 30
0.0
 10
15.701366604
 20
12.0651094338
 30
0.0
 10
15.7124577478
 20
12.0545420271
 30
0.0
 10
15.7231011866
 20
12.0438514079
 30
0.0
 10
15.7332858472
 20
12.0330486775
 30
0.0
 10
15.7430011314
 20
12.0221450491
 30
0.0
 10
15.7522369253
 20
12.0111518366
 30
0.0
 10
15.7609836094
 20
12.0000804416
 30
0.0
 10
15.7692320713
 20
11.9889423441
 30
0.0
 10
15.7769737144
 20
11.9777490905
 30
0.0
 10
15.7842004614
 20
11.9665122789
 30
0.0
 10
15.7909047613
 20
11.9552435495
 30
0.0
 10
15.7970795954
 20
11.9439545722
 30
0.0
 10
15.802718485
 20
11.9326570369
 30
0.0
 10
15.8078155014
 20
11.9213626447
 30
0.0
 10
15.8123652644
 20
11.9100830951
 30
0.0
 10
15.8163629463
 20
11.8988300779
 30
0.0
 10
15.8198042772
 20
11.8876152649
 30
0.0
 10
15.8226855484
 20
11.8764503014
 30
0.0
 10
15.8250036272
 20
11.8653468005
 30
0.0
 10
15.8267559557
 20
11.8543163331
 30
0.0
 10
15.827940556
 20
11.8433704211
 30
0.0
 10
15.828556039
 20
11.8325205286
 30
0.0
 10
15.8286016116
 20
11.8217780551
 30
0.0
 10
15.8280770905
 20
11.8111543105
 30
0.0
 10
15.826982923
 20
11.8006605493
 30
0.0
 10
15.8253201334
 20
11.7903077733
 30
0.0
 10
15.8230905394
 20
11.7801073836
 30
0.0
 10
15.821226835
 20
11.7734125336
 30
0.0
 10
15.8202026714
 20
11.7700983341
 30
0.0
  0
SPLINE
  5
2ED
100
AcDbEntity
  8
LAYER_FEATURE
100
AcDbSpline
 62
7
  6
CONTINUOUS
 70
0
 71
3
 72
29
 73
25
 74
0
 42
0.0000001
 43
0.0000001
 44
0.0000000001
 40
0.0
 40
0.0
 40
0.0
 40
0.0
 40
0.065474543
 40
0.1330094847
 40
0.2020922122
 40
0.2721645613
 40
0.3426450861
 40
0.4129415904
 40
0.4824665579
 40
0.550652018
 40
0.6169649996
 40
0.6492722051
 40
0.6809360889
 40
0.7119074227
 40
0.742142831
 40
0.7716049233
 40
0.8002636782
 40
0.8280967835
 40
0.8550906232
 40
0.9065334514
 40
0.9310305623
 40
0.9547417332
 40
0.977714082
 40
1.0
 40
1.0
 40
1.0
 40
1.0
 10
16.1878852311
 20
13.3477355015
 30
0.0
 10
16.1869266963
 20
13.3484195924
 30
0.0
 10
16.1849244082
 20
13.349733517
 30
0.0
 10
16.1817482732
 20
13.3515066053
 30
0.0
 10
16.1783844604
 20
13.3530956927
 30
0.0
 10
16.1748748632
 20
13.3544809096
 30
0.0
 10
16.1712629763
 20
13.3556451235
 30
0.0
 10
16.167593646
 20
13.3565738641
 30
0.0
 10
16.163912357
 20
13.3572556189
 30
0.0
 10
16.1602649116
 20
13.3576819129
 30
0.0
 10
16.1572651132
 20
13.3578211089
 30
0.0
 10
16.1549214825
 20
13.3577973328
 30
0.0
 10
16.1532154563
 20
13.3577136275
 30
0.0
 10
16.1515513288
 20
13.3575641515
 30
0.0
 10
16.1499342621
 20
13.3573493949
 30
0.0
 10
16.1483692915
 20
13.3570699732
 30
0.0
 10
16.1468613197
 20
13.3567267843
 30
0.0
 10
16.1454149105
 20
13.3563208223
 30
0.0
 10
16.1436040524
 20
13.3557074931
 30
0.0
 10
16.1419008765
 20
13.3549681398
 30
0.0
 10
16.1403331964
 20
13.3540970911
 30
0.0
 10
16.1392583792
 20
13.353399476
 30
0.0
 10
16.13826914
 20
13.3526492107
 30
0.0
 10
16.1376599888
 20
13.3521076965
 30
0.0
 10
16.1373718241
 20
13.3518290826
 30
0.0
  0
SPLINE
  5
2EE
100
AcDbEntity
  8
LAYER_CHAMFER_FEAT
100
AcDbSpline
 62
7
  6
CONTINUOUS
 70
0
 71
3
 72
38
 73
34
 74
0
 42
0.0000001
 43
0.0000001
 44
0.0000000001
 40
0.0
 40
0.0
 40
0.0
 40
0.0
 40
0.0248038674
 40
0.0496650787
 40
0.0746403104
 40
0.0997849811
 40
0.1251526177
 40
0.1507943751
 40
0.1767585707
 40
0.2030902966
 40
0.2298312111
 40
0.2570192096
 40
0.3128542644
 40
0.341572962
 40
0.3708521333
 40
0.4007106762
 40
0.4311637983
 40
0.4622232583
 40
0.4938974854
 40
0.5261916814
 40
0.5591081183
 40
0.5926460863
 40
0.6268023245
 40
0.6615708831
 40
0.6969435623
 40
0.7329097488
 40
0.7694568985
 40
0.8065705218
 40
0.8442339747
 40
0.8824286688
 40
0.9211359536
 40
0.9603357971
 40
1.0
 40
1.0
 40
1.0
 40
1.0
 10
15.4116209271
 20
11.5080553375
 30
0.0
 10
15.4111472056
 20
11.5065223711
 30
0.0
 10
15.4101081952
 20
11.5034800183
 30
0.0
 10
15.4082815926
 20
11.4990077682
 30
0.0
 10
15.4061882657
 20
11.4946293828
 30
0.0
 10
15.4038306744
 20
11.4903501193
 30
0.0
 10
15.40121159
 20
11.4861747965
 30
0.0
 10
15.3983340723
 20
11.482108185
 30
0.0
 10
15.3952014465
 20
11.4781548957
 30
0.0
 10
15.3918174167
 20
11.4743193852
 30
0.0
 10
15.3881857139
 20
11.470605911
 30
0.0
 10
15.3829736359
 20
11.4657808278
 30
0.0
 10
15.3773171664
 20
11.4612606675
 30
0.0
 10
15.3712715198
 20
11.4570541491
 30
0.0
 10
15.3664699403
 20
11.4540104028
 30
0.0
 10
15.3614498851
 20
11.4511115544
 30
0.0
 10
15.3562168413
 20
11.4483606356
 30
0.0
 10
15.3507767788
 20
11.4457607598
 30
0.0
 10
15.345135819
 20
11.4433148285
 30
0.0
 10
15.3393003459
 20
11.4410255345
 30
0.0
 10
15.3332769243
 20
11.438895486
 30
0.0
 10
15.3270723673
 20
11.4369269951
 30
0.0
 10
15.3206936525
 20
11.4351223352
 30
0.0
 10
15.3141479887
 20
11.4334834518
 30
0.0
 10
15.3074427459
 20
11.4320122472
 30
0.0
 10
15.3005854957
 20
11.4307103116
 30
0.0
 10
15.2935839577
 20
11.4295791435
 30
0.0
 10
15.2864460339
 20
11.4286199973
 30
0.0
 10
15.2791798096
 20
11.4278339471
 30
0.0
 10
15.2717934542
 20
11.4272218741
 30
0.0
 10
15.2642951641
 20
11.4267844528
 30
0.0
 10
15.2566936563
 20
11.426522243
 30
0.0
 10
15.2515919582
 20
11.4264646855
 30
0.0
 10
15.2490261915
 20
11.4264646855
 30
0.0
  0
SPLINE
  5
2EF
100
AcDbEntity
  8
LAYER_FEATURE
100
AcDbSpline
 62
7
  6
CONTINUOUS
 70
0
 71
3
 72
32
 73
28
 74
0
 42
0.0000001
 43
0.0000001
 44
0.0000000001
 40
0.0
 40
0.0
 40
0.0
 40
0.0
 40
0.076745439
 40
0.153495898
 40
0.2296894767
 40
0.3047721636
 40
0.3782172053
 40
0.4495354443
 40
0.5182905622
 40
0.551595419
 40
0.5841283643
 40
0.6158569238
 40
0.6467556704
 40
0.6768060834
 40
0.7059982377
 40
0.734330716
 40
0.7618121701
 40
0.7884616832
 40
0.8143097523
 40
0.8393991525
 40
0.86378508
 40
0.8875359898
 40
0.9107328515
 40
0.9334693075
 40
0.9558495162
 40
0.977986214
 40
1.0
 40
1.0
 40
1.0
 40
1.0
 10
15.8693762719
 20
13.5153523939
 30
0.0
 10
15.8682664794
 20
13.5157708348
 30
0.0
 10
15.8660209318
 20
13.516540789
 30
0.0
 10
15.8625983331
 20
13.5174898277
 30
0.0
 10
15.8591497572
 20
13.5182257649
 30
0.0
 10
15.8557128947
 20
13.5187405084
 30
0.0
 10
15.8523250639
 20
13.5190284798
 30
0.0
 10
15.8490232227
 20
13.5190865133
 30
0.0
 10
15.8463449242
 20
13.518941197
 30
0.0
 10
15.8442777105
 20
13.5187061145
 30
0.0
 10
15.842787286
 20
13.5184746811
 30
0.0
 10
15.8413445949
 20
13.5181868813
 30
0.0
 10
15.8399535488
 20
13.5178435265
 30
0.0
 10
15.8386179603
 20
13.5174454871
 30
0.0
 10
15.8373414618
 20
13.5169938787
 30
0.0
 10
15.8361275522
 20
13.5164898608
 30
0.0
 10
15.8349795405
 20
13.515934804
 30
0.0
 10
15.8339005776
 20
13.5153301643
 30
0.0
 10
15.8328936357
 20
13.5146775367
 30
0.0
 10
15.831961487
 20
13.5139786674
 30
0.0
 10
15.8311067622
 20
13.5132353697
 30
0.0
 10
15.8303318354
 20
13.5124496706
 30
0.0
 10
15.8296389707
 20
13.5116236282
 30
0.0
 10
15.8290301388
 20
13.5107595378
 30
0.0
 10
15.8285071778
 20
13.5098597303
 30
0.0
 10
15.8280716182
 20
13.5089268736
 30
0.0
 10
15.8278401138
 20
13.5082838286
 30
0.0
 10
15.8277396668
 20
13.5079587845
 30
0.0
  0
SPLINE
  5
2F0
100
AcDbEntity
  8
LAYER_FEATURE
100
AcDbSpline
 62
7
  6
CONTINUOUS
 70
0
 71
3
 72
64
 73
60
 74
0
 42
0.0000001
 43
0.0000001
 44
0.0000000001
 40
0.0
 40
0.0
 40
0.0
 40
0.0
 40
0.0110412071
 40
0.0221618583
 40
0.0334071266
 40
0.0448219981
 40
0.0564472024
 40
0.0683194846
 40
0.0804714414
 40
0.0929310343
 40
0.1057216472
 40
0.118862156
 40
0.1323669933
 40
0.146246436
 40
0.1605068383
 40
0.1751508188
 40
0.1901776131
 40
0.2055833198
 40
0.2213610848
 40
0.2375014291
 40
0.2539924564
 40
0.2708200056
 40
0.2879679325
 40
0.3054182748
 40
0.3231513794
 40
0.3411461403
 40
0.3593801318
 40
0.3778297236
 40
0.4152725588
 40
0.4532715168
 40
0.4916095002
 40
0.5300634389
 40
0.5684082541
 40
0.6064207564
 40
0.6438836059
 40
0.6623455217
 40
0.6805933043
 40
0.6986032589
 40
0.7163528894
 40
0.7338209961
 40
0.750987835
 40
0.7678353439
 40
0.7843472521
 40
0.8005092753
 40
0.8163093818
 40
0.8317379273
 40
0.8467878954
 40
0.8614552065
 40
0.875738885
 40
0.8896413414
 40
0.9031687026
 40
0.916330988
 40
0.9291423764
 40
0.9416214721
 40
0.9537913777
 40
0.9656797848
 40
0.9773189698
 40
0.9887455227
 40
1.0
 40
1.0
 40
1.0
 40
1.0
 10
15.5997561587
 20
13.5660274954
 30
0.0
 10
15.5994954996
 20
13.5650059808
 30
0.0
 10
15.5990558879
 20
13.5629332578
 30
0.0
 10
15.5986475037
 20
13.5597664326
 30
0.0
 10
15.5984894443
 20
13.5565414734
 30
0.0
 10
15.5985819315
 20
13.5532659795
 30
0.0
 10
15.5989245346
 20
13.5499471018
 30
0.0
 10
15.5995163278
 20
13.5465921921
 30
0.0
 10
15.6003558354
 20
13.5432085975
 30
0.0
 10
15.6014410177
 20
13.5398036655
 30
0.0
 10
15.6027693603
 20
13.5363847636
 30
0.0
 10
15.6043378691
 20
13.5329592794
 30
0.0
 10
15.6061430032
 20
13.5295345789
 30
0.0
 10
15.6081807667
 20
13.5261180346
 30
0.0
 10
15.6104466966
 20
13.5227170175
 30
0.0
 10
15.6129358051
 20
13.5193388402
 30
0.0
 10
15.6156426617
 20
13.5159907903
 30
0.0
 10
15.6185613855
 20
13.5126801122
 30
0.0
 10
15.6216856033
 20
13.5094139444
 30
0.0
 10
15.625008524
 20
13.5061993563
 30
0.0
 10
15.6285229375
 20
13.5030433261
 30
0.0
 10
15.6322211869
 20
13.4999526764
 30
0.0
 10
15.6360952363
 20
13.4969341141
 30
0.0
 10
15.6401366747
 20
13.4939942085
 30
0.0
 10
15.6443367035
 20
13.491139323
 30
0.0
 10
15.6486861818
 20
13.4883756719
 30
0.0
 10
15.6531756993
 20
13.485709249
 30
0.0
 10
15.6593653409
 20
13.4822747905
 30
0.0
 10
15.6673898312
 20
13.4782657109
 30
0.0
 10
15.6773669199
 20
13.4739531029
 30
0.0
 10
15.6876530618
 20
13.4701523565
 30
0.0
 10
15.6981588913
 20
13.4668964846
 30
0.0
 10
15.708793523
 20
13.4642136494
 30
0.0
 10
15.7194645691
 20
13.4621271685
 30
0.0
 10
15.7283540998
 20
13.4608943424
 30
0.0
 10
15.735405463
 20
13.4602251685
 30
0.0
 10
15.7406199153
 20
13.4598842057
 30
0.0
 10
15.7457742817
 20
13.4597024918
 30
0.0
 10
15.7508574022
 20
13.4596804039
 30
0.0
 10
15.7558582133
 20
13.4598179987
 30
0.0
 10
15.7607658484
 20
13.4601150014
 30
0.0
 10
15.765569644
 20
13.4605707499
 30
0.0
 10
15.7702591658
 20
13.4611842712
 30
0.0
 10
15.774824227
 20
13.4619542663
 30
0.0
 10
15.7792549216
 20
13.4628790571
 30
0.0
 10
15.7835416332
 20
13.4639566688
 30
0.0
 10
15.787675054
 20
13.4651848156
 30
0.0
 10
15.7916462222
 20
13.4665608489
 30
0.0
 10
15.795446517
 20
13.468081845
 30
0.0
 10
15.7990676743
 20
13.4697445911
 30
0.0
 10
15.8025018299
 20
13.4715455328
 30
0.0
 10
15.8057414948
 20
13.4734808659
 30
0.0
 10
15.8087795693
 20
13.4755465158
 30
0.0
 10
15.8116093915
 20
13.4777380835
 30
0.0
 10
15.8142246972
 20
13.4800509384
 30
0.0
 10
15.8166196222
 20
13.4824801561
 30
0.0
 10
15.8187888267
 20
13.485020574
 30
0.0
 10
15.8207272306
 20
13.4876664714
 30
0.0
 10
15.8218701514
 20
13.489509052
 30
0.0
 10
15.8223998175
 20
13.4904440601
 30
0.0
  0
SPLINE
  5
2F1
100
AcDbEntity
  8
LAYER_FEATURE
100
AcDbSpline
 62
7
  6
CONTINUOUS
 70
0
 71
3
 72
30
 73
26
 74
0
 42
0.0000001
 43
0.0000001
 44
0.0000000001
 40
0.0
 40
0.0
 40
0.0
 40
0.0
 40
0.021596371
 40
0.0434029069
 40
0.0655424365
 40
0.0881367484
 40
0.1112935318
 40
0.1351049155
 40
0.1849524319
 40
0.2111306471
 40
0.2381821468
 40
0.2661261104
 40
0.2949689539
 40
0.3247061409
 40
0.355322538
 40
0.3867938494
 40
0.4190875153
 40
0.485960637
 40
0.5555603804
 40
0.6274054658
 40
0.7009509596
 40
0.7756064298
 40
0.8507535997
 40
0.9257595544
 40
1.0
 40
1.0
 40
1.0
 40
1.0
 10
15.5997561587
 20
13.5660274954
 30
0.0
 10
15.5998462169
 20
13.5663804304
 30
0.0
 10
15.5999925072
 20
13.5670990903
 30
0.0
 10
15.6001077507
 20
13.5682001074
 30
0.0
 10
15.6001190963
 20
13.5693239495
 30
0.0
 10
15.6000266477
 20
13.5704667449
 30
0.0
 10
15.599830865
 20
13.5716250004
 30
0.0
 10
15.5994269694
 20
13.5732086816
 30
0.0
 10
15.5988190714
 20
13.5747866612
 30
0.0
 10
15.5980338705
 20
13.5763385772
 30
0.0
 10
15.5973386007
 20
13.5775191065
 30
0.0
 10
15.596548964
 20
13.5786930159
 30
0.0
 10
15.5956674222
 20
13.5798568872
 30
0.0
 10
15.5946967244
 20
13.5810070571
 30
0.0
 10
15.5936399227
 20
13.5821399926
 30
0.0
 10
15.5925003037
 20
13.5832522063
 30
0.0
 10
15.5908560887
 20
13.5847198325
 30
0.0
 10
15.5886128079
 20
13.5864775016
 30
0.0
 10
15.5856855318
 20
13.5884262315
 30
0.0
 10
15.5825279265
 20
13.5902148688
 30
0.0
 10
15.5791792287
 20
13.5918211999
 30
0.0
 10
15.5756809045
 20
13.5932253708
 30
0.0
 10
15.5720763218
 20
13.5944099434
 30
0.0
 10
15.5684104108
 20
13.5953602217
 30
0.0
 10
15.5659359249
 20
13.5958334617
 30
0.0
 10
15.5646988726
 20
13.5960272412
 30
0.0
  0
SPLINE
  5
2F2
100
AcDbEntity
  8
LAYER_FEATURE
100
AcDbSpline
 62
7
  6
CONTINUOUS
 70
0
 71
3
 72
27
 73
23
 74
0
 42
0.0000001
 43
0.0000001
 44
0.0000000001
 40
0.0
 40
0.0
 40
0.0
 40
0.0
 40
0.0794984711
 40
0.1573761791
 40
0.233345348
 40
0.3071614078
 40
0.3786037382
 40
0.4474943185
 40
0.5137002067
 40
0.5771424328
 40
0.6378041427
 40
0.6671137173
 40
0.6957549088
 40
0.7510982936
 40
0.8040721317
 40
0.8549922124
 40
0.8798186054
 40
0.9042923627
 40
0.9284776088
 40
0.9524425445
 40
0.9762587634
 40
1.0
 40
1.0
 40
1.0
 40
1.0
 10
15.5092099362
 20
13.6036260954
 30
0.0
 10
15.5083613217
 20
13.6037254735
 30
0.0
 10
15.5066763994
 20
13.6038822527
 30
0.0
 10
15.5041697927
 20
13.6039900904
 30
0.0
 10
15.5017218988
 20
13.603967775
 30
0.0
 10
15.4993478594
 20
13.6038154735
 30
0.0
 10
15.4970621405
 20
13.6035340483
 30
0.0
 10
15.4948787514
 20
13.6031251883
 30
0.0
 10
15.4928109858
 20
13.6025912776
 30
0.0
 10
15.4908715655
 20
13.6019354939
 30
0.0
 10
15.4893549439
 20
13.6012831714
 30
0.0
 10
15.4882196468
 20
13.6007024491
 30
0.0
 10
15.4871619854
 20
13.6000984411
 30
0.0
 10
15.4859368968
 20
13.5992775967
 30
0.0
 10
15.4846208208
 20
13.5981784379
 30
0.0
 10
15.4836652263
 20
13.5971730395
 30
0.0
 10
15.4829989437
 20
13.596325941
 30
0.0
 10
15.4825508633
 20
13.5956748752
 30
0.0
 10
15.4821510477
 20
13.5950038664
 30
0.0
 10
15.4818001543
 20
13.5943139112
 30
0.0
 10
15.4814987174
 20
13.5936061733
 30
0.0
 10
15.4813309682
 20
13.5931228552
 30
0.0
 10
15.4812556349
 20
13.5928790693
 30
0.0
  0
SPLINE
  5
2F3
100
AcDbEntity
  8
LAYER_FEATURE
100
AcDbSpline
 62
7
  6
CONTINUOUS
 70
0
 71
3
 72
40
 73
36
 74
0
 42
0.0000001
 43
0.0000001
 44
0.0000000001
 40
0.0
 40
0.0
 40
0.0
 40
0.0
 40
0.0240820892
 40
0.0491036307
 40
0.0619780071
 40
0.0750964398
 40
0.1020633185
 40
0.130001018
 40
0.1588877629
 40
0.1886883989
 40
0.2193560744
 40
0.2508336432
 40
0.2830549921
 40
0.3159462472
 40
0.3494268938
 40
0.3834108203
 40
0.4178073031
 40
0.4525219442
 40
0.4874575731
 40
0.5225151249
 40
0.5575944996
 40
0.5925954128
 40
0.6274182452
 40
0.6619648969
 40
0.6961396558
 40
0.7298500877
 40
0.7630079569
 40
0.7955301896
 40
0.8273398899
 40
0.858367425
 40
0.8885515928
 40
0.9178408902
 40
0.9461948983
 40
0.9735857953
 40
1.0
 40
1.0
 40
1.0
 40
1.0
 10
15.2653284703
 20
13.5827354923
 30
0.0
 10
15.2660109256
 20
13.5811118417
 30
0.0
 10
15.267541818
 20
13.5778584058
 30
0.0
 10
15.2697804689
 20
13.5739123379
 30
0.0
 10
15.2717893972
 20
13.5707676931
 30
0.0
 10
15.2739847776
 20
13.5675759562
 30
0.0
 10
15.2770059978
 20
13.5636189507
 30
0.0
 10
15.2810165726
 20
13.5589810057
 30
0.0
 10
15.2854282501
 20
13.5544296963
 30
0.0
 10
15.2902222237
 20
13.5499842718
 30
0.0
 10
15.2953782292
 20
13.5456633888
 30
0.0
 10
15.3008744319
 20
13.5414852737
 30
0.0
 10
15.3066875628
 20
13.5374675657
 30
0.0
 10
15.312792999
 20
13.5336272543
 30
0.0
 10
15.3191648702
 20
13.5299805952
 30
0.0
 10
15.3257761668
 20
13.5265430372
 30
0.0
 10
15.3325988548
 20
13.5233291522
 30
0.0
 10
15.3396039963
 20
13.5203525705
 30
0.0
 10
15.346761873
 20
13.5176259189
 30
0.0
 10
15.3540421143
 20
13.5151607665
 30
0.0
 10
15.361413828
 20
13.5129675734
 30
0.0
 10
15.3688457333
 20
13.5110556459
 30
0.0
 10
15.376306296
 20
13.5094330962
 30
0.0
 10
15.3837638638
 20
13.5081068084
 30
0.0
 10
15.3911868034
 20
13.5070824091
 30
0.0
 10
15.3985436373
 20
13.5063642452
 30
0.0
 10
15.40580318
 20
13.5059553671
 30
0.0
 10
15.4129346723
 20
13.5058575185
 30
0.0
 10
15.4199079164
 20
13.5060711332
 30
0.0
 10
15.4266934019
 20
13.5065953379
 30
0.0
 10
15.4332624457
 20
13.5074279687
 30
0.0
 10
15.4395872677
 20
13.5085655711
 30
0.0
 10
15.445641269
 20
13.5100034977
 30
0.0
 10
15.4513985555
 20
13.5117356917
 30
0.0
 10
15.4550904871
 20
13.5131071681
 30
0.0
 10
15.4568768924
 20
13.5138424417
 30
0.0
  0
SPLINE
  5
2F4
100
AcDbEntity
  8
LAYER_FEATURE
100
AcDbSpline
 62
7
  6
CONTINUOUS
 70
0
 71
3
 72
29
 73
25
 74
0
 42
0.0000001
 43
0.0000001
 44
0.0000000001
 40
0.0
 40
0.0
 40
0.0
 40
0.0
 40
0.0480179656
 40
0.0732452064
 40
0.0992956745
 40
0.1261710438
 40
0.1538617108
 40
0.1823494818
 40
0.2116085167
 40
0.2416052921
 40
0.2722998637
 40
0.3036466494
 40
0.3355946884
 40
0.4010592005
 40
0.4682180148
 40
0.536538463
 40
0.6054578521
 40
0.6743983974
 40
0.7427817803
 40
0.8100436283
 40
0.8756489721
 40
0.9391056
 40
0.9699013726
 40
1.0
 40
1.0
 40
1.0
 40
1.0
 10
15.2653284703
 20
13.5827354923
 30
0.0
 10
15.2649866052
 20
13.5835488342
 30
0.0
 10
15.2643740997
 20
13.5847529347
 30
0.0
 10
15.26340192
 20
13.58629741
 30
0.0
 10
15.2625673252
 20
13.5874669989
 30
0.0
 10
15.2616422221
 20
13.5886246469
 30
0.0
 10
15.2606293646
 20
13.5897669081
 30
0.0
 10
15.2595319856
 20
13.5908902265
 30
0.0
 10
15.2583534801
 20
13.5919911135
 30
0.0
 10
15.2570975325
 20
13.5930661583
 30
0.0
 10
15.2557680697
 20
13.5941120232
 30
0.0
 10
15.2543692057
 20
13.5951254472
 30
0.0
 10
15.2524015456
 20
13.5964397884
 30
0.0
 10
15.2497955225
 20
13.5979789351
 30
0.0
 10
15.2464922514
 20
13.5996341763
 30
0.0
 10
15.2430283549
 20
13.6010921965
 30
0.0
 10
15.2394469328
 20
13.6023348493
 30
0.0
 10
15.235792386
 20
13.603346729
 30
0.0
 10
15.2321100929
 20
13.6041152683
 30
0.0
 10
15.2284456655
 20
13.6046309517
 30
0.0
 10
15.224844704
 20
13.6048873401
 30
0.0
 10
15.2219044025
 20
13.6048822834
 30
0.0
 10
15.2196233995
 20
13.6047423705
 30
0.0
 10
15.2185099952
 20
13.6046280085
 30
0.0
 10
15.2179612306
 20
13.6045595088
 30
0.0
  0
SPLINE
  5
2F5
100
AcDbEntity
  8
LAYER_FEATURE
100
AcDbSpline
 62
7
  6
CONTINUOUS
 70
0
 71
3
 72
22
 73
18
 74
0
 42
0.0000001
 43
0.0000001
 44
0.0000000001
 40
0.0
 40
0.0
 40
0.0
 40
0.0
 40
0.0763002202
 40
0.1506206613
 40
0.2228919136
 40
0.2930957322
 40
0.4272689694
 40
0.4913561771
 40
0.5535143212
 40
0.6138464856
 40
0.6724851187
 40
0.7295949912
 40
0.7853710976
 40
0.8400383104
 40
0.893847704
 40
0.9470720994
 40
1.0
 40
1.0
 40
1.0
 40
1.0
 10
15.1696622554
 20
13.597293281
 30
0.0
 10
15.1691789446
 20
13.59720772
 30
0.0
 10
15.1682282899
 20
13.5970185828
 30
0.0
 10
15.1668356043
 20
13.5966756066
 30
0.0
 10
15.1654982793
 20
13.5962777954
 30
0.0
 10
15.163819814
 20
13.5956848906
 30
0.0
 10
15.162237727
 20
13.5949813324
 30
0.0
 10
15.1607751357
 20
13.5941626173
 30
0.0
 10
15.1597669159
 20
13.5935097738
 30
0.0
 10
15.1588336118
 20
13.5928106398
 30
0.0
 10
15.1579778311
 20
13.5920669869
 30
0.0
 10
15.1572019645
 20
13.5912808567
 30
0.0
 10
15.1565082714
 20
13.5904543181
 30
0.0
 10
15.1558987462
 20
13.5895896594
 30
0.0
 10
15.1553751939
 20
13.5886892302
 30
0.0
 10
15.1549392119
 20
13.5877556719
 30
0.0
 10
15.154707495
 20
13.5871121294
 30
0.0
 10
15.1546069676
 20
13.5867868326
 30
0.0
  0
SPLINE
  5
2F6
100
AcDbEntity
  8
LAYER_FEATURE
100
AcDbSpline
 62
7
  6
CONTINUOUS
 70
0
 71
3
 72
23
 73
19
 74
0
 42
0.0000001
 43
0.0000001
 44
0.0000000001
 40
0.0
 40
0.0
 40
0.0
 40
0.0
 40
0.056178147
 40
0.1141160158
 40
0.1736646401
 40
0.2346520586
 40
0.2968884407
 40
0.3601684998
 40
0.4242747877
 40
0.4889804497
 40
0.554051983
 40
0.6192518821
 40
0.6843412492
 40
0.7490823852
 40
0.8132413962
 40
0.8765908416
 40
0.9389124588
 40
1.0
 40
1.0
 40
1.0
 40
1.0
 10
14.9936887579
 20
13.5084491484
 30
0.0
 10
14.995515515
 20
13.5067384187
 30
0.0
 10
14.9993308702
 20
13.5033736158
 30
0.0
 10
15.005409034
 20
13.4985812893
 30
0.0
 10
15.0119027466
 20
13.4939873031
 30
0.0
 10
15.0187765645
 20
13.4896167496
 30
0.0
 10
15.0259932647
 20
13.4854932283
 30
0.0
 10
15.0335136732
 20
13.4816391191
 30
0.0
 10
15.0412969643
 20
13.4780753321
 30
0.0
 10
15.0493008661
 20
13.4748212218
 30
0.0
 10
15.0574818977
 20
13.4718944649
 30
0.0
 10
15.0657956086
 20
13.4693109642
 30
0.0
 10
15.0741968234
 20
13.4670847574
 30
0.0
 10
15.0826398999
 20
13.4652279404
 30
0.0
 10
15.0910789506
 20
13.4637506007
 30
0.0
 10
15.0994682173
 20
13.4626607639
 30
0.0
 10
15.1077618851
 20
13.461964353
 30
0.0
 10
15.1132585691
 20
13.4617626654
 30
0.0
 10
15.1159798185
 20
13.4617305641
 30
0.0
  0
SPLINE
  5
2F7
100
AcDbEntity
  8
LAYER_FEATURE
100
AcDbSpline
 62
7
  6
CONTINUOUS
 70
0
 71
3
 72
30
 73
26
 74
0
 42
0.0000001
 43
0.0000001
 44
0.0000000001
 40
0.0
 40
0.0
 40
0.0
 40
0.0
 40
0.0295015326
 40
0.0597248822
 40
0.0906185716
 40
0.1221375848
 40
0.1868275708
 40
0.2533347376
 40
0.3211391358
 40
0.3896864792
 40
0.4584037393
 40
0.5267136498
 40
0.594049163
 40
0.6598681477
 40
0.6920554347
 40
0.7236798008
 40
0.7546874615
 40
0.7850295646
 40
0.8146624394
 40
0.8435483326
 40
0.871656631
 40
0.8989637862
 40
0.9254541902
 40
0.9511228824
 40
1.0
 40
1.0
 40
1.0
 40
1.0
 10
14.9936887579
 20
13.5084491484
 30
0.0
 10
14.9932915361
 20
13.5088211404
 30
0.0
 10
14.9924702634
 20
13.5095561501
 30
0.0
 10
14.9911781988
 20
13.5106174614
 30
0.0
 10
14.9898145031
 20
13.5116480299
 30
0.0
 10
14.9878900685
 20
13.5129882353
 30
0.0
 10
14.9853316315
 20
13.5145634543
 30
0.0
 10
14.9820764218
 20
13.5162662725
 30
0.0
 10
14.9786498349
 20
13.5177769359
 30
0.0
 10
14.9750944869
 20
13.5190766362
 30
0.0
 10
14.971454469
 20
13.5201492676
 30
0.0
 10
14.9677749276
 20
13.5209815226
 30
0.0
 10
14.9641016498
 20
13.5215630521
 30
0.0
 10
14.9610610064
 20
13.5218347804
 30
0.0
 10
14.9586707403
 20
13.5219182845
 30
0.0
 10
14.9569211999
 20
13.5219144017
 30
0.0
 10
14.9552071127
 20
13.521844461
 30
0.0
 10
14.9535338001
 20
13.5217087
 30
0.0
 10
14.9519064821
 20
13.5215075263
 30
0.0
 10
14.9503302292
 20
13.5212415463
 30
0.0
 10
14.9488099293
 20
13.5209115979
 30
0.0
 10
14.9473503785
 20
13.5205186639
 30
0.0
 10
14.9459559358
 20
13.5200639285
 30
0.0
 10
14.9442183515
 20
13.5193883241
 30
0.0
 10
14.9429807318
 20
13.5187779359
 30
0.0
 10
14.9422017906
 20
13.5183238648
 30
0.0
  0
SPLINE
  5
2F8
100
AcDbEntity
  8
LAYER_FEATURE
100
AcDbSpline
 62
7
  6
CONTINUOUS
 70
0
 71
3
 72
14
 73
10
 74
0
 42
0.0000001
 43
0.0000001
 44
0.0000000001
 40
0.0
 40
0.0
 40
0.0
 40
0.0
 40
0.266376299
 40
0.3943168793
 40
0.5192582968
 40
0.641712875
 40
0.7622405706
 40
0.8814533893
 40
1.0
 40
1.0
 40
1.0
 40
1.0
 10
14.9094441081
 20
13.4974489519
 30
0.0
 10
14.9088153882
 20
13.4970109791
 30
0.0
 10
14.9079255604
 20
13.4962990427
 30
0.0
 10
14.9068748674
 20
13.495235762
 30
0.0
 10
14.9061794767
 20
13.4944081875
 30
0.0
 10
14.9055685675
 20
13.4935424107
 30
0.0
 10
14.90504387
 20
13.4926407172
 30
0.0
 10
14.9046069959
 20
13.4917057971
 30
0.0
 10
14.9043748869
 20
13.4910612681
 30
0.0
 10
14.9042742086
 20
13.4907354705
 30
0.0
  0
SPLINE
  5
2F9
100
AcDbEntity
  8
LAYER_FEATURE
100
AcDbSpline
 62
7
  6
CONTINUOUS
 70
0
 71
3
 72
31
 73
27
 74
0
 42
0.0000001
 43
0.0000001
 44
0.0000000001
 40
0.0
 40
0.0
 40
0.0
 40
0.0
 40
0.073117754
 40
0.1471953063
 40
0.2216191305
 40
0.2957620276
 40
0.3690060901
 40
0.440755643
 40
0.5104544011
 40
0.5776029398
 40
0.610092278
 40
0.6417929231
 40
0.6726676465
 40
0.7026868294
 40
0.731829303
 40
0.7600837283
 40
0.7874489192
 40
0.8139356274
 40
0.8395670447
 40
0.8643799512
 40
0.8884260173
 40
0.9117716165
 40
0.9344980463
 40
0.9567026931
 40
0.9784981778
 40
1.0
 40
1.0
 40
1.0
 40
1.0
 10
14.8318059954
 20
13.3560132474
 30
0.0
 10
14.8306933734
 20
13.3565732002
 30
0.0
 10
14.828414436
 20
13.3576244072
 30
0.0
 10
14.8248882142
 20
13.3589800156
 30
0.0
 10
14.8212656936
 20
13.3601125425
 30
0.0
 10
14.8175919945
 20
13.3610078115
 30
0.0
 10
14.8139126844
 20
13.3616547486
 30
0.0
 10
14.8102733264
 20
13.3620453135
 30
0.0
 10
14.8067191552
 20
13.3621746497
 30
0.0
 10
14.8038333479
 20
13.3620621609
 30
0.0
 10
14.8016068072
 20
13.361836333
 30
0.0
 10
14.8000036101
 20
13.3616036353
 30
0.0
 10
14.7984538946
 20
13.3613065261
 30
0.0
 10
14.7969624582
 20
13.3609459026
 30
0.0
 10
14.7955339529
 20
13.3605228446
 30
0.0
 10
14.7941728109
 20
13.3600386767
 30
0.0
 10
14.7928832828
 20
13.3594948202
 30
0.0
 10
14.7916693776
 20
13.3588929486
 30
0.0
 10
14.7905348947
 20
13.3582348595
 30
0.0
 10
14.789483408
 20
13.3575225137
 30
0.0
 10
14.7885182272
 20
13.3567580775
 30
0.0
 10
14.7876424893
 20
13.3559438082
 30
0.0
 10
14.7868589993
 20
13.3550822408
 30
0.0
 10
14.7861703418
 20
13.3541759222
 30
0.0
 10
14.7855789747
 20
13.3532278452
 30
0.0
 10
14.7852491744
 20
13.3525665983
 30
0.0
 10
14.7851018649
 20
13.3522312356
 30
0.0
  0
SPLINE
  5
2FA
100
AcDbEntity
  8
LAYER_FEATURE
100
AcDbSpline
 62
7
  6
CONTINUOUS
 70
0
 71
3
 72
39
 73
35
 74
0
 42
0.0000001
 43
0.0000001
 44
0.0000000001
 40
0.0
 40
0.0
 40
0.0
 40
0.0
 40
0.0475538786
 40
0.0938231989
 40
0.1387504151
 40
0.1822948103
 40
0.2244199429
 40
0.2650935618
 40
0.3042918382
 40
0.3419988694
 40
0.3782079103
 40
0.4129223134
 40
0.4461570062
 40
0.4779402701
 40
0.5083148909
 40
0.537340812
 40
0.5650964839
 40
0.5916812004
 40
0.6172166609
 40
0.6418476877
 40
0.6657424159
 40
0.689090033
 40
0.712097264
 40
0.7349824266
 40
0.7579681704
 40
0.7812735475
 40
0.8051067163
 40
0.8296587546
 40
0.8550999065
 40
0.8815773724
 40
0.9092149434
 40
0.9381141468
 40
0.9683552796
 40
1.0
 40
1.0
 40
1.0
 40
1.0
 10
15.7015303337
 20
11.8259627392
 30
0.0
 10
15.7019666964
 20
11.8273748094
 30
0.0
 10
15.7028609233
 20
11.8301506693
 30
0.0
 10
15.7042874523
 20
11.8342206942
 30
0.0
 10
15.7057788963
 20
11.8381343819
 30
0.0
 10
15.7073325774
 20
11.8418847822
 30
0.0
 10
15.7089458069
 20
11.8454655034
 30
0.0
 10
15.7106158443
 20
11.8488703323
 30
0.0
 10
15.712339755
 20
11.8520933767
 30
0.0
 10
15.7141146145
 20
11.8551290586
 30
0.0
 10
15.7159373626
 20
11.8579721561
 30
0.0
 10
15.717804908
 20
11.8606177661
 30
0.0
 10
15.719714119
 20
11.8630613157
 30
0.0
 10
15.7216617687
 20
11.8652986129
 30
0.0
 10
15.7236446856
 20
11.8673257361
 30
0.0
 10
15.7256595829
 20
11.8691391606
 30
0.0
 10
15.7277032208
 20
11.8707356092
 30
0.0
 10
15.7297722898
 20
11.8721121133
 30
0.0
 10
15.7318634019
 20
11.8732660002
 30
0.0
 10
15.7339730961
 20
11.8741947757
 30
0.0
 10
15.7360976674
 20
11.8748963614
 30
0.0
 10
15.7382332297
 20
11.8753689064
 30
0.0
 10
15.7403756008
 20
11.8756111388
 30
0.0
 10
15.7425204165
 20
11.8756223409
 30
0.0
 10
15.7446632163
 20
11.8754024409
 30
0.0
 10
15.7467996257
 20
11.8749521584
 30
0.0
 10
15.7489254363
 20
11.8742726743
 30
0.0
 10
15.7510367316
 20
11.8733658025
 30
0.0
 10
15.7531298048
 20
11.8722336207
 30
0.0
 10
15.7552011486
 20
11.8708785449
 30
0.0
 10
15.7572474007
 20
11.8693032814
 30
0.0
 10
15.7592652281
 20
11.8675107077
 30
0.0
 10
15.761251344
 20
11.8655041793
 30
0.0
 10
15.7625228125
 20
11.8640594252
 30
0.0
 10
15.7631530442
 20
11.8633043812
 30
0.0
  0
SPLINE
  5
2FB
100
AcDbEntity
  8
LAYER_CUT_FEAT
100
AcDbSpline
 62
7
  6
CONTINUOUS
 70
0
 71
3
 72
22
 73
18
 74
0
 42
0.0000001
 43
0.0000001
 44
0.0000000001
 40
0.0
 40
0.0
 40
0.0
 40
0.0
 40
0.1381198799
 40
0.2053665018
 40
0.2714548418
 40
0.3364371496
 40
0.400372593
 40
0.4633278335
 40
0.5253764037
 40
0.5865986181
 40
0.6470813095
 40
0.7069174386
 40
0.7662055028
 40
0.8250488576
 40
0.883554958
 40
0.941834416
 40
1.0
 40
1.0
 40
1.0
 40
1.0
 10
15.8579638575
 20
11.9363226042
 30
0.0
 10
15.8618244878
 20
11.9284554668
 30
0.0
 10
15.8671441273
 20
11.9165422422
 30
0.0
 10
15.8732113526
 20
11.9004194997
 30
0.0
 10
15.8771565346
 20
11.8884671454
 30
0.0
 10
15.8805324049
 20
11.8765600235
 30
0.0
 10
15.8833357484
 20
11.8647091614
 30
0.0
 10
15.8855636973
 20
11.852925989
 30
0.0
 10
15.8872140232
 20
11.8412217672
 30
0.0
 10
15.8882850098
 20
11.8296077384
 30
0.0
 10
15.8887754622
 20
11.818095076
 30
0.0
 10
15.8886848097
 20
11.8066948928
 30
0.0
 10
15.8880130266
 20
11.7954182065
 30
0.0
 10
15.8867606332
 20
11.7842759854
 30
0.0
 10
15.8849287529
 20
11.7732789465
 30
0.0
 10
15.8825192422
 20
11.7624381939
 30
0.0
 10
15.8805283523
 20
11.755318939
 30
0.0
 10
15.8794387591
 20
11.7517929985
 30
0.0
  0
SPLINE
  5
2FC
100
AcDbEntity
  8
LAYER_FEATURE
100
AcDbSpline
 62
7
  6
CONTINUOUS
 70
0
 71
3
 72
65
 73
61
 74
0
 42
0.0000001
 43
0.0000001
 44
0.0000000001
 40
0.0
 40
0.0
 40
0.0
 40
0.0
 40
0.0176370625
 40
0.0357028423
 40
0.0541718203
 40
0.0730212468
 40
0.0922266107
 40
0.1117616369
 40
0.1315993285
 40
0.1517119919
 40
0.1926456025
 40
0.2343280777
 40
0.2765154369
 40
0.318958455
 40
0.361405291
 40
0.4036040669
 40
0.4453054456
 40
0.4658937942
 40
0.4862668131
 40
0.5063951998
 40
0.5262503702
 40
0.5458044664
 40
0.565030474
 40
0.5839023803
 40
0.6023951438
 40
0.620484994
 40
0.6381493649
 40
0.6553671565
 40
0.67211885
 40
0.6883865779
 40
0.7041544987
 40
0.7194087517
 40
0.7341379231
 40
0.7483331641
 40
0.7619885194
 40
0.7751014103
 40
0.7876728238
 40
0.7997080751
 40
0.8112171252
 40
0.8222153497
 40
0.8327242319
 40
0.8427719655
 40
0.8476347168
 40
0.8523962723
 40
0.8616371874
 40
0.8705489688
 40
0.8791923615
 40
0.8876358386
 40
0.8959542887
 40
0.9042268518
 40
0.9125343129
 40
0.9209562141
 40
0.9295681502
 40
0.9384395603
 40
0.9476323348
 40
0.9571999274
 40
0.9671873931
 40
0.9776315532
 40
0.9885616282
 40
1.0
 40
1.0
 40
1.0
 40
1.0
 10
15.7015303337
 20
11.8259627392
 30
0.0
 10
15.7010817648
 20
11.8245111698
 30
0.0
 10
15.7002097374
 20
11.8215615031
 30
0.0
 10
15.6989900641
 20
11.817056841
 30
0.0
 10
15.6978447659
 20
11.8124250381
 30
0.0
 10
15.6967758658
 20
11.8076743684
 30
0.0
 10
15.6957851872
 20
11.8028130328
 30
0.0
 10
15.6948745084
 20
11.797849521
 30
0.0
 10
15.6940453847
 20
11.7927925189
 30
0.0
 10
15.6930448197
 20
11.7858968709
 30
0.0
 10
15.692010981
 20
11.7771061595
 30
0.0
 10
15.6911221062
 20
11.766390118
 30
0.0
 10
15.6905840981
 20
11.7555205469
 30
0.0
 10
15.6904007426
 20
11.744573423
 30
0.0
 10
15.6905733295
 20
11.7336251153
 30
0.0
 10
15.6911006509
 20
11.7227521541
 30
0.0
 10
15.6918356579
 20
11.7137794393
 30
0.0
 10
15.6926002425
 20
11.7066995405
 30
0.0
 10
15.6932568333
 20
11.7014779576
 30
0.0
 10
15.6939978472
 20
11.6963314906
 30
0.0
 10
15.6948219674
 20
11.6912691203
 30
0.0
 10
15.6957277578
 20
11.686299704
 30
0.0
 10
15.6967136386
 20
11.6814319291
 30
0.0
 10
15.6977778575
 20
11.6766743014
 30
0.0
 10
15.6989185847
 20
11.6720351393
 30
0.0
 10
15.7001337868
 20
11.6675225412
 30
0.0
 10
15.7014213613
 20
11.6631443913
 30
0.0
 10
15.7027790473
 20
11.6589083299
 30
0.0
 10
15.7042044584
 20
11.6548217435
 30
0.0
 10
15.7056951352
 20
11.6508917638
 30
0.0
 10
15.7072484372
 20
11.6471252252
 30
0.0
 10
15.7088616978
 20
11.6435286936
 30
0.0
 10
15.7105320888
 20
11.6401084125
 30
0.0
 10
15.7122567207
 20
11.6368703202
 30
0.0
 10
15.7140326365
 20
11.6338200401
 30
0.0
 10
15.7158567496
 20
11.6309628353
 30
0.0
 10
15.7177259934
 20
11.628303674
 30
0.0
 10
15.719637164
 20
11.6258471308
 30
0.0
 10
15.7215870726
 20
11.6235974825
 30
0.0
 10
15.7235725102
 20
11.6215586323
 30
0.0
 10
15.7255900978
 20
11.6197342175
 30
0.0
 10
15.7273141122
 20
11.6183807564
 30
0.0
 10
15.7287054262
 20
11.6174126337
 30
0.0
 10
15.7300754542
 20
11.6165379379
 30
0.0
 10
15.7318035529
 20
11.6155786527
 30
0.0
 10
15.7339167527
 20
11.614641874
 30
0.0
 10
15.7360450623
 20
11.6139330837
 30
0.0
 10
15.7381844929
 20
11.6134541817
 30
0.0
 10
15.7403308619
 20
11.6132064188
 30
0.0
 10
15.7424797796
 20
11.6131906129
 30
0.0
 10
15.7446267598
 20
11.6134067463
 30
0.0
 10
15.7467673898
 20
11.6138542051
 30
0.0
 10
15.7488974409
 20
11.6145317394
 30
0.0
 10
15.7510129698
 20
11.6154375526
 30
0.0
 10
15.753110227
 20
11.6165695821
 30
0.0
 10
15.7551857227
 20
11.6179253405
 30
0.0
 10
15.757236024
 20
11.6195021778
 30
0.0
 10
15.7592578311
 20
11.621297137
 30
0.0
 10
15.761247802
 20
11.6233068877
 30
0.0
 10
15.7625216464
 20
11.6247541988
 30
0.0
 10
15.7631530437
 20
11.6255106443
 30
0.0
  0
SPLINE
  5
2FD
100
AcDbEntity
  8
02___PRT_ALL_AXES
100
AcDbSpline
 62
7
  6
CONTINUOUS
 70
0
 71
3
 72
23
 73
19
 74
0
 42
0.0000001
 43
0.0000001
 44
0.0000000001
 40
0.0
 40
0.0
 40
0.0
 40
0.0
 40
0.0667738931
 40
0.132870998
 40
0.1983044066
 40
0.2630930219
 40
0.3272597603
 40
0.3908306488
 40
0.4538334535
 40
0.5162968377
 40
0.5782495637
 40
0.6397200583
 40
0.7007363115
 40
0.7613260039
 40
0.8215170881
 40
0.8813385258
 40
0.9408213622
 40
1.0
 40
1.0
 40
1.0
 40
1.0
 10
15.0909547931
 20
12.2228395366
 30
0.0
 10
15.0940218568
 20
12.2228395366
 30
0.0
 10
15.1001268247
 20
12.2226447506
 30
0.0
 10
15.109198578
 20
12.2217596541
 30
0.0
 10
15.1181021176
 20
12.2202891614
 30
0.0
 10
15.1268002295
 20
12.2182432389
 30
0.0
 10
15.1352573491
 20
12.2156355105
 30
0.0
 10
15.1434390356
 20
12.2124829463
 30
0.0
 10
15.1513123725
 20
12.2088054711
 30
0.0
 10
15.1588460112
 20
12.2046255742
 30
0.0
 10
15.1660102148
 20
12.1999679176
 30
0.0
 10
15.1727768187
 20
12.1948589795
 30
0.0
 10
15.1791191476
 20
12.1893267499
 30
0.0
 10
15.1850119225
 20
12.1834004635
 30
0.0
 10
15.1904311189
 20
12.1771104744
 30
0.0
 10
15.1953539969
 20
12.1704878959
 30
0.0
 10
15.1997586238
 20
12.1635653842
 30
0.0
 10
15.2023425619
 20
12.1587598081
 30
0.0
 10
15.2035400429
 20
12.1563195952
 30
0.0
  0
SPLINE
  5
2FE
100
AcDbEntity
  8
LAYER_FEATURE
100
AcDbSpline
 62
7
  6
CONTINUOUS
 70
0
 71
3
 72
48
 73
44
 74
0
 42
0.0000001
 43
0.0000001
 44
0.0000000001
 40
0.0
 40
0.0
 40
0.0
 40
0.0
 40
0.0396642965
 40
0.0788610385
 40
0.1175666344
 40
0.1557604665
 40
0.1934225081
 40
0.2305346714
 40
0.2670805025
 40
0.3030454096
 40
0.3384167746
 40
0.3731840812
 40
0.4073390582
 40
0.4408758236
 40
0.4737910404
 40
0.5060840715
 40
0.5377571357
 40
0.5688154687
 40
0.5992674839
 40
0.6291249298
 40
0.6584030429
 40
0.6728314478
 40
0.6871223978
 40
0.7153021394
 40
0.7429703891
 40
0.7566230086
 40
0.7701594387
 40
0.7968993654
 40
0.8232301384
 40
0.8362561156
 40
0.8491957106
 40
0.8620546758
 40
0.8748389514
 40
0.887554675
 40
0.900208161
 40
0.9128058833
 40
0.9253544739
 40
0.9378606902
 40
0.9503314131
 40
0.9627736192
 40
0.975194366
 40
0.9876007734
 40
1.0
 40
1.0
 40
1.0
 40
1.0
 10
14.958041232
 20
12.5970940005
 30
0.0
 10
14.9471311684
 20
12.5970940005
 30
0.0
 10
14.9254387823
 20
12.5968493551
 30
0.0
 10
14.8931172878
 20
12.5957342991
 30
0.0
 10
14.8612349469
 20
12.5938744355
 30
0.0
 10
14.8298281017
 20
12.5912719249
 30
0.0
 10
14.798932009
 20
12.5879296347
 30
0.0
 10
14.7685815938
 20
12.5838513361
 30
0.0
 10
14.7388110737
 20
12.579041593
 30
0.0
 10
14.7096540307
 20
12.5735058054
 30
0.0
 10
14.6811433461
 20
12.5672501794
 30
0.0
 10
14.6533111709
 20
12.5602817216
 30
0.0
 10
14.6261888912
 20
12.5526082315
 30
0.0
 10
14.5998070933
 20
12.5442382874
 30
0.0
 10
14.5741955271
 20
12.5351812454
 30
0.0
 10
14.5493830775
 20
12.5254472252
 30
0.0
 10
14.5253977296
 20
12.5150470854
 30
0.0
 10
14.5022665737
 20
12.5039924343
 30
0.0
 10
14.4800156648
 20
12.4922955379
 30
0.0
 10
14.4586704124
 20
12.4799695902
 30
0.0
 10
14.4415747497
 20
12.469132668
 30
0.0
 10
14.4283834255
 20
12.4601595983
 30
0.0
 10
14.4156377177
 20
12.451075318
 30
0.0
 10
14.4003032866
 20
12.4393568765
 30
0.0
 10
14.3856618076
 20
12.4270535446
 30
0.0
 10
14.3744673607
 20
12.4169340588
 30
0.0
 10
14.3637085665
 20
12.4067200979
 30
0.0
 10
14.3508930408
 20
12.3936159109
 30
0.0
 10
14.3388590256
 20
12.3799763674
 30
0.0
 10
14.3297777265
 20
12.3688188914
 30
0.0
 10
14.3232599003
 20
12.3603578406
 30
0.0
 10
14.3170131404
 20
12.3517768792
 30
0.0
 10
14.3110392053
 20
12.3430783457
 30
0.0
 10
14.3053397985
 20
12.3342647268
 30
0.0
 10
14.2999165226
 20
12.3253385222
 30
0.0
 10
14.2947709687
 20
12.3163022341
 30
0.0
 10
14.2899045443
 20
12.3071584561
 30
0.0
 10
14.2853186933
 20
12.2979097493
 30
0.0
 10
14.2810146856
 20
12.2885587545
 30
0.0
 10
14.2769937553
 20
12.2791081284
 30
0.0
 10
14.2732570681
 20
12.2695605129
 30
0.0
 10
14.2698056677
 20
12.2599187502
 30
0.0
 10
14.2676953338
 20
12.253429052
 30
0.0
 10
14.2666883851
 20
12.2501705581
 30
0.0
  0
SPLINE
  5
2FF
100
AcDbEntity
  8
LAYER_FEATURE
100
AcDbSpline
 62
7
  6
CONTINUOUS
 70
0
 71
3
 72
48
 73
44
 74
0
 42
0.0000001
 43
0.0000001
 44
0.0000000001
 40
0.0
 40
0.0
 40
0.0
 40
0.0
 40
0.0396642965
 40
0.0788610385
 40
0.1175666344
 40
0.1557604665
 40
0.1934225081
 40
0.2305346714
 40
0.2670805025
 40
0.3030454096
 40
0.3384167746
 40
0.3731840812
 40
0.4073390582
 40
0.4408758236
 40
0.4737910404
 40
0.5060840715
 40
0.5377571357
 40
0.5688154687
 40
0.5992674839
 40
0.6291249298
 40
0.6584030429
 40
0.6728314478
 40
0.6871223978
 40
0.7153021394
 40
0.7429703891
 40
0.7566230086
 40
0.7701594387
 40
0.7968993654
 40
0.8232301384
 40
0.8362561156
 40
0.8491957106
 40
0.8620546758
 40
0.8748389514
 40
0.887554675
 40
0.900208161
 40
0.9128058833
 40
0.9253544739
 40
0.9378606902
 40
0.9503314131
 40
0.9627736192
 40
0.975194366
 40
0.9876007734
 40
1.0
 40
1.0
 40
1.0
 40
1.0
 10
15.3162993906
 20
13.7564178267
 30
0.0
 10
15.3053893271
 20
13.7564178267
 30
0.0
 10
15.2836969409
 20
13.7561731813
 30
0.0
 10
15.2513754464
 20
13.7550581254
 30
0.0
 10
15.2194931055
 20
13.7531982618
 30
0.0
 10
15.1880862604
 20
13.7505957512
 30
0.0
 10
15.1571901676
 20
13.7472534609
 30
0.0
 10
15.1268397524
 20
13.7431751624
 30
0.0
 10
15.0970692324
 20
13.7383654193
 30
0.0
 10
15.0679121894
 20
13.7328296317
 30
0.0
 10
15.0394015047
 20
13.7265740056
 30
0.0
 10
15.0115693295
 20
13.7196055479
 30
0.0
 10
14.9844470498
 20
13.7119320578
 30
0.0
 10
14.9580652519
 20
13.7035621137
 30
0.0
 10
14.9324536857
 20
13.6945050717
 30
0.0
 10
14.9076412361
 20
13.6847710514
 30
0.0
 10
14.8836558882
 20
13.6743709116
 30
0.0
 10
14.8605247323
 20
13.6633162606
 30
0.0
 10
14.8382738234
 20
13.6516193642
 30
0.0
 10
14.816928571
 20
13.6392934165
 30
0.0
 10
14.7998329083
 20
13.6284564942
 30
0.0
 10
14.7866415842
 20
13.6194834245
 30
0.0
 10
14.7738958763
 20
13.6103991442
 30
0.0
 10
14.7585614452
 20
13.5986807027
 30
0.0
 10
14.7439199663
 20
13.5863773709
 30
0.0
 10
14.7327255193
 20
13.576257885
 30
0.0
 10
14.7219667251
 20
13.5660439242
 30
0.0
 10
14.7091511995
 20
13.5529397372
 30
0.0
 10
14.6971171842
 20
13.5393001936
 30
0.0
 10
14.6880358851
 20
13.5281427176
 30
0.0
 10
14.681518059
 20
13.5196816668
 30
0.0
 10
14.675271299
 20
13.5111007055
 30
0.0
 10
14.669297364
 20
13.5024021719
 30
0.0
 10
14.6635979572
 20
13.4935885531
 30
0.0
 10
14.6581746813
 20
13.4846623485
 30
0.0
 10
14.6530291273
 20
13.4756260604
 30
0.0
 10
14.648162703
 20
13.4664822824
 30
0.0
 10
14.6435768519
 20
13.4572335755
 30
0.0
 10
14.6392728442
 20
13.4478825808
 30
0.0
 10
14.635251914
 20
13.4384319547
 30
0.0
 10
14.6315152268
 20
13.4288843391
 30
0.0
 10
14.6280638263
 20
13.4192425764
 30
0.0
 10
14.6259534924
 20
13.4127528783
 30
0.0
 10
14.6249465438
 20
13.4094943844
 30
0.0
  0
SPLINE
  5
300
100
AcDbEntity
  8
02___PRT_ALL_AXES
100
AcDbSpline
 62
7
  6
CONTINUOUS
 70
0
 71
3
 72
23
 73
19
 74
0
 42
0.0000001
 43
0.0000001
 44
0.0000000001
 40
0.0
 40
0.0
 40
0.0
 40
0.0
 40
0.0504392165
 40
0.1027528793
 40
0.1569394359
 40
0.2129797676
 40
0.2708315277
 40
0.3304349142
 40
0.3917133803
 40
0.4545758492
 40
0.5189185832
 40
0.5846266855
 40
0.6515754747
 40
0.7196316299
 40
0.7886539646
 40
0.8584940872
 40
0.9289967422
 40
1.0
 40
1.0
 40
1.0
 40
1.0
 10
15.7812507036
 20
11.8728731245
 30
0.0
 10
15.7821686947
 20
11.8710024555
 30
0.0
 10
15.7839175828
 20
11.8671310938
 30
0.0
 10
15.7862405837
 20
11.861074584
 30
0.0
 10
15.7883058975
 20
11.8546819156
 30
0.0
 10
15.7901101735
 20
11.8479739439
 30
0.0
 10
15.7916521491
 20
11.840971836
 30
0.0
 10
15.7929324583
 20
11.8336976503
 30
0.0
 10
15.7939535391
 20
11.8261738649
 30
0.0
 10
15.7947195461
 20
11.8184232966
 30
0.0
 10
15.7952361816
 20
11.8104689238
 30
0.0
 10
15.7955105475
 20
11.8023337737
 30
0.0
 10
15.795550987
 20
11.7940408397
 30
0.0
 10
15.7953669304
 20
11.7856130322
 30
0.0
 10
15.7949687535
 20
11.7770731655
 30
0.0
 10
15.7943676259
 20
11.768443959
 30
0.0
 10
15.7935753725
 20
11.7597481406
 30
0.0
 10
15.7929297829
 20
11.7539375077
 30
0.0
 10
15.7925791043
 20
11.7510252187
 30
0.0
  0
SPLINE
  5
301
100
AcDbEntity
  8
02___PRT_ALL_AXES
100
AcDbSpline
 62
7
  6
CONTINUOUS
 70
0
 71
3
 72
35
 73
31
 74
0
 42
0.0000001
 43
0.0000001
 44
0.0000000001
 40
0.0
 40
0.0
 40
0.0
 40
0.0
 40
0.0983257409
 40
0.1919027248
 40
0.280573125
 40
0.3642100026
 40
0.4041111543
 40
0.4427223252
 40
0.480037382
 40
0.5160535168
 40
0.5507709032
 40
0.5841920963
 40
0.6163239125
 40
0.6471766147
 40
0.6767642948
 40
0.7051065211
 40
0.7322276818
 40
0.7581581858
 40
0.7829358196
 40
0.8066057404
 40
0.8292222285
 40
0.8508498649
 40
0.8715641338
 40
0.8914530603
 40
0.9106177813
 40
0.9291726744
 40
0.9472451859
 40
0.9649742813
 40
0.9825080265
 40
1.0
 40
1.0
 40
1.0
 40
1.0
 10
15.7634483734
 20
11.6253637241
 30
0.0
 10
15.7628277493
 20
11.6236109327
 30
0.0
 10
15.7615901459
 20
11.620199233
 30
0.0
 10
15.7596926347
 20
11.6152439298
 30
0.0
 10
15.7577999485
 20
11.6105852573
 30
0.0
 10
15.7562031409
 20
11.6069030659
 30
0.0
 10
15.7549251056
 20
11.6041156174
 30
0.0
 10
15.7539828015
 20
11.6021381765
 30
0.0
 10
15.7530415282
 20
11.6002419198
 30
0.0
 10
15.7521011132
 20
11.5984277766
 30
0.0
 10
15.7511613608
 20
11.596696617
 30
0.0
 10
15.7502220398
 20
11.5950492516
 30
0.0
 10
15.7492828904
 20
11.5934864414
 30
0.0
 10
15.7483436233
 20
11.5920088927
 30
0.0
 10
15.7474039148
 20
11.5906172659
 30
0.0
 10
15.7464634283
 20
11.5893121689
 30
0.0
 10
15.7455217903
 20
11.588094168
 30
0.0
 10
15.7445786015
 20
11.5869637934
 30
0.0
 10
15.743633457
 20
11.5859215242
 30
0.0
 10
15.7426859065
 20
11.5849678233
 30
0.0
 10
15.7417354897
 20
11.584103124
 30
0.0
 10
15.7407817422
 20
11.5833278243
 30
0.0
 10
15.7398241603
 20
11.5826423451
 30
0.0
 10
15.7388622651
 20
11.5820470827
 30
0.0
 10
15.7378955933
 20
11.5815424304
 30
0.0
 10
15.736923696
 20
11.5811288292
 30
0.0
 10
15.7359462235
 20
11.5808066624
 30
0.0
 10
15.7349628509
 20
11.5805762972
 30
0.0
 10
15.7339734751
 20
11.5804380724
 30
0.0
 10
15.7333106941
 20
11.5804075168
 30
0.0
 10
15.7329799061
 20
11.5804075149
 30
0.0
  0
SPLINE
  5
302
100
AcDbEntity
  8
LAYER_FEATURE
100
AcDbSpline
 62
7
  6
CONTINUOUS
 70
0
 71
3
 72
103
 73
99
 74
0
 42
0.0000001
 43
0.0000001
 44
0.0000000001
 40
0.0
 40
0.0
 40
0.0
 40
0.0
 40
0.0182090486
 40
0.0366763526
 40
0.0553783947
 40
0.0742902958
 40
0.0933862851
 40
0.1126396989
 40
0.1320231628
 40
0.1515087143
 40
0.1710679372
 40
0.1906720901
 40
0.2102922349
 40
0.2298993635
 40
0.2494645248
 40
0.2689589516
 40
0.2883541883
 40
0.3076222201
 40
0.3267356043
 40
0.3456676042
 40
0.3643923274
 40
0.3828848665
 40
0.4011214467
 40
0.4190795785
 40
0.4367382181
 40
0.4454494043
 40
0.4540785775
 40
0.4626235885
 40
0.4710824188
 40
0.4794531714
 40
0.487734095
 40
0.4959235729
 40
0.504020145
 40
0.5120225046
 40
0.5199295092
 40
0.527740192
 40
0.5354537588
 40
0.543069612
 40
0.5505873395
 40
0.5580067432
 40
0.5653278293
 40
0.5725508302
 40
0.5796762067
 40
0.5867046556
 40
0.5936371264
 40
0.6004748155
 40
0.6072191929
 40
0.6204337768
 40
0.6332994689
 40
0.6396089687
 40
0.6458398536
 40
0.6519956052
 40
0.6580799945
 40
0.6640970945
 40
0.6700512595
 40
0.675947129
 40
0.6817896089
 40
0.6875838597
 40
0.693335281
 40
0.6990494857
 40
0.7047322834
 40
0.7103896467
 40
0.7160276877
 40
0.7216526227
 40
0.727270741
 40
0.7328883699
 40
0.7385118392
 40
0.7441474459
 40
0.749801421
 40
0.755479893
 40
0.7611888605
 40
0.7669341571
 40
0.7727214304
 40
0.778556113
 40
0.7844434033
 40
0.7903882496
 40
0.7963953294
 40
0.8024690474
 40
0.8086135139
 40
0.8148325533
 40
0.8211296868
 40
0.8339692693
 40
0.8471562188
 40
0.8607081446
 40
0.8746381919
 40
0.8817485356
 40
0.888956412
 40
0.896262319
 40
0.9036665194
 40
0.9111690609
 40
0.9187697676
 40
0.9264682689
 40
0.9342639875
 40
0.9421561649
 40
0.9501438574
 40
0.9664003833
 40
0.9830235298
 40
1.0
 40
1.0
 40
1.0
 40
1.0
 10
15.0046142791
 20
12.5660184195
 30
0.0
 10
15.0183986235
 20
12.5660184195
 30
0.0
 10
15.0461646271
 20
12.5655758398
 30
0.0
 10
15.0880468135
 20
12.5636206745
 30
0.0
 10
15.1303825375
 20
12.5603736115
 30
0.0
 10
15.1730783578
 20
12.5558417596
 30
0.0
 10
15.216040639
 20
12.5500350981
 30
0.0
 10
15.2591750134
 20
12.5429663727
 30
0.0
 10
15.3023867581
 20
12.5346511129
 30
0.0
 10
15.3455809628
 20
12.5251075807
 30
0.0
 10
15.3886627517
 20
12.5143567376
 30
0.0
 10
15.4315374912
 20
12.5024221992
 30
0.0
 10
15.4741110001
 20
12.4893301826
 30
0.0
 10
15.5162897583
 20
12.4751094476
 30
0.0
 10
15.5579811136
 20
12.4597912325
 30
0.0
 10
15.5990934868
 20
12.4434091857
 30
0.0
 10
15.6395365739
 20
12.4259992901
 30
0.0
 10
15.679221546
 20
12.4075997832
 30
0.0
 10
15.7180612462
 20
12.3882510707
 30
0.0
 10
15.75597038
 20
12.3679956384
 30
0.0
 10
15.7928657141
 20
12.3468779517
 30
0.0
 10
15.8286662254
 20
12.324944375
 30
0.0
 10
15.8632934
 20
12.3022429833
 30
0.0
 10
15.8966709638
 20
12.2788237592
 30
0.0
 10
15.9235036241
 20
12.2586619083
 30
0.0
 10
15.9442745819
 20
12.2422126253
 30
0.0
 10
15.9594256428
 20
12.2297842867
 30
0.0
 10
15.9742110278
 20
12.2172161078
 30
0.0
 10
15.9886226825
 20
12.2045149833
 30
0.0
 10
16.0026526407
 20
12.1916878608
 30
0.0
 10
16.0162932271
 20
12.1787418237
 30
0.0
 10
16.0295369132
 20
12.1656839474
 30
0.0
 10
16.0423764405
 20
12.152521427
 30
0.0
 10
16.0548047412
 20
12.1392614787
 30
0.0
 10
16.0668149784
 20
12.1259113782
 30
0.0
 10
16.0784005672
 20
12.112478472
 30
0.0
 10
16.0895551055
 20
12.0989701028
 30
0.0
 10
16.1002724992
 20
12.085393721
 30
0.0
 10
16.1105468088
 20
12.0717567368
 30
0.0
 10
16.1203724228
 20
12.0580666672
 30
0.0
 10
16.1297439009
 20
12.0443309955
 30
0.0
 10
16.1386561019
 20
12.0305572693
 30
0.0
 10
16.1471041139
 20
12.0167530447
 30
0.0
 10
16.1550832683
 20
12.0029258674
 30
0.0
 10
16.1625891772
 20
11.9890833871
 30
0.0
 10
16.1696177279
 20
11.9752330002
 30
0.0
 10
16.1782878864
 20
11.9568916156
 30
0.0
 10
16.1879400285
 20
11.9339779888
 30
0.0
 10
16.1960733516
 20
11.9108287035
 30
0.0
 10
16.2015643192
 20
11.8923936302
 30
0.0
 10
16.2051570595
 20
11.878701362
 30
0.0
 10
16.2082487298
 20
11.8650620217
 30
0.0
 10
16.2108375586
 20
11.8514829568
 30
0.0
 10
16.2129221301
 20
11.8379716929
 30
0.0
 10
16.2145011858
 20
11.8245356517
 30
0.0
 10
16.2155738488
 20
11.811182253
 30
0.0
 10
16.2161394565
 20
11.7979188647
 30
0.0
 10
16.216197641
 20
11.7847528188
 30
0.0
 10
16.2157483588
 20
11.7716914002
 30
0.0
 10
16.2147917585
 20
11.7587418465
 30
0.0
 10
16.2133284055
 20
11.7459113336
 30
0.0
 10
16.2113590005
 20
11.7332069906
 30
0.0
 10
16.2088846829
 20
11.7206358641
 30
0.0
 10
16.2059067517
 20
11.7082049489
 30
0.0
 10
16.2024268812
 20
11.6959211485
 30
0.0
 10
16.1984469968
 20
11.6837912896
 30
0.0
 10
16.1939692898
 20
11.6718221212
 30
0.0
 10
16.1889963056
 20
11.6600202705
 30
0.0
 10
16.1835307595
 20
11.6483923135
 30
0.0
 10
16.17757578
 20
11.6369446602
 30
0.0
 10
16.1711346314
 20
11.6256836826
 30
0.0
 10
16.164210972
 20
11.6146155737
 30
0.0
 10
16.1568086372
 20
11.6037464634
 30
0.0
 10
16.1489317735
 20
11.5930823347
 30
0.0
 10
16.1405847854
 20
11.582629046
 30
0.0
 10
16.1317722922
 20
11.5723923678
 30
0.0
 10
16.1224992428
 20
11.5623778781
 30
0.0
 10
16.1127707281
 20
11.552591111
 30
0.0
 10
16.1025922284
 20
11.5430373964
 30
0.0
 10
16.0919692142
 20
11.5337219162
 30
0.0
 10
16.0771256476
 20
11.5215479141
 30
0.0
 10
16.057460462
 20
11.5069572596
 30
0.0
 10
16.0323399948
 20
11.4905970172
 30
0.0
 10
16.0056003228
 20
11.4753066844
 30
0.0
 10
15.9821789065
 20
11.463564852
 30
0.0
 10
15.9627054439
 20
11.4547251255
 30
0.0
 10
15.947632218
 20
11.448336099
 30
0.0
 10
15.9322000757
 20
11.4422371508
 30
0.0
 10
15.9164173497
 20
11.4364315104
 30
0.0
 10
15.9002927408
 20
11.4309224212
 30
0.0
 10
15.8838351141
 20
11.4257128342
 30
0.0
 10
15.8670534958
 20
11.4208056551
 30
0.0
 10
15.8499571369
 20
11.4162035287
 30
0.0
 10
15.8325553451
 20
11.41190898
 30
0.0
 10
15.8088206685
 20
11.4065651506
 30
0.0
 10
15.7784394242
 20
11.4006821547
 30
0.0
 10
15.7411312825
 20
11.3949266121
 30
0.0
 10
15.715862099
 20
11.3919700469
 30
0.0
 10
15.7030738546
 20
11.3906987855
 30
0.0
  0
SPLINE
  5
303
100
AcDbEntity
  8
LAYER_FEATURE
100
AcDbSpline
 62
7
  6
CONTINUOUS
 70
0
 71
3
 72
72
 73
68
 74
0
 42
0.0000001
 43
0.0000001
 44
0.0000000001
 40
0.0
 40
0.0
 40
0.0
 40
0.0
 40
0.0201822845
 40
0.0401430597
 40
0.0598714197
 40
0.0793582835
 40
0.0985945529
 40
0.1175719477
 40
0.1362828918
 40
0.1547205295
 40
0.1728788115
 40
0.190752538
 40
0.2083374087
 40
0.2256300753
 40
0.2426282001
 40
0.2593305231
 40
0.2757369165
 40
0.2918484438
 40
0.3076674245
 40
0.3231975041
 40
0.338443709
 40
0.3534125013
 40
0.3681118352
 40
0.3753637545
 40
0.382552002
 40
0.3967424931
 40
0.4106967754
 40
0.4244291333
 40
0.4379554569
 40
0.4512932046
 40
0.4644613428
 40
0.4774802609
 40
0.4903716589
 40
0.5031583963
 40
0.515864314
 40
0.5285140319
 40
0.5411327232
 40
0.5537458692
 40
0.5663790067
 40
0.5790574734
 40
0.5918061581
 40
0.6046492662
 40
0.6176101068
 40
0.6307109032
 40
0.643972629
 40
0.6574148806
 40
0.6710557799
 40
0.6849119038
 40
0.6989982347
 40
0.7133281457
 40
0.7279134051
 40
0.7427641931
 40
0.7578891273
 40
0.7732953114
 40
0.7889883886
 40
0.8049725973
 40
0.8212508229
 40
0.8378246663
 40
0.85469451
 40
0.8718595787
 40
0.889317993
 40
0.9070668361
 40
0.925102215
 40
0.9434193146
 40
0.9620124446
 40
0.9808750973
 40
1.0
 40
1.0
 40
1.0
 40
1.0
 10
15.0046142791
 20
12.5660184195
 30
0.0
 10
14.9954923101
 20
12.5660184195
 30
0.0
 10
14.9773478603
 20
12.5658269616
 30
0.0
 10
14.9502992168
 20
12.5649550776
 30
0.0
 10
14.9235902002
 20
12.5635008025
 30
0.0
 10
14.8972475296
 20
12.5614656424
 30
0.0
 10
14.8712970125
 20
12.5588515383
 30
0.0
 10
14.8457643254
 20
12.5556610818
 30
0.0
 10
14.8206746536
 20
12.5518974119
 30
0.0
 10
14.7960527547
 20
12.5475642167
 30
0.0
 10
14.7719229289
 20
12.5426657399
 30
0.0
 10
14.7483089802
 20
12.5372067976
 30
0.0
 10
14.725234203
 20
12.5311927469
 30
0.0
 10
14.7027213632
 20
12.5246294787
 30
0.0
 10
14.6807926753
 20
12.5175234091
 30
0.0
 10
14.6594697705
 20
12.5098815049
 30
0.0
 10
14.6387736848
 20
12.5017112447
 30
0.0
 10
14.6187248475
 20
12.4930206126
 30
0.0
 10
14.5993430556
 20
12.4838180825
 30
0.0
 10
14.5806474634
 20
12.4741126601
 30
0.0
 10
14.5626564961
 20
12.4639137817
 30
0.0
 10
14.5453881436
 20
12.4532315288
 30
0.0
 10
14.5315523465
 20
12.4438936703
 30
0.0
 10
14.5208685207
 20
12.436190505
 30
0.0
 10
14.5105321328
 20
12.4284036455
 30
0.0
 10
14.498084939
 20
12.4183899498
 30
0.0
 10
14.4838703951
 20
12.4058825198
 30
0.0
 10
14.470456542
 20
12.392948152
 30
0.0
 10
14.4578569742
 20
12.3795996469
 30
0.0
 10
14.4460843119
 20
12.3658500835
 30
0.0
 10
14.4351504467
 20
12.3517130055
 30
0.0
 10
14.4250664585
 20
12.3372023659
 30
0.0
 10
14.4158425749
 20
12.3223325583
 30
0.0
 10
14.4074881763
 20
12.3071183783
 30
0.0
 10
14.4000117796
 20
12.2915750121
 30
0.0
 10
14.3934210193
 20
12.2757180194
 30
0.0
 10
14.3877225828
 20
12.2595633294
 30
0.0
 10
14.3829222304
 20
12.2431271953
 30
0.0
 10
14.3790247866
 20
12.2264261664
 30
0.0
 10
14.3760341347
 20
12.2094770598
 30
0.0
 10
14.373953168
 20
12.1922969365
 30
0.0
 10
14.3727838318
 20
12.1749030603
 30
0.0
 10
14.3725271341
 20
12.1573128706
 30
0.0
 10
14.3731831579
 20
12.1395439611
 30
0.0
 10
14.3747510268
 20
12.1216140564
 30
0.0
 10
14.3772289577
 20
12.1035409917
 30
0.0
 10
14.3806142774
 20
12.0853426974
 30
0.0
 10
14.3849034345
 20
12.0670371906
 30
0.0
 10
14.3900919678
 20
12.0486425533
 30
0.0
 10
14.3961745532
 20
12.0301769267
 30
0.0
 10
14.4031450154
 20
12.0116584996
 30
0.0
 10
14.4109963347
 20
11.9931055018
 30
0.0
 10
14.4197206172
 20
11.9745361769
 30
0.0
 10
14.4293091342
 20
11.9559687796
 30
0.0
 10
14.439752333
 20
11.937421562
 30
0.0
 10
14.4510398434
 20
11.918912763
 30
0.0
 10
14.4631604538
 20
11.9004605748
 30
0.0
 10
14.4761021474
 20
11.8820831401
 30
0.0
 10
14.489852117
 20
11.8637985363
 30
0.0
 10
14.5043967737
 20
11.8456247621
 30
0.0
 10
14.5197217313
 20
11.8275796998
 30
0.0
 10
14.5358118416
 20
11.8096811142
 30
0.0
 10
14.5526512165
 20
11.7919466328
 30
0.0
 10
14.5702232255
 20
11.7743937445
 30
0.0
 10
14.5885105464
 20
11.757039711
 30
0.0
 10
14.6074949775
 20
11.7399017561
 30
0.0
 10
14.6205158032
 20
11.7287071802
 30
0.0
 10
14.6271359142
 20
11.7231489602
 30
0.0
  0
SPLINE
  5
304
100
AcDbEntity
  8
LAYER_FEATURE
100
AcDbSpline
 62
7
  6
CONTINUOUS
 70
0
 71
3
 72
78
 73
74
 74
0
 42
0.0000001
 43
0.0000001
 44
0.0000000001
 40
0.0
 40
0.0
 40
0.0
 40
0.0
 40
0.0171786289
 40
0.0345302627
 40
0.0520440738
 40
0.0697096817
 40
0.087515905
 40
0.1054513899
 40
0.1235044662
 40
0.1416632022
 40
0.1599154427
 40
0.1782488293
 40
0.1966508312
 40
0.2151087722
 40
0.2336098599
 40
0.2521412119
 40
0.2706898829
 40
0.2892428916
 40
0.3077872476
 40
0.326309979
 40
0.3447981584
 40
0.3632389296
 40
0.3816195358
 40
0.3999273469
 40
0.4181498865
 40
0.4362748597
 40
0.454290181
 40
0.4721840057
 40
0.4899447577
 40
0.5075611589
 40
0.5250222598
 40
0.5423174722
 40
0.5594366031
 40
0.5763698869
 40
0.5931080191
 40
0.6096421926
 40
0.6259641369
 40
0.6420661586
 40
0.657941179
 40
0.6735827768
 40
0.6889852325
 40
0.7041435781
 40
0.719053645
 40
0.7337121123
 40
0.7481165595
 40
0.762265522
 40
0.7761585509
 40
0.7897962684
 40
0.8031804247
 40
0.816313957
 40
0.829201048
 40
0.841847184
 40
0.8542592029
 40
0.8603802803
 40
0.8664460367
 40
0.8784159533
 40
0.8901807754
 40
0.9017530966
 40
0.9131469692
 40
0.9243778745
 40
0.935462669
 40
0.9409563759
 40
0.9464204658
 40
0.9518573916
 40
0.9572696695
 40
0.9626598802
 40
0.9680306552
 40
0.9733846778
 40
0.978724673
 40
0.9840534015
 40
0.9893736548
 40
0.9946882449
 40
1.0
 40
1.0
 40
1.0
 40
1.0
 10
14.958041232
 20
12.5970940005
 30
0.0
 10
14.9686302675
 20
12.5970940005
 30
0.0
 10
14.9899156596
 20
12.5968609991
 30
0.0
 10
15.0219815687
 20
12.5958257302
 30
0.0
 10
15.0543186473
 20
12.5941038829
 30
0.0
 10
15.0868928688
 20
12.5916973294
 30
0.0
 10
15.1196705326
 20
12.5886085221
 30
0.0
 10
15.152617454
 20
12.584840694
 30
0.0
 10
15.1856993608
 20
12.58039777
 30
0.0
 10
15.2188818181
 20
12.5752843764
 30
0.0
 10
15.2521302874
 20
12.5695058365
 30
0.0
 10
15.2854101603
 20
12.563068159
 30
0.0
 10
15.3186867942
 20
12.5559780445
 30
0.0
 10
15.3519255509
 20
12.5482428798
 30
0.0
 10
15.3850918302
 20
12.5398707179
 30
0.0
 10
15.4181511068
 20
12.5308702727
 30
0.0
 10
15.4510689643
 20
12.5212509073
 30
0.0
 10
15.4838111358
 20
12.5110226373
 30
0.0
 10
15.5163435384
 20
12.5001961154
 30
0.0
 10
15.5486323063
 20
12.4887826123
 30
0.0
 10
15.5806438267
 20
12.4767940075
 30
0.0
 10
15.6123447738
 20
12.4642427745
 30
0.0
 10
15.6437021496
 20
12.4511419833
 30
0.0
 10
15.6746833148
 20
12.4375052744
 30
0.0
 10
15.7052560207
 20
12.4233468422
 30
0.0
 10
15.7353884429
 20
12.408681421
 30
0.0
 10
15.7650492144
 20
12.3935242699
 30
0.0
 10
15.7942074667
 20
12.3778911697
 30
0.0
 10
15.8228328541
 20
12.3617983916
 30
0.0
 10
15.8508955848
 20
12.3452626816
 30
0.0
 10
15.8783664507
 20
12.328301242
 30
0.0
 10
15.9052168616
 20
12.310931717
 30
0.0
 10
15.9314188813
 20
12.2931721821
 30
0.0
 10
15.956945247
 20
12.2750411108
 30
0.0
 10
15.9817693976
 20
12.2565573594
 30
0.0
 10
16.0058654998
 20
12.2377401435
 30
0.0
 10
16.0292084828
 20
12.2186090264
 30
0.0
 10
16.051774066
 20
12.1991838984
 30
0.0
 10
16.0735387742
 20
12.1794849461
 30
0.0
 10
16.0944799618
 20
12.1595326348
 30
0.0
 10
16.1145758346
 20
12.139347683
 30
0.0
 10
16.1338054843
 20
12.1189510517
 30
0.0
 10
16.1521489044
 20
12.0983639157
 30
0.0
 10
16.1695870016
 20
12.0776076367
 30
0.0
 10
16.1861016149
 20
12.0567037438
 30
0.0
 10
16.201675532
 20
12.0356739079
 30
0.0
 10
16.2162925226
 20
12.0145399305
 30
0.0
 10
16.2299373382
 20
11.9933237133
 30
0.0
 10
16.2425957249
 20
11.9720472282
 30
0.0
 10
16.2542544226
 20
11.9507325289
 30
0.0
 10
16.2649012227
 20
11.9294016138
 30
0.0
 10
16.2745248363
 20
11.9080768381
 30
0.0
 10
16.2817165175
 20
11.8902475416
 30
0.0
 10
16.2869406276
 20
11.8760118936
 30
0.0
 10
16.2917702868
 20
11.8619254791
 30
0.0
 10
16.2971609232
 20
11.8443581902
 30
0.0
 10
16.3026009988
 20
11.8232777668
 30
0.0
 10
16.3069777764
 20
11.8023132336
 30
0.0
 10
16.3102863456
 20
11.7814865572
 30
0.0
 10
16.3125229975
 20
11.7608198272
 30
0.0
 10
16.3134942645
 20
11.7436970196
 30
0.0
 10
16.3137284785
 20
11.730110508
 30
0.0
 10
16.3136349153
 20
11.7200038647
 30
0.0
 10
16.3132726358
 20
11.709953556
 30
0.0
 10
16.312641691
 20
11.6999621277
 30
0.0
 10
16.3117422985
 20
11.6900322104
 30
0.0
 10
16.310574635
 20
11.6801663983
 30
0.0
 10
16.3091390232
 20
11.6703672729
 30
0.0
 10
16.3074358504
 20
11.6606373918
 30
0.0
 10
16.3054655096
 20
11.6509793179
 30
0.0
 10
16.3032285673
 20
11.6413955403
 30
0.0
 10
16.3007255896
 20
11.6318886752
 30
0.0
 10
16.298879786
 20
11.6256028951
 30
0.0
 10
16.2979130873
 20
11.6224746503
 30
0.0
  0
ENDSEC
  0
SECTION
  2
OBJECTS
  0
DICTIONARY
  5
C
100
AcDbDictionary
280
0
281
1
  3
ACAD_GROUP
350
D
  3
ACAD_MLINESTYLE
350
17
  3
ACAD_LAYOUT
350
1A
  3
ACAD_PLOTSETTINGS
350
19
  3
ACAD_PLOTSTYLENAME
350
E
  0
DICTIONARY
  5
D
102
{ACAD_REACTORS
330
C
102
}
100
AcDbDictionary
280
0
281
1
  0
ACDBDICTIONARYWDFLT
  5
E
102
{ACAD_REACTORS
330
C
102
}
100
AcDbDictionary
281
1
  3
Normal
350
F
100
AcDbDictionaryWithDefault
340
F
  0
DICTIONARY
  5
17
102
{ACAD_REACTORS
330
C
102
}
100
AcDbDictionary
280
0
281
1
  3
Standard
350
18
  0
DICTIONARY
  5
19
102
{ACAD_REACTORS
330
C
102
}
100
AcDbDictionary
281
1
  0
DICTIONARY
  5
1A
102
{ACAD_REACTORS
330
C
102
}
100
AcDbDictionary
281
1
  3
Model
350
305
  3
Layout1
350
306
  0
ACDBPLACEHOLDER
  5
F
102
{ACAD_REACTORS
330
E
102
}
  0
MLINESTYLE
  5
18
102
{ACAD_REACTORS
330
17
102
}
100
AcDbMlineStyle
  2
STANDARD
 70
0
  3

 62
256
 51
90.0
 52
90.0
 71
2
 49
0.5
 62
256
  6
BYLAYER
 49
-0.5
 62
256
  6
BYLAYER
  0
LAYOUT
  5
305
102
{ACAD_REACTORS
330
1A
102
}
100
AcDbPlotSettings
  1

  2
none_device
  4
ANSI_C_(22.00_x_17.00_Inches)
  6

 40
0.0
 41
0.0
 42
0.0
 43
0.0
 44
558.8
 45
431.8
 46
0.0
 47
0.0
 48
0.0
 49
0.0
140
0.0
141
0.0
142
1.0
143
1.0
 70
1024
 72
0
 73
0
 74
0
  7

 75
0
147
1.0
148
0.0
149
0.0
100
AcDbLayout
  1
Model
 70
0
 71
0
 10
0.0
 20
0.0
 11
22.0
 21
17.0
 12
0.0
 22
0.0
 32
0.0
 14
0.0
 24
0.0
 34
0.0
 15
0.0
 25
0.0
 35
0.0
146
0.0
 13
0.0
 23
0.0
 33
0.0
 16
1.0
 26
0.0
 36
0.0
 17
0.0
 27
1.0
 37
0.0
 76
0
330
222
345
0
346
0
  0
LAYOUT
  5
306
102
{ACAD_REACTORS
330
1A
102
}
100
AcDbPlotSettings
  1

  2
none_device
  4
ANSI_C_(22.00_x_17.00_Inches)
  6

 40
0.0
 41
0.0
 42
0.0
 43
0.0
 44
558.8
 45
431.8
 46
0.0
 47
0.0
 48
0.0
 49
0.0
140
0.0
141
0.0
142
1.0
143
1.0
 70
0
 72
0
 73
0
 74
0
  7

 75
0
147
1.0
148
0.0
149
0.0
100
AcDbLayout
  1
Layout1
 70
0
 71
1
 10
0.0
 20
0.0
 11
22.0
 21
17.0
 12
0.0
 22
0.0
 32
0.0
 14
0.0
 24
0.0
 34
0.0
 15
0.0
 25
0.0
 35
0.0
146
0.0
 13
0.0
 23
0.0
 33
0.0
 16
1.0
 26
0.0
 36
0.0
 17
0.0
 27
1.0
 37
0.0
 76
0
330
223
345
0
346
0
  0
ENDSEC
  0
EOF