999
DXF file: _cgs_temp_output.dxf
999
Pro/ENGINEER 2016360 by Parametric Technology Corporation
  0
SECTION
  2
HEADER
  9
$ACADVER
  1
AC1021
  9
$DWGCODEPAGE
  3
ANSI_1252
  9
$EXTMAX
 10
22.0
 20
17.0
 30
0.0
  9
$EXTMIN
 10
0.0
 20
0.0
 30
0.0
  9
$LIMMIN
 10
0.0
 20
0.0
  9
$LIMMAX
 10
22.0
 20
17.0
  9
$VIEWCTR
 10
11.0
 20
8.5
  9
$VIEWSIZE
 40
17.0
  9
$CLAYER
  8
0
  9
$LTSCALE
 40
1.21
  9
$CELTYPE
  6
BYLAYER
  9
$DIMSCALE
 40
1.0
  9
$DIMASZ
 40
0.1875
  9
$DIMEXO
 40
0.0625
  9
$DIMDLI
 40
0.836
  9
$DIMEXE
 40
0.125
  9
$DIMCEN
 40
0.198
  9
$DIMLFAC
 40
1.0
  9
$DIMBLK
  1
_CLOSED
  9
$DIMALT
 70
0
  9
$DIMALTF
 40
25.4
  9
$DIMTXT
 40
0.15625
  9
$DIMTOL
 70
0
  9
$DIMLIM
 70
0
  9
$DIMTFAC
 40
1.0
  9
$DIMGAP
 40
0.09
  9
$DIMDSEP
 70
46
  9
$AUNITS
 70
0
  9
$PDMODE
 70
3
  9
$PDSIZE
 40
0.3125
  9
$HANDSEED
  5
305
  9
$TILEMODE
 70
1
  9
$MEASUREMENT
 70
0
  9
$INSUNITS
 70
1
  0
ENDSEC
  0
SECTION
  2
CLASSES
  0
CLASS
  1
ACDBDICTIONARYWDFLT
  2
AcDbDictionaryWithDefault
  3
AutoCAD 2000
 90
0
 91
1
280
0
281
0
  0
CLASS
  1
ACDBPLACEHOLDER
  2
AcDbPlaceHolder
  3
AutoCAD 2000
 90
0
 91
1
280
0
281
0
  0
CLASS
  1
LAYOUT
  2
AcDbLayout
  3
AutoCAD 2000
 90
0
 91
0
280
0
281
0
  0
ENDSEC
  0
SECTION
  2
TABLES
  0
TABLE
  2
VPORT
  5
8
100
AcDbSymbolTable
 70
2
  0
VPORT
  5
1F4
100
AcDbSymbolTableRecord
100
AcDbViewportTableRecord
  2
*ACTIVE
 70
0
 10
0.0
 20
0.0
 11
1.0
 21
1.0
 12
11.0
 22
8.5
 13
0.0
 23
0.0
 14
1.0
 24
1.0
 15
0.0
 25
0.0
 16
0.0
 26
0.0
 36
1.0
 17
0.0
 27
0.0
 37
0.0
 40
17.0
 41
1.2941176471
 42
50.0
 43
0.0
 44
0.0
 50
0.0
 51
0.0
 71
0
 72
100
 73
1
 74
1
 75
0
 76
0
 77
0
 78
0
  0
ENDTAB
  0
TABLE
  2
LTYPE
  5
5
100
AcDbSymbolTable
 70
6
  0
LTYPE
  5
14
100
AcDbSymbolTableRecord
100
AcDbLinetypeTableRecord
  2
BYBLOCK
 70
0
  3

 72
65
 73
0
 40
0.0
  0
LTYPE
  5
15
100
AcDbSymbolTableRecord
100
AcDbLinetypeTableRecord
  2
BYLAYER
 70
0
  3

 72
65
 73
0
 40
0.0
  0
LTYPE
  5
16
100
AcDbSymbolTableRecord
100
AcDbLinetypeTableRecord
  2
CONTINUOUS
 70
64
  3
Solid line
 72
65
 73
0
 40
0.0
  0
LTYPE
  5
1F5
100
AcDbSymbolTableRecord
100
AcDbLinetypeTableRecord
  2
CENTER
 70
64
  3
____ _ ____ _ ____ _ ____ _ ____ _ ____ _ ____
 72
65
 73
4
 40
0.6
 49
0.375
 74
0
 49
-0.075
 74
0
 49
0.075
 74
0
 49
-0.075
 74
0
  0
LTYPE
  5
1F6
100
AcDbSymbolTableRecord
100
AcDbLinetypeTableRecord
  2
HIDDEN
 70
64
  3
- - - - - - - - - - - - - - - - - - - -
 72
65
 73
2
 40
0.2
 49
0.1
 74
0
 49
-0.1
 74
0
  0
LTYPE
  5
1F7
100
AcDbSymbolTableRecord
100
AcDbLinetypeTableRecord
  2
PHANTOM
 70
64
  3
_____ _ _ _____ _ _ _____ _ _ _____
 72
65
 73
6
 40
0.8
 49
0.45
 74
0
 49
-0.05
 74
0
 49
0.1
 74
0
 49
-0.05
 74
0
 49
0.1
 74
0
 49
-0.05
 74
0
  0
LTYPE
  5
1F8
100
AcDbSymbolTableRecord
100
AcDbLinetypeTableRecord
  2
DOT
 70
64
  3
. . . . . . . . . . . . . . . . . . . .
 72
65
 73
2
 40
0.2
 49
0.1
 74
0
 49
-0.1
 74
0
  0
LTYPE
  5
1F9
100
AcDbSymbolTableRecord
100
AcDbLinetypeTableRecord
  2
DASHED
 70
64
  3
- - - - - - - - - - - - - - - - - - - -
 72
65
 73
2
 40
0.2
 49
0.1
 74
0
 49
-0.1
 74
0
  0
ENDTAB
  0
TABLE
  2
LAYER
  5
2
100
AcDbSymbolTable
 70
36
  0
LAYER
  5
10
100
AcDbSymbolTableRecord
100
AcDbLayerTableRecord
  2
0
 70
0
 62
7
  6
CONTINUOUS
370
-3
390
F
  0
LAYER
  5
1FA
100
AcDbSymbolTableRecord
100
AcDbLayerTableRecord
  2
DEFAULT_1
 70
0
 62
7
  6
CENTER
370
-3
390
F
  0
LAYER
  5
1FB
100
AcDbSymbolTableRecord
100
AcDbLayerTableRecord
  2
DEFAULT_2
 70
0
 62
8
  6
HIDDEN
370
-3
390
F
  0
LAYER
  5
1FC
100
AcDbSymbolTableRecord
100
AcDbLayerTableRecord
  2
DEFAULT_3
 70
0
 62
7
  6
PHANTOM
370
-3
390
F
  0
LAYER
  5
1FD
100
AcDbSymbolTableRecord
100
AcDbLayerTableRecord
  2
01_ALL_DTM_PLN
 70
0
 62
7
  6
CONTINUOUS
370
-3
390
F
  0
LAYER
  5
1FE
100
AcDbSymbolTableRecord
100
AcDbLayerTableRecord
  2
01__ASM_ALL_DTM_PLN
 70
0
 62
7
  6
CONTINUOUS
370
-3
390
F
  0
LAYER
  5
1FF
100
AcDbSymbolTableRecord
100
AcDbLayerTableRecord
  2
01__ASM_DEF_DTM_PLN
 70
0
 62
7
  6
CONTINUOUS
370
-3
390
F
  0
LAYER
  5
200
100
AcDbSymbolTableRecord
100
AcDbLayerTableRecord
  2
01___PRT_ALL_DTM_PLN
 70
0
 62
7
  6
CONTINUOUS
370
-3
390
F
  0
LAYER
  5
201
100
AcDbSymbolTableRecord
100
AcDbLayerTableRecord
  2
01___PRT_DEF_DTM_PLN
 70
0
 62
7
  6
CONTINUOUS
370
-3
390
F
  0
LAYER
  5
202
100
AcDbSymbolTableRecord
100
AcDbLayerTableRecord
  2
02_ALL_AXES
 70
0
 62
7
  6
CONTINUOUS
370
-3
390
F
  0
LAYER
  5
203
100
AcDbSymbolTableRecord
100
AcDbLayerTableRecord
  2
02__ASM_ALL_AXES
 70
0
 62
7
  6
CONTINUOUS
370
-3
390
F
  0
LAYER
  5
204
100
AcDbSymbolTableRecord
100
AcDbLayerTableRecord
  2
02___PRT_ALL_AXES
 70
0
 62
7
  6
CONTINUOUS
370
-3
390
F
  0
LAYER
  5
205
100
AcDbSymbolTableRecord
100
AcDbLayerTableRecord
  2
03_ALL_CURVES
 70
0
 62
7
  6
CONTINUOUS
370
-3
390
F
  0
LAYER
  5
206
100
AcDbSymbolTableRecord
100
AcDbLayerTableRecord
  2
03__ASM_ALL_CURVES
 70
0
 62
7
  6
CONTINUOUS
370
-3
390
F
  0
LAYER
  5
207
100
AcDbSymbolTableRecord
100
AcDbLayerTableRecord
  2
03___PRT_ALL_CURVES
 70
0
 62
7
  6
CONTINUOUS
370
-3
390
F
  0
LAYER
  5
208
100
AcDbSymbolTableRecord
100
AcDbLayerTableRecord
  2
04_ALL_DTM_PNT
 70
0
 62
7
  6
CONTINUOUS
370
-3
390
F
  0
LAYER
  5
209
100
AcDbSymbolTableRecord
100
AcDbLayerTableRecord
  2
04__ASM_ALL_DTM_PNT
 70
0
 62
7
  6
CONTINUOUS
370
-3
390
F
  0
LAYER
  5
20A
100
AcDbSymbolTableRecord
100
AcDbLayerTableRecord
  2
04___PRT_ALL_DTM_PNT
 70
0
 62
7
  6
CONTINUOUS
370
-3
390
F
  0
LAYER
  5
20B
100
AcDbSymbolTableRecord
100
AcDbLayerTableRecord
  2
05_ALL_DTM_CSYS
 70
0
 62
7
  6
CONTINUOUS
370
-3
390
F
  0
LAYER
  5
20C
100
AcDbSymbolTableRecord
100
AcDbLayerTableRecord
  2
05__ASM_ALL_DTM_CSYS
 70
0
 62
7
  6
CONTINUOUS
370
-3
390
F
  0
LAYER
  5
20D
100
AcDbSymbolTableRecord
100
AcDbLayerTableRecord
  2
05__ASM_DEF_DTM_CSYS
 70
0
 62
7
  6
CONTINUOUS
370
-3
390
F
  0
LAYER
  5
20E
100
AcDbSymbolTableRecord
100
AcDbLayerTableRecord
  2
05___PRT_ALL_DTM_CSYS
 70
0
 62
7
  6
CONTINUOUS
370
-3
390
F
  0
LAYER
  5
20F
100
AcDbSymbolTableRecord
100
AcDbLayerTableRecord
  2
05___PRT_DEF_DTM_CSYS
 70
0
 62
7
  6
CONTINUOUS
370
-3
390
F
  0
LAYER
  5
210
100
AcDbSymbolTableRecord
100
AcDbLayerTableRecord
  2
06_ALL_SURFS
 70
0
 62
7
  6
CONTINUOUS
370
-3
390
F
  0
LAYER
  5
211
100
AcDbSymbolTableRecord
100
AcDbLayerTableRecord
  2
06__ASM_ALL_SURFS
 70
0
 62
7
  6
CONTINUOUS
370
-3
390
F
  0
LAYER
  5
212
100
AcDbSymbolTableRecord
100
AcDbLayerTableRecord
  2
06___PRT_ALL_SURFS
 70
0
 62
7
  6
CONTINUOUS
370
-3
390
F
  0
LAYER
  5
213
100
AcDbSymbolTableRecord
100
AcDbLayerTableRecord
  2
07__ASM_ALL_SKELETONS
 70
0
 62
7
  6
CONTINUOUS
370
-3
390
F
  0
LAYER
  5
214
100
AcDbSymbolTableRecord
100
AcDbLayerTableRecord
  2
LAYER_AXIS
 70
0
 62
7
  6
CONTINUOUS
370
-3
390
F
  0
LAYER
  5
215
100
AcDbSymbolTableRecord
100
AcDbLayerTableRecord
  2
LAYER_CHAMFER_FEAT
 70
0
 62
7
  6
CONTINUOUS
370
-3
390
F
  0
LAYER
  5
216
100
AcDbSymbolTableRecord
100
AcDbLayerTableRecord
  2
LAYER_CUT_FEAT
 70
0
 62
7
  6
CONTINUOUS
370
-3
390
F
  0
LAYER
  5
217
100
AcDbSymbolTableRecord
100
AcDbLayerTableRecord
  2
LAYER_DATUM
 70
0
 62
7
  6
CONTINUOUS
370
-3
390
F
  0
LAYER
  5
218
100
AcDbSymbolTableRecord
100
AcDbLayerTableRecord
  2
LAYER_DIM
 70
0
 62
7
  6
CONTINUOUS
370
-3
390
F
  0
LAYER
  5
219
100
AcDbSymbolTableRecord
100
AcDbLayerTableRecord
  2
LAYER_FEATURE
 70
0
 62
7
  6
CONTINUOUS
370
-3
390
F
  0
LAYER
  5
21A
100
AcDbSymbolTableRecord
100
AcDbLayerTableRecord
  2
LAYER_GEOM_FEAT
 70
0
 62
7
  6
CONTINUOUS
370
-3
390
F
  0
LAYER
  5
21B
100
AcDbSymbolTableRecord
100
AcDbLayerTableRecord
  2
LAYER_NOGEOM_FEAT
 70
0
 62
7
  6
CONTINUOUS
370
-3
390
F
  0
LAYER
  5
21C
100
AcDbSymbolTableRecord
100
AcDbLayerTableRecord
  2
LAYER_PARAMETER_DIM
 70
0
 62
7
  6
CONTINUOUS
370
-3
390
F
  0
LAYER
  5
21D
100
AcDbSymbolTableRecord
100
AcDbLayerTableRecord
  2
LAYER_PROTRUSION_FEAT
 70
0
 62
7
  6
CONTINUOUS
370
-3
390
F
  0
LAYER
  5
21E
100
AcDbSymbolTableRecord
100
AcDbLayerTableRecord
  2
LAYER_ROUND_FEAT
 70
0
 62
7
  6
CONTINUOUS
370
-3
390
F
  0
ENDTAB
  0
TABLE
  2
STYLE
  5
3
100
AcDbSymbolTable
 70
1
  0
STYLE
  5
11
100
AcDbSymbolTableRecord
100
AcDbTextStyleTableRecord
  2
STANDARD
 70
0
 40
0.0
 41
0.8
 50
0.0
 71
0
 42
0.2
  3
txt
  4

  0
STYLE
  5
21F
100
AcDbSymbolTableRecord
100
AcDbTextStyleTableRecord
  2
TEXTSTYLE_1
 70
0
 40
0.0
 41
0.8
 50
0.0
 71
0
 42
0.2
  3
gdt
  4

  0
ENDTAB
  0
TABLE
  2
VIEW
  5
6
100
AcDbSymbolTable
 70
0
  0
ENDTAB
  0
TABLE
  2
UCS
  5
7
100
AcDbSymbolTable
 70
0
  0
ENDTAB
  0
TABLE
  2
APPID
  5
9
100
AcDbSymbolTable
 70
1
  0
APPID
  5
220
100
AcDbSymbolTableRecord
100
AcDbRegAppTableRecord
  2
ACAD
 70
0
  0
ENDTAB
  0
TABLE
  2
BLOCK_RECORD
  5
1
100
AcDbSymbolTable
 70
0
  0
BLOCK_RECORD
  5
221
100
AcDbSymbolTableRecord
100
AcDbBlockTableRecord
  2
*Model_Space
  0
BLOCK_RECORD
  5
222
100
AcDbSymbolTableRecord
100
AcDbBlockTableRecord
  2
*Paper_Space
  0
ENDTAB
  0
TABLE
  2
DIMSTYLE
  5
A
100
AcDbSymbolTable
 70
1
100
AcDbDimStyleTable
 71
0
  0
DIMSTYLE
105
223
100
AcDbSymbolTableRecord
100
AcDbDimStyleTableRecord
  2
STANDARD
 70
0
  3

  4

 40
1.0
 41
0.1875
 42
0.0625
 43
0.38
 44
0.125
 45
0.0
 46
0.0
 47
0.0001
 48
0.0001
140
0.15625
141
0.09
142
0.0
143
25.4
144
1.0
145
0.0
146
1.0
147
0.09
 71
0.0
 72
0.0
 73
1
 74
1
 75
0
 76
0
 77
0
 78
4
 79
1
170
0
171
3
172
0
173
0
174
0
175
0
176
0
177
0
178
0
270
2
179
4
271
4
272
4
273
2
274
2
275
0
280
0
281
0
282
0
283
1
284
4
285
0
286
0
287
3
288
0
340
11
278
46
  0
ENDTAB
  0
ENDSEC
  0
SECTION
  2
BLOCKS
  0
BLOCK
  5
20
100
AcDbEntity
  8
0
100
AcDbBlockBegin
  2
*Model_Space
 70
0
 10
0.0
 20
0.0
 30
0.0
  3
*Model_Space
  1

  0
ENDBLK
  5
21
100
AcDbEntity
  8
0
100
AcDbBlockEnd
  0
BLOCK
  5
1C
100
AcDbEntity
  8
0
100
AcDbBlockBegin
  2
*Paper_Space
 70
0
 10
0.0
 20
0.0
 30
0.0
  3
*Paper_Space
  1

  0
ENDBLK
  5
1D
100
AcDbEntity
  8
0
100
AcDbBlockEnd
  0
ENDSEC
  0
SECTION
  2
ENTITIES
  0
MTEXT
  5
224
100
AcDbEntity
  8
0
100
AcDbMText
 62
7
  6
CONTINUOUS
  7
STANDARD
 71
1
 72
1
 10
15.9560215477
 20
0.9479130325
 30
0.0
 11
1.0
 21
0.0
 31
0.0
 44
0.9
  1
SCALE: 1:4.000
 40
0.3
 41
3.36
  0
LINE
  5
225
100
AcDbEntity
  8
0
100
AcDbLine
 62
7
  6
CONTINUOUS
 10
0.0
 20
0.0
 11
0.0
 21
17.0
  0
LINE
  5
226
100
AcDbEntity
  8
0
100
AcDbLine
 62
7
  6
CONTINUOUS
 10
0.0
 20
0.0
 11
22.0
 21
0.0
  0
LINE
  5
227
100
AcDbEntity
  8
0
100
AcDbLine
 62
7
  6
CONTINUOUS
 10
0.0
 20
17.0
 11
22.0
 21
17.0
  0
LINE
  5
228
100
AcDbEntity
  8
0
100
AcDbLine
 62
7
  6
CONTINUOUS
 10
22.0
 20
0.0
 11
22.0
 21
17.0
  0
LINE
  5
229
100
AcDbEntity
  8
LAYER_FEATURE
100
AcDbLine
 62
7
  6
CONTINUOUS
 10
5.9095672762
 20
6.9401198968
 11
5.8888720915
 21
6.9194247121
  0
LINE
  5
22A
100
AcDbEntity
  8
LAYER_FEATURE
100
AcDbLine
 62
7
  6
CONTINUOUS
 10
7.5503672762
 20
5.2993198968
 11
7.5296720915
 21
5.2786247121
  0
LINE
  5
22B
100
AcDbEntity
  8
LAYER_FEATURE
100
AcDbLine
 62
7
  6
CONTINUOUS
 10
6.3511672762
 20
6.9401198968
 11
6.3718624608
 21
6.9194247121
  0
LINE
  5
22C
100
AcDbEntity
  8
LAYER_FEATURE
100
AcDbLine
 62
7
  6
CONTINUOUS
 10
7.5503672762
 20
5.7409198968
 11
7.5296720915
 21
5.7616150814
  0
LINE
  5
22D
100
AcDbEntity
  8
LAYER_FEATURE
100
AcDbLine
 62
7
  6
CONTINUOUS
 10
7.5503672762
 20
5.7409198968
 11
7.5503672762
 21
5.2993198968
  0
LINE
  5
22E
100
AcDbEntity
  8
LAYER_FEATURE
100
AcDbLine
 62
7
  6
CONTINUOUS
 10
5.9095672762
 20
6.9401198968
 11
6.3511672762
 21
6.9401198968
  0
LINE
  5
22F
100
AcDbEntity
  8
02___PRT_ALL_AXES
100
AcDbLine
 62
7
  6
CONTINUOUS
 10
4.6508720839
 20
11.4560477814
 11
4.6508720839
 21
12.2700477814
  0
LINE
  5
230
100
AcDbEntity
  8
LAYER_FEATURE
100
AcDbLine
 62
7
  6
CONTINUOUS
 10
4.6528720839
 20
13.6160477814
 11
4.6528720839
 21
13.7440477814
  0
LINE
  5
231
100
AcDbEntity
  8
LAYER_CUT_FEAT
100
AcDbLine
 62
7
  6
CONTINUOUS
 10
4.9416372515
 20
13.5280477814
 11
4.9416372515
 21
12.4080477814
  0
LINE
  5
232
100
AcDbEntity
  8
02___PRT_ALL_AXES
100
AcDbLine
 62
7
  6
CONTINUOUS
 10
4.6508720839
 20
11.4560477814
 11
7.4908720839
 21
11.4560477814
  0
LINE
  5
233
100
AcDbEntity
  8
LAYER_CUT_FEAT
100
AcDbLine
 62
7
  6
CONTINUOUS
 10
5.0934157708
 20
13.5280477814
 11
5.0934157708
 21
12.4080477814
  0
LINE
  5
234
100
AcDbEntity
  8
LAYER_CHAMFER_FEAT
100
AcDbLine
 62
7
  6
CONTINUOUS
 10
4.6508720839
 20
12.2700477814
 11
4.7888720839
 21
12.4080477814
  0
LINE
  5
235
100
AcDbEntity
  8
LAYER_CUT_FEAT
100
AcDbLine
 62
7
  6
CONTINUOUS
 10
5.9911977467
 20
11.7860477814
 11
6.150546421
 21
11.7860477814
  0
LINE
  5
236
100
AcDbEntity
  8
LAYER_CUT_FEAT
100
AcDbLine
 62
7
  6
CONTINUOUS
 10
5.3879135156
 20
13.5280477814
 11
5.3879135156
 21
12.4080477814
  0
LINE
  5
237
100
AcDbEntity
  8
LAYER_CUT_FEAT
100
AcDbLine
 62
7
  6
CONTINUOUS
 10
6.150546421
 20
12.0620477814
 11
5.9911977467
 21
12.0620477814
  0
LINE
  5
238
100
AcDbEntity
  8
LAYER_CUT_FEAT
100
AcDbLine
 62
7
  6
CONTINUOUS
 10
5.9115234096
 20
11.9240477814
 11
5.9911977467
 21
11.7860477814
  0
LINE
  5
239
100
AcDbEntity
  8
LAYER_FEATURE
100
AcDbLine
 62
7
  6
CONTINUOUS
 10
7.2908720839
 20
13.5280477814
 11
7.4888720839
 21
13.6160477814
  0
LINE
  5
23A
100
AcDbEntity
  8
LAYER_CUT_FEAT
100
AcDbLine
 62
7
  6
CONTINUOUS
 10
5.7802958741
 20
13.5280477814
 11
5.7802958741
 21
12.4080477814
  0
LINE
  5
23B
100
AcDbEntity
  8
LAYER_CHAMFER_FEAT
100
AcDbLine
 62
7
  6
CONTINUOUS
 10
4.6508720839
 20
12.2700477814
 11
7.4908720839
 21
12.2700477814
  0
LINE
  5
23C
100
AcDbEntity
  8
LAYER_CUT_FEAT
100
AcDbLine
 62
7
  6
CONTINUOUS
 10
5.930741703
 20
13.5280477814
 11
5.930741703
 21
12.4080477814
  0
LINE
  5
23D
100
AcDbEntity
  8
LAYER_CHAMFER_FEAT
100
AcDbLine
 62
7
  6
CONTINUOUS
 10
4.7888721869
 20
12.4080477814
 11
7.3528719808
 21
12.4080477814
  0
LINE
  5
23E
100
AcDbEntity
  8
LAYER_CUT_FEAT
100
AcDbLine
 62
7
  6
CONTINUOUS
 10
6.2302207582
 20
11.9240477814
 11
6.150546421
 21
12.0620477814
  0
LINE
  5
23F
100
AcDbEntity
  8
LAYER_CUT_FEAT
100
AcDbLine
 62
7
  6
CONTINUOUS
 10
6.210826189
 20
13.5280477814
 11
6.210826189
 21
12.4080477814
  0
LINE
  5
240
100
AcDbEntity
  8
LAYER_CUT_FEAT
100
AcDbLine
 62
7
  6
CONTINUOUS
 10
5.9911977467
 20
12.0620477814
 11
5.9115234096
 21
11.9240477814
  0
LINE
  5
241
100
AcDbEntity
  8
LAYER_CUT_FEAT
100
AcDbLine
 62
7
  6
CONTINUOUS
 10
6.3604070699
 20
13.5280477814
 11
6.3604070699
 21
12.4080477814
  0
LINE
  5
242
100
AcDbEntity
  8
LAYER_FEATURE
100
AcDbLine
 62
7
  6
CONTINUOUS
 10
4.8508720839
 20
13.5280477814
 11
4.6528720839
 21
13.6160477814
  0
LINE
  5
243
100
AcDbEntity
  8
LAYER_CUT_FEAT
100
AcDbLine
 62
7
  6
CONTINUOUS
 10
6.150546421
 20
11.7860477814
 11
6.2302207582
 21
11.9240477814
  0
LINE
  5
244
100
AcDbEntity
  8
LAYER_CUT_FEAT
100
AcDbLine
 62
7
  6
CONTINUOUS
 10
6.752434491
 20
13.5280477814
 11
6.752434491
 21
12.4080477814
  0
LINE
  5
245
100
AcDbEntity
  8
LAYER_FEATURE
100
AcDbLine
 62
7
  6
CONTINUOUS
 10
7.4825216588
 20
12.1531982064
 11
7.4908720839
 21
12.1448477814
  0
LINE
  5
246
100
AcDbEntity
  8
LAYER_CHAMFER_FEAT
100
AcDbLine
 62
7
  6
CONTINUOUS
 10
7.4908720839
 20
12.2700477814
 11
7.3528720839
 21
12.4080477814
  0
LINE
  5
247
100
AcDbEntity
  8
LAYER_CUT_FEAT
100
AcDbLine
 62
7
  6
CONTINUOUS
 10
7.0471413452
 20
13.5280477814
 11
7.0471413452
 21
12.4080477814
  0
LINE
  5
248
100
AcDbEntity
  8
LAYER_FEATURE
100
AcDbLine
 62
7
  6
CONTINUOUS
 10
4.8508721819
 20
13.5280477814
 11
7.2908719858
 21
13.5280477814
  0
LINE
  5
249
100
AcDbEntity
  8
LAYER_FEATURE
100
AcDbLine
 62
7
  6
CONTINUOUS
 10
4.6528720839
 20
13.6160477814
 11
7.4888720839
 21
13.6160477814
  0
LINE
  5
24A
100
AcDbEntity
  8
LAYER_CUT_FEAT
100
AcDbLine
 62
7
  6
CONTINUOUS
 10
7.1996611854
 20
13.5280477814
 11
7.1996611854
 21
12.4080477814
  0
LINE
  5
24B
100
AcDbEntity
  8
LAYER_CUT_FEAT
100
AcDbLine
 62
7
  6
CONTINUOUS
 10
7.2001069162
 20
13.5280477814
 11
7.2001069162
 21
12.4080477814
  0
LINE
  5
24C
100
AcDbEntity
  8
LAYER_FEATURE
100
AcDbLine
 62
7
  6
CONTINUOUS
 10
4.6528720839
 20
13.7440477814
 11
7.4888720839
 21
13.7440477814
  0
LINE
  5
24D
100
AcDbEntity
  8
LAYER_FEATURE
100
AcDbLine
 62
7
  6
CONTINUOUS
 10
7.4888720839
 20
13.6160477814
 11
7.4888720839
 21
13.7440477814
  0
LINE
  5
24E
100
AcDbEntity
  8
02___PRT_ALL_AXES
100
AcDbLine
 62
7
  6
CONTINUOUS
 10
7.4908720839
 20
11.4560477814
 11
7.4908720839
 21
11.6480477814
  0
LINE
  5
24F
100
AcDbEntity
  8
LAYER_FEATURE
100
AcDbLine
 62
7
  6
CONTINUOUS
 10
7.4908720839
 20
11.7032478846
 11
7.4908720839
 21
12.1448476781
  0
LINE
  5
250
100
AcDbEntity
  8
02___PRT_ALL_AXES
100
AcDbLine
 62
7
  6
CONTINUOUS
 10
7.4908720839
 20
12.2000477814
 11
7.4908720839
 21
12.2700477814
  0
LINE
  5
251
100
AcDbEntity
  8
LAYER_FEATURE
100
AcDbLine
 62
7
  6
CONTINUOUS
 10
7.4825216583
 20
11.6948973558
 11
7.4908720839
 21
11.7032477814
  0
LINE
  5
252
100
AcDbEntity
  8
LAYER_FEATURE
100
AcDbLine
 62
7
  6
CONTINUOUS
 10
14.6552048132
 20
6.8722742607
 11
14.6635552569
 21
6.8806247044
  0
LINE
  5
253
100
AcDbEntity
  8
LAYER_CHAMFER_FEAT
100
AcDbLine
 62
7
  6
CONTINUOUS
 10
15.2303552569
 20
4.0406247044
 11
14.4163552569
 21
4.0406247044
  0
LINE
  5
254
100
AcDbEntity
  8
LAYER_FEATURE
100
AcDbLine
 62
7
  6
CONTINUOUS
 10
16.7043552569
 20
4.0426247044
 11
16.5763552569
 21
4.0426247044
  0
LINE
  5
255
100
AcDbEntity
  8
02___PRT_ALL_AXES
100
AcDbLine
 62
7
  6
CONTINUOUS
 10
14.4163552569
 20
6.8806247044
 11
14.4163552569
 21
4.0406247044
  0
LINE
  5
256
100
AcDbEntity
  8
LAYER_CUT_FEAT
100
AcDbLine
 62
7
  6
CONTINUOUS
 10
16.4883552569
 20
4.3313898721
 11
15.3683552569
 21
4.3313898721
  0
LINE
  5
257
100
AcDbEntity
  8
LAYER_CUT_FEAT
100
AcDbLine
 62
7
  6
CONTINUOUS
 10
16.4883552569
 20
4.3318356029
 11
15.3683552569
 21
4.3318356029
  0
LINE
  5
258
100
AcDbEntity
  8
LAYER_CUT_FEAT
100
AcDbLine
 62
7
  6
CONTINUOUS
 10
16.4883552569
 20
4.4843554431
 11
15.3683552569
 21
4.4843554431
  0
LINE
  5
259
100
AcDbEntity
  8
LAYER_CUT_FEAT
100
AcDbLine
 62
7
  6
CONTINUOUS
 10
14.7463552569
 20
5.5402990416
 11
14.7463552569
 21
5.3809503673
  0
LINE
  5
25A
100
AcDbEntity
  8
LAYER_CUT_FEAT
100
AcDbLine
 62
7
  6
CONTINUOUS
 10
16.4883552569
 20
4.7790622973
 11
15.3683552569
 21
4.7790622973
  0
LINE
  5
25B
100
AcDbEntity
  8
LAYER_CUT_FEAT
100
AcDbLine
 62
7
  6
CONTINUOUS
 10
15.0223552569
 20
5.3809503673
 11
15.0223552569
 21
5.5402990416
  0
LINE
  5
25C
100
AcDbEntity
  8
LAYER_CUT_FEAT
100
AcDbLine
 62
7
  6
CONTINUOUS
 10
14.8843552569
 20
5.6199733787
 11
14.7463552569
 21
5.5402990416
  0
LINE
  5
25D
100
AcDbEntity
  8
LAYER_CUT_FEAT
100
AcDbLine
 62
7
  6
CONTINUOUS
 10
14.7463552569
 20
5.3809503673
 11
14.8843552569
 21
5.3012760301
  0
LINE
  5
25E
100
AcDbEntity
  8
LAYER_CHAMFER_FEAT
100
AcDbLine
 62
7
  6
CONTINUOUS
 10
15.2303552569
 20
6.8806247044
 11
15.2303552569
 21
4.0406247044
  0
LINE
  5
25F
100
AcDbEntity
  8
LAYER_CUT_FEAT
100
AcDbLine
 62
7
  6
CONTINUOUS
 10
16.4883552569
 20
5.1710897184
 11
15.3683552569
 21
5.1710897184
  0
LINE
  5
260
100
AcDbEntity
  8
LAYER_CHAMFER_FEAT
100
AcDbLine
 62
7
  6
CONTINUOUS
 10
15.3683552569
 20
6.7426247044
 11
15.3683552569
 21
4.1786247044
  0
LINE
  5
261
100
AcDbEntity
  8
LAYER_CUT_FEAT
100
AcDbLine
 62
7
  6
CONTINUOUS
 10
14.8843552569
 20
5.3012760301
 11
15.0223552569
 21
5.3809503673
  0
LINE
  5
262
100
AcDbEntity
  8
LAYER_CUT_FEAT
100
AcDbLine
 62
7
  6
CONTINUOUS
 10
16.4883552569
 20
5.3206705993
 11
15.3683552569
 21
5.3206705993
  0
LINE
  5
263
100
AcDbEntity
  8
LAYER_CUT_FEAT
100
AcDbLine
 62
7
  6
CONTINUOUS
 10
15.0223552569
 20
5.5402990416
 11
14.8843552569
 21
5.6199733787
  0
LINE
  5
264
100
AcDbEntity
  8
LAYER_CUT_FEAT
100
AcDbLine
 62
7
  6
CONTINUOUS
 10
16.4883552569
 20
5.6007550853
 11
15.3683552569
 21
5.6007550853
  0
LINE
  5
265
100
AcDbEntity
  8
LAYER_FEATURE
100
AcDbLine
 62
7
  6
CONTINUOUS
 10
16.5763552569
 20
6.8786247044
 11
16.4883552569
 21
6.6806247044
  0
LINE
  5
266
100
AcDbEntity
  8
LAYER_CUT_FEAT
100
AcDbLine
 62
7
  6
CONTINUOUS
 10
16.4883552569
 20
5.7512009142
 11
15.3683552569
 21
5.7512009142
  0
LINE
  5
267
100
AcDbEntity
  8
LAYER_FEATURE
100
AcDbLine
 62
7
  6
CONTINUOUS
 10
16.5763552569
 20
4.0426247044
 11
16.4883552569
 21
4.2406247044
  0
LINE
  5
268
100
AcDbEntity
  8
LAYER_CUT_FEAT
100
AcDbLine
 62
7
  6
CONTINUOUS
 10
16.4883552569
 20
6.1435832727
 11
15.3683552569
 21
6.1435832727
  0
LINE
  5
269
100
AcDbEntity
  8
LAYER_FEATURE
100
AcDbLine
 62
7
  6
CONTINUOUS
 10
15.1135057005
 20
6.8722742608
 11
15.1051552569
 21
6.8806247044
  0
LINE
  5
26A
100
AcDbEntity
  8
LAYER_CHAMFER_FEAT
100
AcDbLine
 62
7
  6
CONTINUOUS
 10
15.2303552569
 20
4.0406247044
 11
15.3683552569
 21
4.1786247044
  0
LINE
  5
26B
100
AcDbEntity
  8
LAYER_CHAMFER_FEAT
100
AcDbLine
 62
7
  6
CONTINUOUS
 10
15.2303552569
 20
6.8806247044
 11
15.3683552569
 21
6.7426247044
  0
LINE
  5
26C
100
AcDbEntity
  8
LAYER_FEATURE
100
AcDbLine
 62
7
  6
CONTINUOUS
 10
16.4883552569
 20
6.6806247044
 11
16.4883552569
 21
4.2406247044
  0
LINE
  5
26D
100
AcDbEntity
  8
LAYER_CUT_FEAT
100
AcDbLine
 62
7
  6
CONTINUOUS
 10
16.4883552569
 20
6.4380810175
 11
15.3683552569
 21
6.4380810175
  0
LINE
  5
26E
100
AcDbEntity
  8
LAYER_FEATURE
100
AcDbLine
 62
7
  6
CONTINUOUS
 10
16.5763552569
 20
6.8786247044
 11
16.5763552569
 21
4.0426247044
  0
LINE
  5
26F
100
AcDbEntity
  8
LAYER_FEATURE
100
AcDbLine
 62
7
  6
CONTINUOUS
 10
16.7043552569
 20
6.8786247044
 11
16.7043552569
 21
4.0426247044
  0
LINE
  5
270
100
AcDbEntity
  8
LAYER_CUT_FEAT
100
AcDbLine
 62
7
  6
CONTINUOUS
 10
16.4883552569
 20
6.5898595368
 11
15.3683552569
 21
6.5898595368
  0
LINE
  5
271
100
AcDbEntity
  8
LAYER_FEATURE
100
AcDbLine
 62
7
  6
CONTINUOUS
 10
16.7043552569
 20
6.8786247044
 11
16.5763552569
 21
6.8786247044
  0
LINE
  5
272
100
AcDbEntity
  8
02___PRT_ALL_AXES
100
AcDbLine
 62
7
  6
CONTINUOUS
 10
15.2303552569
 20
6.8806247044
 11
15.1603552569
 21
6.8806247044
  0
LINE
  5
273
100
AcDbEntity
  8
02___PRT_ALL_AXES
100
AcDbLine
 62
7
  6
CONTINUOUS
 10
14.6083552569
 20
6.8806247044
 11
14.4163552569
 21
6.8806247044
  0
LINE
  5
274
100
AcDbEntity
  8
LAYER_FEATURE
100
AcDbLine
 62
7
  6
CONTINUOUS
 10
14.6635553602
 20
6.8806247044
 11
15.1051551537
 21
6.8806247044
  0
LINE
  5
275
100
AcDbEntity
  8
02___PRT_ALL_AXES
100
AcDbLine
 62
7
  6
CONTINUOUS
 10
13.8384909328
 20
12.0345518858
 11
14.0355329201
 21
12.6721799902
  0
LINE
  5
276
100
AcDbEntity
  8
LAYER_FEATURE
100
AcDbLine
 62
7
  6
CONTINUOUS
 10
14.3632650331
 20
13.7259475158
 11
14.3942495224
 21
13.8262133602
  0
LINE
  5
277
100
AcDbEntity
  8
LAYER_CUT_FEAT
100
AcDbLine
 62
7
  6
CONTINUOUS
 10
14.6172124126
 20
13.6126172072
 11
14.4438151749
 21
13.0515035403
  0
LINE
  5
278
100
AcDbEntity
  8
LAYER_FEATURE
100
AcDbLine
 62
7
  6
CONTINUOUS
 10
14.6177002353
 20
13.6139396796
 11
14.6172124598
 21
13.6126171926
  0
LINE
  5
279
100
AcDbEntity
  8
LAYER_CUT_FEAT
100
AcDbLine
 62
7
  6
CONTINUOUS
 10
14.7925685969
 20
13.808029044
 11
14.5709928227
 21
13.0910095758
  0
LINE
  5
27A
100
AcDbEntity
  8
LAYER_CUT_FEAT
100
AcDbLine
 62
7
  6
CONTINUOUS
 10
15.0997600299
 20
13.918510965
 11
14.8618763709
 21
13.1487191624
  0
LINE
  5
27B
100
AcDbEntity
  8
LAYER_CUT_FEAT
100
AcDbLine
 62
7
  6
CONTINUOUS
 10
14.4792290534
 20
11.8708740733
 11
14.4695464004
 21
11.8395409969
  0
LINE
  5
27C
100
AcDbEntity
  8
LAYER_CUT_FEAT
100
AcDbLine
 62
7
  6
CONTINUOUS
 10
14.8353363488
 20
12.9726828804
 11
14.728546272
 21
12.8645837669
  0
LINE
  5
27D
100
AcDbEntity
  8
LAYER_CUT_FEAT
100
AcDbLine
 62
7
  6
CONTINUOUS
 10
16.6649901995
 20
11.8828448876
 11
16.5785377068
 21
11.8828448876
  0
LINE
  5
27E
100
AcDbEntity
  8
LAYER_CUT_FEAT
100
AcDbLine
 62
7
  6
CONTINUOUS
 10
14.919527904
 20
12.8011185292
 11
14.8754345265
 21
12.7564846534
  0
LINE
  5
27F
100
AcDbEntity
  8
LAYER_CUT_FEAT
100
AcDbLine
 62
7
  6
CONTINUOUS
 10
14.9152958919
 20
12.7564846534
 11
15.0220859687
 21
12.8645837669
  0
LINE
  5
280
100
AcDbEntity
  8
LAYER_CUT_FEAT
100
AcDbLine
 62
7
  6
CONTINUOUS
 10
16.6740913436
 20
12.0404703633
 11
16.5654368905
 21
12.0404703633
  0
LINE
  5
281
100
AcDbEntity
  8
LAYER_CUT_FEAT
100
AcDbLine
 62
7
  6
CONTINUOUS
 10
14.728546272
 20
12.8645837669
 11
14.7815936121
 21
12.7564846534
  0
LINE
  5
282
100
AcDbEntity
  8
LAYER_CUT_FEAT
100
AcDbLine
 62
7
  6
CONTINUOUS
 10
14.728546272
 20
12.8645837669
 11
14.7685260436
 21
12.7564846534
  0
LINE
  5
283
100
AcDbEntity
  8
LAYER_CUT_FEAT
100
AcDbLine
 62
7
  6
CONTINUOUS
 10
15.4920196005
 20
13.9272430995
 11
15.2503477134
 21
13.1451925862
  0
LINE
  5
284
100
AcDbEntity
  8
LAYER_CUT_FEAT
100
AcDbLine
 62
7
  6
CONTINUOUS
 10
14.8353363488
 20
12.9726828804
 11
14.919527904
 21
12.8011185292
  0
LINE
  5
285
100
AcDbEntity
  8
LAYER_CUT_FEAT
100
AcDbLine
 62
7
  6
CONTINUOUS
 10
15.0220859687
 20
12.8645837669
 11
14.9821061972
 21
12.9726828804
  0
LINE
  5
286
100
AcDbEntity
  8
LAYER_CUT_FEAT
100
AcDbLine
 62
7
  6
CONTINUOUS
 10
15.909629345
 20
13.8328960589
 11
15.668904955
 21
13.0539116474
  0
LINE
  5
287
100
AcDbEntity
  8
LAYER_CUT_FEAT
100
AcDbLine
 62
7
  6
CONTINUOUS
 10
16.0522618816
 20
13.7836091497
 11
15.8109062992
 21
13.0025821991
  0
LINE
  5
288
100
AcDbEntity
  8
LAYER_CUT_FEAT
100
AcDbLine
 62
7
  6
CONTINUOUS
 10
14.7685260436
 20
12.7564846534
 11
14.9152958919
 21
12.7564846534
  0
LINE
  5
289
100
AcDbEntity
  8
LAYER_CUT_FEAT
100
AcDbLine
 62
7
  6
CONTINUOUS
 10
14.9593892695
 20
12.8011185292
 11
14.919527904
 21
12.8011185292
  0
LINE
  5
28A
100
AcDbEntity
  8
LAYER_CUT_FEAT
100
AcDbLine
 62
7
  6
CONTINUOUS
 10
14.9821061972
 20
12.9726828804
 11
14.8353363488
 21
12.9726828804
  0
LINE
  5
28B
100
AcDbEntity
  8
LAYER_CUT_FEAT
100
AcDbLine
 62
7
  6
CONTINUOUS
 10
16.4191621502
 20
13.5890876639
 11
16.1787708111
 21
12.8111810056
  0
LINE
  5
28C
100
AcDbEntity
  8
LAYER_CUT_FEAT
100
AcDbLine
 62
7
  6
CONTINUOUS
 10
15.9305133158
 20
11.422393316
 11
15.9208306629
 21
11.3910602396
  0
LINE
  5
28D
100
AcDbEntity
  8
LAYER_CHAMFER_FEAT
100
AcDbLine
 62
7
  6
CONTINUOUS
 10
14.5887583103
 20
13.0954551305
 11
14.7002473818
 21
13.121674917
  0
LINE
  5
28E
100
AcDbEntity
  8
LAYER_CHAMFER_FEAT
100
AcDbLine
 62
7
  6
CONTINUOUS
 10
16.5309527132
 20
12.495271666
 11
16.4536933145
 21
12.5798191414
  0
LINE
  5
28F
100
AcDbEntity
  8
LAYER_FEATURE
100
AcDbLine
 62
7
  6
CONTINUOUS
 10
16.6109812035
 20
12.2320160384
 11
16.6527354528
 21
12.1819923531
  0
LINE
  5
290
100
AcDbEntity
  8
LAYER_CUT_FEAT
100
AcDbLine
 62
7
  6
CONTINUOUS
 10
16.5586730213
 20
11.9233248606
 11
16.6072810384
 21
11.8242721363
  0
LINE
  5
291
100
AcDbEntity
  8
LAYER_CUT_FEAT
100
AcDbLine
 62
7
  6
CONTINUOUS
 10
16.6822357016
 20
13.3392684263
 11
16.4490566734
 21
12.5847008147
  0
LINE
  5
292
100
AcDbEntity
  8
LAYER_CUT_FEAT
100
AcDbLine
 62
7
  6
CONTINUOUS
 10
16.6740913436
 20
12.0404703633
 11
16.6254833266
 21
12.1395230877
  0
LINE
  5
293
100
AcDbEntity
  8
LAYER_CUT_FEAT
100
AcDbLine
 62
7
  6
CONTINUOUS
 10
16.5677741654
 20
12.0809503363
 11
16.5586730213
 21
11.9233248606
  0
LINE
  5
294
100
AcDbEntity
  8
LAYER_CUT_FEAT
100
AcDbLine
 62
7
  6
CONTINUOUS
 10
16.8014319723
 20
13.0721841512
 11
16.5983245628
 21
12.4149283333
  0
LINE
  5
295
100
AcDbEntity
  8
LAYER_CUT_FEAT
100
AcDbLine
 62
7
  6
CONTINUOUS
 10
16.7762874949
 20
12.8640907428
 11
16.6258803954
 21
12.3773731907
  0
LINE
  5
296
100
AcDbEntity
  8
LAYER_CUT_FEAT
100
AcDbLine
 62
7
  6
CONTINUOUS
 10
16.6254833266
 20
12.1395230877
 11
16.5677741654
 21
12.0809503363
  0
LINE
  5
297
100
AcDbEntity
  8
LAYER_CUT_FEAT
100
AcDbLine
 62
7
  6
CONTINUOUS
 10
16.6649901995
 20
11.8828448876
 11
16.6740913436
 21
12.0404703633
  0
LINE
  5
298
100
AcDbEntity
  8
LAYER_CUT_FEAT
100
AcDbLine
 62
7
  6
CONTINUOUS
 10
16.6072810384
 20
11.8242721363
 11
16.6649901995
 21
11.8828448876
  0
LINE
  5
299
100
AcDbEntity
  8
LAYER_FEATURE
100
AcDbLine
 62
7
  6
CONTINUOUS
 10
17.0728385474
 20
12.8886259703
 11
17.1038230368
 21
12.9888918147
  0
LINE
  5
29A
100
AcDbEntity
  8
02___PRT_ALL_AXES
100
AcDbLine
 62
7
  6
CONTINUOUS
 10
16.5518861305
 20
11.1960493508
 11
16.7489281177
 21
11.8336774552
  0
LINE
  5
29B
100
AcDbEntity
  8
LAYER_FEATURE
100
AcDbLine
 62
7
  6
CONTINUOUS
 10
16.6109812035
 20
11.7317791855
 11
16.6527354528
 21
11.7818028708
  0
CIRCLE
  5
29C
100
AcDbEntity
  8
02___PRT_ALL_AXES
100
AcDbCircle
 62
7
  6
CONTINUOUS
 10
6.1303672762
 20
5.5201198968
 40
1.42
  0
CIRCLE
  5
29D
100
AcDbEntity
  8
LAYER_CUT_FEAT
100
AcDbCircle
 62
7
  6
CONTINUOUS
 10
6.1303672762
 20
5.5201198968
 40
0.7675
  0
CIRCLE
  5
29E
100
AcDbEntity
  8
LAYER_CUT_FEAT
100
AcDbCircle
 62
7
  6
CONTINUOUS
 10
6.1303672762
 20
5.5201198968
 40
0.7595
  0
CIRCLE
  5
29F
100
AcDbEntity
  8
LAYER_CHAMFER_FEAT
100
AcDbCircle
 62
7
  6
CONTINUOUS
 10
6.1303672762
 20
5.5201198968
 40
0.43125
  0
CIRCLE
  5
2A0
100
AcDbEntity
  8
LAYER_CHAMFER_FEAT
100
AcDbCircle
 62
7
  6
CONTINUOUS
 10
6.1303672762
 20
5.5201198968
 40
0.375
  0
CIRCLE
  5
2A1
100
AcDbEntity
  8
02___PRT_ALL_AXES
100
AcDbCircle
 62
7
  6
CONTINUOUS
 10
6.0708720839
 20
11.9240477814
 40
0.276
  0
CIRCLE
  5
2A2
100
AcDbEntity
  8
LAYER_FEATURE
100
AcDbCircle
 62
7
  6
CONTINUOUS
 10
6.0708720839
 20
11.9240477814
 40
0.2208
  0
CIRCLE
  5
2A3
100
AcDbEntity
  8
02___PRT_ALL_AXES
100
AcDbCircle
 62
7
  6
CONTINUOUS
 10
14.8843552569
 20
5.4606247044
 40
0.276
  0
CIRCLE
  5
2A4
100
AcDbEntity
  8
LAYER_FEATURE
100
AcDbCircle
 62
7
  6
CONTINUOUS
 10
14.8843552569
 20
5.4606247044
 40
0.2208
  0
ARC
  5
2A5
100
AcDbEntity
  8
LAYER_FEATURE
100
AcDbCircle
 62
7
  6
CONTINUOUS
 10
15.3059574855
 20
11.9717356351
 40
1.9805097571
100
AcDbArc
 50
68.7447185452
 51
70.810330001
  0
ARC
  5
2A6
100
AcDbEntity
  8
LAYER_FEATURE
100
AcDbCircle
 62
7
  6
CONTINUOUS
 10
15.3321629391
 20
12.1255158321
 40
1.8245836558
100
AcDbArc
 50
81.776644035
 51
83.958336
  0
ARC
  5
2A7
100
AcDbEntity
  8
LAYER_FEATURE
100
AcDbCircle
 62
7
  6
CONTINUOUS
 10
15.4970585648
 20
12.3277771749
 40
1.5756059259
100
AcDbArc
 50
54.8159528274
 51
57.2218442397
  0
ARC
  5
2A8
100
AcDbEntity
  8
LAYER_FEATURE
100
AcDbCircle
 62
7
  6
CONTINUOUS
 10
15.324904545
 20
12.7127626203
 40
1.2356454466
100
AcDbArc
 50
96.8228756538
 51
99.6520185296
  0
ARC
  5
2A9
100
AcDbEntity
  8
LAYER_FEATURE
100
AcDbCircle
 62
7
  6
CONTINUOUS
 10
15.9283137796
 20
12.8010127899
 40
0.9329137774
100
AcDbArc
 50
36.5140601826
 51
39.9262760067
  0
ARC
  5
2AA
100
AcDbEntity
  8
LAYER_FEATURE
100
AcDbCircle
 62
7
  6
CONTINUOUS
 10
15.1483504612
 20
13.2651282308
 40
0.6524530466
100
AcDbArc
 50
118.0002742736
 51
122.3312496976
  0
ARC
  5
2AB
100
AcDbEntity
  8
LAYER_FEATURE
100
AcDbCircle
 62
7
  6
CONTINUOUS
 10
16.327041523
 20
13.0074349605
 40
0.4801680408
100
AcDbArc
 50
8.544113725
 51
13.8575921208
  0
ARC
  5
2AC
100
AcDbEntity
  8
LAYER_FEATURE
100
AcDbCircle
 62
7
  6
CONTINUOUS
 10
14.9713493483
 20
13.4614236428
 40
0.3851352914
100
AcDbArc
 50
150.5158834904
 51
156.6712154559
  0
ARC
  5
2AD
100
AcDbEntity
  8
LAYER_CUT_FEAT
100
AcDbCircle
 62
7
  6
CONTINUOUS
 10
14.7193968238
 20
11.7965466309
 40
0.251407048
100
AcDbArc
 50
152.3974655774
 51
162.8036796065
  0
ARC
  5
2AE
100
AcDbEntity
  8
LAYER_CUT_FEAT
100
AcDbCircle
 62
7
  6
CONTINUOUS
 10
15.6904212709
 20
11.4964868389
 40
0.2512655445
100
AcDbArc
 50
342.849530562
 51
352.9528678632
  0
ARC
  5
2AF
100
AcDbEntity
  8
LAYER_FEATURE
100
AcDbCircle
 62
7
  6
CONTINUOUS
 10
16.4853415918
 20
13.5668464999
 40
0.1464914848
100
AcDbArc
 50
224.3462471873
 51
226.2481180761
  0
SPLINE
  5
2B0
100
AcDbEntity
  8
02___PRT_ALL_AXES
100
AcDbSpline
 62
7
  6
CONTINUOUS
 70
0
 71
3
 72
31
 73
27
 74
0
 42
0.0000001
 43
0.0000001
 44
0.0000000001
 40
0.0
 40
0.0
 40
0.0
 40
0.0
 40
0.0097642214
 40
0.0385945298
 40
0.0851819456
 40
0.1475526551
 40
0.1839040652
 40
0.2232468886
 40
0.2652132553
 40
0.3094127564
 40
0.3554329675
 40
0.4028406036
 40
0.4511844607
 40
0.4999999997
 40
0.5488155387
 40
0.5971593958
 40
0.6445670319
 40
0.690587243
 40
0.7347867442
 40
0.7767531109
 40
0.8160959344
 40
0.8524473445
 40
0.9148180541
 40
0.9614054701
 40
0.9902357786
 40
1.0
 40
1.0
 40
1.0
 40
1.0
 10
7.4908720839
 20
11.6480477814
 30
0.0
 10
7.4905271215
 20
11.6498225811
 30
0.0
 10
7.4891758017
 20
11.6568401205
 30
0.0
 10
7.4863002006
 20
11.6723489867
 30
0.0
 10
7.4819913177
 20
11.6974976052
 30
0.0
 10
7.4779803261
 20
11.7241062972
 30
0.0
 10
7.4746400394
 20
11.749452949
 30
0.0
 10
7.4721048265
 20
11.7710927042
 30
0.0
 10
7.4697619146
 20
11.7942154344
 30
0.0
 10
7.4677023864
 20
11.8186064026
 30
0.0
 10
7.4660075441
 20
11.8440354712
 30
0.0
 10
7.4647451879
 20
11.8702581403
 30
0.0
 10
7.463966482
 20
11.8970175602
 30
0.0
 10
7.4637033274
 20
11.9240477812
 30
0.0
 10
7.463966482
 20
11.9510780022
 30
0.0
 10
7.4647451879
 20
11.9778374221
 30
0.0
 10
7.466007544
 20
12.0040600912
 30
0.0
 10
7.4677023864
 20
12.0294891599
 30
0.0
 10
7.4697619146
 20
12.0538801281
 30
0.0
 10
7.4721048265
 20
12.0770028583
 30
0.0
 10
7.4746400394
 20
12.0986426135
 30
0.0
 10
7.4779803261
 20
12.1239892653
 30
0.0
 10
7.4819913177
 20
12.1505979574
 30
0.0
 10
7.4863002006
 20
12.175746576
 30
0.0
 10
7.4891758017
 20
12.1912554423
 30
0.0
 10
7.4905271215
 20
12.1982729816
 30
0.0
 10
7.4908720839
 20
12.2000477814
 30
0.0
  0
SPLINE
  5
2B1
100
AcDbEntity
  8
02___PRT_ALL_AXES
100
AcDbSpline
 62
7
  6
CONTINUOUS
 70
0
 71
3
 72
31
 73
27
 74
0
 42
0.0000001
 43
0.0000001
 44
0.0000000001
 40
0.0
 40
0.0
 40
0.0
 40
0.0
 40
0.0097642216
 40
0.0385945235
 40
0.0851819315
 40
0.1475526378
 40
0.1839040468
 40
0.2232468692
 40
0.2652132351
 40
0.3094127346
 40
0.3554329412
 40
0.402840599
 40
0.4511844615
 40
0.5000000005
 40
0.5488155395
 40
0.5971594018
 40
0.6445670591
 40
0.6905872657
 40
0.7347867651
 40
0.7767531311
 40
0.8160959534
 40
0.8524473624
 40
0.9148180687
 40
0.9614054766
 40
0.9902357784
 40
1.0
 40
1.0
 40
1.0
 40
1.0
 10
15.1603552569
 20
6.8806247044
 30
0.0
 10
15.1585804571
 20
6.8802797421
 30
0.0
 10
15.1515629189
 20
6.8789284225
 30
0.0
 10
15.1360540553
 20
6.8760528219
 30
0.0
 10
15.11090544
 20
6.8717439394
 30
0.0
 10
15.0842967502
 20
6.867732948
 30
0.0
 10
15.0589500994
 20
6.8643926612
 30
0.0
 10
15.0373103448
 20
6.8618574482
 30
0.0
 10
15.0141876153
 20
6.8595145363
 30
0.0
 10
14.9897966484
 20
6.857455008
 30
0.0
 10
14.9643675769
 20
6.8557601651
 30
0.0
 10
14.9381449036
 20
6.8544978087
 30
0.0
 10
14.9113854787
 20
6.8537191026
 30
0.0
 10
14.8843552566
 20
6.853455948
 30
0.0
 10
14.8573250347
 20
6.8537191026
 30
0.0
 10
14.8305656099
 20
6.8544978087
 30
0.0
 10
14.8043429367
 20
6.8557601651
 30
0.0
 10
14.7789138653
 20
6.857455008
 30
0.0
 10
14.7545228985
 20
6.8595145363
 30
0.0
 10
14.731400169
 20
6.8618574483
 30
0.0
 10
14.7097604143
 20
6.8643926613
 30
0.0
 10
14.6844137636
 20
6.867732948
 30
0.0
 10
14.6578050738
 20
6.8717439394
 30
0.0
 10
14.6326564585
 20
6.8760528219
 30
0.0
 10
14.6171475949
 20
6.8789284225
 30
0.0
 10
14.6101300567
 20
6.8802797421
 30
0.0
 10
14.6083552569
 20
6.8806247044
 30
0.0
  0
SPLINE
  5
2B2
100
AcDbEntity
  8
LAYER_CUT_FEAT
100
AcDbSpline
 62
7
  6
CONTINUOUS
 70
0
 71
3
 72
88
 73
84
 74
0
 42
0.0000001
 43
0.0000001
 44
0.0000000001
 40
0.0
 40
0.0
 40
0.0
 40
0.0
 40
0.0131061145
 40
0.0265340929
 40
0.0402890074
 40
0.0543738904
 40
0.0687891128
 40
0.0835329494
 40
0.0910272989
 40
0.0986022041
 40
0.1062568993
 40
0.1139904917
 40
0.1218020002
 40
0.1296903254
 40
0.1456920631
 40
0.1619856323
 40
0.1785590249
 40
0.1953989648
 40
0.2124910158
 40
0.2298196846
 40
0.2473685181
 40
0.2651201958
 40
0.2830566201
 40
0.301159003
 40
0.3194079486
 40
0.3377835346
 40
0.3562653901
 40
0.3748327729
 40
0.3934646447
 40
0.412139746
 40
0.43083667
 40
0.449533936
 40
0.4682100623
 40
0.4868436389
 40
0.5054134005
 40
0.5238983006
 40
0.542277586
 40
0.5605308728
 40
0.578638223
 40
0.5965802232
 40
0.6143380649
 40
0.6318936276
 40
0.6492295648
 40
0.6663293934
 40
0.6831775876
 40
0.6997596764
 40
0.7160623452
 40
0.7320735442
 40
0.747782602
 40
0.7555211874
 40
0.7631809332
 40
0.7707609427
 40
0.7782604437
 40
0.7856787608
 40
0.7930153555
 40
0.8002697979
 40
0.8074417964
 40
0.8215371833
 40
0.8353026156
 40
0.8487408456
 40
0.8553392722
 40
0.8618581007
 40
0.8746604409
 40
0.8809476664
 40
0.8871606967
 40
0.8993704107
 40
0.9113074646
 40
0.9171804995
 40
0.9229930874
 40
0.9287482043
 40
0.934449003
 40
0.9400988335
 40
0.9457012162
 40
0.9512598492
 40
0.9567785929
 40
0.9622614584
 40
0.967712603
 40
0.9731363053
 40
0.9785369626
 40
0.9839190633
 40
0.9892871775
 40
0.9946459334
 40
1.0
 40
1.0
 40
1.0
 40
1.0
 10
14.4956427067
 20
11.6153006183
 30
0.0
 10
14.4988750627
 20
11.6087137694
 30
0.0
 10
14.5057533525
 20
11.5955398475
 30
0.0
 10
14.5171244553
 20
11.5760522887
 30
0.0
 10
14.5296539006
 20
11.5566330476
 30
0.0
 10
14.5433197417
 20
11.5373156861
 30
0.0
 10
14.558098621
 20
11.5181328929
 30
0.0
 10
14.5712483225
 20
11.5023733131
 30
0.0
 10
14.582293505
 20
11.4898595258
 30
0.0
 10
14.5908848546
 20
11.4804762485
 30
0.0
 10
14.5997344501
 20
11.4711506999
 30
0.0
 10
14.6088385036
 20
11.4618867705
 30
0.0
 10
14.6181931865
 20
11.4526884509
 30
0.0
 10
14.6310555545
 20
11.4404590233
 30
0.0
 10
14.6477415713
 20
11.4253645409
 30
0.0
 10
14.6686053334
 20
11.4076611153
 30
0.0
 10
14.6903683836
 20
11.3903124971
 30
0.0
 10
14.7129934216
 20
11.3733483855
 30
0.0
 10
14.7364418834
 20
11.3567976639
 30
0.0
 10
14.7606737392
 20
11.3406885689
 30
0.0
 10
14.7856476337
 20
11.3250485804
 30
0.0
 10
14.8113209339
 20
11.3099043852
 30
0.0
 10
14.8376498093
 20
11.2952818286
 30
0.0
 10
14.8645893068
 20
11.2812058706
 30
0.0
 10
14.8920934277
 20
11.2677005423
 30
0.0
 10
14.9201152065
 20
11.2547889039
 30
0.0
 10
14.9486067908
 20
11.2424930044
 30
0.0
 10
14.9775195235
 20
11.2308338441
 30
0.0
 10
15.0068040259
 20
11.2198313368
 30
0.0
 10
15.0364102811
 20
11.2095042721
 30
0.0
 10
15.0662877221
 20
11.1998702869
 30
0.0
 10
15.0963853188
 20
11.1909458351
 30
0.0
 10
15.1266516655
 20
11.1827461592
 30
0.0
 10
15.1570350687
 20
11.1752852644
 30
0.0
 10
15.1874836359
 20
11.1685758945
 30
0.0
 10
15.2179453651
 20
11.1626295105
 30
0.0
 10
15.2483682335
 20
11.157456268
 30
0.0
 10
15.2787002877
 20
11.1530649998
 30
0.0
 10
15.3088897337
 20
11.1494632048
 30
0.0
 10
15.3388850256
 20
11.1466570346
 30
0.0
 10
15.3686349539
 20
11.1446512843
 30
0.0
 10
15.3980887338
 20
11.1434493851
 30
0.0
 10
15.4271960926
 20
11.1430533986
 30
0.0
 10
15.4559073549
 20
11.1434640158
 30
0.0
 10
15.4841735361
 20
11.1446805518
 30
0.0
 10
15.5119463993
 20
11.1467009504
 30
0.0
 10
15.5391786376
 20
11.1495218033
 30
0.0
 10
15.5658235896
 20
11.1531383112
 30
0.0
 10
15.5876081516
 20
11.1568282346
 30
0.0
 10
15.6046985136
 20
11.1601783744
 30
0.0
 10
15.6172778159
 20
11.1628730681
 30
0.0
 10
15.6296767212
 20
11.1657611767
 30
0.0
 10
15.6418899847
 20
11.168841414
 30
0.0
 10
15.6539123704
 20
11.1721125399
 30
0.0
 10
15.6657387384
 20
11.1755730888
 30
0.0
 10
15.6773641032
 20
11.1792216589
 30
0.0
 10
15.6925015184
 20
11.1843053194
 30
0.0
 10
15.7109013672
 20
11.1911124453
 30
0.0
 10
15.732230319
 20
11.2000542909
 30
0.0
 10
15.7493441785
 20
11.2081468412
 30
0.0
 10
15.7625515487
 20
11.2149746869
 30
0.0
 10
15.7752784179
 20
11.2219471298
 30
0.0
 10
15.7875962712
 20
11.2292963293
 30
0.0
 10
15.7994695174
 20
11.2370240218
 30
0.0
 10
15.81086077
 20
11.2448752578
 30
0.0
 10
15.8244609297
 20
11.2550841819
 30
0.0
 10
15.837314666
 20
11.2659270686
 30
0.0
 10
15.8470326073
 20
11.2748992364
 30
0.0
 10
15.8540034849
 20
11.2817381672
 30
0.0
 10
15.8606927195
 20
11.2887198481
 30
0.0
 10
15.8670974326
 20
11.2958414273
 30
0.0
 10
15.8732149068
 20
11.3030997928
 30
0.0
 10
15.8790424641
 20
11.310491891
 30
0.0
 10
15.8845776039
 20
11.3180145455
 30
0.0
 10
15.889817948
 20
11.3256645313
 30
0.0
 10
15.8947611838
 20
11.333438603
 30
0.0
 10
15.8994052426
 20
11.341333384
 30
0.0
 10
15.903748026
 20
11.3493455386
 30
0.0
 10
15.9077877406
 20
11.3574715799
 30
0.0
 10
15.9115225609
 20
11.3657080429
 30
0.0
 10
15.9149509259
 20
11.3740514012
 30
0.0
 10
15.9180712991
 20
11.3824979217
 30
0.0
 10
15.9199456849
 20
11.3881964892
 30
0.0
 10
15.9208306539
 20
11.3910602424
 30
0.0
  0
SPLINE
  5
2B3
100
AcDbEntity
  8
LAYER_CUT_FEAT
100
AcDbSpline
 62
7
  6
CONTINUOUS
 70
0
 71
3
 72
88
 73
84
 74
0
 42
0.0000001
 43
0.0000001
 44
0.0000000001
 40
0.0
 40
0.0
 40
0.0
 40
0.0
 40
0.0131061145
 40
0.0265340929
 40
0.0402890074
 40
0.0543738904
 40
0.0687891128
 40
0.0835329494
 40
0.0910272989
 40
0.0986022041
 40
0.1062568993
 40
0.1139904917
 40
0.1218020002
 40
0.1296903254
 40
0.1456920631
 40
0.1619856323
 40
0.1785590249
 40
0.1953989648
 40
0.2124910158
 40
0.2298196846
 40
0.2473685181
 40
0.2651201958
 40
0.2830566201
 40
0.301159003
 40
0.3194079486
 40
0.3377835346
 40
0.3562653901
 40
0.3748327729
 40
0.3934646447
 40
0.412139746
 40
0.43083667
 40
0.449533936
 40
0.4682100623
 40
0.4868436389
 40
0.5054134005
 40
0.5238983006
 40
0.542277586
 40
0.5605308728
 40
0.578638223
 40
0.5965802232
 40
0.6143380649
 40
0.6318936276
 40
0.6492295648
 40
0.6663293934
 40
0.6831775876
 40
0.6997596764
 40
0.7160623452
 40
0.7320735442
 40
0.747782602
 40
0.7555211874
 40
0.7631809332
 40
0.7707609427
 40
0.7782604437
 40
0.7856787608
 40
0.7930153555
 40
0.8002697979
 40
0.8074417964
 40
0.8215371833
 40
0.8353026156
 40
0.8487408456
 40
0.8553392722
 40
0.8618581007
 40
0.8746604409
 40
0.8809476664
 40
0.8871606967
 40
0.8993704107
 40
0.9113074646
 40
0.9171804995
 40
0.9229930874
 40
0.9287482043
 40
0.934449003
 40
0.9400988335
 40
0.9457012162
 40
0.9512598492
 40
0.9567785929
 40
0.9622614584
 40
0.967712603
 40
0.9731363053
 40
0.9785369626
 40
0.9839190633
 40
0.9892871775
 40
0.9946459334
 40
1.0
 40
1.0
 40
1.0
 40
1.0
 10
15.9021028445
 20
11.6153006183
 30
0.0
 10
15.8988364414
 20
11.6219568481
 30
0.0
 10
15.8918857009
 20
11.635269534
 30
0.0
 10
15.8803948234
 20
11.6549623601
 30
0.0
 10
15.8677334024
 20
11.6745861489
 30
0.0
 10
15.8539236156
 20
11.6941069849
 30
0.0
 10
15.8389890668
 20
11.7134918351
 30
0.0
 10
15.8257008563
 20
11.7294174145
 30
0.0
 10
15.8145393321
 20
11.7420630126
 30
0.0
 10
15.8058574877
 20
11.7515451262
 30
0.0
 10
15.7969146772
 20
11.7609689031
 30
0.0
 10
15.7877147285
 20
11.7703304118
 30
0.0
 10
15.7782615105
 20
11.7796256195
 30
0.0
 10
15.76526366
 20
11.7919838626
 30
0.0
 10
15.7484018852
 20
11.8072373389
 30
0.0
 10
15.72731836
 20
11.8251272391
 30
0.0
 10
15.7053260743
 20
11.8426585945
 30
0.0
 10
15.6824627212
 20
11.8598013933
 30
0.0
 10
15.6587672709
 20
11.8765264477
 30
0.0
 10
15.6342801751
 20
11.8928052238
 30
0.0
 10
15.6090432244
 20
11.9086099522
 30
0.0
 10
15.5830995011
 20
11.9239136648
 30
0.0
 10
15.5564932972
 20
11.9386902445
 30
0.0
 10
15.5292700393
 20
11.9529144679
 30
0.0
 10
15.5014762107
 20
11.9665620512
 30
0.0
 10
15.4731592717
 20
11.9796096911
 30
0.0
 10
15.4443675786
 20
11.9920351063
 30
0.0
 10
15.4151503009
 20
12.0038170754
 30
0.0
 10
15.3855573376
 20
12.0149354747
 30
0.0
 10
15.3556392325
 20
12.025371317
 30
0.0
 10
15.3254470851
 20
12.0351067794
 30
0.0
 10
15.295032463
 20
12.0441252346
 30
0.0
 10
15.2644473134
 20
12.0524112797
 30
0.0
 10
15.2337438744
 20
12.0599507619
 30
0.0
 10
15.2029745849
 20
12.0667308033
 30
0.0
 10
15.1721919949
 20
12.072739822
 30
0.0
 10
15.1414486749
 20
12.0779675555
 30
0.0
 10
15.1107971257
 20
12.082405078
 30
0.0
 10
15.0802896869
 20
12.0860448116
 30
0.0
 10
15.0499784473
 20
12.0888805399
 30
0.0
 10
15.0199151556
 20
12.0909074172
 30
0.0
 10
14.9901511318
 20
12.0921219763
 30
0.0
 10
14.960737178
 20
12.0925221338
 30
0.0
 10
14.931723493
 20
12.0921071915
 30
0.0
 10
14.9031595771
 20
12.0908778414
 30
0.0
 10
14.8750941756
 20
12.0888361615
 30
0.0
 10
14.8475750935
 20
12.0859855959
 30
0.0
 10
14.8206494837
 20
12.0823309944
 30
0.0
 10
14.7986354595
 20
12.0786022041
 30
0.0
 10
14.7813650805
 20
12.0752167764
 30
0.0
 10
14.7686532774
 20
12.0724936989
 30
0.0
 10
14.7561237713
 20
12.0695751692
 30
0.0
 10
14.7437818625
 20
12.066462487
 30
0.0
 10
14.7316328421
 20
12.0631569055
 30
0.0
 10
14.719681904
 20
12.0596599058
 30
0.0
 10
14.7079340864
 20
12.0559729044
 30
0.0
 10
14.6926372251
 20
12.0508356964
 30
0.0
 10
14.6740435661
 20
12.0439568694
 30
0.0
 10
14.6524899513
 20
12.0349208372
 30
0.0
 10
14.6351958272
 20
12.0267430461
 30
0.0
 10
14.6218493406
 20
12.019843281
 30
0.0
 10
14.6089884162
 20
12.0127973956
 30
0.0
 10
14.5965408159
 20
12.0053707852
 30
0.0
 10
14.5845425058
 20
11.997561695
 30
0.0
 10
14.5730312665
 20
11.98962776
 30
0.0
 10
14.5592878529
 20
11.9793113027
 30
0.0
 10
14.546298725
 20
11.9683542053
 30
0.0
 10
14.5364784222
 20
11.9592875315
 30
0.0
 10
14.5294341187
 20
11.9523765645
 30
0.0
 10
14.5226744248
 20
11.9453213439
 30
0.0
 10
14.5162022493
 20
11.9381247513
 30
0.0
 10
14.5100203382
 20
11.9307899317
 30
0.0
 10
14.5041313978
 20
11.9233199706
 30
0.0
 10
14.498537955
 20
11.9157180782
 30
0.0
 10
14.4932424131
 20
11.9079875132
 30
0.0
 10
14.4882471089
 20
11.9001315553
 30
0.0
 10
14.4835541332
 20
11.8921536167
 30
0.0
 10
14.4791656062
 20
11.8840570681
 30
0.0
 10
14.4750833403
 20
11.8758454332
 30
0.0
 10
14.4713091802
 20
11.8675222135
 30
0.0
 10
14.4678447033
 20
11.8590909726
 30
0.0
 10
14.4646914625
 20
11.8505554828
 30
0.0
 10
14.4627973334
 20
11.8447968909
 30
0.0
 10
14.4619030427
 20
11.8419029731
 30
0.0
  0
SPLINE
  5
2B4
100
AcDbEntity
  8
LAYER_FEATURE
100
AcDbSpline
 62
7
  6
CONTINUOUS
 70
0
 71
3
 72
50
 73
46
 74
0
 42
0.0000001
 43
0.0000001
 44
0.0000000001
 40
0.0
 40
0.0
 40
0.0
 40
0.0
 40
0.0099899451
 40
0.0202816479
 40
0.0308782603
 40
0.0417816767
 40
0.0529927031
 40
0.0645112023
 40
0.0763359978
 40
0.0884651979
 40
0.1008959916
 40
0.1136249285
 40
0.1266478511
 40
0.1399599387
 40
0.1535558752
 40
0.1674296756
 40
0.1815749702
 40
0.1959848154
 40
0.2106518708
 40
0.225568388
 40
0.2561158748
 40
0.2875586872
 40
0.3198221437
 40
0.3528270653
 40
0.3864903618
 40
0.4207255799
 40
0.4554434319
 40
0.4905522905
 40
0.5259586632
 40
0.5615676553
 40
0.5972834229
 40
0.6330096246
 40
0.6686498733
 40
0.7041081826
 40
0.7392894153
 40
0.7740997327
 40
0.8084470591
 40
0.8422415629
 40
0.8753961066
 40
0.9078269801
 40
0.9394536455
 40
0.9549421352
 40
0.9702023451
 40
0.9852250664
 40
1.0
 40
1.0
 40
1.0
 40
1.0
 10
16.6527354528
 20
12.1819923531
 30
0.0
 10
16.653479108
 20
12.1811014172
 30
0.0
 10
16.6549557657
 20
12.1792647575
 30
0.0
 10
16.6571072436
 20
12.1763937631
 30
0.0
 10
16.6592262715
 20
12.1733682322
 30
0.0
 10
16.6613111686
 20
12.1701906217
 30
0.0
 10
16.6633603181
 20
12.1668634344
 30
0.0
 10
16.6653720667
 20
12.1633892898
 30
0.0
 10
16.6673448842
 20
12.1597709612
 30
0.0
 10
16.6692771517
 20
12.1560112877
 30
0.0
 10
16.6711673924
 20
12.1521132688
 30
0.0
 10
16.6730140798
 20
12.1480799811
 30
0.0
 10
16.6748157531
 20
12.1439146242
 30
0.0
 10
16.6765710079
 20
12.1396205078
 30
0.0
 10
16.6782784061
 20
12.1352010254
 30
0.0
 10
16.6799366464
 20
12.130659699
 30
0.0
 10
16.6815443613
 20
12.126000119
 30
0.0
 10
16.6831003068
 20
12.1212259969
 30
0.0
 10
16.6846032412
 20
12.116341109
 30
0.0
 10
16.6865502341
 20
12.1096323659
 30
0.0
 10
16.6888392041
 20
12.1009949116
 30
0.0
 10
16.6913350031
 20
12.0903324247
 30
0.0
 10
16.6935932083
 20
12.0793255662
 30
0.0
 10
16.695606612
 20
12.06800932
 30
0.0
 10
16.6973687952
 20
12.0564195687
 30
0.0
 10
16.6988741402
 20
12.0445931078
 30
0.0
 10
16.7001178464
 20
12.0325674866
 30
0.0
 10
16.7010959462
 20
12.0203808971
 30
0.0
 10
16.7018053183
 20
12.0080720473
 30
0.0
 10
16.7022436976
 20
11.9956800389
 30
0.0
 10
16.7024096822
 20
11.9832442417
 30
0.0
 10
16.7023027443
 20
11.9708041664
 30
0.0
 10
16.7019232273
 20
11.9583993368
 30
0.0
 10
16.7012723432
 20
11.946069163
 30
0.0
 10
16.7003521687
 20
11.9338528152
 30
0.0
 10
16.6991656391
 20
11.9217890989
 30
0.0
 10
16.6977165376
 20
11.9099163271
 30
0.0
 10
16.6960094848
 20
11.8982722093
 30
0.0
 10
16.6940499329
 20
11.8868936729
 30
0.0
 10
16.6918441247
 20
11.8758169373
 30
0.0
 10
16.6897926279
 20
11.8668054577
 30
0.0
 10
16.6880309561
 20
11.8597766181
 30
0.0
 10
16.686661867
 20
11.8546385031
 30
0.0
 10
16.6852369559
 20
11.849601695
 30
0.0
 10
16.684242182
 20
11.8462859921
 30
0.0
 10
16.6837354266
 20
11.844646131
 30
0.0
  0
SPLINE
  5
2B5
100
AcDbEntity
  8
LAYER_FEATURE
100
AcDbSpline
 62
7
  6
CONTINUOUS
 70
0
 71
3
 72
23
 73
19
 74
0
 42
0.0000001
 43
0.0000001
 44
0.0000000001
 40
0.0
 40
0.0
 40
0.0
 40
0.0
 40
0.0507377599
 40
0.1030494169
 40
0.1569516717
 40
0.2124540879
 40
0.2695607147
 40
0.3282698978
 40
0.3885748112
 40
0.4504644554
 40
0.5139231383
 40
0.5789318001
 40
0.645466365
 40
0.7134998287
 40
0.7830038447
 40
0.8539486725
 40
0.9262969934
 40
1.0
 40
1.0
 40
1.0
 40
1.0
 10
16.6527354527
 20
11.7818028715
 30
0.0
 10
16.6534995324
 20
11.7827182805
 30
0.0
 10
16.6550164296
 20
11.7846069321
 30
0.0
 10
16.657224744
 20
11.7875621732
 30
0.0
 10
16.6593987171
 20
11.790680285
 30
0.0
 10
16.6615365622
 20
11.793958582
 30
0.0
 10
16.6636364873
 20
11.7973943638
 30
0.0
 10
16.6656967534
 20
11.8009847522
 30
0.0
 10
16.667715667
 20
11.804726743
 30
0.0
 10
16.6696915061
 20
11.8086172311
 30
0.0
 10
16.6716226798
 20
11.812652953
 30
0.0
 10
16.6735075089
 20
11.8168305514
 30
0.0
 10
16.6753444693
 20
11.8211464858
 30
0.0
 10
16.6771319911
 20
11.8255971612
 30
0.0
 10
16.6788686167
 20
11.8301789327
 30
0.0
 10
16.6805529015
 20
11.834888025
 30
0.0
 10
16.6821833422
 20
11.8397202603
 30
0.0
 10
16.6832240299
 20
11.8429912506
 30
0.0
 10
16.6837354266
 20
11.844646131
 30
0.0
  0
SPLINE
  5
2B6
100
AcDbEntity
  8
02___PRT_ALL_AXES
100
AcDbSpline
 62
7
  6
CONTINUOUS
 70
0
 71
3
 72
37
 73
33
 74
0
 42
0.0000001
 43
0.0000001
 44
0.0000000001
 40
0.0
 40
0.0
 40
0.0
 40
0.0
 40
0.0201955408
 40
0.040547579
 40
0.0611489932
 40
0.0820889747
 40
0.1034517585
 40
0.1253162808
 40
0.1708184883
 40
0.1945991188
 40
0.2191343212
 40
0.2444714657
 40
0.2706526522
 40
0.297714415
 40
0.3256880279
 40
0.3546007116
 40
0.3844751953
 40
0.4153301142
 40
0.4471811509
 40
0.4800403779
 40
0.5139167373
 40
0.5488170521
 40
0.584745233
 40
0.6217028604
 40
0.659689946
 40
0.6987037915
 40
0.7387398105
 40
0.7797923663
 40
0.8218544861
 40
0.8649182318
 40
0.9089741215
 40
1.0
 40
1.0
 40
1.0
 40
1.0
 10
16.6068010285
 20
11.7058976132
 30
0.0
 10
16.6062196212
 20
11.7058976156
 30
0.0
 10
16.6050519078
 20
11.7059382543
 30
0.0
 10
16.603299633
 20
11.7061202717
 30
0.0
 10
16.6015424143
 20
11.7064234163
 30
0.0
 10
16.599780572
 20
11.70684753
 30
0.0
 10
16.5980141734
 20
11.7073923758
 30
0.0
 10
16.5956217933
 20
11.7082912282
 30
0.0
 10
16.5932493185
 20
11.709426672
 30
0.0
 10
16.5909070453
 20
11.7107728926
 30
0.0
 10
16.5891205031
 20
11.7119165266
 30
0.0
 10
16.5873305487
 20
11.7131786016
 30
0.0
 10
16.5855372712
 20
11.7145586996
 30
0.0
 10
16.5837409459
 20
11.7160562529
 30
0.0
 10
16.5819418102
 20
11.7176706576
 30
0.0
 10
16.5801401731
 20
11.7194012872
 30
0.0
 10
16.5783363519
 20
11.7212474464
 30
0.0
 10
16.5765306847
 20
11.7232083813
 30
0.0
 10
16.5747235643
 20
11.7252833057
 30
0.0
 10
16.5729153956
 20
11.7274713618
 30
0.0
 10
16.5711066091
 20
11.7297716348
 30
0.0
 10
16.5692976835
 20
11.7321831675
 30
0.0
 10
16.5674891096
 20
11.7347049369
 30
0.0
 10
16.5656814075
 20
11.7373358661
 30
0.0
 10
16.5638751423
 20
11.7400748238
 30
0.0
 10
16.5620708961
 20
11.742920604
 30
0.0
 10
16.5602692859
 20
11.745871942
 30
0.0
 10
16.5584709505
 20
11.7489275418
 30
0.0
 10
16.5566765387
 20
11.7520860821
 30
0.0
 10
16.5548867089
 20
11.7553462137
 30
0.0
 10
16.5524812065
 20
11.75987583
 30
0.0
 10
16.5507263345
 20
11.7633468483
 30
0.0
 10
16.5495718772
 20
11.7656993849
 30
0.0
  0
SPLINE
  5
2B7
100
AcDbEntity
  8
LAYER_CHAMFER_FEAT
100
AcDbSpline
 62
7
  6
CONTINUOUS
 70
0
 71
3
 72
29
 73
25
 74
0
 42
0.0000001
 43
0.0000001
 44
0.0000000001
 40
0.0
 40
0.0
 40
0.0
 40
0.0
 40
0.073946061
 40
0.1460958742
 40
0.2164537027
 40
0.285038464
 40
0.3518846658
 40
0.4170433704
 40
0.4805831262
 40
0.5425907775
 40
0.6031718924
 40
0.6624509219
 40
0.6916503436
 40
0.7205794713
 40
0.7492589508
 40
0.777710456
 40
0.8059566838
 40
0.8340211526
 40
0.8619282426
 40
0.8897030433
 40
0.9173712308
 40
0.9449590249
 40
0.9724929995
 40
1.0
 40
1.0
 40
1.0
 40
1.0
 10
14.9756602467
 20
11.8762084223
 30
0.0
 10
14.9716346693
 20
11.8749758335
 30
0.0
 10
14.9637298056
 20
11.8723781422
 30
0.0
 10
14.9521960689
 20
11.8680261858
 30
0.0
 10
14.9411521852
 20
11.8632743954
 30
0.0
 10
14.9306194982
 20
11.8581317569
 30
0.0
 10
14.9206180834
 20
11.8526078609
 30
0.0
 10
14.9111671315
 20
11.8467130057
 30
0.0
 10
14.902284843
 20
11.8404581879
 30
0.0
 10
14.8939883064
 20
11.8338550253
 30
0.0
 10
14.8862938527
 20
11.8269161214
 30
0.0
 10
14.8803659144
 20
11.8208336813
 30
0.0
 10
14.8759480236
 20
11.815815792
 30
0.0
 10
14.8728102833
 20
11.8119959241
 30
0.0
 10
14.8698334484
 20
11.8081028717
 30
0.0
 10
14.8670189488
 20
11.8041384322
 30
0.0
 10
14.8643681003
 20
11.8001045603
 30
0.0
 10
14.8618822417
 20
11.7960031491
 30
0.0
 10
14.8595625631
 20
11.7918361847
 30
0.0
 10
14.8574101574
 20
11.7876056851
 30
0.0
 10
14.8554261425
 20
11.7833136584
 30
0.0
 10
14.8536114088
 20
11.7789621828
 30
0.0
 10
14.851966886
 20
11.7745534306
 30
0.0
 10
14.8509843392
 20
11.7715767898
 30
0.0
 10
14.8505219564
 20
11.7700805179
 30
0.0
  0
SPLINE
  5
2B8
100
AcDbEntity
  8
LAYER_CHAMFER_FEAT
100
AcDbSpline
 62
7
  6
CONTINUOUS
 70
0
 71
3
 72
29
 73
25
 74
0
 42
0.0000001
 43
0.0000001
 44
0.0000000001
 40
0.0
 40
0.0
 40
0.0
 40
0.0
 40
0.0739363251
 40
0.1460774412
 40
0.2164277495
 40
0.2850062898
 40
0.3518476759
 40
0.4170030497
 40
0.480541003
 40
0.542548392
 40
0.6031307658
 40
0.6624125162
 40
0.6916138098
 40
0.7205451344
 40
0.7492271117
 40
0.7776813988
 40
0.805930666
 40
0.8339984039
 40
0.8619089671
 40
0.8896874118
 40
0.9173593831
 40
0.9449510672
 40
0.9724890026
 40
1.0
 40
1.0
 40
1.0
 40
1.0
 10
15.5237345077
 20
11.7067519568
 30
0.0
 10
15.5263586022
 20
11.703465203
 30
0.0
 10
15.5314114762
 20
11.6968649193
 30
0.0
 10
15.5384672714
 20
11.6867714625
 30
0.0
 10
15.5448938327
 20
11.676624518
 30
0.0
 10
15.5506786469
 20
11.6664435056
 30
0.0
 10
15.5558105859
 20
11.6562476285
 30
0.0
 10
15.5602796494
 20
11.6460561747
 30
0.0
 10
15.5640770409
 20
11.6358884484
 30
0.0
 10
15.5671952306
 20
11.6257636401
 30
0.0
 10
15.5696278683
 20
11.6157013267
 30
0.0
 10
15.5710869031
 20
11.6073415404
 30
0.0
 10
15.5719010392
 20
11.6007112726
 30
0.0
 10
15.5723350148
 20
11.5957910041
 30
0.0
 10
15.5725950997
 20
11.5909010609
 30
0.0
 10
15.5726811363
 20
11.586043729
 30
0.0
 10
15.5725931386
 20
11.581221359
 30
0.0
 10
15.5723310658
 20
11.5764362644
 30
0.0
 10
15.5718950641
 20
11.5716907509
 30
0.0
 10
15.5712853621
 20
11.5669870964
 30
0.0
 10
15.5705021722
 20
11.5623275845
 30
0.0
 10
15.5695459341
 20
11.5577144276
 30
0.0
 10
15.5684170979
 20
11.5531499402
 30
0.0
 10
15.5675496102
 20
11.5501401647
 30
0.0
 10
15.5670875682
 20
11.5486449959
 30
0.0
  0
SPLINE
  5
2B9
100
AcDbEntity
  8
02___PRT_ALL_AXES
100
AcDbSpline
 62
7
  6
CONTINUOUS
 70
0
 71
3
 72
55
 73
51
 74
0
 42
0.0000001
 43
0.0000001
 44
0.0000000001
 40
0.0
 40
0.0
 40
0.0
 40
0.0
 40
0.0135648359
 40
0.0271104069
 40
0.0406433417
 40
0.054170496
 40
0.0676989177
 40
0.0812358596
 40
0.0947887326
 40
0.1083650928
 40
0.1219726015
 40
0.1356189885
 40
0.149312018
 40
0.1630594231
 40
0.176868889
 40
0.1907479682
 40
0.2047040625
 40
0.2187443312
 40
0.232875658
 40
0.2471045864
 40
0.2614372797
 40
0.2758794648
 40
0.2904363698
 40
0.3051127175
 40
0.3199126547
 40
0.3348397479
 40
0.3650817809
 40
0.3958594836
 40
0.4271778087
 40
0.4590308191
 40
0.491401728
 40
0.5242631558
 40
0.5575775067
 40
0.5912974036
 40
0.6253662345
 40
0.6597186927
 40
0.6942814747
 40
0.7289739739
 40
0.7637092173
 40
0.7983948704
 40
0.8329345333
 40
0.8672292151
 40
0.8842544758
 40
0.9011810945
 40
0.9179968376
 40
0.9346895565
 40
0.9512472532
 40
0.9676589262
 40
0.9839140794
 40
1.0
 40
1.0
 40
1.0
 40
1.0
 10
15.1287207355
 20
12.974699428
 30
0.0
 10
15.1297952846
 20
12.9725097388
 30
0.0
 10
15.1318489219
 20
12.9680866377
 30
0.0
 10
15.1346378622
 20
12.9613291499
 30
0.0
 10
15.137128591
 20
12.9544631972
 30
0.0
 10
15.1393172127
 20
12.9474983175
 30
0.0
 10
15.1412000749
 20
12.94044387
 30
0.0
 10
15.1427740727
 20
12.9333094097
 30
0.0
 10
15.1440362594
 20
12.9261044838
 30
0.0
 10
15.1449842829
 20
12.9188387361
 30
0.0
 10
15.1456160326
 20
12.9115218122
 30
0.0
 10
15.1459299291
 20
12.9041633889
 30
0.0
 10
15.145924802
 20
12.8967731319
 30
0.0
 10
15.1455998836
 20
12.8893606853
 30
0.0
 10
15.1449550089
 20
12.8819356389
 30
0.0
 10
15.1439902823
 20
12.8745075274
 30
0.0
 10
15.1427065565
 20
12.8670857631
 30
0.0
 10
15.1411048889
 20
12.8596796847
 30
0.0
 10
15.1391871098
 20
12.8522984423
 30
0.0
 10
15.1369553084
 20
12.8449510745
 30
0.0
 10
15.1344122266
 20
12.8376463957
 30
0.0
 10
15.1315610194
 20
12.8303930366
 30
0.0
 10
15.1284052888
 20
12.8231994108
 30
0.0
 10
15.124949232
 20
12.8160736745
 30
0.0
 10
15.1211972282
 20
12.8090236922
 30
0.0
 10
15.1157839201
 20
12.7996953683
 30
0.0
 10
15.1082924428
 20
12.788262458
 30
0.0
 10
15.0982497082
 20
12.7750250599
 30
0.0
 10
15.0871678833
 20
12.762258944
 30
0.0
 10
15.0751060111
 20
12.750010472
 30
0.0
 10
15.0621269653
 20
12.7383208468
 30
0.0
 10
15.0482973831
 20
12.7272272839
 30
0.0
 10
15.033687066
 20
12.7167631322
 30
0.0
 10
15.0183686433
 20
12.7069583318
 30
0.0
 10
15.0024172883
 20
12.697839785
 30
0.0
 10
14.9859105086
 20
12.6894317137
 30
0.0
 10
14.9689279914
 20
12.6817559683
 30
0.0
 10
14.9515514433
 20
12.6748322587
 30
0.0
 10
14.9338644584
 20
12.66867833
 30
0.0
 10
14.9159521922
 20
12.6633100269
 30
0.0
 10
14.8979014524
 20
12.6587414036
 30
0.0
 10
14.8827796906
 20
12.6556030025
 30
0.0
 10
14.8706880413
 20
12.6535041927
 30
0.0
 10
14.8616609515
 20
12.6521407993
 30
0.0
 10
14.8526652156
 20
12.6509853372
 30
0.0
 10
14.8437118006
 20
12.6500386255
 30
0.0
 10
14.83481161
 20
12.6493013155
 30
0.0
 10
14.8259753006
 20
12.6487739405
 30
0.0
 10
14.8172138658
 20
12.6484569375
 30
0.0
 10
14.8113982778
 20
12.6483855399
 30
0.0
 10
14.8085058151
 20
12.6483855399
 30
0.0
  0
SPLINE
  5
2BA
100
AcDbEntity
  8
LAYER_CUT_FEAT
100
AcDbSpline
 62
7
  6
CONTINUOUS
 70
0
 71
3
 72
27
 73
23
 74
0
 42
0.0000001
 43
0.0000001
 44
0.0000000001
 40
0.0
 40
0.0
 40
0.0
 40
0.0
 40
0.0290769699
 40
0.0581681956
 40
0.0872878986
 40
0.1164502263
 40
0.1456692345
 40
0.1749588356
 40
0.2043327677
 40
0.2338045896
 40
0.2930899079
 40
0.3529232791
 40
0.4134031722
 40
0.4746225519
 40
0.5366682646
 40
0.5996205829
 40
0.6635530745
 40
0.7285324095
 40
0.794617621
 40
0.8618611532
 40
0.9303107361
 40
1.0
 40
1.0
 40
1.0
 40
1.0
 10
15.9284740206
 20
11.3886982634
 30
0.0
 10
15.9291429322
 20
11.3908628562
 30
0.0
 10
15.9304226554
 20
11.3952114084
 30
0.0
 10
15.9321660359
 20
11.4017861958
 30
0.0
 10
15.933733051
 20
11.4084121186
 30
0.0
 10
15.9351233275
 20
11.415087518
 30
0.0
 10
15.9363364914
 20
11.4218108204
 30
0.0
 10
15.9373722735
 20
11.428580385
 30
0.0
 10
15.9382304549
 20
11.4353946425
 30
0.0
 10
15.9391393048
 20
11.4445549693
 30
0.0
 10
15.9398282049
 20
11.4561179123
 30
0.0
 10
15.9399394823
 20
11.4701171799
 30
0.0
 10
15.9393372176
 20
11.4842547719
 30
0.0
 10
15.9380220549
 20
11.4985167894
 30
0.0
 10
15.9359954418
 20
11.5128895732
 30
0.0
 10
15.9332595244
 20
11.5273593141
 30
0.0
 10
15.9298170308
 20
11.5419121565
 30
0.0
 10
15.9256714216
 20
11.5565341705
 30
0.0
 10
15.9208268668
 20
11.5712113778
 30
0.0
 10
15.9152879937
 20
11.5859299764
 30
0.0
 10
15.9090603641
 20
11.6006754794
 30
0.0
 10
15.9044949831
 20
11.6104259523
 30
0.0
 10
15.9021028445
 20
11.6153006183
 30
0.0
  0
SPLINE
  5
2BB
100
AcDbEntity
  8
LAYER_CUT_FEAT
100
AcDbSpline
 62
7
  6
CONTINUOUS
 70
0
 71
3
 72
27
 73
23
 74
0
 42
0.0000001
 43
0.0000001
 44
0.0000000001
 40
0.0
 40
0.0
 40
0.0
 40
0.0
 40
0.0290769699
 40
0.0581681956
 40
0.0872878986
 40
0.1164502263
 40
0.1456692345
 40
0.1749588356
 40
0.2043327677
 40
0.2338045896
 40
0.2930899079
 40
0.3529232791
 40
0.4134031722
 40
0.4746225519
 40
0.5366682646
 40
0.5996205829
 40
0.6635530745
 40
0.7285324095
 40
0.794617621
 40
0.8618611532
 40
0.9303107361
 40
1.0
 40
1.0
 40
1.0
 40
1.0
 10
14.4695464093
 20
11.8395409941
 30
0.0
 10
14.4688844701
 20
11.8373989639
 30
0.0
 10
14.4676180861
 20
11.8330957387
 30
0.0
 10
14.4658928776
 20
11.8265894833
 30
0.0
 10
14.4643421962
 20
11.8200326254
 30
0.0
 10
14.4629664112
 20
11.8134268068
 30
0.0
 10
14.4617658926
 20
11.8067735844
 30
0.0
 10
14.460740907
 20
11.800074582
 30
0.0
 10
14.4598916708
 20
11.7933313525
 30
0.0
 10
14.4589922943
 20
11.784266508
 30
0.0
 10
14.4583105748
 20
11.7728240908
 30
0.0
 10
14.4582004573
 20
11.7589707439
 30
0.0
 10
14.4587964444
 20
11.7449805144
 30
0.0
 10
14.4600978985
 20
11.7308671564
 30
0.0
 10
14.4621033873
 20
11.7166441866
 30
0.0
 10
14.464810787
 20
11.7023252704
 30
0.0
 10
14.4682173979
 20
11.6879241189
 30
0.0
 10
14.4723197956
 20
11.6734545167
 30
0.0
 10
14.4771138534
 20
11.6589302966
 30
0.0
 10
14.4825949924
 20
11.6443651166
 30
0.0
 10
14.4887577086
 20
11.6297733127
 30
0.0
 10
14.4932755024
 20
11.6201244734
 30
0.0
 10
14.4956427067
 20
11.6153006183
 30
0.0
  0
SPLINE
  5
2BC
100
AcDbEntity
  8
LAYER_CHAMFER_FEAT
100
AcDbSpline
 62
7
  6
CONTINUOUS
 70
0
 71
3
 72
39
 73
35
 74
0
 42
0.0000001
 43
0.0000001
 44
0.0000000001
 40
0.0
 40
0.0
 40
0.0
 40
0.0
 40
0.0378630326
 40
0.0752495755
 40
0.1121557739
 40
0.1485787272
 40
0.1845166155
 40
0.2199686539
 40
0.2549352166
 40
0.2894178354
 40
0.3234192538
 40
0.3569435083
 40
0.3899959057
 40
0.4225831554
 40
0.4547133269
 40
0.4863959534
 40
0.5176420395
 40
0.548464082
 40
0.5788761418
 40
0.6088937926
 40
0.6385342064
 40
0.667816088
 40
0.6967597012
 40
0.7253868352
 40
0.7537207423
 40
0.7817861234
 40
0.8096090038
 40
0.8372166884
 40
0.8646376209
 40
0.8919012712
 40
0.9190379972
 40
0.9460788729
 40
0.9730555373
 40
1.0
 40
1.0
 40
1.0
 40
1.0
 10
14.5887583135
 20
13.0954551271
 30
0.0
 10
14.5798016821
 20
13.0933487188
 30
0.0
 10
14.5620443897
 20
13.0889757128
 30
0.0
 10
14.5357255203
 20
13.0818872028
 30
0.0
 10
14.5099059865
 20
13.0743149914
 30
0.0
 10
14.4846010099
 20
13.0662634336
 30
0.0
 10
14.4598252793
 20
13.0577372728
 30
0.0
 10
14.4355932675
 20
13.0487413862
 30
0.0
 10
14.4119190848
 20
13.0392810353
 30
0.0
 10
14.3888165369
 20
13.0293616945
 30
0.0
 10
14.3662991072
 20
13.0189890841
 30
0.0
 10
14.3443799042
 20
13.0081692736
 30
0.0
 10
14.323071751
 20
12.9969084506
 30
0.0
 10
14.3023870464
 20
12.9852132162
 30
0.0
 10
14.2823378977
 20
12.9730902801
 30
0.0
 10
14.2629360031
 20
12.960546691
 30
0.0
 10
14.2441926977
 20
12.9475897189
 30
0.0
 10
14.2261189769
 20
12.9342268218
 30
0.0
 10
14.2087253754
 20
12.9204658081
 30
0.0
 10
14.1920221471
 20
12.9063145708
 30
0.0
 10
14.17601904
 20
12.8917813832
 30
0.0
 10
14.160725494
 20
12.8768746295
 30
0.0
 10
14.1461505008
 20
12.8616029758
 30
0.0
 10
14.1323026245
 20
12.8459753199
 30
0.0
 10
14.119190096
 20
12.8300007044
 30
0.0
 10
14.1068205899
 20
12.8136885025
 30
0.0
 10
14.095201511
 20
12.7970481685
 30
0.0
 10
14.0843396821
 20
12.7800894775
 30
0.0
 10
14.0742415837
 20
12.7628223349
 30
0.0
 10
14.0649132214
 20
12.7452568552
 30
0.0
 10
14.056360096
 20
12.727403412
 30
0.0
 10
14.0485873409
 20
12.709272346
 30
0.0
 10
14.041599598
 20
12.6908748196
 30
0.0
 10
14.0374661242
 20
12.6784357933
 30
0.0
 10
14.0355329282
 20
12.6721799877
 30
0.0
  0
SPLINE
  5
2BD
100
AcDbEntity
  8
LAYER_CHAMFER_FEAT
100
AcDbSpline
 62
7
  6
CONTINUOUS
 70
0
 71
3
 72
40
 73
36
 74
0
 42
0.0000001
 43
0.0000001
 44
0.0000000001
 40
0.0
 40
0.0
 40
0.0
 40
0.0
 40
0.03786297
 40
0.0752494669
 40
0.1121555981
 40
0.1485785072
 40
0.184516335
 40
0.2199683223
 40
0.2549348367
 40
0.2894173956
 40
0.323418774
 40
0.3569429667
 40
0.3899953234
 40
0.4225825202
 40
0.454712643
 40
0.4863952279
 40
0.5176412582
 40
0.5484632644
 40
0.5788752697
 40
0.6088928813
 40
0.6385332495
 40
0.6678150848
 40
0.6967586604
 40
0.7253857444
 40
0.7537196156
 40
0.7817849499
 40
0.8096077908
 40
0.8372154348
 40
0.8646363239
 40
0.8918999365
 40
0.9190366191
 40
0.9460774559
 40
0.9730540796
 40
0.9865290544
 40
1.0
 40
1.0
 40
1.0
 40
1.0
 10
16.530952711
 20
12.4952716655
 30
0.0
 10
16.5371594564
 20
12.4884794283
 30
0.0
 10
16.5493537617
 20
12.4748506511
 30
0.0
 10
16.5670850435
 20
12.4541496511
 30
0.0
 10
16.5841310948
 20
12.4333309345
 30
0.0
 10
16.6004819229
 20
12.4124067924
 30
0.0
 10
16.6161279708
 20
12.391389335
 30
0.0
 10
16.6310601128
 20
12.3702908167
 30
0.0
 10
16.6452696452
 20
12.3491235223
 30
0.0
 10
16.65874822
 20
12.3278997356
 30
0.0
 10
16.6714880231
 20
12.3066318488
 30
0.0
 10
16.6834815281
 20
12.2853321847
 30
0.0
 10
16.6947217752
 20
12.2640131726
 30
0.0
 10
16.7052021385
 20
12.2426871892
 30
0.0
 10
16.7149164679
 20
12.221366642
 30
0.0
 10
16.723859089
 20
12.2000639508
 30
0.0
 10
16.7320246648
 20
12.1787914791
 30
0.0
 10
16.7394084609
 20
12.1575616446
 30
0.0
 10
16.7460060204
 20
12.1363867736
 30
0.0
 10
16.751813486
 20
12.1152792247
 30
0.0
 10
16.756827367
 20
12.0942512902
 30
0.0
 10
16.7610446348
 20
12.0733152328
 30
0.0
 10
16.764462804
 20
12.0524832878
 30
0.0
 10
16.7670796959
 20
12.0317676121
 30
0.0
 10
16.7688937948
 20
12.0111803409
 30
0.0
 10
16.7699038634
 20
11.9907335214
 30
0.0
 10
16.7701092785
 20
11.9704391508
 30
0.0
 10
16.7695098344
 20
11.9503091436
 30
0.0
 10
16.768105763
 20
11.9303553334
 30
0.0
 10
16.7658979146
 20
11.9105894744
 30
0.0
 10
16.7628874034
 20
11.8910231609
 30
0.0
 10
16.759076141
 20
11.8716681459
 30
0.0
 10
16.7552329542
 20
11.8557181416
 30
0.0
 10
16.7517619863
 20
11.8430818458
 30
0.0
 10
16.7498946168
 20
11.8368050667
 30
0.0
 10
16.7489281096
 20
11.8336774577
 30
0.0
  0
SPLINE
  5
2BE
100
AcDbEntity
  8
LAYER_FEATURE
100
AcDbSpline
 62
7
  6
CONTINUOUS
 70
0
 71
3
 72
34
 73
30
 74
0
 42
0.0000001
 43
0.0000001
 44
0.0000000001
 40
0.0
 40
0.0
 40
0.0
 40
0.0
 40
0.0280166671
 40
0.0560558886
 40
0.0841401327
 40
0.1122916826
 40
0.1405325665
 40
0.1688844525
 40
0.197368596
 40
0.2260057369
 40
0.2548160614
 40
0.2838191097
 40
0.3130337491
 40
0.3424781003
 40
0.3721695148
 40
0.4021245271
 40
0.4323588308
 40
0.4628872609
 40
0.4937237619
 40
0.5248814044
 40
0.5563723399
 40
0.5882078513
 40
0.6529477272
 40
0.7191792204
 40
0.7869608711
 40
0.8563378882
 40
0.8916373794
 40
0.927346876
 40
1.0
 40
1.0
 40
1.0
 40
1.0
 10
14.3632650332
 20
13.7259475158
 30
0.0
 10
14.3616810146
 20
13.720821625
 30
0.0
 10
14.358689078
 20
13.7105099338
 30
0.0
 10
14.3547365408
 20
13.6948866641
 30
0.0
 10
14.3513201673
 20
13.6791108403
 30
0.0
 10
14.3484412529
 20
13.6631889755
 30
0.0
 10
14.346101021
 20
13.6471272855
 30
0.0
 10
14.3443002711
 20
13.6309321585
 30
0.0
 10
14.3430397983
 20
13.6146099836
 30
0.0
 10
14.3423199805
 20
13.5981672202
 30
0.0
 10
14.3421411604
 20
13.5816103602
 30
0.0
 10
14.3425033072
 20
13.5649459399
 30
0.0
 10
14.3434063069
 20
13.5481805349
 30
0.0
 10
14.3448497273
 20
13.5313207519
 30
0.0
 10
14.3468329978
 20
13.5143732352
 30
0.0
 10
14.3493552894
 20
13.4973446554
 30
0.0
 10
14.3524155785
 20
13.480241711
 30
0.0
 10
14.3560126416
 20
13.463071133
 30
0.0
 10
14.3601450101
 20
13.445839653
 30
0.0
 10
14.3648110557
 20
13.428554086
 30
0.0
 10
14.3700089152
 20
13.4112210719
 30
0.0
 10
14.3776881512
 20
13.3879276597
 30
0.0
 10
14.3886308313
 20
13.3587179496
 30
0.0
 10
14.4037776639
 20
13.3237849955
 30
0.0
 10
14.4209887466
 20
13.2888297958
 30
0.0
 10
14.4369355588
 20
13.2598964436
 30
0.0
 10
14.4506800132
 20
13.2367902263
 30
0.0
 10
14.4652514352
 20
13.2134536482
 30
0.0
 10
14.4767996196
 20
13.1962036503
 30
0.0
 10
14.4847677346
 20
13.1847986839
 30
0.0
  0
SPLINE
  5
2BF
100
AcDbEntity
  8
LAYER_FEATURE
100
AcDbSpline
 62
7
  6
CONTINUOUS
 70
0
 71
3
 72
34
 73
30
 74
0
 42
0.0000001
 43
0.0000001
 44
0.0000000001
 40
0.0
 40
0.0
 40
0.0
 40
0.0
 40
0.0280165197
 40
0.0560555952
 40
0.0841396955
 40
0.1122911058
 40
0.140531854
 40
0.1688836114
 40
0.1973676321
 40
0.2260046598
 40
0.2548148782
 40
0.2838178326
 40
0.3130323864
 40
0.3424766662
 40
0.3721680185
 40
0.4021229847
 40
0.4323572522
 40
0.4628856631
 40
0.4937221558
 40
0.5248798076
 40
0.5563707639
 40
0.5882063135
 40
0.6529463069
 40
0.719177976
 40
0.7869598594
 40
0.8563371638
 40
0.8916368197
 40
0.9273464901
 40
1.0
 40
1.0
 40
1.0
 40
1.0
 10
17.0728385472
 20
12.8886259703
 30
0.0
 10
17.0712544812
 20
12.883499926
 30
0.0
 10
17.0679071316
 20
12.8732977285
 30
0.0
 10
17.0623561889
 20
12.8581678987
 30
0.0
 10
17.0562764639
 20
12.8432146088
 30
0.0
 10
17.0496705507
 20
12.8284439726
 30
0.0
 10
17.0425409634
 20
12.8138618048
 30
0.0
 10
17.0348906249
 20
12.7994738425
 30
0.0
 10
17.026722508
 20
12.7852857963
 30
0.0
 10
17.0180399184
 20
12.7713032292
 30
0.0
 10
17.0088462645
 20
12.7575316768
 30
0.0
 10
16.9991452302
 20
12.7439765395
 30
0.0
 10
16.9889406498
 20
12.7306431601
 30
0.0
 10
16.978236578
 20
12.7175367741
 30
0.0
 10
16.9670372641
 20
12.7046625206
 30
0.0
 10
16.9553471283
 20
12.6920254664
 30
0.0
 10
16.943170822
 20
12.6796305382
 30
0.0
 10
16.9305131283
 20
12.6674826303
 30
0.0
 10
16.9173790812
 20
12.6555864465
 30
0.0
 10
16.9037738497
 20
12.6439467203
 30
0.0
 10
16.889702737
 20
12.6325678602
 30
0.0
 10
16.8702198965
 20
12.6176676353
 30
0.0
 10
16.8447044718
 20
12.5997236932
 30
0.0
 10
16.8124886412
 20
12.5794262068
 30
0.0
 10
16.7785558121
 20
12.5602750225
 30
0.0
 10
16.7490644137
 20
12.5453826518
 30
0.0
 10
16.7246791573
 20
12.5340590498
 30
0.0
 10
16.6994811049
 20
12.5230118175
 30
0.0
 10
16.6802133796
 20
12.5152844259
 30
0.0
 10
16.6671994676
 20
12.5103632568
 30
0.0
  0
SPLINE
  5
2C0
100
AcDbEntity
  8
02___PRT_ALL_AXES
100
AcDbSpline
 62
7
  6
CONTINUOUS
 70
0
 71
3
 72
83
 73
79
 74
0
 42
0.0000001
 43
0.0000001
 44
0.0000000001
 40
0.0
 40
0.0
 40
0.0
 40
0.0
 40
0.005311733
 40
0.0106263011
 40
0.0159465321
 40
0.0212752387
 40
0.0266152116
 40
0.0319692119
 40
0.0373399649
 40
0.0427301527
 40
0.0481424088
 40
0.0535793115
 40
0.0590433787
 40
0.0645370634
 40
0.0700627476
 40
0.0756227403
 40
0.0812192713
 40
0.0868544909
 40
0.0925304641
 40
0.0982491706
 40
0.1040125023
 40
0.1098222602
 40
0.1215870343
 40
0.133556901
 40
0.1396226317
 40
0.1457436834
 40
0.1519212187
 40
0.1581563119
 40
0.1708023962
 40
0.1836894344
 40
0.1968229113
 40
0.210207011
 40
0.223844672
 40
0.2377376443
 40
0.2518865488
 40
0.2662909353
 40
0.2809493409
 40
0.295859346
 40
0.3110176296
 40
0.3264200215
 40
0.3420615534
 40
0.3579365075
 40
0.3740384629
 40
0.3903603404
 40
0.4068944449
 40
0.4236325067
 40
0.4405657198
 40
0.4576847803
 40
0.4749799215
 40
0.4924409496
 40
0.5100572771
 40
0.5278179553
 40
0.5457117062
 40
0.5637269529
 40
0.5818518504
 40
0.6000743141
 40
0.6183820493
 40
0.6367625795
 40
0.6552032741
 40
0.6736913765
 40
0.692214031
 40
0.7107583101
 40
0.7293112417
 40
0.7478598356
 40
0.7663911107
 40
0.7848921217
 40
0.8033499861
 40
0.8217519112
 40
0.8400852217
 40
0.8583373867
 40
0.8764960479
 40
0.894549048
 40
0.9124844587
 40
0.9302906117
 40
0.9479561231
 40
0.9654699434
 40
0.9828213247
 40
1.0
 40
1.0
 40
1.0
 40
1.0
 10
13.8384909346
 20
12.0345518852
 30
0.0
 10
13.8371995744
 20
12.0303730456
 30
0.0
 10
13.8347338802
 20
12.0219762344
 30
0.0
 10
13.8313903011
 20
12.0092765644
 30
0.0
 10
13.8284020857
 20
11.9964741552
 30
0.0
 10
13.8257700398
 20
11.9835724912
 30
0.0
 10
13.8234948572
 20
11.9705749102
 30
0.0
 10
13.8215771066
 20
11.957484827
 30
0.0
 10
13.8200173067
 20
11.9443056602
 30
0.0
 10
13.8188158377
 20
11.9310408605
 30
0.0
 10
13.8179730188
 20
11.9176938948
 30
0.0
 10
13.817489057
 20
11.9042682531
 30
0.0
 10
13.8173640634
 20
11.8907674436
 30
0.0
 10
13.817598075
 20
11.8771949935
 30
0.0
 10
13.8181909987
 20
11.8635544462
 30
0.0
 10
13.8191426928
 20
11.8498493642
 30
0.0
 10
13.8204528746
 20
11.8360833211
 30
0.0
 10
13.8221212084
 20
11.8222599114
 30
0.0
 10
13.8241472386
 20
11.8083827326
 30
0.0
 10
13.8265304211
 20
11.7944554231
 30
0.0
 10
13.8292701523
 20
11.7804815345
 30
0.0
 10
13.8334145764
 20
11.7617151902
 30
0.0
 10
13.8394957567
 20
11.7381503328
 30
0.0
 10
13.8466967544
 20
11.7146834292
 30
0.0
 10
13.8531483964
 20
11.6958662234
 30
0.0
 10
13.858358354
 20
11.6816691518
 30
0.0
 10
13.8639164613
 20
11.6674549387
 30
0.0
 10
13.8718263892
 20
11.6483959381
 30
0.0
 10
13.8825896588
 20
11.6245457561
 30
0.0
 10
13.8968119956
 20
11.5960512964
 30
0.0
 10
13.9123861985
 20
11.5675781508
 30
0.0
 10
13.9292957884
 20
11.5391561477
 30
0.0
 10
13.9475231086
 20
11.5108146289
 30
0.0
 10
13.9670491033
 20
11.4825829788
 30
0.0
 10
13.9878533998
 20
11.4544904435
 30
0.0
 10
14.0099143083
 20
11.4265661436
 30
0.0
 10
14.0332088459
 20
11.3988390333
 30
0.0
 10
14.0577127566
 20
11.3713378733
 30
0.0
 10
14.0834005339
 20
11.3440912
 30
0.0
 10
14.1102454455
 20
11.3171272956
 30
0.0
 10
14.1382195585
 20
11.2904741579
 30
0.0
 10
14.167293767
 20
11.2641594695
 30
0.0
 10
14.1974378223
 20
11.2382105697
 30
0.0
 10
14.2286203628
 20
11.2126544244
 30
0.0
 10
14.2608089464
 20
11.1875175975
 30
0.0
 10
14.2939700839
 20
11.1628262227
 30
0.0
 10
14.3280692725
 20
11.1386059753
 30
0.0
 10
14.3630710323
 20
11.1148820454
 30
0.0
 10
14.3989389417
 20
11.0916791095
 30
0.0
 10
14.435635676
 20
11.0690213054
 30
0.0
 10
14.4731230464
 20
11.0469322068
 30
0.0
 10
14.5113620395
 20
11.0254347977
 30
0.0
 10
14.5503128583
 20
11.0045514489
 30
0.0
 10
14.5899349633
 20
10.9843038937
 30
0.0
 10
14.6301871151
 20
10.9647132052
 30
0.0
 10
14.6710274168
 20
10.9457997744
 30
0.0
 10
14.7124133577
 20
10.9275832871
 30
0.0
 10
14.7543018582
 20
10.9100827046
 30
0.0
 10
14.7966493147
 20
10.8933162439
 30
0.0
 10
14.839411645
 20
10.877301358
 30
0.0
 10
14.8825443348
 20
10.8620547182
 30
0.0
 10
14.9260024834
 20
10.8475921965
 30
0.0
 10
14.9697408513
 20
10.8339288486
 30
0.0
 10
15.0137139071
 20
10.8210788984
 30
0.0
 10
15.0578758748
 20
10.8090557218
 30
0.0
 10
15.1021807821
 20
10.7978718348
 30
0.0
 10
15.1465825084
 20
10.7875388792
 30
0.0
 10
15.191034833
 20
10.7780676113
 30
0.0
 10
15.2354914834
 20
10.7694678904
 30
0.0
 10
15.2799061835
 20
10.7617486687
 30
0.0
 10
15.3242327021
 20
10.754917982
 30
0.0
 10
15.3684249015
 20
10.7489829408
 30
0.0
 10
15.4124367844
 20
10.7439497225
 30
0.0
 10
15.4562225474
 20
10.739823568
 30
0.0
 10
15.4997366094
 20
10.7366087705
 30
0.0
 10
15.5429337371
 20
10.7343086856
 30
0.0
 10
15.5857687387
 20
10.7329257
 30
0.0
 10
15.6142026074
 20
10.7326144633
 30
0.0
 10
15.6283479823
 20
10.7326144633
 30
0.0
  0
SPLINE
  5
2C1
100
AcDbEntity
  8
02___PRT_ALL_AXES
100
AcDbSpline
 62
7
  6
CONTINUOUS
 70
0
 71
3
 72
50
 73
46
 74
0
 42
0.0000001
 43
0.0000001
 44
0.0000000001
 40
0.0
 40
0.0
 40
0.0
 40
0.0
 40
0.0123991727
 40
0.0248055257
 40
0.0372262185
 40
0.0496683703
 40
0.0621390385
 40
0.0746452008
 40
0.0871937359
 40
0.0997914041
 40
0.1124448342
 40
0.1251605024
 40
0.1379447228
 40
0.1508036307
 40
0.1637431709
 40
0.1767690897
 40
0.1898869201
 40
0.2031019802
 40
0.2164193606
 40
0.2298439216
 40
0.2433802905
 40
0.2570328521
 40
0.2847009798
 40
0.3128805979
 40
0.3271714879
 40
0.3415998281
 40
0.3708778148
 40
0.4007351311
 40
0.4311870122
 40
0.4622452083
 40
0.4939181341
 40
0.5262110254
 40
0.5591261001
 40
0.5926627192
 40
0.6268175457
 40
0.6615846995
 40
0.6969559102
 40
0.7329206622
 40
0.7694663344
 40
0.8065783337
 40
0.8442402224
 40
0.8824338336
 40
0.9211394255
 40
0.9603356438
 40
1.0
 40
1.0
 40
1.0
 40
1.0
 10
16.5518861287
 20
11.1960493513
 30
0.0
 10
16.5505410007
 20
11.1916965195
 30
0.0
 10
16.5477219206
 20
11.1830273111
 30
0.0
 10
16.543111412
 20
11.1701474337
 30
0.0
 10
16.5381197745
 20
11.1573933336
 30
0.0
 10
16.532748454
 20
11.1447687881
 30
0.0
 10
16.5269989825
 20
11.1322773353
 30
0.0
 10
16.5208729989
 20
11.1199225307
 30
0.0
 10
16.514372241
 20
11.1077078796
 30
0.0
 10
16.5074985781
 20
11.0956368359
 30
0.0
 10
16.5002539504
 20
11.0837128306
 30
0.0
 10
16.4926404392
 20
11.0719392298
 30
0.0
 10
16.4846602047
 20
11.0603193708
 30
0.0
 10
16.4763155189
 20
11.0488565413
 30
0.0
 10
16.4676087669
 20
11.0375539737
 30
0.0
 10
16.4585424107
 20
11.0264148741
 30
0.0
 10
16.4491190446
 20
11.015442374
 30
0.0
 10
16.4393413363
 20
11.0046395821
 30
0.0
 10
16.4292120634
 20
10.9940095381
 30
0.0
 10
16.418734124
 20
10.983555251
 30
0.0
 10
16.4079104115
 20
10.9732796216
 30
0.0
 10
16.392956455
 20
10.9597616682
 30
0.0
 10
16.3733977274
 20
10.9433263193
 30
0.0
 10
16.3529133639
 20
10.927672338
 30
0.0
 10
16.3358871023
 20
10.9155371865
 30
0.0
 10
16.3182655856
 20
10.9035505719
 30
0.0
 10
16.2954284756
 20
10.8890741654
 30
0.0
 10
16.2669145918
 20
10.8726086473
 30
0.0
 10
16.2371908959
 20
10.8569834402
 30
0.0
 10
16.2062913297
 20
10.8422161707
 30
0.0
 10
16.174250696
 20
10.8283232269
 30
0.0
 10
16.141105183
 20
10.8153201159
 30
0.0
 10
16.106892176
 20
10.8032213424
 30
0.0
 10
16.0716502633
 20
10.7920404205
 30
0.0
 10
16.0354191859
 20
10.7817898471
 30
0.0
 10
15.9982397999
 20
10.7724810868
 30
0.0
 10
15.9601540306
 20
10.764124559
 30
0.0
 10
15.9212048277
 20
10.7567296242
 30
0.0
 10
15.8814361173
 20
10.750304571
 30
0.0
 10
15.8408927559
 20
10.7448566052
 30
0.0
 10
15.799620475
 20
10.7403918383
 30
0.0
 10
15.7576658499
 20
10.7369152753
 30
0.0
 10
15.7150761684
 20
10.734430824
 30
0.0
 10
15.6718997444
 20
10.7329412562
 30
0.0
 10
15.6429221885
 20
10.7326144633
 30
0.0
 10
15.6283479823
 20
10.7326144633
 30
0.0
  0
SPLINE
  5
2C2
100
AcDbEntity
  8
02___PRT_ALL_AXES
100
AcDbSpline
 62
7
  6
CONTINUOUS
 70
0
 71
3
 72
78
 73
74
 74
0
 42
0.0000001
 43
0.0000001
 44
0.0000000001
 40
0.0
 40
0.0
 40
0.0
 40
0.0
 40
0.0136626925
 40
0.027817631
 40
0.0424464863
 40
0.0575318562
 40
0.0730543105
 40
0.088993134
 40
0.1053267807
 40
0.1220328456
 40
0.1390882398
 40
0.1564692568
 40
0.1741517575
 40
0.1921112499
 40
0.2103229688
 40
0.2287620102
 40
0.2474033677
 40
0.2662220163
 40
0.2851929798
 40
0.3042913605
 40
0.3234924175
 40
0.3427716002
 40
0.3621045648
 40
0.3814672272
 40
0.4008357907
 40
0.4201867699
 40
0.439497023
 40
0.4587437724
 40
0.4779046526
 40
0.4969577372
 40
0.5158815647
 40
0.5346551944
 40
0.5532582541
 40
0.5716709834
 40
0.589874279
 40
0.6078497803
 40
0.6255799194
 40
0.6430479716
 40
0.6602381607
 40
0.6771356977
 40
0.6937268745
 40
0.7099991422
 40
0.7259411422
 40
0.741542849
 40
0.756795599
 40
0.7716921377
 40
0.7862267767
 40
0.8003953882
 40
0.8141955033
 40
0.8276264316
 40
0.8406892713
 40
0.8533870701
 40
0.8657248931
 40
0.877709893
 40
0.8893515054
 40
0.9006614952
 40
0.9116540913
 40
0.917037158
 40
0.9223474195
 40
0.9327584644
 40
0.942910816
 40
0.9478984868
 40
0.952831157
 40
0.9577124007
 40
0.9625459795
 40
0.9673358123
 40
0.9720859693
 40
0.9768006867
 40
0.9814843393
 40
0.9861414228
 40
0.9907765612
 40
0.9953944846
 40
1.0
 40
1.0
 40
1.0
 40
1.0
 10
16.5495718772
 20
11.7656993849
 30
0.0
 10
16.5484654594
 20
11.7679540274
 30
0.0
 10
16.5462650982
 20
11.7725703858
 30
0.0
 10
16.5430551992
 20
11.7796826332
 30
0.0
 10
16.5398818551
 20
11.7870966067
 30
0.0
 10
16.5367508136
 20
11.7948005386
 30
0.0
 10
16.5336679451
 20
11.8027825407
 30
0.0
 10
16.5306393888
 20
11.8110301647
 30
0.0
 10
16.5276714527
 20
11.8195305784
 30
0.0
 10
16.5247706021
 20
11.8282706343
 30
0.0
 10
16.5219434395
 20
11.8372368749
 30
0.0
 10
16.5191966881
 20
11.8464155811
 30
0.0
 10
16.5165371577
 20
11.8557928011
 30
0.0
 10
16.5139717319
 20
11.8653543905
 30
0.0
 10
16.5115073384
 20
11.8750860399
 30
0.0
 10
16.5091509277
 20
11.884973299
 30
0.0
 10
16.5069094571
 20
11.8950016034
 30
0.0
 10
16.50478985
 20
11.9051562848
 30
0.0
 10
16.5027990018
 20
11.9154225908
 30
0.0
 10
16.5009437248
 20
11.9257856921
 30
0.0
 10
16.4992307376
 20
11.9362306934
 30
0.0
 10
16.4976666611
 20
11.9467426427
 30
0.0
 10
16.496257932
 20
11.9573065235
 30
0.0
 10
16.4950108512
 20
11.9679072682
 30
0.0
 10
16.493931503
 20
11.9785297528
 30
0.0
 10
16.4930257115
 20
11.9891587981
 30
0.0
 10
16.4922990981
 20
11.9997791762
 30
0.0
 10
16.4917569135
 20
12.0103756047
 30
0.0
 10
16.4914041099
 20
12.0209327606
 30
0.0
 10
16.4912452957
 20
12.0314352836
 30
0.0
 10
16.4912845865
 20
12.0418677856
 30
0.0
 10
16.4915257522
 20
12.0522148676
 30
0.0
 10
16.491972022
 20
12.0624611377
 30
0.0
 10
16.4926260788
 20
12.0725912356
 30
0.0
 10
16.4934901577
 20
12.0825898498
 30
0.0
 10
16.4945657749
 20
12.092441766
 30
0.0
 10
16.4958538981
 20
12.1021318875
 30
0.0
 10
16.4973548869
 20
12.1116452705
 30
0.0
 10
16.4990683034
 20
12.1209671907
 30
0.0
 10
16.5009931613
 20
12.1300831477
 30
0.0
 10
16.5031277098
 20
12.1389789378
 30
0.0
 10
16.5054694349
 20
12.1476407045
 30
0.0
 10
16.5080152574
 20
12.1560549308
 30
0.0
 10
16.5107612522
 20
12.1642085544
 30
0.0
 10
16.5137028474
 20
12.1720889602
 30
0.0
 10
16.5168348774
 20
12.1796839913
 30
0.0
 10
16.5201513701
 20
12.1869820722
 30
0.0
 10
16.5236458531
 20
12.1939721294
 30
0.0
 10
16.5273112419
 20
12.2006436591
 30
0.0
 10
16.5311398061
 20
12.2069867913
 30
0.0
 10
16.5351234357
 20
12.2129921744
 30
0.0
 10
16.5392534415
 20
12.2186511085
 30
0.0
 10
16.5435207119
 20
12.2239554948
 30
0.0
 10
16.5479158124
 20
12.2288977465
 30
0.0
 10
16.5524288867
 20
12.2334709839
 30
0.0
 10
16.5570496837
 20
12.2376687094
 30
0.0
 10
16.561009016
 20
12.2408712693
 30
0.0
 10
16.5642195141
 20
12.2432351499
 30
0.0
 10
16.5674133255
 20
12.2454382387
 30
0.0
 10
16.5714538943
 20
12.2479536591
 30
0.0
 10
16.5755997793
 20
12.2501690684
 30
0.0
 10
16.5789406601
 20
12.2517367802
 30
0.0
 10
16.5814434531
 20
12.2528055295
 30
0.0
 10
16.5839565218
 20
12.2537736515
 30
0.0
 10
16.5864784489
 20
12.254640854
 30
0.0
 10
16.5890077889
 20
12.2554068313
 30
0.0
 10
16.591543113
 20
12.2560712725
 30
0.0
 10
16.59408297
 20
12.2566339519
 30
0.0
 10
16.5966259126
 20
12.2570946768
 30
0.0
 10
16.5991704959
 20
12.2574532355
 30
0.0
 10
16.601715286
 20
12.2577094843
 30
0.0
 10
16.6042587811
 20
12.2578633388
 30
0.0
 10
16.6059544386
 20
12.257897613
 30
0.0
 10
16.6068010285
 20
12.2578976107
 30
0.0
  0
SPLINE
  5
2C3
100
AcDbEntity
  8
02___PRT_ALL_AXES
100
AcDbSpline
 62
7
  6
CONTINUOUS
 70
0
 71
3
 72
37
 73
33
 74
0
 42
0.0000001
 43
0.0000001
 44
0.0000000001
 40
0.0
 40
0.0
 40
0.0
 40
0.0
 40
0.0377453382
 40
0.0750982109
 40
0.1120367149
 40
0.1485462363
 40
0.1846144843
 40
0.2202295788
 40
0.2553808315
 40
0.2900601069
 40
0.3242610367
 40
0.3579795555
 40
0.3912134683
 40
0.4239631956
 40
0.4562312422
 40
0.4880228755
 40
0.5193456127
 40
0.5502098494
 40
0.6106071597
 40
0.6693590242
 40
0.698177659
 40
0.7266553342
 40
0.7548206865
 40
0.7827048397
 40
0.8103410396
 40
0.8377645854
 40
0.8650124932
 40
0.8921232917
 40
0.9191366892
 40
0.9460932253
 40
0.973033949
 40
1.0
 40
1.0
 40
1.0
 40
1.0
 10
14.8085058151
 20
12.6483855399
 30
0.0
 10
14.8059339527
 20
12.6483855399
 30
0.0
 10
14.8008167804
 20
12.6484414071
 30
0.0
 10
14.7931865217
 20
12.6486956215
 30
0.0
 10
14.7856480972
 20
12.6491197877
 30
0.0
 10
14.7782089269
 20
12.6497136081
 30
0.0
 10
14.770875842
 20
12.6504767762
 30
0.0
 10
14.7636555786
 20
12.6514088137
 30
0.0
 10
14.7565547805
 20
12.6525092697
 30
0.0
 10
14.7495798932
 20
12.6537774655
 30
0.0
 10
14.7427371422
 20
12.6552127604
 30
0.0
 10
14.7360325515
 20
12.6568143031
 30
0.0
 10
14.7294719562
 20
12.6585812916
 30
0.0
 10
14.7230609723
 20
12.660512702
 30
0.0
 10
14.7168050151
 20
12.6626075747
 30
0.0
 10
14.7107093017
 20
12.6648647145
 30
0.0
 10
14.7047787407
 20
12.6672830511
 30
0.0
 10
14.6971537274
 20
12.6706956587
 30
0.0
 10
14.6880441719
 20
12.6753520203
 30
0.0
 10
14.6794215202
 20
12.6805972833
 30
0.0
 10
14.6729195525
 20
12.6851002572
 30
0.0
 10
14.6682684523
 20
12.6886067454
 30
0.0
 10
14.6638154622
 20
12.6922620559
 30
0.0
 10
14.6595637314
 20
12.6960642569
 30
0.0
 10
14.6555164173
 20
12.7000113724
 30
0.0
 10
14.651676396
 20
12.7041012363
 30
0.0
 10
14.64804647
 20
12.7083316572
 30
0.0
 10
14.6446291866
 20
12.712700253
 30
0.0
 10
14.6414270142
 20
12.7172045741
 30
0.0
 10
14.6384421565
 20
12.7218420335
 30
0.0
 10
14.6356768019
 20
12.726609779
 30
0.0
 10
14.6339823241
 20
12.7298703739
 30
0.0
 10
14.6331728704
 20
12.7315198566
 30
0.0
  0
SPLINE
  5
2C4
100
AcDbEntity
  8
LAYER_CHAMFER_FEAT
100
AcDbSpline
 62
7
  6
CONTINUOUS
 70
0
 71
3
 72
15
 73
11
 74
0
 42
0.0000001
 43
0.0000001
 44
0.0000000001
 40
0.0
 40
0.0
 40
0.0
 40
0.0
 40
0.131764132
 40
0.2617725002
 40
0.3899186346
 40
0.5161210923
 40
0.6402989349
 40
0.7623789461
 40
0.8822975414
 40
1.0
 40
1.0
 40
1.0
 40
1.0
 10
15.0636392267
 20
11.8833699171
 30
0.0
 10
15.0586599557
 20
11.8833699171
 30
0.0
 10
15.048767259
 20
11.8832443932
 30
0.0
 10
15.034042003
 20
11.8826714752
 30
0.0
 10
15.0195470712
 20
11.8817158309
 30
0.0
 10
15.0053035487
 20
11.8803788793
 30
0.0
 10
14.9913315902
 20
11.8786625186
 30
0.0
 10
14.9776511552
 20
11.8765691678
 30
0.0
 10
14.9642820024
 20
11.8741018188
 30
0.0
 10
14.9555060552
 20
11.8721917776
 30
0.0
 10
14.9511762908
 20
11.8711735091
 30
0.0
  0
SPLINE
  5
2C5
100
AcDbEntity
  8
LAYER_CHAMFER_FEAT
100
AcDbSpline
 62
7
  6
CONTINUOUS
 70
0
 71
3
 72
39
 73
35
 74
0
 42
0.0000001
 43
0.0000001
 44
0.0000000001
 40
0.0
 40
0.0
 40
0.0
 40
0.0
 40
0.0305398826
 40
0.0614592002
 40
0.0927264534
 40
0.1243126363
 40
0.1561858736
 40
0.1883135647
 40
0.2206623617
 40
0.2531980702
 40
0.2858858929
 40
0.3186905349
 40
0.3515763178
 40
0.384507296
 40
0.4174473773
 40
0.4503604439
 40
0.4832104612
 40
0.5159615996
 40
0.5485783577
 40
0.5810256721
 40
0.6132690359
 40
0.6452746387
 40
0.677009479
 40
0.7084414818
 40
0.7395396478
 40
0.7702741945
 40
0.8006166737
 40
0.8305401194
 40
0.8600192318
 40
0.8890305139
 40
0.9175524231
 40
0.9455655735
 40
0.9730529359
 40
1.0
 40
1.0
 40
1.0
 40
1.0
 10
15.0636392267
 20
11.8833699171
 30
0.0
 10
15.0690224826
 20
11.8833699171
 30
0.0
 10
15.0798564093
 20
11.883221309
 30
0.0
 10
15.0961897972
 20
11.8825632287
 30
0.0
 10
15.1126847117
 20
11.8814694959
 30
0.0
 10
15.1293138969
 20
11.8799419893
 30
0.0
 10
15.146050481
 20
11.8779831427
 30
0.0
 10
15.1628671301
 20
11.8755961753
 30
0.0
 10
15.179736447
 20
11.872784983
 30
0.0
 10
15.1966309447
 20
11.8695541197
 30
0.0
 10
15.2135230895
 20
11.8659088687
 30
0.0
 10
15.2303853542
 20
11.8618551794
 30
0.0
 10
15.2471902545
 20
11.857399646
 30
0.0
 10
15.2639103982
 20
11.852549521
 30
0.0
 10
15.2805185393
 20
11.8473127287
 30
0.0
 10
15.2969876095
 20
11.8416978042
 30
0.0
 10
15.3132907602
 20
11.8357138801
 30
0.0
 10
15.3294014229
 20
11.8293707183
 30
0.0
 10
15.3452933462
 20
11.822678668
 30
0.0
 10
15.3609406274
 20
11.8156486273
 30
0.0
 10
15.37631776
 20
11.8082920383
 30
0.0
 10
15.3913996952
 20
11.8006209068
 30
0.0
 10
15.40616186
 20
11.7926477338
 30
0.0
 10
15.4205801922
 20
11.784385492
 30
0.0
 10
15.4346312024
 20
11.7758476422
 30
0.0
 10
15.4482920104
 20
11.767048102
 30
0.0
 10
15.4615403611
 20
11.7580011943
 30
0.0
 10
15.4743546636
 20
11.7487216286
 30
0.0
 10
15.4867140594
 20
11.7392245224
 30
0.0
 10
15.4985984307
 20
11.7295253258
 30
0.0
 10
15.5099884007
 20
11.7196398112
 30
0.0
 10
15.5208654644
 20
11.709583994
 30
0.0
 10
15.5312117591
 20
11.699374402
 30
0.0
 10
15.5378110649
 20
11.6924059394
 30
0.0
 10
15.5410152541
 20
11.6888994874
 30
0.0
  0
SPLINE
  5
2C6
100
AcDbEntity
  8
LAYER_FEATURE
100
AcDbSpline
 62
7
  6
CONTINUOUS
 70
0
 71
3
 72
82
 73
78
 74
0
 42
0.0000001
 43
0.0000001
 44
0.0000000001
 40
0.0
 40
0.0
 40
0.0
 40
0.0
 40
0.0171785589
 40
0.0345301467
 40
0.0520438915
 40
0.0697094377
 40
0.0875156
 40
0.1054510217
 40
0.123504035
 40
0.1416627074
 40
0.1599148842
 40
0.1782482071
 40
0.1966501446
 40
0.215108021
 40
0.2336090441
 40
0.2521403315
 40
0.2706889378
 40
0.2892418815
 40
0.3077861729
 40
0.3263088398
 40
0.3447969544
 40
0.363237661
 40
0.3816182032
 40
0.3999259508
 40
0.4181484268
 40
0.4362733359
 40
0.4542885942
 40
0.4721823571
 40
0.4899430477
 40
0.5075593868
 40
0.5250204257
 40
0.5423155779
 40
0.5594346503
 40
0.5763678754
 40
0.5931059477
 40
0.6096400625
 40
0.625961951
 40
0.642063918
 40
0.6579388825
 40
0.6735804236
 40
0.6889828253
 40
0.7041411198
 40
0.7190511359
 40
0.7337095505
 40
0.7481139455
 40
0.7622628593
 40
0.7761558419
 40
0.7897935121
 40
0.8031776196
 40
0.8163111048
 40
0.8291981522
 40
0.841844246
 40
0.8542562208
 40
0.8603772763
 40
0.8664430102
 40
0.8784128847
 40
0.8901776674
 40
0.8959874285
 40
0.901750765
 40
0.9074694744
 40
0.9131454517
 40
0.9187806753
 40
0.9243772093
 40
0.9299372064
 40
0.9354628938
 40
0.940956582
 40
0.9464206535
 40
0.951857559
 40
0.9572698192
 40
0.9626600104
 40
0.9680307668
 40
0.973384771
 40
0.9787247471
 40
0.9840534574
 40
0.9893736919
 40
0.9946882635
 40
1.0
 40
1.0
 40
1.0
 40
1.0
 10
15.3164869127
 20
14.2889955225
 30
0.0
 10
15.3306122595
 20
14.2889955225
 30
0.0
 10
15.3590061353
 20
14.2886847064
 30
0.0
 10
15.4017807906
 20
14.2873037009
 30
0.0
 10
15.4449171834
 20
14.2850068233
 30
0.0
 10
15.4883699047
 20
14.2817965776
 30
0.0
 10
15.5320940135
 20
14.2776762291
 30
0.0
 10
15.5760439053
 20
14.272650094
 30
0.0
 10
15.6201738614
 20
14.2667234104
 30
0.0
 10
15.6644379487
 20
14.2599023471
 30
0.0
 10
15.7087900932
 20
14.2521940035
 30
0.0
 10
15.7531841281
 20
14.2436063918
 30
0.0
 10
15.7975738431
 20
14.2341484598
 30
0.0
 10
15.8419130316
 20
14.2238300582
 30
0.0
 10
15.8861555384
 20
14.2126619277
 30
0.0
 10
15.9302553064
 20
14.2006556865
 30
0.0
 10
15.9741664266
 20
14.187823829
 30
0.0
 10
16.0178431904
 20
14.1741797232
 30
0.0
 10
16.0612401312
 20
14.1597375743
 30
0.0
 10
16.1043120727
 20
14.1445124143
 30
0.0
 10
16.1470141735
 20
14.1285200826
 30
0.0
 10
16.1893019835
 20
14.1117772321
 30
0.0
 10
16.2311314855
 20
14.0943012979
 30
0.0
 10
16.2724591382
 20
14.0761104712
 30
0.0
 10
16.3132419196
 20
14.0572236815
 30
0.0
 10
16.3534373755
 20
14.0376605812
 30
0.0
 10
16.3930036732
 20
14.0174415418
 30
0.0
 10
16.4318996331
 20
13.9965876082
 30
0.0
 10
16.470084772
 20
13.9751204821
 30
0.0
 10
16.5075193422
 20
13.9530624937
 30
0.0
 10
16.5441643868
 20
13.9304365974
 30
0.0
 10
16.5799817767
 20
13.9072663408
 30
0.0
 10
16.6149342411
 20
13.8835758278
 30
0.0
 10
16.6489854062
 20
13.8593896973
 30
0.0
 10
16.6820998346
 20
13.8347330957
 30
0.0
 10
16.7142430794
 20
13.8096316706
 30
0.0
 10
16.7453817019
 20
13.7841115208
 30
0.0
 10
16.7754833052
 20
13.7581991727
 30
0.0
 10
16.8045165637
 20
13.7319215471
 30
0.0
 10
16.8324512705
 20
13.7053059448
 30
0.0
 10
16.8592583706
 20
13.6783800172
 30
0.0
 10
16.8849099722
 20
13.6511717219
 30
0.0
 10
16.9093793763
 20
13.6237092996
 30
0.0
 10
16.9326411008
 20
13.5960212389
 30
0.0
 10
16.9546709325
 20
13.5681362668
 30
0.0
 10
16.9754459271
 20
13.5400832992
 30
0.0
 10
16.9949444265
 20
13.5118914132
 30
0.0
 10
17.0131460734
 20
13.4835898183
 30
0.0
 10
17.0300318486
 20
13.4552078229
 30
0.0
 10
17.0455840833
 20
13.4267748543
 30
0.0
 10
17.0597865037
 20
13.3983202592
 30
0.0
 10
17.0726240372
 20
13.3698738557
 30
0.0
 10
17.0822174493
 20
13.3460902711
 30
0.0
 10
17.0891862018
 20
13.3271004886
 30
0.0
 10
17.0956287697
 20
13.3083097331
 30
0.0
 10
17.1028196135
 20
13.2848759065
 30
0.0
 10
17.1088922466
 20
13.2613442354
 30
0.0
 10
17.1130308175
 20
13.2426043192
 30
0.0
 10
17.1157667083
 20
13.2286501159
 30
0.0
 10
17.1181465186
 20
13.2147424193
 30
0.0
 10
17.1201696995
 20
13.200884787
 30
0.0
 10
17.1218356921
 20
13.1870808477
 30
0.0
 10
17.1231440123
 20
13.1733341918
 30
0.0
 10
17.1240943817
 20
13.1596484142
 30
0.0
 10
17.1246864635
 20
13.1460270783
 30
0.0
 10
17.1249201375
 20
13.1324737445
 30
0.0
 10
17.1247953413
 20
13.11899195
 30
0.0
 10
17.124312036
 20
13.1055852183
 30
0.0
 10
17.1234704222
 20
13.0922570506
 30
0.0
 10
17.1222706421
 20
13.0790109335
 30
0.0
 10
17.1207130245
 20
13.0658503311
 30
0.0
 10
17.1187980032
 20
13.0527786804
 30
0.0
 10
17.116525995
 20
13.0397994109
 30
0.0
 10
17.1138976759
 20
13.0269159149
 30
0.0
 10
17.1109136662
 20
13.0141315374
 30
0.0
 10
17.1075747837
 20
13.001449758
 30
0.0
 10
17.105112576
 20
12.9930647694
 30
0.0
 10
17.1038230366
 20
12.9888918148
 30
0.0
  0
SPLINE
  5
2C7
100
AcDbEntity
  8
LAYER_CHAMFER_FEAT
100
AcDbSpline
 62
7
  6
CONTINUOUS
 70
0
 71
3
 72
18
 73
14
 74
0
 42
0.0000001
 43
0.0000001
 44
0.0000000001
 40
0.0
 40
0.0
 40
0.0
 40
0.0
 40
0.0660964261
 40
0.131767973
 40
0.2617716679
 40
0.3899173006
 40
0.5161187609
 40
0.6402950162
 40
0.7623738405
 40
0.8226081589
 40
0.8822948867
 40
0.9414274648
 40
1.0
 40
1.0
 40
1.0
 40
1.0
 10
15.0345719985
 20
13.1579318155
 30
0.0
 10
15.0271467681
 20
13.1579318155
 30
0.0
 10
15.0123438283
 20
13.1578375665
 30
0.0
 10
14.9829414197
 20
13.1572700434
 30
0.0
 10
14.9465864319
 20
13.1558554804
 30
0.0
 10
14.9034970118
 20
13.1530146226
 30
0.0
 10
14.8611543452
 20
13.1490402171
 30
0.0
 10
14.8196193062
 20
13.1439378977
 30
0.0
 10
14.7855789583
 20
13.1387291206
 30
0.0
 10
14.7588069043
 20
13.133997189
 30
0.0
 10
14.7390553792
 20
13.1301871243
 30
0.0
 10
14.7195497588
 20
13.1261016148
 30
0.0
 10
14.7066526335
 20
13.123181293
 30
0.0
 10
14.7002473819
 20
13.1216749169
 30
0.0
  0
SPLINE
  5
2C8
100
AcDbEntity
  8
LAYER_CHAMFER_FEAT
100
AcDbSpline
 62
7
  6
CONTINUOUS
 70
0
 71
3
 72
44
 73
40
 74
0
 42
0.0000001
 43
0.0000001
 44
0.0000000001
 40
0.0
 40
0.0
 40
0.0
 40
0.0
 40
0.0152210444
 40
0.0305409168
 40
0.0614593958
 40
0.0927267734
 40
0.1243128005
 40
0.156185861
 40
0.1883134333
 40
0.220662085
 40
0.2531976486
 40
0.2858853283
 40
0.3186898273
 40
0.3515754655
 40
0.3845062988
 40
0.4174462365
 40
0.4503591583
 40
0.4832090314
 40
0.515960028
 40
0.5485766428
 40
0.5810238128
 40
0.6132670374
 40
0.6452725012
 40
0.6770071988
 40
0.7084390631
 40
0.7395370965
 40
0.770271507
 40
0.8006138484
 40
0.8305371668
 40
0.8600161532
 40
0.8890273035
 40
0.9033510486
 40
0.9175499349
 40
0.9316216086
 40
0.9455638647
 40
0.9593746435
 40
0.9730520543
 40
0.9865943568
 40
1.0
 40
1.0
 40
1.0
 40
1.0
 10
15.0345719985
 20
13.1579318155
 30
0.0
 10
15.042547958
 20
13.1579318155
 30
0.0
 10
15.0585518951
 20
13.1578223654
 30
0.0
 10
15.0907512767
 20
13.1571690062
 30
0.0
 10
15.1313371603
 20
13.155533685
 30
0.0
 10
15.1803720027
 20
13.1522823616
 30
0.0
 10
15.2298066447
 20
13.1477414243
 30
0.0
 10
15.2795603531
 20
13.1419182741
 30
0.0
 10
15.3295521044
 20
13.1348224132
 30
0.0
 10
15.3797004298
 20
13.1264654002
 30
0.0
 10
15.42992361
 20
13.1168608581
 30
0.0
 10
15.4801397975
 20
13.1060244383
 30
0.0
 10
15.5302671529
 20
13.0939738021
 30
0.0
 10
15.5802239788
 20
13.0807285892
 30
0.0
 10
15.6299288539
 20
13.0663103871
 30
0.0
 10
15.6793007665
 20
13.0507426949
 30
0.0
 10
15.7282592477
 20
13.0340508856
 30
0.0
 10
15.7767245024
 20
13.0162621643
 30
0.0
 10
15.8246175412
 20
12.9974055233
 30
0.0
 10
15.871860309
 20
12.9775116943
 30
0.0
 10
15.9183758134
 20
12.9566130985
 30
0.0
 10
15.9640882508
 20
12.9347437924
 30
0.0
 10
16.0089231306
 20
12.9119394114
 30
0.0
 10
16.0528073965
 20
12.8882371108
 30
0.0
 10
16.095669547
 20
12.8636755036
 30
0.0
 10
16.1374397498
 20
12.8382945975
 30
0.0
 10
16.1780499639
 20
12.8121357228
 30
0.0
 10
16.2174340211
 20
12.7852414844
 30
0.0
 10
16.2555278401
 20
12.7576556096
 30
0.0
 10
16.2922691416
 20
12.7294231724
 30
0.0
 10
16.3218340758
 20
12.7052943297
 30
0.0
 10
16.3447505193
 20
12.6857032561
 30
0.0
 10
16.3614908231
 20
12.6709392141
 30
0.0
 10
16.3778494399
 20
12.6560487696
 30
0.0
 10
16.3938197583
 20
12.6410379658
 30
0.0
 10
16.409395225
 20
12.6259129049
 30
0.0
 10
16.4245695443
 20
12.6106797705
 30
0.0
 10
16.4393364223
 20
12.5953447834
 30
0.0
 10
16.4489546569
 20
12.5850048104
 30
0.0
 10
16.4536933143
 20
12.5798191413
 30
0.0
  0
SPLINE
  5
2C9
100
AcDbEntity
  8
LAYER_FEATURE
100
AcDbSpline
 62
7
  6
CONTINUOUS
 70
0
 71
3
 72
52
 73
48
 74
0
 42
0.0000001
 43
0.0000001
 44
0.0000000001
 40
0.0
 40
0.0
 40
0.0
 40
0.0
 40
0.0396639804
 40
0.078860463
 40
0.1175657585
 40
0.1557593097
 40
0.1934210725
 40
0.2305329582
 40
0.2670785179
 40
0.3030431581
 40
0.3384142614
 40
0.3731813105
 40
0.4073360328
 40
0.4408725474
 40
0.4737875198
 40
0.5060803125
 40
0.537753143
 40
0.5688112453
 40
0.5841129804
 40
0.599264474
 40
0.6291216971
 40
0.6438327726
 40
0.6584012171
 40
0.6728295153
 40
0.6871203607
 40
0.7152998942
 40
0.7429679367
 40
0.7566204551
 40
0.7701567821
 40
0.7835813039
 40
0.796898641
 40
0.8101136629
 40
0.8232314516
 40
0.8362573306
 40
0.8491968322
 40
0.8620556991
 40
0.8748398821
 40
0.88755551
 40
0.9002089017
 40
0.9128065317
 40
0.9253550274
 40
0.9378611525
 40
0.9503317817
 40
0.9627738957
 40
0.9751945504
 40
0.9876008653
 40
1.0
 40
1.0
 40
1.0
 40
1.0
 10
15.3164869127
 20
14.2889955225
 30
0.0
 10
15.3019333269
 20
14.2889955225
 30
0.0
 10
15.2729965371
 20
14.2886691737
 30
0.0
 10
15.2298809414
 20
14.2871817355
 30
0.0
 10
15.1873511505
 20
14.2847007489
 30
0.0
 10
15.1454556633
 20
14.2812291046
 30
0.0
 10
15.1042414955
 20
14.2767706221
 30
0.0
 10
15.0637552415
 20
14.2713303301
 30
0.0
 10
15.0240425448
 20
14.2649143224
 30
0.0
 10
14.9851482007
 20
14.2575298013
 30
0.0
 10
14.9471160728
 20
14.2491850453
 30
0.0
 10
14.9099890497
 20
14.2398893997
 30
0.0
 10
14.8738090027
 20
14.2296532652
 30
0.0
 10
14.8386167249
 20
14.2184880848
 30
0.0
 10
14.8044519219
 20
14.2064063564
 30
0.0
 10
14.7713530393
 20
14.1934215359
 30
0.0
 10
14.7393577223
 20
14.1795482528
 30
0.0
 10
14.7135178026
 20
14.1671990584
 30
0.0
 10
14.6934411732
 20
14.1568847222
 30
0.0
 10
14.673957225
 20
14.1463906572
 30
0.0
 10
14.654975123
 20
14.1354292748
 30
0.0
 10
14.6365301704
 20
14.1239983735
 30
0.0
 10
14.6230782051
 20
14.1152644262
 30
0.0
 10
14.6099442965
 20
14.1063304184
 30
0.0
 10
14.592942068
 20
14.0942123836
 30
0.0
 10
14.572486526
 20
14.0785804428
 30
0.0
 10
14.5529553544
 20
14.0621682442
 30
0.0
 10
14.5380224624
 20
14.048669327
 30
0.0
 10
14.5272139994
 20
14.0384081658
 30
0.0
 10
14.5167508051
 20
14.0279686159
 30
0.0
 10
14.5066358154
 20
14.0173535271
 30
0.0
 10
14.4968718625
 20
14.006565966
 30
0.0
 10
14.487461779
 20
13.9956089106
 30
0.0
 10
14.478408193
 20
13.9844855
 30
0.0
 10
14.4697136926
 20
13.9731988603
 30
0.0
 10
14.4613807785
 20
13.9617521616
 30
0.0
 10
14.4534117627
 20
13.9501486837
 30
0.0
 10
14.4458089908
 20
13.9383916545
 30
0.0
 10
14.4385745628
 20
13.9264844467
 30
0.0
 10
14.4317105723
 20
13.9144304092
 30
0.0
 10
14.4252189896
 20
13.9022329517
 30
0.0
 10
14.4191016092
 20
13.8898955608
 30
0.0
 10
14.4133602573
 20
13.8774216912
 30
0.0
 10
14.407996492
 20
13.8648149317
 30
0.0
 10
14.4030118807
 20
13.8520787963
 30
0.0
 10
14.3984078846
 20
13.8392170532
 30
0.0
 10
14.3955927538
 20
13.8305600619
 30
0.0
 10
14.3942495226
 20
13.8262133602
 30
0.0
  0
SPLINE
  5
2CA
100
AcDbEntity
  8
LAYER_FEATURE
100
AcDbSpline
 62
7
  6
CONTINUOUS
 70
0
 71
3
 72
21
 73
17
 74
0
 42
0.0000001
 43
0.0000001
 44
0.0000000001
 40
0.0
 40
0.0
 40
0.0
 40
0.0
 40
0.0556396687
 40
0.1114733905
 40
0.1676921259
 40
0.224479961
 40
0.2820122631
 40
0.3404520492
 40
0.3999492159
 40
0.4606390143
 40
0.5226407889
 40
0.586058416
 40
0.7174233741
 40
0.8553065879
 40
0.9268070752
 40
1.0
 40
1.0
 40
1.0
 40
1.0
 10
16.6822356959
 20
13.339268428
 30
0.0
 10
16.6823342603
 20
13.3395873971
 30
0.0
 10
16.6825086995
 20
13.3402338267
 30
0.0
 10
16.6827004033
 20
13.3412224229
 30
0.0
 10
16.6828220019
 20
13.3422290411
 30
0.0
 10
16.6828733725
 20
13.34325184
 30
0.0
 10
16.6828543665
 20
13.3442890535
 30
0.0
 10
16.6827651306
 20
13.3453388729
 30
0.0
 10
16.6826058146
 20
13.3463994881
 30
0.0
 10
16.6823767309
 20
13.3474690692
 30
0.0
 10
16.6820783333
 20
13.3485458295
 30
0.0
 10
16.6815829511
 20
13.3500055276
 30
0.0
 10
16.6807868619
 20
13.3518402282
 30
0.0
 10
16.6797910625
 20
13.3536294465
 30
0.0
 10
16.678870116
 20
13.3550535208
 30
0.0
 10
16.6783678566
 20
13.3557620715
 30
0.0
 10
16.6781067223
 20
13.356115176
 30
0.0
  0
SPLINE
  5
2CB
100
AcDbEntity
  8
LAYER_CUT_FEAT
100
AcDbSpline
 62
7
  6
CONTINUOUS
 70
0
 71
3
 72
88
 73
84
 74
0
 42
0.0000001
 43
0.0000001
 44
0.0000000001
 40
0.0
 40
0.0
 40
0.0
 40
0.0
 40
0.0131061145
 40
0.0265340929
 40
0.0402890074
 40
0.0543738904
 40
0.0687891128
 40
0.0835329494
 40
0.0910272989
 40
0.0986022041
 40
0.1062568993
 40
0.1139904917
 40
0.1218020002
 40
0.1296903254
 40
0.1456920631
 40
0.1619856323
 40
0.1785590249
 40
0.1953989648
 40
0.2124910158
 40
0.2298196846
 40
0.2473685181
 40
0.2651201958
 40
0.2830566201
 40
0.301159003
 40
0.3194079486
 40
0.3377835346
 40
0.3562653901
 40
0.3748327729
 40
0.3934646447
 40
0.412139746
 40
0.43083667
 40
0.449533936
 40
0.4682100623
 40
0.4868436389
 40
0.5054134005
 40
0.5238983006
 40
0.542277586
 40
0.5605308728
 40
0.578638223
 40
0.5965802232
 40
0.6143380649
 40
0.6318936276
 40
0.6492295648
 40
0.6663293934
 40
0.6831775876
 40
0.6997596764
 40
0.7160623452
 40
0.7320735442
 40
0.747782602
 40
0.7555211874
 40
0.7631809332
 40
0.7707609427
 40
0.7782604437
 40
0.7856787608
 40
0.7930153555
 40
0.8002697979
 40
0.8074417964
 40
0.8215371833
 40
0.8353026156
 40
0.8487408456
 40
0.8553392722
 40
0.8618581007
 40
0.8746604409
 40
0.8809476664
 40
0.8871606967
 40
0.8993704107
 40
0.9113074646
 40
0.9171804995
 40
0.9229930874
 40
0.9287482043
 40
0.934449003
 40
0.9400988335
 40
0.9457012162
 40
0.9512598492
 40
0.9567785929
 40
0.9622614584
 40
0.967712603
 40
0.9731363053
 40
0.9785369626
 40
0.9839190633
 40
0.9892871775
 40
0.9946459334
 40
1.0
 40
1.0
 40
1.0
 40
1.0
 10
14.4882742188
 20
11.6153006183
 30
0.0
 10
14.4915406219
 20
11.6086443885
 30
0.0
 10
14.4984913624
 20
11.5953317025
 30
0.0
 10
14.5099822399
 20
11.5756388764
 30
0.0
 10
14.5226436609
 20
11.5560150876
 30
0.0
 10
14.5364534477
 20
11.5364942517
 30
0.0
 10
14.5513879965
 20
11.5171094014
 30
0.0
 10
14.564676207
 20
11.501183822
 30
0.0
 10
14.5758377312
 20
11.4885382239
 30
0.0
 10
14.5845195756
 20
11.4790561104
 30
0.0
 10
14.5934623861
 20
11.4696323334
 30
0.0
 10
14.6026623348
 20
11.4602708247
 30
0.0
 10
14.6121155528
 20
11.450975617
 30
0.0
 10
14.6251134033
 20
11.4386173739
 30
0.0
 10
14.6419751781
 20
11.4233638976
 30
0.0
 10
14.6630587033
 20
11.4054739975
 30
0.0
 10
14.685050989
 20
11.387942642
 30
0.0
 10
14.7079143421
 20
11.3707998432
 30
0.0
 10
14.7316097924
 20
11.3540747888
 30
0.0
 10
14.7560968882
 20
11.3377960127
 30
0.0
 10
14.7813338389
 20
11.3219912844
 30
0.0
 10
14.8072775622
 20
11.3066875717
 30
0.0
 10
14.8338837661
 20
11.2919109921
 30
0.0
 10
14.861107024
 20
11.2776867686
 30
0.0
 10
14.8889008526
 20
11.2640391854
 30
0.0
 10
14.9172177916
 20
11.2509915455
 30
0.0
 10
14.9460094847
 20
11.2385661303
 30
0.0
 10
14.9752267624
 20
11.2267841611
 30
0.0
 10
15.0048197257
 20
11.2156657618
 30
0.0
 10
15.0347378308
 20
11.2052299195
 30
0.0
 10
15.0649299782
 20
11.1954944572
 30
0.0
 10
15.0953446003
 20
11.1864760019
 30
0.0
 10
15.1259297499
 20
11.1781899569
 30
0.0
 10
15.1566331889
 20
11.1706504747
 30
0.0
 10
15.1874024784
 20
11.1638704332
 30
0.0
 10
15.2181850684
 20
11.1578614145
 30
0.0
 10
15.2489283884
 20
11.152633681
 30
0.0
 10
15.2795799375
 20
11.1481961586
 30
0.0
 10
15.3100873764
 20
11.1445564249
 30
0.0
 10
15.340398616
 20
11.1417206966
 30
0.0
 10
15.3704619077
 20
11.1396938193
 30
0.0
 10
15.4002259315
 20
11.1384792602
 30
0.0
 10
15.4296398853
 20
11.1380791027
 30
0.0
 10
15.4586535703
 20
11.138494045
 30
0.0
 10
15.4872174861
 20
11.1397233951
 30
0.0
 10
15.5152828877
 20
11.141765075
 30
0.0
 10
15.5428019698
 20
11.1446156406
 30
0.0
 10
15.5697275796
 20
11.1482702422
 30
0.0
 10
15.5917416038
 20
11.1519990324
 30
0.0
 10
15.6090119828
 20
11.1553844601
 30
0.0
 10
15.6217237859
 20
11.1581075376
 30
0.0
 10
15.634253292
 20
11.1610260674
 30
0.0
 10
15.6465952008
 20
11.1641387496
 30
0.0
 10
15.6587442212
 20
11.167444331
 30
0.0
 10
15.6706951593
 20
11.1709413307
 30
0.0
 10
15.6824429769
 20
11.1746283321
 30
0.0
 10
15.6977398382
 20
11.1797655401
 30
0.0
 10
15.7163334972
 20
11.1866443671
 30
0.0
 10
15.737887112
 20
11.1956803994
 30
0.0
 10
15.755181236
 20
11.2038581905
 30
0.0
 10
15.7685277227
 20
11.2107579555
 30
0.0
 10
15.7813886471
 20
11.2178038409
 30
0.0
 10
15.7938362474
 20
11.2252304513
 30
0.0
 10
15.8058345574
 20
11.2330395415
 30
0.0
 10
15.8173457968
 20
11.2409734765
 30
0.0
 10
15.8310892104
 20
11.2512899338
 30
0.0
 10
15.8440783383
 20
11.2622470312
 30
0.0
 10
15.853898641
 20
11.271313705
 30
0.0
 10
15.8609429445
 20
11.278224672
 30
0.0
 10
15.8677026385
 20
11.2852798927
 30
0.0
 10
15.874174814
 20
11.2924764852
 30
0.0
 10
15.8803567251
 20
11.2998113048
 30
0.0
 10
15.8862456655
 20
11.3072812659
 30
0.0
 10
15.8918391083
 20
11.3148831583
 30
0.0
 10
15.8971346502
 20
11.3226137233
 30
0.0
 10
15.9021299544
 20
11.3304696812
 30
0.0
 10
15.9068229301
 20
11.3384476198
 30
0.0
 10
15.9112114571
 20
11.3465441685
 30
0.0
 10
15.915293723
 20
11.3547558033
 30
0.0
 10
15.9190678831
 20
11.363079023
 30
0.0
 10
15.92253236
 20
11.371510264
 30
0.0
 10
15.9256856008
 20
11.3800457538
 30
0.0
 10
15.9275797299
 20
11.3858043456
 30
0.0
 10
15.9284740206
 20
11.3886982634
 30
0.0
  0
SPLINE
  5
2CC
100
AcDbEntity
  8
LAYER_FEATURE
100
AcDbSpline
 62
7
  6
CONTINUOUS
 70
0
 71
3
 72
26
 73
22
 74
0
 42
0.0000001
 43
0.0000001
 44
0.0000000001
 40
0.0
 40
0.0
 40
0.0
 40
0.0
 40
0.024947192
 40
0.0499497153
 40
0.0750623703
 40
0.1003387103
 40
0.125830482
 40
0.1515874343
 40
0.2040637222
 40
0.2581251906
 40
0.314055135
 40
0.3720791262
 40
0.4323650581
 40
0.495025208
 40
0.5601209912
 40
0.6276674041
 40
0.6976379307
 40
0.7699670248
 40
0.8445567749
 40
0.921292314
 40
1.0
 40
1.0
 40
1.0
 40
1.0
 10
16.4191621447
 20
13.5890876656
 30
0.0
 10
16.4192406817
 20
13.589341823
 30
0.0
 10
16.4193833124
 20
13.5898553509
 30
0.0
 10
16.4195529824
 20
13.5906379865
 30
0.0
 10
16.4196782591
 20
13.5914325197
 30
0.0
 10
16.4197590313
 20
13.5922380242
 30
0.0
 10
16.4197952376
 20
13.5930536465
 30
0.0
 10
16.4197839367
 20
13.5941600805
 30
0.0
 10
16.4196558357
 20
13.5955677464
 30
0.0
 10
16.4193248063
 20
13.5972709782
 30
0.0
 10
16.4188174493
 20
13.5989918345
 30
0.0
 10
16.4181362608
 20
13.6007227914
 30
0.0
 10
16.4172844184
 20
13.6024565208
 30
0.0
 10
16.4162658138
 20
13.6041856886
 30
0.0
 10
16.4150849472
 20
13.605902975
 30
0.0
 10
16.4137469564
 20
13.6076010845
 30
0.0
 10
16.4122576716
 20
13.6092728006
 30
0.0
 10
16.4106235564
 20
13.6109109825
 30
0.0
 10
16.4088515706
 20
13.6125086847
 30
0.0
 10
16.406949482
 20
13.6140588974
 30
0.0
 10
16.4056160601
 20
13.6150446059
 30
0.0
 10
16.4049302255
 20
13.6155283471
 30
0.0
  0
SPLINE
  5
2CD
100
AcDbEntity
  8
LAYER_FEATURE
100
AcDbSpline
 62
7
  6
CONTINUOUS
 70
0
 71
3
 72
22
 73
18
 74
0
 42
0.0000001
 43
0.0000001
 44
0.0000000001
 40
0.0
 40
0.0
 40
0.0
 40
0.0
 40
0.059432964
 40
0.1190455596
 40
0.1788948555
 40
0.2390362273
 40
0.2995229381
 40
0.3604059105
 40
0.421733286
 40
0.4835503339
 40
0.5458989711
 40
0.6088179542
 40
0.6723426189
 40
0.7365042052
 40
0.8013298594
 40
0.8668455159
 40
1.0
 40
1.0
 40
1.0
 40
1.0
 10
14.6390292013
 20
12.7210117376
 30
0.0
 10
14.6382466685
 20
12.7230731663
 30
0.0
 10
14.6367735016
 20
12.7272387394
 30
0.0
 10
14.6348468699
 20
12.7335921951
 30
0.0
 10
14.6332025582
 20
12.7400517438
 30
0.0
 10
14.6318424886
 20
12.7466101093
 30
0.0
 10
14.630768036
 20
12.7532600958
 30
0.0
 10
14.6299804587
 20
12.7599943821
 30
0.0
 10
14.6294804934
 20
12.7668055504
 30
0.0
 10
14.6292687591
 20
12.7736861133
 30
0.0
 10
14.629345371
 20
12.7806285074
 30
0.0
 10
14.6297102787
 20
12.7876251113
 30
0.0
 10
14.630363027
 20
12.7946682576
 30
0.0
 10
14.6313028518
 20
12.8017501365
 30
0.0
 10
14.6325287479
 20
12.8088632148
 30
0.0
 10
14.6345534155
 20
12.818428591
 30
0.0
 10
14.6364830682
 20
12.8255510954
 30
0.0
 10
14.6379415971
 20
12.8302708967
 30
0.0
  0
SPLINE
  5
2CE
100
AcDbEntity
  8
LAYER_FEATURE
100
AcDbSpline
 62
7
  6
CONTINUOUS
 70
0
 71
3
 72
23
 73
19
 74
0
 42
0.0000001
 43
0.0000001
 44
0.0000000001
 40
0.0
 40
0.0
 40
0.0
 40
0.0
 40
0.0499221388
 40
0.1014347973
 40
0.1546341422
 40
0.2095878061
 40
0.266336686
 40
0.3248970258
 40
0.3852624972
 40
0.4474062122
 40
0.5112826086
 40
0.5768294305
 40
0.6439693386
 40
0.7126116738
 40
0.7826540237
 40
0.8539814796
 40
0.9264760312
 40
1.0
 40
1.0
 40
1.0
 40
1.0
 10
16.0336090389
 20
13.7235369146
 30
0.0
 10
16.0340943443
 20
13.7218615227
 30
0.0
 10
16.0352138716
 20
13.7184947439
 30
0.0
 10
16.0372867105
 20
13.7135008129
 30
0.0
 10
16.0397718121
 20
13.7085016664
 30
0.0
 10
16.0426612315
 20
13.703512751
 30
0.0
 10
16.0459460153
 20
13.6985489416
 30
0.0
 10
16.0496160352
 20
13.693625208
 30
0.0
 10
16.0536600519
 20
13.6887563828
 30
0.0
 10
16.0580657159
 20
13.6839571771
 30
0.0
 10
16.0628195778
 20
13.6792420996
 30
0.0
 10
16.0679071447
 20
13.6746254372
 30
0.0
 10
16.0733129144
 20
13.6701211964
 30
0.0
 10
16.0790204314
 20
13.66574306
 30
0.0
 10
16.0850122688
 20
13.6615043868
 30
0.0
 10
16.0912702501
 20
13.6574179526
 30
0.0
 10
16.0977751236
 20
13.6534964081
 30
0.0
 10
16.1022346125
 20
13.6510157052
 30
0.0
 10
16.1045003213
 20
13.6498049865
 30
0.0
  0
SPLINE
  5
2CF
100
AcDbEntity
  8
LAYER_FEATURE
100
AcDbSpline
 62
7
  6
CONTINUOUS
 70
0
 71
3
 72
30
 73
26
 74
0
 42
0.0000001
 43
0.0000001
 44
0.0000000001
 40
0.0
 40
0.0
 40
0.0
 40
0.0
 40
0.022837502
 40
0.0457702112
 40
0.0688915616
 40
0.0922909672
 40
0.116052709
 40
0.1402541193
 40
0.1649653074
 40
0.1902476567
 40
0.2161544666
 40
0.2427299054
 40
0.2700100466
 40
0.2980223977
 40
0.3562985464
 40
0.3865971394
 40
0.4176646298
 40
0.482059613
 40
0.5493780596
 40
0.6194253804
 40
0.6919444935
 40
0.7666275268
 40
0.8431231649
 40
0.9210512416
 40
1.0
 40
1.0
 40
1.0
 40
1.0
 10
16.0522618777
 20
13.7836091509
 30
0.0
 10
16.0523696986
 20
13.7839580739
 30
0.0
 10
16.0525582169
 20
13.7846662369
 30
0.0
 10
16.0527571553
 20
13.7857508845
 30
0.0
 10
16.0528721262
 20
13.7868566912
 30
0.0
 10
16.0529029621
 20
13.7879812358
 30
0.0
 10
16.0528495707
 20
13.7891221824
 30
0.0
 10
16.0527122172
 20
13.7902771598
 30
0.0
 10
16.0524911408
 20
13.7914437719
 30
0.0
 10
16.0521869575
 20
13.7926196499
 30
0.0
 10
16.0518002462
 20
13.793802374
 30
0.0
 10
16.0513319294
 20
13.7949895632
 30
0.0
 10
16.0507829204
 20
13.7961788264
 30
0.0
 10
16.0499338355
 20
13.7977850176
 30
0.0
 10
16.048935742
 20
13.7993638783
 30
0.0
 10
16.0478057926
 20
13.8009083176
 30
0.0
 10
16.0465481939
 20
13.8024784503
 30
0.0
 10
16.0447942238
 20
13.8044059523
 30
0.0
 10
16.0424468926
 20
13.8066234617
 30
0.0
 10
16.039851105
 20
13.8087550918
 30
0.0
 10
16.0370279692
 20
13.8107836222
 30
0.0
 10
16.0340003179
 20
13.8126927068
 30
0.0
 10
16.0307926485
 20
13.8144669516
 30
0.0
 10
16.0274311152
 20
13.8160918795
 30
0.0
 10
16.0251162984
 20
13.8170624091
 30
0.0
 10
16.0239397019
 20
13.8175201391
 30
0.0
  0
SPLINE
  5
2D0
100
AcDbEntity
  8
02___PRT_ALL_AXES
100
AcDbSpline
 62
7
  6
CONTINUOUS
 70
0
 71
3
 72
53
 73
49
 74
0
 42
0.0000001
 43
0.0000001
 44
0.0000000001
 40
0.0
 40
0.0
 40
0.0
 40
0.0
 40
0.0115306863
 40
0.0231140483
 40
0.0347707576
 40
0.0465206187
 40
0.0583824876
 40
0.0703739597
 40
0.0825113897
 40
0.0948096009
 40
0.1072819569
 40
0.11994018
 40
0.1327943835
 40
0.1458530572
 40
0.1726047803
 40
0.1863115613
 40
0.2002408437
 40
0.2143933468
 40
0.2287685377
 40
0.2433645531
 40
0.2581783812
 40
0.2732059139
 40
0.2884420274
 40
0.3038807485
 40
0.3195152315
 40
0.3353379799
 40
0.3513408067
 40
0.3675150405
 40
0.3838515208
 40
0.4003407361
 40
0.4169728609
 40
0.4506228766
 40
0.4847220768
 40
0.5191874036
 40
0.5539363708
 40
0.5888882286
 40
0.6239649193
 40
0.6590917571
 40
0.6941980353
 40
0.7292174173
 40
0.7640883644
 40
0.798754415
 40
0.8331645237
 40
0.8672733256
 40
0.9010413673
 40
0.9344354749
 40
0.9674283817
 40
1.0
 40
1.0
 40
1.0
 40
1.0
 10
14.6331728704
 20
12.7315198566
 30
0.0
 10
14.6322696735
 20
12.7333603664
 30
0.0
 10
14.630553849
 20
12.7370971182
 30
0.0
 10
14.6282632513
 20
12.7428421556
 30
0.0
 10
14.6262531367
 20
12.7487325524
 30
0.0
 10
14.6245251485
 20
12.7547632159
 30
0.0
 10
14.6230807194
 20
12.7609290928
 30
0.0
 10
14.6219208452
 20
12.7672247701
 30
0.0
 10
14.6210464294
 20
12.7736446191
 30
0.0
 10
14.620457926
 20
12.780182718
 30
0.0
 10
14.6201556438
 20
12.7868328943
 30
0.0
 10
14.620139514
 20
12.7935886473
 30
0.0
 10
14.6204092331
 20
12.8004433859
 30
0.0
 10
14.6211550696
 20
12.8097795058
 30
0.0
 10
14.6224729965
 20
12.8192142695
 30
0.0
 10
14.6243297062
 20
12.828706044
 30
0.0
 10
14.6260134821
 20
12.8359445257
 30
0.0
 10
14.6279748801
 20
12.8432356446
 30
0.0
 10
14.6302115745
 20
12.850571081
 30
0.0
 10
14.6327208298
 20
12.8579420524
 30
0.0
 10
14.6354996667
 20
12.8653396556
 30
0.0
 10
14.6385448288
 20
12.8727547965
 30
0.0
 10
14.6418527463
 20
12.8801782665
 30
0.0
 10
14.6454196552
 20
12.8876006964
 30
0.0
 10
14.6492414527
 20
12.8950126693
 30
0.0
 10
14.6533138869
 20
12.9024046326
 30
0.0
 10
14.6576323873
 20
12.9097670349
 30
0.0
 10
14.6621922434
 20
12.9170902458
 30
0.0
 10
14.666988475
 20
12.9243646422
 30
0.0
 10
14.6720159821
 20
12.9315806562
 30
0.0
 10
14.6790474009
 20
12.9411478067
 30
0.0
 10
14.688385159
 20
12.9528995581
 30
0.0
 10
14.7003811281
 20
12.9665613849
 30
0.0
 10
14.7131635957
 20
12.9797640064
 30
0.0
 10
14.7266820659
 20
12.9924346982
 30
0.0
 10
14.7408840673
 20
13.004503009
 30
0.0
 10
14.7557147811
 20
13.0159006775
 30
0.0
 10
14.7711170254
 20
13.0265620681
 30
0.0
 10
14.7870310736
 20
13.0364244916
 30
0.0
 10
14.8033945016
 20
13.0454286266
 30
0.0
 10
14.8201420312
 20
13.053518983
 30
0.0
 10
14.837205445
 20
13.0606444376
 30
0.0
 10
14.8545135573
 20
13.0667588254
 30
0.0
 10
14.8719923434
 20
13.0718215555
 30
0.0
 10
14.8895650461
 20
13.075798273
 30
0.0
 10
14.9071529296
 20
13.07866138
 30
0.0
 10
14.9246741956
 20
13.0803907239
 30
0.0
 10
14.9363351223
 20
13.080781994
 30
0.0
 10
14.9421264256
 20
13.080781994
 30
0.0
  0
SPLINE
  5
2D1
100
AcDbEntity
  8
LAYER_CUT_FEAT
100
AcDbSpline
 62
7
  6
CONTINUOUS
 70
0
 71
3
 72
27
 73
23
 74
0
 42
0.0000001
 43
0.0000001
 44
0.0000000001
 40
0.0
 40
0.0
 40
0.0
 40
0.0
 40
0.0290769699
 40
0.0581681956
 40
0.0872878986
 40
0.1164502263
 40
0.1456692345
 40
0.1749588356
 40
0.2043327677
 40
0.2338045896
 40
0.2930899079
 40
0.3529232791
 40
0.4134031722
 40
0.4746225519
 40
0.5366682646
 40
0.5996205829
 40
0.6635530745
 40
0.7285324095
 40
0.794617621
 40
0.8618611532
 40
0.9303107361
 40
1.0
 40
1.0
 40
1.0
 40
1.0
 10
14.4619030427
 20
11.8419029731
 30
0.0
 10
14.4612341311
 20
11.8397383803
 30
0.0
 10
14.4599544079
 20
11.8353898281
 30
0.0
 10
14.4582110274
 20
11.8288150408
 30
0.0
 10
14.4566440123
 20
11.8221891179
 30
0.0
 10
14.4552537358
 20
11.8155137186
 30
0.0
 10
14.4540405719
 20
11.8087904162
 30
0.0
 10
14.4530047898
 20
11.8020208516
 30
0.0
 10
14.4521466084
 20
11.795206594
 30
0.0
 10
14.4512377585
 20
11.7860462672
 30
0.0
 10
14.4505488584
 20
11.7744833242
 30
0.0
 10
14.450437581
 20
11.7604840566
 30
0.0
 10
14.4510398457
 20
11.7463464646
 30
0.0
 10
14.4523550084
 20
11.7320844471
 30
0.0
 10
14.4543816215
 20
11.7177116633
 30
0.0
 10
14.4571175389
 20
11.7032419224
 30
0.0
 10
14.4605600325
 20
11.6886890801
 30
0.0
 10
14.4647056417
 20
11.674067066
 30
0.0
 10
14.4695501965
 20
11.6593898587
 30
0.0
 10
14.4750890696
 20
11.6446712601
 30
0.0
 10
14.4813166992
 20
11.6299257572
 30
0.0
 10
14.4858820801
 20
11.6201752842
 30
0.0
 10
14.4882742188
 20
11.6153006183
 30
0.0
  0
SPLINE
  5
2D2
100
AcDbEntity
  8
LAYER_CUT_FEAT
100
AcDbSpline
 62
7
  6
CONTINUOUS
 70
0
 71
3
 72
15
 73
11
 74
0
 42
0.0000001
 43
0.0000001
 44
0.0000000001
 40
0.0
 40
0.0
 40
0.0
 40
0.0
 40
0.1236488604
 40
0.2475339603
 40
0.3717316125
 40
0.4963171373
 40
0.6213647739
 40
0.7469472723
 40
0.8731358366
 40
1.0
 40
1.0
 40
1.0
 40
1.0
 10
14.467396319
 20
11.8579995315
 30
0.0
 10
14.4667919369
 20
11.8554970861
 30
0.0
 10
14.4656585367
 20
11.8504685797
 30
0.0
 10
14.4641873583
 20
11.8428690067
 30
0.0
 10
14.4629441789
 20
11.8352090017
 30
0.0
 10
14.4619293645
 20
11.8274910284
 30
0.0
 10
14.4611432878
 20
11.8197174465
 30
0.0
 10
14.4605861311
 20
11.8118906501
 30
0.0
 10
14.4602580592
 20
11.804013139
 30
0.0
 10
14.4601923541
 20
11.7987440663
 30
0.0
 10
14.460197367
 20
11.7961027326
 30
0.0
  0
SPLINE
  5
2D3
100
AcDbEntity
  8
LAYER_FEATURE
100
AcDbSpline
 62
7
  6
CONTINUOUS
 70
0
 71
3
 72
15
 73
11
 74
0
 42
0.0000001
 43
0.0000001
 44
0.0000000001
 40
0.0
 40
0.0
 40
0.0
 40
0.0
 40
0.110990367
 40
0.2253441222
 40
0.3434419363
 40
0.4656135506
 40
0.5921408555
 40
0.7232588671
 40
0.8591609781
 40
1.0
 40
1.0
 40
1.0
 40
1.0
 10
16.5840657616
 20
12.2537665548
 30
0.0
 10
16.5852433223
 20
12.2532374137
 30
0.0
 10
16.5875953619
 20
12.2520748326
 30
0.0
 10
16.5910493524
 20
12.2500623703
 30
0.0
 10
16.5944747038
 20
12.2477594854
 30
0.0
 10
16.5978676425
 20
12.2451690253
 30
0.0
 10
16.6012246778
 20
12.2422938378
 30
0.0
 10
16.6045423926
 20
12.2391371617
 30
0.0
 10
16.6078172158
 20
12.2357024769
 30
0.0
 10
16.6099314692
 20
12.2332736755
 30
0.0
 10
16.6109812033
 20
12.2320160372
 30
0.0
  0
SPLINE
  5
2D4
100
AcDbEntity
  8
LAYER_CHAMFER_FEAT
100
AcDbSpline
 62
7
  6
CONTINUOUS
 70
0
 71
3
 72
68
 73
64
 74
0
 42
0.0000001
 43
0.0000001
 44
0.0000000001
 40
0.0
 40
0.0
 40
0.0
 40
0.0
 40
0.0106254253
 40
0.0212734957
 40
0.0319666132
 40
0.0427267211
 40
0.0535750713
 40
0.0645320455
 40
0.0756169822
 40
0.0868480257
 40
0.0982420468
 40
0.1098145099
 40
0.1215794871
 40
0.1335495507
 40
0.1396153879
 40
0.1457365409
 40
0.1581487157
 40
0.1707950116
 40
0.1836822698
 40
0.1968159624
 40
0.2102002938
 40
0.2238381769
 40
0.2377313897
 40
0.2518805266
 40
0.2662851592
 40
0.2809438099
 40
0.2958540651
 40
0.3110126066
 40
0.3264152527
 40
0.3420570535
 40
0.357932268
 40
0.3740345003
 40
0.3903566474
 40
0.4068910337
 40
0.4236293755
 40
0.4405628733
 40
0.4576822234
 40
0.4749776522
 40
0.4924389778
 40
0.5100555973
 40
0.5278165782
 40
0.545710627
 40
0.5637261791
 40
0.5818513802
 40
0.6000741507
 40
0.6183821941
 40
0.6367630325
 40
0.6552040384
 40
0.6736924507
 40
0.6922154176
 40
0.710760008
 40
0.7293132522
 40
0.7478621575
 40
0.7848934731
 40
0.8217522654
 40
0.8583367082
 40
0.8945472574
 40
0.9124830078
 40
0.9302894816
 40
0.9479551126
 40
0.9654692521
 40
0.9828216817
 40
1.0
 40
1.0
 40
1.0
 40
1.0
 10
14.8505219564
 20
11.7700805179
 30
0.0
 10
14.8498397864
 20
11.7678730142
 30
0.0
 10
14.8485984012
 20
11.7634137495
 30
0.0
 10
14.8471133502
 20
11.7566195238
 30
0.0
 10
14.8460057874
 20
11.7497238062
 30
0.0
 10
14.8452770032
 20
11.7427341767
 30
0.0
 10
14.8449276325
 20
11.7356579707
 30
0.0
 10
14.8449579798
 20
11.7285026814
 30
0.0
 10
14.8453679519
 20
11.7212758458
 30
0.0
 10
14.8461569597
 20
11.7139850476
 30
0.0
 10
14.8473241677
 20
11.7066379423
 30
0.0
 10
14.8488681589
 20
11.6992421624
 30
0.0
 10
14.8507873113
 20
11.6918055225
 30
0.0
 10
14.8526889716
 20
11.6856082109
 30
0.0
 10
14.8543927706
 20
11.6806388796
 30
0.0
 10
14.8562356973
 20
11.675616893
 30
0.0
 10
14.8587727477
 20
11.6693271623
 30
0.0
 10
14.8621677136
 20
11.6618043078
 30
0.0
 10
14.8659236538
 20
11.6542792984
 30
0.0
 10
14.8700365346
 20
11.646759991
 30
0.0
 10
14.8745021169
 20
11.6392541881
 30
0.0
 10
14.8793156493
 20
11.6317696195
 30
0.0
 10
14.8844721795
 20
11.6243140913
 30
0.0
 10
14.8899662583
 20
11.6168952771
 30
0.0
 10
14.8957922108
 20
11.6095209094
 30
0.0
 10
14.9019439346
 20
11.6021986069
 30
0.0
 10
14.9084150352
 20
11.594935974
 30
0.0
 10
14.9151987864
 20
11.5877405577
 30
0.0
 10
14.9222881006
 20
11.5806197963
 30
0.0
 10
14.9296756428
 20
11.5735811305
 30
0.0
 10
14.9373536775
 20
11.5666318128
 30
0.0
 10
14.9453142671
 20
11.5597791259
 30
0.0
 10
14.9535490838
 20
11.5530301314
 30
0.0
 10
14.962049596
 20
11.5463918935
 30
0.0
 10
14.9708069365
 20
11.5398712809
 30
0.0
 10
14.9798120025
 20
11.5334750868
 30
0.0
 10
14.9890554292
 20
11.5272099719
 30
0.0
 10
14.998527581
 20
11.5210824239
 30
0.0
 10
15.0082186281
 20
11.515098864
 30
0.0
 10
15.0181184528
 20
11.5092654587
 30
0.0
 10
15.0282167865
 20
11.5035883421
 30
0.0
 10
15.0385030879
 20
11.4980733603
 30
0.0
 10
15.0489666762
 20
11.492726304
 30
0.0
 10
15.0595966441
 20
11.487552703
 30
0.0
 10
15.070381934
 20
11.4825579573
 30
0.0
 10
15.0813113225
 20
11.4777472721
 30
0.0
 10
15.0923734215
 20
11.4731256276
 30
0.0
 10
15.1035567343
 20
11.46869788
 30
0.0
 10
15.1148495964
 20
11.4644685803
 30
0.0
 10
15.1262402793
 20
11.4604421947
 30
0.0
 10
15.1377168899
 20
11.4566228565
 30
0.0
 10
15.1492675502
 20
11.4530145759
 30
0.0
 10
15.1647414971
 20
11.4484927353
 30
0.0
 10
15.1841891747
 20
11.4433901977
 30
0.0
 10
15.2076415092
 20
11.4381609343
 30
0.0
 10
15.2310986482
 20
11.4338505714
 30
0.0
 10
15.2506309548
 20
11.4310303169
 30
0.0
 10
15.2661766445
 20
11.4292524885
 30
0.0
 10
15.2777397941
 20
11.4281628398
 30
0.0
 10
15.2892311455
 20
11.4273138572
 30
0.0
 10
15.3006389706
 20
11.42670642
 30
0.0
 10
15.3119510608
 20
11.426341239
 30
0.0
 10
15.3194600285
 20
11.4262590188
 30
0.0
 10
15.3231954623
 20
11.4262590188
 30
0.0
  0
SPLINE
  5
2D5
100
AcDbEntity
  8
02___PRT_ALL_AXES
100
AcDbSpline
 62
7
  6
CONTINUOUS
 70
0
 71
3
 72
29
 73
25
 74
0
 42
0.0000001
 43
0.0000001
 44
0.0000000001
 40
0.0
 40
0.0
 40
0.0
 40
0.0
 40
0.0268983522
 40
0.0537829577
 40
0.0806880238
 40
0.1076478529
 40
0.1346966662
 40
0.1618683813
 40
0.1891965232
 40
0.2167140383
 40
0.2444531366
 40
0.2724452004
 40
0.3007206155
 40
0.3293086999
 40
0.3875235249
 40
0.447310835
 40
0.508858673
 40
0.5723323206
 40
0.6378738515
 40
0.7056025748
 40
0.775614689
 40
0.8479845548
 40
0.9227709188
 40
1.0
 40
1.0
 40
1.0
 40
1.0
 10
16.6068010285
 20
12.2578976107
 30
0.0
 10
16.607718357
 20
12.2578976083
 30
0.0
 10
16.6095528015
 20
12.2578574241
 30
0.0
 10
16.612299425
 20
12.257676296
 30
0.0
 10
16.6150375694
 20
12.2573743683
 30
0.0
 10
16.6177653403
 20
12.2569517061
 30
0.0
 10
16.620480956
 20
12.2564084941
 30
0.0
 10
16.6231826125
 20
12.255744885
 30
0.0
 10
16.6258685259
 20
12.2549611002
 30
0.0
 10
16.6285369489
 20
12.2540574767
 30
0.0
 10
16.6311861316
 20
12.2530343129
 30
0.0
 10
16.6338143355
 20
12.2518919979
 30
0.0
 10
16.636419925
 20
12.2506309938
 30
0.0
 10
16.6398821405
 20
12.248781077
 30
0.0
 10
16.6441490656
 20
12.2461657733
 30
0.0
 10
16.6491196794
 20
12.2425807402
 30
0.0
 10
16.6539599114
 20
12.2385360405
 30
0.0
 10
16.658657792
 20
12.2340387509
 30
0.0
 10
16.6632022912
 20
12.2290966421
 30
0.0
 10
16.6675829555
 20
12.2237183961
 30
0.0
 10
16.6717899729
 20
12.2179135187
 30
0.0
 10
16.6758143348
 20
12.2116921867
 30
0.0
 10
16.6796474965
 20
12.2050658419
 30
0.0
 10
16.6820321936
 20
12.2004602698
 30
0.0
 10
16.6831924877
 20
12.198095839
 30
0.0
  0
SPLINE
  5
2D6
100
AcDbEntity
  8
LAYER_CUT_FEAT
100
AcDbSpline
 62
7
  6
CONTINUOUS
 70
0
 71
3
 72
27
 73
23
 74
0
 42
0.0000001
 43
0.0000001
 44
0.0000000001
 40
0.0
 40
0.0
 40
0.0
 40
0.0
 40
0.0290769699
 40
0.0581681956
 40
0.0872878986
 40
0.1164502263
 40
0.1456692345
 40
0.1749588356
 40
0.2043327677
 40
0.2338045896
 40
0.2930899079
 40
0.3529232791
 40
0.4134031722
 40
0.4746225519
 40
0.5366682646
 40
0.5996205829
 40
0.6635530745
 40
0.7285324095
 40
0.794617621
 40
0.8618611532
 40
0.9303107361
 40
1.0
 40
1.0
 40
1.0
 40
1.0
 10
15.9208306539
 20
11.3910602424
 30
0.0
 10
15.9214925932
 20
11.3932022726
 30
0.0
 10
15.9227589772
 20
11.3975054979
 30
0.0
 10
15.9244841857
 20
11.4040117533
 30
0.0
 10
15.9260348671
 20
11.4105686111
 30
0.0
 10
15.9274106521
 20
11.4171744297
 30
0.0
 10
15.9286111707
 20
11.4238276521
 30
0.0
 10
15.9296361563
 20
11.4305266545
 30
0.0
 10
15.9304853925
 20
11.437269884
 30
0.0
 10
15.931384769
 20
11.4463347285
 30
0.0
 10
15.9320664885
 20
11.4577771457
 30
0.0
 10
15.932176606
 20
11.4716304926
 30
0.0
 10
15.9315806189
 20
11.4856207221
 30
0.0
 10
15.9302791648
 20
11.4997340801
 30
0.0
 10
15.928273676
 20
11.5139570499
 30
0.0
 10
15.9255662762
 20
11.5282759661
 30
0.0
 10
15.9221596654
 20
11.5426771176
 30
0.0
 10
15.9180572677
 20
11.5571467198
 30
0.0
 10
15.9132632099
 20
11.5716709399
 30
0.0
 10
15.9077820709
 20
11.5862361199
 30
0.0
 10
15.9016193547
 20
11.6008279238
 30
0.0
 10
15.8971015609
 20
11.6104767632
 30
0.0
 10
15.8947343566
 20
11.6153006183
 30
0.0
  0
SPLINE
  5
2D7
100
AcDbEntity
  8
02___PRT_ALL_AXES
100
AcDbSpline
 62
7
  6
CONTINUOUS
 70
0
 71
3
 72
34
 73
30
 74
0
 42
0.0000001
 43
0.0000001
 44
0.0000000001
 40
0.0
 40
0.0
 40
0.0
 40
0.0
 40
0.0681349308
 40
0.1018909353
 40
0.135434042
 40
0.2018761572
 40
0.2674732989
 40
0.2999628524
 40
0.3322464235
 40
0.3643266917
 40
0.3962068435
 40
0.4593722819
 40
0.5217853464
 40
0.5527266862
 40
0.5834953014
 40
0.6140970055
 40
0.6445380015
 40
0.6748247886
 40
0.7049642245
 40
0.7349634601
 40
0.7648300222
 40
0.794571747
 40
0.8241968296
 40
0.8537137788
 40
0.8831314857
 40
0.9124591775
 40
0.9417064628
 40
0.9708832913
 40
1.0
 40
1.0
 40
1.0
 40
1.0
 10
14.9421264256
 20
13.080781994
 30
0.0
 10
14.9472644435
 20
13.080781994
 30
0.0
 10
14.9549507896
 20
13.080553163
 30
0.0
 10
14.9651355797
 20
13.0797785911
 30
0.0
 10
14.9751648017
 20
13.0787022285
 30
0.0
 10
14.9875125569
 20
13.0767879033
 30
0.0
 10
14.9996352879
 20
13.074103665
 30
0.0
 10
15.0091192463
 20
13.0715083656
 30
0.0
 10
15.0160977662
 20
13.069348775
 30
0.0
 10
15.0229570298
 20
13.0669728029
 30
0.0
 10
15.0319062883
 20
13.0635318118
 30
0.0
 10
15.0427677217
 20
13.0587098502
 30
0.0
 10
15.0532084229
 20
13.0531830453
 30
0.0
 10
15.0612399149
 20
13.048373032
 30
0.0
 10
15.0670832082
 20
13.0445868745
 30
0.0
 10
15.0727570295
 20
13.0406167389
 30
0.0
 10
15.0782559028
 20
13.0364676217
 30
0.0
 10
15.0835742801
 20
13.0321445781
 30
0.0
 10
15.0887069076
 20
13.0276529579
 30
0.0
 10
15.0936485651
 20
13.0229981267
 30
0.0
 10
15.0983942974
 20
13.0181857127
 30
0.0
 10
15.1029392011
 20
13.0132213667
 30
0.0
 10
15.1072786295
 20
13.0081109637
 30
0.0
 10
15.1114080008
 20
13.0028604122
 30
0.0
 10
15.1153229848
 20
12.9974758054
 30
0.0
 10
15.1190193315
 20
12.9919632895
 30
0.0
 10
15.1224930531
 20
12.9863291258
 30
0.0
 10
15.125740201
 20
12.9805797766
 30
0.0
 10
15.1277534426
 20
12.976670553
 30
0.0
 10
15.1287207355
 20
12.974699428
 30
0.0
  0
SPLINE
  5
2D8
100
AcDbEntity
  8
02___PRT_ALL_AXES
100
AcDbSpline
 62
7
  6
CONTINUOUS
 70
0
 71
3
 72
87
 73
83
 74
0
 42
0.0000001
 43
0.0000001
 44
0.0000000001
 40
0.0
 40
0.0
 40
0.0
 40
0.0
 40
0.0142562449
 40
0.0289200286
 40
0.0439872506
 40
0.0594541981
 40
0.0753144438
 40
0.0915595082
 40
0.108179368
 40
0.1251623821
 40
0.1424954265
 40
0.1601639946
 40
0.1781523362
 40
0.1964435393
 40
0.2150196157
 40
0.233861611
 40
0.2529496533
 40
0.2722630268
 40
0.2917802405
 40
0.3114790565
 40
0.3313365691
 40
0.351329243
 40
0.3714329221
 40
0.3916228979
 40
0.4118739315
 40
0.4321602839
 40
0.4524557619
 40
0.4727337342
 40
0.4929672012
 40
0.5131288289
 40
0.5331909898
 40
0.5531258405
 40
0.5729053904
 40
0.5925015752
 40
0.6118863215
 40
0.6310316893
 40
0.6499099439
 40
0.6684936504
 40
0.6867558587
 40
0.7046701493
 40
0.7222108223
 40
0.7393530426
 40
0.7560728806
 40
0.7723476087
 40
0.7881557462
 40
0.803477166
 40
0.8182934275
 40
0.8325877477
 40
0.8463452563
 40
0.8595532675
 40
0.865947951
 40
0.8722015774
 40
0.8783132276
 40
0.8842821576
 40
0.8901078896
 40
0.8957900916
 40
0.9013286163
 40
0.9067236327
 40
0.9119755202
 40
0.9170848756
 40
0.9220526568
 40
0.9268801209
 40
0.9315688051
 40
0.9361206632
 40
0.9405380639
 40
0.9448237526
 40
0.9489809658
 40
0.9530134888
 40
0.956925612
 40
0.9607222185
 40
0.9644088773
 40
0.9679918038
 40
0.9714779099
 40
0.9748748887
 40
0.9781911726
 40
0.9814359275
 40
0.9846190702
 40
0.9877511943
 40
0.9908434867
 40
0.99390764
 40
0.9969557163
 40
1.0
 40
1.0
 40
1.0
 40
1.0
 10
16.6831924877
 20
12.198095839
 30
0.0
 10
16.6842942704
 20
12.195850642
 30
0.0
 10
16.6864362071
 20
12.1912498224
 30
0.0
 10
16.6894248391
 20
12.1841336027
 30
0.0
 10
16.6922304924
 20
12.1767157606
 30
0.0
 10
16.6948496329
 20
12.1690081889
 30
0.0
 10
16.6972796091
 20
12.1610227836
 30
0.0
 10
16.699518164
 20
12.152771981
 30
0.0
 10
16.7015637848
 20
12.1442686228
 30
0.0
 10
16.7034155918
 20
12.1355258643
 30
0.0
 10
16.7050731859
 20
12.1265571431
 30
0.0
 10
16.7065368818
 20
12.1173761882
 30
0.0
 10
16.707807482
 20
12.1079969421
 30
0.0
 10
16.7088862915
 20
12.0984335401
 30
0.0
 10
16.7097752228
 20
12.0887002939
 30
0.0
 10
16.7104765545
 20
12.0788116425
 30
0.0
 10
16.710993069
 20
12.0687821492
 30
0.0
 10
16.7113279779
 20
12.0586264768
 30
0.0
 10
16.7114848014
 20
12.0483593744
 30
0.0
 10
16.7114674952
 20
12.0379956682
 30
0.0
 10
16.7112802804
 20
12.0275502492
 30
0.0
 10
16.7109276629
 20
12.0170380709
 30
0.0
 10
16.7104144486
 20
12.0064741435
 30
0.0
 10
16.7097456133
 20
11.995873537
 30
0.0
 10
16.7089263685
 20
11.9852513739
 30
0.0
 10
16.7079620842
 20
11.9746228304
 30
0.0
 10
16.7068582544
 20
11.964003139
 30
0.0
 10
16.7056205135
 20
11.9534075779
 30
0.0
 10
16.7042545587
 20
11.9428514726
 30
0.0
 10
16.7027661604
 20
11.9323501834
 30
0.0
 10
16.7011611201
 20
11.9219190981
 30
0.0
 10
16.6994452462
 20
11.9115736165
 30
0.0
 10
16.6976243368
 20
11.9013291282
 30
0.0
 10
16.6957041378
 20
11.8912009974
 30
0.0
 10
16.6936903446
 20
11.8812045272
 30
0.0
 10
16.6915885462
 20
11.8713549357
 30
0.0
 10
16.6894042227
 20
11.8616673178
 30
0.0
 10
16.6871427251
 20
11.8521566025
 30
0.0
 10
16.684809221
 20
11.8428375258
 30
0.0
 10
16.682408717
 20
11.8337245691
 30
0.0
 10
16.6799460054
 20
11.8248319255
 30
0.0
 10
16.6774256474
 20
11.8161734613
 30
0.0
 10
16.6748519859
 20
11.8077626523
 30
0.0
 10
16.672229086
 20
11.7996125629
 30
0.0
 10
16.6695607549
 20
11.7917357961
 30
0.0
 10
16.6668505289
 20
11.78414445
 30
0.0
 10
16.6641016432
 20
11.7768501097
 30
0.0
 10
16.6613170572
 20
11.7698637783
 30
0.0
 10
16.6584994352
 20
11.7631959315
 30
0.0
 10
16.6561007688
 20
11.7578570504
 30
0.0
 10
16.6541645774
 20
11.7537549667
 30
0.0
 10
16.652721148
 20
11.7507972322
 30
0.0
 10
16.6512710104
 20
11.7479262113
 30
0.0
 10
16.6498143602
 20
11.745142933
 30
0.0
 10
16.6483513894
 20
11.7424483854
 30
0.0
 10
16.6468822699
 20
11.7398435218
 30
0.0
 10
16.6454071535
 20
11.737329262
 30
0.0
 10
16.6439261876
 20
11.7349064789
 30
0.0
 10
16.6424395015
 20
11.7325760105
 30
0.0
 10
16.6409472004
 20
11.7303386674
 30
0.0
 10
16.6394493915
 20
11.7281952117
 30
0.0
 10
16.6379461672
 20
11.7261463689
 30
0.0
 10
16.6364375928
 20
11.7241928439
 30
0.0
 10
16.6349237355
 20
11.722335295
 30
0.0
 10
16.6334046566
 20
11.7205743381
 30
0.0
 10
16.6318803879
 20
11.7189105756
 30
0.0
 10
16.6303509583
 20
11.7173445722
 30
0.0
 10
16.6288164037
 20
11.7158768418
 30
0.0
 10
16.6272767314
 20
11.7145078907
 30
0.0
 10
16.6257319381
 20
11.7132382046
 30
0.0
 10
16.6241820418
 20
11.7120682072
 30
0.0
 10
16.6226270378
 20
11.7109983179
 30
0.0
 10
16.6210669084
 20
11.7100289573
 30
0.0
 10
16.619501669
 20
11.7091604749
 30
0.0
 10
16.617931327
 20
11.7083932116
 30
0.0
 10
16.6163558851
 20
11.707727525
 30
0.0
 10
16.6147753862
 20
11.7071636979
 30
0.0
 10
16.6131898831
 20
11.7067019805
 30
0.0
 10
16.6115994442
 20
11.706342639
 30
0.0
 10
16.6100041438
 20
11.7060858652
 30
0.0
 10
16.608404184
 20
11.7059317768
 30
0.0
 10
16.6073350858
 20
11.705897611
 30
0.0
 10
16.6068010285
 20
11.7058976132
 30
0.0
  0
SPLINE
  5
2D9
100
AcDbEntity
  8
02___PRT_ALL_AXES
100
AcDbSpline
 62
7
  6
CONTINUOUS
 70
0
 71
3
 72
50
 73
46
 74
0
 42
0.0000001
 43
0.0000001
 44
0.0000000001
 40
0.0
 40
0.0
 40
0.0
 40
0.0
 40
0.0396643562
 40
0.0788605745
 40
0.1175661664
 40
0.1557597776
 40
0.1934216663
 40
0.2305336656
 40
0.2670793378
 40
0.3030440898
 40
0.3384153005
 40
0.3731824543
 40
0.4073372808
 40
0.4408738999
 40
0.4737889746
 40
0.5060818659
 40
0.5377547917
 40
0.5688129878
 40
0.5992648689
 40
0.6291221852
 40
0.6584001719
 40
0.6728285121
 40
0.6871194021
 40
0.7152990202
 40
0.7429671479
 40
0.7566197095
 40
0.7701560784
 40
0.7835806394
 40
0.7968980198
 40
0.8101130799
 40
0.8232309103
 40
0.8362568291
 40
0.8491963693
 40
0.8620552772
 40
0.8748394976
 40
0.8875551658
 40
0.9002085959
 40
0.9128062641
 40
0.9253547992
 40
0.9378609615
 40
0.9503316297
 40
0.9627737815
 40
0.9751944743
 40
0.9876008273
 40
1.0
 40
1.0
 40
1.0
 40
1.0
 10
14.762029081
 20
12.4979867732
 30
0.0
 10
14.7474548748
 20
12.4979867732
 30
0.0
 10
14.7184773189
 20
12.4976599803
 30
0.0
 10
14.6753008949
 20
12.4961704125
 30
0.0
 10
14.6327112134
 20
12.4936859613
 30
0.0
 10
14.5907565883
 20
12.4902093982
 30
0.0
 10
14.5494843074
 20
12.4857446314
 30
0.0
 10
14.508940946
 20
12.4802966655
 30
0.0
 10
14.4691722356
 20
12.4738716123
 30
0.0
 10
14.4302230327
 20
12.4664766775
 30
0.0
 10
14.3921372634
 20
12.4581201497
 30
0.0
 10
14.3549578774
 20
12.4488113894
 30
0.0
 10
14.3187268
 20
12.438560816
 30
0.0
 10
14.2834848873
 20
12.4273798941
 30
0.0
 10
14.2492718803
 20
12.4152811206
 30
0.0
 10
14.2161263673
 20
12.4022780096
 30
0.0
 10
14.1840857336
 20
12.3883850658
 30
0.0
 10
14.1531861674
 20
12.3736177964
 30
0.0
 10
14.1234624715
 20
12.3579925892
 30
0.0
 10
14.0949485877
 20
12.3415270711
 30
0.0
 10
14.0721114777
 20
12.3270506646
 30
0.0
 10
14.054489961
 20
12.31506405
 30
0.0
 10
14.0374636994
 20
12.3029288985
 30
0.0
 10
14.0169793359
 20
12.2872749172
 30
0.0
 10
13.9974206083
 20
12.2708395683
 30
0.0
 10
13.9824666518
 20
12.2573216149
 30
0.0
 10
13.9716429393
 20
12.2470459855
 30
0.0
 10
13.9611649999
 20
12.2365916985
 30
0.0
 10
13.951035727
 20
12.2259616544
 30
0.0
 10
13.9412580187
 20
12.2151588625
 30
0.0
 10
13.9318346526
 20
12.2041863625
 30
0.0
 10
13.9227682964
 20
12.1930472629
 30
0.0
 10
13.9140615444
 20
12.1817446953
 30
0.0
 10
13.9057168586
 20
12.1702818657
 30
0.0
 10
13.8977366241
 20
12.1586620067
 30
0.0
 10
13.8901231129
 20
12.1468884059
 30
0.0
 10
13.8828784852
 20
12.1349644006
 30
0.0
 10
13.8760048223
 20
12.122893357
 30
0.0
 10
13.8695040644
 20
12.1106787058
 30
0.0
 10
13.8633780808
 20
12.0983239012
 30
0.0
 10
13.8576286093
 20
12.0858324484
 30
0.0
 10
13.8522572888
 20
12.0732079029
 30
0.0
 10
13.8472656513
 20
12.0604538028
 30
0.0
 10
13.8426551427
 20
12.0475739254
 30
0.0
 10
13.8398360626
 20
12.038904717
 30
0.0
 10
13.8384909346
 20
12.0345518852
 30
0.0
  0
SPLINE
  5
2DA
100
AcDbEntity
  8
LAYER_CHAMFER_FEAT
100
AcDbSpline
 62
7
  6
CONTINUOUS
 70
0
 71
3
 72
39
 73
35
 74
0
 42
0.0000001
 43
0.0000001
 44
0.0000000001
 40
0.0
 40
0.0
 40
0.0
 40
0.0
 40
0.0248034963
 40
0.0496643347
 40
0.0746391942
 40
0.099783485
 40
0.1251507464
 40
0.1507921142
 40
0.1767559258
 40
0.2030872574
 40
0.2298277661
 40
0.2570153712
 40
0.2846842088
 40
0.3128645651
 40
0.3415828039
 40
0.3708615622
 40
0.4007196409
 40
0.4311723134
 40
0.4622313148
 40
0.493905049
 40
0.5261987895
 40
0.5591147003
 40
0.5926522007
 40
0.6268079011
 40
0.6615759528
 40
0.6969480925
 40
0.7329137578
 40
0.7694603575
 40
0.8065733574
 40
0.8442363193
 40
0.8824305683
 40
0.9211370727
 40
0.9603360377
 40
1.0
 40
1.0
 40
1.0
 40
1.0
 10
15.5670875682
 20
11.5486449959
 30
0.0
 10
15.566376985
 20
11.5463455467
 30
0.0
 10
15.5648184656
 20
11.5417820191
 30
0.0
 10
15.5620785707
 20
11.5350736397
 30
0.0
 10
15.5589385677
 20
11.5285060682
 30
0.0
 10
15.5554021964
 20
11.5220871636
 30
0.0
 10
15.5514735541
 20
11.5158241904
 30
0.0
 10
15.5471572896
 20
11.5097242613
 30
0.0
 10
15.5424583514
 20
11.5037943396
 30
0.0
 10
15.5373822722
 20
11.4980410521
 30
0.0
 10
15.5319348527
 20
11.4924709221
 30
0.0
 10
15.5261223986
 20
11.4870901563
 30
0.0
 10
15.5199515675
 20
11.4819047684
 30
0.0
 10
15.5134293841
 20
11.4769205765
 30
0.0
 10
15.5065633184
 20
11.4721430693
 30
0.0
 10
15.4993611197
 20
11.4675776433
 30
0.0
 10
15.4918309965
 20
11.4632293042
 30
0.0
 10
15.4839814418
 20
11.4591029442
 30
0.0
 10
15.4758213395
 20
11.4552031393
 30
0.0
 10
15.4673599112
 20
11.4515342144
 30
0.0
 10
15.458606688
 20
11.4481003138
 30
0.0
 10
15.449571569
 20
11.444905195
 30
0.0
 10
15.4402647213
 20
11.4419525038
 30
0.0
 10
15.4306966577
 20
11.4392454773
 30
0.0
 10
15.4208781576
 20
11.4367871765
 30
0.0
 10
15.4108202944
 20
11.4345803576
 30
0.0
 10
15.4005344184
 20
11.4326274537
 30
0.0
 10
15.3900321148
 20
11.4309307133
 30
0.0
 10
15.3793252316
 20
11.4294919737
 30
0.0
 10
15.3684258799
 20
11.4283129178
 30
0.0
 10
15.357346348
 20
11.427394798
 30
0.0
 10
15.3460989478
 20
11.4267386747
 30
0.0
 10
15.3346967
 20
11.4263453476
 30
0.0
 10
15.3270441466
 20
11.4262590188
 30
0.0
 10
15.3231954623
 20
11.4262590188
 30
0.0
  0
SPLINE
  5
2DB
100
AcDbEntity
  8
LAYER_FEATURE
100
AcDbSpline
 62
7
  6
CONTINUOUS
 70
0
 71
3
 72
51
 73
47
 74
0
 42
0.0000001
 43
0.0000001
 44
0.0000000001
 40
0.0
 40
0.0
 40
0.0
 40
0.0
 40
0.0475507603
 40
0.0938158365
 40
0.1387393058
 40
0.1822805477
 40
0.2244023709
 40
0.2650727513
 40
0.3042679077
 40
0.3419720682
 40
0.3781782107
 40
0.4128898775
 40
0.4296907337
 40
0.4461247083
 40
0.4779053871
 40
0.5082777034
 40
0.5229555666
 40
0.5373053376
 40
0.5650588207
 40
0.591641497
 40
0.6171748954
 40
0.6295957597
 40
0.6418106253
 40
0.6538412448
 40
0.6657106898
 40
0.6774432121
 40
0.6890642172
 40
0.7006000468
 40
0.7120777439
 40
0.7235248878
 40
0.7349693313
 40
0.7464389438
 40
0.7579613857
 40
0.7695638193
 40
0.7812727252
 40
0.7931137238
 40
0.8051112994
 40
0.81728874
 40
0.8296680797
 40
0.8551072238
 40
0.8815826186
 40
0.9092180292
 40
0.9235054358
 40
0.9381190159
 40
0.968357827
 40
1.0
 40
1.0
 40
1.0
 40
1.0
 10
16.5490289383
 20
12.119149093
 30
0.0
 10
16.5497633143
 20
12.1215255345
 30
0.0
 10
16.5512682256
 20
12.1261971064
 30
0.0
 10
16.5536689781
 20
12.1330466457
 30
0.0
 10
16.5561789548
 20
12.1396330695
 30
0.0
 10
16.5587936855
 20
12.1459447219
 30
0.0
 10
16.5615086413
 20
12.1519708219
 30
0.0
 10
16.5643191797
 20
12.1577009026
 30
0.0
 10
16.5672204145
 20
12.1631250345
 30
0.0
 10
16.5702073558
 20
12.1682338951
 30
0.0
 10
16.573274895
 20
12.173018557
 30
0.0
 10
16.5759220763
 20
12.1767686534
 30
0.0
 10
16.5780775351
 20
12.1795950957
 30
0.0
 10
16.5802080689
 20
12.1822463105
 30
0.0
 10
16.5829086694
 20
12.1853484455
 30
0.0
 10
16.5857208322
 20
12.1882233821
 30
0.0
 10
16.5879985817
 20
12.1903374899
 30
0.0
 10
16.5902419773
 20
12.192284693
 30
0.0
 10
16.5930760769
 20
12.1944985936
 30
0.0
 10
16.5965579461
 20
12.1968150829
 30
0.0
 10
16.5995177839
 20
12.1984482206
 30
0.0
 10
16.6018967103
 20
12.1995580467
 30
0.0
 10
16.603671197
 20
12.2002878612
 30
0.0
 10
16.6054513753
 20
12.2009223323
 30
0.0
 10
16.6072364887
 20
12.2014611962
 30
0.0
 10
16.6090257489
 20
12.2019041422
 30
0.0
 10
16.6108183522
 20
12.2022509589
 30
0.0
 10
16.6126134854
 20
12.2025015068
 30
0.0
 10
16.6144103408
 20
12.2026556245
 30
0.0
 10
16.6162080973
 20
12.2027132198
 30
0.0
 10
16.6180059324
 20
12.2026743086
 30
0.0
 10
16.6198030274
 20
12.2025388894
 30
0.0
 10
16.6215985575
 20
12.2023070002
 30
0.0
 10
16.6233917125
 20
12.2019788085
 30
0.0
 10
16.6251816851
 20
12.2015544725
 30
0.0
 10
16.6269676636
 20
12.2010341602
 30
0.0
 10
16.6287488553
 20
12.2004181755
 30
0.0
 10
16.6305245129
 20
12.1997068023
 30
0.0
 10
16.6329049289
 20
12.1986218233
 30
0.0
 10
16.6358672019
 20
12.197019555
 30
0.0
 10
16.6393529132
 20
12.1947391542
 30
0.0
 10
16.6421907361
 20
12.1925545397
 30
0.0
 10
16.6444372668
 20
12.1906305696
 30
0.0
 10
16.6467183374
 20
12.188540115
 30
0.0
 10
16.6495350639
 20
12.1856943753
 30
0.0
 10
16.6516748251
 20
12.1832630379
 30
0.0
 10
16.6527354528
 20
12.1819923531
 30
0.0
  0
SPLINE
  5
2DC
100
AcDbEntity
  8
LAYER_FEATURE
100
AcDbSpline
 62
7
  6
CONTINUOUS
 70
0
 71
3
 72
84
 73
80
 74
0
 42
0.0000001
 43
0.0000001
 44
0.0000000001
 40
0.0
 40
0.0
 40
0.0
 40
0.0
 40
0.0176366062
 40
0.0357014924
 40
0.0541696742
 40
0.073018494
 40
0.0922231314
 40
0.1117573796
 40
0.1315943396
 40
0.1517062315
 40
0.1720644924
 40
0.1926398688
 40
0.2134025602
 40
0.2343222589
 40
0.2553682349
 40
0.276509454
 40
0.2977146177
 40
0.3189522745
 40
0.3401908867
 40
0.3613989133
 40
0.3825448964
 40
0.4035975248
 40
0.4245257462
 40
0.4452988112
 40
0.4658863825
 40
0.4862586268
 40
0.506386251
 40
0.5262406668
 40
0.5457940232
 40
0.5650193013
 40
0.5838904852
 40
0.60238256
 40
0.6204717082
 40
0.6381354237
 40
0.6553525578
 40
0.6721036025
 40
0.6883707402
 40
0.7041380326
 40
0.7193917286
 40
0.7341203385
 40
0.7483150232
 40
0.7619698914
 40
0.7750822527
 40
0.7876532082
 40
0.7937375811
 40
0.799688973
 40
0.8055087528
 40
0.8111986811
 40
0.8221965068
 40
0.8275110053
 40
0.8327064292
 40
0.8427537905
 40
0.8523758345
 40
0.8616163972
 40
0.8661108271
 40
0.8705302302
 40
0.8748824771
 40
0.8791759102
 40
0.8834193079
 40
0.887621875
 40
0.8917931529
 40
0.8959429437
 40
0.9000812505
 40
0.9042181767
 40
0.9083638373
 40
0.9125282728
 40
0.9167213462
 40
0.9209526791
 40
0.9252315768
 40
0.9295669339
 40
0.9339672186
 40
0.938440438
 40
0.9476328442
 40
0.9572000952
 40
0.9671871687
 40
0.9723507423
 40
0.9776324126
 40
0.9885620946
 40
1.0
 40
1.0
 40
1.0
 40
1.0
 10
16.5490289383
 20
12.119149093
 30
0.0
 10
16.5482740206
 20
12.1167061784
 30
0.0
 10
16.5468064552
 20
12.1117421065
 30
0.0
 10
16.5447538495
 20
12.1041610992
 30
0.0
 10
16.542826399
 20
12.0963661425
 30
0.0
 10
16.5410275163
 20
12.0883711108
 30
0.0
 10
16.5393602789
 20
12.0801898287
 30
0.0
 10
16.5378276618
 20
12.0718366004
 30
0.0
 10
16.536432335
 20
12.0633260545
 30
0.0
 10
16.5351767286
 20
12.0546730647
 30
0.0
 10
16.5340630784
 20
12.045892758
 30
0.0
 10
16.5330933059
 20
12.0370004964
 30
0.0
 10
16.5322691225
 20
12.028011833
 30
0.0
 10
16.5315919881
 20
12.01894249
 30
0.0
 10
16.5310630601
 20
12.0098083355
 30
0.0
 10
16.5306832942
 20
12.0006253486
 30
0.0
 10
16.5304533466
 20
11.9914095953
 30
0.0
 10
16.530373606
 20
11.9821772
 30
0.0
 10
16.5304442434
 20
11.9729443156
 30
0.0
 10
16.5306651061
 20
11.9637270957
 30
0.0
 10
16.5310358153
 20
11.9545416671
 30
0.0
 10
16.5315557371
 20
11.9454041005
 30
0.0
 10
16.5322239291
 20
11.9363303809
 30
0.0
 10
16.5330392464
 20
11.9273363836
 30
0.0
 10
16.5340002514
 20
11.918437841
 30
0.0
 10
16.5351052419
 20
11.9096503173
 30
0.0
 10
16.536352313
 20
11.900989185
 30
0.0
 10
16.5377392495
 20
11.8924695875
 30
0.0
 10
16.5392636261
 20
11.8841064227
 30
0.0
 10
16.5409227904
 20
11.8759143142
 30
0.0
 10
16.5427138007
 20
11.8679075757
 30
0.0
 10
16.5446335469
 20
11.8601002029
 30
0.0
 10
16.5466786604
 20
11.8525058335
 30
0.0
 10
16.5488455393
 20
11.8451377241
 30
0.0
 10
16.5511304295
 20
11.838008744
 30
0.0
 10
16.5535293045
 20
11.8311313213
 30
0.0
 10
16.5560379789
 20
11.8245174457
 30
0.0
 10
16.5586521017
 20
11.8181786458
 30
0.0
 10
16.5613670802
 20
11.8121259393
 30
0.0
 10
16.56417823
 20
11.8063698558
 30
0.0
 10
16.5670806733
 20
11.8009203958
 30
0.0
 10
16.5700693884
 20
11.7957869663
 30
0.0
 10
16.5731392385
 20
11.790978575
 30
0.0
 10
16.5757888295
 20
11.7872092248
 30
0.0
 10
16.5779464706
 20
11.7843678771
 30
0.0
 10
16.5795639649
 20
11.7823464243
 30
0.0
 10
16.5811976453
 20
11.7804122383
 30
0.0
 10
16.5833717364
 20
11.777978556
 30
0.0
 10
16.585598763
 20
11.7756915816
 30
0.0
 10
16.5878796236
 20
11.7735647404
 30
0.0
 10
16.5901260983
 20
11.7716055612
 30
0.0
 10
16.5929642328
 20
11.769377441
 30
0.0
 10
16.5964514647
 20
11.7670448444
 30
0.0
 10
16.5994162328
 20
11.7653991619
 30
0.0
 10
16.6017992792
 20
11.7642800199
 30
0.0
 10
16.6035768049
 20
11.7635436705
 30
0.0
 10
16.6053600829
 20
11.7629030005
 30
0.0
 10
16.6071483573
 20
11.7623582893
 30
0.0
 10
16.6089408358
 20
11.7619098561
 30
0.0
 10
16.6107367066
 20
11.7615578979
 30
0.0
 10
16.612535155
 20
11.7613025684
 30
0.0
 10
16.614335369
 20
11.7611440418
 30
0.0
 10
16.6161365211
 20
11.7610823924
 30
0.0
 10
16.6179377856
 20
11.7611176146
 30
0.0
 10
16.6197383377
 20
11.7612497249
 30
0.0
 10
16.6215373484
 20
11.7614786679
 30
0.0
 10
16.6233340037
 20
11.7618042804
 30
0.0
 10
16.6251274882
 20
11.7622264185
 30
0.0
 10
16.6269169873
 20
11.7627449019
 30
0.0
 10
16.6287017056
 20
11.7633594224
 30
0.0
 10
16.630480887
 20
11.7640697092
 30
0.0
 10
16.6328660413
 20
11.7651537293
 30
0.0
 10
16.635834267
 20
11.7667557585
 30
0.0
 10
16.6393269398
 20
11.769037342
 30
0.0
 10
16.6421703421
 20
11.7712240762
 30
0.0
 10
16.6444212553
 20
11.773150404
 30
0.0
 10
16.646706849
 20
11.7752438248
 30
0.0
 10
16.6495291003
 20
11.778094194
 30
0.0
 10
16.6516728626
 20
11.7805298308
 30
0.0
 10
16.6527354527
 20
11.7818028715
 30
0.0
  0
SPLINE
  5
2DD
100
AcDbEntity
  8
LAYER_CUT_FEAT
100
AcDbSpline
 62
7
  6
CONTINUOUS
 70
0
 71
3
 72
88
 73
84
 74
0
 42
0.0000001
 43
0.0000001
 44
0.0000000001
 40
0.0
 40
0.0
 40
0.0
 40
0.0
 40
0.0131061145
 40
0.0265340929
 40
0.0402890074
 40
0.0543738904
 40
0.0687891128
 40
0.0835329494
 40
0.0910272989
 40
0.0986022041
 40
0.1062568993
 40
0.1139904917
 40
0.1218020002
 40
0.1296903254
 40
0.1456920631
 40
0.1619856323
 40
0.1785590249
 40
0.1953989648
 40
0.2124910158
 40
0.2298196846
 40
0.2473685181
 40
0.2651201958
 40
0.2830566201
 40
0.301159003
 40
0.3194079486
 40
0.3377835346
 40
0.3562653901
 40
0.3748327729
 40
0.3934646447
 40
0.412139746
 40
0.43083667
 40
0.449533936
 40
0.4682100623
 40
0.4868436389
 40
0.5054134005
 40
0.5238983006
 40
0.542277586
 40
0.5605308728
 40
0.578638223
 40
0.5965802232
 40
0.6143380649
 40
0.6318936276
 40
0.6492295648
 40
0.6663293934
 40
0.6831775876
 40
0.6997596764
 40
0.7160623452
 40
0.7320735442
 40
0.747782602
 40
0.7555211874
 40
0.7631809332
 40
0.7707609427
 40
0.7782604437
 40
0.7856787608
 40
0.7930153555
 40
0.8002697979
 40
0.8074417964
 40
0.8215371833
 40
0.8353026156
 40
0.8487408456
 40
0.8553392722
 40
0.8618581007
 40
0.8746604409
 40
0.8809476664
 40
0.8871606967
 40
0.8993704107
 40
0.9113074646
 40
0.9171804995
 40
0.9229930874
 40
0.9287482043
 40
0.934449003
 40
0.9400988335
 40
0.9457012162
 40
0.9512598492
 40
0.9567785929
 40
0.9622614584
 40
0.967712603
 40
0.9731363053
 40
0.9785369626
 40
0.9839190633
 40
0.9892871775
 40
0.9946459334
 40
1.0
 40
1.0
 40
1.0
 40
1.0
 10
15.8947343566
 20
11.6153006183
 30
0.0
 10
15.8915020006
 20
11.6218874672
 30
0.0
 10
15.8846237108
 20
11.635061389
 30
0.0
 10
15.873252608
 20
11.6545489478
 30
0.0
 10
15.8607231627
 20
11.6739681889
 30
0.0
 10
15.8470573216
 20
11.6932855504
 30
0.0
 10
15.8322784423
 20
11.7124683436
 30
0.0
 10
15.8191287408
 20
11.7282279235
 30
0.0
 10
15.8080835583
 20
11.7407417107
 30
0.0
 10
15.7994922087
 20
11.750124988
 30
0.0
 10
15.7906426132
 20
11.7594505366
 30
0.0
 10
15.7815385597
 20
11.7687144661
 30
0.0
 10
15.7721838768
 20
11.7779127856
 30
0.0
 10
15.7593215088
 20
11.7901422132
 30
0.0
 10
15.742635492
 20
11.8052366956
 30
0.0
 10
15.7217717299
 20
11.8229401212
 30
0.0
 10
15.7000086797
 20
11.8402887394
 30
0.0
 10
15.6773836417
 20
11.857252851
 30
0.0
 10
15.6539351798
 20
11.8738035726
 30
0.0
 10
15.6297033241
 20
11.8899126676
 30
0.0
 10
15.6047294296
 20
11.9055526562
 30
0.0
 10
15.5790561294
 20
11.9206968513
 30
0.0
 10
15.552727254
 20
11.935319408
 30
0.0
 10
15.5257877565
 20
11.9493953659
 30
0.0
 10
15.4982836356
 20
11.9629006942
 30
0.0
 10
15.4702618568
 20
11.9758123326
 30
0.0
 10
15.4417702725
 20
11.9881082321
 30
0.0
 10
15.4128575398
 20
11.9997673925
 30
0.0
 10
15.3835730374
 20
12.0107698997
 30
0.0
 10
15.3539667822
 20
12.0210969644
 30
0.0
 10
15.3240893412
 20
12.0307309497
 30
0.0
 10
15.2939917445
 20
12.0396554015
 30
0.0
 10
15.2637253978
 20
12.0478550773
 30
0.0
 10
15.2333419946
 20
12.0553159721
 30
0.0
 10
15.2028934274
 20
12.0620253421
 30
0.0
 10
15.1724316982
 20
12.0679717261
 30
0.0
 10
15.1420088298
 20
12.0731449685
 30
0.0
 10
15.1116767756
 20
12.0775362367
 30
0.0
 10
15.0814873296
 20
12.0811380318
 30
0.0
 10
15.0514920377
 20
12.083944202
 30
0.0
 10
15.0217421094
 20
12.0859499522
 30
0.0
 10
14.9922883295
 20
12.0871518514
 30
0.0
 10
14.9631809707
 20
12.0875478379
 30
0.0
 10
14.9344697083
 20
12.0871372207
 30
0.0
 10
14.9062035272
 20
12.0859206847
 30
0.0
 10
14.878430664
 20
12.0839002862
 30
0.0
 10
14.8511984257
 20
12.0810794333
 30
0.0
 10
14.8245534737
 20
12.0774629253
 30
0.0
 10
14.8027689117
 20
12.0737730019
 30
0.0
 10
14.7856785497
 20
12.0704228621
 30
0.0
 10
14.7730992474
 20
12.0677281684
 30
0.0
 10
14.7607003421
 20
12.0648400598
 30
0.0
 10
14.7484870786
 20
12.0617598225
 30
0.0
 10
14.7364646929
 20
12.0584886967
 30
0.0
 10
14.7246383249
 20
12.0550281477
 30
0.0
 10
14.7130129601
 20
12.0513795776
 30
0.0
 10
14.6978755449
 20
12.0462959171
 30
0.0
 10
14.679475696
 20
12.0394887912
 30
0.0
 10
14.6581467443
 20
12.0305469456
 30
0.0
 10
14.6410328848
 20
12.0224543954
 30
0.0
 10
14.6278255146
 20
12.0156265497
 30
0.0
 10
14.6150986454
 20
12.0086541067
 30
0.0
 10
14.6027807921
 20
12.0013049072
 30
0.0
 10
14.5909075459
 20
11.9935772147
 30
0.0
 10
14.5795162933
 20
11.9857259788
 30
0.0
 10
14.5659161336
 20
11.9755170546
 30
0.0
 10
14.5530623973
 20
11.9646741679
 30
0.0
 10
14.543344456
 20
11.9557020002
 30
0.0
 10
14.5363735784
 20
11.9488630693
 30
0.0
 10
14.5296843438
 20
11.9418813884
 30
0.0
 10
14.5232796307
 20
11.9347598092
 30
0.0
 10
14.5171621565
 20
11.9275014438
 30
0.0
 10
14.5113345992
 20
11.9201093455
 30
0.0
 10
14.5057994594
 20
11.912586691
 30
0.0
 10
14.5005591153
 20
11.9049367052
 30
0.0
 10
14.4956158795
 20
11.8971626335
 30
0.0
 10
14.4909718207
 20
11.8892678526
 30
0.0
 10
14.4866290373
 20
11.8812556979
 30
0.0
 10
14.4825893227
 20
11.8731296566
 30
0.0
 10
14.4788545024
 20
11.8648931936
 30
0.0
 10
14.4754261373
 20
11.8565498353
 30
0.0
 10
14.4723057642
 20
11.8481033148
 30
0.0
 10
14.4704313784
 20
11.8424047473
 30
0.0
 10
14.4695464093
 20
11.8395409941
 30
0.0
  0
SPLINE
  5
2DE
100
AcDbEntity
  8
LAYER_CHAMFER_FEAT
100
AcDbSpline
 62
7
  6
CONTINUOUS
 70
0
 71
3
 72
87
 73
83
 74
0
 42
0.0000001
 43
0.0000001
 44
0.0000000001
 40
0.0
 40
0.0
 40
0.0
 40
0.0
 40
0.015757773
 40
0.0234991755
 40
0.0311478954
 40
0.0387035378
 40
0.0461659122
 40
0.0608099459
 40
0.0750829455
 40
0.0889901608
 40
0.1025402552
 40
0.1157455179
 40
0.1286220499
 40
0.141189896
 40
0.1534731241
 40
0.1595174827
 40
0.1655015623
 40
0.1714294738
 40
0.1773055739
 40
0.1831344329
 40
0.1889208219
 40
0.1946697139
 40
0.2003862418
 40
0.2060756989
 40
0.2117435049
 40
0.2173951825
 40
0.2230363382
 40
0.2286726264
 40
0.2343097284
 40
0.2399533195
 40
0.2456090456
 40
0.2512824884
 40
0.2569791466
 40
0.2627044061
 40
0.268463512
 40
0.2742615622
 40
0.2801034634
 40
0.2859939379
 40
0.291937496
 40
0.2979384166
 40
0.3040007634
 40
0.3101283393
 40
0.3163247141
 40
0.3289353603
 40
0.3418578129
 40
0.3551115393
 40
0.3687120797
 40
0.3826711959
 40
0.3969970576
 40
0.411694444
 40
0.4267649627
 40
0.4422072796
 40
0.4580173371
 40
0.4741885621
 40
0.4907120574
 40
0.507576796
 40
0.5247698056
 40
0.5422763352
 40
0.5600800105
 40
0.5781629769
 40
0.5965060474
 40
0.6150888389
 40
0.6338898982
 40
0.6528868214
 40
0.6720563685
 40
0.6913745838
 40
0.7108169055
 40
0.7303582722
 40
0.7499732257
 40
0.7696360173
 40
0.789320712
 40
0.8090012898
 40
0.8286517454
 40
0.8482461908
 40
0.8677589585
 40
0.8871647097
 40
0.9064385212
 40
0.9255560083
 40
0.9444934847
 40
0.9632277244
 40
0.9817372742
 40
1.0
 40
1.0
 40
1.0
 40
1.0
 10
14.9511762908
 20
11.8711735091
 30
0.0
 10
14.9462084528
 20
11.8700051791
 30
0.0
 10
14.9388321508
 20
11.8681208469
 30
0.0
 10
14.9291388211
 20
11.8653260669
 30
0.0
 10
14.9220421267
 20
11.8631193088
 30
0.0
 10
14.9150797055
 20
11.8607906315
 30
0.0
 10
14.9060373632
 20
11.8575453332
 30
0.0
 10
14.8950826228
 20
11.8531963503
 30
0.0
 10
14.8824421867
 20
11.8474760963
 30
0.0
 10
14.8704152148
 20
11.8412984293
 30
0.0
 10
14.8590255096
 20
11.8346752417
 30
0.0
 10
14.8482955194
 20
11.8276192163
 30
0.0
 10
14.8382464153
 20
11.8201437985
 30
0.0
 10
14.8288984569
 20
11.8122636061
 30
0.0
 10
14.8216692306
 20
11.8053344521
 30
0.0
 10
14.8162651072
 20
11.7996064532
 30
0.0
 10
14.8124196982
 20
11.795242318
 30
0.0
 10
14.8087626289
 20
11.7907895134
 30
0.0
 10
14.8052956333
 20
11.7862502082
 30
0.0
 10
14.8020204394
 20
11.7816266532
 30
0.0
 10
14.7989387295
 20
11.7769210848
 30
0.0
 10
14.7960519678
 20
11.7721358732
 30
0.0
 10
14.793361659
 20
11.7672733387
 30
0.0
 10
14.7908691195
 20
11.7623359032
 30
0.0
 10
14.7885755699
 20
11.7573260187
 30
0.0
 10
14.7864822242
 20
11.7522461366
 30
0.0
 10
14.7845900416
 20
11.747098811
 30
0.0
 10
14.7829000296
 20
11.7418865685
 30
0.0
 10
14.7814130092
 20
11.7366120061
 30
0.0
 10
14.7801296795
 20
11.7312777492
 30
0.0
 10
14.779050754
 20
11.7258864287
 30
0.0
 10
14.7781766719
 20
11.7204407389
 30
0.0
 10
14.7775079185
 20
11.7149433698
 30
0.0
 10
14.7770448065
 20
11.7093970519
 30
0.0
 10
14.7767875044
 20
11.7038045341
 30
0.0
 10
14.7767362115
 20
11.6981685835
 30
0.0
 10
14.7768908511
 20
11.6924919888
 30
0.0
 10
14.777251381
 20
11.6867775546
 30
0.0
 10
14.7778176101
 20
11.6810281065
 30
0.0
 10
14.7785891877
 20
11.675246467
 30
0.0
 10
14.7795657961
 20
11.6694355156
 30
0.0
 10
14.7807468772
 20
11.663598037
 30
0.0
 10
14.7826042229
 20
11.6557379136
 30
0.0
 10
14.785444494
 20
11.6458546778
 30
0.0
 10
14.7896390455
 20
11.6340065646
 30
0.0
 10
14.794631127
 20
11.6221235389
 30
0.0
 10
14.8004105287
 20
11.6102291004
 30
0.0
 10
14.8069656741
 20
11.5983462897
 30
0.0
 10
14.8142835114
 20
11.5864982538
 30
0.0
 10
14.8223495441
 20
11.5747080417
 30
0.0
 10
14.8311478366
 20
11.5629986088
 30
0.0
 10
14.8406610607
 20
11.551392775
 30
0.0
 10
14.8508705139
 20
11.5399131803
 30
0.0
 10
14.8617561509
 20
11.5285822463
 30
0.0
 10
14.8732965962
 20
11.5174221145
 30
0.0
 10
14.8854691926
 20
11.5064546077
 30
0.0
 10
14.898250052
 20
11.4957011923
 30
0.0
 10
14.9116140979
 20
11.4851829309
 30
0.0
 10
14.92553511
 20
11.4749204436
 30
0.0
 10
14.9399857597
 20
11.464933845
 30
0.0
 10
14.9549376771
 20
11.4552427189
 30
0.0
 10
14.9703615097
 20
11.4458660799
 30
0.0
 10
14.9862269784
 20
11.4368223348
 30
0.0
 10
15.0025029328
 20
11.4281292447
 30
0.0
 10
15.0191574037
 20
11.41980387
 30
0.0
 10
15.0361576795
 20
11.4118625577
 30
0.0
 10
15.0534703694
 20
11.4043209054
 30
0.0
 10
15.0710614694
 20
11.3971937336
 30
0.0
 10
15.0888964241
 20
11.3904950464
 30
0.0
 10
15.1069401928
 20
11.3842379944
 30
0.0
 10
15.1251573273
 20
11.3784348683
 30
0.0
 10
15.1435120397
 20
11.3730970697
 30
0.0
 10
15.1619682733
 20
11.3682350939
 30
0.0
 10
15.1804897689
 20
11.3638584918
 30
0.0
 10
15.1990401405
 20
11.3599758518
 30
0.0
 10
15.2175829479
 20
11.3565948017
 30
0.0
 10
15.2360817659
 20
11.3537219849
 30
0.0
 10
15.2545002806
 20
11.3513630478
 30
0.0
 10
15.272802244
 20
11.3495226495
 30
0.0
 10
15.2909519247
 20
11.3482043287
 30
0.0
 10
15.3089132922
 20
11.3474107897
 30
0.0
 10
15.3208232007
 20
11.3472313194
 30
0.0
 10
15.3267378366
 20
11.3472313194
 30
0.0
  0
SPLINE
  5
2DF
100
AcDbEntity
  8
LAYER_FEATURE
100
AcDbSpline
 62
7
  6
CONTINUOUS
 70
0
 71
3
 72
85
 73
81
 74
0
 42
0.0000001
 43
0.0000001
 44
0.0000000001
 40
0.0
 40
0.0
 40
0.0
 40
0.0
 40
0.0149065791
 40
0.0300587657
 40
0.0454566615
 40
0.0611004538
 40
0.0931026229
 40
0.1094567498
 40
0.1260320864
 40
0.1428178425
 40
0.1598016303
 40
0.1769696231
 40
0.1943066919
 40
0.2117965295
 40
0.229421801
 40
0.2471642842
 40
0.265004996
 40
0.2829243191
 40
0.3009021463
 40
0.3189180065
 40
0.3369511886
 40
0.3549808745
 40
0.3729862717
 40
0.390946735
 40
0.408841896
 40
0.4266518008
 40
0.4443570352
 40
0.4619388492
 40
0.4793793008
 40
0.4966613938
 40
0.5137692021
 40
0.5306880059
 40
0.5474044496
 40
0.5639066749
 40
0.5801844511
 40
0.5962293222
 40
0.6120347671
 40
0.6275963203
 40
0.6429116971
 40
0.6579809329
 40
0.6728065068
 40
0.6873934199
 40
0.7017492675
 40
0.7158843047
 40
0.7228737189
 40
0.7298129919
 40
0.7435478075
 40
0.7571083813
 40
0.763830505
 40
0.7705169527
 40
0.7771706393
 40
0.7837945876
 40
0.7903919466
 40
0.7969659636
 40
0.8035199716
 40
0.8100573926
 40
0.816581707
 40
0.8230964502
 40
0.8296051984
 40
0.8361115482
 40
0.8426191101
 40
0.8491314857
 40
0.8556522605
 40
0.8621849843
 40
0.8687331566
 40
0.8753002225
 40
0.881889542
 40
0.8885043938
 40
0.9018215524
 40
0.9085316338
 40
0.9152792693
 40
0.9220671326
 40
0.9288977743
 40
0.9357735884
 40
0.9426968263
 40
0.9566921704
 40
0.9708998037
 40
0.9780880488
 40
0.9853340574
 40
1.0
 40
1.0
 40
1.0
 40
1.0
 10
14.6719458529
 20
12.8645837669
 30
0.0
 10
14.6728274458
 20
12.8674366026
 30
0.0
 10
14.674758309
 20
12.8731430913
 30
0.0
 10
14.6781137357
 20
12.8816115798
 30
0.0
 10
14.6819441491
 20
12.890038915
 30
0.0
 10
14.6877144994
 20
12.901276004
 30
0.0
 10
14.6943643295
 20
12.9122606614
 30
0.0
 10
14.7018096801
 20
12.9229286947
 30
0.0
 10
14.7078524721
 20
12.9308482575
 30
0.0
 10
14.7142979764
 20
12.9386077754
 30
0.0
 10
14.7211308903
 20
12.9461889988
 30
0.0
 10
14.7283347085
 20
12.953573629
 30
0.0
 10
14.7358921317
 20
12.960743945
 30
0.0
 10
14.7437849653
 20
12.9676827263
 30
0.0
 10
14.7519942147
 20
12.9743733179
 30
0.0
 10
14.7605001391
 20
12.980799641
 30
0.0
 10
14.7692822942
 20
12.9869462352
 30
0.0
 10
14.7783195457
 20
12.9927983444
 30
0.0
 10
14.7875901555
 20
12.9983419091
 30
0.0
 10
14.7970718352
 20
13.0035635934
 30
0.0
 10
14.8067417898
 20
13.0084508284
 30
0.0
 10
14.8165767542
 20
13.0129918827
 30
0.0
 10
14.8265530781
 20
13.0171758387
 30
0.0
 10
14.8366467793
 20
13.0209926164
 30
0.0
 10
14.8468335886
 20
13.0244330282
 30
0.0
 10
14.8570890069
 20
13.027488815
 30
0.0
 10
14.8673883796
 20
13.0301526206
 30
0.0
 10
14.877706952
 20
13.0324180064
 30
0.0
 10
14.8880199175
 20
13.0342795186
 30
0.0
 10
14.8983024859
 20
13.0357326806
 30
0.0
 10
14.9085299452
 20
13.0367739727
 30
0.0
 10
14.9186777173
 20
13.0374008402
 30
0.0
 10
14.9287214142
 20
13.0376117626
 30
0.0
 10
14.9386369026
 20
13.0374062046
 30
0.0
 10
14.9484003553
 20
13.0367846037
 30
0.0
 10
14.9579883061
 20
13.0357483778
 30
0.0
 10
14.9673777134
 20
13.0342999783
 30
0.0
 10
14.9765460083
 20
13.0324428165
 30
0.0
 10
14.9854711365
 20
13.030181253
 30
0.0
 10
14.9941316209
 20
13.0275206154
 30
0.0
 10
15.0025066026
 20
13.0244672261
 30
0.0
 10
15.0105759409
 20
13.0210282799
 30
0.0
 10
15.0183199859
 20
13.017212014
 30
0.0
 10
15.0245101875
 20
13.0137115496
 30
0.0
 10
15.0292774737
 20
13.0107312922
 30
0.0
 10
15.033887467
 20
13.0076552972
 30
0.0
 10
15.0394183446
 20
13.0035936274
 30
0.0
 10
15.0446541794
 20
12.9992252217
 30
0.0
 10
15.0486331473
 20
12.9955700837
 30
0.0
 10
15.0515045423
 20
12.9927574833
 30
0.0
 10
15.0542697989
 20
12.9898676584
 30
0.0
 10
15.0569272293
 20
12.9869022723
 30
0.0
 10
15.0594752382
 20
12.9838631427
 30
0.0
 10
15.0619123118
 20
12.9807521182
 30
0.0
 10
15.0642369151
 20
12.97757103
 30
0.0
 10
15.0664476966
 20
12.9743218403
 30
0.0
 10
15.0685433068
 20
12.9710064986
 30
0.0
 10
15.0705224375
 20
12.9676269843
 30
0.0
 10
15.0723839579
 20
12.9641853774
 30
0.0
 10
15.0741266933
 20
12.9606837282
 30
0.0
 10
15.0757495907
 20
12.9571241562
 30
0.0
 10
15.0772517208
 20
12.9535088334
 30
0.0
 10
15.0786321054
 20
12.9498399148
 30
0.0
 10
15.0798899575
 20
12.9461196386
 30
0.0
 10
15.0810245331
 20
12.9423502492
 30
0.0
 10
15.0820350825
 20
12.9385340261
 30
0.0
 10
15.0829210791
 20
12.9346732229
 30
0.0
 10
15.083937762
 20
12.9294581618
 30
0.0
 10
15.0847002276
 20
12.9241716637
 30
0.0
 10
15.0852096168
 20
12.918831948
 30
0.0
 10
15.0854662021
 20
12.91478394
 30
0.0
 10
15.0855961759
 20
12.9107058032
 30
0.0
 10
15.0855994078
 20
12.9065999247
 30
0.0
 10
15.0854759523
 20
12.9024687588
 30
0.0
 10
15.0851413521
 20
12.8969105947
 30
0.0
 10
15.0844031468
 20
12.8899088736
 30
0.0
 10
15.0832520985
 20
12.8829096212
 30
0.0
 10
15.0820842594
 20
12.8772917887
 30
0.0
 10
15.0807403779
 20
12.8716191773
 30
0.0
 10
15.0795537492
 20
12.8673905493
 30
0.0
 10
15.0786863879
 20
12.8645837669
 30
0.0
  0
SPLINE
  5
2E0
100
AcDbEntity
  8
LAYER_FEATURE
100
AcDbSpline
 62
7
  6
CONTINUOUS
 70
0
 71
3
 72
33
 73
29
 74
0
 42
0.0000001
 43
0.0000001
 44
0.0000000001
 40
0.0
 40
0.0
 40
0.0
 40
0.0
 40
0.0708218767
 40
0.1405198812
 40
0.2090468978
 40
0.2763706056
 40
0.3095778471
 40
0.3424784283
 40
0.3750723583
 40
0.4073606483
 40
0.4710223422
 40
0.5334997717
 40
0.5643123652
 40
0.5948478909
 40
0.6251150144
 40
0.6551234213
 40
0.6848839832
 40
0.7144085794
 40
0.7437102143
 40
0.7728028665
 40
0.8017015417
 40
0.8304221541
 40
0.8589815136
 40
0.887397235
 40
0.9156876676
 40
0.9438718208
 40
0.9719692532
 40
1.0
 40
1.0
 40
1.0
 40
1.0
 10
14.9589647367
 20
13.0464691237
 30
0.0
 10
14.9637468147
 20
13.0464691237
 30
0.0
 10
14.9732368318
 20
13.0462414516
 30
0.0
 10
14.9873195619
 20
13.0451995888
 30
0.0
 10
15.0010959996
 20
13.0434632404
 30
0.0
 10
15.0123354517
 20
13.0414327204
 30
0.0
 10
15.0211280944
 20
13.0394626864
 30
0.0
 10
15.0275887057
 20
13.0378226618
 30
0.0
 10
15.0339399291
 20
13.0360148015
 30
0.0
 10
15.0422158227
 20
13.0333950269
 30
0.0
 10
15.0522672357
 20
13.0297136864
 30
0.0
 10
15.0619808668
 20
13.0254569945
 30
0.0
 10
15.0694685641
 20
13.0217338091
 30
0.0
 10
15.0749155855
 20
13.0187991496
 30
0.0
 10
15.080214887
 20
13.0157120146
 30
0.0
 10
15.0853621908
 20
13.0124747793
 30
0.0
 10
15.0903533548
 20
13.009090137
 30
0.0
 10
15.0951842922
 20
13.005560744
 30
0.0
 10
15.0998511219
 20
13.0018895043
 30
0.0
 10
15.104350024
 20
12.9980793351
 30
0.0
 10
15.1086773682
 20
12.9941333427
 30
0.0
 10
15.1128296269
 20
12.9900546985
 30
0.0
 10
15.1168034248
 20
12.985846702
 30
0.0
 10
15.120595546
 20
12.9815127662
 30
0.0
 10
15.1242028736
 20
12.9770563829
 30
0.0
 10
15.1276225329
 20
12.9724811691
 30
0.0
 10
15.1308516231
 20
12.9677908883
 30
0.0
 10
15.1328776686
 20
12.9645866174
 30
0.0
 10
15.1338575343
 20
12.962967293
 30
0.0
  0
SPLINE
  5
2E1
100
AcDbEntity
  8
LAYER_FEATURE
100
AcDbSpline
 62
7
  6
CONTINUOUS
 70
0
 71
3
 72
38
 73
34
 74
0
 42
0.0000001
 43
0.0000001
 44
0.0000000001
 40
0.0
 40
0.0
 40
0.0
 40
0.0
 40
0.0272316267
 40
0.0549111961
 40
0.0830401981
 40
0.1116182794
 40
0.1406395159
 40
0.1700945634
 40
0.1999702723
 40
0.2302500814
 40
0.2609142786
 40
0.2919402459
 40
0.3233027248
 40
0.3549740657
 40
0.3869244834
 40
0.4191223151
 40
0.4515342676
 40
0.4841256604
 40
0.5168606652
 40
0.549702546
 40
0.5826139014
 40
0.6155569005
 40
0.6484935167
 40
0.6813857603
 40
0.7141959157
 40
0.7468867808
 40
0.7794218991
 40
0.8117658054
 40
0.8438842486
 40
0.8757444347
 40
0.9073154278
 40
0.9385676902
 40
1.0
 40
1.0
 40
1.0
 40
1.0
 10
14.6379415971
 20
12.8302708967
 30
0.0
 10
14.6390436004
 20
12.8338369808
 30
0.0
 10
14.6414571503
 20
12.8409700695
 30
0.0
 10
14.6456514892
 20
12.8515557242
 30
0.0
 10
14.6504393751
 20
12.8620896632
 30
0.0
 10
14.6558089154
 20
12.8725461517
 30
0.0
 10
14.6617472606
 20
12.8829002809
 30
0.0
 10
14.6682400145
 20
12.8931271599
 30
0.0
 10
14.6752715269
 20
12.9032022719
 30
0.0
 10
14.6828248393
 20
12.9131014452
 30
0.0
 10
14.6908817564
 20
12.9228009273
 30
0.0
 10
14.699422883
 20
12.9322774381
 30
0.0
 10
14.7084276679
 20
12.941508224
 30
0.0
 10
14.7178744458
 20
12.9504711181
 30
0.0
 10
14.727740484
 20
12.9591445999
 30
0.0
 10
14.7380020484
 20
12.9675078363
 30
0.0
 10
14.7486344582
 20
12.9755407342
 30
0.0
 10
14.7596121439
 20
12.9832239883
 30
0.0
 10
14.7709087074
 20
12.990539127
 30
0.0
 10
14.7824969763
 20
12.9974685728
 30
0.0
 10
14.7943490798
 20
13.0039956707
 30
0.0
 10
14.806436516
 20
13.010104728
 30
0.0
 10
14.8187302187
 20
13.0157810531
 30
0.0
 10
14.8312006284
 20
13.0210109872
 30
0.0
 10
14.8438177574
 20
13.0257819526
 30
0.0
 10
14.8565512652
 20
13.0300824766
 30
0.0
 10
14.8693705399
 20
13.0339022123
 30
0.0
 10
14.8822447511
 20
13.0372319615
 30
0.0
 10
14.8951429896
 20
13.0400636987
 30
0.0
 10
14.9080341092
 20
13.0423905954
 30
0.0
 10
14.9208876446
 20
13.0442070463
 30
0.0
 10
14.9378336822
 20
13.0459324544
 30
0.0
 10
14.9505445808
 20
13.0464691237
 30
0.0
 10
14.9589647367
 20
13.0464691237
 30
0.0
  0
SPLINE
  5
2E2
100
AcDbEntity
  8
LAYER_FEATURE
100
AcDbSpline
 62
7
  6
CONTINUOUS
 70
0
 71
3
 72
85
 73
81
 74
0
 42
0.0000001
 43
0.0000001
 44
0.0000000001
 40
0.0
 40
0.0
 40
0.0
 40
0.0
 40
0.0146659426
 40
0.0219119512
 40
0.0291001963
 40
0.0433078296
 40
0.0573031737
 40
0.0642264116
 40
0.0711022257
 40
0.0779328674
 40
0.0847207307
 40
0.0914683662
 40
0.0981784476
 40
0.1114956062
 40
0.118110458
 40
0.1246997775
 40
0.1312668434
 40
0.1378150157
 40
0.1443477395
 40
0.1508685143
 40
0.1573808899
 40
0.1638884518
 40
0.1703948016
 40
0.1769035498
 40
0.183418293
 40
0.1899426074
 40
0.1964800284
 40
0.2030340364
 40
0.2096080534
 40
0.2162054124
 40
0.2228293607
 40
0.2294830473
 40
0.236169495
 40
0.2428916187
 40
0.2564521925
 40
0.2701870081
 40
0.2771262811
 40
0.2841156953
 40
0.2982507325
 40
0.3126065801
 40
0.3271934932
 40
0.3420190671
 40
0.3570883029
 40
0.3724036797
 40
0.3879652329
 40
0.4037706778
 40
0.4198155489
 40
0.4360933251
 40
0.4525955504
 40
0.4693119941
 40
0.4862307979
 40
0.5033386062
 40
0.5206206992
 40
0.5380611508
 40
0.5556429648
 40
0.5733481992
 40
0.591158104
 40
0.609053265
 40
0.6270137283
 40
0.6450191255
 40
0.6630488114
 40
0.6810819935
 40
0.6990978537
 40
0.7170756809
 40
0.734995004
 40
0.7528357158
 40
0.770578199
 40
0.7882034705
 40
0.8056933081
 40
0.8230303769
 40
0.8401983697
 40
0.8571821575
 40
0.8739679136
 40
0.8905432502
 40
0.9068973771
 40
0.9388995462
 40
0.9545433385
 40
0.9699412343
 40
0.9850934209
 40
1.0
 40
1.0
 40
1.0
 40
1.0
 10
14.6719458529
 20
12.8645837669
 30
0.0
 10
14.6710784915
 20
12.8617769845
 30
0.0
 10
14.6698918629
 20
12.8575483565
 30
0.0
 10
14.6685479814
 20
12.8518757451
 30
0.0
 10
14.6673801423
 20
12.8462579127
 30
0.0
 10
14.6662290939
 20
12.8392586602
 30
0.0
 10
14.6654908886
 20
12.8322569391
 30
0.0
 10
14.6651562885
 20
12.826698775
 30
0.0
 10
14.665032833
 20
12.8225676091
 30
0.0
 10
14.6650360648
 20
12.8184617306
 30
0.0
 10
14.6651660387
 20
12.8143835938
 30
0.0
 10
14.665422624
 20
12.8103355858
 30
0.0
 10
14.6659320131
 20
12.8049958701
 30
0.0
 10
14.6666944788
 20
12.799709372
 30
0.0
 10
14.6677111617
 20
12.7944943109
 30
0.0
 10
14.6685971583
 20
12.7906335077
 30
0.0
 10
14.6696077077
 20
12.7868172846
 30
0.0
 10
14.6707422832
 20
12.7830478952
 30
0.0
 10
14.6720001354
 20
12.779327619
 30
0.0
 10
14.67338052
 20
12.7756587004
 30
0.0
 10
14.67488265
 20
12.7720433776
 30
0.0
 10
14.6765055475
 20
12.7684838056
 30
0.0
 10
14.6782482828
 20
12.7649821564
 30
0.0
 10
14.6801098033
 20
12.7615405495
 30
0.0
 10
14.6820889339
 20
12.7581610352
 30
0.0
 10
14.6841845442
 20
12.7548456935
 30
0.0
 10
14.6863953257
 20
12.7515965038
 30
0.0
 10
14.688719929
 20
12.7484154157
 30
0.0
 10
14.6911570025
 20
12.7453043911
 30
0.0
 10
14.6937050115
 20
12.7422652615
 30
0.0
 10
14.6963624419
 20
12.7392998754
 30
0.0
 10
14.6991276985
 20
12.7364100505
 30
0.0
 10
14.7019990935
 20
12.7335974501
 30
0.0
 10
14.7059780614
 20
12.7299423121
 30
0.0
 10
14.7112138961
 20
12.7255739064
 30
0.0
 10
14.7167447737
 20
12.7215122366
 30
0.0
 10
14.7213547671
 20
12.7184362416
 30
0.0
 10
14.7261220532
 20
12.7154559842
 30
0.0
 10
14.7323122548
 20
12.7119555198
 30
0.0
 10
14.7400562998
 20
12.7081392539
 30
0.0
 10
14.7481256382
 20
12.7047003077
 30
0.0
 10
14.7565006199
 20
12.7016469184
 30
0.0
 10
14.7651611043
 20
12.6989862808
 30
0.0
 10
14.7740862325
 20
12.6967247173
 30
0.0
 10
14.7832545274
 20
12.6948675555
 30
0.0
 10
14.7926439347
 20
12.693419156
 30
0.0
 10
14.8022318855
 20
12.6923829301
 30
0.0
 10
14.8119953382
 20
12.6917613292
 30
0.0
 10
14.8219108266
 20
12.6915557713
 30
0.0
 10
14.8319545235
 20
12.6917666936
 30
0.0
 10
14.8421022956
 20
12.6923935611
 30
0.0
 10
14.8523297548
 20
12.6934348533
 30
0.0
 10
14.8626123232
 20
12.6948880152
 30
0.0
 10
14.8729252887
 20
12.6967495275
 30
0.0
 10
14.8832438612
 20
12.6990149132
 30
0.0
 10
14.8935432339
 20
12.7016787188
 30
0.0
 10
14.9037986522
 20
12.7047345056
 30
0.0
 10
14.9139854615
 20
12.7081749174
 30
0.0
 10
14.9240791627
 20
12.7119916951
 30
0.0
 10
14.9340554866
 20
12.7161756512
 30
0.0
 10
14.943890451
 20
12.7207167054
 30
0.0
 10
14.9535604056
 20
12.7256039404
 30
0.0
 10
14.9630420853
 20
12.7308256247
 30
0.0
 10
14.972312695
 20
12.7363691894
 30
0.0
 10
14.9813499466
 20
12.7422212986
 30
0.0
 10
14.9901321017
 20
12.7483678928
 30
0.0
 10
14.9986380261
 20
12.7547942159
 30
0.0
 10
15.0068472755
 20
12.7614848075
 30
0.0
 10
15.014740109
 20
12.7684235888
 30
0.0
 10
15.0222975323
 20
12.7755939048
 30
0.0
 10
15.0295013504
 20
12.782978535
 30
0.0
 10
15.0363342644
 20
12.7905597584
 30
0.0
 10
15.0427797687
 20
12.7983192763
 30
0.0
 10
15.0488225607
 20
12.8062388392
 30
0.0
 10
15.0562679112
 20
12.8169068724
 30
0.0
 10
15.0629177414
 20
12.8278915299
 30
0.0
 10
15.0686880916
 20
12.8391286188
 30
0.0
 10
15.072518505
 20
12.847555954
 30
0.0
 10
15.0758739317
 20
12.8560244425
 30
0.0
 10
15.077804795
 20
12.8617309312
 30
0.0
 10
15.0786863879
 20
12.8645837669
 30
0.0
  0
SPLINE
  5
2E3
100
AcDbEntity
  8
LAYER_FEATURE
100
AcDbSpline
 62
7
  6
CONTINUOUS
 70
0
 71
3
 72
15
 73
11
 74
0
 42
0.0000001
 43
0.0000001
 44
0.0000000001
 40
0.0
 40
0.0
 40
0.0
 40
0.0
 40
0.1383325147
 40
0.272599368
 40
0.402900151
 40
0.5293552084
 40
0.6521097482
 40
0.7713328867
 40
0.8872216377
 40
1.0
 40
1.0
 40
1.0
 40
1.0
 10
16.6109812023
 20
11.7317791923
 30
0.0
 10
16.6100999796
 20
11.7307234395
 30
0.0
 10
16.6083270227
 20
11.7286729741
 30
0.0
 10
16.6055948536
 20
11.7257428614
 30
0.0
 10
16.6028320291
 20
11.7230067908
 30
0.0
 10
16.6000405695
 20
11.7204669468
 30
0.0
 10
16.5972225881
 20
11.7181252137
 30
0.0
 10
16.5943800638
 20
11.7159834495
 30
0.0
 10
16.5915152648
 20
11.7140433474
 30
0.0
 10
16.589566556
 20
11.7128701877
 30
0.0
 10
16.5885899429
 20
11.7123195331
 30
0.0
  0
SPLINE
  5
2E4
100
AcDbEntity
  8
LAYER_FEATURE
100
AcDbSpline
 62
7
  6
CONTINUOUS
 70
0
 71
3
 72
82
 73
78
 74
0
 42
0.0000001
 43
0.0000001
 44
0.0000000001
 40
0.0
 40
0.0
 40
0.0
 40
0.0
 40
0.0171785589
 40
0.0345301467
 40
0.0520438915
 40
0.0697094377
 40
0.0875156
 40
0.1054510217
 40
0.123504035
 40
0.1416627074
 40
0.1599148842
 40
0.1782482071
 40
0.1966501446
 40
0.215108021
 40
0.2336090441
 40
0.2521403315
 40
0.2706889378
 40
0.2892418815
 40
0.3077861729
 40
0.3263088398
 40
0.3447969544
 40
0.363237661
 40
0.3816182032
 40
0.3999259508
 40
0.4181484268
 40
0.4362733359
 40
0.4542885942
 40
0.4721823571
 40
0.4899430477
 40
0.5075593868
 40
0.5250204257
 40
0.5423155779
 40
0.5594346503
 40
0.5763678754
 40
0.5931059477
 40
0.6096400625
 40
0.625961951
 40
0.642063918
 40
0.6579388825
 40
0.6735804236
 40
0.6889828253
 40
0.7041411198
 40
0.7190511359
 40
0.7337095505
 40
0.7481139455
 40
0.7622628593
 40
0.7761558419
 40
0.7897935121
 40
0.8031776196
 40
0.8163111048
 40
0.8291981522
 40
0.841844246
 40
0.8542562208
 40
0.8603772763
 40
0.8664430102
 40
0.8784128847
 40
0.8901776674
 40
0.8959874285
 40
0.901750765
 40
0.9074694744
 40
0.9131454517
 40
0.9187806753
 40
0.9243772093
 40
0.9299372064
 40
0.9354628938
 40
0.940956582
 40
0.9464206535
 40
0.951857559
 40
0.9572698192
 40
0.9626600104
 40
0.9680307668
 40
0.973384771
 40
0.9787247471
 40
0.9840534574
 40
0.9893736919
 40
0.9946882635
 40
1.0
 40
1.0
 40
1.0
 40
1.0
 10
15.2855024233
 20
14.1887296781
 30
0.0
 10
15.2996277701
 20
14.1887296781
 30
0.0
 10
15.3280216459
 20
14.1884188619
 30
0.0
 10
15.3707963012
 20
14.1870378565
 30
0.0
 10
15.413932694
 20
14.1847409789
 30
0.0
 10
15.4573854153
 20
14.1815307332
 30
0.0
 10
15.5011095241
 20
14.1774103847
 30
0.0
 10
15.5450594159
 20
14.1723842496
 30
0.0
 10
15.589189372
 20
14.166457566
 30
0.0
 10
15.6334534593
 20
14.1596365027
 30
0.0
 10
15.6778056038
 20
14.1519281591
 30
0.0
 10
15.7221996387
 20
14.1433405473
 30
0.0
 10
15.7665893537
 20
14.1338826153
 30
0.0
 10
15.8109285422
 20
14.1235642137
 30
0.0
 10
15.855171049
 20
14.1123960832
 30
0.0
 10
15.899270817
 20
14.1003898421
 30
0.0
 10
15.9431819372
 20
14.0875579845
 30
0.0
 10
15.986858701
 20
14.0739138788
 30
0.0
 10
16.0302556418
 20
14.0594717298
 30
0.0
 10
16.0733275833
 20
14.0442465699
 30
0.0
 10
16.1160296841
 20
14.0282542381
 30
0.0
 10
16.1583174941
 20
14.0115113876
 30
0.0
 10
16.2001469961
 20
13.9940354534
 30
0.0
 10
16.2414746488
 20
13.9758446267
 30
0.0
 10
16.2822574302
 20
13.9569578371
 30
0.0
 10
16.3224528861
 20
13.9373947368
 30
0.0
 10
16.3620191838
 20
13.9171756973
 30
0.0
 10
16.4009151438
 20
13.8963217638
 30
0.0
 10
16.4391002826
 20
13.8748546377
 30
0.0
 10
16.4765348528
 20
13.8527966492
 30
0.0
 10
16.5131798974
 20
13.830170753
 30
0.0
 10
16.5489972873
 20
13.8070004964
 30
0.0
 10
16.5839497517
 20
13.7833099834
 30
0.0
 10
16.6180009168
 20
13.7591238529
 30
0.0
 10
16.6511153453
 20
13.7344672512
 30
0.0
 10
16.68325859
 20
13.7093658262
 30
0.0
 10
16.7143972125
 20
13.6838456764
 30
0.0
 10
16.7444988158
 20
13.6579333283
 30
0.0
 10
16.7735320743
 20
13.6316557026
 30
0.0
 10
16.8014667811
 20
13.6050401004
 30
0.0
 10
16.8282738812
 20
13.5781141727
 30
0.0
 10
16.8539254828
 20
13.5509058775
 30
0.0
 10
16.8783948869
 20
13.5234434552
 30
0.0
 10
16.9016566114
 20
13.4957553945
 30
0.0
 10
16.9236864431
 20
13.4678704223
 30
0.0
 10
16.9444614377
 20
13.4398174547
 30
0.0
 10
16.9639599371
 20
13.4116255687
 30
0.0
 10
16.982161584
 20
13.3833239738
 30
0.0
 10
16.9990473592
 20
13.3549419785
 30
0.0
 10
17.0145995939
 20
13.3265090099
 30
0.0
 10
17.0288020143
 20
13.2980544148
 30
0.0
 10
17.0416395478
 20
13.2696080112
 30
0.0
 10
17.0512329599
 20
13.2458244266
 30
0.0
 10
17.0582017124
 20
13.2268346441
 30
0.0
 10
17.0646442803
 20
13.2080438887
 30
0.0
 10
17.0718351241
 20
13.184610062
 30
0.0
 10
17.0779077572
 20
13.1610783909
 30
0.0
 10
17.0820463281
 20
13.1423384748
 30
0.0
 10
17.0847822189
 20
13.1283842715
 30
0.0
 10
17.0871620292
 20
13.1144765748
 30
0.0
 10
17.0891852101
 20
13.1006189425
 30
0.0
 10
17.0908512027
 20
13.0868150033
 30
0.0
 10
17.0921595229
 20
13.0730683473
 30
0.0
 10
17.0931098923
 20
13.0593825697
 30
0.0
 10
17.0937019741
 20
13.0457612338
 30
0.0
 10
17.0939356481
 20
13.0322079
 30
0.0
 10
17.0938108519
 20
13.0187261056
 30
0.0
 10
17.0933275466
 20
13.0053193738
 30
0.0
 10
17.0924859328
 20
12.9919912062
 30
0.0
 10
17.0912861527
 20
12.9787450891
 30
0.0
 10
17.0897285351
 20
12.9655844866
 30
0.0
 10
17.0878135138
 20
12.952512836
 30
0.0
 10
17.0855415056
 20
12.9395335665
 30
0.0
 10
17.0829131865
 20
12.9266500704
 30
0.0
 10
17.0799291768
 20
12.913865693
 30
0.0
 10
17.0765902943
 20
12.9011839136
 30
0.0
 10
17.0741280866
 20
12.8927989249
 30
0.0
 10
17.0728385472
 20
12.8886259703
 30
0.0
  0
SPLINE
  5
2E5
100
AcDbEntity
  8
LAYER_FEATURE
100
AcDbSpline
 62
7
  6
CONTINUOUS
 70
0
 71
3
 72
71
 73
67
 74
0
 42
0.0000001
 43
0.0000001
 44
0.0000000001
 40
0.0
 40
0.0
 40
0.0
 40
0.0
 40
0.0207727708
 40
0.0413860845
 40
0.0618331033
 40
0.0821088216
 40
0.1022085737
 40
0.1221275224
 40
0.1418610398
 40
0.1614048703
 40
0.1807550008
 40
0.1999076761
 40
0.2188594217
 40
0.2376070735
 40
0.2561477775
 40
0.2744790026
 40
0.2925985646
 40
0.3105046259
 40
0.3281957325
 40
0.3456708004
 40
0.362929167
 40
0.3799705661
 40
0.396795191
 40
0.4134036595
 40
0.4297970863
 40
0.4459770411
 40
0.4777027164
 40
0.4932568874
 40
0.5086090984
 40
0.5237636071
 40
0.5387252223
 40
0.5534993564
 40
0.5680919977
 40
0.5825097459
 40
0.5967597915
 40
0.6108499316
 40
0.6247885547
 40
0.6385846362
 40
0.6522477251
 40
0.6657879186
 40
0.6792158476
 40
0.6925426328
 40
0.7057798635
 40
0.7189395386
 40
0.732034036
 40
0.7450760433
 40
0.7580785145
 40
0.7710545965
 40
0.7840175732
 40
0.7969807935
 40
0.8099576049
 40
0.8229612878
 40
0.8360049828
 40
0.8491016356
 40
0.8622639233
 40
0.8755042109
 40
0.8888344833
 40
0.9022663132
 40
0.9158108043
 40
0.9294785681
 40
0.9432796829
 40
0.9572236763
 40
0.9713195035
 40
0.9784272286
 40
0.9855759971
 40
1.0
 40
1.0
 40
1.0
 40
1.0
 10
15.3245988765
 20
13.9967181363
 30
0.0
 10
15.3162320913
 20
13.9967181363
 30
0.0
 10
15.299562458
 20
13.9965924731
 30
0.0
 10
15.2746631129
 20
13.9960222735
 30
0.0
 10
15.2499756697
 20
13.9950712227
 30
0.0
 10
15.2255129556
 20
13.9937398859
 30
0.0
 10
15.2012870492
 20
13.992028885
 30
0.0
 10
15.1773100496
 20
13.9899391303
 30
0.0
 10
15.1535940565
 20
13.9874715994
 30
0.0
 10
15.1301509966
 20
13.9846275894
 30
0.0
 10
15.1069926335
 20
13.9814084822
 30
0.0
 10
15.084130594
 20
13.977815924
 30
0.0
 10
15.0615763679
 20
13.9738516885
 30
0.0
 10
15.0393412821
 20
13.9695177774
 30
0.0
 10
15.0174365038
 20
13.9648163573
 30
0.0
 10
14.9958730354
 20
13.9597497751
 30
0.0
 10
14.9746617039
 20
13.954320586
 30
0.0
 10
14.9538131677
 20
13.948531478
 30
0.0
 10
14.9333378888
 20
13.9423853889
 30
0.0
 10
14.9132461626
 20
13.9358853429
 30
0.0
 10
14.8935480628
 20
13.9290346517
 30
0.0
 10
14.874253508
 20
13.921836674
 30
0.0
 10
14.8553721468
 20
13.9142950771
 30
0.0
 10
14.8369135613
 20
13.906413581
 30
0.0
 10
14.8188867397
 20
13.8981960858
 30
0.0
 10
14.7955934657
 20
13.8868720005
 30
0.0
 10
14.7730338411
 20
13.8748263119
 30
0.0
 10
14.7512779634
 20
13.862051571
 30
0.0
 10
14.7355425264
 20
13.8522191798
 30
0.0
 10
14.7202901572
 20
13.8420780278
 30
0.0
 10
14.7055284086
 20
13.8316330048
 30
0.0
 10
14.6912647229
 20
13.8208894191
 30
0.0
 10
14.6775063203
 20
13.8098525732
 30
0.0
 10
14.6642601151
 20
13.7985280298
 30
0.0
 10
14.6515328264
 20
13.7869214133
 30
0.0
 10
14.6393308718
 20
13.7750385533
 30
0.0
 10
14.6276604406
 20
13.7628853837
 30
0.0
 10
14.6165274483
 20
13.7504679941
 30
0.0
 10
14.605937536
 20
13.7377926188
 30
0.0
 10
14.5958961074
 20
13.7248656017
 30
0.0
 10
14.5864082381
 20
13.7116934657
 30
0.0
 10
14.5774788083
 20
13.6982828037
 30
0.0
 10
14.5691123118
 20
13.6846404127
 30
0.0
 10
14.5613130907
 20
13.6707731295
 30
0.0
 10
14.554085043
 20
13.6566880068
 30
0.0
 10
14.547431955
 20
13.642392118
 30
0.0
 10
14.5413571186
 20
13.6278927502
 30
0.0
 10
14.535863745
 20
13.6131972031
 30
0.0
 10
14.530954514
 20
13.5983129737
 30
0.0
 10
14.5266320419
 20
13.5832475738
 30
0.0
 10
14.5228983963
 20
13.5680086848
 30
0.0
 10
14.5197555802
 20
13.5526040124
 30
0.0
 10
14.5172050539
 20
13.5370413971
 30
0.0
 10
14.5152481929
 20
13.5213287167
 30
0.0
 10
14.5138858585
 20
13.5054739489
 30
0.0
 10
14.5131187906
 20
13.4894851191
 30
0.0
 10
14.5129472606
 20
13.4733703236
 30
0.0
 10
14.5133713702
 20
13.4571377118
 30
0.0
 10
14.5143908111
 20
13.4407954811
 30
0.0
 10
14.5160050475
 20
13.4243518884
 30
0.0
 10
14.5182132043
 20
13.4078151963
 30
0.0
 10
14.5210140966
 20
13.3911938359
 30
0.0
 10
14.5238330397
 20
13.3773178798
 30
0.0
 10
14.5263800085
 20
13.3661854297
 30
0.0
 10
14.529138344
 20
13.354967366
 30
0.0
 10
14.5314160301
 20
13.3465802212
 30
0.0
 10
14.5330254825
 20
13.3409979546
 30
0.0
  0
SPLINE
  5
2E6
100
AcDbEntity
  8
LAYER_FEATURE
100
AcDbSpline
 62
7
  6
CONTINUOUS
 70
0
 71
3
 72
99
 73
95
 74
0
 42
0.0000001
 43
0.0000001
 44
0.0000000001
 40
0.0
 40
0.0
 40
0.0
 40
0.0
 40
0.017970976
 40
0.0361518644
 40
0.054527352
 40
0.0730819943
 40
0.0917994865
 40
0.1106631422
 40
0.1296557895
 40
0.1487598828
 40
0.1679575444
 40
0.1872306236
 40
0.2065607513
 40
0.2259293948
 40
0.2453179109
 40
0.2647076003
 40
0.2840797599
 40
0.3034157368
 40
0.322696981
 40
0.3419051002
 40
0.3610219134
 40
0.3800295061
 40
0.3989102858
 40
0.4176470388
 40
0.4362229877
 40
0.4546218514
 40
0.472827905
 40
0.4908260442
 40
0.5086018498
 40
0.5261416561
 40
0.5434326213
 40
0.5604628007
 40
0.5772212248
 40
0.5854956166
 40
0.5936984455
 40
0.6018286504
 40
0.6098852523
 40
0.6178673428
 40
0.6257741091
 40
0.6336048103
 40
0.6413588082
 40
0.6490355462
 40
0.6566345701
 40
0.6715975274
 40
0.6862466549
 40
0.7005820988
 40
0.7146058757
 40
0.7283219888
 40
0.7350669157
 40
0.7417374039
 40
0.7483345565
 40
0.754859634
 40
0.7613140328
 40
0.7676993073
 40
0.7740171592
 40
0.7802694435
 40
0.7864581742
 40
0.7925855125
 40
0.7986537851
 40
0.8046654622
 40
0.8106231767
 40
0.8165297046
 40
0.8223879736
 40
0.8282010531
 40
0.8339721483
 40
0.8397046003
 40
0.845401868
 40
0.8510675322
 40
0.8567052738
 40
0.8623188735
 40
0.867912193
 40
0.8734891665
 40
0.8790537865
 40
0.8846100893
 40
0.8901621419
 40
0.8957140263
 40
0.9012698253
 40
0.9068336078
 40
0.9124094131
 40
0.9180012375
 40
0.9236130212
 40
0.9292486316
 40
0.9349118571
 40
0.9406063868
 40
0.9463358103
 40
0.9521035971
 40
0.9579130977
 40
0.9637675295
 40
0.9696699724
 40
0.9756233671
 40
0.9816305009
 40
0.9876940197
 40
0.9938164065
 40
1.0
 40
1.0
 40
1.0
 40
1.0
 10
15.3245988765
 20
13.9967181363
 30
0.0
 10
15.3388774938
 20
13.9967181363
 30
0.0
 10
15.3676027603
 20
13.996348738
 30
0.0
 10
15.410899994
 20
13.9947110405
 30
0.0
 10
15.4546073908
 20
13.9919886649
 30
0.0
 10
15.49866179
 20
13.9881855969
 30
0.0
 10
15.5430002563
 20
13.9833072382
 30
0.0
 10
15.5875591466
 20
13.9773606159
 30
0.0
 10
15.6322746027
 20
13.9703542432
 30
0.0
 10
15.6770825041
 20
13.9622981712
 30
0.0
 10
15.7219186038
 20
13.9532039481
 30
0.0
 10
15.7667186096
 20
13.9430846156
 30
0.0
 10
15.8114182796
 20
13.9319546865
 30
0.0
 10
15.8559535144
 20
13.9198301218
 30
0.0
 10
15.9002604496
 20
13.906728309
 30
0.0
 10
15.9442755475
 20
13.8926680364
 30
0.0
 10
15.9879356889
 20
13.8776694666
 30
0.0
 10
16.0311782636
 20
13.8617541071
 30
0.0
 10
16.0739412605
 20
13.8449447793
 30
0.0
 10
16.1161633579
 20
13.8272655867
 30
0.0
 10
16.1577840127
 20
13.8087418817
 30
0.0
 10
16.1987435464
 20
13.7894002255
 30
0.0
 10
16.238983231
 20
13.7692683501
 30
0.0
 10
16.2784453732
 20
13.7483751172
 30
0.0
 10
16.3170733977
 20
13.7267504771
 30
0.0
 10
16.3548119275
 20
13.7044254244
 30
0.0
 10
16.3916068648
 20
13.681431953
 30
0.0
 10
16.4274054661
 20
13.6578030092
 30
0.0
 10
16.4621564278
 20
13.6335724425
 30
0.0
 10
16.4958099334
 20
13.6087749713
 30
0.0
 10
16.5283178102
 20
13.5834460603
 30
0.0
 10
16.5596332829
 20
13.5576221276
 30
0.0
 10
16.5848038733
 20
13.5356283703
 30
0.0
 10
16.6042984514
 20
13.5178145309
 30
0.0
 10
16.6185324771
 20
13.5044098614
 30
0.0
 10
16.6324357522
 20
13.4909097113
 30
0.0
 10
16.6460033556
 20
13.4773189215
 30
0.0
 10
16.6592303652
 20
13.4636423221
 30
0.0
 10
16.6721120906
 20
13.4498848726
 30
0.0
 10
16.6846438604
 20
13.436051443
 30
0.0
 10
16.6968212087
 20
13.422147057
 30
0.0
 10
16.7086397937
 20
13.4081765991
 30
0.0
 10
16.7238347865
 20
13.3895648173
 30
0.0
 10
16.7419209385
 20
13.366167471
 30
0.0
 10
16.7622390467
 20
13.3377595147
 30
0.0
 10
16.7810296418
 20
13.3092070511
 30
0.0
 10
16.7982652696
 20
13.2805513867
 30
0.0
 10
16.8113845375
 20
13.2564861582
 30
0.0
 10
16.8210651589
 20
13.2372233276
 30
0.0
 10
16.8278820651
 20
13.2228563772
 30
0.0
 10
16.8342930162
 20
13.2084948496
 30
0.0
 10
16.8402958168
 20
13.1941438515
 30
0.0
 10
16.8458882254
 20
13.1798085124
 30
0.0
 10
16.8510682638
 20
13.1654939822
 30
0.0
 10
16.8558340483
 20
13.1512053863
 30
0.0
 10
16.8601838265
 20
13.1369478375
 30
0.0
 10
16.8641160767
 20
13.122726466
 30
0.0
 10
16.8676292846
 20
13.1085463459
 30
0.0
 10
16.870722267
 20
13.0944125921
 30
0.0
 10
16.873393793
 20
13.080330251
 30
0.0
 10
16.8756429671
 20
13.0663043989
 30
0.0
 10
16.8774688998
 20
13.052340061
 30
0.0
 10
16.878870937
 20
13.038442262
 30
0.0
 10
16.8798485668
 20
13.0246159993
 30
0.0
 10
16.8804013629
 20
13.0108662448
 30
0.0
 10
16.8805291896
 20
12.9971979528
 30
0.0
 10
16.8802318746
 20
12.983616045
 30
0.0
 10
16.8795096175
 20
12.9701254168
 30
0.0
 10
16.8783625597
 20
12.9567309368
 30
0.0
 10
16.8767911757
 20
12.9434374346
 30
0.0
 10
16.874795977
 20
12.9302497117
 30
0.0
 10
16.872377673
 20
12.9171725331
 30
0.0
 10
16.869537167
 20
12.9042106139
 30
0.0
 10
16.8662754034
 20
12.8913686552
 30
0.0
 10
16.8625936556
 20
12.8786512716
 30
0.0
 10
16.8584931424
 20
12.86606309
 30
0.0
 10
16.853975451
 20
12.8536086247
 30
0.0
 10
16.8490421335
 20
12.8412924029
 30
0.0
 10
16.8436950311
 20
12.8291188515
 30
0.0
 10
16.8379360675
 20
12.8170923675
 30
0.0
 10
16.8317673109
 20
12.805217301
 30
0.0
 10
16.8251910551
 20
12.7934978996
 30
0.0
 10
16.8182096064
 20
12.7819384313
 30
0.0
 10
16.8108255904
 20
12.770542997
 30
0.0
 10
16.8030415928
 20
12.7593157551
 30
0.0
 10
16.794860513
 20
12.7482606838
 30
0.0
 10
16.7862852599
 20
12.7373817916
 30
0.0
 10
16.777318962
 20
12.7266829625
 30
0.0
 10
16.7679648682
 20
12.7161680244
 30
0.0
 10
16.7582263238
 20
12.7058407761
 30
0.0
 10
16.7481069072
 20
12.6957048641
 30
0.0
 10
16.7376101759
 20
12.6857639655
 30
0.0
 10
16.7267400856
 20
12.6760216427
 30
0.0
 10
16.7192847273
 20
12.6696935189
 30
0.0
 10
16.7154976038
 20
12.6665636265
 30
0.0
  0
SPLINE
  5
2E7
100
AcDbEntity
  8
LAYER_FEATURE
100
AcDbSpline
 62
7
  6
CONTINUOUS
 70
0
 71
3
 72
14
 73
10
 74
0
 42
0.0000001
 43
0.0000001
 44
0.0000000001
 40
0.0
 40
0.0
 40
0.0
 40
0.0
 40
0.1221515391
 40
0.2445825124
 40
0.3675705393
 40
0.491392235
 40
0.6163173936
 40
0.7426009827
 40
1.0
 40
1.0
 40
1.0
 40
1.0
 10
16.8014319638
 20
13.0721841538
 30
0.0
 10
16.801512021
 20
13.0724432346
 30
0.0
 10
16.8016571299
 20
13.0729668225
 30
0.0
 10
16.8018287792
 20
13.0737649957
 30
0.0
 10
16.801954295
 20
13.0745754889
 30
0.0
 10
16.8020335598
 20
13.0753973389
 30
0.0
 10
16.802066491
 20
13.0762296973
 30
0.0
 10
16.802048435
 20
13.0773590353
 30
0.0
 10
16.8019650426
 20
13.0782088036
 30
0.0
 10
16.8018805472
 20
13.0787739297
 30
0.0
  0
SPLINE
  5
2E8
100
AcDbEntity
  8
LAYER_CUT_FEAT
100
AcDbSpline
 62
7
  6
CONTINUOUS
 70
0
 71
3
 72
15
 73
11
 74
0
 42
0.0000001
 43
0.0000001
 44
0.0000000001
 40
0.0
 40
0.0
 40
0.0
 40
0.0
 40
0.1269208428
 40
0.2531505001
 40
0.3787580573
 40
0.503814433
 40
0.6283922527
 40
0.7525654569
 40
0.8764092907
 40
1.0
 40
1.0
 40
1.0
 40
1.0
 10
15.9030142463
 20
11.3484314207
 30
0.0
 10
15.9045264532
 20
11.3506048725
 30
0.0
 10
15.9074806098
 20
11.3549834913
 30
0.0
 10
15.9117078991
 20
11.3616603468
 30
0.0
 10
15.9157172041
 20
11.3684252517
 30
0.0
 10
15.9195072032
 20
11.3752760594
 30
0.0
 10
15.9230767851
 20
11.3822106316
 30
0.0
 10
15.9264247919
 20
11.3892268698
 30
0.0
 10
15.9295501594
 20
11.3963225059
 30
0.0
 10
15.9314863519
 20
11.4011085104
 30
0.0
 10
15.9324165954
 20
11.4035131405
 30
0.0
  0
SPLINE
  5
2E9
100
AcDbEntity
  8
LAYER_CHAMFER_FEAT
100
AcDbSpline
 62
7
  6
CONTINUOUS
 70
0
 71
3
 72
70
 73
66
 74
0
 42
0.0000001
 43
0.0000001
 44
0.0000000001
 40
0.0
 40
0.0
 40
0.0
 40
0.0
 40
0.0180025698
 40
0.0357334339
 40
0.0531901249
 40
0.0703710534
 40
0.0872754393
 40
0.1039034614
 40
0.120256206
 40
0.1363357996
 40
0.1521453774
 40
0.1676891932
 40
0.1829726078
 40
0.1980021706
 40
0.2127856245
 40
0.2273319538
 40
0.2416513986
 40
0.2557554639
 40
0.2696569335
 40
0.2833698351
 40
0.2969094406
 40
0.3102921855
 40
0.3235356417
 40
0.3366583916
 40
0.3496799623
 40
0.3626206614
 40
0.3755014676
 40
0.3883438405
 40
0.4011695709
 40
0.4140005849
 40
0.426858764
 40
0.4397657666
 40
0.4527428341
 40
0.4658106511
 40
0.4789891537
 40
0.4922974431
 40
0.5057536107
 40
0.519374708
 40
0.5331765985
 40
0.5471739787
 40
0.5613802604
 40
0.575807631
 40
0.5904669674
 40
0.6053679196
 40
0.6359221237
 40
0.6515933423
 40
0.6675325143
 40
0.6837433429
 40
0.7002284754
 40
0.7169895307
 40
0.7340271506
 40
0.7513410513
 40
0.7689300494
 40
0.7867921366
 40
0.8049244839
 40
0.8233235342
 40
0.8419849669
 40
0.8609038188
 40
0.8800744902
 40
0.8994908174
 40
0.9191458354
 40
0.9390321365
 40
0.9591424543
 40
0.9794687904
 40
1.0
 40
1.0
 40
1.0
 40
1.0
 10
15.5410152541
 20
11.6888994874
 30
0.0
 10
15.5432666071
 20
11.6864357562
 30
0.0
 10
15.5476743372
 20
11.6814892873
 30
0.0
 10
15.5540417216
 20
11.6739584924
 30
0.0
 10
15.5601098542
 20
11.6663785598
 30
0.0
 10
15.5658736776
 20
11.6587559076
 30
0.0
 10
15.5713283334
 20
11.6510968049
 30
0.0
 10
15.5764693198
 20
11.6434076684
 30
0.0
 10
15.5812922836
 20
11.6356948435
 30
0.0
 10
15.5857932407
 20
11.6279647751
 30
0.0
 10
15.5899683715
 20
11.6202238521
 30
0.0
 10
15.5938142136
 20
11.6124785303
 30
0.0
 10
15.5973274958
 20
11.6047352226
 30
0.0
 10
15.6005052838
 20
11.5970003769
 30
0.0
 10
15.6033448667
 20
11.5892804114
 30
0.0
 10
15.6058438434
 20
11.5815817505
 30
0.0
 10
15.608000075
 20
11.573910799
 30
0.0
 10
15.6098116991
 20
11.5662739446
 30
0.0
 10
15.6112771597
 20
11.5586775607
 30
0.0
 10
15.6123951403
 20
11.5511279863
 30
0.0
 10
15.6131646799
 20
11.543631545
 30
0.0
 10
15.6135850177
 20
11.5361945156
 30
0.0
 10
15.6136557994
 20
11.5288231508
 30
0.0
 10
15.6133768338
 20
11.521523655
 30
0.0
 10
15.6127483843
 20
11.5143021845
 30
0.0
 10
15.6117708435
 20
11.5071648504
 30
0.0
 10
15.6104451006
 20
11.5001176816
 30
0.0
 10
15.6087721444
 20
11.4931666696
 30
0.0
 10
15.6067534894
 20
11.4863176808
 30
0.0
 10
15.6043907274
 20
11.4795765556
 30
0.0
 10
15.6016859877
 20
11.4729489617
 30
0.0
 10
15.5986414626
 20
11.4664405545
 30
0.0
 10
15.5952598754
 20
11.4600567719
 30
0.0
 10
15.5915440078
 20
11.4538030527
 30
0.0
 10
15.5874971494
 20
11.4476845821
 30
0.0
 10
15.5831226544
 20
11.4417065563
 30
0.0
 10
15.5784243495
 20
11.4358738949
 30
0.0
 10
15.5734061417
 20
11.4301915322
 30
0.0
 10
15.5680723682
 20
11.4246641154
 30
0.0
 10
15.5624274717
 20
11.4192963039
 30
0.0
 10
15.5564762703
 20
11.4140924656
 30
0.0
 10
15.5502237543
 20
11.4090569919
 30
0.0
 10
15.5436750924
 20
11.4041938968
 30
0.0
 10
15.5344802141
 20
11.3978931049
 30
0.0
 10
15.5247811181
 20
11.3920106531
 30
0.0
 10
15.5146336067
 20
11.3865446961
 30
0.0
 10
15.5066915888
 20
11.3826012057
 30
0.0
 10
15.4984900696
 20
11.378852113
 30
0.0
 10
15.4900356747
 20
11.3753003995
 30
0.0
 10
15.4813355087
 20
11.3719490351
 30
0.0
 10
15.4723968092
 20
11.3688007713
 30
0.0
 10
15.463227023
 20
11.3658582335
 30
0.0
 10
15.453833796
 20
11.3631238297
 30
0.0
 10
15.4442249461
 20
11.3605998585
 30
0.0
 10
15.4344084858
 20
11.358288369
 30
0.0
 10
15.4243925858
 20
11.3561913269
 30
0.0
 10
15.4141856023
 20
11.3543104149
 30
0.0
 10
15.4037960295
 20
11.3526472517
 30
0.0
 10
15.3932325195
 20
11.3512031537
 30
0.0
 10
15.3825038841
 20
11.3499793965
 30
0.0
 10
15.3716191095
 20
11.3489769117
 30
0.0
 10
15.3605872054
 20
11.348196596
 30
0.0
 10
15.3494172063
 20
11.3476390453
 30
0.0
 10
15.3381187546
 20
11.347304814
 30
0.0
 10
15.3305440628
 20
11.3472313194
 30
0.0
 10
15.3267378366
 20
11.3472313194
 30
0.0
  0
SPLINE
  5
2EA
100
AcDbEntity
  8
LAYER_CHAMFER_FEAT
100
AcDbSpline
 62
7
  6
CONTINUOUS
 70
0
 71
3
 72
16
 73
12
 74
0
 42
0.0000001
 43
0.0000001
 44
0.0000000001
 40
0.0
 40
0.0
 40
0.0
 40
0.0
 40
0.0660970902
 40
0.1317690888
 40
0.2617735712
 40
0.3899202669
 40
0.516122643
 40
0.6402998408
 40
0.7623795796
 40
0.8822978684
 40
1.0
 40
1.0
 40
1.0
 40
1.0
 10
14.9590710683
 20
13.1356148776
 30
0.0
 10
14.9508465334
 20
13.1356148776
 30
0.0
 10
14.9344501261
 20
13.1355104848
 30
0.0
 10
14.9018827237
 20
13.1348818703
 30
0.0
 10
14.8616143486
 20
13.1333150348
 30
0.0
 10
14.8138866011
 20
13.1301683809
 30
0.0
 10
14.7669860234
 20
13.1257661531
 30
0.0
 10
14.7209798171
 20
13.1201145819
 30
0.0
 10
14.6759335407
 20
13.1132216713
 30
0.0
 10
14.6319121976
 20
13.1050973276
 30
0.0
 10
14.6030151613
 20
13.098808033
 30
0.0
 10
14.5887583135
 20
13.0954551271
 30
0.0
  0
SPLINE
  5
2EB
100
AcDbEntity
  8
LAYER_FEATURE
100
AcDbSpline
 62
7
  6
CONTINUOUS
 70
0
 71
3
 72
29
 73
25
 74
0
 42
0.0000001
 43
0.0000001
 44
0.0000000001
 40
0.0
 40
0.0
 40
0.0
 40
0.0
 40
0.0225995837
 40
0.0452987849
 40
0.0681990615
 40
0.0913974774
 40
0.1149828036
 40
0.1390364627
 40
0.1636313291
 40
0.188831384
 40
0.2412285445
 40
0.2685294285
 40
0.2965948729
 40
0.3550627986
 40
0.385494158
 40
0.4167137721
 40
0.4814530274
 40
0.5491374222
 40
0.6195308071
 40
0.692332646
 40
0.7671900159
 40
0.8437084049
 40
0.9214613077
 40
1.0
 40
1.0
 40
1.0
 40
1.0
 10
16.7762874767
 20
12.8640907484
 30
0.0
 10
16.7763936229
 20
12.8644342214
 30
0.0
 10
16.7765781236
 20
12.8651317806
 30
0.0
 10
16.7767688336
 20
12.8662009174
 30
0.0
 10
16.7768734892
 20
12.8672914884
 30
0.0
 10
16.7768918346
 20
12.8684009472
 30
0.0
 10
16.7768239665
 20
12.8695268147
 30
0.0
 10
16.7766700096
 20
12.8706665135
 30
0.0
 10
16.7764304478
 20
12.8718175636
 30
0.0
 10
16.7759920308
 20
12.8733839701
 30
0.0
 10
16.7753858431
 20
12.8749439591
 30
0.0
 10
16.7746305563
 20
12.8764835005
 30
0.0
 10
16.7737449272
 20
12.8780638818
 30
0.0
 10
16.7727088237
 20
12.8796135686
 30
0.0
 10
16.7715401588
 20
12.8811258317
 30
0.0
 10
16.7702414042
 20
12.8826613924
 30
0.0
 10
16.7684354572
 20
12.8845404285
 30
0.0
 10
16.766027334
 20
12.8866916319
 30
0.0
 10
16.7633733807
 20
12.8887475375
 30
0.0
 10
16.7604969654
 20
12.8906901294
 30
0.0
 10
16.7574232907
 20
12.8925024561
 30
0.0
 10
16.7541793209
 20
12.8941686303
 30
0.0
 10
16.7507936953
 20
12.8956739733
 30
0.0
 10
16.7484687849
 20
12.8965589144
 30
0.0
 10
16.7472896289
 20
12.8969717792
 30
0.0
  0
SPLINE
  5
2EC
100
AcDbEntity
  8
LAYER_CHAMFER_FEAT
100
AcDbSpline
 62
7
  6
CONTINUOUS
 70
0
 71
3
 72
53
 73
49
 74
0
 42
0.0000001
 43
0.0000001
 44
0.0000000001
 40
0.0
 40
0.0
 40
0.0
 40
0.0
 40
0.0152209848
 40
0.0305407466
 40
0.0459548391
 40
0.0614596629
 40
0.0770518033
 40
0.0927275058
 40
0.108482863
 40
0.1243139517
 40
0.1561868147
 40
0.1883141844
 40
0.2206626334
 40
0.2531979928
 40
0.2858854674
 40
0.3186897605
 40
0.3515751923
 40
0.3845058188
 40
0.4174455495
 40
0.4503582643
 40
0.4832079308
 40
0.5159587213
 40
0.548575131
 40
0.5810220972
 40
0.6132651194
 40
0.6452703824
 40
0.6770048812
 40
0.7084365486
 40
0.7240294125
 40
0.7395350418
 40
0.7549497495
 40
0.7702699378
 40
0.7854920906
 40
0.8006127936
 40
0.8156287204
 40
0.830536659
 40
0.8453334918
 40
0.8600162287
 40
0.8745819816
 40
0.8890280028
 40
0.9033516551
 40
0.9175504546
 40
0.931622038
 40
0.9455642079
 40
0.9593748991
 40
0.9730522241
 40
0.9865944419
 40
1.0
 40
1.0
 40
1.0
 40
1.0
 10
14.9590710683
 20
13.1356148776
 30
0.0
 10
14.9679056153
 20
13.1356148776
 30
0.0
 10
14.9856322688
 20
13.1354936454
 30
0.0
 10
15.0123005897
 20
13.1349525292
 30
0.0
 10
15.0391240583
 20
13.1340516372
 30
0.0
 10
15.0660912866
 20
13.1327914163
 30
0.0
 10
15.0931914594
 20
13.1311723309
 30
0.0
 10
15.1204136341
 20
13.1291951076
 30
0.0
 10
15.1477467167
 20
13.1268604773
 30
0.0
 10
15.1844045428
 20
13.1232645001
 30
0.0
 10
15.2304311402
 20
13.1178775559
 30
0.0
 10
15.285804071
 20
13.1100178878
 30
0.0
 10
15.3413506183
 20
13.1007612842
 30
0.0
 10
15.3969800273
 20
13.0901228688
 30
0.0
 10
15.4526017046
 20
13.0781199689
 30
0.0
 10
15.5081249836
 20
13.0647721493
 30
0.0
 10
15.5634593773
 20
13.0501011633
 30
0.0
 10
15.6185146986
 20
13.0341309223
 30
0.0
 10
15.6732012158
 20
13.0168874552
 30
0.0
 10
15.7274297978
 20
12.9983988665
 30
0.0
 10
15.7811120604
 20
12.9786952899
 30
0.0
 10
15.8341605116
 20
12.9578088385
 30
0.0
 10
15.8864886934
 20
12.9357735531
 30
0.0
 10
15.9380113301
 20
12.9126253423
 30
0.0
 10
15.9886444421
 20
12.8884019368
 30
0.0
 10
16.0383055799
 20
12.8631427759
 30
0.0
 10
16.0869136018
 20
12.8368891321
 30
0.0
 10
16.1265809688
 20
12.8141582737
 30
0.0
 10
16.1577175781
 20
12.79550877
 30
0.0
 10
16.1806968447
 20
12.7813368938
 30
0.0
 10
16.2033545133
 20
12.7669495179
 30
0.0
 10
16.2256814077
 20
12.7523525098
 30
0.0
 10
16.2476683885
 20
12.7375517899
 30
0.0
 10
16.269306521
 20
12.7225534363
 30
0.0
 10
16.2905869489
 20
12.7073635129
 30
0.0
 10
16.3115010315
 20
12.6919882687
 30
0.0
 10
16.3320402006
 20
12.6764339107
 30
0.0
 10
16.3521961252
 20
12.6607068445
 30
0.0
 10
16.3719605397
 20
12.644813413
 30
0.0
 10
16.3913254352
 20
12.6287601645
 30
0.0
 10
16.4102828636
 20
12.6125535712
 30
0.0
 10
16.4288251489
 20
12.5962003092
 30
0.0
 10
16.4469446759
 20
12.5797069735
 30
0.0
 10
16.4646341122
 20
12.5630803519
 30
0.0
 10
16.4818861867
 20
12.54632716
 30
0.0
 10
16.498693934
 20
12.5294542651
 30
0.0
 10
16.5150503876
 20
12.5124685591
 30
0.0
 10
16.5257039607
 20
12.5010155385
 30
0.0
 10
16.530952711
 20
12.4952716655
 30
0.0
  0
SPLINE
  5
2ED
100
AcDbEntity
  8
LAYER_FEATURE
100
AcDbSpline
 62
7
  6
CONTINUOUS
 70
0
 71
3
 72
52
 73
48
 74
0
 42
0.0000001
 43
0.0000001
 44
0.0000000001
 40
0.0
 40
0.0
 40
0.0
 40
0.0
 40
0.0396639804
 40
0.078860463
 40
0.1175657585
 40
0.1557593097
 40
0.1934210725
 40
0.2305329582
 40
0.2670785179
 40
0.3030431581
 40
0.3384142614
 40
0.3731813105
 40
0.4073360328
 40
0.4408725474
 40
0.4737875198
 40
0.5060803125
 40
0.537753143
 40
0.5688112453
 40
0.5841129804
 40
0.599264474
 40
0.6291216971
 40
0.6438327726
 40
0.6584012171
 40
0.6728295153
 40
0.6871203607
 40
0.7152998942
 40
0.7429679367
 40
0.7566204551
 40
0.7701567821
 40
0.7835813039
 40
0.796898641
 40
0.8101136629
 40
0.8232314516
 40
0.8362573306
 40
0.8491968322
 40
0.8620556991
 40
0.8748398821
 40
0.88755551
 40
0.9002089017
 40
0.9128065317
 40
0.9253550274
 40
0.9378611525
 40
0.9503317817
 40
0.9627738957
 40
0.9751945504
 40
0.9876008653
 40
1.0
 40
1.0
 40
1.0
 40
1.0
 10
15.2855024233
 20
14.1887296781
 30
0.0
 10
15.2709488375
 20
14.1887296781
 30
0.0
 10
15.2420120477
 20
14.1884033292
 30
0.0
 10
15.198896452
 20
14.1869158911
 30
0.0
 10
15.1563666611
 20
14.1844349045
 30
0.0
 10
15.1144711739
 20
14.1809632602
 30
0.0
 10
15.0732570061
 20
14.1765047776
 30
0.0
 10
15.0327707521
 20
14.1710644857
 30
0.0
 10
14.9930580554
 20
14.164648478
 30
0.0
 10
14.9541637113
 20
14.1572639569
 30
0.0
 10
14.9161315834
 20
14.1489192009
 30
0.0
 10
14.8790045603
 20
14.1396235553
 30
0.0
 10
14.8428245133
 20
14.1293874208
 30
0.0
 10
14.8076322355
 20
14.1182222403
 30
0.0
 10
14.7734674326
 20
14.106140512
 30
0.0
 10
14.7403685499
 20
14.0931556915
 30
0.0
 10
14.7083732329
 20
14.0792824084
 30
0.0
 10
14.6825333132
 20
14.066933214
 30
0.0
 10
14.6624566838
 20
14.0566188778
 30
0.0
 10
14.6429727356
 20
14.0461248128
 30
0.0
 10
14.6239906336
 20
14.0351634304
 30
0.0
 10
14.605545681
 20
14.0237325291
 30
0.0
 10
14.5920937157
 20
14.0149985818
 30
0.0
 10
14.5789598071
 20
14.006064574
 30
0.0
 10
14.5619575787
 20
13.9939465392
 30
0.0
 10
14.5415020366
 20
13.9783145983
 30
0.0
 10
14.521970865
 20
13.9619023997
 30
0.0
 10
14.507037973
 20
13.9484034826
 30
0.0
 10
14.49622951
 20
13.9381423213
 30
0.0
 10
14.4857663157
 20
13.9277027714
 30
0.0
 10
14.475651326
 20
13.9170876827
 30
0.0
 10
14.4658873731
 20
13.9063001216
 30
0.0
 10
14.4564772896
 20
13.8953430662
 30
0.0
 10
14.4474237036
 20
13.8842196556
 30
0.0
 10
14.4387292032
 20
13.8729330159
 30
0.0
 10
14.4303962891
 20
13.8614863172
 30
0.0
 10
14.4224272733
 20
13.8498828393
 30
0.0
 10
14.4148245014
 20
13.8381258101
 30
0.0
 10
14.4075900734
 20
13.8262186023
 30
0.0
 10
14.4007260829
 20
13.8141645648
 30
0.0
 10
14.3942345002
 20
13.8019671073
 30
0.0
 10
14.3881171198
 20
13.7896297164
 30
0.0
 10
14.3823757679
 20
13.7771558467
 30
0.0
 10
14.3770120026
 20
13.7645490872
 30
0.0
 10
14.3720273913
 20
13.7518129519
 30
0.0
 10
14.3674233952
 20
13.7389512088
 30
0.0
 10
14.3646082644
 20
13.7302942175
 30
0.0
 10
14.3632650332
 20
13.7259475158
 30
0.0
  0
SPLINE
  5
2EE
100
AcDbEntity
  8
02___PRT_ALL_AXES
100
AcDbSpline
 62
7
  6
CONTINUOUS
 70
0
 71
3
 72
83
 73
79
 74
0
 42
0.0000001
 43
0.0000001
 44
0.0000000001
 40
0.0
 40
0.0
 40
0.0
 40
0.0
 40
0.0171786753
 40
0.0345300566
 40
0.0520438769
 40
0.0697093883
 40
0.0875155413
 40
0.105450952
 40
0.1235039521
 40
0.1416626133
 40
0.1599147783
 40
0.1782480888
 40
0.1966500139
 40
0.2151078783
 40
0.2336088893
 40
0.2521401644
 40
0.2706887583
 40
0.2892416899
 40
0.307785969
 40
0.3263086235
 40
0.3447967259
 40
0.3632374205
 40
0.3816179507
 40
0.3999256859
 40
0.4181481496
 40
0.4362730471
 40
0.4542882938
 40
0.4721820447
 40
0.4899427229
 40
0.5075590504
 40
0.5250200785
 40
0.5423152197
 40
0.5594342802
 40
0.5763674933
 40
0.5931055551
 40
0.6096396596
 40
0.6259615371
 40
0.6420634925
 40
0.6579384466
 40
0.6735799785
 40
0.6889823704
 40
0.704140654
 40
0.7190506591
 40
0.7337090647
 40
0.7481134512
 40
0.7622623557
 40
0.776155328
 40
0.789792989
 40
0.8031770887
 40
0.8163105656
 40
0.8291976038
 40
0.8418436881
 40
0.8480787813
 40
0.8542563166
 40
0.8603773683
 40
0.866443099
 40
0.8784129657
 40
0.8901777398
 40
0.8959874977
 40
0.9017508294
 40
0.9074695359
 40
0.9131455091
 40
0.9187807287
 40
0.9243772597
 40
0.9299372524
 40
0.9354629366
 40
0.9409566213
 40
0.9464206885
 40
0.9518575912
 40
0.9572698473
 40
0.9626600351
 40
0.9680307881
 40
0.9733847884
 40
0.9787247613
 40
0.9840534679
 40
0.9893736989
 40
0.994688267
 40
1.0
 40
1.0
 40
1.0
 40
1.0
 10
14.762029081
 20
12.4979867732
 30
0.0
 10
14.7761744559
 20
12.4979867732
 30
0.0
 10
14.8046083246
 20
12.4976755365
 30
0.0
 10
14.8474433262
 20
12.4962925509
 30
0.0
 10
14.8906404539
 20
12.493992466
 30
0.0
 10
14.9341545159
 20
12.4907776685
 30
0.0
 10
14.9779402789
 20
12.486651514
 30
0.0
 10
15.0219521618
 20
12.4816182957
 30
0.0
 10
15.0661443612
 20
12.4756832545
 30
0.0
 10
15.1104708798
 20
12.4688525678
 30
0.0
 10
15.1548855799
 20
12.4611333461
 30
0.0
 10
15.1993422303
 20
12.4525336253
 30
0.0
 10
15.2437945549
 20
12.4430623574
 30
0.0
 10
15.2881962812
 20
12.4327294018
 30
0.0
 10
15.3325011885
 20
12.4215455147
 30
0.0
 10
15.3766631561
 20
12.4095223382
 30
0.0
 10
15.420636212
 20
12.3966723879
 30
0.0
 10
15.4643745799
 20
12.38300904
 30
0.0
 10
15.5078327285
 20
12.3685465183
 30
0.0
 10
15.5509654183
 20
12.3532998785
 30
0.0
 10
15.5937277486
 20
12.3372849927
 30
0.0
 10
15.6360752051
 20
12.3205185319
 30
0.0
 10
15.6779637056
 20
12.3030179494
 30
0.0
 10
15.7193496465
 20
12.2848014621
 30
0.0
 10
15.7601899482
 20
12.2658880313
 30
0.0
 10
15.8004421
 20
12.2462973428
 30
0.0
 10
15.840064205
 20
12.2260497876
 30
0.0
 10
15.8790150238
 20
12.2051664388
 30
0.0
 10
15.9172540169
 20
12.1836690298
 30
0.0
 10
15.9547413873
 20
12.1615799311
 30
0.0
 10
15.9914381216
 20
12.1389221271
 30
0.0
 10
16.027306031
 20
12.1157191912
 30
0.0
 10
16.0623077908
 20
12.0919952612
 30
0.0
 10
16.0964069794
 20
12.0677750138
 30
0.0
 10
16.1295681169
 20
12.043083639
 30
0.0
 10
16.1617567005
 20
12.0179468122
 30
0.0
 10
16.192939241
 20
11.9923906668
 30
0.0
 10
16.2230832963
 20
11.966441767
 30
0.0
 10
16.2521575048
 20
11.9401270787
 30
0.0
 10
16.2801316178
 20
11.9134739409
 30
0.0
 10
16.3069765294
 20
11.8865100366
 30
0.0
 10
16.3326643067
 20
11.8592633632
 30
0.0
 10
16.3571682173
 20
11.8317622032
 30
0.0
 10
16.380462755
 20
11.8040350929
 30
0.0
 10
16.4025236635
 20
11.776110793
 30
0.0
 10
16.42332796
 20
11.7480182577
 30
0.0
 10
16.4428539547
 20
11.7197866076
 30
0.0
 10
16.4610812749
 20
11.6914450888
 30
0.0
 10
16.4779908648
 20
11.6630230857
 30
0.0
 10
16.4935650677
 20
11.6345499401
 30
0.0
 10
16.5077874045
 20
11.6060554804
 30
0.0
 10
16.5185506741
 20
11.5822052984
 30
0.0
 10
16.526460602
 20
11.5631462979
 30
0.0
 10
16.5320187093
 20
11.5489320847
 30
0.0
 10
16.5372286669
 20
11.5347350131
 30
0.0
 10
16.5436803089
 20
11.5159178073
 30
0.0
 10
16.5508813066
 20
11.4924509038
 30
0.0
 10
16.5569624869
 20
11.4688860463
 30
0.0
 10
16.5611069109
 20
11.450119702
 30
0.0
 10
16.5638466422
 20
11.4361458134
 30
0.0
 10
16.5662298247
 20
11.4222185039
 30
0.0
 10
16.5682558549
 20
11.4083413252
 30
0.0
 10
16.5699241887
 20
11.3945179154
 30
0.0
 10
16.5712343705
 20
11.3807518724
 30
0.0
 10
16.5721860646
 20
11.3670467903
 30
0.0
 10
16.5727789883
 20
11.353406243
 30
0.0
 10
16.5730129999
 20
11.3398337929
 30
0.0
 10
16.5728880063
 20
11.3263329834
 30
0.0
 10
16.5724040445
 20
11.3129073417
 30
0.0
 10
16.5715612256
 20
11.2995603761
 30
0.0
 10
16.5703597566
 20
11.2862955763
 30
0.0
 10
16.5687999567
 20
11.2731164096
 30
0.0
 10
16.5668822061
 20
11.2600263263
 30
0.0
 10
16.5646070235
 20
11.2470287453
 30
0.0
 10
16.5619749776
 20
11.2341270814
 30
0.0
 10
16.5589867622
 20
11.2213246721
 30
0.0
 10
16.5556431831
 20
11.2086250021
 30
0.0
 10
16.5531774889
 20
11.2002281909
 30
0.0
 10
16.5518861287
 20
11.1960493513
 30
0.0
  0
SPLINE
  5
2EF
100
AcDbEntity
  8
LAYER_FEATURE
100
AcDbSpline
 62
7
  6
CONTINUOUS
 70
0
 71
3
 72
39
 73
35
 74
0
 42
0.0000001
 43
0.0000001
 44
0.0000000001
 40
0.0
 40
0.0
 40
0.0
 40
0.0
 40
0.0224962026
 40
0.0457230691
 40
0.0697275662
 40
0.0945512618
 40
0.120220097
 40
0.1467457761
 40
0.1741285154
 40
0.2023582626
 40
0.2314148194
 40
0.2612693428
 40
0.2918853628
 40
0.3232191407
 40
0.3552210937
 40
0.387835936
 40
0.4210037422
 40
0.4546604892
 40
0.4887384863
 40
0.5231672837
 40
0.5578738586
 40
0.5927834469
 40
0.6278198832
 40
0.6629061814
 40
0.6979650408
 40
0.7329193398
 40
0.7676926347
 40
0.8022095621
 40
0.8363968639
 40
0.8701831783
 40
0.903499031
 40
0.9362804391
 40
0.9684696186
 40
1.0
 40
1.0
 40
1.0
 40
1.0
 10
16.7932338034
 20
13.122439765
 30
0.0
 10
16.793116902
 20
13.1229151109
 30
0.0
 10
16.7928388411
 20
13.1238716922
 30
0.0
 10
16.7923037156
 20
13.12529286
 30
0.0
 10
16.7916459552
 20
13.1267175468
 30
0.0
 10
16.7908679227
 20
13.1281409679
 30
0.0
 10
16.7899722308
 20
13.1295586605
 30
0.0
 10
16.7889617809
 20
13.1309660045
 30
0.0
 10
16.7878399573
 20
13.1323584922
 30
0.0
 10
16.7866104043
 20
13.1337315977
 30
0.0
 10
16.7852771548
 20
13.1350808854
 30
0.0
 10
16.7838445735
 20
13.1364019871
 30
0.0
 10
16.7823173142
 20
13.137690578
 30
0.0
 10
16.7807003959
 20
13.1389425052
 30
0.0
 10
16.7789990727
 20
13.1401536518
 30
0.0
 10
16.7772189172
 20
13.1413200879
 30
0.0
 10
16.7753657475
 20
13.1424380088
 30
0.0
 10
16.7734456066
 20
13.1435037366
 30
0.0
 10
16.7714647928
 20
13.1445138283
 30
0.0
 10
16.769429764
 20
13.1454649409
 30
0.0
 10
16.7673471885
 20
13.1463539915
 30
0.0
 10
16.7652238766
 20
13.1471780675
 30
0.0
 10
16.7630667671
 20
13.1479344527
 30
0.0
 10
16.7608829305
 20
13.1486207106
 30
0.0
 10
16.7586794978
 20
13.1492345524
 30
0.0
 10
16.7564636876
 20
13.1497740035
 30
0.0
 10
16.7542427474
 20
13.1502372867
 30
0.0
 10
16.7520239372
 20
13.1506228756
 30
0.0
 10
16.7498145165
 20
13.1509295405
 30
0.0
 10
16.7476217194
 20
13.1511562261
 30
0.0
 10
16.7454527218
 20
13.1513022529
 30
0.0
 10
16.7433145155
 20
13.1513671063
 30
0.0
 10
16.7412142531
 20
13.1513505341
 30
0.0
 10
16.7398288534
 20
13.15128459
 30
0.0
 10
16.7391443739
 20
13.1512376044
 30
0.0
  0
SPLINE
  5
2F0
100
AcDbEntity
  8
LAYER_FEATURE
100
AcDbSpline
 62
7
  6
CONTINUOUS
 70
0
 71
3
 72
23
 73
19
 74
0
 42
0.0000001
 43
0.0000001
 44
0.0000000001
 40
0.0
 40
0.0
 40
0.0
 40
0.0
 40
0.0632561572
 40
0.1269611176
 40
0.1909979049
 40
0.2552476429
 40
0.3195903043
 40
0.383905344
 40
0.4480723451
 40
0.5119717366
 40
0.5754854583
 40
0.6384975787
 40
0.7008949894
 40
0.7625685294
 40
0.8234128275
 40
0.8833268182
 40
0.9422210217
 40
1.0
 40
1.0
 40
1.0
 40
1.0
 10
16.6309349125
 20
13.17333489
 30
0.0
 10
16.6330578866
 20
13.1723197058
 30
0.0
 10
16.6373514579
 20
13.1703494826
 30
0.0
 10
16.6438991805
 20
13.1675874334
 30
0.0
 10
16.6505630093
 20
13.1650140133
 30
0.0
 10
16.6573243063
 20
13.1626364052
 30
0.0
 10
16.6641642753
 20
13.1604612094
 30
0.0
 10
16.6710638787
 20
13.1584944978
 30
0.0
 10
16.6780039155
 20
13.1567417464
 30
0.0
 10
16.6849650668
 20
13.1552078148
 30
0.0
 10
16.6919279626
 20
13.153896976
 30
0.0
 10
16.6988732285
 20
13.1528128999
 30
0.0
 10
16.7057815431
 20
13.1519585784
 30
0.0
 10
16.7126336916
 20
13.1513363922
 30
0.0
 10
16.7194105715
 20
13.1509480934
 30
0.0
 10
16.7260935011
 20
13.150794729
 30
0.0
 10
16.7326636135
 20
13.1508767997
 30
0.0
 10
16.7369999643
 20
13.1510904027
 30
0.0
 10
16.7391443739
 20
13.1512376044
 30
0.0
  0
SPLINE
  5
2F1
100
AcDbEntity
  8
LAYER_FEATURE
100
AcDbSpline
 62
7
  6
CONTINUOUS
 70
0
 71
3
 72
36
 73
32
 74
0
 42
0.0000001
 43
0.0000001
 44
0.0000000001
 40
0.0
 40
0.0
 40
0.0
 40
0.0
 40
0.0357098423
 40
0.071777189
 40
0.1081189904
 40
0.1446657663
 40
0.218074266
 40
0.2914119972
 40
0.3640829399
 40
0.3999908228
 40
0.4355166213
 40
0.47059283
 40
0.5051549799
 40
0.5391418857
 40
0.5724966772
 40
0.6051667194
 40
0.6371050051
 40
0.6682700591
 40
0.6986272762
 40
0.7281493203
 40
0.7568169974
 40
0.784620471
 40
0.8115595564
 40
0.8376455379
 40
0.8629012515
 40
0.8873630605
 40
0.9110804522
 40
0.9341168233
 40
0.956551975
 40
0.9784802755
 40
1.0
 40
1.0
 40
1.0
 40
1.0
 10
14.694748444
 20
13.6537990137
 30
0.0
 10
14.6940801416
 20
13.6541520175
 30
0.0
 10
14.6927246827
 20
13.6548387813
 30
0.0
 10
14.6906500171
 20
13.6558052578
 30
0.0
 10
14.6885287185
 20
13.6567107977
 30
0.0
 10
14.6856430518
 20
13.6578347463
 30
0.0
 10
14.6819625326
 20
13.6590699599
 30
0.0
 10
14.6774728287
 20
13.6602684487
 30
0.0
 10
14.6736943432
 20
13.6610237414
 30
0.0
 10
14.6706772734
 20
13.6614738301
 30
0.0
 10
14.6684373506
 20
13.6617319273
 30
0.0
 10
14.6662183186
 20
13.6619111042
 30
0.0
 10
14.6640268768
 20
13.6620108308
 30
0.0
 10
14.6618696713
 20
13.6620307662
 30
0.0
 10
14.659753238
 20
13.661970902
 30
0.0
 10
14.6576839851
 20
13.6618313485
 30
0.0
 10
14.6556681749
 20
13.6616125882
 30
0.0
 10
14.653711908
 20
13.6613152163
 30
0.0
 10
14.6518210968
 20
13.6609401553
 30
0.0
 10
14.6500014565
 20
13.6604885075
 30
0.0
 10
14.6482584891
 20
13.6599615944
 30
0.0
 10
14.6465974489
 20
13.6593610142
 30
0.0
 10
14.6450233795
 20
13.6586884677
 30
0.0
 10
14.643541018
 20
13.6579460049
 30
0.0
 10
14.6421548963
 20
13.6571357173
 30
0.0
 10
14.6408692194
 20
13.6562600236
 30
0.0
 10
14.6396879745
 20
13.6553214445
 30
0.0
 10
14.6386148103
 20
13.6543227674
 30
0.0
 10
14.6376530651
 20
13.6532668405
 30
0.0
 10
14.6368060371
 20
13.6521569731
 30
0.0
 10
14.636315681
 20
13.6513772135
 30
0.0
 10
14.6360916503
 20
13.6509806514
 30
0.0
  0
SPLINE
  5
2F2
100
AcDbEntity
  8
LAYER_FEATURE
100
AcDbSpline
 62
7
  6
CONTINUOUS
 70
0
 71
3
 72
37
 73
33
 74
0
 42
0.0000001
 43
0.0000001
 44
0.0000000001
 40
0.0
 40
0.0
 40
0.0
 40
0.0
 40
0.0274174553
 40
0.0556501015
 40
0.0846624465
 40
0.1144227758
 40
0.144890493
 40
0.1760171322
 40
0.2077494526
 40
0.2400299044
 40
0.272796403
 40
0.305983447
 40
0.339522663
 40
0.3733431267
 40
0.4073721589
 40
0.4415355823
 40
0.5099560657
 40
0.5780118824
 40
0.611721896
 40
0.6451203552
 40
0.6781372953
 40
0.7107055632
 40
0.7427609873
 40
0.774243367
 40
0.8050967531
 40
0.835270118
 40
0.8647185732
 40
0.8934032139
 40
0.9212918728
 40
0.9483620531
 40
0.9746021562
 40
1.0
 40
1.0
 40
1.0
 40
1.0
 10
16.6437382082
 20
13.3997581473
 30
0.0
 10
16.6433459157
 20
13.4002273674
 30
0.0
 10
16.6425240865
 20
13.4011586324
 30
0.0
 10
16.6412054501
 20
13.4025115958
 30
0.0
 10
16.6397867297
 20
13.4038370202
 30
0.0
 10
16.6382727127
 20
13.4051305015
 30
0.0
 10
16.6366683021
 20
13.4063879259
 30
0.0
 10
16.6349786989
 20
13.4076051405
 30
0.0
 10
16.6332094645
 20
13.408778212
 30
0.0
 10
16.6313663596
 20
13.409903284
 30
0.0
 10
16.6294554129
 20
13.4109766941
 30
0.0
 10
16.6274828786
 20
13.4119949445
 30
0.0
 10
16.6254551902
 20
13.4129546751
 30
0.0
 10
16.6233790046
 20
13.4138527864
 30
0.0
 10
16.6212610719
 20
13.4146863158
 30
0.0
 10
16.6183896318
 20
13.4157083488
 30
0.0
 10
16.6147423763
 20
13.4168078311
 30
0.0
 10
16.6110407221
 20
13.4176638235
 30
0.0
 10
16.6080721693
 20
13.4181945148
 30
0.0
 10
16.6058609498
 20
13.4185125233
 30
0.0
 10
16.6036653356
 20
13.4187506929
 30
0.0
 10
16.6014924834
 20
13.4189082867
 30
0.0
 10
16.5993494969
 20
13.4189847405
 30
0.0
 10
16.5972433793
 20
13.4189798383
 30
0.0
 10
16.5951810093
 20
13.4188935796
 30
0.0
 10
16.5931691175
 20
13.418726226
 30
0.0
 10
16.5912142634
 20
13.4184783502
 30
0.0
 10
16.5893228389
 20
13.4181506914
 30
0.0
 10
16.5875010014
 20
13.4177443714
 30
0.0
 10
16.5857546038
 20
13.4172606184
 30
0.0
 10
16.5840895272
 20
13.4167009902
 30
0.0
 10
16.5830197963
 20
13.4162715636
 30
0.0
 10
16.5825008795
 20
13.4160441697
 30
0.0
  0
SPLINE
  5
2F3
100
AcDbEntity
  8
LAYER_FEATURE
100
AcDbSpline
 62
7
  6
CONTINUOUS
 70
0
 71
3
 72
39
 73
35
 74
0
 42
0.0000001
 43
0.0000001
 44
0.0000000001
 40
0.0
 40
0.0
 40
0.0
 40
0.0
 40
0.0289375718
 40
0.0585614084
 40
0.0888311659
 40
0.1197079021
 40
0.1511455235
 40
0.1830945694
 40
0.2155024821
 40
0.2483136545
 40
0.2814700247
 40
0.3149114882
 40
0.3485762803
 40
0.382401333
 40
0.4163226627
 40
0.4502757572
 40
0.4841959142
 40
0.5180186133
 40
0.5516799013
 40
0.5851167341
 40
0.6182673471
 40
0.6510716811
 40
0.6834717409
 40
0.7154119738
 40
0.7468397486
 40
0.777705796
 40
0.8079646269
 40
0.837575038
 40
0.8665006788
 40
0.8947107299
 40
0.9221801726
 40
0.9488903061
 40
0.9748322877
 40
1.0
 40
1.0
 40
1.0
 40
1.0
 10
16.3840373418
 20
13.4610296578
 30
0.0
 10
16.3855231421
 20
13.459606559
 30
0.0
 10
16.3885929956
 20
13.4567917276
 30
0.0
 10
16.3934199687
 20
13.452716463
 30
0.0
 10
16.3985114926
 20
13.4487484687
 30
0.0
 10
16.4038528952
 20
13.4448990753
 30
0.0
 10
16.4094292321
 20
13.4411790796
 30
0.0
 10
16.4152246881
 20
13.4375990007
 30
0.0
 10
16.4212228767
 20
13.4341689487
 30
0.0
 10
16.427406851
 20
13.430898641
 30
0.0
 10
16.4337591067
 20
13.4277973117
 30
0.0
 10
16.4402616692
 20
13.4248737267
 30
0.0
 10
16.446896146
 20
13.4221361699
 30
0.0
 10
16.4536437649
 20
13.4195923949
 30
0.0
 10
16.460485423
 20
13.4172495829
 30
0.0
 10
16.4674017585
 20
13.4151143652
 30
0.0
 10
16.4743732027
 20
13.4131928039
 30
0.0
 10
16.4813800218
 20
13.4114903259
 30
0.0
 10
16.4884023845
 20
13.4100117386
 30
0.0
 10
16.4954204213
 20
13.4087612365
 30
0.0
 10
16.5024142761
 20
13.4077423706
 30
0.0
 10
16.5093641602
 20
13.4069580043
 30
0.0
 10
16.5162504164
 20
13.4064103564
 30
0.0
 10
16.5230535718
 20
13.406100999
 30
0.0
 10
16.529754392
 20
13.4060308048
 30
0.0
 10
16.536333941
 20
13.4061999658
 30
0.0
 10
16.5427736306
 20
13.4066080243
 30
0.0
 10
16.5490552709
 20
13.4072538662
 30
0.0
 10
16.5551611379
 20
13.4081356658
 30
0.0
 10
16.561074011
 20
13.4092509778
 30
0.0
 10
16.5667771605
 20
13.410596715
 30
0.0
 10
16.5722546838
 20
13.4121691581
 30
0.0
 10
16.5774907609
 20
13.4139639165
 30
0.0
 10
16.5808619767
 20
13.4153259884
 30
0.0
 10
16.5825008795
 20
13.4160441697
 30
0.0
  0
SPLINE
  5
2F4
100
AcDbEntity
  8
LAYER_FEATURE
100
AcDbSpline
 62
7
  6
CONTINUOUS
 70
0
 71
3
 72
13
 73
9
 74
0
 42
0.0000001
 43
0.0000001
 44
0.0000000001
 40
0.0
 40
0.0
 40
0.0
 40
0.0
 40
0.1226460123
 40
0.246262368
 40
0.3706884268
 40
0.4957891506
 40
0.7474220374
 40
1.0
 40
1.0
 40
1.0
 40
1.0
 10
14.694748444
 20
13.6537990137
 30
0.0
 10
14.6964900398
 20
13.6528790857
 30
0.0
 10
14.7000109796
 20
13.6510769471
 30
0.0
 10
14.705377457
 20
13.6484988431
 30
0.0
 10
14.7108423996
 20
13.6460388128
 30
0.0
 10
14.7182610462
 20
13.6429162354
 30
0.0
 10
14.7277167807
 20
13.6393369753
 30
0.0
 10
14.7354219937
 20
13.6368360905
 30
0.0
 10
14.7393089979
 20
13.6356765945
 30
0.0
  0
SPLINE
  5
2F5
100
AcDbEntity
  8
LAYER_FEATURE
100
AcDbSpline
 62
7
  6
CONTINUOUS
 70
0
 71
3
 72
36
 73
32
 74
0
 42
0.0000001
 43
0.0000001
 44
0.0000000001
 40
0.0
 40
0.0
 40
0.0
 40
0.0
 40
0.0338812185
 40
0.0682900587
 40
0.103147384
 40
0.1383852942
 40
0.2096967637
 40
0.281617617
 40
0.3176143655
 40
0.3535263762
 40
0.3892749133
 40
0.4247823949
 40
0.4599727468
 40
0.4947720883
 40
0.5291092783
 40
0.5629162957
 40
0.5961292367
 40
0.6286884373
 40
0.6605396206
 40
0.6916343477
 40
0.721930716
 40
0.751394623
 40
0.7799999922
 40
0.8077304758
 40
0.8345799401
 40
0.8605536916
 40
0.9099307659
 40
0.933441725
 40
0.9562356946
 40
0.9783928736
 40
1.0
 40
1.0
 40
1.0
 40
1.0
 10
16.3500722356
 20
13.6525042076
 30
0.0
 10
16.3494683416
 20
13.6528932437
 30
0.0
 10
16.3482361462
 20
13.6536543301
 30
0.0
 10
16.3463345527
 20
13.6547353622
 30
0.0
 10
16.3443703511
 20
13.6557617301
 30
0.0
 10
16.3416662714
 20
13.6570577828
 30
0.0
 10
16.338172355
 20
13.6585185235
 30
0.0
 10
16.3345747665
 20
13.6597512993
 30
0.0
 10
16.3316444907
 20
13.6605973248
 30
0.0
 10
16.3294314643
 20
13.6611582422
 30
0.0
 10
16.3272112497
 20
13.6616434462
 30
0.0
 10
16.3249910908
 20
13.662051398
 30
0.0
 10
16.322778249
 20
13.6623807224
 30
0.0
 10
16.3205799629
 20
13.6626303634
 30
0.0
 10
16.3184034209
 20
13.6627995096
 30
0.0
 10
16.3162557342
 20
13.6628875753
 30
0.0
 10
16.3141439238
 20
13.6628943171
 30
0.0
 10
16.3120748848
 20
13.6628196622
 30
0.0
 10
16.3100553726
 20
13.6626638795
 30
0.0
 10
16.3080919757
 20
13.6624274657
 30
0.0
 10
16.3061910985
 20
13.6621111517
 30
0.0
 10
16.304358934
 20
13.6617160013
 30
0.0
 10
16.3026014446
 20
13.6612432141
 30
0.0
 10
16.3009243982
 20
13.660694365
 30
0.0
 10
16.2993330761
 20
13.66007108
 30
0.0
 10
16.2973664955
 20
13.6591592029
 30
0.0
 10
16.2955509931
 20
13.6580952955
 30
0.0
 10
16.2939265344
 20
13.6568772847
 30
0.0
 10
16.2928366099
 20
13.6559160332
 30
0.0
 10
16.2918594864
 20
13.6548955734
 30
0.0
 10
16.2912788655
 20
13.6541698186
 30
0.0
 10
16.291009836
 20
13.6537990137
 30
0.0
  0
SPLINE
  5
2F6
100
AcDbEntity
  8
LAYER_FEATURE
100
AcDbSpline
 62
7
  6
CONTINUOUS
 70
0
 71
3
 72
39
 73
35
 74
0
 42
0.0000001
 43
0.0000001
 44
0.0000000001
 40
0.0
 40
0.0
 40
0.0
 40
0.0
 40
0.0351906886
 40
0.0707289549
 40
0.1065451016
 40
0.1425754018
 40
0.1787514228
 40
0.2150044653
 40
0.2512656513
 40
0.2874658388
 40
0.3235362951
 40
0.3594090373
 40
0.3950171883
 40
0.4302953995
 40
0.4651802992
 40
0.4996108746
 40
0.5335288879
 40
0.5668794063
 40
0.5996112654
 40
0.6316775223
 40
0.6630360299
 40
0.6936500921
 40
0.7234889998
 40
0.7525286793
 40
0.7807525146
 40
0.8081520924
 40
0.8347279436
 40
0.8604904167
 40
0.8854605759
 40
0.9096710534
 40
0.9331664667
 40
0.9560037988
 40
0.9782550118
 40
1.0
 40
1.0
 40
1.0
 40
1.0
 10
16.1045003213
 20
13.6498049865
 30
0.0
 10
16.1065662388
 20
13.6487010296
 30
0.0
 10
16.1107552975
 20
13.6465503972
 30
0.0
 10
16.1171657993
 20
13.6435145216
 30
0.0
 10
16.1237199396
 20
13.6406595266
 30
0.0
 10
16.1303988939
 20
13.6379935429
 30
0.0
 10
16.1371839268
 20
13.6355240842
 30
0.0
 10
16.1440557849
 20
13.6332581402
 30
0.0
 10
16.1509950203
 20
13.6312021179
 30
0.0
 10
16.1579820062
 20
13.6293618588
 30
0.0
 10
16.1649969611
 20
13.6277425552
 30
0.0
 10
16.1720200326
 20
13.6263487813
 30
0.0
 10
16.1790313503
 20
13.6251844943
 30
0.0
 10
16.186011077
 20
13.6242529969
 30
0.0
 10
16.192939466
 20
13.6235569061
 30
0.0
 10
16.1997969224
 20
13.6230981933
 30
0.0
 10
16.2065640563
 20
13.6228781809
 30
0.0
 10
16.2132217377
 20
13.6228974848
 30
0.0
 10
16.2197511551
 20
13.6231560483
 30
0.0
 10
16.226133864
 20
13.6236531663
 30
0.0
 10
16.2323518405
 20
13.6243874699
 30
0.0
 10
16.2383875401
 20
13.6253568936
 30
0.0
 10
16.2442239388
 20
13.6265587408
 30
0.0
 10
16.2498445732
 20
13.6279897008
 30
0.0
 10
16.2552335991
 20
13.6296458071
 30
0.0
 10
16.2603758312
 20
13.631522476
 30
0.0
 10
16.2652567611
 20
13.6336145577
 30
0.0
 10
16.269862587
 20
13.6359163426
 30
0.0
 10
16.2741802791
 20
13.638421511
 30
0.0
 10
16.2781975572
 20
13.6411232461
 30
0.0
 10
16.2819028495
 20
13.6440141597
 30
0.0
 10
16.2852856089
 20
13.647086456
 30
0.0
 10
16.2883355039
 20
13.6503313237
 30
0.0
 10
16.2901598535
 20
13.6526274782
 30
0.0
 10
16.291009836
 20
13.6537990137
 30
0.0
  0
SPLINE
  5
2F7
100
AcDbEntity
  8
LAYER_FEATURE
100
AcDbSpline
 62
7
  6
CONTINUOUS
 70
0
 71
3
 72
15
 73
11
 74
0
 42
0.0000001
 43
0.0000001
 44
0.0000000001
 40
0.0
 40
0.0
 40
0.0
 40
0.0
 40
0.1364968635
 40
0.2687561451
 40
0.3971164778
 40
0.5220649803
 40
0.6441648436
 40
0.764045949
 40
0.8824085486
 40
1.0
 40
1.0
 40
1.0
 40
1.0
 10
14.7994099045
 20
13.8164316554
 30
0.0
 10
14.7989847005
 20
13.8161621126
 30
0.0
 10
14.7981656984
 20
13.8156018593
 30
0.0
 10
14.7970217717
 20
13.8146848396
 30
0.0
 10
14.7959863549
 20
13.813707625
 30
0.0
 10
14.7950630476
 20
13.8126734195
 30
0.0
 10
14.7942548987
 20
13.8115854941
 30
0.0
 10
14.7935647958
 20
13.8104472595
 30
0.0
 10
14.7929951587
 20
13.8092626869
 30
0.0
 10
14.7926966601
 20
13.8084434174
 30
0.0
 10
14.7925686031
 20
13.808029042
 30
0.0
  0
SPLINE
  5
2F8
100
AcDbEntity
  8
LAYER_FEATURE
100
AcDbSpline
 62
7
  6
CONTINUOUS
 70
0
 71
3
 72
34
 73
30
 74
0
 42
0.0000001
 43
0.0000001
 44
0.0000000001
 40
0.0
 40
0.0
 40
0.0
 40
0.0
 40
0.0772935117
 40
0.1543715669
 40
0.2307006462
 40
0.3057599872
 40
0.3790578593
 40
0.4149080674
 40
0.4501522127
 40
0.4847422966
 40
0.5186342193
 40
0.5517889924
 40
0.5841724393
 40
0.615756722
 40
0.64651991
 40
0.6764477464
 40
0.7055332318
 40
0.7337784393
 40
0.7611942784
 40
0.7878021187
 40
0.8136337954
 40
0.8387327583
 40
0.8631541918
 40
0.8869653609
 40
0.9102454198
 40
0.9330846133
 40
0.9555834564
 40
0.9778505688
 40
1.0
 40
1.0
 40
1.0
 40
1.0
 10
15.9569438681
 20
13.8421996492
 30
0.0
 10
15.9556598155
 20
13.8426465904
 30
0.0
 10
15.9530685388
 20
13.843464388
 30
0.0
 10
15.9491318713
 20
13.8444586553
 30
0.0
 10
15.9451817699
 20
13.8452116296
 30
0.0
 10
15.9412592809
 20
13.8457154474
 30
0.0
 10
15.9380232845
 20
13.8459249192
 30
0.0
 10
15.9354832289
 20
13.8459611144
 30
0.0
 10
15.9336241983
 20
13.8459234365
 30
0.0
 10
15.9318020896
 20
13.8458212764
 30
0.0
 10
15.9300216035
 20
13.8456548478
 30
0.0
 10
15.9282873567
 20
13.84542463
 30
0.0
 10
15.9266038437
 20
13.8451311501
 30
0.0
 10
15.9249754152
 20
13.8447752252
 30
0.0
 10
15.9234062968
 20
13.8443576897
 30
0.0
 10
15.9219005334
 20
13.8438796791
 30
0.0
 10
15.9204620404
 20
13.8433423317
 30
0.0
 10
15.9190945211
 20
13.8427470752
 30
0.0
 10
15.9178015447
 20
13.8420953462
 30
0.0
 10
15.9165864489
 20
13.8413888379
 30
0.0
 10
15.9154524271
 20
13.8406292793
 30
0.0
 10
15.9144024389
 20
13.8398186092
 30
0.0
 10
15.9134392773
 20
13.8389588475
 30
0.0
 10
15.9125655191
 20
13.8380521752
 30
0.0
 10
15.9117835267
 20
13.8371009107
 30
0.0
 10
15.9110954731
 20
13.8361075054
 30
0.0
 10
15.9105032321
 20
13.8350745495
 30
0.0
 10
15.9100085615
 20
13.8340048814
 30
0.0
 10
15.9097443854
 20
13.8332683021
 30
0.0
 10
15.9096293471
 20
13.8328960583
 30
0.0
  0
SPLINE
  5
2F9
100
AcDbEntity
  8
LAYER_FEATURE
100
AcDbSpline
 62
7
  6
CONTINUOUS
 70
0
 71
3
 72
38
 73
34
 74
0
 42
0.0000001
 43
0.0000001
 44
0.0000000001
 40
0.0
 40
0.0
 40
0.0
 40
0.0
 40
0.0375948684
 40
0.0750871057
 40
0.1124294167
 40
0.1495840085
 40
0.1865138332
 40
0.2231804039
 40
0.2595463209
 40
0.2955756863
 40
0.3312336966
 40
0.3664866661
 40
0.4013025195
 40
0.4356506748
 40
0.4695024918
 40
0.5028310921
 40
0.5356119348
 40
0.5678226169
 40
0.5994434351
 40
0.6304572911
 40
0.6608501494
 40
0.6906111358
 40
0.7197328199
 40
0.7482115546
 40
0.7760475591
 40
0.8032454846
 40
0.8298143219
 40
0.8557681064
 40
0.9058948098
 40
0.9301385865
 40
0.9538757711
 40
0.977147365
 40
1.0
 40
1.0
 40
1.0
 40
1.0
 10
15.7628870037
 20
13.7759406285
 30
0.0
 10
15.7646314981
 20
13.7754740239
 30
0.0
 10
15.7681265385
 20
13.7745819828
 30
0.0
 10
15.773388988
 20
13.773367146
 30
0.0
 10
15.7786575269
 20
13.7722789849
 30
0.0
 10
15.7839235038
 20
13.7713192243
 30
0.0
 10
15.7891786635
 20
13.7704893794
 30
0.0
 10
15.794414665
 20
13.7697907504
 30
0.0
 10
15.7996231376
 20
13.7692244782
 30
0.0
 10
15.8047957795
 20
13.7687914617
 30
0.0
 10
15.8099243587
 20
13.7684923696
 30
0.0
 10
15.8150007122
 20
13.7683277172
 30
0.0
 10
15.8200167505
 20
13.7682977179
 30
0.0
 10
15.8249644917
 20
13.7684024838
 30
0.0
 10
15.8298360581
 20
13.7686417789
 30
0.0
 10
15.8346236967
 20
13.7690153033
 30
0.0
 10
15.8393197908
 20
13.7695223903
 30
0.0
 10
15.8439168658
 20
13.7701623116
 30
0.0
 10
15.8484076144
 20
13.7709339949
 30
0.0
 10
15.8527848896
 20
13.7718362721
 30
0.0
 10
15.8570417356
 20
13.7728676898
 30
0.0
 10
15.8611713825
 20
13.7740266375
 30
0.0
 10
15.8651672639
 20
13.7753113015
 30
0.0
 10
15.8690230299
 20
13.7767196348
 30
0.0
 10
15.8727325486
 20
13.7782494865
 30
0.0
 10
15.8762898854
 20
13.7798983621
 30
0.0
 10
15.87968954
 20
13.7816638897
 30
0.0
 10
15.883954559
 20
13.7841403213
 30
0.0
 10
15.8879424587
 20
13.7868640152
 30
0.0
 10
15.8916047117
 20
13.7898328285
 30
0.0
 10
15.8941390005
 20
13.7921360356
 30
0.0
 10
15.8964866034
 20
13.7945364762
 30
0.0
 10
15.8979371101
 20
13.7962134048
 30
0.0
 10
15.8986283673
 20
13.7970661055
 30
0.0
  0
SPLINE
  5
2FA
100
AcDbEntity
  8
LAYER_FEATURE
100
AcDbSpline
 62
7
  6
CONTINUOUS
 70
0
 71
3
 72
39
 73
35
 74
0
 42
0.0000001
 43
0.0000001
 44
0.0000000001
 40
0.0
 40
0.0
 40
0.0
 40
0.0
 40
0.0220303035
 40
0.0443252925
 40
0.0669772513
 40
0.0900754508
 40
0.1136981483
 40
0.1379137706
 40
0.1627807111
 40
0.1883467759
 40
0.2146495628
 40
0.2417169505
 40
0.2695675021
 40
0.2982110502
 40
0.32764945
 40
0.3578771298
 40
0.3888816272
 40
0.420644317
 40
0.4531409223
 40
0.4863419221
 40
0.5202131675
 40
0.5547163277
 40
0.5898092036
 40
0.6254462213
 40
0.661578829
 40
0.6981557627
 40
0.7351234565
 40
0.7724263666
 40
0.8100072219
 40
0.8478076167
 40
0.8857676347
 40
0.9238264387
 40
0.9619260316
 40
1.0
 40
1.0
 40
1.0
 40
1.0
 10
15.6378133802
 20
13.8949821
 30
0.0
 10
15.6375824064
 20
13.8936336675
 30
0.0
 10
15.6372326415
 20
13.8908995591
 30
0.0
 10
15.6370479595
 20
13.8867400032
 30
0.0
 10
15.6372010455
 20
13.8825127204
 30
0.0
 10
15.6376912257
 20
13.8782285063
 30
0.0
 10
15.6385170105
 20
13.8738975136
 30
0.0
 10
15.6396761255
 20
13.8695301474
 30
0.0
 10
15.6411655503
 20
13.8651367813
 30
0.0
 10
15.6429815058
 20
13.8607277987
 30
0.0
 10
15.6451194629
 20
13.8563135812
 30
0.0
 10
15.647574218
 20
13.851904527
 30
0.0
 10
15.6503398349
 20
13.8475110154
 30
0.0
 10
15.6534096403
 20
13.8431433746
 30
0.0
 10
15.6567763017
 20
13.8388119045
 30
0.0
 10
15.6604317979
 20
13.834526837
 30
0.0
 10
15.6643673966
 20
13.8302982759
 30
0.0
 10
15.6685737365
 20
13.8261362256
 30
0.0
 10
15.6730408289
 20
13.8220505595
 30
0.0
 10
15.6777580315
 20
13.8180509431
 30
0.0
 10
15.6827141249
 20
13.8141468621
 30
0.0
 10
15.6878973382
 20
13.8103476059
 30
0.0
 10
15.6932953313
 20
13.8066621866
 30
0.0
 10
15.6988952563
 20
13.803099355
 30
0.0
 10
15.7046838015
 20
13.7996676031
 30
0.0
 10
15.7106471874
 20
13.7963750888
 30
0.0
 10
15.7167712122
 20
13.7932296325
 30
0.0
 10
15.7230413038
 20
13.7902387374
 30
0.0
 10
15.7294425425
 20
13.787409521
 30
0.0
 10
15.7359596764
 20
13.7847487119
 30
0.0
 10
15.7425771536
 20
13.7822626606
 30
0.0
 10
15.7492793628
 20
13.7799572319
 30
0.0
 10
15.7560501169
 20
13.7778380362
 30
0.0
 10
15.7606029207
 20
13.7765515584
 30
0.0
 10
15.7628870037
 20
13.7759406285
 30
0.0
  0
SPLINE
  5
2FB
100
AcDbEntity
  8
LAYER_FEATURE
100
AcDbSpline
 62
7
  6
CONTINUOUS
 70
0
 71
3
 72
37
 73
33
 74
0
 42
0.0000001
 43
0.0000001
 44
0.0000000001
 40
0.0
 40
0.0
 40
0.0
 40
0.0
 40
0.021535191
 40
0.0433790903
 40
0.0656414364
 40
0.0884296482
 40
0.1000532847
 40
0.1118419844
 40
0.1359464639
 40
0.1608108257
 40
0.1864843176
 40
0.2130017702
 40
0.2403854523
 40
0.2686451272
 40
0.2977798906
 40
0.3277785064
 40
0.3586206817
 40
0.3902780163
 40
0.4227144386
 40
0.4558876471
 40
0.4897490132
 40
0.5242450808
 40
0.5593174756
 40
0.5949040085
 40
0.6309389408
 40
0.7040672284
 40
0.7781370053
 40
0.8525500054
 40
0.8896986645
 40
0.9267066188
 40
0.9635023531
 40
1.0
 40
1.0
 40
1.0
 40
1.0
 10
15.6378133802
 20
13.8949821
 30
0.0
 10
15.6378893384
 20
13.8954255461
 30
0.0
 10
15.6379995421
 20
13.8963266845
 30
0.0
 10
15.638038594
 20
13.8976993201
 30
0.0
 10
15.6379521533
 20
13.8990959949
 30
0.0
 10
15.6377770816
 20
13.9002685121
 30
0.0
 10
15.637576408
 20
13.9012128435
 30
0.0
 10
15.6373314595
 20
13.9021750926
 30
0.0
 10
15.6369463799
 20
13.9033859771
 30
0.0
 10
15.6363662321
 20
13.9048347962
 30
0.0
 10
15.6356663911
 20
13.9062858436
 30
0.0
 10
15.6348491457
 20
13.9077347621
 30
0.0
 10
15.6339169453
 20
13.9091771941
 30
0.0
 10
15.6328727086
 20
13.9106088603
 30
0.0
 10
15.6317195819
 20
13.9120254464
 30
0.0
 10
15.6304610832
 20
13.9134227116
 30
0.0
 10
15.6291010373
 20
13.9147964654
 30
0.0
 10
15.6276435402
 20
13.916142542
 30
0.0
 10
15.6260930435
 20
13.9174569274
 30
0.0
 10
15.6244542018
 20
13.9187355985
 30
0.0
 10
15.622732019
 20
13.9199747453
 30
0.0
 10
15.6209316806
 20
13.9211705731
 30
0.0
 10
15.6190586683
 20
13.922319489
 30
0.0
 10
15.6171186287
 20
13.923418017
 30
0.0
 10
15.6144375029
 20
13.9248177872
 30
0.0
 10
15.610956916
 20
13.9264185328
 30
0.0
 10
15.6066324569
 20
13.928080295
 30
0.0
 10
15.6029291889
 20
13.9292412028
 30
0.0
 10
15.5999264188
 20
13.9300285409
 30
0.0
 10
15.5976662876
 20
13.9305450111
 30
0.0
 10
15.5954041379
 20
13.9309860653
 30
0.0
 10
15.593892172
 20
13.9312301594
 30
0.0
 10
15.5931375052
 20
13.9313391327
 30
0.0
  0
SPLINE
  5
2FC
100
AcDbEntity
  8
LAYER_FEATURE
100
AcDbSpline
 62
7
  6
CONTINUOUS
 70
0
 71
3
 72
28
 73
24
 74
0
 42
0.0000001
 43
0.0000001
 44
0.0000000001
 40
0.0
 40
0.0
 40
0.0
 40
0.0
 40
0.0794848644
 40
0.1573051983
 40
0.2331826296
 40
0.3068863879
 40
0.3782072801
 40
0.4469786753
 40
0.5130786257
 40
0.5764379676
 40
0.6370483523
 40
0.6663460356
 40
0.6949858264
 40
0.7503587414
 40
0.8034064222
 40
0.8291637729
 40
0.8544651277
 40
0.8793638578
 40
0.9039180276
 40
0.9281905366
 40
0.952248132
 40
0.9761606031
 40
1.0
 40
1.0
 40
1.0
 40
1.0
 10
15.5242033357
 20
13.9399650607
 30
0.0
 10
15.5232225113
 20
13.9400687481
 30
0.0
 10
15.5212761958
 20
13.9402281076
 30
0.0
 10
15.5183830597
 20
13.9403212445
 30
0.0
 10
15.5155605436
 20
13.9402656197
 30
0.0
 10
15.5128256233
 20
13.9400616143
 30
0.0
 10
15.5101944667
 20
13.939710349
 30
0.0
 10
15.5076827422
 20
13.9392138659
 30
0.0
 10
15.5053052978
 20
13.9385749918
 30
0.0
 10
15.503076346
 20
13.9377974127
 30
0.0
 10
15.5013340603
 20
13.9370288505
 30
0.0
 10
15.5000300631
 20
13.9363470905
 30
0.0
 10
15.4988148143
 20
13.9356391297
 30
0.0
 10
15.4974072827
 20
13.9346793037
 30
0.0
 10
15.496134539
 20
13.9336002989
 30
0.0
 10
15.4952241901
 20
13.9326828712
 30
0.0
 10
15.4946005555
 20
13.9319753951
 30
0.0
 10
15.4940303949
 20
13.9312429782
 30
0.0
 10
15.4935146146
 20
13.9304866634
 30
0.0
 10
15.493054014
 20
13.9297076139
 30
0.0
 10
15.492649286
 20
13.9289070073
 30
0.0
 10
15.4923011391
 20
13.9280860916
 30
0.0
 10
15.4921069437
 20
13.9275257224
 30
0.0
 10
15.4920196027
 20
13.9272430988
 30
0.0
  0
SPLINE
  5
2FD
100
AcDbEntity
  8
LAYER_FEATURE
100
AcDbSpline
 62
7
  6
CONTINUOUS
 70
0
 71
3
 72
15
 73
11
 74
0
 42
0.0000001
 43
0.0000001
 44
0.0000000001
 40
0.0
 40
0.0
 40
0.0
 40
0.0
 40
0.134923244
 40
0.2673652996
 40
0.3971083547
 40
0.5239826091
 40
0.6478272652
 40
0.7685095564
 40
0.885925164
 40
1.0
 40
1.0
 40
1.0
 40
1.0
 10
15.4112049197
 20
13.8202335757
 30
0.0
 10
15.4134748469
 20
13.8201800991
 30
0.0
 10
15.4179752987
 20
13.8201538862
 30
0.0
 10
15.4246563039
 20
13.8203624319
 30
0.0
 10
15.4311893848
 20
13.8208186973
 30
0.0
 10
15.4375551415
 20
13.8215212739
 30
0.0
 10
15.4437350763
 20
13.8224681941
 30
0.0
 10
15.4497111212
 20
13.8236567213
 30
0.0
 10
15.4554655991
 20
13.8250833515
 30
0.0
 10
15.4591977683
 20
13.826206988
 30
0.0
 10
15.461020609
 20
13.8268090979
 30
0.0
  0
SPLINE
  5
2FE
100
AcDbEntity
  8
LAYER_FEATURE
100
AcDbSpline
 62
7
  6
CONTINUOUS
 70
0
 71
3
 72
39
 73
35
 74
0
 42
0.0000001
 43
0.0000001
 44
0.0000000001
 40
0.0
 40
0.0
 40
0.0
 40
0.0
 40
0.0237511746
 40
0.0481946586
 40
0.0733435769
 40
0.0992083575
 40
0.1257900781
 40
0.1530832463
 40
0.181076593
 40
0.2097530509
 40
0.2390904558
 40
0.2690620866
 40
0.2996369806
 40
0.3307803498
 40
0.3624540533
 40
0.3946168911
 40
0.4272249071
 40
0.4602318019
 40
0.4935892014
 40
0.5272469081
 40
0.561153257
 40
0.5952553717
 40
0.6294994028
 40
0.6638308401
 40
0.6981947582
 40
0.7325360615
 40
0.7667997906
 40
0.8009313262
 40
0.8348766461
 40
0.8685828505
 40
0.9019977929
 40
0.9350706372
 40
0.9677551089
 40
1.0
 40
1.0
 40
1.0
 40
1.0
 10
15.2365992384
 20
13.9129983538
 30
0.0
 10
15.237270273
 20
13.9115071698
 30
0.0
 10
15.2387246258
 20
13.9085222835
 30
0.0
 10
15.2411918496
 20
13.9041137747
 30
0.0
 10
15.2439698247
 20
13.8997210216
 30
0.0
 10
15.2470516518
 20
13.8953546644
 30
0.0
 10
15.2504300431
 20
13.8910248555
 30
0.0
 10
15.2540969138
 20
13.8867418448
 30
0.0
 10
15.2580435388
 20
13.8825157585
 30
0.0
 10
15.2622605258
 20
13.8783565887
 30
0.0
 10
15.2667378287
 20
13.8742741712
 30
0.0
 10
15.2714648133
 20
13.8702781966
 30
0.0
 10
15.2764302412
 20
13.8663781496
 30
0.0
 10
15.2816222874
 20
13.8625832709
 30
0.0
 10
15.2870286099
 20
13.8589025854
 30
0.0
 10
15.2926363553
 20
13.8553448553
 30
0.0
 10
15.2984321659
 20
13.8519185198
 30
0.0
 10
15.3044022518
 20
13.8486317331
 30
0.0
 10
15.3105324136
 20
13.845492336
 30
0.0
 10
15.3168080475
 20
13.8425077807
 30
0.0
 10
15.323214212
 20
13.8396851692
 30
0.0
 10
15.3297356636
 20
13.8370312437
 30
0.0
 10
15.3363568674
 20
13.8345523094
 30
0.0
 10
15.3430620532
 20
13.8322542596
 30
0.0
 10
15.3498352605
 20
13.8301425874
 30
0.0
 10
15.3566603578
 20
13.8282223159
 30
0.0
 10
15.3635210877
 20
13.8264980024
 30
0.0
 10
15.3704011147
 20
13.82497377
 30
0.0
 10
15.3772840637
 20
13.8236532479
 30
0.0
 10
15.384153539
 20
13.8225395708
 30
0.0
 10
15.3909931501
 20
13.8216353967
 30
0.0
 10
15.3977867674
 20
13.820942859
 30
0.0
 10
15.4045179658
 20
13.8204636747
 30
0.0
 10
15.4089855518
 20
13.8202858613
 30
0.0
 10
15.4112049197
 20
13.8202335757
 30
0.0
  0
SPLINE
  5
2FF
100
AcDbEntity
  8
LAYER_FEATURE
100
AcDbSpline
 62
7
  6
CONTINUOUS
 70
0
 71
3
 72
36
 73
32
 74
0
 42
0.0000001
 43
0.0000001
 44
0.0000000001
 40
0.0
 40
0.0
 40
0.0
 40
0.0
 40
0.0238239228
 40
0.0484363539
 40
0.0738484184
 40
0.1000700399
 40
0.1271005478
 40
0.1549278452
 40
0.183531938
 40
0.2128859704
 40
0.2429557765
 40
0.2737015247
 40
0.3050776698
 40
0.3370342169
 40
0.3695167745
 40
0.4024673837
 40
0.435824977
 40
0.4695257285
 40
0.5035037796
 40
0.5376913791
 40
0.572019633
 40
0.6064186742
 40
0.6751396118
 40
0.7433031665
 40
0.8103631721
 40
0.8433209853
 40
0.8758116639
 40
0.9077762322
 40
0.9391622126
 40
0.9699219759
 40
1.0
 40
1.0
 40
1.0
 40
1.0
 10
15.2365992384
 20
13.9129983538
 30
0.0
 10
15.2363782935
 20
13.9134893412
 30
0.0
 10
15.2358944627
 20
13.9144723005
 30
0.0
 10
15.2350631929
 20
13.9159206335
 30
0.0
 10
15.234117219
 20
13.9173620481
 30
0.0
 10
15.2330596015
 20
13.9187920884
 30
0.0
 10
15.231893526
 20
13.9202065609
 30
0.0
 10
15.2306225037
 20
13.9216011977
 30
0.0
 10
15.2292504238
 20
13.9229718215
 30
0.0
 10
15.2277814102
 20
13.9243142649
 30
0.0
 10
15.226219953
 20
13.925624535
 30
0.0
 10
15.2245707397
 20
13.9268986183
 30
0.0
 10
15.2228388001
 20
13.9281327102
 30
0.0
 10
15.2210293611
 20
13.9293230459
 30
0.0
 10
15.2191479136
 20
13.9304660327
 30
0.0
 10
15.217200166
 20
13.9315582179
 30
0.0
 10
15.2151920084
 20
13.9325962609
 30
0.0
 10
15.2131295532
 20
13.9335770606
 30
0.0
 10
15.2110190293
 20
13.9344975877
 30
0.0
 10
15.2088668696
 20
13.9353551025
 30
0.0
 10
15.2066795563
 20
13.9361469692
 30
0.0
 10
15.2037264431
 20
13.9371116521
 30
0.0
 10
15.1999914754
 20
13.9381392964
 30
0.0
 10
15.1954760675
 20
13.9390784337
 30
0.0
 10
15.1917094062
 20
13.9396094973
 30
0.0
 10
15.1887261144
 20
13.9398755273
 30
0.0
 10
15.1865273632
 20
13.9399945349
 30
0.0
 10
15.1843612765
 20
13.9400338446
 30
0.0
 10
15.1822342922
 20
13.9399933174
 30
0.0
 10
15.1801530404
 20
13.9398730222
 30
0.0
 10
15.1787842725
 20
13.9397384059
 30
0.0
 10
15.1781093645
 20
13.9396574181
 30
0.0
  0
SPLINE
  5
300
100
AcDbEntity
  8
LAYER_FEATURE
100
AcDbSpline
 62
7
  6
CONTINUOUS
 70
0
 71
3
 72
23
 73
19
 74
0
 42
0.0000001
 43
0.0000001
 44
0.0000000001
 40
0.0
 40
0.0
 40
0.0
 40
0.0
 40
0.0764111717
 40
0.1508372904
 40
0.2232042801
 40
0.2934907318
 40
0.3616957891
 40
0.4278353564
 40
0.4919526243
 40
0.5541198829
 40
0.6144394891
 40
0.6730438656
 40
0.7300986109
 40
0.7858002194
 40
0.8403762266
 40
0.8940808607
 40
0.9471911182
 40
1.0
 40
1.0
 40
1.0
 40
1.0
 10
15.1177314618
 20
13.9309165446
 30
0.0
 10
15.1171547636
 20
13.9308182525
 30
0.0
 10
15.1160202905
 20
13.9306000336
 30
0.0
 10
15.1143578805
 20
13.9302016806
 30
0.0
 10
15.1127613294
 20
13.9297374778
 30
0.0
 10
15.1112352233
 20
13.9292087885
 30
0.0
 10
15.1097837341
 20
13.9286170283
 30
0.0
 10
15.1084108995
 20
13.927963791
 30
0.0
 10
15.1071205719
 20
13.9272508514
 30
0.0
 10
15.105916387
 20
13.9264801092
 30
0.0
 10
15.1048017094
 20
13.9256536877
 30
0.0
 10
15.1037797586
 20
13.9247737542
 30
0.0
 10
15.1028534244
 20
13.9238427645
 30
0.0
 10
15.1020254747
 20
13.922863199
 30
0.0
 10
15.101298306
 20
13.9218378418
 30
0.0
 10
15.1006741553
 20
13.9207695017
 30
0.0
 10
15.1001549132
 20
13.9196614017
 30
0.0
 10
15.0998794109
 20
13.9188972506
 30
0.0
 10
15.0997600339
 20
13.9185109638
 30
0.0
  0
SPLINE
  5
301
100
AcDbEntity
  8
LAYER_FEATURE
100
AcDbSpline
 62
7
  6
CONTINUOUS
 70
0
 71
3
 72
29
 73
25
 74
0
 42
0.0000001
 43
0.0000001
 44
0.0000000001
 40
0.0
 40
0.0
 40
0.0
 40
0.0
 40
0.027783705
 40
0.056025289
 40
0.0847040824
 40
0.11380332
 40
0.143305617
 40
0.1731905943
 40
0.2034366704
 40
0.2340213829
 40
0.2649213598
 40
0.2961120782
 40
0.3275682583
 40
0.3592638017
 40
0.423261722
 40
0.4878891539
 40
0.5529186369
 40
0.6181184012
 40
0.683254869
 40
0.7480951333
 40
0.8124094456
 40
0.8759737372
 40
0.9385722072
 40
1.0
 40
1.0
 40
1.0
 40
1.0
 10
14.9054388717
 20
13.8283061165
 30
0.0
 10
14.9065340046
 20
13.827270339
 30
0.0
 10
14.908773288
 20
13.825214215
 30
0.0
 10
14.912245295
 20
13.8222027442
 30
0.0
 10
14.9158538222
 20
13.8192424036
 30
0.0
 10
14.9195938505
 20
13.8163372183
 30
0.0
 10
14.9234605012
 20
13.8134910193
 30
0.0
 10
14.9274486231
 20
13.810707522
 30
0.0
 10
14.9315529251
 20
13.8079905077
 30
0.0
 10
14.9357679005
 20
13.8053435453
 30
0.0
 10
14.9400879678
 20
13.8027701987
 30
0.0
 10
14.9445073455
 20
13.8002738556
 30
0.0
 10
14.9490201903
 20
13.7978578654
 30
0.0
 10
14.9551732829
 20
13.7947381213
 30
0.0
 10
14.9630595043
 20
13.79106191
 30
0.0
 10
14.9727665392
 20
13.7870340025
 30
0.0
 10
14.9826961585
 20
13.7833968131
 30
0.0
 10
14.9927954691
 20
13.7801697214
 30
0.0
 10
15.0030108368
 20
13.777369862
 30
0.0
 10
15.0132879753
 20
13.7750121164
 30
0.0
 10
15.0235722595
 20
13.7731090116
 30
0.0
 10
15.0338091471
 20
13.7716706556
 30
0.0
 10
15.0439439645
 20
13.7707047028
 30
0.0
 10
15.0506677453
 20
13.7703756253
 30
0.0
 10
15.0539994147
 20
13.7702936338
 30
0.0
  0
SPLINE
  5
302
100
AcDbEntity
  8
LAYER_FEATURE
100
AcDbSpline
 62
7
  6
CONTINUOUS
 70
0
 71
3
 72
36
 73
32
 74
0
 42
0.0000001
 43
0.0000001
 44
0.0000000001
 40
0.0
 40
0.0
 40
0.0
 40
0.0
 40
0.0292924898
 40
0.0592991205
 40
0.0899696283
 40
0.1212607594
 40
0.1531239533
 40
0.1855037708
 40
0.251567878
 40
0.3189650547
 40
0.3871624125
 40
0.4213931679
 40
0.4556160232
 40
0.4897610694
 40
0.5237589599
 40
0.557541132
 40
0.5910404777
 40
0.6241915391
 40
0.6569311621
 40
0.6891988641
 40
0.7209372548
 40
0.7520928285
 40
0.7826160117
 40
0.8124623453
 40
0.8415924404
 40
0.8699735365
 40
0.8975790137
 40
0.9243893528
 40
0.9503956947
 40
0.975598923
 40
1.0
 40
1.0
 40
1.0
 40
1.0
 10
14.9054388717
 20
13.8283061165
 30
0.0
 10
14.9049554988
 20
13.828763291
 30
0.0
 10
14.90395613
 20
13.8296669844
 30
0.0
 10
14.9023838113
 20
13.8309730846
 30
0.0
 10
14.9007242424
 20
13.8322425687
 30
0.0
 10
14.8989826332
 20
13.8334715267
 30
0.0
 10
14.8971641711
 20
13.8346563279
 30
0.0
 10
14.8946276622
 20
13.8361824191
 30
0.0
 10
14.8912999525
 20
13.837954146
 30
0.0
 10
14.8871209374
 20
13.8398364036
 30
0.0
 10
14.8835071656
 20
13.8411933019
 30
0.0
 10
14.8805527634
 20
13.8421459323
 30
0.0
 10
14.8783130244
 20
13.8427908826
 30
0.0
 10
14.8760591563
 20
13.8433633615
 30
0.0
 10
14.8737979774
 20
13.8438616876
 30
0.0
 10
14.8715363426
 20
13.8442842886
 30
0.0
 10
14.8692811223
 20
13.8446299421
 30
0.0
 10
14.8670391479
 20
13.8448975494
 30
0.0
 10
14.8648172228
 20
13.8450863316
 30
0.0
 10
14.8626220817
 20
13.8451957043
 30
0.0
 10
14.8604603762
 20
13.8452253209
 30
0.0
 10
14.858338657
 20
13.8451751254
 30
0.0
 10
14.856263349
 20
13.8450452083
 30
0.0
 10
14.854240734
 20
13.8448360255
 30
0.0
 10
14.8522769303
 20
13.8445481329
 30
0.0
 10
14.8503778728
 20
13.8441824379
 30
0.0
 10
14.8485493201
 20
13.8437399949
 30
0.0
 10
14.846796785
 20
13.8432221499
 30
0.0
 10
14.8451254782
 20
13.8426303837
 30
0.0
 10
14.8435406633
 20
13.8419664516
 30
0.0
 10
14.8425287245
 20
13.8414691431
 30
0.0
 10
14.842039552
 20
13.8412086115
 30
0.0
  0
ENDSEC
  0
SECTION
  2
OBJECTS
  0
DICTIONARY
  5
C
100
AcDbDictionary
280
0
281
1
  3
ACAD_GROUP
350
D
  3
ACAD_MLINESTYLE
350
17
  3
ACAD_LAYOUT
350
1A
  3
ACAD_PLOTSETTINGS
350
19
  3
ACAD_PLOTSTYLENAME
350
E
  0
DICTIONARY
  5
D
102
{ACAD_REACTORS
330
C
102
}
100
AcDbDictionary
280
0
281
1
  0
ACDBDICTIONARYWDFLT
  5
E
102
{ACAD_REACTORS
330
C
102
}
100
AcDbDictionary
281
1
  3
Normal
350
F
100
AcDbDictionaryWithDefault
340
F
  0
DICTIONARY
  5
17
102
{ACAD_REACTORS
330
C
102
}
100
AcDbDictionary
280
0
281
1
  3
Standard
350
18
  0
DICTIONARY
  5
19
102
{ACAD_REACTORS
330
C
102
}
100
AcDbDictionary
281
1
  0
DICTIONARY
  5
1A
102
{ACAD_REACTORS
330
C
102
}
100
AcDbDictionary
281
1
  3
Model
350
303
  3
Layout1
350
304
  0
ACDBPLACEHOLDER
  5
F
102
{ACAD_REACTORS
330
E
102
}
  0
MLINESTYLE
  5
18
102
{ACAD_REACTORS
330
17
102
}
100
AcDbMlineStyle
  2
STANDARD
 70
0
  3

 62
256
 51
90.0
 52
90.0
 71
2
 49
0.5
 62
256
  6
BYLAYER
 49
-0.5
 62
256
  6
BYLAYER
  0
LAYOUT
  5
303
102
{ACAD_REACTORS
330
1A
102
}
100
AcDbPlotSettings
  1

  2
none_device
  4
ANSI_C_(22.00_x_17.00_Inches)
  6

 40
0.0
 41
0.0
 42
0.0
 43
0.0
 44
558.8
 45
431.8
 46
0.0
 47
0.0
 48
0.0
 49
0.0
140
0.0
141
0.0
142
1.0
143
1.0
 70
1024
 72
0
 73
0
 74
0
  7

 75
0
147
1.0
148
0.0
149
0.0
100
AcDbLayout
  1
Model
 70
0
 71
0
 10
0.0
 20
0.0
 11
22.0
 21
17.0
 12
0.0
 22
0.0
 32
0.0
 14
0.0
 24
0.0
 34
0.0
 15
0.0
 25
0.0
 35
0.0
146
0.0
 13
0.0
 23
0.0
 33
0.0
 16
1.0
 26
0.0
 36
0.0
 17
0.0
 27
1.0
 37
0.0
 76
0
330
221
345
0
346
0
  0
LAYOUT
  5
304
102
{ACAD_REACTORS
330
1A
102
}
100
AcDbPlotSettings
  1

  2
none_device
  4
ANSI_C_(22.00_x_17.00_Inches)
  6

 40
0.0
 41
0.0
 42
0.0
 43
0.0
 44
558.8
 45
431.8
 46
0.0
 47
0.0
 48
0.0
 49
0.0
140
0.0
141
0.0
142
1.0
143
1.0
 70
0
 72
0
 73
0
 74
0
  7

 75
0
147
1.0
148
0.0
149
0.0
100
AcDbLayout
  1
Layout1
 70
0
 71
1
 10
0.0
 20
0.0
 11
22.0
 21
17.0
 12
0.0
 22
0.0
 32
0.0
 14
0.0
 24
0.0
 34
0.0
 15
0.0
 25
0.0
 35
0.0
146
0.0
 13
0.0
 23
0.0
 33
0.0
 16
1.0
 26
0.0
 36
0.0
 17
0.0
 27
1.0
 37
0.0
 76
0
330
222
345
0
346
0
  0
ENDSEC
  0
EOF