999
DXF file: _cgs_temp_output.dxf
999
Pro/ENGINEER 2016360 by Parametric Technology Corporation
  0
SECTION
  2
HEADER
  9
$ACADVER
  1
AC1021
  9
$DWGCODEPAGE
  3
ANSI_1252
  9
$EXTMAX
 10
22.0
 20
17.0
 30
0.0
  9
$EXTMIN
 10
0.0
 20
0.0
 30
0.0
  9
$LIMMIN
 10
0.0
 20
0.0
  9
$LIMMAX
 10
22.0
 20
17.0
  9
$VIEWCTR
 10
11.0
 20
8.5
  9
$VIEWSIZE
 40
17.0
  9
$CLAYER
  8
0
  9
$LTSCALE
 40
1.21
  9
$CELTYPE
  6
BYLAYER
  9
$DIMSCALE
 40
1.0
  9
$DIMASZ
 40
0.1875
  9
$DIMEXO
 40
0.0625
  9
$DIMDLI
 40
0.836
  9
$DIMEXE
 40
0.125
  9
$DIMCEN
 40
0.198
  9
$DIMLFAC
 40
1.0
  9
$DIMBLK
  1
_CLOSED
  9
$DIMALT
 70
0
  9
$DIMALTF
 40
25.4
  9
$DIMTXT
 40
0.15625
  9
$DIMTOL
 70
0
  9
$DIMLIM
 70
0
  9
$DIMTFAC
 40
1.0
  9
$DIMGAP
 40
0.09
  9
$DIMDSEP
 70
46
  9
$AUNITS
 70
0
  9
$PDMODE
 70
3
  9
$PDSIZE
 40
0.3125
  9
$HANDSEED
  5
311
  9
$TILEMODE
 70
1
  9
$MEASUREMENT
 70
0
  9
$INSUNITS
 70
1
  0
ENDSEC
  0
SECTION
  2
CLASSES
  0
CLASS
  1
ACDBDICTIONARYWDFLT
  2
AcDbDictionaryWithDefault
  3
AutoCAD 2000
 90
0
 91
1
280
0
281
0
  0
CLASS
  1
ACDBPLACEHOLDER
  2
AcDbPlaceHolder
  3
AutoCAD 2000
 90
0
 91
1
280
0
281
0
  0
CLASS
  1
LAYOUT
  2
AcDbLayout
  3
AutoCAD 2000
 90
0
 91
0
280
0
281
0
  0
ENDSEC
  0
SECTION
  2
TABLES
  0
TABLE
  2
VPORT
  5
8
100
AcDbSymbolTable
 70
2
  0
VPORT
  5
1F4
100
AcDbSymbolTableRecord
100
AcDbViewportTableRecord
  2
*ACTIVE
 70
0
 10
0.0
 20
0.0
 11
1.0
 21
1.0
 12
11.0
 22
8.5
 13
0.0
 23
0.0
 14
1.0
 24
1.0
 15
0.0
 25
0.0
 16
0.0
 26
0.0
 36
1.0
 17
0.0
 27
0.0
 37
0.0
 40
17.0
 41
1.2941176471
 42
50.0
 43
0.0
 44
0.0
 50
0.0
 51
0.0
 71
0
 72
100
 73
1
 74
1
 75
0
 76
0
 77
0
 78
0
  0
ENDTAB
  0
TABLE
  2
LTYPE
  5
5
100
AcDbSymbolTable
 70
6
  0
LTYPE
  5
14
100
AcDbSymbolTableRecord
100
AcDbLinetypeTableRecord
  2
BYBLOCK
 70
0
  3

 72
65
 73
0
 40
0.0
  0
LTYPE
  5
15
100
AcDbSymbolTableRecord
100
AcDbLinetypeTableRecord
  2
BYLAYER
 70
0
  3

 72
65
 73
0
 40
0.0
  0
LTYPE
  5
16
100
AcDbSymbolTableRecord
100
AcDbLinetypeTableRecord
  2
CONTINUOUS
 70
64
  3
Solid line
 72
65
 73
0
 40
0.0
  0
LTYPE
  5
1F5
100
AcDbSymbolTableRecord
100
AcDbLinetypeTableRecord
  2
CENTER
 70
64
  3
____ _ ____ _ ____ _ ____ _ ____ _ ____ _ ____
 72
65
 73
4
 40
0.6
 49
0.375
 74
0
 49
-0.075
 74
0
 49
0.075
 74
0
 49
-0.075
 74
0
  0
LTYPE
  5
1F6
100
AcDbSymbolTableRecord
100
AcDbLinetypeTableRecord
  2
HIDDEN
 70
64
  3
- - - - - - - - - - - - - - - - - - - -
 72
65
 73
2
 40
0.2
 49
0.1
 74
0
 49
-0.1
 74
0
  0
LTYPE
  5
1F7
100
AcDbSymbolTableRecord
100
AcDbLinetypeTableRecord
  2
PHANTOM
 70
64
  3
_____ _ _ _____ _ _ _____ _ _ _____
 72
65
 73
6
 40
0.8
 49
0.45
 74
0
 49
-0.05
 74
0
 49
0.1
 74
0
 49
-0.05
 74
0
 49
0.1
 74
0
 49
-0.05
 74
0
  0
LTYPE
  5
1F8
100
AcDbSymbolTableRecord
100
AcDbLinetypeTableRecord
  2
DOT
 70
64
  3
. . . . . . . . . . . . . . . . . . . .
 72
65
 73
2
 40
0.2
 49
0.1
 74
0
 49
-0.1
 74
0
  0
LTYPE
  5
1F9
100
AcDbSymbolTableRecord
100
AcDbLinetypeTableRecord
  2
DASHED
 70
64
  3
- - - - - - - - - - - - - - - - - - - -
 72
65
 73
2
 40
0.2
 49
0.1
 74
0
 49
-0.1
 74
0
  0
ENDTAB
  0
TABLE
  2
LAYER
  5
2
100
AcDbSymbolTable
 70
36
  0
LAYER
  5
10
100
AcDbSymbolTableRecord
100
AcDbLayerTableRecord
  2
0
 70
0
 62
7
  6
CONTINUOUS
370
-3
390
F
  0
LAYER
  5
1FA
100
AcDbSymbolTableRecord
100
AcDbLayerTableRecord
  2
DEFAULT_1
 70
0
 62
7
  6
CENTER
370
-3
390
F
  0
LAYER
  5
1FB
100
AcDbSymbolTableRecord
100
AcDbLayerTableRecord
  2
DEFAULT_2
 70
0
 62
8
  6
HIDDEN
370
-3
390
F
  0
LAYER
  5
1FC
100
AcDbSymbolTableRecord
100
AcDbLayerTableRecord
  2
DEFAULT_3
 70
0
 62
7
  6
PHANTOM
370
-3
390
F
  0
LAYER
  5
1FD
100
AcDbSymbolTableRecord
100
AcDbLayerTableRecord
  2
01_ALL_DTM_PLN
 70
0
 62
7
  6
CONTINUOUS
370
-3
390
F
  0
LAYER
  5
1FE
100
AcDbSymbolTableRecord
100
AcDbLayerTableRecord
  2
01__ASM_ALL_DTM_PLN
 70
0
 62
7
  6
CONTINUOUS
370
-3
390
F
  0
LAYER
  5
1FF
100
AcDbSymbolTableRecord
100
AcDbLayerTableRecord
  2
01__ASM_DEF_DTM_PLN
 70
0
 62
7
  6
CONTINUOUS
370
-3
390
F
  0
LAYER
  5
200
100
AcDbSymbolTableRecord
100
AcDbLayerTableRecord
  2
01___PRT_ALL_DTM_PLN
 70
0
 62
7
  6
CONTINUOUS
370
-3
390
F
  0
LAYER
  5
201
100
AcDbSymbolTableRecord
100
AcDbLayerTableRecord
  2
01___PRT_DEF_DTM_PLN
 70
0
 62
7
  6
CONTINUOUS
370
-3
390
F
  0
LAYER
  5
202
100
AcDbSymbolTableRecord
100
AcDbLayerTableRecord
  2
02_ALL_AXES
 70
0
 62
7
  6
CONTINUOUS
370
-3
390
F
  0
LAYER
  5
203
100
AcDbSymbolTableRecord
100
AcDbLayerTableRecord
  2
02__ASM_ALL_AXES
 70
0
 62
7
  6
CONTINUOUS
370
-3
390
F
  0
LAYER
  5
204
100
AcDbSymbolTableRecord
100
AcDbLayerTableRecord
  2
02___PRT_ALL_AXES
 70
0
 62
7
  6
CONTINUOUS
370
-3
390
F
  0
LAYER
  5
205
100
AcDbSymbolTableRecord
100
AcDbLayerTableRecord
  2
03_ALL_CURVES
 70
0
 62
7
  6
CONTINUOUS
370
-3
390
F
  0
LAYER
  5
206
100
AcDbSymbolTableRecord
100
AcDbLayerTableRecord
  2
03__ASM_ALL_CURVES
 70
0
 62
7
  6
CONTINUOUS
370
-3
390
F
  0
LAYER
  5
207
100
AcDbSymbolTableRecord
100
AcDbLayerTableRecord
  2
03___PRT_ALL_CURVES
 70
0
 62
7
  6
CONTINUOUS
370
-3
390
F
  0
LAYER
  5
208
100
AcDbSymbolTableRecord
100
AcDbLayerTableRecord
  2
04_ALL_DTM_PNT
 70
0
 62
7
  6
CONTINUOUS
370
-3
390
F
  0
LAYER
  5
209
100
AcDbSymbolTableRecord
100
AcDbLayerTableRecord
  2
04__ASM_ALL_DTM_PNT
 70
0
 62
7
  6
CONTINUOUS
370
-3
390
F
  0
LAYER
  5
20A
100
AcDbSymbolTableRecord
100
AcDbLayerTableRecord
  2
04___PRT_ALL_DTM_PNT
 70
0
 62
7
  6
CONTINUOUS
370
-3
390
F
  0
LAYER
  5
20B
100
AcDbSymbolTableRecord
100
AcDbLayerTableRecord
  2
05_ALL_DTM_CSYS
 70
0
 62
7
  6
CONTINUOUS
370
-3
390
F
  0
LAYER
  5
20C
100
AcDbSymbolTableRecord
100
AcDbLayerTableRecord
  2
05__ASM_ALL_DTM_CSYS
 70
0
 62
7
  6
CONTINUOUS
370
-3
390
F
  0
LAYER
  5
20D
100
AcDbSymbolTableRecord
100
AcDbLayerTableRecord
  2
05__ASM_DEF_DTM_CSYS
 70
0
 62
7
  6
CONTINUOUS
370
-3
390
F
  0
LAYER
  5
20E
100
AcDbSymbolTableRecord
100
AcDbLayerTableRecord
  2
05___PRT_ALL_DTM_CSYS
 70
0
 62
7
  6
CONTINUOUS
370
-3
390
F
  0
LAYER
  5
20F
100
AcDbSymbolTableRecord
100
AcDbLayerTableRecord
  2
05___PRT_DEF_DTM_CSYS
 70
0
 62
7
  6
CONTINUOUS
370
-3
390
F
  0
LAYER
  5
210
100
AcDbSymbolTableRecord
100
AcDbLayerTableRecord
  2
06_ALL_SURFS
 70
0
 62
7
  6
CONTINUOUS
370
-3
390
F
  0
LAYER
  5
211
100
AcDbSymbolTableRecord
100
AcDbLayerTableRecord
  2
06__ASM_ALL_SURFS
 70
0
 62
7
  6
CONTINUOUS
370
-3
390
F
  0
LAYER
  5
212
100
AcDbSymbolTableRecord
100
AcDbLayerTableRecord
  2
06___PRT_ALL_SURFS
 70
0
 62
7
  6
CONTINUOUS
370
-3
390
F
  0
LAYER
  5
213
100
AcDbSymbolTableRecord
100
AcDbLayerTableRecord
  2
07__ASM_ALL_SKELETONS
 70
0
 62
7
  6
CONTINUOUS
370
-3
390
F
  0
LAYER
  5
214
100
AcDbSymbolTableRecord
100
AcDbLayerTableRecord
  2
LAYER_AXIS
 70
0
 62
7
  6
CONTINUOUS
370
-3
390
F
  0
LAYER
  5
215
100
AcDbSymbolTableRecord
100
AcDbLayerTableRecord
  2
LAYER_CHAMFER_FEAT
 70
0
 62
7
  6
CONTINUOUS
370
-3
390
F
  0
LAYER
  5
216
100
AcDbSymbolTableRecord
100
AcDbLayerTableRecord
  2
LAYER_CUT_FEAT
 70
0
 62
7
  6
CONTINUOUS
370
-3
390
F
  0
LAYER
  5
217
100
AcDbSymbolTableRecord
100
AcDbLayerTableRecord
  2
LAYER_DATUM
 70
0
 62
7
  6
CONTINUOUS
370
-3
390
F
  0
LAYER
  5
218
100
AcDbSymbolTableRecord
100
AcDbLayerTableRecord
  2
LAYER_DIM
 70
0
 62
7
  6
CONTINUOUS
370
-3
390
F
  0
LAYER
  5
219
100
AcDbSymbolTableRecord
100
AcDbLayerTableRecord
  2
LAYER_FEATURE
 70
0
 62
7
  6
CONTINUOUS
370
-3
390
F
  0
LAYER
  5
21A
100
AcDbSymbolTableRecord
100
AcDbLayerTableRecord
  2
LAYER_GEOM_FEAT
 70
0
 62
7
  6
CONTINUOUS
370
-3
390
F
  0
LAYER
  5
21B
100
AcDbSymbolTableRecord
100
AcDbLayerTableRecord
  2
LAYER_NOGEOM_FEAT
 70
0
 62
7
  6
CONTINUOUS
370
-3
390
F
  0
LAYER
  5
21C
100
AcDbSymbolTableRecord
100
AcDbLayerTableRecord
  2
LAYER_PARAMETER_DIM
 70
0
 62
7
  6
CONTINUOUS
370
-3
390
F
  0
LAYER
  5
21D
100
AcDbSymbolTableRecord
100
AcDbLayerTableRecord
  2
LAYER_PROTRUSION_FEAT
 70
0
 62
7
  6
CONTINUOUS
370
-3
390
F
  0
LAYER
  5
21E
100
AcDbSymbolTableRecord
100
AcDbLayerTableRecord
  2
LAYER_QUILT
 70
0
 62
7
  6
CONTINUOUS
370
-3
390
F
  0
LAYER
  5
21F
100
AcDbSymbolTableRecord
100
AcDbLayerTableRecord
  2
LAYER_ROUND_FEAT
 70
0
 62
7
  6
CONTINUOUS
370
-3
390
F
  0
ENDTAB
  0
TABLE
  2
STYLE
  5
3
100
AcDbSymbolTable
 70
1
  0
STYLE
  5
11
100
AcDbSymbolTableRecord
100
AcDbTextStyleTableRecord
  2
STANDARD
 70
0
 40
0.0
 41
0.8
 50
0.0
 71
0
 42
0.2
  3
txt
  4

  0
STYLE
  5
220
100
AcDbSymbolTableRecord
100
AcDbTextStyleTableRecord
  2
TEXTSTYLE_1
 70
0
 40
0.0
 41
0.8
 50
0.0
 71
0
 42
0.2
  3
gdt
  4

  0
ENDTAB
  0
TABLE
  2
VIEW
  5
6
100
AcDbSymbolTable
 70
0
  0
ENDTAB
  0
TABLE
  2
UCS
  5
7
100
AcDbSymbolTable
 70
0
  0
ENDTAB
  0
TABLE
  2
APPID
  5
9
100
AcDbSymbolTable
 70
1
  0
APPID
  5
221
100
AcDbSymbolTableRecord
100
AcDbRegAppTableRecord
  2
ACAD
 70
0
  0
ENDTAB
  0
TABLE
  2
BLOCK_RECORD
  5
1
100
AcDbSymbolTable
 70
0
  0
BLOCK_RECORD
  5
222
100
AcDbSymbolTableRecord
100
AcDbBlockTableRecord
  2
*Model_Space
  0
BLOCK_RECORD
  5
223
100
AcDbSymbolTableRecord
100
AcDbBlockTableRecord
  2
*Paper_Space
  0
ENDTAB
  0
TABLE
  2
DIMSTYLE
  5
A
100
AcDbSymbolTable
 70
1
100
AcDbDimStyleTable
 71
0
  0
DIMSTYLE
105
224
100
AcDbSymbolTableRecord
100
AcDbDimStyleTableRecord
  2
STANDARD
 70
0
  3

  4

 40
1.0
 41
0.1875
 42
0.0625
 43
0.38
 44
0.125
 45
0.0
 46
0.0
 47
0.0001
 48
0.0001
140
0.15625
141
0.09
142
0.0
143
25.4
144
1.0
145
0.0
146
1.0
147
0.09
 71
0.0
 72
0.0
 73
1
 74
1
 75
0
 76
0
 77
0
 78
4
 79
1
170
0
171
3
172
0
173
0
174
0
175
0
176
0
177
0
178
0
270
2
179
4
271
4
272
4
273
2
274
2
275
0
280
0
281
0
282
0
283
1
284
4
285
0
286
0
287
3
288
0
340
11
278
46
  0
ENDTAB
  0
ENDSEC
  0
SECTION
  2
BLOCKS
  0
BLOCK
  5
20
100
AcDbEntity
  8
0
100
AcDbBlockBegin
  2
*Model_Space
 70
0
 10
0.0
 20
0.0
 30
0.0
  3
*Model_Space
  1

  0
ENDBLK
  5
21
100
AcDbEntity
  8
0
100
AcDbBlockEnd
  0
BLOCK
  5
1C
100
AcDbEntity
  8
0
100
AcDbBlockBegin
  2
*Paper_Space
 70
0
 10
0.0
 20
0.0
 30
0.0
  3
*Paper_Space
  1

  0
ENDBLK
  5
1D
100
AcDbEntity
  8
0
100
AcDbBlockEnd
  0
ENDSEC
  0
SECTION
  2
ENTITIES
  0
MTEXT
  5
225
100
AcDbEntity
  8
0
100
AcDbMText
 62
7
  6
CONTINUOUS
  7
STANDARD
 71
1
 72
1
 10
15.9560215477
 20
0.9479130325
 30
0.0
 11
1.0
 21
0.0
 31
0.0
 44
0.9
  1
SCALE: 1:2.000
 40
0.3
 41
3.36
  0
LINE
  5
226
100
AcDbEntity
  8
0
100
AcDbLine
 62
7
  6
CONTINUOUS
 10
0.0
 20
0.0
 11
0.0
 21
17.0
  0
LINE
  5
227
100
AcDbEntity
  8
0
100
AcDbLine
 62
7
  6
CONTINUOUS
 10
0.0
 20
0.0
 11
22.0
 21
0.0
  0
LINE
  5
228
100
AcDbEntity
  8
0
100
AcDbLine
 62
7
  6
CONTINUOUS
 10
0.0
 20
17.0
 11
22.0
 21
17.0
  0
LINE
  5
229
100
AcDbEntity
  8
0
100
AcDbLine
 62
7
  6
CONTINUOUS
 10
22.0
 20
0.0
 11
22.0
 21
17.0
  0
LINE
  5
22A
100
AcDbEntity
  8
LAYER_FEATURE
100
AcDbLine
 62
7
  6
CONTINUOUS
 10
5.9991672762
 20
6.2071198968
 11
5.983131487
 21
6.1910841076
  0
LINE
  5
22B
100
AcDbEntity
  8
LAYER_FEATURE
100
AcDbLine
 62
7
  6
CONTINUOUS
 10
6.8173672762
 20
5.3889198968
 11
6.801331487
 21
5.3728841076
  0
LINE
  5
22C
100
AcDbEntity
  8
LAYER_FEATURE
100
AcDbLine
 62
7
  6
CONTINUOUS
 10
6.2615672762
 20
6.2071198968
 11
6.2776030653
 21
6.1910841076
  0
LINE
  5
22D
100
AcDbEntity
  8
LAYER_FEATURE
100
AcDbLine
 62
7
  6
CONTINUOUS
 10
6.8173672762
 20
5.6513198968
 11
6.801331487
 21
5.6673556859
  0
LINE
  5
22E
100
AcDbEntity
  8
LAYER_FEATURE
100
AcDbLine
 62
7
  6
CONTINUOUS
 10
6.8173672762
 20
5.6513198968
 11
6.8173672762
 21
5.3889198968
  0
LINE
  5
22F
100
AcDbEntity
  8
LAYER_FEATURE
100
AcDbLine
 62
7
  6
CONTINUOUS
 10
5.9991672762
 20
6.2071198968
 11
6.2615672762
 21
6.2071198968
  0
LINE
  5
230
100
AcDbEntity
  8
LAYER_FEATURE
100
AcDbLine
 62
7
  6
CONTINUOUS
 10
4.8188720839
 20
12.0650477814
 11
4.8188720839
 21
12.1450477814
  0
LINE
  5
231
100
AcDbEntity
  8
LAYER_FEATURE
100
AcDbLine
 62
7
  6
CONTINUOUS
 10
4.8188720839
 20
13.5450477814
 11
4.8188720839
 21
13.6250477814
  0
LINE
  5
232
100
AcDbEntity
  8
02___PRT_ALL_AXES
100
AcDbLine
 62
7
  6
CONTINUOUS
 10
4.9878720839
 20
12.1950477814
 11
4.9878720839
 21
13.4950477814
  0
LINE
  5
233
100
AcDbEntity
  8
LAYER_CUT_FEAT
100
AcDbLine
 62
7
  6
CONTINUOUS
 10
5.0423109471
 20
13.4950477814
 11
5.0423109471
 21
12.1950477814
  0
LINE
  5
234
100
AcDbEntity
  8
02___PRT_ALL_AXES
100
AcDbLine
 62
7
  6
CONTINUOUS
 10
5.3838720839
 20
11.5750477814
 11
6.7578720839
 21
11.5750477814
  0
LINE
  5
235
100
AcDbEntity
  8
LAYER_CUT_FEAT
100
AcDbLine
 62
7
  6
CONTINUOUS
 10
5.2163678309
 20
13.4950477814
 11
5.2163678309
 21
12.1950477814
  0
LINE
  5
236
100
AcDbEntity
  8
LAYER_CUT_FEAT
100
AcDbLine
 62
7
  6
CONTINUOUS
 10
6.0235293618
 20
11.7380477814
 11
6.1182148059
 21
11.7380477814
  0
LINE
  5
237
100
AcDbEntity
  8
02___PRT_ALL_AXES
100
AcDbLine
 62
7
  6
CONTINUOUS
 10
5.3838720839
 20
11.5750477814
 11
5.3838720839
 21
12.0650477814
  0
LINE
  5
238
100
AcDbEntity
  8
LAYER_CUT_FEAT
100
AcDbLine
 62
7
  6
CONTINUOUS
 10
6.1182148059
 20
11.9020477814
 11
6.0235293618
 21
11.9020477814
  0
LINE
  5
239
100
AcDbEntity
  8
LAYER_CUT_FEAT
100
AcDbLine
 62
7
  6
CONTINUOUS
 10
5.4893896369
 20
13.4950477814
 11
5.4893896369
 21
12.1950477814
  0
LINE
  5
23A
100
AcDbEntity
  8
LAYER_FEATURE
100
AcDbLine
 62
7
  6
CONTINUOUS
 10
4.8188720839
 20
12.0650477814
 11
7.3228720839
 21
12.0650477814
  0
LINE
  5
23B
100
AcDbEntity
  8
LAYER_FEATURE
100
AcDbLine
 62
7
  6
CONTINUOUS
 10
7.1908720839
 20
13.4950477814
 11
7.3228720839
 21
13.5450477814
  0
LINE
  5
23C
100
AcDbEntity
  8
LAYER_FEATURE
100
AcDbLine
 62
7
  6
CONTINUOUS
 10
4.8188720839
 20
12.1450477814
 11
7.3228720839
 21
12.1450477814
  0
LINE
  5
23D
100
AcDbEntity
  8
LAYER_CUT_FEAT
100
AcDbLine
 62
7
  6
CONTINUOUS
 10
5.9761866397
 20
11.8200477814
 11
6.0235293618
 21
11.7380477814
  0
LINE
  5
23E
100
AcDbEntity
  8
LAYER_FEATURE
100
AcDbLine
 62
7
  6
CONTINUOUS
 10
4.9508721647
 20
12.1950477814
 11
7.1908720031
 21
12.1950477814
  0
LINE
  5
23F
100
AcDbEntity
  8
LAYER_CUT_FEAT
100
AcDbLine
 62
7
  6
CONTINUOUS
 10
5.828445906
 20
13.4950477814
 11
5.828445906
 21
12.1950477814
  0
LINE
  5
240
100
AcDbEntity
  8
LAYER_CUT_FEAT
100
AcDbLine
 62
7
  6
CONTINUOUS
 10
6.165557528
 20
11.8200477814
 11
6.1182148059
 21
11.9020477814
  0
LINE
  5
241
100
AcDbEntity
  8
LAYER_CUT_FEAT
100
AcDbLine
 62
7
  6
CONTINUOUS
 10
5.9571723795
 20
13.4950477814
 11
5.9571723795
 21
12.1950477814
  0
LINE
  5
242
100
AcDbEntity
  8
LAYER_FEATURE
100
AcDbLine
 62
7
  6
CONTINUOUS
 10
4.8188720839
 20
12.1450477814
 11
4.9508720839
 21
12.1950477814
  0
LINE
  5
243
100
AcDbEntity
  8
LAYER_CUT_FEAT
100
AcDbLine
 62
7
  6
CONTINUOUS
 10
6.1926414482
 20
13.4950477814
 11
6.1926414482
 21
12.1950477814
  0
LINE
  5
244
100
AcDbEntity
  8
LAYER_FEATURE
100
AcDbLine
 62
7
  6
CONTINUOUS
 10
7.3228720839
 20
12.1450477814
 11
7.1908720839
 21
12.1950477814
  0
LINE
  5
245
100
AcDbEntity
  8
LAYER_FEATURE
100
AcDbLine
 62
7
  6
CONTINUOUS
 10
6.7519593237
 20
11.9571605416
 11
6.7578720839
 21
11.9512477814
  0
LINE
  5
246
100
AcDbEntity
  8
LAYER_CUT_FEAT
100
AcDbLine
 62
7
  6
CONTINUOUS
 10
6.3212847312
 20
13.4950477814
 11
6.3212847312
 21
12.1950477814
  0
LINE
  5
247
100
AcDbEntity
  8
LAYER_CUT_FEAT
100
AcDbLine
 62
7
  6
CONTINUOUS
 10
6.0235293618
 20
11.9020477814
 11
5.9761866397
 21
11.8200477814
  0
LINE
  5
248
100
AcDbEntity
  8
LAYER_FEATURE
100
AcDbLine
 62
7
  6
CONTINUOUS
 10
4.9508720839
 20
13.4950477814
 11
4.8188720839
 21
13.5450477814
  0
LINE
  5
249
100
AcDbEntity
  8
LAYER_CUT_FEAT
100
AcDbLine
 62
7
  6
CONTINUOUS
 10
6.1182148059
 20
11.7380477814
 11
6.165557528
 21
11.8200477814
  0
LINE
  5
24A
100
AcDbEntity
  8
LAYER_CUT_FEAT
100
AcDbLine
 62
7
  6
CONTINUOUS
 10
6.6592945237
 20
13.4950477814
 11
6.6592945237
 21
12.1950477814
  0
LINE
  5
24B
100
AcDbEntity
  8
02___PRT_ALL_AXES
100
AcDbLine
 62
7
  6
CONTINUOUS
 10
6.7578720839
 20
11.5750477814
 11
6.7578720839
 21
11.6560477814
  0
LINE
  5
24C
100
AcDbEntity
  8
LAYER_FEATURE
100
AcDbLine
 62
7
  6
CONTINUOUS
 10
6.7578720839
 20
11.6888478689
 11
6.7578720839
 21
11.9512476938
  0
LINE
  5
24D
100
AcDbEntity
  8
02___PRT_ALL_AXES
100
AcDbLine
 62
7
  6
CONTINUOUS
 10
6.7578720839
 20
11.9840477814
 11
6.7578720839
 21
12.0650477814
  0
LINE
  5
24E
100
AcDbEntity
  8
LAYER_CUT_FEAT
100
AcDbLine
 62
7
  6
CONTINUOUS
 10
6.9304327875
 20
13.4950477814
 11
6.9304327875
 21
12.1950477814
  0
LINE
  5
24F
100
AcDbEntity
  8
LAYER_FEATURE
100
AcDbLine
 62
7
  6
CONTINUOUS
 10
4.9508721647
 20
13.4950477814
 11
7.1908720031
 21
13.4950477814
  0
LINE
  5
250
100
AcDbEntity
  8
LAYER_FEATURE
100
AcDbLine
 62
7
  6
CONTINUOUS
 10
4.8188720839
 20
13.5450477814
 11
7.3228720839
 21
13.5450477814
  0
LINE
  5
251
100
AcDbEntity
  8
LAYER_CUT_FEAT
100
AcDbLine
 62
7
  6
CONTINUOUS
 10
7.1019962466
 20
13.4950477814
 11
7.1019962466
 21
12.1950477814
  0
LINE
  5
252
100
AcDbEntity
  8
02___PRT_ALL_AXES
100
AcDbLine
 62
7
  6
CONTINUOUS
 10
7.1538720839
 20
12.1950477814
 11
7.1538720839
 21
13.4950477814
  0
LINE
  5
253
100
AcDbEntity
  8
LAYER_FEATURE
100
AcDbLine
 62
7
  6
CONTINUOUS
 10
4.8188720839
 20
13.6250477814
 11
7.3228720839
 21
13.6250477814
  0
LINE
  5
254
100
AcDbEntity
  8
LAYER_FEATURE
100
AcDbLine
 62
7
  6
CONTINUOUS
 10
6.7519593248
 20
11.6829350223
 11
6.7578720839
 21
11.6888477814
  0
LINE
  5
255
100
AcDbEntity
  8
LAYER_FEATURE
100
AcDbLine
 62
7
  6
CONTINUOUS
 10
7.3228720839
 20
12.0650477814
 11
7.3228720839
 21
12.1450477814
  0
LINE
  5
256
100
AcDbEntity
  8
LAYER_FEATURE
100
AcDbLine
 62
7
  6
CONTINUOUS
 10
7.3228720839
 20
13.5450477814
 11
7.3228720839
 21
13.6250477814
  0
LINE
  5
257
100
AcDbEntity
  8
LAYER_FEATURE
100
AcDbLine
 62
7
  6
CONTINUOUS
 10
16.5853552569
 20
4.2086247044
 11
16.5053552569
 21
4.2086247044
  0
LINE
  5
258
100
AcDbEntity
  8
LAYER_FEATURE
100
AcDbLine
 62
7
  6
CONTINUOUS
 10
15.1053552569
 20
4.2086247044
 11
15.0253552569
 21
4.2086247044
  0
LINE
  5
259
100
AcDbEntity
  8
LAYER_FEATURE
100
AcDbLine
 62
7
  6
CONTINUOUS
 10
14.6432399652
 20
6.1417094127
 11
14.6491552569
 21
6.1476247044
  0
LINE
  5
25A
100
AcDbEntity
  8
LAYER_CUT_FEAT
100
AcDbLine
 62
7
  6
CONTINUOUS
 10
16.4553552569
 20
4.3880748514
 11
15.1553552569
 21
4.3880748514
  0
LINE
  5
25B
100
AcDbEntity
  8
02___PRT_ALL_AXES
100
AcDbLine
 62
7
  6
CONTINUOUS
 10
14.5353552569
 20
6.1476247044
 11
14.5353552569
 21
4.7736247044
  0
LINE
  5
25C
100
AcDbEntity
  8
LAYER_CUT_FEAT
100
AcDbLine
 62
7
  6
CONTINUOUS
 10
16.4553552569
 20
4.5012233452
 11
15.1553552569
 21
4.5012233452
  0
LINE
  5
25D
100
AcDbEntity
  8
LAYER_CUT_FEAT
100
AcDbLine
 62
7
  6
CONTINUOUS
 10
14.6983552569
 20
5.5079674265
 11
14.6983552569
 21
5.4132819824
  0
LINE
  5
25E
100
AcDbEntity
  8
LAYER_CUT_FEAT
100
AcDbLine
 62
7
  6
CONTINUOUS
 10
14.8623552569
 20
5.4132819824
 11
14.8623552569
 21
5.5079674265
  0
LINE
  5
25F
100
AcDbEntity
  8
LAYER_CUT_FEAT
100
AcDbLine
 62
7
  6
CONTINUOUS
 10
16.4553552569
 20
4.7259889005
 11
15.1553552569
 21
4.7259889005
  0
LINE
  5
260
100
AcDbEntity
  8
02___PRT_ALL_AXES
100
AcDbLine
 62
7
  6
CONTINUOUS
 10
15.0253552569
 20
4.7736247044
 11
14.5353552569
 21
4.7736247044
  0
LINE
  5
261
100
AcDbEntity
  8
LAYER_FEATURE
100
AcDbLine
 62
7
  6
CONTINUOUS
 10
15.0253552569
 20
6.7126247044
 11
15.0253552569
 21
4.2086247044
  0
LINE
  5
262
100
AcDbEntity
  8
LAYER_FEATURE
100
AcDbLine
 62
7
  6
CONTINUOUS
 10
15.1053552569
 20
6.7126247044
 11
15.1053552569
 21
4.2086247044
  0
LINE
  5
263
100
AcDbEntity
  8
LAYER_CUT_FEAT
100
AcDbLine
 62
7
  6
CONTINUOUS
 10
14.7803552569
 20
5.5553101486
 11
14.6983552569
 21
5.5079674265
  0
LINE
  5
264
100
AcDbEntity
  8
LAYER_CUT_FEAT
100
AcDbLine
 62
7
  6
CONTINUOUS
 10
16.4553552569
 20
5.035261474
 11
15.1553552569
 21
5.035261474
  0
LINE
  5
265
100
AcDbEntity
  8
LAYER_CUT_FEAT
100
AcDbLine
 62
7
  6
CONTINUOUS
 10
14.6983552569
 20
5.4132819824
 11
14.7803552569
 21
5.3659392603
  0
LINE
  5
266
100
AcDbEntity
  8
LAYER_FEATURE
100
AcDbLine
 62
7
  6
CONTINUOUS
 10
15.1553552569
 20
6.5806247044
 11
15.1553552569
 21
4.3406247044
  0
LINE
  5
267
100
AcDbEntity
  8
LAYER_CUT_FEAT
100
AcDbLine
 62
7
  6
CONTINUOUS
 10
14.7803552569
 20
5.3659392603
 11
14.8623552569
 21
5.4132819824
  0
LINE
  5
268
100
AcDbEntity
  8
LAYER_CUT_FEAT
100
AcDbLine
 62
7
  6
CONTINUOUS
 10
14.8623552569
 20
5.5079674265
 11
14.7803552569
 21
5.5553101486
  0
LINE
  5
269
100
AcDbEntity
  8
LAYER_CUT_FEAT
100
AcDbLine
 62
7
  6
CONTINUOUS
 10
16.4553552569
 20
5.391738229
 11
15.1553552569
 21
5.391738229
  0
LINE
  5
26A
100
AcDbEntity
  8
LAYER_FEATURE
100
AcDbLine
 62
7
  6
CONTINUOUS
 10
15.1553552569
 20
4.3406247044
 11
15.1053552569
 21
4.2086247044
  0
LINE
  5
26B
100
AcDbEntity
  8
LAYER_CUT_FEAT
100
AcDbLine
 62
7
  6
CONTINUOUS
 10
16.4553552569
 20
5.5213592693
 11
15.1553552569
 21
5.5213592693
  0
LINE
  5
26C
100
AcDbEntity
  8
LAYER_FEATURE
100
AcDbLine
 62
7
  6
CONTINUOUS
 10
14.9174705478
 20
6.1417094136
 11
14.9115552569
 21
6.1476247044
  0
LINE
  5
26D
100
AcDbEntity
  8
LAYER_FEATURE
100
AcDbLine
 62
7
  6
CONTINUOUS
 10
15.1553552569
 20
6.5806247044
 11
15.1053552569
 21
6.7126247044
  0
LINE
  5
26E
100
AcDbEntity
  8
LAYER_FEATURE
100
AcDbLine
 62
7
  6
CONTINUOUS
 10
16.5053552569
 20
6.7126247044
 11
16.4553552569
 21
6.5806247044
  0
LINE
  5
26F
100
AcDbEntity
  8
LAYER_CUT_FEAT
100
AcDbLine
 62
7
  6
CONTINUOUS
 10
16.4553552569
 20
5.8784095713
 11
15.1553552569
 21
5.8784095713
  0
LINE
  5
270
100
AcDbEntity
  8
LAYER_FEATURE
100
AcDbLine
 62
7
  6
CONTINUOUS
 10
16.5053552569
 20
4.2086247044
 11
16.4553552569
 21
4.3406247044
  0
LINE
  5
271
100
AcDbEntity
  8
02___PRT_ALL_AXES
100
AcDbLine
 62
7
  6
CONTINUOUS
 10
15.0253552569
 20
6.1476247044
 11
14.9443552569
 21
6.1476247044
  0
LINE
  5
272
100
AcDbEntity
  8
02___PRT_ALL_AXES
100
AcDbLine
 62
7
  6
CONTINUOUS
 10
14.6163552569
 20
6.1476247044
 11
14.5353552569
 21
6.1476247044
  0
LINE
  5
273
100
AcDbEntity
  8
LAYER_FEATURE
100
AcDbLine
 62
7
  6
CONTINUOUS
 10
14.6491552569
 20
6.1476247044
 11
14.9115552569
 21
6.1476247044
  0
LINE
  5
274
100
AcDbEntity
  8
LAYER_CUT_FEAT
100
AcDbLine
 62
7
  6
CONTINUOUS
 10
16.4553552569
 20
6.1891697543
 11
15.1553552569
 21
6.1891697543
  0
LINE
  5
275
100
AcDbEntity
  8
LAYER_FEATURE
100
AcDbLine
 62
7
  6
CONTINUOUS
 10
16.4553552569
 20
6.5806247044
 11
16.4553552569
 21
4.3406247044
  0
LINE
  5
276
100
AcDbEntity
  8
LAYER_FEATURE
100
AcDbLine
 62
7
  6
CONTINUOUS
 10
16.5053552569
 20
6.7126247044
 11
16.5053552569
 21
4.2086247044
  0
LINE
  5
277
100
AcDbEntity
  8
LAYER_CUT_FEAT
100
AcDbLine
 62
7
  6
CONTINUOUS
 10
16.4553552569
 20
6.416157554
 11
15.1553552569
 21
6.416157554
  0
LINE
  5
278
100
AcDbEntity
  8
LAYER_FEATURE
100
AcDbLine
 62
7
  6
CONTINUOUS
 10
16.5853552569
 20
6.7126247044
 11
16.5853552569
 21
4.2086247044
  0
LINE
  5
279
100
AcDbEntity
  8
LAYER_CUT_FEAT
100
AcDbLine
 62
7
  6
CONTINUOUS
 10
16.4553552569
 20
6.5319948916
 11
15.1553552569
 21
6.5319948916
  0
LINE
  5
27A
100
AcDbEntity
  8
LAYER_CUT_FEAT
100
AcDbLine
 62
7
  6
CONTINUOUS
 10
16.4553552569
 20
6.5331745575
 11
15.1553552569
 21
6.5331745575
  0
LINE
  5
27B
100
AcDbEntity
  8
LAYER_FEATURE
100
AcDbLine
 62
7
  6
CONTINUOUS
 10
16.5853552569
 20
6.7126247044
 11
16.5053552569
 21
6.7126247044
  0
LINE
  5
27C
100
AcDbEntity
  8
LAYER_FEATURE
100
AcDbLine
 62
7
  6
CONTINUOUS
 10
15.1053552569
 20
6.7126247044
 11
15.0253552569
 21
6.7126247044
  0
LINE
  5
27D
100
AcDbEntity
  8
LAYER_FEATURE
100
AcDbLine
 62
7
  6
CONTINUOUS
 10
14.0861138392
 20
12.2857699893
 11
14.1054791451
 21
12.3484361421
  0
LINE
  5
27E
100
AcDbEntity
  8
LAYER_FEATURE
100
AcDbLine
 62
7
  6
CONTINUOUS
 10
14.4443719979
 20
13.4450938156
 11
14.4637373037
 21
13.5077599683
  0
LINE
  5
27F
100
AcDbEntity
  8
LAYER_CUT_FEAT
100
AcDbLine
 62
7
  6
CONTINUOUS
 10
14.5801569008
 20
13.2895914569
 11
14.3813130343
 21
12.6461324692
  0
LINE
  5
280
100
AcDbEntity
  8
LAYER_CUT_FEAT
100
AcDbLine
 62
7
  6
CONTINUOUS
 10
14.6408659211
 20
13.4525913218
 11
14.3935859389
 21
12.6523930064
  0
LINE
  5
281
100
AcDbEntity
  8
LAYER_CUT_FEAT
100
AcDbLine
 62
7
  6
CONTINUOUS
 10
14.8187556042
 20
13.602531705
 11
14.5424214498
 21
12.7083140535
  0
LINE
  5
282
100
AcDbEntity
  8
LAYER_CUT_FEAT
100
AcDbLine
 62
7
  6
CONTINUOUS
 10
14.5084098524
 20
12.1552706511
 11
14.5205131685
 21
12.1944369966
  0
LINE
  5
283
100
AcDbEntity
  8
LAYER_CUT_FEAT
100
AcDbLine
 62
7
  6
CONTINUOUS
 10
15.8846464145
 20
11.6653477714
 11
15.8332760927
 21
11.6653477714
  0
LINE
  5
284
100
AcDbEntity
  8
LAYER_CUT_FEAT
100
AcDbLine
 62
7
  6
CONTINUOUS
 10
15.0903889671
 20
13.685384286
 11
14.8021620183
 21
12.7526815377
  0
LINE
  5
285
100
AcDbEntity
  8
02___PRT_ALL_AXES
100
AcDbLine
 62
7
  6
CONTINUOUS
 10
14.5073141177
 20
11.7351250387
 11
14.6259266162
 21
12.1189552244
  0
LINE
  5
286
100
AcDbEntity
  8
LAYER_CUT_FEAT
100
AcDbLine
 62
7
  6
CONTINUOUS
 10
15.8900543407
 20
11.759009286
 11
15.8254915497
 21
11.759009286
  0
LINE
  5
287
100
AcDbEntity
  8
LAYER_CUT_FEAT
100
AcDbLine
 62
7
  6
CONTINUOUS
 10
14.9262196553
 20
12.1512512356
 11
14.9577405385
 21
12.087018429
  0
LINE
  5
288
100
AcDbEntity
  8
LAYER_CUT_FEAT
100
AcDbLine
 62
7
  6
CONTINUOUS
 10
14.9896746285
 20
12.2154840422
 11
15.0397014946
 21
12.1135400074
  0
LINE
  5
289
100
AcDbEntity
  8
LAYER_CUT_FEAT
100
AcDbLine
 62
7
  6
CONTINUOUS
 10
14.9262196553
 20
12.1512512356
 11
14.9499757514
 21
12.087018429
  0
LINE
  5
28A
100
AcDbEntity
  8
LAYER_CUT_FEAT
100
AcDbLine
 62
7
  6
CONTINUOUS
 10
15.4230030173
 20
13.6911558207
 11
15.1304763268
 21
12.7445391034
  0
LINE
  5
28B
100
AcDbEntity
  8
LAYER_CUT_FEAT
100
AcDbLine
 62
7
  6
CONTINUOUS
 10
14.9499757514
 20
12.087018429
 11
15.0371868207
 21
12.087018429
  0
LINE
  5
28C
100
AcDbEntity
  8
LAYER_CUT_FEAT
100
AcDbLine
 62
7
  6
CONTINUOUS
 10
15.0633872335
 20
12.1135400074
 11
15.0397014946
 21
12.1135400074
  0
LINE
  5
28D
100
AcDbEntity
  8
LAYER_CUT_FEAT
100
AcDbLine
 62
7
  6
CONTINUOUS
 10
15.1006417939
 20
12.1512512356
 11
15.0768856978
 21
12.2154840422
  0
LINE
  5
28E
100
AcDbEntity
  8
LAYER_CUT_FEAT
100
AcDbLine
 62
7
  6
CONTINUOUS
 10
15.0768856978
 20
12.2154840422
 11
14.9896746285
 21
12.2154840422
  0
LINE
  5
28F
100
AcDbEntity
  8
LAYER_CUT_FEAT
100
AcDbLine
 62
7
  6
CONTINUOUS
 10
14.9896746285
 20
12.2154840422
 11
14.9262196553
 21
12.1512512356
  0
LINE
  5
290
100
AcDbEntity
  8
LAYER_FEATURE
100
AcDbLine
 62
7
  6
CONTINUOUS
 10
15.8525541125
 20
11.8728262813
 11
15.8773646085
 21
11.8431020625
  0
LINE
  5
291
100
AcDbEntity
  8
LAYER_CUT_FEAT
100
AcDbLine
 62
7
  6
CONTINUOUS
 10
15.7764795916
 20
13.619150177
 11
15.4839054375
 21
12.6723798675
  0
LINE
  5
292
100
AcDbEntity
  8
LAYER_CUT_FEAT
100
AcDbLine
 62
7
  6
CONTINUOUS
 10
15.0397014946
 20
12.1135400074
 11
15.0135010819
 21
12.087018429
  0
LINE
  5
293
100
AcDbEntity
  8
LAYER_CUT_FEAT
100
AcDbLine
 62
7
  6
CONTINUOUS
 10
15.0371868207
 20
12.087018429
 11
15.1006417939
 21
12.1512512356
  0
LINE
  5
294
100
AcDbEntity
  8
LAYER_CUT_FEAT
100
AcDbLine
 62
7
  6
CONTINUOUS
 10
15.821472439
 20
11.6894010887
 11
15.8503554637
 21
11.6305436728
  0
LINE
  5
295
100
AcDbEntity
  8
LAYER_CUT_FEAT
100
AcDbLine
 62
7
  6
CONTINUOUS
 10
15.8999524485
 20
13.579792279
 11
15.6071240594
 21
12.6321992645
  0
LINE
  5
296
100
AcDbEntity
  8
LAYER_CUT_FEAT
100
AcDbLine
 62
7
  6
CONTINUOUS
 10
15.8900543407
 20
11.759009286
 11
15.8611713161
 21
11.8178667019
  0
LINE
  5
297
100
AcDbEntity
  8
LAYER_CUT_FEAT
100
AcDbLine
 62
7
  6
CONTINUOUS
 10
15.8268803652
 20
11.7830626033
 11
15.821472439
 21
11.6894010887
  0
LINE
  5
298
100
AcDbEntity
  8
LAYER_CUT_FEAT
100
AcDbLine
 62
7
  6
CONTINUOUS
 10
15.8846464145
 20
11.6653477714
 11
15.8900543407
 21
11.759009286
  0
LINE
  5
299
100
AcDbEntity
  8
LAYER_CUT_FEAT
100
AcDbLine
 62
7
  6
CONTINUOUS
 10
16.2239126343
 20
13.4285370063
 11
15.931813812
 21
12.4833048711
  0
LINE
  5
29A
100
AcDbEntity
  8
02___PRT_ALL_AXES
100
AcDbLine
 62
7
  6
CONTINUOUS
 10
15.8200623578
 20
11.3294551503
 11
15.9386748562
 21
11.713285336
  0
LINE
  5
29B
100
AcDbEntity
  8
LAYER_CUT_FEAT
100
AcDbLine
 62
7
  6
CONTINUOUS
 10
16.4799699982
 20
13.2287586991
 11
16.1932121146
 21
12.3008098474
  0
LINE
  5
29C
100
AcDbEntity
  8
LAYER_CUT_FEAT
100
AcDbLine
 62
7
  6
CONTINUOUS
 10
16.0561916201
 20
11.6769699093
 11
16.0682949362
 21
11.7161362548
  0
LINE
  5
29D
100
AcDbEntity
  8
LAYER_CUT_FEAT
100
AcDbLine
 62
7
  6
CONTINUOUS
 10
15.8611713161
 20
11.8178667019
 11
15.8268803652
 21
11.7830626033
  0
LINE
  5
29E
100
AcDbEntity
  8
LAYER_FEATURE
100
AcDbLine
 62
7
  6
CONTINUOUS
 10
15.8525541125
 20
11.5755840934
 11
15.8773646085
 21
11.6053083122
  0
LINE
  5
29F
100
AcDbEntity
  8
LAYER_CUT_FEAT
100
AcDbLine
 62
7
  6
CONTINUOUS
 10
15.8503554637
 20
11.6305436728
 11
15.8846464145
 21
11.6653477714
  0
LINE
  5
2A0
100
AcDbEntity
  8
LAYER_CUT_FEAT
100
AcDbLine
 62
7
  6
CONTINUOUS
 10
16.6372402432
 20
13.0045535695
 11
16.3645459722
 21
12.122114585
  0
LINE
  5
2A1
100
AcDbEntity
  8
LAYER_CUT_FEAT
100
AcDbLine
 62
7
  6
CONTINUOUS
 10
16.6767542566
 20
12.7829640651
 11
16.4381344113
 21
12.0107899626
  0
LINE
  5
2A2
100
AcDbEntity
  8
LAYER_FEATURE
100
AcDbLine
 62
7
  6
CONTINUOUS
 10
16.4784876332
 20
11.5464705711
 11
16.4978529391
 21
11.6091367239
  0
LINE
  5
2A3
100
AcDbEntity
  8
LAYER_FEATURE
100
AcDbLine
 62
7
  6
CONTINUOUS
 10
16.8367457919
 20
12.7057943974
 11
16.8561110977
 21
12.7684605501
  0
CIRCLE
  5
2A4
100
AcDbEntity
  8
LAYER_FEATURE
100
AcDbCircle
 62
7
  6
CONTINUOUS
 10
6.1303672762
 20
5.5201198968
 40
1.252
  0
CIRCLE
  5
2A5
100
AcDbEntity
  8
LAYER_FEATURE
100
AcDbCircle
 62
7
  6
CONTINUOUS
 10
6.1303672762
 20
5.5201198968
 40
1.12
  0
CIRCLE
  5
2A6
100
AcDbEntity
  8
LAYER_CUT_FEAT
100
AcDbCircle
 62
7
  6
CONTINUOUS
 10
6.1303672762
 20
5.5201198968
 40
0.81
  0
CIRCLE
  5
2A7
100
AcDbEntity
  8
02___PRT_ALL_AXES
100
AcDbCircle
 62
7
  6
CONTINUOUS
 10
6.1303672762
 20
5.5201198968
 40
0.687
  0
CIRCLE
  5
2A8
100
AcDbEntity
  8
LAYER_CHAMFER_FEAT
100
AcDbCircle
 62
7
  6
CONTINUOUS
 10
6.1303672762
 20
5.5201198968
 40
0.2875
  0
CIRCLE
  5
2A9
100
AcDbEntity
  8
LAYER_CHAMFER_FEAT
100
AcDbCircle
 62
7
  6
CONTINUOUS
 10
6.1303672762
 20
5.5201198968
 40
0.25
  0
CIRCLE
  5
2AA
100
AcDbEntity
  8
02___PRT_ALL_AXES
100
AcDbCircle
 62
7
  6
CONTINUOUS
 10
6.0708720839
 20
11.8200477814
 40
0.164
  0
CIRCLE
  5
2AB
100
AcDbEntity
  8
LAYER_FEATURE
100
AcDbCircle
 62
7
  6
CONTINUOUS
 10
6.0708720839
 20
11.8200477814
 40
0.1312
  0
CIRCLE
  5
2AC
100
AcDbEntity
  8
02___PRT_ALL_AXES
100
AcDbCircle
 62
7
  6
CONTINUOUS
 10
14.7803552569
 20
5.4606247044
 40
0.164
  0
CIRCLE
  5
2AD
100
AcDbEntity
  8
LAYER_FEATURE
100
AcDbCircle
 62
7
  6
CONTINUOUS
 10
14.7803552569
 20
5.4606247044
 40
0.1312
  0
ARC
  5
2AE
100
AcDbEntity
  8
LAYER_FEATURE
100
AcDbCircle
 62
7
  6
CONTINUOUS
 10
15.2535689034
 20
11.8231114273
 40
1.8898302666
100
AcDbArc
 50
70.7953793816
 51
72.7235742146
  0
ARC
  5
2AF
100
AcDbEntity
  8
LAYER_FEATURE
100
AcDbCircle
 62
7
  6
CONTINUOUS
 10
15.6644689102
 20
12.8902519356
 40
1.7523873543
100
AcDbArc
 50
268.0021186227
 51
269.991637812
  0
ARC
  5
2B0
100
AcDbEntity
  8
LAYER_FEATURE
100
AcDbCircle
 62
7
  6
CONTINUOUS
 10
15.2860211552
 20
12.0057023537
 40
1.7042113439
100
AcDbArc
 50
82.4143190721
 51
84.4824858674
  0
ARC
  5
2B1
100
AcDbEntity
  8
LAYER_FEATURE
100
AcDbCircle
 62
7
  6
CONTINUOUS
 10
15.3612557194
 20
12.0490881934
 40
1.6391754475
100
AcDbArc
 50
58.8293188748
 51
60.9469724521
  0
ARC
  5
2B2
100
AcDbEntity
  8
LAYER_FEATURE
100
AcDbCircle
 62
7
  6
CONTINUOUS
 10
15.2821483313
 20
12.4959015064
 40
1.212945044
100
AcDbArc
 50
95.7352439387
 51
98.3270085657
  0
ARC
  5
2B3
100
AcDbEntity
  8
LAYER_FEATURE
100
AcDbCircle
 62
7
  6
CONTINUOUS
 10
15.6801105497
 20
12.470863966
 40
1.1091244486
100
AcDbArc
 50
44.2904511147
 51
47.0415501023
  0
ARC
  5
2B4
100
AcDbEntity
  8
LAYER_FEATURE
100
AcDbCircle
 62
7
  6
CONTINUOUS
 10
15.1447371604
 20
12.9947048685
 40
0.6933916656
100
AcDbArc
 50
113.5880556656
 51
117.3618028618
  0
ARC
  5
2B5
100
AcDbEntity
  8
LAYER_FEATURE
100
AcDbCircle
 62
7
  6
CONTINUOUS
 10
16.0611119635
 20
12.7593158932
 40
0.6290972836
100
AcDbArc
 50
23.8700920981
 51
27.8737860247
  0
ARC
  5
2B6
100
AcDbEntity
  8
LAYER_CUT_FEAT
100
AcDbCircle
 62
7
  6
CONTINUOUS
 10
14.9858258074
 20
12.1373077985
 40
0.5010490191
100
AcDbArc
 50
206.1963606947
 51
210.3122078836
  0
ARC
  5
2B7
100
AcDbEntity
  8
LAYER_FEATURE
100
AcDbCircle
 62
7
  6
CONTINUOUS
 10
14.9734561363
 20
13.2271790194
 40
0.4022858457
100
AcDbArc
 50
139.971612568
 51
145.3815691094
  0
ARC
  5
2B8
100
AcDbEntity
  8
LAYER_FEATURE
100
AcDbCircle
 62
7
  6
CONTINUOUS
 10
16.3020060468
 20
12.8244048825
 40
0.3772396535
100
AcDbArc
 50
354.0221253072
 51
359.6690303367
  0
ARC
  5
2B9
100
AcDbEntity
  8
LAYER_FEATURE
100
AcDbCircle
 62
7
  6
CONTINUOUS
 10
15.0931891984
 20
12.1650058523
 40
0.086342119
100
AcDbArc
 50
30.777780779
 51
34.9991924429
  0
ARC
  5
2BA
100
AcDbEntity
  8
LAYER_FEATURE
100
AcDbCircle
 62
7
  6
CONTINUOUS
 10
16.6659791783
 20
12.786287787
 40
0.0112760585
100
AcDbArc
 50
342.8568983346
 51
354.0427259119
  0
SPLINE
  5
2BB
100
AcDbEntity
  8
02___PRT_ALL_AXES
100
AcDbSpline
 62
7
  6
CONTINUOUS
 70
0
 71
3
 72
27
 73
23
 74
0
 42
0.0000001
 43
0.0000001
 44
0.0000000001
 40
0.0
 40
0.0
 40
0.0
 40
0.0
 40
0.0388624361
 40
0.0856426854
 40
0.1481106722
 40
0.2237671961
 40
0.2656736936
 40
0.309794358
 40
0.3557241139
 40
0.4030358834
 40
0.451282168
 40
0.4999999999
 40
0.5487178317
 40
0.5969641163
 40
0.6442758859
 40
0.6902056418
 40
0.7343263068
 40
0.776232805
 40
0.8518893288
 40
0.9143573154
 40
0.9611375644
 40
1.0
 40
1.0
 40
1.0
 40
1.0
 10
6.7578720839
 20
11.6560477814
 30
0.0
 10
6.7568759897
 20
11.6602203616
 30
0.0
 10
6.7547556538
 20
11.6694335851
 30
0.0
 10
6.7513815687
 20
11.6854318556
 30
0.0
 10
6.7476505158
 20
11.7055011309
 30
0.0
 10
6.7446329393
 20
11.7251478749
 30
0.0
 10
6.7424117096
 20
11.7428574609
 30
0.0
 10
6.740895781
 20
11.7573454814
 30
0.0
 10
6.73964643
 20
11.7724578161
 30
0.0
 10
6.7387147472
 20
11.7880494572
 30
0.0
 10
6.7381394596
 20
11.8039663788
 30
0.0
 10
6.7379449696
 20
11.8200477813
 30
0.0
 10
6.7381394596
 20
11.8361291838
 30
0.0
 10
6.7387147472
 20
11.8520461054
 30
0.0
 10
6.73964643
 20
11.8676377466
 30
0.0
 10
6.740895781
 20
11.8827500813
 30
0.0
 10
6.7424117096
 20
11.8972381019
 30
0.0
 10
6.7446329393
 20
11.9149476881
 30
0.0
 10
6.7476505159
 20
11.9345944322
 30
0.0
 10
6.7513815688
 20
11.9546637074
 30
0.0
 10
6.7547556539
 20
11.9706619778
 30
0.0
 10
6.7568759898
 20
11.9798752012
 30
0.0
 10
6.7578720839
 20
11.9840477814
 30
0.0
  0
SPLINE
  5
2BC
100
AcDbEntity
  8
02___PRT_ALL_AXES
100
AcDbSpline
 62
7
  6
CONTINUOUS
 70
0
 71
3
 72
27
 73
23
 74
0
 42
0.0000001
 43
0.0000001
 44
0.0000000001
 40
0.0
 40
0.0
 40
0.0
 40
0.0
 40
0.0388624349
 40
0.0856426831
 40
0.148110684
 40
0.2237672294
 40
0.2656737318
 40
0.3097943362
 40
0.3557241359
 40
0.403035879
 40
0.4512821778
 40
0.5000000001
 40
0.5487178222
 40
0.596964121
 40
0.6442758642
 40
0.6902056638
 40
0.7343262683
 40
0.7762327707
 40
0.8518893163
 40
0.9143573172
 40
0.9611375653
 40
1.0
 40
1.0
 40
1.0
 40
1.0
 10
14.9443552569
 20
6.1476247044
 30
0.0
 10
14.9401826768
 20
6.1466286104
 30
0.0
 10
14.9309694535
 20
6.1445082747
 30
0.0
 10
14.9149711817
 20
6.1411341897
 30
0.0
 10
14.8949019025
 20
6.1374031377
 30
0.0
 10
14.8752551553
 20
6.1343855498
 30
0.0
 10
14.8575455708
 20
6.1321643393
 30
0.0
 10
14.843057554
 20
6.1306483861
 30
0.0
 10
14.8279452214
 20
6.1293990692
 30
0.0
 10
14.8123535791
 20
6.1284673452
 30
0.0
 10
14.7964366583
 20
6.1278921041
 30
0.0
 10
14.7803552569
 20
6.1276975649
 30
0.0
 10
14.7642738555
 20
6.1278921041
 30
0.0
 10
14.7483569348
 20
6.1284673452
 30
0.0
 10
14.7327652925
 20
6.1293990692
 30
0.0
 10
14.7176529598
 20
6.1306483861
 30
0.0
 10
14.703164943
 20
6.1321643393
 30
0.0
 10
14.6854553585
 20
6.1343855498
 30
0.0
 10
14.6658086113
 20
6.1374031377
 30
0.0
 10
14.6457393321
 20
6.1411341898
 30
0.0
 10
14.6297410603
 20
6.1445082747
 30
0.0
 10
14.620527837
 20
6.1466286104
 30
0.0
 10
14.6163552569
 20
6.1476247044
 30
0.0
  0
SPLINE
  5
2BD
100
AcDbEntity
  8
02___PRT_ALL_AXES
100
AcDbSpline
 62
7
  6
CONTINUOUS
 70
0
 71
3
 72
56
 73
52
 74
0
 42
0.0000001
 43
0.0000001
 44
0.0000000001
 40
0.0
 40
0.0
 40
0.0
 40
0.0
 40
0.01359913
 40
0.027700807
 40
0.0422847345
 40
0.0573318861
 40
0.0728215588
 40
0.0887314858
 40
0.1050385679
 40
0.1217190945
 40
0.138748598
 40
0.1561021814
 40
0.1916795174
 40
0.2282476322
 40
0.2656016641
 40
0.3035385794
 40
0.3418589653
 40
0.3803682007
 40
0.4188772987
 40
0.457203537
 40
0.495171148
 40
0.5326120533
 40
0.5693671135
 40
0.6052877638
 40
0.6402379057
 40
0.657312079
 40
0.6740995268
 40
0.6905877846
 40
0.7067656521
 40
0.7226231915
 40
0.7381518773
 40
0.7533446077
 40
0.7681957355
 40
0.7968530567
 40
0.8106613901
 40
0.8241215381
 40
0.8372360252
 40
0.8500091612
 40
0.8624470087
 40
0.8745575405
 40
0.8978291118
 40
0.9090246109
 40
0.9199441804
 40
0.9306059277
 40
0.9410301276
 40
0.9512393268
 40
0.9612582601
 40
0.9711138636
 40
0.980835141
 40
0.9904529943
 40
1.0
 40
1.0
 40
1.0
 40
1.0
 10
15.8160645128
 20
11.5957395742
 30
0.0
 10
15.8154058888
 20
11.5970817089
 30
0.0
 10
15.814092675
 20
11.5998295773
 30
0.0
 10
15.8121678663
 20
11.6040612243
 30
0.0
 10
15.8102549998
 20
11.608472356
 30
0.0
 10
15.8083577108
 20
11.6130557822
 30
0.0
 10
15.8064797247
 20
11.6178042609
 30
0.0
 10
15.8046249751
 20
11.6227102189
 30
0.0
 10
15.8027975613
 20
11.6277658516
 30
0.0
 10
15.8010016898
 20
11.632963166
 30
0.0
 10
15.7992416922
 20
11.6382940381
 30
0.0
 10
15.7969296692
 20
11.6456296505
 30
0.0
 10
15.7941619648
 20
11.6550728125
 30
0.0
 10
15.7910826801
 20
11.6667116262
 30
0.0
 10
15.7882560148
 20
11.6786811945
 30
0.0
 10
15.7857197316
 20
11.6909125568
 30
0.0
 10
15.7835113109
 20
11.7033365325
 30
0.0
 10
15.7816674453
 20
11.7158836194
 30
0.0
 10
15.7802234836
 20
11.728483908
 30
0.0
 10
15.7792127923
 20
11.7410669121
 30
0.0
 10
15.7786660217
 20
11.7535614307
 30
0.0
 10
15.7786102595
 20
11.7658954731
 30
0.0
 10
15.779068123
 20
11.7779965077
 30
0.0
 10
15.7800567847
 20
11.7897913758
 30
0.0
 10
15.7813418912
 20
11.7993787048
 30
0.0
 10
15.7826513579
 20
11.8068302122
 30
0.0
 10
15.7837622002
 20
11.8122536457
 30
0.0
 10
15.785008632
 20
11.81754637
 30
0.0
 10
15.7863892463
 20
11.8226999845
 30
0.0
 10
15.7879023236
 20
11.8277062379
 30
0.0
 10
15.7895454419
 20
11.8325571406
 30
0.0
 10
15.791315837
 20
11.8372451809
 30
0.0
 10
15.793811691
 20
11.8431973682
 30
0.0
 10
15.7965702827
 20
11.8488711864
 30
0.0
 10
15.7995960014
 20
11.8542250492
 30
0.0
 10
15.8019434997
 20
11.857994872
 30
0.0
 10
15.8043916359
 20
11.8615629672
 30
0.0
 10
15.8069346102
 20
11.8649242703
 30
0.0
 10
15.8095666232
 20
11.8680741833
 30
0.0
 10
15.8131377396
 20
11.8719342602
 30
0.0
 10
15.8169064808
 20
11.8754190707
 30
0.0
 10
15.8208526805
 20
11.8784763921
 30
0.0
 10
15.8238298759
 20
11.880510394
 30
0.0
 10
15.8268550046
 20
11.8823118466
 30
0.0
 10
15.8299209163
 20
11.8838783997
 30
0.0
 10
15.8330201616
 20
11.8852079732
 30
0.0
 10
15.836145321
 20
11.8862986725
 30
0.0
 10
15.8392888351
 20
11.8871489675
 30
0.0
 10
15.8424432131
 20
11.887757542
 30
0.0
 10
15.8456006041
 20
11.8881233764
 30
0.0
 10
15.847708384
 20
11.8882051851
 30
0.0
 10
15.8487579399
 20
11.8882051871
 30
0.0
  0
SPLINE
  5
2BE
100
AcDbEntity
  8
02___PRT_ALL_AXES
100
AcDbSpline
 62
7
  6
CONTINUOUS
 70
0
 71
3
 72
28
 73
24
 74
0
 42
0.0000001
 43
0.0000001
 44
0.0000000001
 40
0.0
 40
0.0
 40
0.0
 40
0.0
 40
0.0760956207
 40
0.1504299518
 40
0.222870145
 40
0.2933145017
 40
0.3616933234
 40
0.4279747928
 40
0.4921677309
 40
0.5543250427
 40
0.6145460554
 40
0.6729780804
 40
0.7298166847
 40
0.7577186795
 40
0.7853168941
 40
0.8126482195
 40
0.8397519157
 40
0.8666691642
 40
0.8934429199
 40
0.9201174389
 40
0.94673793
 40
0.9733501844
 40
1.0
 40
1.0
 40
1.0
 40
1.0
 10
14.9737318476
 20
12.0227856224
 30
0.0
 10
14.9706886251
 20
12.0227856224
 30
0.0
 10
14.9646717396
 20
12.0229108306
 30
0.0
 10
14.9557745209
 20
12.0234882353
 30
0.0
 10
14.9471377845
 20
12.0244521141
 30
0.0
 10
14.9387935938
 20
12.0258006537
 30
0.0
 10
14.9307716319
 20
12.0275314372
 30
0.0
 10
14.9230995033
 20
12.0296414291
 30
0.0
 10
14.9158025585
 20
12.0321271053
 30
0.0
 10
14.908904012
 20
12.0349844538
 30
0.0
 10
14.902424911
 20
12.0382091228
 30
0.0
 10
14.8963847386
 20
12.0417960047
 30
0.0
 10
14.891702206
 20
12.0451033403
 30
0.0
 10
14.8882027742
 20
12.0479226234
 30
0.0
 10
14.8857139971
 20
12.0501104345
 30
0.0
 10
14.8833468884
 20
12.0523834687
 30
0.0
 10
14.881102928
 20
12.0547407605
 30
0.0
 10
14.8789836335
 20
12.0571813108
 30
0.0
 10
14.8769903294
 20
12.0597039953
 30
0.0
 10
14.8751243595
 20
12.0623076958
 30
0.0
 10
14.8733868511
 20
12.0649911679
 30
0.0
 10
14.8717790089
 20
12.0677530599
 30
0.0
 10
14.8707953586
 20
12.0696434561
 30
0.0
 10
14.8703258336
 20
12.0706002407
 30
0.0
  0
SPLINE
  5
2BF
100
AcDbEntity
  8
LAYER_CUT_FEAT
100
AcDbSpline
 62
7
  6
CONTINUOUS
 70
0
 71
3
 72
22
 73
18
 74
0
 42
0.0000001
 43
0.0000001
 44
0.0000000001
 40
0.0
 40
0.0
 40
0.0
 40
0.0
 40
0.1381198487
 40
0.2053664697
 40
0.2714548684
 40
0.3364371463
 40
0.4003725865
 40
0.463327841
 40
0.5253764035
 40
0.5865986141
 40
0.6470813144
 40
0.7069174397
 40
0.7662054996
 40
0.8250488604
 40
0.8835549599
 40
0.9418344153
 40
1.0
 40
1.0
 40
1.0
 40
1.0
 10
14.5362413311
 20
11.9161202802
 30
0.0
 10
14.5312379553
 20
11.926316088
 30
0.0
 10
14.5243437022
 20
11.9417556241
 30
0.0
 10
14.5164805818
 20
11.962650702
 30
0.0
 10
14.5113676158
 20
11.9781409523
 30
0.0
 10
14.5069924944
 20
11.9935725866
 30
0.0
 10
14.5033593649
 20
12.0089313028
 30
0.0
 10
14.5004719312
 20
12.0242022923
 30
0.0
 10
14.4983331169
 20
12.0393709655
 30
0.0
 10
14.496945125
 20
12.0544227468
 30
0.0
 10
14.4963094815
 20
12.0693431567
 30
0.0
 10
14.4964269766
 20
12.0841177946
 30
0.0
 10
14.4972976185
 20
12.0987323787
 30
0.0
 10
14.4989206985
 20
12.1131726997
 30
0.0
 10
14.5012948229
 20
12.1274248619
 30
0.0
 10
14.5044175703
 20
12.1414744712
 30
0.0
 10
14.5069977324
 20
12.1507010344
 30
0.0
 10
14.5084098525
 20
12.1552706511
 30
0.0
  0
SPLINE
  5
2C0
100
AcDbEntity
  8
LAYER_CHAMFER_FEAT
100
AcDbSpline
 62
7
  6
CONTINUOUS
 70
0
 71
3
 72
23
 73
19
 74
0
 42
0.0000001
 43
0.0000001
 44
0.0000000001
 40
0.0
 40
0.0
 40
0.0
 40
0.0
 40
0.0739010133
 40
0.1460109247
 40
0.2163347818
 40
0.2848920139
 40
0.3517176501
 40
0.4168632203
 40
0.4803974836
 40
0.5424073048
 40
0.6029981965
 40
0.6622943006
 40
0.7204381797
 40
0.7775901124
 40
0.833926507
 40
0.8896377988
 40
0.9449257489
 40
1.0
 40
1.0
 40
1.0
 40
1.0
 10
15.0168518252
 20
11.7060797216
 30
0.0
 10
15.0141838406
 20
11.7052556314
 30
0.0
 10
15.0089449467
 20
11.7035198348
 30
0.0
 10
15.0013015841
 20
11.7006148286
 30
0.0
 10
14.9939831039
 20
11.6974455633
 30
0.0
 10
14.9870035661
 20
11.6940179489
 30
0.0
 10
14.9803761753
 20
11.6903383381
 30
0.0
 10
14.9741135416
 20
11.6864135686
 30
0.0
 10
14.9682276313
 20
11.6822508844
 30
0.0
 10
14.9627297411
 20
11.6778579903
 30
0.0
 10
14.9576304546
 20
11.6732430657
 30
0.0
 10
14.9529396858
 20
11.6684146961
 30
0.0
 10
14.9486666499
 20
11.6633819102
 30
0.0
 10
14.9448197623
 20
11.6581542217
 30
0.0
 10
14.9414066998
 20
11.6527416144
 30
0.0
 10
14.9384343078
 20
11.6471543476
 30
0.0
 10
14.9359086942
 20
11.6414037297
 30
0.0
 10
14.9345249157
 20
11.6374649162
 30
0.0
 10
14.9339105156
 20
11.6354766959
 30
0.0
  0
SPLINE
  5
2C1
100
AcDbEntity
  8
LAYER_CHAMFER_FEAT
100
AcDbSpline
 62
7
  6
CONTINUOUS
 70
0
 71
3
 72
24
 73
20
 74
0
 42
0.0000001
 43
0.0000001
 44
0.0000000001
 40
0.0
 40
0.0
 40
0.0
 40
0.0
 40
0.0739184662
 40
0.1460439679
 40
0.2163811886
 40
0.2849494045
 40
0.3517835088
 40
0.3845685588
 40
0.4169408192
 40
0.4804779678
 40
0.5424879138
 40
0.6030761382
 40
0.6623668583
 40
0.7205029161
 40
0.7776448187
 40
0.8339692698
 40
0.8896671539
 40
0.9449406893
 40
1.0
 40
1.0
 40
1.0
 40
1.0
 10
15.3828573486
 20
11.5930840389
 30
0.0
 10
15.384600469
 20
11.5908959077
 30
0.0
 10
15.3879568248
 20
11.5865019277
 30
0.0
 10
15.3926432025
 20
11.5797829528
 30
0.0
 10
15.3969112717
 20
11.573028695
 30
0.0
 10
15.4007526711
 20
11.5662521738
 30
0.0
 10
15.4036103653
 20
11.5605608927
 30
0.0
 10
15.4056717535
 20
11.5560100122
 30
0.0
 10
15.4075602515
 20
11.5515198268
 30
0.0
 10
15.4096475647
 20
11.5459156963
 30
0.0
 10
15.4117166222
 20
11.5391774492
 30
0.0
 10
15.4133301407
 20
11.5324806359
 30
0.0
 10
15.4144846891
 20
11.5258381062
 30
0.0
 10
15.4151778064
 20
11.519262545
 30
0.0
 10
15.4154078683
 20
11.5127666075
 30
0.0
 10
15.4151741213
 20
11.5063629213
 30
0.0
 10
15.4144767488
 20
11.5000638722
 30
0.0
 10
15.4133170992
 20
11.4938822862
 30
0.0
 10
15.4122361682
 20
11.4898439303
 30
0.0
 10
15.4116209341
 20
11.4878530113
 30
0.0
  0
SPLINE
  5
2C2
100
AcDbEntity
  8
LAYER_FEATURE
100
AcDbSpline
 62
7
  6
CONTINUOUS
 70
0
 71
3
 72
41
 73
37
 74
0
 42
0.0000001
 43
0.0000001
 44
0.0000000001
 40
0.0
 40
0.0
 40
0.0
 40
0.0
 40
0.0202789315
 40
0.0308756986
 40
0.0417792297
 40
0.0529904145
 40
0.0645090546
 40
0.0884615636
 40
0.1136200579
 40
0.1399540572
 40
0.1674229689
 40
0.1959774096
 40
0.2255603881
 40
0.2561082505
 40
0.2875514754
 40
0.3198153527
 40
0.3528206859
 40
0.3864843932
 40
0.4207200423
 40
0.4554383387
 40
0.4905476409
 40
0.5259544578
 40
0.5615638994
 40
0.5972801179
 40
0.6330067679
 40
0.6686474666
 40
0.7041062289
 40
0.7392879039
 40
0.7740986482
 40
0.8084464118
 40
0.8422413357
 40
0.8753963275
 40
0.9078276226
 40
0.9394544954
 40
0.9702032111
 40
1.0
 40
1.0
 40
1.0
 40
1.0
 10
15.8773646073
 20
11.8431020565
 30
0.0
 10
15.8782615835
 20
11.8420274262
 30
0.0
 10
15.8795668999
 20
11.8403399456
 30
0.0
 10
15.8812214472
 20
11.8379776143
 30
0.0
 10
15.8824603325
 20
11.8360894325
 30
0.0
 10
15.8836779354
 20
11.8341124105
 30
0.0
 10
15.8852928297
 20
11.8313235721
 30
0.0
 10
15.8872480047
 20
11.8276212104
 30
0.0
 10
15.8894646409
 20
11.8229070166
 30
0.0
 10
15.8915744575
 20
11.8178798718
 30
0.0
 10
15.8935707752
 20
11.8125556934
 30
0.0
 10
15.8954473022
 20
11.8069512379
 30
0.0
 10
15.8971980862
 20
11.8010842144
 30
0.0
 10
15.8988175635
 20
11.7949731729
 30
0.0
 10
15.9003005738
 20
11.7886374607
 30
0.0
 10
15.9016424012
 20
11.7820971591
 30
0.0
 10
15.902838772
 20
11.775373011
 30
0.0
 10
15.9038858711
 20
11.76848635
 30
0.0
 10
15.9047803524
 20
11.7614590331
 30
0.0
 10
15.9055193632
 20
11.7543133735
 30
0.0
 10
15.906100552
 20
11.7470720663
 30
0.0
 10
15.9065220644
 20
11.7397581123
 30
0.0
 10
15.9067825516
 20
11.7323947453
 30
0.0
 10
15.9068811773
 20
11.7250053586
 30
0.0
 10
15.9068176342
 20
11.71761343
 30
0.0
 10
15.9065921266
 20
11.710242444
 30
0.0
 10
15.9062053728
 20
11.7029158185
 30
0.0
 10
15.9056585995
 20
11.69565683
 30
0.0
 10
15.904953556
 20
11.6884885359
 30
0.0
 10
15.9040924951
 20
11.6814337021
 30
0.0
 10
15.9030781651
 20
11.6745147292
 30
0.0
 10
15.9019137953
 20
11.667753573
 30
0.0
 10
15.9006030927
 20
11.6611717345
 30
0.0
 10
15.8991502498
 20
11.6547899579
 30
0.0
 10
15.897559885
 20
11.6486286908
 30
0.0
 10
15.8963921385
 20
11.6446150397
 30
0.0
 10
15.8957848828
 20
11.6426499595
 30
0.0
  0
SPLINE
  5
2C3
100
AcDbEntity
  8
LAYER_FEATURE
100
AcDbSpline
 62
7
  6
CONTINUOUS
 70
0
 71
3
 72
15
 73
11
 74
0
 42
0.0000001
 43
0.0000001
 44
0.0000000001
 40
0.0
 40
0.0
 40
0.0
 40
0.0
 40
0.1030415528
 40
0.2124413609
 40
0.3282547734
 40
0.4504493039
 40
0.5789186337
 40
0.7134889495
 40
0.8539445788
 40
1.0
 40
1.0
 40
1.0
 40
1.0
 10
15.8773646071
 20
11.6053083194
 30
0.0
 10
15.8782865919
 20
11.6064128968
 30
0.0
 10
15.8801008636
 20
11.6087634415
 30
0.0
 10
15.8826591957
 20
11.6125697894
 30
0.0
 10
15.8851272136
 20
11.6167489166
 30
0.0
 10
15.887496733
 20
11.621286831
 30
0.0
 10
15.8897600478
 20
11.6261686286
 30
0.0
 10
15.8919097576
 20
11.6313782281
 30
0.0
 10
15.8939385962
 20
11.6368982031
 30
0.0
 10
15.8951827505
 20
11.6407014586
 30
0.0
 10
15.8957848828
 20
11.6426499595
 30
0.0
  0
SPLINE
  5
2C4
100
AcDbEntity
  8
02___PRT_ALL_AXES
100
AcDbSpline
 62
7
  6
CONTINUOUS
 70
0
 71
3
 72
31
 73
27
 74
0
 42
0.0000001
 43
0.0000001
 44
0.0000000001
 40
0.0
 40
0.0
 40
0.0
 40
0.0
 40
0.0192048044
 40
0.0385946442
 40
0.0582724647
 40
0.0783366925
 40
0.0988794847
 40
0.1199859299
 40
0.1641773521
 40
0.1874120662
 40
0.2114769287
 40
0.2364208751
 40
0.2622858145
 40
0.2891082458
 40
0.3169196793
 40
0.3457459498
 40
0.3756087668
 40
0.4065263964
 40
0.4385126843
 40
0.5057267781
 40
0.5773086941
 40
0.6532697073
 40
0.7335843718
 40
0.8182003472
 40
0.9070442176
 40
1.0
 40
1.0
 40
1.0
 40
1.0
 10
15.8487579399
 20
11.5602051877
 30
0.0
 10
15.8484361039
 20
11.5602051866
 30
0.0
 10
15.8477890825
 20
11.5602293323
 30
0.0
 10
15.8468177193
 20
11.5603373421
 30
0.0
 10
15.84584239
 20
11.5605171834
 30
0.0
 10
15.8448631738
 20
11.5607687782
 30
0.0
 10
15.8438800005
 20
11.5610920021
 30
0.0
 10
15.8425435668
 20
11.5616263183
 30
0.0
 10
15.8412177803
 20
11.5623003605
 30
0.0
 10
15.8399076441
 20
11.5630974983
 30
0.0
 10
15.8389044263
 20
11.5637760625
 30
0.0
 10
15.8378972467
 20
11.5645249925
 30
0.0
 10
15.8368860384
 20
11.5653440435
 30
0.0
 10
15.8358708718
 20
11.566232908
 30
0.0
 10
15.8348518152
 20
11.5671912724
 30
0.0
 10
15.8338289509
 20
11.5682187685
 30
0.0
 10
15.8328023922
 20
11.5693150086
 30
0.0
 10
15.831772269
 20
11.5704795796
 30
0.0
 10
15.8303710286
 20
11.5721505561
 30
0.0
 10
15.8286145338
 20
11.5744115572
 30
0.0
 10
15.8265291767
 20
11.57734584
 30
0.0
 10
15.8244347555
 20
11.580539606
 30
0.0
 10
15.8223336453
 20
11.5839873642
 30
0.0
 10
15.8202285271
 20
11.5876832229
 30
0.0
 10
15.8181225905
 20
11.5916204741
 30
0.0
 10
15.8167507737
 20
11.5943411216
 30
0.0
 10
15.8160645128
 20
11.5957395742
 30
0.0
  0
SPLINE
  5
2C5
100
AcDbEntity
  8
LAYER_FEATURE
100
AcDbSpline
 62
7
  6
CONTINUOUS
 70
0
 71
3
 72
45
 73
41
 74
0
 42
0.0000001
 43
0.0000001
 44
0.0000000001
 40
0.0
 40
0.0
 40
0.0
 40
0.0
 40
0.0122363824
 40
0.0244805569
 40
0.0367402894
 40
0.0490232999
 40
0.0613372319
 40
0.0736896378
 40
0.0860879478
 40
0.098539456
 40
0.1110512976
 40
0.1236304276
 40
0.1362836142
 40
0.1490174056
 40
0.1747494151
 40
0.2008768354
 40
0.2274433973
 40
0.2544885756
 40
0.2820474752
 40
0.3101507965
 40
0.3388248652
 40
0.3680917163
 40
0.3979692164
 40
0.4284712157
 40
0.4596077221
 40
0.491385086
 40
0.5238061915
 40
0.5568706489
 40
0.590574985
 40
0.6249128292
 40
0.6598750933
 40
0.6954501435
 40
0.7316239685
 40
0.7683803376
 40
0.8057009519
 40
0.8435655875
 40
0.8819522331
 40
0.9208372201
 40
0.9601953472
 40
1.0
 40
1.0
 40
1.0
 40
1.0
 10
14.0861138447
 20
12.2857699876
 30
0.0
 10
14.0848701582
 20
12.2817454282
 30
0.0
 10
14.0825058265
 20
12.2736548761
 30
0.0
 10
14.0793329308
 20
12.2614096212
 30
0.0
 10
14.0765340198
 20
12.2490569315
 30
0.0
 10
14.0741100902
 20
12.236600802
 30
0.0
 10
14.0720617937
 20
12.2240451015
 30
0.0
 10
14.0703898444
 20
12.2113937514
 30
0.0
 10
14.0690946952
 20
12.198650709
 30
0.0
 10
14.0681767697
 20
12.1858199523
 30
0.0
 10
14.0676363461
 20
12.1729054795
 30
0.0
 10
14.0674735401
 20
12.159911352
 30
0.0
 10
14.0676884683
 20
12.1468415018
 30
0.0
 10
14.0684811016
 20
12.1292597959
 30
0.0
 10
14.0704269285
 20
12.10709637
 30
0.0
 10
14.074261974
 20
12.0803592966
 30
0.0
 10
14.0795998853
 20
12.0534204663
 30
0.0
 10
14.0864335066
 20
12.0263139954
 30
0.0
 10
14.0947538783
 20
11.9990733535
 30
0.0
 10
14.1045502432
 20
11.9717323173
 30
0.0
 10
14.1158100707
 20
11.9443246783
 30
0.0
 10
14.1285190727
 20
11.9168842931
 30
0.0
 10
14.1426612176
 20
11.8894450345
 30
0.0
 10
14.1582187427
 20
11.8620407659
 30
0.0
 10
14.1751721757
 20
11.8347053083
 30
0.0
 10
14.1935003516
 20
11.8074724049
 30
0.0
 10
14.2131804324
 20
11.7803756836
 30
0.0
 10
14.2341879293
 20
11.753448618
 30
0.0
 10
14.2564967278
 20
11.7267244877
 30
0.0
 10
14.2800791147
 20
11.7002363375
 30
0.0
 10
14.3049058073
 20
11.6740169358
 30
0.0
 10
14.330945984
 20
11.6480987311
 30
0.0
 10
14.3581673237
 20
11.6225138131
 30
0.0
 10
14.3865360434
 20
11.5972938713
 30
0.0
 10
14.4160169374
 20
11.5724701548
 30
0.0
 10
14.4465734252
 20
11.5480734286
 30
0.0
 10
14.4781675707
 20
11.5241339502
 30
0.0
 10
14.5107602277
 20
11.5006813697
 30
0.0
 10
14.5443107054
 20
11.4777449242
 30
0.0
 10
14.5671655382
 20
11.4628969123
 30
0.0
 10
14.5787408818
 20
11.4555638354
 30
0.0
  0
SPLINE
  5
2C6
100
AcDbEntity
  8
LAYER_FEATURE
100
AcDbSpline
 62
7
  6
CONTINUOUS
 70
0
 71
3
 72
32
 73
28
 74
0
 42
0.0000001
 43
0.0000001
 44
0.0000000001
 40
0.0
 40
0.0
 40
0.0
 40
0.0
 40
0.0287702465
 40
0.0575570394
 40
0.0863768744
 40
0.1152461597
 40
0.144181157
 40
0.1731979495
 40
0.2023123929
 40
0.2315400678
 40
0.2608962641
 40
0.2903959068
 40
0.3200535665
 40
0.3498833908
 40
0.3798990958
 40
0.4101139499
 40
0.4711865338
 40
0.5332026403
 40
0.5645946284
 40
0.5962546302
 40
0.660412091
 40
0.7257497666
 40
0.7588826594
 40
0.7923328173
 40
0.8602057132
 40
0.9294162674
 40
1.0
 40
1.0
 40
1.0
 40
1.0
 10
14.4443720034
 20
13.4450938139
 30
0.0
 10
14.4431901281
 20
13.4412692752
 30
0.0
 10
14.4409375275
 20
13.4335829228
 30
0.0
 10
14.4378959337
 20
13.4219543273
 30
0.0
 10
14.435191969
 20
13.410228374
 30
0.0
 10
14.4328265098
 20
13.3984084831
 30
0.0
 10
14.4308001395
 20
13.3864979685
 30
0.0
 10
14.4291134657
 20
13.3745001909
 30
0.0
 10
14.4277669561
 20
13.362418533
 30
0.0
 10
14.426760943
 20
13.3502564037
 30
0.0
 10
14.4260957698
 20
13.3380172262
 30
0.0
 10
14.4257715347
 20
13.3257044534
 30
0.0
 10
14.4257883868
 20
13.3133215447
 30
0.0
 10
14.4261462673
 20
13.3008720112
 30
0.0
 10
14.4268450813
 20
13.2883592616
 30
0.0
 10
14.4282359836
 20
13.2715372959
 30
0.0
 10
14.4308363806
 20
13.25035588
 30
0.0
 10
14.4345451668
 20
13.2291746899
 30
0.0
 10
14.438179115
 20
13.2121553074
 30
0.0
 10
14.442295894
 20
13.1949396654
 30
0.0
 10
14.4482964972
 20
13.1733257234
 30
0.0
 10
14.4553530275
 20
13.1518181165
 30
0.0
 10
14.4616519632
 20
13.1345764497
 30
0.0
 10
14.4684543518
 20
13.1171478889
 30
0.0
 10
14.4777937865
 20
13.0953274014
 30
0.0
 10
14.4902515158
 20
13.0692487853
 30
0.0
 10
14.4993271922
 20
13.0520389202
 30
0.0
 10
14.5040713135
 20
13.0434400358
 30
0.0
  0
SPLINE
  5
2C7
100
AcDbEntity
  8
LAYER_FEATURE
100
AcDbSpline
 62
7
  6
CONTINUOUS
 70
0
 71
3
 72
47
 73
43
 74
0
 42
0.0000001
 43
0.0000001
 44
0.0000000001
 40
0.0
 40
0.0
 40
0.0
 40
0.0
 40
0.012399252
 40
0.024805684
 40
0.0372264567
 40
0.0496686873
 40
0.0621394359
 40
0.0746456779
 40
0.0871942928
 40
0.0997920425
 40
0.1124455518
 40
0.125161303
 40
0.1379456037
 40
0.1508045945
 40
0.1637442178
 40
0.1767702183
 40
0.2031010455
 40
0.2298410287
 40
0.257028107
 40
0.2846964114
 40
0.3128762083
 40
0.3271671903
 40
0.3415956205
 40
0.3708737941
 40
0.400731303
 40
0.43118338
 40
0.4622417746
 40
0.4939149014
 40
0.5262079975
 40
0.5591232823
 40
0.5926601174
 40
0.6268151634
 40
0.6615825394
 40
0.6969539753
 40
0.7329189554
 40
0.7694648609
 40
0.8065771007
 40
0.8442392181
 40
0.8824331243
 40
0.9211388116
 40
0.9603356031
 40
1.0
 40
1.0
 40
1.0
 40
1.0
 10
16.4784876277
 20
11.5464705728
 30
0.0
 10
16.4773016394
 20
11.5426327246
 30
0.0
 10
16.4748160817
 20
11.5349891702
 30
0.0
 10
16.4707510571
 20
11.5236331034
 30
0.0
 10
16.4663499577
 20
11.5123879479
 30
0.0
 10
16.4616141405
 20
11.5012570008
 30
0.0
 10
16.4565448702
 20
11.4902434181
 30
0.0
 10
16.4511436585
 20
11.4793503053
 30
0.0
 10
16.4454120077
 20
11.4685807655
 30
0.0
 10
16.4393515539
 20
11.4579378535
 30
0.0
 10
16.4329640564
 20
11.447424563
 30
0.0
 10
16.4262512799
 20
11.4370439092
 30
0.0
 10
16.4192151973
 20
11.4267987806
 30
0.0
 10
16.4118577751
 20
11.416692134
 30
0.0
 10
16.4041810702
 20
11.4067267276
 30
0.0
 10
16.3934851703
 20
11.3935854672
 30
0.0
 10
16.3793113594
 20
11.3775206974
 30
0.0
 10
16.3611244708
 20
11.3589241174
 30
0.0
 10
16.341718524
 20
11.340959439
 30
0.0
 10
16.3211163243
 20
11.3236473225
 30
0.0
 10
16.3030552835
 20
11.3098451855
 30
0.0
 10
16.2880434187
 20
11.2991457699
 30
0.0
 10
16.2725067012
 20
11.2885772762
 30
0.0
 10
16.2523714481
 20
11.2758135767
 30
0.0
 10
16.2272310344
 20
11.2612960933
 30
0.0
 10
16.2010239428
 20
11.2475195048
 30
0.0
 10
16.1737801
 20
11.2344993489
 30
0.0
 10
16.145530191
 20
11.2222500757
 30
0.0
 10
16.1163061211
 20
11.2107853583
 30
0.0
 10
16.0861408507
 20
11.200117988
 30
0.0
 10
16.0550684019
 20
11.1902598824
 30
0.0
 10
16.0231238167
 20
11.1812220549
 30
0.0
 10
15.9903431185
 20
11.1730146131
 30
0.0
 10
15.9567632725
 20
11.1656467436
 30
0.0
 10
15.9224221458
 20
11.1591267001
 30
0.0
 10
15.8873584657
 20
11.1534617923
 30
0.0
 10
15.8516117861
 20
11.1486583791
 30
0.0
 10
15.8152224097
 20
11.1447218334
 30
0.0
 10
15.778231466
 20
11.1416565982
 30
0.0
 10
15.7406804934
 20
11.1394660552
 30
0.0
 10
15.7026122788
 20
11.1381527417
 30
0.0
 10
15.6770630182
 20
11.1378645999
 30
0.0
 10
15.6642131532
 20
11.1378645999
 30
0.0
  0
SPLINE
  5
2C8
100
AcDbEntity
  8
LAYER_FEATURE
100
AcDbSpline
 62
7
  6
CONTINUOUS
 70
0
 71
3
 72
31
 73
27
 74
0
 42
0.0000001
 43
0.0000001
 44
0.0000000001
 40
0.0
 40
0.0
 40
0.0
 40
0.0
 40
0.028772654
 40
0.0575618353
 40
0.0863840274
 40
0.1152556144
 40
0.1441928496
 40
0.1732117936
 40
0.2023282871
 40
0.2315579033
 40
0.2609159006
 40
0.2904172132
 40
0.3200763756
 40
0.3499075394
 40
0.3799244059
 40
0.41014022
 40
0.4712141343
 40
0.5332307101
 40
0.5962775735
 40
0.6604336285
 40
0.7257689218
 40
0.7589002645
 40
0.79234861
 40
0.8602171815
 40
0.9294224644
 40
1.0
 40
1.0
 40
1.0
 40
1.0
 10
16.8367457863
 20
12.7057943991
 30
0.0
 10
16.8355645766
 20
12.7019720142
 30
0.0
 10
16.8330894933
 20
12.6943591387
 30
0.0
 10
16.8290428831
 20
12.683048192
 30
0.0
 10
16.824662892
 20
12.6718472388
 30
0.0
 10
16.8199508607
 20
12.6607595365
 30
0.0
 10
16.8149080371
 20
12.6497882034
 30
0.0
 10
16.8095359114
 20
12.6389363089
 30
0.0
 10
16.803835969
 20
12.6282069178
 30
0.0
 10
16.797809819
 20
12.6176030514
 30
0.0
 10
16.7914592015
 20
12.6071276658
 30
0.0
 10
16.7847858532
 20
12.5967837431
 30
0.0
 10
16.7777917203
 20
12.5865741384
 30
0.0
 10
16.7704787448
 20
12.576501772
 30
0.0
 10
16.7628489483
 20
12.5665693755
 30
0.0
 10
16.7522193349
 20
12.5534708532
 30
0.0
 10
16.7381345879
 20
12.5374561657
 30
0.0
 10
16.720063095
 20
12.5189133718
 30
0.0
 10
16.7007815676
 20
12.5009966409
 30
0.0
 10
16.680312484
 20
12.483726417
 30
0.0
 10
16.6623683343
 20
12.4699534894
 30
0.0
 10
16.6474538882
 20
12.459274315
 30
0.0
 10
16.6320189167
 20
12.4487245973
 30
0.0
 10
16.6120156172
 20
12.4359800846
 30
0.0
 10
16.5870398568
 20
12.4214785846
 30
0.0
 10
16.5698527655
 20
12.412390152
 30
0.0
 10
16.5610924638
 20
12.4079671458
 30
0.0
  0
SPLINE
  5
2C9
100
AcDbEntity
  8
LAYER_CUT_FEAT
100
AcDbSpline
 62
7
  6
CONTINUOUS
 70
0
 71
3
 72
27
 73
23
 74
0
 42
0.0000001
 43
0.0000001
 44
0.0000000001
 40
0.0
 40
0.0
 40
0.0
 40
0.0
 40
0.0286056559
 40
0.0572291293
 40
0.0858881838
 40
0.1146004756
 40
0.14338349
 40
0.1722545138
 40
0.201230552
 40
0.2303283091
 40
0.2889478155
 40
0.3482451919
 40
0.4083387583
 40
0.4693384183
 40
0.5313449644
 40
0.5944495989
 40
0.658733639
 40
0.7242684392
 40
0.7911154546
 40
0.8593264141
 40
0.9289435647
 40
1.0
 40
1.0
 40
1.0
 40
1.0
 10
16.05619162
 20
11.6769699094
 30
0.0
 10
16.0553958203
 20
11.6743947039
 30
0.0
 10
16.0537251358
 20
11.6692665979
 30
0.0
 10
16.0509848534
 20
11.6616505985
 30
0.0
 10
16.0480107468
 20
11.6541119493
 30
0.0
 10
16.0448037577
 20
11.646653051
 30
0.0
 10
16.0413648973
 20
11.6392761325
 30
0.0
 10
16.0376951759
 20
11.6319834999
 30
0.0
 10
16.0337957207
 20
11.6247772814
 30
0.0
 10
16.0282787015
 20
11.6152646337
 30
0.0
 10
16.0208032741
 20
11.6035922778
 30
0.0
 10
16.0109566268
 20
11.5900029145
 30
0.0
 10
16.0002235186
 20
11.5768118755
 30
0.0
 10
15.9886175393
 20
11.5640355011
 30
0.0
 10
15.9761530659
 20
11.5516891221
 30
0.0
 10
15.9628455306
 20
11.5397876296
 30
0.0
 10
15.9487113425
 20
11.5283452917
 30
0.0
 10
15.9337678582
 20
11.5173758088
 30
0.0
 10
15.9180333916
 20
11.5068923155
 30
0.0
 10
15.9015270581
 20
11.4969073129
 30
0.0
 10
15.884269313
 20
11.4874329063
 30
0.0
 10
15.8723991486
 20
11.4815252827
 30
0.0
 10
15.8663492
 20
11.4786573754
 30
0.0
  0
SPLINE
  5
2CA
100
AcDbEntity
  8
02___PRT_ALL_AXES
100
AcDbSpline
 62
7
  6
CONTINUOUS
 70
0
 71
3
 72
40
 73
36
 74
0
 42
0.0000001
 43
0.0000001
 44
0.0000000001
 40
0.0
 40
0.0
 40
0.0
 40
0.0
 40
0.0275356925
 40
0.0549907691
 40
0.0824101485
 40
0.1098432271
 40
0.1373435984
 40
0.164968418
 40
0.1927772118
 40
0.2208303597
 40
0.2491871601
 40
0.2779037715
 40
0.3070310962
 40
0.3366128422
 40
0.3666838848
 40
0.3972689991
 40
0.4283820327
 40
0.460025423
 40
0.4760454414
 40
0.4921936649
 40
0.5248591301
 40
0.5579937011
 40
0.5915549159
 40
0.6254899598
 40
0.6597361064
 40
0.6942212894
 40
0.728864719
 40
0.7635777045
 40
0.7982646228
 40
0.8328242247
 40
0.8671511841
 40
0.9011380119
 40
0.9346773991
 40
0.9676644006
 40
1.0
 40
1.0
 40
1.0
 40
1.0
 10
15.1647818127
 20
12.2150982476
 30
0.0
 10
15.1660801605
 20
12.2124525077
 30
0.0
 10
15.1684515102
 20
12.2070565761
 30
0.0
 10
15.1713020602
 20
12.1986986546
 30
0.0
 10
15.1734207292
 20
12.1901364091
 30
0.0
 10
15.1747906636
 20
12.1814181058
 30
0.0
 10
15.1753992221
 20
12.1725916826
 30
0.0
 10
15.1752379013
 20
12.1637055766
 30
0.0
 10
15.1743029534
 20
12.1548079262
 30
0.0
 10
15.1725957162
 20
12.1459461005
 30
0.0
 10
15.1701228497
 20
12.1371660575
 30
0.0
 10
15.1668963811
 20
12.1285117372
 30
0.0
 10
15.1629335655
 20
12.1200244961
 30
0.0
 10
15.1582565628
 20
12.1117426486
 30
0.0
 10
15.1528920071
 20
12.1037011669
 30
0.0
 10
15.1468703972
 20
12.0959314681
 30
0.0
 10
15.1402257892
 20
12.0884616416
 30
0.0
 10
15.1342242425
 20
12.0825311352
 30
0.0
 10
15.1291516652
 20
12.077956636
 30
0.0
 10
15.1238617425
 20
12.0734643104
 30
0.0
 10
15.1169308905
 20
12.0680808155
 30
0.0
 10
15.1081819963
 20
12.0620262774
 30
0.0
 10
15.099012913
 20
12.0563664606
 30
0.0
 10
15.089469017
 20
12.0511139673
 30
0.0
 10
15.0795966653
 20
12.0462797966
 30
0.0
 10
15.0694434849
 20
12.0418738607
 30
0.0
 10
15.0590582895
 20
12.0379051088
 30
0.0
 10
15.0484910898
 20
12.0343816785
 30
0.0
 10
15.0377930241
 20
12.0313109531
 30
0.0
 10
15.0270162369
 20
12.0286995714
 30
0.0
 10
15.0162136507
 20
12.0265533881
 30
0.0
 10
15.0054386855
 20
12.0248773891
 30
0.0
 10
14.9947447367
 20
12.0236756238
 30
0.0
 10
14.984185146
 20
12.022951068
 30
0.0
 10
14.9771927232
 20
12.0227856224
 30
0.0
 10
14.9737318476
 20
12.0227856224
 30
0.0
  0
SPLINE
  5
2CB
100
AcDbEntity
  8
LAYER_FEATURE
100
AcDbSpline
 62
7
  6
CONTINUOUS
 70
0
 71
3
 72
80
 73
76
 74
0
 42
0.0000001
 43
0.0000001
 44
0.0000000001
 40
0.0
 40
0.0
 40
0.0
 40
0.0
 40
0.0171786082
 40
0.034530198
 40
0.0520439838
 40
0.0697095606
 40
0.0875157518
 40
0.105451206
 40
0.1235042506
 40
0.1416629551
 40
0.1599151638
 40
0.1782485183
 40
0.196650488
 40
0.215108397
 40
0.2336094524
 40
0.252140772
 40
0.2706894107
 40
0.289242387
 40
0.3077867108
 40
0.3263094098
 40
0.3447975567
 40
0.363238296
 40
0.3816188704
 40
0.3999266494
 40
0.4181491568
 40
0.4362740982
 40
0.4542893888
 40
0.4721831827
 40
0.4899439032
 40
0.5075602729
 40
0.5250213434
 40
0.5423165268
 40
0.5594356282
 40
0.5763688815
 40
0.5931069834
 40
0.6096411284
 40
0.625963046
 40
0.6420650398
 40
0.6579400312
 40
0.6735816004
 40
0.68898403
 40
0.7041423511
 40
0.719052392
 40
0.733710832
 40
0.7481152528
 40
0.7622641919
 40
0.7761571985
 40
0.789794892
 40
0.8031790231
 40
0.8163125314
 40
0.8291996013
 40
0.8418457169
 40
0.8542577138
 40
0.8603787795
 40
0.8664445246
 40
0.8784144197
 40
0.8901792225
 40
0.8959889946
 40
0.9017523407
 40
0.913146193
 40
0.9243770775
 40
0.929937084
 40
0.9354627808
 40
0.9409564793
 40
0.9464205594
 40
0.9518574751
 40
0.9572697446
 40
0.962659945
 40
0.9680307113
 40
0.9733847243
 40
0.97872471
 40
0.9840534296
 40
0.9893736732
 40
0.9946882543
 40
1.0
 40
1.0
 40
1.0
 40
1.0
 10
15.2780117837
 20
13.9163659395
 30
0.0
 10
15.2904835425
 20
13.9163659395
 30
0.0
 10
15.3155534461
 20
13.9160915121
 30
0.0
 10
15.3533206321
 20
13.9148721718
 30
0.0
 10
15.3914071943
 20
13.9128441836
 30
0.0
 10
15.4297730723
 20
13.9100097466
 30
0.0
 10
15.4683785611
 20
13.9063717541
 30
0.0
 10
15.5071834015
 20
13.901934013
 30
0.0
 10
15.546147228
 20
13.896701142
 30
0.0
 10
15.5852294826
 20
13.8906785924
 30
0.0
 10
15.6243894856
 20
13.8838726343
 30
0.0
 10
15.6635864764
 20
13.8762903489
 30
0.0
 10
15.7027796523
 20
13.8679396231
 30
0.0
 10
15.741928216
 20
13.8588291549
 30
0.0
 10
15.7809914156
 20
13.8489684314
 30
0.0
 10
15.8199285875
 20
13.8383677174
 30
0.0
 10
15.858699198
 20
13.8270380457
 30
0.0
 10
15.8972628851
 20
13.8149912043
 30
0.0
 10
15.9355795052
 20
13.8022397389
 30
0.0
 10
15.9736091723
 20
13.7887969271
 30
0.0
 10
16.0113122985
 20
13.7746767629
 30
0.0
 10
16.0486496347
 20
13.7598939428
 30
0.0
 10
16.0855823114
 20
13.7444638494
 30
0.0
 10
16.1220718854
 20
13.7284025487
 30
0.0
 10
16.158080376
 20
13.7117267626
 30
0.0
 10
16.1935703029
 20
13.6944538482
 30
0.0
 10
16.2285047246
 20
13.6766017819
 30
0.0
 10
16.2628472766
 20
13.6581891377
 30
0.0
 10
16.2965622175
 20
13.6392350815
 30
0.0
 10
16.3296144616
 20
13.6197593404
 30
0.0
 10
16.3619696118
 20
13.5997821796
 30
0.0
 10
16.393593996
 20
13.5793243824
 30
0.0
 10
16.424454701
 20
13.5584072255
 30
0.0
 10
16.4545196168
 20
13.53705247
 30
0.0
 10
16.4837574644
 20
13.5152823282
 30
0.0
 10
16.5121378238
 20
13.4931194377
 30
0.0
 10
16.5396311656
 20
13.4705868391
 30
0.0
 10
16.5662088801
 20
13.4477079485
 30
0.0
 10
16.5918433189
 20
13.4245065447
 30
0.0
 10
16.6165078169
 20
13.4010067353
 30
0.0
 10
16.6401767132
 20
13.3772329281
 30
0.0
 10
16.6628253777
 20
13.3532098076
 30
0.0
 10
16.6844302333
 20
13.3289623052
 30
0.0
 10
16.7049687936
 20
13.3045155835
 30
0.0
 10
16.7244196776
 20
13.2798950032
 30
0.0
 10
16.7427626228
 20
13.2551260931
 30
0.0
 10
16.7599785043
 20
13.2302345261
 30
0.0
 10
16.7760493487
 20
13.2052460924
 30
0.0
 10
16.7909583703
 20
13.1801866731
 30
0.0
 10
16.8046899635
 20
13.1550822469
 30
0.0
 10
16.817229759
 20
13.1299587255
 30
0.0
 10
16.8285644477
 20
13.1048424358
 30
0.0
 10
16.8370347998
 20
13.0838431096
 30
0.0
 10
16.8431877404
 20
13.0670763876
 30
0.0
 10
16.8488761071
 20
13.0504854001
 30
0.0
 10
16.855225144
 20
13.0297948725
 30
0.0
 10
16.8605868631
 20
13.0090180023
 30
0.0
 10
16.86424097
 20
12.9924718273
 30
0.0
 10
16.8674493218
 20
12.976107885
 30
0.0
 10
16.8706843337
 20
12.9557446822
 30
0.0
 10
16.8728868783
 20
12.935391901
 30
0.0
 10
16.8740093454
 20
12.9192273495
 30
0.0
 10
16.8745321158
 20
12.9072005597
 30
0.0
 10
16.8747384517
 20
12.895233879
 30
0.0
 10
16.8746282404
 20
12.8833303443
 30
0.0
 10
16.8742015323
 20
12.8714930898
 30
0.0
 10
16.87345844
 20
12.8597252007
 30
0.0
 10
16.8723991003
 20
12.8480297589
 30
0.0
 10
16.8710238533
 20
12.8364098163
 30
0.0
 10
16.8693329867
 20
12.8248684193
 30
0.0
 10
16.8673269734
 20
12.813408582
 30
0.0
 10
16.8650063424
 20
12.8020333083
 30
0.0
 10
16.8623716405
 20
12.7907455553
 30
0.0
 10
16.8594236584
 20
12.7795483769
 30
0.0
 10
16.8572496739
 20
12.7721449928
 30
0.0
 10
16.8561110922
 20
12.7684605519
 30
0.0
  0
SPLINE
  5
2CC
100
AcDbEntity
  8
02___PRT_ALL_AXES
100
AcDbSpline
 62
7
  6
CONTINUOUS
 70
0
 71
3
 72
68
 73
64
 74
0
 42
0.0000001
 43
0.0000001
 44
0.0000000001
 40
0.0
 40
0.0
 40
0.0
 40
0.0
 40
0.010625414
 40
0.0212734716
 40
0.0319665787
 40
0.0427266737
 40
0.0535750125
 40
0.0645319752
 40
0.0756168978
 40
0.0868479323
 40
0.0982419363
 40
0.109814392
 40
0.1215793511
 40
0.133549406
 40
0.1457356811
 40
0.1581478434
 40
0.1707941265
 40
0.1836813673
 40
0.1968150506
 40
0.2101993608
 40
0.223837236
 40
0.2377304268
 40
0.2518795537
 40
0.2662841668
 40
0.2809428029
 40
0.2958530425
 40
0.3110115644
 40
0.3264141983
 40
0.3420559759
 40
0.3579311795
 40
0.374033388
 40
0.3903555222
 40
0.4068898869
 40
0.423628212
 40
0.4405616914
 40
0.4576810208
 40
0.4749764337
 40
0.4924377362
 40
0.5100543406
 40
0.5278152981
 40
0.5457093304
 40
0.5637248605
 40
0.5818500429
 40
0.600072793
 40
0.618380816
 40
0.6367616351
 40
0.6552026196
 40
0.6736910126
 40
0.7107569403
 40
0.7478574649
 40
0.78488874
 40
0.8033468946
 40
0.821749109
 40
0.8400827077
 40
0.8583351596
 40
0.8764941063
 40
0.8945473901
 40
0.9124830828
 40
0.9302895159
 40
0.9479553049
 40
0.9654694004
 40
0.9828210557
 40
1.0
 40
1.0
 40
1.0
 40
1.0
 10
14.5073141177
 20
11.7351250387
 30
0.0
 10
14.5060643816
 20
11.7310808918
 30
0.0
 10
14.5037902014
 20
11.7229115093
 30
0.0
 10
14.5010695383
 20
11.7104644983
 30
0.0
 10
14.4990405211
 20
11.6978315371
 30
0.0
 10
14.4977053664
 20
11.6850265385
 30
0.0
 10
14.4970653233
 20
11.672062928
 30
0.0
 10
14.4971209336
 20
11.6589544391
 30
0.0
 10
14.4978719723
 20
11.6457148724
 30
0.0
 10
14.4993174771
 20
11.6323581379
 30
0.0
 10
14.501455754
 20
11.6188982246
 30
0.0
 10
14.5042843894
 20
11.6053491924
 30
0.0
 10
14.507800259
 20
11.5917251609
 30
0.0
 10
14.5119995363
 20
11.5780403
 30
0.0
 10
14.5168777004
 20
11.5643088204
 30
0.0
 10
14.5224295426
 20
11.5505449649
 30
0.0
 10
14.5286491721
 20
11.5367629981
 30
0.0
 10
14.5355300216
 20
11.5229771964
 30
0.0
 10
14.543064853
 20
11.5092018364
 30
0.0
 10
14.5512457634
 20
11.4954511835
 30
0.0
 10
14.5600641911
 20
11.4817394789
 30
0.0
 10
14.5695109225
 20
11.4680809265
 30
0.0
 10
14.5795760998
 20
11.4544896789
 30
0.0
 10
14.5902492297
 20
11.440979824
 30
0.0
 10
14.6015191929
 20
11.42756537
 30
0.0
 10
14.6133742541
 20
11.4142602314
 30
0.0
 10
14.6258020732
 20
11.4010782142
 30
0.0
 10
14.6387897167
 20
11.3880330012
 30
0.0
 10
14.6523236709
 20
11.3751381378
 30
0.0
 10
14.6663898546
 20
11.3624070173
 30
0.0
 10
14.6809736334
 20
11.3498528665
 30
0.0
 10
14.6960598347
 20
11.3374887316
 30
0.0
 10
14.7116327626
 20
11.3253274641
 30
0.0
 10
14.7276762146
 20
11.3133817077
 30
0.0
 10
14.7441734983
 20
11.3016638839
 30
0.0
 10
14.761107448
 20
11.2901861796
 30
0.0
 10
14.7784604431
 20
11.2789605335
 30
0.0
 10
14.7962144262
 20
11.2679986237
 30
0.0
 10
14.8143509214
 20
11.2573118554
 30
0.0
 10
14.8328510542
 20
11.2469113486
 30
0.0
 10
14.8516955704
 20
11.236807926
 30
0.0
 10
14.8708648567
 20
11.2270121022
 30
0.0
 10
14.8903389616
 20
11.217534072
 30
0.0
 10
14.9100976134
 20
11.2083837012
 30
0.0
 10
14.9301202519
 20
11.199570511
 30
0.0
 10
14.9503860111
 20
11.1911036866
 30
0.0
 10
14.9708738865
 20
11.1829919989
 30
0.0
 10
14.9984802822
 20
11.1726531759
 30
0.0
 10
15.033402571
 20
11.1606726906
 30
0.0
 10
15.0758145526
 20
11.1478521512
 30
0.0
 10
15.1115010047
 20
11.1384889483
 30
0.0
 10
15.140172458
 20
11.1318166404
 30
0.0
 10
15.1616786796
 20
11.1272344049
 30
0.0
 10
15.1831869159
 20
11.1230738384
 30
0.0
 10
15.2046748773
 20
11.1193392569
 30
0.0
 10
15.2261201706
 20
11.1160345519
 30
0.0
 10
15.2475004815
 20
11.1131631621
 30
0.0
 10
15.2687935544
 20
11.1107280768
 30
0.0
 10
15.2899772299
 20
11.1087318315
 30
0.0
 10
15.3110294556
 20
11.1071765033
 30
0.0
 10
15.3319283481
 20
11.1060637157
 30
0.0
 10
15.3526520425
 20
11.1053946235
 30
0.0
 10
15.3664084284
 20
11.1052440463
 30
0.0
 10
15.3732520001
 20
11.1052440463
 30
0.0
  0
SPLINE
  5
2CD
100
AcDbEntity
  8
02___PRT_ALL_AXES
100
AcDbSpline
 62
7
  6
CONTINUOUS
 70
0
 71
3
 72
39
 73
35
 74
0
 42
0.0000001
 43
0.0000001
 44
0.0000000001
 40
0.0
 40
0.0
 40
0.0
 40
0.0
 40
0.0248034971
 40
0.0496643332
 40
0.0746391944
 40
0.0997834851
 40
0.1251507432
 40
0.1507921174
 40
0.17675592
 40
0.2030872601
 40
0.2298277628
 40
0.2570153688
 40
0.284684211
 40
0.3128645568
 40
0.3415828092
 40
0.3708615535
 40
0.4007196423
 40
0.4311723104
 40
0.4622313086
 40
0.4939050524
 40
0.5261987783
 40
0.5591147045
 40
0.5926521911
 40
0.6268079003
 40
0.6615759523
 40
0.6969480769
 40
0.7329137584
 40
0.7694603756
 40
0.8065733344
 40
0.8442361968
 40
0.8824307944
 40
0.9211373876
 40
0.9603346197
 40
1.0
 40
1.0
 40
1.0
 40
1.0
 10
15.8200623577
 20
11.3294551503
 30
0.0
 10
15.8187605685
 20
11.3252425593
 30
0.0
 10
15.8159053304
 20
11.3168821876
 30
0.0
 10
15.810885877
 20
11.304592423
 30
0.0
 10
15.8051333771
 20
11.2925606376
 30
0.0
 10
15.7986547374
 20
11.2808012097
 30
0.0
 10
15.7914574906
 20
11.2693274247
 30
0.0
 10
15.7835500566
 20
11.2581523823
 30
0.0
 10
15.7749416407
 20
11.2472887336
 30
0.0
 10
15.7656422321
 20
11.2367487388
 30
0.0
 10
15.7556625769
 20
11.2265442438
 30
0.0
 10
15.745014159
 20
11.2166866814
 30
0.0
 10
15.7337091843
 20
11.2071870672
 30
0.0
 10
15.7217605653
 20
11.1980559967
 30
0.0
 10
15.7091819085
 20
11.1893036416
 30
0.0
 10
15.6959875016
 20
11.1809397446
 30
0.0
 10
15.6821923018
 20
11.1729736129
 30
0.0
 10
15.6678119222
 20
11.1654141123
 30
0.0
 10
15.6528626179
 20
11.1582696599
 30
0.0
 10
15.6373612717
 20
11.1515482155
 30
0.0
 10
15.6213253786
 20
11.1452572732
 30
0.0
 10
15.6047730291
 20
11.1394038534
 30
0.0
 10
15.587722892
 20
11.1339944924
 30
0.0
 10
15.5701941948
 20
11.129035236
 30
0.0
 10
15.5522067034
 20
11.1245316311
 30
0.0
 10
15.5337807012
 20
11.120488719
 30
0.0
 10
15.5149369671
 20
11.1169110287
 30
0.0
 10
15.4956967528
 20
11.1138025703
 30
0.0
 10
15.4760817602
 20
11.1111668293
 30
0.0
 10
15.4561141145
 20
11.1090067625
 30
0.0
 10
15.4358163487
 20
11.1073247912
 30
0.0
 10
15.4152113407
 20
11.1061228067
 30
0.0
 10
15.3943224651
 20
11.1054021496
 30
0.0
 10
15.3803030419
 20
11.1052440463
 30
0.0
 10
15.3732520001
 20
11.1052440463
 30
0.0
  0
SPLINE
  5
2CE
100
AcDbEntity
  8
LAYER_CHAMFER_FEAT
100
AcDbSpline
 62
7
  6
CONTINUOUS
 70
0
 71
3
 72
15
 73
11
 74
0
 42
0.0000001
 43
0.0000001
 44
0.0000000001
 40
0.0
 40
0.0
 40
0.0
 40
0.0
 40
0.1317629009
 40
0.2617726516
 40
0.3899189827
 40
0.5161208785
 40
0.640298916
 40
0.7623789527
 40
0.8822974713
 40
1.0
 40
1.0
 40
1.0
 40
1.0
 10
15.0759887011
 20
11.7110029604
 30
0.0
 10
15.072669218
 20
11.7110029604
 30
0.0
 10
15.066074083
 20
11.7109192705
 30
0.0
 10
15.0562572363
 20
11.7105373364
 30
0.0
 10
15.0465939222
 20
11.709900239
 30
0.0
 10
15.0370982459
 20
11.7090089251
 30
0.0
 10
15.027783613
 20
11.7078647029
 30
0.0
 10
15.0186633208
 20
11.706469123
 30
0.0
 10
15.0097505519
 20
11.7048242226
 30
0.0
 10
15.0038999185
 20
11.7035508704
 30
0.0
 10
15.0010134068
 20
11.7028720256
 30
0.0
  0
SPLINE
  5
2CF
100
AcDbEntity
  8
LAYER_CHAMFER_FEAT
100
AcDbSpline
 62
7
  6
CONTINUOUS
 70
0
 71
3
 72
35
 73
31
 74
0
 42
0.0000001
 43
0.0000001
 44
0.0000000001
 40
0.0
 40
0.0
 40
0.0
 40
0.0
 40
0.0305401743
 40
0.061460357
 40
0.0927281451
 40
0.1243148108
 40
0.1561886587
 40
0.188316915
 40
0.2206662847
 40
0.2532025738
 40
0.3186917197
 40
0.3845052326
 40
0.4503551413
 40
0.5159530044
 40
0.5485703403
 40
0.581018233
 40
0.6132621699
 40
0.6452683411
 40
0.6770037478
 40
0.7084363054
 40
0.7395350257
 40
0.7702701247
 40
0.8006131341
 40
0.8305371124
 40
0.8600167605
 40
0.8890285481
 40
0.9175509589
 40
0.9455646231
 40
0.9730524677
 40
1.0
 40
1.0
 40
1.0
 40
1.0
 10
15.0759887011
 20
11.7110029604
 30
0.0
 10
15.0795775088
 20
11.7110029604
 30
0.0
 10
15.0868001341
 20
11.7109038812
 30
0.0
 10
15.0976890645
 20
11.7104651712
 30
0.0
 10
15.1086857001
 20
11.7097360177
 30
0.0
 10
15.1197718147
 20
11.7087176657
 30
0.0
 10
15.1309295369
 20
11.7074117777
 30
0.0
 10
15.1421406288
 20
11.7058204737
 30
0.0
 10
15.1533868854
 20
11.7039463265
 30
0.0
 10
15.1684358378
 20
11.7010683817
 30
0.0
 10
15.1872135879
 20
11.6967829262
 30
0.0
 10
15.2095446802
 20
11.6905832734
 30
0.0
 10
15.2315779257
 20
11.6833554571
 30
0.0
 10
15.2496060952
 20
11.6765014888
 30
0.0
 10
15.2637580782
 20
11.670542142
 30
0.0
 10
15.2741896443
 20
11.6658554303
 30
0.0
 10
15.2844410537
 20
11.6609510417
 30
0.0
 10
15.2944956797
 20
11.6558369514
 30
0.0
 10
15.3043371241
 20
11.6505215074
 30
0.0
 10
15.3139493423
 20
11.6450133401
 30
0.0
 10
15.3233166837
 20
11.6393214421
 30
0.0
 10
15.3324238935
 20
11.6334550891
 30
0.0
 10
15.3412561198
 20
11.6274238068
 30
0.0
 10
15.3497989893
 20
11.6212374313
 30
0.0
 10
15.3580385949
 20
11.6149060375
 30
0.0
 10
15.3659615008
 20
11.6084398968
 30
0.0
 10
15.3735548106
 20
11.6018495502
 30
0.0
 10
15.3808061989
 20
11.5951456849
 30
0.0
 10
15.3877037218
 20
11.5883392833
 30
0.0
 10
15.3921032544
 20
11.5836936401
 30
0.0
 10
15.3942393789
 20
11.5813560058
 30
0.0
  0
SPLINE
  5
2D0
100
AcDbEntity
  8
LAYER_FEATURE
100
AcDbSpline
 62
7
  6
CONTINUOUS
 70
0
 71
3
 72
47
 73
43
 74
0
 42
0.0000001
 43
0.0000001
 44
0.0000000001
 40
0.0
 40
0.0
 40
0.0
 40
0.0
 40
0.0396643969
 40
0.0788611884
 40
0.1175668757
 40
0.1557607819
 40
0.1934228993
 40
0.2305351391
 40
0.2670810446
 40
0.3030460247
 40
0.3384174606
 40
0.3731848366
 40
0.4073398826
 40
0.4408767177
 40
0.4737920025
 40
0.5060850986
 40
0.5377582254
 40
0.56881662
 40
0.599268697
 40
0.6291262059
 40
0.6584043795
 40
0.6728328097
 40
0.6871237917
 40
0.7153035886
 40
0.742971893
 40
0.7701589713
 40
0.7968989545
 40
0.8232297817
 40
0.8362557822
 40
0.8491954055
 40
0.8620543963
 40
0.874838697
 40
0.8875544482
 40
0.9002079575
 40
0.9128057072
 40
0.9253543221
 40
0.9378605641
 40
0.9503313127
 40
0.9627735433
 40
0.975194316
 40
0.987600748
 40
1.0
 40
1.0
 40
1.0
 40
1.0
 10
14.9197536251
 20
12.7570421133
 30
0.0
 10
14.9069037601
 20
12.7570421133
 30
0.0
 10
14.8813544995
 20
12.7567539715
 30
0.0
 10
14.8432862849
 20
12.7554406581
 30
0.0
 10
14.8057353123
 20
12.753250115
 30
0.0
 10
14.7687443686
 20
12.7501848798
 30
0.0
 10
14.7323549922
 20
12.7462483341
 30
0.0
 10
14.6966083126
 20
12.741444921
 30
0.0
 10
14.6615446325
 20
12.7357800131
 30
0.0
 10
14.6272035058
 20
12.7292599696
 30
0.0
 10
14.5936236598
 20
12.7218921001
 30
0.0
 10
14.5608429616
 20
12.7136846583
 30
0.0
 10
14.5288983764
 20
12.7046468308
 30
0.0
 10
14.4978259276
 20
12.6947887252
 30
0.0
 10
14.4676606572
 20
12.6841213549
 30
0.0
 10
14.4384365873
 20
12.6726566375
 30
0.0
 10
14.4101866783
 20
12.6604073643
 30
0.0
 10
14.3829428355
 20
12.6473872084
 30
0.0
 10
14.3567357439
 20
12.6336106199
 30
0.0
 10
14.3315953302
 20
12.6190931365
 30
0.0
 10
14.3114600771
 20
12.606329437
 30
0.0
 10
14.2959233596
 20
12.5957609433
 30
0.0
 10
14.2809114948
 20
12.5850615277
 30
0.0
 10
14.262850454
 20
12.5712593907
 30
0.0
 10
14.2422482543
 20
12.5539472742
 30
0.0
 10
14.2228423075
 20
12.5359825958
 30
0.0
 10
14.2046554189
 20
12.5173860158
 30
0.0
 10
14.1904816081
 20
12.501321246
 30
0.0
 10
14.1797857081
 20
12.4881799856
 30
0.0
 10
14.1721090032
 20
12.4782145792
 30
0.0
 10
14.164751581
 20
12.4681079326
 30
0.0
 10
14.1577154984
 20
12.457862804
 30
0.0
 10
14.1510027219
 20
12.4474821502
 30
0.0
 10
14.1446152244
 20
12.4369688597
 30
0.0
 10
14.1385547706
 20
12.4263259477
 30
0.0
 10
14.1328231198
 20
12.415556408
 30
0.0
 10
14.1274219081
 20
12.4046632951
 30
0.0
 10
14.1223526378
 20
12.3936497124
 30
0.0
 10
14.1176168206
 20
12.3825187653
 30
0.0
 10
14.1132157212
 20
12.3712736098
 30
0.0
 10
14.1091506966
 20
12.359917543
 30
0.0
 10
14.1066651389
 20
12.3522739886
 30
0.0
 10
14.1054791506
 20
12.3484361404
 30
0.0
  0
SPLINE
  5
2D1
100
AcDbEntity
  8
LAYER_FEATURE
100
AcDbSpline
 62
7
  6
CONTINUOUS
 70
0
 71
3
 72
47
 73
43
 74
0
 42
0.0000001
 43
0.0000001
 44
0.0000000001
 40
0.0
 40
0.0
 40
0.0
 40
0.0
 40
0.0396643969
 40
0.0788611884
 40
0.1175668757
 40
0.1557607819
 40
0.1934228993
 40
0.2305351391
 40
0.2670810446
 40
0.3030460247
 40
0.3384174606
 40
0.3731848366
 40
0.4073398826
 40
0.4408767177
 40
0.4737920025
 40
0.5060850986
 40
0.5377582254
 40
0.56881662
 40
0.599268697
 40
0.6291262059
 40
0.6584043795
 40
0.6728328097
 40
0.6871237917
 40
0.7153035886
 40
0.742971893
 40
0.7701589713
 40
0.7968989545
 40
0.8232297817
 40
0.8362557822
 40
0.8491954055
 40
0.8620543963
 40
0.874838697
 40
0.8875544482
 40
0.9002079575
 40
0.9128057072
 40
0.9253543221
 40
0.9378605641
 40
0.9503313127
 40
0.9627735433
 40
0.975194316
 40
0.987600748
 40
1.0
 40
1.0
 40
1.0
 40
1.0
 10
15.2780117837
 20
13.9163659395
 30
0.0
 10
15.2651619188
 20
13.9163659395
 30
0.0
 10
15.2396126581
 20
13.9160777977
 30
0.0
 10
15.2015444436
 20
13.9147644843
 30
0.0
 10
15.1639934709
 20
13.9125739413
 30
0.0
 10
15.1270025273
 20
13.9095087061
 30
0.0
 10
15.0906131508
 20
13.9055721604
 30
0.0
 10
15.0548664712
 20
13.9007687472
 30
0.0
 10
15.0198027912
 20
13.8951038394
 30
0.0
 10
14.9854616644
 20
13.8885837959
 30
0.0
 10
14.9518818184
 20
13.8812159264
 30
0.0
 10
14.9191011202
 20
13.8730084845
 30
0.0
 10
14.8871565351
 20
13.863970657
 30
0.0
 10
14.8560840863
 20
13.8541125515
 30
0.0
 10
14.8259188158
 20
13.8434451811
 30
0.0
 10
14.7966947459
 20
13.8319804637
 30
0.0
 10
14.768444837
 20
13.8197311905
 30
0.0
 10
14.7412009942
 20
13.8067110346
 30
0.0
 10
14.7149939025
 20
13.7929344462
 30
0.0
 10
14.6898534889
 20
13.7784169627
 30
0.0
 10
14.6697182357
 20
13.7656532633
 30
0.0
 10
14.6541815182
 20
13.7550847696
 30
0.0
 10
14.6391696535
 20
13.7443853539
 30
0.0
 10
14.6211086127
 20
13.7305832169
 30
0.0
 10
14.600506413
 20
13.7132711004
 30
0.0
 10
14.5811004662
 20
13.6953064221
 30
0.0
 10
14.5629135776
 20
13.676709842
 30
0.0
 10
14.5487397667
 20
13.6606450722
 30
0.0
 10
14.5380438667
 20
13.6475038119
 30
0.0
 10
14.5303671618
 20
13.6375384054
 30
0.0
 10
14.5230097396
 20
13.6274317588
 30
0.0
 10
14.5159736571
 20
13.6171866302
 30
0.0
 10
14.5092608805
 20
13.6068059765
 30
0.0
 10
14.502873383
 20
13.596292686
 30
0.0
 10
14.4968129292
 20
13.5856497739
 30
0.0
 10
14.4910812784
 20
13.5748802342
 30
0.0
 10
14.4856800667
 20
13.5639871213
 30
0.0
 10
14.4806107964
 20
13.5529735387
 30
0.0
 10
14.4758749793
 20
13.5418425915
 30
0.0
 10
14.4714738799
 20
13.530597436
 30
0.0
 10
14.4674088552
 20
13.5192413693
 30
0.0
 10
14.4649232975
 20
13.5115978149
 30
0.0
 10
14.4637373092
 20
13.5077599666
 30
0.0
  0
SPLINE
  5
2D2
100
AcDbEntity
  8
LAYER_FEATURE
100
AcDbSpline
 62
7
  6
CONTINUOUS
 70
0
 71
3
 72
80
 73
76
 74
0
 42
0.0000001
 43
0.0000001
 44
0.0000000001
 40
0.0
 40
0.0
 40
0.0
 40
0.0
 40
0.0171786082
 40
0.034530198
 40
0.0520439838
 40
0.0697095606
 40
0.0875157518
 40
0.105451206
 40
0.1235042506
 40
0.1416629551
 40
0.1599151638
 40
0.1782485183
 40
0.196650488
 40
0.215108397
 40
0.2336094524
 40
0.252140772
 40
0.2706894107
 40
0.289242387
 40
0.3077867108
 40
0.3263094098
 40
0.3447975567
 40
0.363238296
 40
0.3816188704
 40
0.3999266494
 40
0.4181491568
 40
0.4362740982
 40
0.4542893888
 40
0.4721831827
 40
0.4899439032
 40
0.5075602729
 40
0.5250213434
 40
0.5423165268
 40
0.5594356282
 40
0.5763688815
 40
0.5931069834
 40
0.6096411284
 40
0.625963046
 40
0.6420650398
 40
0.6579400312
 40
0.6735816004
 40
0.68898403
 40
0.7041423511
 40
0.719052392
 40
0.733710832
 40
0.7481152528
 40
0.7622641919
 40
0.7761571985
 40
0.789794892
 40
0.8031790231
 40
0.8163125314
 40
0.8291996013
 40
0.8418457169
 40
0.8542577138
 40
0.8603787795
 40
0.8664445246
 40
0.8784144197
 40
0.8901792225
 40
0.8959889946
 40
0.9017523407
 40
0.913146193
 40
0.9243770775
 40
0.929937084
 40
0.9354627808
 40
0.9409564793
 40
0.9464205594
 40
0.9518574751
 40
0.9572697446
 40
0.962659945
 40
0.9680307113
 40
0.9733847243
 40
0.97872471
 40
0.9840534296
 40
0.9893736732
 40
0.9946882543
 40
1.0
 40
1.0
 40
1.0
 40
1.0
 10
14.9197536251
 20
12.7570421133
 30
0.0
 10
14.9322253839
 20
12.7570421133
 30
0.0
 10
14.9572952875
 20
12.7567676858
 30
0.0
 10
14.9950624735
 20
12.7555483456
 30
0.0
 10
15.0331490357
 20
12.7535203574
 30
0.0
 10
15.0715149137
 20
12.7506859204
 30
0.0
 10
15.1101204024
 20
12.7470479279
 30
0.0
 10
15.1489252428
 20
12.7426101867
 30
0.0
 10
15.1878890694
 20
12.7373773158
 30
0.0
 10
15.2269713239
 20
12.7313547662
 30
0.0
 10
15.2661313269
 20
12.7245488081
 30
0.0
 10
15.3053283177
 20
12.7169665227
 30
0.0
 10
15.3445214937
 20
12.7086157968
 30
0.0
 10
15.3836700574
 20
12.6995053286
 30
0.0
 10
15.422733257
 20
12.6896446051
 30
0.0
 10
15.4616704289
 20
12.6790438911
 30
0.0
 10
15.5004410394
 20
12.6677142194
 30
0.0
 10
15.5390047264
 20
12.6556673781
 30
0.0
 10
15.5773213466
 20
12.6429159127
 30
0.0
 10
15.6153510137
 20
12.6294731009
 30
0.0
 10
15.6530541398
 20
12.6153529366
 30
0.0
 10
15.690391476
 20
12.6005701166
 30
0.0
 10
15.7273241527
 20
12.5851400231
 30
0.0
 10
15.7638137267
 20
12.5690787225
 30
0.0
 10
15.7998222174
 20
12.5524029363
 30
0.0
 10
15.8353121443
 20
12.535130022
 30
0.0
 10
15.870246566
 20
12.5172779557
 30
0.0
 10
15.904589118
 20
12.4988653114
 30
0.0
 10
15.9383040589
 20
12.4799112552
 30
0.0
 10
15.9713563029
 20
12.4604355141
 30
0.0
 10
16.0037114532
 20
12.4404583533
 30
0.0
 10
16.0353358374
 20
12.4200005561
 30
0.0
 10
16.0661965424
 20
12.3990833993
 30
0.0
 10
16.0962614582
 20
12.3777286438
 30
0.0
 10
16.1254993058
 20
12.355958502
 30
0.0
 10
16.1538796652
 20
12.3337956114
 30
0.0
 10
16.1813730069
 20
12.3112630128
 30
0.0
 10
16.2079507214
 20
12.2883841223
 30
0.0
 10
16.2335851603
 20
12.2651827184
 30
0.0
 10
16.2582496582
 20
12.241682909
 30
0.0
 10
16.2819185546
 20
12.2179091018
 30
0.0
 10
16.304567219
 20
12.1938859814
 30
0.0
 10
16.3261720747
 20
12.1696384789
 30
0.0
 10
16.346710635
 20
12.1451917572
 30
0.0
 10
16.366161519
 20
12.1205711769
 30
0.0
 10
16.3845044641
 20
12.0958022668
 30
0.0
 10
16.4017203456
 20
12.0709106998
 30
0.0
 10
16.4177911901
 20
12.0459222662
 30
0.0
 10
16.4327002116
 20
12.0208628468
 30
0.0
 10
16.4464318049
 20
11.9957584206
 30
0.0
 10
16.4589716003
 20
11.9706348993
 30
0.0
 10
16.470306289
 20
11.9455186096
 30
0.0
 10
16.4787766412
 20
11.9245192834
 30
0.0
 10
16.4849295818
 20
11.9077525614
 30
0.0
 10
16.4906179485
 20
11.8911615739
 30
0.0
 10
16.4969669853
 20
11.8704710463
 30
0.0
 10
16.5023287044
 20
11.849694176
 30
0.0
 10
16.5059828113
 20
11.833148001
 30
0.0
 10
16.5091911632
 20
11.8167840588
 30
0.0
 10
16.512426175
 20
11.7964208559
 30
0.0
 10
16.5146287197
 20
11.7760680748
 30
0.0
 10
16.5157511868
 20
11.7599035232
 30
0.0
 10
16.5162739572
 20
11.7478767335
 30
0.0
 10
16.516480293
 20
11.7359100527
 30
0.0
 10
16.5163700817
 20
11.7240065181
 30
0.0
 10
16.5159433737
 20
11.7121692635
 30
0.0
 10
16.5152002814
 20
11.7004013744
 30
0.0
 10
16.5141409417
 20
11.6887059327
 30
0.0
 10
16.5127656946
 20
11.6770859901
 30
0.0
 10
16.5110748281
 20
11.6655445931
 30
0.0
 10
16.5090688147
 20
11.6540847557
 30
0.0
 10
16.5067481838
 20
11.642709482
 30
0.0
 10
16.5041134819
 20
11.631421729
 30
0.0
 10
16.5011654998
 20
11.6202245506
 30
0.0
 10
16.4989915153
 20
11.6128211666
 30
0.0
 10
16.4978529336
 20
11.6091367256
 30
0.0
  0
SPLINE
  5
2D3
100
AcDbEntity
  8
02___PRT_ALL_AXES
100
AcDbSpline
 62
7
  6
CONTINUOUS
 70
0
 71
3
 72
68
 73
64
 74
0
 42
0.0000001
 43
0.0000001
 44
0.0000000001
 40
0.0
 40
0.0
 40
0.0
 40
0.0
 40
0.0171789443
 40
0.0345305996
 40
0.0520446951
 40
0.0697104841
 40
0.0875169172
 40
0.1054526099
 40
0.1235058937
 40
0.1416648404
 40
0.1599172923
 40
0.178250891
 40
0.1966531054
 40
0.21511126
 40
0.2521425351
 40
0.2892430597
 40
0.3263089874
 40
0.3447973804
 40
0.3632383649
 40
0.381619184
 40
0.399927207
 40
0.4181499571
 40
0.4362751395
 40
0.4542906696
 40
0.4721847019
 40
0.4899456594
 40
0.5075622638
 40
0.5250235663
 40
0.5423189792
 40
0.5594383086
 40
0.576371788
 40
0.5931101131
 40
0.6096444778
 40
0.625966612
 40
0.6420688205
 40
0.6579440241
 40
0.6735858017
 40
0.6889884356
 40
0.7041469575
 40
0.7190571971
 40
0.7337158332
 40
0.7481204463
 40
0.7622695732
 40
0.776162764
 40
0.7898006392
 40
0.8031849494
 40
0.8163186327
 40
0.8292058735
 40
0.8418521566
 40
0.8542643189
 40
0.866450594
 40
0.8784206489
 40
0.890185608
 40
0.9017580637
 40
0.9131520677
 40
0.9243831022
 40
0.9354680248
 40
0.9464249875
 40
0.9572733263
 40
0.9680334213
 40
0.9787265284
 40
0.989374586
 40
1.0
 40
1.0
 40
1.0
 40
1.0
 10
14.9541244754
 20
11.9593361427
 30
0.0
 10
14.9609680471
 20
11.9593361427
 30
0.0
 10
14.974724433
 20
11.9591855655
 30
0.0
 10
14.9954481274
 20
11.9585164733
 30
0.0
 10
15.0163470199
 20
11.9574036857
 30
0.0
 10
15.0373992456
 20
11.9558483575
 30
0.0
 10
15.0585829211
 20
11.9538521122
 30
0.0
 10
15.079875994
 20
11.9514170269
 30
0.0
 10
15.1012563048
 20
11.9485456371
 30
0.0
 10
15.1227015982
 20
11.9452409321
 30
0.0
 10
15.1441895596
 20
11.9415063506
 30
0.0
 10
15.1656977959
 20
11.9373457841
 30
0.0
 10
15.1872040175
 20
11.9327635486
 30
0.0
 10
15.2158754708
 20
11.9260912407
 30
0.0
 10
15.2515619229
 20
11.9167280378
 30
0.0
 10
15.2939739045
 20
11.9039074984
 30
0.0
 10
15.3288961933
 20
11.8919270131
 30
0.0
 10
15.356502589
 20
11.8815881901
 30
0.0
 10
15.3769904644
 20
11.8734765024
 30
0.0
 10
15.3972562236
 20
11.865009678
 30
0.0
 10
15.4172788621
 20
11.8561964878
 30
0.0
 10
15.4370375139
 20
11.847046117
 30
0.0
 10
15.4565116188
 20
11.8375680868
 30
0.0
 10
15.4756809051
 20
11.827772263
 30
0.0
 10
15.4945254213
 20
11.8176688404
 30
0.0
 10
15.5130255541
 20
11.8072683336
 30
0.0
 10
15.5311620493
 20
11.7965815653
 30
0.0
 10
15.5489160324
 20
11.7856196555
 30
0.0
 10
15.5662690275
 20
11.7743940094
 30
0.0
 10
15.5832029772
 20
11.7629163051
 30
0.0
 10
15.5997002609
 20
11.7511984813
 30
0.0
 10
15.6157437129
 20
11.7392527249
 30
0.0
 10
15.6313166408
 20
11.7270914574
 30
0.0
 10
15.646402842
 20
11.7147273225
 30
0.0
 10
15.6609866209
 20
11.7021731717
 30
0.0
 10
15.6750528046
 20
11.6894420512
 30
0.0
 10
15.6885867588
 20
11.6765471878
 30
0.0
 10
15.7015744023
 20
11.6635019748
 30
0.0
 10
15.7140022214
 20
11.6503199576
 30
0.0
 10
15.7258572826
 20
11.637014819
 30
0.0
 10
15.7371272458
 20
11.623600365
 30
0.0
 10
15.7478003757
 20
11.6100905101
 30
0.0
 10
15.757865553
 20
11.5964992625
 30
0.0
 10
15.7673122844
 20
11.5828407101
 30
0.0
 10
15.7761307121
 20
11.5691290055
 30
0.0
 10
15.7843116225
 20
11.5553783526
 30
0.0
 10
15.7918464539
 20
11.5416029926
 30
0.0
 10
15.7987273034
 20
11.5278171909
 30
0.0
 10
15.8049469329
 20
11.5140352241
 30
0.0
 10
15.8104987751
 20
11.5002713686
 30
0.0
 10
15.8153769392
 20
11.486539889
 30
0.0
 10
15.8195762165
 20
11.4728550281
 30
0.0
 10
15.8230920861
 20
11.4592309966
 30
0.0
 10
15.8259207215
 20
11.4456819644
 30
0.0
 10
15.8280589984
 20
11.4322220511
 30
0.0
 10
15.8295045032
 20
11.4188653166
 30
0.0
 10
15.8302555419
 20
11.4056257499
 30
0.0
 10
15.8303111522
 20
11.3925172611
 30
0.0
 10
15.8296711091
 20
11.3795536505
 30
0.0
 10
15.8283359543
 20
11.3667486519
 30
0.0
 10
15.8263069372
 20
11.3541156907
 30
0.0
 10
15.8235862741
 20
11.3416686797
 30
0.0
 10
15.8213120939
 20
11.3334992972
 30
0.0
 10
15.8200623577
 20
11.3294551503
 30
0.0
  0
SPLINE
  5
2D4
100
AcDbEntity
  8
LAYER_CHAMFER_FEAT
100
AcDbSpline
 62
7
  6
CONTINUOUS
 70
0
 71
3
 72
51
 73
47
 74
0
 42
0.0000001
 43
0.0000001
 44
0.0000000001
 40
0.0
 40
0.0
 40
0.0
 40
0.0
 40
0.035732916
 40
0.0703696458
 40
0.1039007483
 40
0.1363313197
 40
0.1676824394
 40
0.1979925936
 40
0.2273189698
 40
0.2557384695
 40
0.2696409025
 40
0.2833547734
 40
0.2968953171
 40
0.3102790073
 40
0.3235233825
 40
0.3366470575
 40
0.3496695338
 40
0.362611143
 40
0.3754928474
 40
0.3883361211
 40
0.4011627481
 40
0.4139946601
 40
0.4268537397
 40
0.4397616444
 40
0.4527396216
 40
0.4658083516
 40
0.4789877777
 40
0.4922969976
 40
0.505754107
 40
0.5193761581
 40
0.533179013
 40
0.5471773751
 40
0.5613846475
 40
0.5758130321
 40
0.6053700543
 40
0.6359263966
 40
0.6675346366
 40
0.7002289432
 40
0.734026415
 40
0.7689285142
 40
0.804922517
 40
0.8419828737
 40
0.8800726059
 40
0.9191442824
 40
0.9591417358
 40
1.0
 40
1.0
 40
1.0
 40
1.0
 10
15.3942393789
 20
11.5813560058
 30
0.0
 10
15.3972182776
 20
11.5780960947
 30
0.0
 10
15.4029265988
 20
11.5715292257
 30
0.0
 10
15.410823553
 20
11.5613964171
 30
0.0
 10
15.417898173
 20
11.5511645491
 30
0.0
 10
15.4241264326
 20
11.5408674844
 30
0.0
 10
15.4294873239
 20
11.5305389223
 30
0.0
 10
15.4339624748
 20
11.520212543
 30
0.0
 10
15.4375361217
 20
11.5099227812
 30
0.0
 10
15.4397685801
 20
11.5013429306
 30
0.0
 10
15.4410806268
 20
11.4945414316
 30
0.0
 10
15.4418259969
 20
11.4895083308
 30
0.0
 10
15.4423389829
 20
11.4845107136
 30
0.0
 10
15.442619247
 20
11.4795526932
 30
0.0
 10
15.4426663955
 20
11.4746384498
 30
0.0
 10
15.4424804576
 20
11.4697721183
 30
0.0
 10
15.4420614523
 20
11.4649578075
 30
0.0
 10
15.4414097961
 20
11.4601995802
 30
0.0
 10
15.4405259314
 20
11.455501474
 30
0.0
 10
15.4394106608
 20
11.4508674583
 30
0.0
 10
15.4380648599
 20
11.4463014747
 30
0.0
 10
15.4364897127
 20
11.4418073818
 30
0.0
 10
15.4346865289
 20
11.4373889956
 30
0.0
 10
15.4326568657
 20
11.4330500481
 30
0.0
 10
15.4304024579
 20
11.4287942017
 30
0.0
 10
15.4279252255
 20
11.4246250481
 30
0.0
 10
15.4252273111
 20
11.4205460735
 30
0.0
 10
15.4223109866
 20
11.4165607192
 30
0.0
 10
15.4191787811
 20
11.4126722796
 30
0.0
 10
15.4158333095
 20
11.4088840391
 30
0.0
 10
15.4122774608
 20
11.4051990894
 30
0.0
 10
15.408514202
 20
11.4016205611
 30
0.0
 10
15.4045467017
 20
11.398151301
 30
0.0
 10
15.3989443659
 20
11.3936394459
 30
0.0
 10
15.3914317607
 20
11.3882911611
 30
0.0
 10
15.3817318377
 20
11.3824083309
 30
0.0
 10
15.3713070153
 20
11.3770274214
 30
0.0
 10
15.3601924825
 20
11.3721659493
 30
0.0
 10
15.3484250703
 20
11.3678393909
 30
0.0
 10
15.3360438477
 20
11.3640616895
 30
0.0
 10
15.3230898504
 20
11.3608450434
 30
0.0
 10
15.309606012
 20
11.3581998803
 30
0.0
 10
15.2956370725
 20
11.3561348172
 30
0.0
 10
15.2812292784
 20
11.3546565689
 30
0.0
 10
15.2664307778
 20
11.3537699877
 30
0.0
 10
15.2564371574
 20
11.3535772286
 30
0.0
 10
15.2513877744
 20
11.3535772286
 30
0.0
  0
SPLINE
  5
2D5
100
AcDbEntity
  8
LAYER_FEATURE
100
AcDbSpline
 62
7
  6
CONTINUOUS
 70
0
 71
3
 72
19
 73
15
 74
0
 42
0.0000001
 43
0.0000001
 44
0.0000000001
 40
0.0
 40
0.0
 40
0.0
 40
0.0
 40
0.0594506388
 40
0.1190686905
 40
0.1789136805
 40
0.2390434405
 40
0.299513708
 40
0.3603777426
 40
0.4216860555
 40
0.4834859618
 40
0.6087059503
 40
0.7363762538
 40
0.8667452039
 40
1.0
 40
1.0
 40
1.0
 40
1.0
 10
14.8734264738
 20
12.0649115263
 30
0.0
 10
14.8729376576
 20
12.06615095
 30
0.0
 10
14.872016389
 20
12.0686565023
 30
0.0
 10
14.8708081481
 20
12.0724811391
 30
0.0
 10
14.8697733437
 20
12.0763721274
 30
0.0
 10
14.8689131561
 20
12.0803249085
 30
0.0
 10
14.8682285765
 20
12.0843350133
 30
0.0
 10
14.8677203285
 20
12.0883978318
 30
0.0
 10
14.86738903
 20
12.0925088253
 30
0.0
 10
14.8671827071
 20
12.0980716699
 30
0.0
 10
14.8673746515
 20
12.1051305597
 30
0.0
 10
14.8683136844
 20
12.1136773832
 30
0.0
 10
14.8699572415
 20
12.1222997594
 30
0.0
 10
14.8715003858
 20
12.1280092171
 30
0.0
 10
14.8723820948
 20
12.1308624286
 30
0.0
  0
SPLINE
  5
2D6
100
AcDbEntity
  8
02___PRT_ALL_AXES
100
AcDbSpline
 62
7
  6
CONTINUOUS
 70
0
 71
3
 72
43
 73
39
 74
0
 42
0.0000001
 43
0.0000001
 44
0.0000000001
 40
0.0
 40
0.0
 40
0.0
 40
0.0
 40
0.0112707887
 40
0.022603835
 40
0.0340217641
 40
0.0455461594
 40
0.0571975016
 40
0.0689947767
 40
0.0809555476
 40
0.0930955524
 40
0.1179620503
 40
0.1436908309
 40
0.1703424044
 40
0.1979485184
 40
0.2265141955
 40
0.2560206344
 40
0.2864285774
 40
0.317681956
 40
0.3497115787
 40
0.3824386628
 40
0.4157781055
 40
0.4496413205
 40
0.4839386901
 40
0.5185814824
 40
0.5534833302
 40
0.5885613822
 40
0.6237370892
 40
0.6589367053
 40
0.694091684
 40
0.7291389062
 40
0.7640209052
 40
0.7986860051
 40
0.8330885268
 40
0.8671889223
 40
0.9009539208
 40
0.9343567294
 40
0.9673766928
 40
1.0
 40
1.0
 40
1.0
 40
1.0
 10
14.8703258336
 20
12.0706002407
 30
0.0
 10
14.8698017171
 20
12.0716682705
 30
0.0
 10
14.8688068167
 20
12.0738383382
 30
0.0
 10
14.8674817464
 20
12.0771777846
 30
0.0
 10
14.866321722
 20
12.0806064313
 30
0.0
 10
14.8653276032
 20
12.0841216594
 30
0.0
 10
14.8645001473
 20
12.0877208664
 30
0.0
 10
14.8638398582
 20
12.0914011915
 30
0.0
 10
14.8633472156
 20
12.0951597116
 30
0.0
 10
14.8629106761
 20
12.1003115518
 30
0.0
 10
14.8627952016
 20
12.1069416438
 30
0.0
 10
14.8633295523
 20
12.1150863994
 30
0.0
 10
14.8645307005
 20
12.1234515062
 30
0.0
 10
14.8663912711
 20
12.1320008332
 30
0.0
 10
14.8689011776
 20
12.1406959527
 30
0.0
 10
14.8720477057
 20
12.1494955974
 30
0.0
 10
14.8758155608
 20
12.1583562804
 30
0.0
 10
14.8801870287
 20
12.1672327178
 30
0.0
 10
14.885142195
 20
12.1760783779
 30
0.0
 10
14.8906592129
 20
12.1848460035
 30
0.0
 10
14.8967145743
 20
12.1934880989
 30
0.0
 10
14.9032833675
 20
12.2019573504
 30
0.0
 10
14.9103394781
 20
12.2102069674
 30
0.0
 10
14.9178557248
 20
12.2181909457
 30
0.0
 10
14.9258039129
 20
12.2258642697
 30
0.0
 10
14.9341548124
 20
12.2331830723
 30
0.0
 10
14.9428780589
 20
12.240104778
 30
0.0
 10
14.9519419982
 20
12.2465882523
 30
0.0
 10
14.9613134883
 20
12.252593982
 30
0.0
 10
14.9709576913
 20
12.2580843123
 30
0.0
 10
14.9808378742
 20
12.2630237398
 30
0.0
 10
14.9909152524
 20
12.2673792808
 30
0.0
 10
15.0011488903
 20
12.271120894
 30
0.0
 10
15.0114957187
 20
12.2742219506
 30
0.0
 10
15.0219105628
 20
12.2766597396
 30
0.0
 10
15.0323466259
 20
12.278415912
 30
0.0
 10
15.042754798
 20
12.2794769842
 30
0.0
 10
15.0496860145
 20
12.2797168487
 30
0.0
 10
15.0531296016
 20
12.2797168487
 30
0.0
  0
SPLINE
  5
2D7
100
AcDbEntity
  8
LAYER_FEATURE
100
AcDbSpline
 62
7
  6
CONTINUOUS
 70
0
 71
3
 72
57
 73
53
 74
0
 42
0.0000001
 43
0.0000001
 44
0.0000000001
 40
0.0
 40
0.0
 40
0.0
 40
0.0
 40
0.014667446
 40
0.0291021408
 40
0.0433113549
 40
0.0573082326
 40
0.0711072907
 40
0.0847256884
 40
0.0981832166
 40
0.1115018763
 40
0.1247057373
 40
0.137820617
 40
0.1508737211
 40
0.163893247
 40
0.1769079321
 40
0.1899465905
 40
0.203037647
 40
0.2162086906
 40
0.229486053
 40
0.2428944174
 40
0.2564565183
 40
0.2701928836
 40
0.2841216076
 40
0.2982582377
 40
0.3126157067
 40
0.3272042652
 40
0.3420315074
 40
0.3571024466
 40
0.3879738415
 40
0.4037810689
 40
0.4198277587
 40
0.4526039142
 40
0.4693222513
 40
0.4862429647
 40
0.5206302176
 40
0.5556502581
 40
0.591163483
 40
0.6270173959
 40
0.6630508749
 40
0.6990983202
 40
0.7349937874
 40
0.7705751048
 40
0.8056880497
 40
0.8230270694
 40
0.8401970053
 40
0.8739634619
 40
0.8905406734
 40
0.9068966481
 40
0.938902443
 40
0.9545479646
 40
0.9699475705
 40
1.0
 40
1.0
 40
1.0
 40
1.0
 10
14.8925875222
 20
12.1512512356
 30
0.0
 10
14.8920721389
 20
12.1495834545
 30
0.0
 10
14.8911358295
 20
12.146246894
 30
0.0
 10
14.8900145353
 20
12.1412131999
 30
0.0
 10
14.8891906069
 20
12.1362029555
 30
0.0
 10
14.8886661373
 20
12.1312285469
 30
0.0
 10
14.8884424683
 20
12.1263018181
 30
0.0
 10
14.8885202461
 20
12.1214347053
 30
0.0
 10
14.8888994005
 20
12.1166389931
 30
0.0
 10
14.8895791094
 20
12.1119263128
 30
0.0
 10
14.8905577839
 20
12.1073081178
 30
0.0
 10
14.8918331438
 20
12.1027956607
 30
0.0
 10
14.8934021488
 20
12.0983999538
 30
0.0
 10
14.8952609774
 20
12.0941317151
 30
0.0
 10
14.8974051263
 20
12.0900013674
 30
0.0
 10
14.8998293777
 20
12.0860189977
 30
0.0
 10
14.9025277596
 20
12.0821942822
 30
0.0
 10
14.9054936608
 20
12.0785365101
 30
0.0
 10
14.9087198341
 20
12.0750545606
 30
0.0
 10
14.9121983504
 20
12.0717568138
 30
0.0
 10
14.9159207051
 20
12.068651194
 30
0.0
 10
14.9198778414
 20
12.0657451726
 30
0.0
 10
14.9240601152
 20
12.0630456748
 30
0.0
 10
14.9284573646
 20
12.0605591199
 30
0.0
 10
14.9330589675
 20
12.058291444
 30
0.0
 10
14.9378537462
 20
12.0562480328
 30
0.0
 10
14.9428302991
 20
12.0544336609
 30
0.0
 10
14.9497460827
 20
12.052308995
 30
0.0
 10
14.9569269308
 20
12.0506830725
 30
0.0
 10
14.9643066161
 20
12.049544742
 30
0.0
 10
14.9719560763
 20
12.0487180124
 30
0.0
 10
14.9797609983
 20
12.0483968119
 30
0.0
 10
14.9876650811
 20
12.048562836
 30
0.0
 10
14.9957476235
 20
12.0490621272
 30
0.0
 10
15.005957042
 20
12.0503099236
 30
0.0
 10
15.0182112978
 20
12.0527669523
 30
0.0
 10
15.0304189889
 20
12.0561681117
 30
0.0
 10
15.0424630113
 20
12.0604806071
 30
0.0
 10
15.0542284132
 20
12.0656631694
 30
0.0
 10
15.0656026644
 20
12.0716661678
 30
0.0
 10
15.0764771225
 20
12.0784323045
 30
0.0
 10
15.0867473912
 20
12.0858967116
 30
0.0
 10
15.0947553071
 20
12.092668961
 30
0.0
 10
15.100767529
 20
12.0983732435
 30
0.0
 10
15.1064426236
 20
12.1041907354
 30
0.0
 10
15.1117122155
 20
12.1102700667
 30
0.0
 10
15.1165287049
 20
12.1165824475
 30
0.0
 10
15.1209528459
 20
12.1229215358
 30
0.0
 10
15.1249040945
 20
12.1294484935
 30
0.0
 10
15.1283329817
 20
12.1361258897
 30
0.0
 10
15.1313425861
 20
12.1427471479
 30
0.0
 10
15.1332179476
 20
12.1478340849
 30
0.0
 10
15.134273927
 20
12.1512512356
 30
0.0
  0
SPLINE
  5
2D8
100
AcDbEntity
  8
LAYER_FEATURE
100
AcDbSpline
 62
7
  6
CONTINUOUS
 70
0
 71
3
 72
28
 73
24
 74
0
 42
0.0000001
 43
0.0000001
 44
0.0000000001
 40
0.0
 40
0.0
 40
0.0
 40
0.0
 40
0.0272344782
 40
0.0549175092
 40
0.0830495783
 40
0.111630886
 40
0.1700990247
 40
0.1999781093
 40
0.2302613386
 40
0.2919459064
 40
0.3233119283
 40
0.3549868464
 40
0.4191311635
 40
0.4841311026
 40
0.549704929
 40
0.6155563881
 40
0.6813823343
 40
0.7468802544
 40
0.8117557979
 40
0.8757303985
 40
0.9073049568
 40
0.9385606267
 40
1.0
 40
1.0
 40
1.0
 40
1.0
 10
14.8723820948
 20
12.1308624286
 30
0.0
 10
14.8730369029
 20
12.1329813883
 30
0.0
 10
14.8744710553
 20
12.1372199022
 30
0.0
 10
14.8769633145
 20
12.1435099016
 30
0.0
 10
14.879808365
 20
12.1497693288
 30
0.0
 10
14.8840943178
 20
12.1581157287
 30
0.0
 10
14.8890334657
 20
12.1662745738
 30
0.0
 10
14.8945636214
 20
12.1741984084
 30
0.0
 10
14.9005842215
 20
12.1820889028
 30
0.0
 10
14.9071712338
 20
12.1896880425
 30
0.0
 10
14.9142650862
 20
12.1969599244
 30
0.0
 10
14.9217803671
 20
12.2040902735
 30
0.0
 10
14.9317902632
 20
12.2125555843
 30
0.0
 10
14.9446281011
 20
12.2218860924
 30
0.0
 10
14.9582211711
 20
12.2303437625
 30
0.0
 10
14.9724389901
 20
12.2378475219
 30
0.0
 10
14.9871457174
 20
12.2443256968
 30
0.0
 10
15.0022008626
 20
12.2497163695
 30
0.0
 10
15.0174600166
 20
12.2539677042
 30
0.0
 10
15.0302822989
 20
12.2565386103
 30
0.0
 10
15.0405093839
 20
12.2579839002
 30
0.0
 10
15.0505788713
 20
12.2590091554
 30
0.0
 10
15.0581316845
 20
12.2593280418
 30
0.0
 10
15.0631349749
 20
12.2593280418
 30
0.0
  0
SPLINE
  5
2D9
100
AcDbEntity
  8
LAYER_FEATURE
100
AcDbSpline
 62
7
  6
CONTINUOUS
 70
0
 71
3
 72
21
 73
17
 74
0
 42
0.0000001
 43
0.0000001
 44
0.0000000001
 40
0.0
 40
0.0
 40
0.0
 40
0.0
 40
0.1398216313
 40
0.2081248798
 40
0.2752999216
 40
0.4061504959
 40
0.4698739491
 40
0.5324701382
 40
0.5939744883
 40
0.6544373078
 40
0.7139239194
 40
0.7725144843
 40
0.8303035147
 40
0.8873989743
 40
0.9439209648
 40
1.0
 40
1.0
 40
1.0
 40
1.0
 10
15.0631349749
 20
12.2593280418
 30
0.0
 10
15.0684760516
 20
12.2593280418
 30
0.0
 10
15.0764337453
 20
12.2589694635
 30
0.0
 10
15.0868797273
 20
12.2577260257
 30
0.0
 10
15.0969120819
 20
12.2560175072
 30
0.0
 10
15.1066322806
 20
12.2535777099
 30
0.0
 10
15.1159291297
 20
12.2503905321
 30
0.0
 10
15.1225743753
 20
12.2476739877
 30
0.0
 10
15.1289327748
 20
12.2446183965
 30
0.0
 10
15.1349861205
 20
12.2412323732
 30
0.0
 10
15.1407166751
 20
12.2375255962
 30
0.0
 10
15.1461076947
 20
12.2335086509
 30
0.0
 10
15.1511433344
 20
12.229193103
 30
0.0
 10
15.1558088487
 20
12.2245912954
 30
0.0
 10
15.1600901923
 20
12.2197169334
 30
0.0
 10
15.1626886165
 20
12.2162834962
 30
0.0
 10
15.1639172197
 20
12.2145286604
 30
0.0
  0
SPLINE
  5
2DA
100
AcDbEntity
  8
LAYER_FEATURE
100
AcDbSpline
 62
7
  6
CONTINUOUS
 70
0
 71
3
 72
57
 73
53
 74
0
 42
0.0000001
 43
0.0000001
 44
0.0000000001
 40
0.0
 40
0.0
 40
0.0
 40
0.0
 40
0.0300524295
 40
0.0454520354
 40
0.061097557
 40
0.0931033519
 40
0.1094593266
 40
0.1260365381
 40
0.1598029947
 40
0.1769729306
 40
0.1943119503
 40
0.2294248952
 40
0.2650062126
 40
0.3009016798
 40
0.3369491251
 40
0.3729826041
 40
0.408836517
 40
0.4443497419
 40
0.4793697824
 40
0.5137570353
 40
0.5306777487
 40
0.5473960858
 40
0.5801722413
 40
0.5962189311
 40
0.6120261585
 40
0.6428975534
 40
0.6579684926
 40
0.6727957348
 40
0.6873842933
 40
0.7017417623
 40
0.7158783924
 40
0.7298071164
 40
0.7435434817
 40
0.7571055826
 40
0.770513947
 40
0.7837913094
 40
0.796962353
 40
0.8100534095
 40
0.8230920679
 40
0.836106753
 40
0.8491262789
 40
0.862179383
 40
0.8752942627
 40
0.8884981237
 40
0.9018167834
 40
0.9152743116
 40
0.9288927093
 40
0.9426917674
 40
0.9566886451
 40
0.9708978592
 40
0.985332554
 40
1.0
 40
1.0
 40
1.0
 40
1.0
 10
14.8925875222
 20
12.1512512356
 30
0.0
 10
14.8936435016
 20
12.1546683863
 30
0.0
 10
14.8955188631
 20
12.1597553232
 30
0.0
 10
14.8985284675
 20
12.1663765815
 30
0.0
 10
14.9019573547
 20
12.1730539776
 30
0.0
 10
14.9059086034
 20
12.1795809353
 30
0.0
 10
14.9103327443
 20
12.1859200236
 30
0.0
 10
14.9151492337
 20
12.1922324044
 30
0.0
 10
14.9204188257
 20
12.1983117357
 30
0.0
 10
14.9260939202
 20
12.2041292276
 30
0.0
 10
14.9321061421
 20
12.2098335101
 30
0.0
 10
14.940114058
 20
12.2166057595
 30
0.0
 10
14.9503843267
 20
12.2240701667
 30
0.0
 10
14.9612587848
 20
12.2308363034
 30
0.0
 10
14.9726330361
 20
12.2368393017
 30
0.0
 10
14.984398438
 20
12.242021864
 30
0.0
 10
14.9964424603
 20
12.2463343595
 30
0.0
 10
15.0086501514
 20
12.2497355189
 30
0.0
 10
15.0209044072
 20
12.2521925475
 30
0.0
 10
15.0311138257
 20
12.2534403439
 30
0.0
 10
15.0391963681
 20
12.2539396352
 30
0.0
 10
15.047100451
 20
12.2541056592
 30
0.0
 10
15.0549053729
 20
12.2537844587
 30
0.0
 10
15.0625548331
 20
12.2529577291
 30
0.0
 10
15.0699345184
 20
12.2518193987
 30
0.0
 10
15.0771153665
 20
12.2501934761
 30
0.0
 10
15.0840311501
 20
12.2480688102
 30
0.0
 10
15.089007703
 20
12.2462544383
 30
0.0
 10
15.0938024817
 20
12.2442110271
 30
0.0
 10
15.0984040846
 20
12.2419433512
 30
0.0
 10
15.102801334
 20
12.2394567963
 30
0.0
 10
15.1069836078
 20
12.2367572985
 30
0.0
 10
15.1109407441
 20
12.2338512772
 30
0.0
 10
15.1146630988
 20
12.2307456573
 30
0.0
 10
15.1181416151
 20
12.2274479105
 30
0.0
 10
15.1213677884
 20
12.223965961
 30
0.0
 10
15.1243336897
 20
12.2203081889
 30
0.0
 10
15.1270320715
 20
12.2164834735
 30
0.0
 10
15.129456323
 20
12.2125011037
 30
0.0
 10
15.1316004718
 20
12.208370756
 30
0.0
 10
15.1334593004
 20
12.2041025173
 30
0.0
 10
15.1350283054
 20
12.1997068104
 30
0.0
 10
15.1363036653
 20
12.1951943534
 30
0.0
 10
15.1372823398
 20
12.1905761584
 30
0.0
 10
15.1379620487
 20
12.185863478
 30
0.0
 10
15.1383412031
 20
12.1810677658
 30
0.0
 10
15.1384189809
 20
12.176200653
 30
0.0
 10
15.1381953119
 20
12.1712739242
 30
0.0
 10
15.1376708423
 20
12.1662995157
 30
0.0
 10
15.1368469139
 20
12.1612892712
 30
0.0
 10
15.1357256197
 20
12.1562555771
 30
0.0
 10
15.1347893104
 20
12.1529190166
 30
0.0
 10
15.134273927
 20
12.1512512356
 30
0.0
  0
SPLINE
  5
2DB
100
AcDbEntity
  8
LAYER_FEATURE
100
AcDbSpline
 62
7
  6
CONTINUOUS
 70
0
 71
3
 72
22
 73
18
 74
0
 42
0.0000001
 43
0.0000001
 44
0.0000000001
 40
0.0
 40
0.0
 40
0.0
 40
0.0
 40
0.1381198321
 40
0.2053664578
 40
0.2714548805
 40
0.3364371446
 40
0.4003725838
 40
0.4633278439
 40
0.5253764046
 40
0.5865986123
 40
0.6470813154
 40
0.7069174417
 40
0.766205499
 40
0.82504886
 40
0.8835549613
 40
0.941834416
 40
1.0
 40
1.0
 40
1.0
 40
1.0
 10
16.0404634575
 20
11.9552866257
 30
0.0
 10
16.0454668327
 20
11.9450908192
 30
0.0
 10
16.0523610862
 20
11.9296512842
 30
0.0
 10
16.0602242048
 20
11.9087562046
 30
0.0
 10
16.0653371753
 20
11.8932659545
 30
0.0
 10
16.0697122946
 20
11.8778343187
 30
0.0
 10
16.0733454211
 20
11.8624756027
 30
0.0
 10
16.0762328601
 20
11.847204614
 30
0.0
 10
16.0783716734
 20
11.8320359404
 30
0.0
 10
16.07975966
 20
11.8169841589
 30
0.0
 10
16.080395309
 20
11.8020637492
 30
0.0
 10
16.0802778156
 20
11.787289111
 30
0.0
 10
16.0794071668
 20
11.7726745274
 30
0.0
 10
16.0777840883
 20
11.7582342065
 30
0.0
 10
16.0754099723
 20
11.7439820426
 30
0.0
 10
16.0722872139
 20
11.7299324357
 30
0.0
 10
16.0697070574
 20
11.7207058711
 30
0.0
 10
16.0682949334
 20
11.7161362557
 30
0.0
  0
SPLINE
  5
2DC
100
AcDbEntity
  8
LAYER_FEATURE
100
AcDbSpline
 62
7
  6
CONTINUOUS
 70
0
 71
3
 72
80
 73
76
 74
0
 42
0.0000001
 43
0.0000001
 44
0.0000000001
 40
0.0
 40
0.0
 40
0.0
 40
0.0
 40
0.0171786082
 40
0.034530198
 40
0.0520439838
 40
0.0697095606
 40
0.0875157518
 40
0.105451206
 40
0.1235042506
 40
0.1416629551
 40
0.1599151638
 40
0.1782485183
 40
0.196650488
 40
0.215108397
 40
0.2336094524
 40
0.252140772
 40
0.2706894107
 40
0.289242387
 40
0.3077867108
 40
0.3263094098
 40
0.3447975567
 40
0.363238296
 40
0.3816188704
 40
0.3999266494
 40
0.4181491568
 40
0.4362740982
 40
0.4542893888
 40
0.4721831827
 40
0.4899439032
 40
0.5075602729
 40
0.5250213434
 40
0.5423165268
 40
0.5594356282
 40
0.5763688815
 40
0.5931069834
 40
0.6096411284
 40
0.625963046
 40
0.6420650398
 40
0.6579400312
 40
0.6735816004
 40
0.68898403
 40
0.7041423511
 40
0.719052392
 40
0.733710832
 40
0.7481152528
 40
0.7622641919
 40
0.7761571985
 40
0.789794892
 40
0.8031790231
 40
0.8163125314
 40
0.8291996013
 40
0.8418457169
 40
0.8542577138
 40
0.8603787795
 40
0.8664445246
 40
0.8784144197
 40
0.8901792225
 40
0.8959889946
 40
0.9017523407
 40
0.913146193
 40
0.9243770775
 40
0.929937084
 40
0.9354627808
 40
0.9409564793
 40
0.9464205594
 40
0.9518574751
 40
0.9572697446
 40
0.962659945
 40
0.9680307113
 40
0.9733847243
 40
0.97872471
 40
0.9840534296
 40
0.9893736732
 40
0.9946882543
 40
1.0
 40
1.0
 40
1.0
 40
1.0
 10
15.2586464778
 20
13.8536997867
 30
0.0
 10
15.2711182366
 20
13.8536997867
 30
0.0
 10
15.2961881402
 20
13.8534253593
 30
0.0
 10
15.3339553262
 20
13.8522060191
 30
0.0
 10
15.3720418885
 20
13.8501780308
 30
0.0
 10
15.4104077664
 20
13.8473435938
 30
0.0
 10
15.4490132552
 20
13.8437056014
 30
0.0
 10
15.4878180956
 20
13.8392678602
 30
0.0
 10
15.5267819222
 20
13.8340349893
 30
0.0
 10
15.5658641767
 20
13.8280124396
 30
0.0
 10
15.6050241797
 20
13.8212064815
 30
0.0
 10
15.6442211705
 20
13.8136241962
 30
0.0
 10
15.6834143464
 20
13.8052734703
 30
0.0
 10
15.7225629101
 20
13.7961630021
 30
0.0
 10
15.7616261098
 20
13.7863022786
 30
0.0
 10
15.8005632816
 20
13.7757015646
 30
0.0
 10
15.8393338921
 20
13.7643718929
 30
0.0
 10
15.8778975792
 20
13.7523250516
 30
0.0
 10
15.9162141993
 20
13.7395735862
 30
0.0
 10
15.9542438665
 20
13.7261307744
 30
0.0
 10
15.9919469926
 20
13.7120106101
 30
0.0
 10
16.0292843288
 20
13.69722779
 30
0.0
 10
16.0662170055
 20
13.6817976966
 30
0.0
 10
16.1027065795
 20
13.665736396
 30
0.0
 10
16.1387150702
 20
13.6490606098
 30
0.0
 10
16.1742049971
 20
13.6317876954
 30
0.0
 10
16.2091394187
 20
13.6139356291
 30
0.0
 10
16.2434819707
 20
13.5955229849
 30
0.0
 10
16.2771969117
 20
13.5765689287
 30
0.0
 10
16.3102491557
 20
13.5570931876
 30
0.0
 10
16.3426043059
 20
13.5371160268
 30
0.0
 10
16.3742286902
 20
13.5166582296
 30
0.0
 10
16.4050893952
 20
13.4957410728
 30
0.0
 10
16.435154311
 20
13.4743863172
 30
0.0
 10
16.4643921585
 20
13.4526161754
 30
0.0
 10
16.4927725179
 20
13.4304532849
 30
0.0
 10
16.5202658597
 20
13.4079206863
 30
0.0
 10
16.5468435742
 20
13.3850417958
 30
0.0
 10
16.572478013
 20
13.3618403919
 30
0.0
 10
16.597142511
 20
13.3383405825
 30
0.0
 10
16.6208114073
 20
13.3145667753
 30
0.0
 10
16.6434600718
 20
13.2905436548
 30
0.0
 10
16.6650649275
 20
13.2662961524
 30
0.0
 10
16.6856034877
 20
13.2418494307
 30
0.0
 10
16.7050543718
 20
13.2172288504
 30
0.0
 10
16.7233973169
 20
13.1924599403
 30
0.0
 10
16.7406131984
 20
13.1675683733
 30
0.0
 10
16.7566840429
 20
13.1425799397
 30
0.0
 10
16.7715930644
 20
13.1175205203
 30
0.0
 10
16.7853246577
 20
13.0924160941
 30
0.0
 10
16.7978644531
 20
13.0672925727
 30
0.0
 10
16.8091991418
 20
13.0421762831
 30
0.0
 10
16.817669494
 20
13.0211769569
 30
0.0
 10
16.8238224346
 20
13.0044102349
 30
0.0
 10
16.8295108012
 20
12.9878192474
 30
0.0
 10
16.8358598381
 20
12.9671287198
 30
0.0
 10
16.8412215572
 20
12.9463518495
 30
0.0
 10
16.8448756641
 20
12.9298056745
 30
0.0
 10
16.8480840159
 20
12.9134417323
 30
0.0
 10
16.8513190278
 20
12.8930785294
 30
0.0
 10
16.8535215724
 20
12.8727257483
 30
0.0
 10
16.8546440395
 20
12.8565611967
 30
0.0
 10
16.8551668099
 20
12.844534407
 30
0.0
 10
16.8553731458
 20
12.8325677262
 30
0.0
 10
16.8552629345
 20
12.8206641916
 30
0.0
 10
16.8548362264
 20
12.808826937
 30
0.0
 10
16.8540931342
 20
12.7970590479
 30
0.0
 10
16.8530337944
 20
12.7853636062
 30
0.0
 10
16.8516585474
 20
12.7737436635
 30
0.0
 10
16.8499676809
 20
12.7622022666
 30
0.0
 10
16.8479616675
 20
12.7507424292
 30
0.0
 10
16.8456410365
 20
12.7393671555
 30
0.0
 10
16.8430063346
 20
12.7280794025
 30
0.0
 10
16.8400583526
 20
12.7168822241
 30
0.0
 10
16.8378843681
 20
12.7094788401
 30
0.0
 10
16.8367457863
 20
12.7057943991
 30
0.0
  0
SPLINE
  5
2DD
100
AcDbEntity
  8
LAYER_FEATURE
100
AcDbSpline
 62
7
  6
CONTINUOUS
 70
0
 71
3
 72
56
 73
52
 74
0
 42
0.0000001
 43
0.0000001
 44
0.0000000001
 40
0.0
 40
0.0
 40
0.0
 40
0.0
 40
0.041185004
 40
0.0817490433
 40
0.1216556628
 40
0.1608713381
 40
0.1993658736
 40
0.2371126487
 40
0.2740889617
 40
0.3102763626
 40
0.3456610166
 40
0.3802340833
 40
0.413992115
 40
0.4469374688
 40
0.4790787283
 40
0.4948535124
 40
0.510433575
 40
0.5258219188
 40
0.5410220248
 40
0.5560378354
 40
0.5708737888
 40
0.6000232547
 40
0.6285186446
 40
0.6425391553
 40
0.6564168601
 40
0.6701596768
 40
0.6837760071
 40
0.6972747163
 40
0.7106651186
 40
0.7239569514
 40
0.7371603492
 40
0.7502858115
 40
0.7633441661
 40
0.7763465308
 40
0.7893042669
 40
0.8022289355
 40
0.8151322445
 40
0.8280259996
 40
0.8409220489
 40
0.8538322309
 40
0.8667683194
 40
0.8797419714
 40
0.8927646769
 40
0.9058477076
 40
0.9190020751
 40
0.9322384831
 40
0.9455672959
 40
0.9589984951
 40
0.9725416606
 40
0.9862059315
 40
1.0
 40
1.0
 40
1.0
 40
1.0
 10
15.2868086881
 20
13.7324809254
 30
0.0
 10
15.2723505561
 20
13.7324809254
 30
0.0
 10
15.2436504354
 20
13.7320738971
 30
0.0
 10
15.2009773245
 20
13.7302125131
 30
0.0
 10
15.1590691285
 20
13.7271080296
 30
0.0
 10
15.1180012495
 20
13.7227659414
 30
0.0
 10
15.0778470139
 20
13.7171939487
 30
0.0
 10
15.0386782369
 20
13.7104019216
 30
0.0
 10
15.0005649204
 20
13.7024018849
 30
0.0
 10
14.9635751797
 20
13.6932079871
 30
0.0
 10
14.9277750969
 20
13.6828364603
 30
0.0
 10
14.8932286814
 20
13.6713056153
 30
0.0
 10
14.85999752
 20
13.6586356792
 30
0.0
 10
14.8281415676
 20
13.6448491926
 30
0.0
 10
14.8026304766
 20
13.6323728844
 30
0.0
 10
14.7829786514
 20
13.6218486746
 30
0.0
 10
14.7687097395
 20
13.6137416005
 30
0.0
 10
14.7548261913
 20
13.6053754552
 30
0.0
 10
14.741334162
 20
13.5967539835
 30
0.0
 10
14.7282396145
 20
13.5878808975
 30
0.0
 10
14.7114182268
 20
13.575791996
 30
0.0
 10
14.6913882032
 20
13.5600762369
 30
0.0
 10
14.6725368192
 20
13.5433907317
 30
0.0
 10
14.6583388176
 20
13.5295902159
 30
0.0
 10
14.6481818703
 20
13.5190733697
 30
0.0
 10
14.638464536
 20
13.5083397304
 30
0.0
 10
14.6291910836
 20
13.4973940216
 30
0.0
 10
14.6203657539
 20
13.486241155
 30
0.0
 10
14.6119925261
 20
13.4748861319
 30
0.0
 10
14.6040752102
 20
13.4633340395
 30
0.0
 10
14.5966173924
 20
13.4515900703
 30
0.0
 10
14.5896224659
 20
13.4396595006
 30
0.0
 10
14.5830936085
 20
13.4275477007
 30
0.0
 10
14.5770337876
 20
13.4152601279
 30
0.0
 10
14.5714457628
 20
13.402802321
 30
0.0
 10
14.5663320663
 20
13.3901799062
 30
0.0
 10
14.5616950311
 20
13.3773985804
 30
0.0
 10
14.5575367455
 20
13.3644641253
 30
0.0
 10
14.553859109
 20
13.351382383
 30
0.0
 10
14.5506637596
 20
13.3381592755
 30
0.0
 10
14.5479521588
 20
13.3248007767
 30
0.0
 10
14.5457254905
 20
13.3113129326
 30
0.0
 10
14.5439847753
 20
13.2977018348
 30
0.0
 10
14.5427307423
 20
13.2839736371
 30
0.0
 10
14.541963971
 20
13.2701345348
 30
0.0
 10
14.5416847368
 20
13.2561907747
 30
0.0
 10
14.5418931799
 20
13.2421486398
 30
0.0
 10
14.5425891241
 20
13.2280144673
 30
0.0
 10
14.5437722793
 20
13.2137945724
 30
0.0
 10
14.5454419973
 20
13.199495534
 30
0.0
 10
14.5468720568
 20
13.1899608612
 30
0.0
 10
14.5476664635
 20
13.1851840136
 30
0.0
  0
SPLINE
  5
2DE
100
AcDbEntity
  8
LAYER_FEATURE
100
AcDbSpline
 62
7
  6
CONTINUOUS
 70
0
 71
3
 72
84
 73
80
 74
0
 42
0.0000001
 43
0.0000001
 44
0.0000000001
 40
0.0
 40
0.0
 40
0.0
 40
0.0
 40
0.0178350313
 40
0.0358720984
 40
0.0540969877
 40
0.07249541
 40
0.0910522707
 40
0.1097521356
 40
0.1285791225
 40
0.1475170039
 40
0.1665492422
 40
0.1856590414
 40
0.2048293952
 40
0.2240431338
 40
0.2432829715
 40
0.2625315528
 40
0.2817714988
 40
0.3009854536
 40
0.3201561306
 40
0.3392663592
 40
0.358299132
 40
0.3772376519
 40
0.3960653801
 40
0.4147660845
 40
0.4333238898
 40
0.4517233276
 40
0.4699493885
 40
0.4879875766
 40
0.5058239636
 40
0.5234452462
 40
0.5408388051
 40
0.5579927669
 40
0.5748960681
 40
0.5915385228
 40
0.6079108937
 40
0.6240049672
 40
0.6398136309
 40
0.6553309561
 40
0.6705522836
 40
0.6854743145
 40
0.7000952045
 40
0.7144146614
 40
0.7284340453
 40
0.742156471
 40
0.7555869074
 40
0.7687322742
 40
0.7816015322
 40
0.7942057613
 40
0.8065582227
 40
0.8186743973
 40
0.8305719934
 40
0.8364455436
 40
0.8422720978
 40
0.8480544737
 40
0.8537956151
 40
0.8594985875
 40
0.8651665659
 40
0.8708028373
 40
0.8764107817
 40
0.881993874
 40
0.8875556653
 40
0.8930997789
 40
0.8986298957
 40
0.9041497432
 40
0.9096630844
 40
0.9151737036
 40
0.9206853948
 40
0.9262019482
 40
0.9317271375
 40
0.937264707
 40
0.9428183601
 40
0.948391745
 40
0.953988448
 40
0.9596119752
 40
0.9652657524
 40
0.9709531051
 40
0.9766772599
 40
0.9882470927
 40
1.0
 40
1.0
 40
1.0
 40
1.0
 10
15.2868086881
 20
13.7324809254
 30
0.0
 10
15.2994869442
 20
13.7324809254
 30
0.0
 10
15.3249881165
 20
13.7321637387
 30
0.0
 10
15.3634213619
 20
13.730756824
 30
0.0
 10
15.4022105194
 20
13.7284178116
 30
0.0
 10
15.4413031202
 20
13.7251499104
 30
0.0
 10
15.4806469027
 20
13.7209574619
 30
0.0
 10
15.5201890103
 20
13.7158461192
 30
0.0
 10
15.5598764075
 20
13.7098227301
 30
0.0
 10
15.599655832
 20
13.7028953817
 30
0.0
 10
15.6394739031
 20
13.6950733673
 30
0.0
 10
15.6792771845
 20
13.6863671867
 30
0.0
 10
15.7190122585
 20
13.676788525
 30
0.0
 10
15.758625798
 20
13.6663502382
 30
0.0
 10
15.798064638
 20
13.6550663357
 30
0.0
 10
15.8372758475
 20
13.6429519612
 30
0.0
 10
15.8762068003
 20
13.630023373
 30
0.0
 10
15.9148052465
 20
13.6162979215
 30
0.0
 10
15.9530193823
 20
13.6017940262
 30
0.0
 10
15.9907979221
 20
13.5865311541
 30
0.0
 10
16.0280901659
 20
13.5705297896
 30
0.0
 10
16.0648460678
 20
13.553811407
 30
0.0
 10
16.1010163034
 20
13.5363984413
 30
0.0
 10
16.1365523358
 20
13.5183142573
 30
0.0
 10
16.171406481
 20
13.4995831187
 30
0.0
 10
16.205531972
 20
13.4802301544
 30
0.0
 10
16.2388830217
 20
13.4602813241
 30
0.0
 10
16.2714148874
 20
13.4397633863
 30
0.0
 10
16.3030839282
 20
13.418703858
 30
0.0
 10
16.3338476638
 20
13.3971309767
 30
0.0
 10
16.3636648305
 20
13.3750736621
 30
0.0
 10
16.3924954366
 20
13.352561476
 30
0.0
 10
16.4203008149
 20
13.3296245816
 30
0.0
 10
16.4470436743
 20
13.3062937013
 30
0.0
 10
16.4726881483
 20
13.2826000743
 30
0.0
 10
16.4971998458
 20
13.2585754157
 30
0.0
 10
16.5205458919
 20
13.2342518693
 30
0.0
 10
16.542694969
 20
13.2096619633
 30
0.0
 10
16.5636173556
 20
13.1848385658
 30
0.0
 10
16.5832849618
 20
13.1598148394
 30
0.0
 10
16.6016713628
 20
13.1346241968
 30
0.0
 10
16.6187518278
 20
13.1093002559
 30
0.0
 10
16.634503348
 20
13.0838767964
 30
0.0
 10
16.6489046639
 20
13.0583877199
 30
0.0
 10
16.661936283
 20
13.0328670059
 30
0.0
 10
16.6735804967
 20
13.0073486797
 30
0.0
 10
16.6838213995
 20
12.9818667586
 30
0.0
 10
16.692644897
 20
12.9564552911
 30
0.0
 10
16.7000387518
 20
12.9311480741
 30
0.0
 10
16.7059924989
 20
12.9059795519
 30
0.0
 10
16.7097629427
 20
12.8850590742
 30
0.0
 10
16.7120410896
 20
12.868437883
 30
0.0
 10
16.7133785007
 20
12.856080637
 30
0.0
 10
16.7143513756
 20
12.843783826
 30
0.0
 10
16.7149593759
 20
12.83155148
 30
0.0
 10
16.7152023228
 20
12.8193877498
 30
0.0
 10
16.7150800454
 20
12.807296725
 30
0.0
 10
16.714592658
 20
12.7952824846
 30
0.0
 10
16.7137402213
 20
12.7833490829
 30
0.0
 10
16.712523086
 20
12.7715005445
 30
0.0
 10
16.7109416002
 20
12.7597408732
 30
0.0
 10
16.7089963065
 20
12.7480740407
 30
0.0
 10
16.7066878699
 20
12.7365039847
 30
0.0
 10
16.7040170147
 20
12.7250346267
 30
0.0
 10
16.7009847132
 20
12.7136698252
 30
0.0
 10
16.6975918991
 20
12.7024134454
 30
0.0
 10
16.6938398071
 20
12.6912692658
 30
0.0
 10
16.6897296327
 20
12.6802410758
 30
0.0
 10
16.6852628179
 20
12.6693325842
 30
0.0
 10
16.6804408589
 20
12.65854748
 30
0.0
 10
16.6752653776
 20
12.6478894121
 30
0.0
 10
16.6697381736
 20
12.6373619519
 30
0.0
 10
16.6638610581
 20
12.6269686866
 30
0.0
 10
16.6576360979
 20
12.6167130668
 30
0.0
 10
16.6510653472
 20
12.6065986127
 30
0.0
 10
16.6441510283
 20
12.59662861
 30
0.0
 10
16.6344432309
 20
12.5834866856
 30
0.0
 10
16.6214425884
 20
12.5674292042
 30
0.0
 10
16.6102832425
 20
12.5551543066
 30
0.0
 10
16.6044956767
 20
12.5491289331
 30
0.0
  0
SPLINE
  5
2DF
100
AcDbEntity
  8
LAYER_FEATURE
100
AcDbSpline
 62
7
  6
CONTINUOUS
 70
0
 71
3
 72
14
 73
10
 74
0
 42
0.0000001
 43
0.0000001
 44
0.0000000001
 40
0.0
 40
0.0
 40
0.0
 40
0.0
 40
0.1387124641
 40
0.2732344702
 40
0.4036725244
 40
0.5301557204
 40
0.6528408695
 40
0.7719106996
 40
1.0
 40
1.0
 40
1.0
 40
1.0
 10
15.8525541118
 20
11.5755840972
 30
0.0
 10
15.8520159931
 20
11.5749393997
 30
0.0
 10
15.8509331628
 20
11.5736883054
 30
0.0
 10
15.8492632636
 20
11.5719031504
 30
0.0
 10
15.8475741623
 20
11.5702399249
 30
0.0
 10
15.8458672045
 20
11.5687000732
 30
0.0
 10
15.8441435849
 20
11.5672846834
 30
0.0
 10
15.8418584385
 20
11.5655898012
 30
0.0
 10
15.8400737883
 20
11.5644691122
 30
0.0
 10
15.8388624255
 20
11.5638062724
 30
0.0
  0
SPLINE
  5
2E0
100
AcDbEntity
  8
LAYER_FEATURE
100
AcDbSpline
 62
7
  6
CONTINUOUS
 70
0
 71
3
 72
15
 73
11
 74
0
 42
0.0000001
 43
0.0000001
 44
0.0000000001
 40
0.0
 40
0.0
 40
0.0
 40
0.0
 40
0.1173818787
 40
0.2355588866
 40
0.3553007829
 40
0.4773271743
 40
0.6022832503
 40
0.730743906
 40
0.8632033143
 40
1.0
 40
1.0
 40
1.0
 40
1.0
 10
16.6372402368
 20
13.0045535714
 30
0.0
 10
16.6373508699
 20
13.0049115947
 30
0.0
 10
16.6375367127
 20
13.0056418157
 30
0.0
 10
16.6377050837
 20
13.0067653039
 30
0.0
 10
16.6377631181
 20
13.0079147431
 30
0.0
 10
16.6377106187
 20
13.0090859803
 30
0.0
 10
16.6375480228
 20
13.0102750448
 30
0.0
 10
16.6372759625
 20
13.0114779894
 30
0.0
 10
16.6368955116
 20
13.0126906382
 30
0.0
 10
16.6365759615
 20
13.0134895905
 30
0.0
 10
16.6363996067
 20
13.0138891045
 30
0.0
  0
SPLINE
  5
2E1
100
AcDbEntity
  8
LAYER_FEATURE
100
AcDbSpline
 62
7
  6
CONTINUOUS
 70
0
 71
3
 72
14
 73
10
 74
0
 42
0.0000001
 43
0.0000001
 44
0.0000000001
 40
0.0
 40
0.0
 40
0.0
 40
0.0
 40
0.2534643779
 40
0.3799016273
 40
0.505828991
 40
0.6310209445
 40
0.7552542026
 40
0.8783222683
 40
1.0
 40
1.0
 40
1.0
 40
1.0
 10
16.5924601192
 20
12.85965318
 30
0.0
 10
16.5963328719
 20
12.8583585723
 30
0.0
 10
16.6021971468
 20
12.8565900635
 30
0.0
 10
16.6100972686
 20
12.8545877946
 30
0.0
 10
16.616036548
 20
12.8532706271
 30
0.0
 10
16.6219780118
 20
12.852140529
 30
0.0
 10
16.6279059224
 20
12.8512004642
 30
0.0
 10
16.6338040807
 20
12.8504530545
 30
0.0
 10
16.6377303642
 20
12.85008218
 30
0.0
 10
16.6396847187
 20
12.8499299429
 30
0.0
  0
SPLINE
  5
2E2
100
AcDbEntity
  8
LAYER_FEATURE
100
AcDbSpline
 62
7
  6
CONTINUOUS
 70
0
 71
3
 72
19
 73
15
 74
0
 42
0.0000001
 43
0.0000001
 44
0.0000000001
 40
0.0
 40
0.0
 40
0.0
 40
0.0
 40
0.0533583679
 40
0.1069959875
 40
0.1611849383
 40
0.21618354
 40
0.272230963
 40
0.3295425827
 40
0.4486123716
 40
0.5107391587
 40
0.5747177964
 40
0.7084633145
 40
0.8502336605
 40
1.0
 40
1.0
 40
1.0
 40
1.0
 10
16.4799699944
 20
13.2287587002
 30
0.0
 10
16.4800671274
 20
13.2290730078
 30
0.0
 10
16.4802340137
 20
13.2297122725
 30
0.0
 10
16.4803995417
 20
13.2306933814
 30
0.0
 10
16.4804801485
 20
13.2316952749
 30
0.0
 10
16.4804756974
 20
13.2327151639
 30
0.0
 10
16.4803862205
 20
13.2337504478
 30
0.0
 10
16.4801511825
 20
13.2351652488
 30
0.0
 10
16.4797456075
 20
13.2365848648
 30
0.0
 10
16.4791881094
 20
13.2379906426
 30
0.0
 10
16.4785041646
 20
13.2394404983
 30
0.0
 10
16.4774409139
 20
13.2412491388
 30
0.0
 10
16.4758788281
 20
13.2433600363
 30
0.0
 10
16.4746765033
 20
13.2446999569
 30
0.0
 10
16.4740319467
 20
13.2453611305
 30
0.0
  0
SPLINE
  5
2E3
100
AcDbEntity
  8
02___PRT_ALL_AXES
100
AcDbSpline
 62
7
  6
CONTINUOUS
 70
0
 71
3
 72
39
 73
35
 74
0
 42
0.0000001
 43
0.0000001
 44
0.0000000001
 40
0.0
 40
0.0
 40
0.0
 40
0.0
 40
0.0396653803
 40
0.0788626124
 40
0.1175692056
 40
0.1557638032
 40
0.1934266656
 40
0.2305396244
 40
0.2670862416
 40
0.3030519231
 40
0.3384240477
 40
0.3731920997
 40
0.4073478089
 40
0.4408852955
 40
0.4738012217
 40
0.5060949476
 40
0.5377686914
 40
0.5688276896
 40
0.5992803577
 40
0.6291384465
 40
0.6584171908
 40
0.6871354432
 40
0.715315789
 40
0.7429846312
 40
0.7701722372
 40
0.7969127399
 40
0.82324408
 40
0.8492078826
 40
0.8748492568
 40
0.9002165149
 40
0.9253608056
 40
0.9503356668
 40
0.9751965029
 40
1.0
 40
1.0
 40
1.0
 40
1.0
 10
14.9541244754
 20
11.9593361427
 30
0.0
 10
14.9470734335
 20
11.9593361427
 30
0.0
 10
14.9330540104
 20
11.9591780394
 30
0.0
 10
14.9121651348
 20
11.9584573823
 30
0.0
 10
14.8915601268
 20
11.9572553978
 30
0.0
 10
14.871262361
 20
11.9555734265
 30
0.0
 10
14.8512947153
 20
11.9534133597
 30
0.0
 10
14.8316797227
 20
11.9507776187
 30
0.0
 10
14.8124395084
 20
11.9476691603
 30
0.0
 10
14.7935957743
 20
11.94409147
 30
0.0
 10
14.7751697721
 20
11.9400485579
 30
0.0
 10
14.7571822807
 20
11.935544953
 30
0.0
 10
14.7396535835
 20
11.9305856966
 30
0.0
 10
14.7226034464
 20
11.9251763356
 30
0.0
 10
14.7060510969
 20
11.9193229158
 30
0.0
 10
14.6900152038
 20
11.9130319735
 30
0.0
 10
14.6745138576
 20
11.9063105291
 30
0.0
 10
14.6595645533
 20
11.8991660767
 30
0.0
 10
14.6451841737
 20
11.8916065761
 30
0.0
 10
14.6313889739
 20
11.8836404444
 30
0.0
 10
14.618194567
 20
11.8752765474
 30
0.0
 10
14.6056159101
 20
11.8665241923
 30
0.0
 10
14.5936672912
 20
11.8573931218
 30
0.0
 10
14.5823623165
 20
11.8478935077
 30
0.0
 10
14.5717138986
 20
11.8380359452
 30
0.0
 10
14.5617342434
 20
11.8278314502
 30
0.0
 10
14.5524348348
 20
11.8172914554
 30
0.0
 10
14.5438264189
 20
11.8064278067
 30
0.0
 10
14.5359189849
 20
11.7952527643
 30
0.0
 10
14.5287217381
 20
11.7837789793
 30
0.0
 10
14.5222430984
 20
11.7720195514
 30
0.0
 10
14.5164905985
 20
11.759987766
 30
0.0
 10
14.5114711451
 20
11.7476980014
 30
0.0
 10
14.508615907
 20
11.7393376297
 30
0.0
 10
14.5073141177
 20
11.7351250387
 30
0.0
  0
SPLINE
  5
2E4
100
AcDbEntity
  8
LAYER_FEATURE
100
AcDbSpline
 62
7
  6
CONTINUOUS
 70
0
 71
3
 72
23
 73
19
 74
0
 42
0.0000001
 43
0.0000001
 44
0.0000000001
 40
0.0
 40
0.0
 40
0.0
 40
0.0
 40
0.0614502472
 40
0.1241017217
 40
0.1877431732
 40
0.2521517515
 40
0.3170958744
 40
0.3823379887
 40
0.4476372619
 40
0.5127522356
 40
0.5774434725
 40
0.6414762273
 40
0.7046231652
 40
0.766667193
 40
0.8274043409
 40
0.8866470539
 40
0.9442270764
 40
1.0
 40
1.0
 40
1.0
 40
1.0
 10
16.440979935
 20
13.1026984068
 30
0.0
 10
16.443279843
 20
13.1011981975
 30
0.0
 10
16.4480003754
 20
13.0982830778
 30
0.0
 10
16.4553398569
 20
13.0942135002
 30
0.0
 10
16.4629746674
 20
13.0904218338
 30
0.0
 10
16.4708627333
 20
13.0869289986
 30
0.0
 10
16.4789608712
 20
13.0837541025
 30
0.0
 10
16.487224655
 20
13.080914567
 30
0.0
 10
16.4956087658
 20
13.078425963
 30
0.0
 10
16.5040672178
 20
13.0763019406
 30
0.0
 10
16.5125536226
 20
13.0745541481
 30
0.0
 10
16.5210214483
 20
13.0731921701
 30
0.0
 10
16.5294242778
 20
13.0722234741
 30
0.0
 10
16.5377160812
 20
13.071653379
 30
0.0
 10
16.5458514327
 20
13.0714850157
 30
0.0
 10
16.5537859238
 20
13.0717193632
 30
0.0
 10
16.5614758222
 20
13.0723551277
 30
0.0
 10
16.5664957744
 20
13.0730561516
 30
0.0
 10
16.5689523683
 20
13.0734762099
 30
0.0
  0
SPLINE
  5
2E5
100
AcDbEntity
  8
LAYER_FEATURE
100
AcDbSpline
 62
7
  6
CONTINUOUS
 70
0
 71
3
 72
24
 73
20
 74
0
 42
0.0000001
 43
0.0000001
 44
0.0000000001
 40
0.0
 40
0.0
 40
0.0
 40
0.0
 40
0.048628557
 40
0.0977746606
 40
0.1479291825
 40
0.1995338962
 40
0.2529658041
 40
0.3085284835
 40
0.3371902531
 40
0.3664641332
 40
0.426898952
 40
0.4899343875
 40
0.5555957365
 40
0.6238530771
 40
0.6946291257
 40
0.767804066
 40
0.8432182644
 40
0.9206945553
 40
1.0
 40
1.0
 40
1.0
 40
1.0
 10
16.22391263
 20
13.4285370076
 30
0.0
 10
16.224051652
 20
13.4289869043
 30
0.0
 10
16.2242738837
 20
13.4299103148
 30
0.0
 10
16.2244319451
 20
13.431337535
 30
0.0
 10
16.2244151203
 20
13.4328022009
 30
0.0
 10
16.2242238663
 20
13.4342959304
 30
0.0
 10
16.2238597586
 20
13.4358107168
 30
0.0
 10
16.2234187895
 20
13.4370709888
 30
0.0
 10
16.2229852184
 20
13.4380812168
 30
0.0
 10
16.2224865836
 20
13.4391136732
 30
0.0
 10
16.2217578624
 20
13.4404028574
 30
0.0
 10
16.2207338741
 20
13.4419232621
 30
0.0
 10
16.2195565864
 20
13.4434256433
 30
0.0
 10
16.2182322434
 20
13.4449022192
 30
0.0
 10
16.2167677514
 20
13.4463454092
 30
0.0
 10
16.2151707687
 20
13.447747713
 30
0.0
 10
16.2134495839
 20
13.449101953
 30
0.0
 10
16.2116132699
 20
13.4504009406
 30
0.0
 10
16.2103322859
 20
13.4512169991
 30
0.0
 10
16.2096752974
 20
13.4516146165
 30
0.0
  0
SPLINE
  5
2E6
100
AcDbEntity
  8
LAYER_FEATURE
100
AcDbSpline
 62
7
  6
CONTINUOUS
 70
0
 71
3
 72
39
 73
35
 74
0
 42
0.0000001
 43
0.0000001
 44
0.0000000001
 40
0.0
 40
0.0
 40
0.0
 40
0.0
 40
0.0274348706
 40
0.0557463421
 40
0.0849066934
 40
0.1148785689
 40
0.1456160766
 40
0.177065793
 40
0.209167689
 40
0.2418559864
 40
0.275059953
 40
0.3087046694
 40
0.3427117512
 40
0.3770000349
 40
0.4114862398
 40
0.4460856129
 40
0.4807125653
 40
0.5152813084
 40
0.5497064842
 40
0.583903794
 40
0.6177906354
 40
0.6512867539
 40
0.6843149196
 40
0.7168016331
 40
0.7486778497
 40
0.7798797487
 40
0.8103495511
 40
0.8400364056
 40
0.8688973492
 40
0.8968983192
 40
0.9240154737
 40
0.9502356419
 40
0.9755597647
 40
1.0
 40
1.0
 40
1.0
 40
1.0
 10
16.1961871126
 20
13.3389306177
 30
0.0
 10
16.1973696661
 20
13.3374534417
 30
0.0
 10
16.1998602164
 20
13.334521141
 30
0.0
 10
16.2038865323
 20
13.3302653395
 30
0.0
 10
16.2082486072
 20
13.3260968839
 30
0.0
 10
16.2129302664
 20
13.3220311892
 30
0.0
 10
16.2179143703
 20
13.3180830558
 30
0.0
 10
16.2231826123
 20
13.3142669516
 30
0.0
 10
16.2287156545
 20
13.3105968583
 30
0.0
 10
16.2344931764
 20
13.3070862438
 30
0.0
 10
16.2404939501
 20
13.3037479947
 30
0.0
 10
16.2466959204
 20
13.3005943719
 30
0.0
 10
16.2530762888
 20
13.2976369645
 30
0.0
 10
16.2596115969
 20
13.2948866452
 30
0.0
 10
16.2662778133
 20
13.2923535284
 30
0.0
 10
16.2730504225
 20
13.2900469337
 30
0.0
 10
16.2799045143
 20
13.2879753445
 30
0.0
 10
16.286814878
 20
13.286146377
 30
0.0
 10
16.2937560978
 20
13.2845667568
 30
0.0
 10
16.3007026473
 20
13.2832422929
 30
0.0
 10
16.3076289835
 20
13.282177857
 30
0.0
 10
16.3145096427
 20
13.281377367
 30
0.0
 10
16.3213193354
 20
13.280843769
 30
0.0
 10
16.3280330416
 20
13.2805790256
 30
0.0
 10
16.3346261056
 20
13.2805841172
 30
0.0
 10
16.3410743266
 20
13.2808590407
 30
0.0
 10
16.3473540482
 20
13.281402813
 30
0.0
 10
16.3534422476
 20
13.2822134802
 30
0.0
 10
16.3593166137
 20
13.2832881316
 30
0.0
 10
16.3649556572
 20
13.2846229034
 30
0.0
 10
16.370338687
 20
13.2862130275
 30
0.0
 10
16.3754461667
 20
13.2880528621
 30
0.0
 10
16.3802589757
 20
13.290135761
 30
0.0
 10
16.3833131213
 20
13.2917092197
 30
0.0
 10
16.3847822247
 20
13.292535795
 30
0.0
  0
SPLINE
  5
2E7
100
AcDbEntity
  8
LAYER_FEATURE
100
AcDbSpline
 62
7
  6
CONTINUOUS
 70
0
 71
3
 72
27
 73
23
 74
0
 42
0.0000001
 43
0.0000001
 44
0.0000000001
 40
0.0
 40
0.0
 40
0.0
 40
0.0
 40
0.022587155
 40
0.0452765911
 40
0.0681685489
 40
0.0913589737
 40
0.1149372497
 40
0.1389853808
 40
0.1635762901
 40
0.1887739748
 40
0.2411712588
 40
0.2965233666
 40
0.3550033548
 40
0.4166556565
 40
0.4814139112
 40
0.5491181046
 40
0.6195301029
 40
0.6923471771
 40
0.767214513
 40
0.8437347891
 40
0.9214809954
 40
1.0
 40
1.0
 40
1.0
 40
1.0
 10
15.8999524403
 20
13.5797922815
 30
0.0
 10
15.9000428226
 20
13.5800847424
 30
0.0
 10
15.9001998728
 20
13.5806787558
 30
0.0
 10
15.9003620789
 20
13.581589238
 30
0.0
 10
15.9004508769
 20
13.5825180338
 30
0.0
 10
15.9004660289
 20
13.5834629324
 30
0.0
 10
15.9004076218
 20
13.5844218032
 30
0.0
 10
15.9002757725
 20
13.5853924556
 30
0.0
 10
15.9000709014
 20
13.5863727607
 30
0.0
 10
15.8996961748
 20
13.5877068833
 30
0.0
 10
15.8990400537
 20
13.5893902793
 30
0.0
 10
15.8979833402
 20
13.5913847176
 30
0.0
 10
15.8966570467
 20
13.5933633841
 30
0.0
 10
15.8950732597
 20
13.5953092072
 30
0.0
 10
15.8932460178
 20
13.5972056408
 30
0.0
 10
15.8911914214
 20
13.5990363048
 30
0.0
 10
15.8889275297
 20
13.6007852979
 30
0.0
 10
15.8864742484
 20
13.6024373396
 30
0.0
 10
15.8838531826
 20
13.603977922
 30
0.0
 10
15.8810873962
 20
13.6053935162
 30
0.0
 10
15.8782014101
 20
13.6066715782
 30
0.0
 10
15.8762198622
 20
13.6074222968
 30
0.0
 10
15.8752149721
 20
13.607772348
 30
0.0
  0
SPLINE
  5
2E8
100
AcDbEntity
  8
LAYER_FEATURE
100
AcDbSpline
 62
7
  6
CONTINUOUS
 70
0
 71
3
 72
15
 73
11
 74
0
 42
0.0000001
 43
0.0000001
 44
0.0000000001
 40
0.0
 40
0.0
 40
0.0
 40
0.0
 40
0.1105035411
 40
0.2244080591
 40
0.3421552014
 40
0.4641287829
 40
0.5906535586
 40
0.7220014562
 40
0.8583919223
 40
1.0
 40
1.0
 40
1.0
 40
1.0
 10
15.8357063682
 20
11.8861191525
 30
0.0
 10
15.8364438047
 20
11.8858141982
 30
0.0
 10
15.837917448
 20
11.8851355173
 30
0.0
 10
15.840081377
 20
11.8839386877
 30
0.0
 10
15.8422271817
 20
11.8825505947
 30
0.0
 10
15.8443521626
 20
11.8809730547
 30
0.0
 10
15.846454008
 20
11.8792081154
 30
0.0
 10
15.8485302636
 20
11.8772578853
 30
0.0
 10
15.8505785772
 20
11.8751248467
 30
0.0
 10
15.8518988132
 20
11.8736113528
 30
0.0
 10
15.8525541113
 20
11.8728262747
 30
0.0
  0
SPLINE
  5
2E9
100
AcDbEntity
  8
LAYER_FEATURE
100
AcDbSpline
 62
7
  6
CONTINUOUS
 70
0
 71
3
 72
56
 73
52
 74
0
 42
0.0000001
 43
0.0000001
 44
0.0000000001
 40
0.0
 40
0.0
 40
0.0
 40
0.0
 40
0.0117378038
 40
0.0237386881
 40
0.0360222575
 40
0.0486047888
 40
0.074708419
 40
0.0882546751
 40
0.1021347436
 40
0.1163504053
 40
0.1309011141
 40
0.1457839816
 40
0.1609940998
 40
0.1765246022
 40
0.1923668224
 40
0.2085105083
 40
0.2249438185
 40
0.2416536088
 40
0.258625406
 40
0.2932882151
 40
0.3287990931
 40
0.3650076009
 40
0.401752637
 40
0.438865189
 40
0.4761709586
 40
0.5134929136
 40
0.5506537965
 40
0.5874786261
 40
0.6237972327
 40
0.6594468654
 40
0.694274924
 40
0.728141862
 40
0.7609243113
 40
0.7768777397
 40
0.7925229897
 40
0.8078508179
 40
0.8228536978
 40
0.8375259478
 40
0.8518639855
 40
0.8658663269
 40
0.8795339354
 40
0.8928702363
 40
0.9058813787
 40
0.9185763805
 40
0.9309672106
 40
0.9430691072
 40
0.9549003973
 40
0.9664825486
 40
0.9778407276
 40
0.9890035662
 40
1.0
 40
1.0
 40
1.0
 40
1.0
 10
15.8872418323
 20
13.538802475
 30
0.0
 10
15.8874455951
 20
13.5377825193
 30
0.0
 10
15.8879227364
 20
13.5357322207
 30
0.0
 10
15.8888307305
 20
13.5326703228
 30
0.0
 10
15.8899370158
 20
13.5295945905
 30
0.0
 10
15.8916948406
 20
13.5254322724
 30
0.0
 10
15.8938284794
 20
13.521314822
 30
0.0
 10
15.8962981135
 20
13.5172638213
 30
0.0
 10
15.8983582602
 20
13.5142009309
 30
0.0
 10
15.9005993685
 20
13.5111569035
 30
0.0
 10
15.9030176208
 20
13.5081369377
 30
0.0
 10
15.9056086704
 20
13.5051463537
 30
0.0
 10
15.9083679654
 20
13.5021904109
 30
0.0
 10
15.9112906288
 20
13.4992743133
 30
0.0
 10
15.914371481
 20
13.496403171
 30
0.0
 10
15.9176051135
 20
13.4935820752
 30
0.0
 10
15.9209857763
 20
13.4908159619
 30
0.0
 10
15.9245075552
 20
13.4881097171
 30
0.0
 10
15.929417299
 20
13.4845628856
 30
0.0
 10
15.935870597
 20
13.4803137952
 30
0.0
 10
15.9440176209
 20
13.4755629738
 30
0.0
 10
15.9525647168
 20
13.4711579245
 30
0.0
 10
15.9614515635
 20
13.4671297336
 30
0.0
 10
15.9706156744
 20
13.4635067174
 30
0.0
 10
15.9799925145
 20
13.4603143915
 30
0.0
 10
15.9895160566
 20
13.4575752306
 30
0.0
 10
15.9991192357
 20
13.455308523
 30
0.0
 10
16.0087344372
 20
13.4535302277
 30
0.0
 10
16.0182939941
 20
13.4522528652
 30
0.0
 10
16.0277306418
 20
13.4514854339
 30
0.0
 10
16.0369781406
 20
13.4512333606
 30
0.0
 10
16.0459712812
 20
13.4514984571
 30
0.0
 10
16.0532666876
 20
13.4521547523
 30
0.0
 10
16.0589177754
 20
13.4529432489
 30
0.0
 10
16.0630153144
 20
13.4536561484
 30
0.0
 10
16.0670030012
 20
13.4544945967
 30
0.0
 10
16.0708738468
 20
13.4554571433
 30
0.0
 10
16.0746210089
 20
13.456542135
 30
0.0
 10
16.0782378954
 20
13.4577476355
 30
0.0
 10
16.0817181111
 20
13.459071608
 30
0.0
 10
16.0850555328
 20
13.4605117025
 30
0.0
 10
16.0882442578
 20
13.462065458
 30
0.0
 10
16.0912786483
 20
13.4637301822
 30
0.0
 10
16.0941533431
 20
13.4655029734
 30
0.0
 10
16.0968632114
 20
13.4673808169
 30
0.0
 10
16.0994034554
 20
13.4693604172
 30
0.0
 10
16.1017694736
 20
13.4714383972
 30
0.0
 10
16.1039570432
 20
13.4736110855
 30
0.0
 10
16.1059622362
 20
13.4758748217
 30
0.0
 10
16.1077811638
 20
13.4782254296
 30
0.0
 10
16.1088747678
 20
13.4798585343
 30
0.0
 10
16.1093879255
 20
13.4806868792
 30
0.0
  0
SPLINE
  5
2EA
100
AcDbEntity
  8
02___PRT_ALL_AXES
100
AcDbSpline
 62
7
  6
CONTINUOUS
 70
0
 71
3
 72
23
 73
19
 74
0
 42
0.0000001
 43
0.0000001
 44
0.0000000001
 40
0.0
 40
0.0
 40
0.0
 40
0.0
 40
0.0549571246
 40
0.1099199759
 40
0.1651294207
 40
0.2208259606
 40
0.2772459461
 40
0.3346177045
 40
0.3931581684
 40
0.4530700095
 40
0.5145392688
 40
0.5777334858
 40
0.6428009289
 40
0.7098697543
 40
0.7790463025
 40
0.8504181237
 40
0.9240572456
 40
1.0
 40
1.0
 40
1.0
 40
1.0
 10
15.8487579399
 20
11.8882051871
 30
0.0
 10
15.8498922505
 20
11.8882051892
 30
0.0
 10
15.8521621682
 20
11.8881099407
 30
0.0
 10
15.8555470369
 20
11.8876795261
 30
0.0
 10
15.8588987239
 20
11.8869621209
 30
0.0
 10
15.8622074414
 20
11.8859586309
 30
0.0
 10
15.8654640241
 20
11.884670518
 30
0.0
 10
15.8686594089
 20
11.88309966
 30
0.0
 10
15.8717848992
 20
11.8812485621
 30
0.0
 10
15.8748321077
 20
11.8791202017
 30
0.0
 10
15.8777929683
 20
11.8767180371
 30
0.0
 10
15.8806598931
 20
11.8740461594
 30
0.0
 10
15.8834256318
 20
11.8711090861
 30
0.0
 10
15.8860833807
 20
11.8679119192
 30
0.0
 10
15.8886268983
 20
11.8644603729
 30
0.0
 10
15.8910503787
 20
11.8607604801
 30
0.0
 10
15.8933484127
 20
11.856819183
 30
0.0
 10
15.8947717372
 20
11.854077952
 30
0.0
 10
15.8954622669
 20
11.8526708005
 30
0.0
  0
SPLINE
  5
2EB
100
AcDbEntity
  8
02___PRT_ALL_AXES
100
AcDbSpline
 62
7
  6
CONTINUOUS
 70
0
 71
3
 72
40
 73
36
 74
0
 42
0.0000001
 43
0.0000001
 44
0.0000000001
 40
0.0
 40
0.0
 40
0.0
 40
0.0
 40
0.0248034546
 40
0.049664248
 40
0.0746390663
 40
0.0997833135
 40
0.1251505275
 40
0.1507918574
 40
0.1767556158
 40
0.2030869115
 40
0.2298273685
 40
0.2570149276
 40
0.2846837213
 40
0.3128640179
 40
0.3271552563
 40
0.3415839409
 40
0.3708626359
 40
0.4007206744
 40
0.4311732902
 40
0.4622322343
 40
0.4939059225
 40
0.5261995923
 40
0.5591154628
 40
0.5926528929
 40
0.6268085439
 40
0.6615765358
 40
0.6969485987
 40
0.7329142173
 40
0.7694607716
 40
0.8065736704
 40
0.8442364555
 40
0.8824310358
 40
0.9211374221
 40
0.960334881
 40
1.0
 40
1.0
 40
1.0
 40
1.0
 10
14.6259266164
 20
12.1189552244
 30
0.0
 10
14.6272284037
 20
12.1231678159
 30
0.0
 10
14.6300836461
 20
12.1315281864
 30
0.0
 10
14.6351030995
 20
12.1438179508
 30
0.0
 10
14.6408556001
 20
12.1558497359
 30
0.0
 10
14.6473342388
 20
12.167609164
 30
0.0
 10
14.6545314841
 20
12.1790829496
 30
0.0
 10
14.6624389172
 20
12.1902579928
 30
0.0
 10
14.6710473337
 20
12.2011216406
 30
0.0
 10
14.6803467451
 20
12.2116616357
 30
0.0
 10
14.6903263953
 20
12.2218661259
 30
0.0
 10
14.7009748351
 20
12.2317237051
 30
0.0
 10
14.712279723
 20
12.2412232558
 30
0.0
 10
14.7221902099
 20
12.248796794
 30
0.0
 10
14.7304275566
 20
12.2546677923
 30
0.0
 10
14.7389528927
 20
12.2604669635
 30
0.0
 10
14.7500015539
 20
12.2674706812
 30
0.0
 10
14.7637966521
 20
12.2754367458
 30
0.0
 10
14.7781770601
 20
12.2829962644
 30
0.0
 10
14.793126356
 20
12.2901407123
 30
0.0
 10
14.8086277034
 20
12.2968621591
 30
0.0
 10
14.8246635954
 20
12.3031531018
 30
0.0
 10
14.8412159455
 20
12.3090065209
 30
0.0
 10
14.8582660834
 20
12.3144158808
 30
0.0
 10
14.875794781
 20
12.3193751367
 30
0.0
 10
14.8937822721
 20
12.3238787418
 30
0.0
 10
14.9122082736
 20
12.3279216547
 30
0.0
 10
14.9310520071
 20
12.3314993461
 30
0.0
 10
14.9502922218
 20
12.3346078048
 30
0.0
 10
14.9699072131
 20
12.3372435434
 30
0.0
 10
14.9898748655
 20
12.339403613
 30
0.0
 10
15.0101726133
 20
12.3410855761
 30
0.0
 10
15.0307776565
 20
12.3422875742
 30
0.0
 10
15.0516665255
 20
12.3430082193
 30
0.0
 10
15.0656859664
 20
12.3431663284
 30
0.0
 10
15.0727369738
 20
12.3431663284
 30
0.0
  0
SPLINE
  5
2EC
100
AcDbEntity
  8
02___PRT_ALL_AXES
100
AcDbSpline
 62
7
  6
CONTINUOUS
 70
0
 71
3
 72
68
 73
64
 74
0
 42
0.0000001
 43
0.0000001
 44
0.0000000001
 40
0.0
 40
0.0
 40
0.0
 40
0.0
 40
0.0171788456
 40
0.0345306534
 40
0.0520446775
 40
0.0697104889
 40
0.0875169165
 40
0.1054526097
 40
0.1235058945
 40
0.141664841
 40
0.1599172928
 40
0.1782508911
 40
0.1966531056
 40
0.2151112604
 40
0.2521425354
 40
0.28924306
 40
0.3263089876
 40
0.3447973805
 40
0.3632383651
 40
0.3816191845
 40
0.3999272075
 40
0.4181499573
 40
0.4362751395
 40
0.4542906697
 40
0.4721847023
 40
0.4899456599
 40
0.5075622638
 40
0.525023566
 40
0.5423189791
 40
0.5594383092
 40
0.576371789
 40
0.5931101135
 40
0.6096444775
 40
0.6259666114
 40
0.6420688205
 40
0.6579440247
 40
0.6735858021
 40
0.6889884354
 40
0.704146957
 40
0.7190571972
 40
0.7337158342
 40
0.7481204471
 40
0.7622695731
 40
0.7761627631
 40
0.7898006386
 40
0.8031849497
 40
0.8163186336
 40
0.8292058738
 40
0.8418521562
 40
0.8542643185
 40
0.8664505942
 40
0.8784206496
 40
0.8901856082
 40
0.9017580632
 40
0.9131520671
 40
0.924383102
 40
0.9354680251
 40
0.9464249879
 40
0.9572733264
 40
0.9680334211
 40
0.9787265282
 40
0.9893745859
 40
1.0
 40
1.0
 40
1.0
 40
1.0
 10
15.0727369738
 20
12.3431663284
 30
0.0
 10
15.0795805063
 20
12.3431663284
 30
0.0
 10
15.0933369134
 20
12.3430157447
 30
0.0
 10
15.1140606012
 20
12.3423466648
 30
0.0
 10
15.1349595342
 20
12.3412338637
 30
0.0
 10
15.1560117387
 20
12.3396785449
 30
0.0
 10
15.1771954212
 20
12.3376822982
 30
0.0
 10
15.1984884924
 20
12.335247213
 30
0.0
 10
15.2198688034
 20
12.3323758211
 30
0.0
 10
15.2413140968
 20
12.3290711149
 30
0.0
 10
15.2628020581
 20
12.3253365342
 30
0.0
 10
15.2843102945
 20
12.3211759697
 30
0.0
 10
15.3058165162
 20
12.3165937348
 30
0.0
 10
15.3344879689
 20
12.3099214248
 30
0.0
 10
15.3701744208
 20
12.3005582212
 30
0.0
 10
15.4125864036
 20
12.2877376861
 30
0.0
 10
15.4475086907
 20
12.2757571964
 30
0.0
 10
15.4751150863
 20
12.2654183734
 30
0.0
 10
15.4956029623
 20
12.2573066872
 30
0.0
 10
15.5158687223
 20
12.2488398645
 30
0.0
 10
15.5358913606
 20
12.2400266738
 30
0.0
 10
15.5556500115
 20
12.2308763015
 30
0.0
 10
15.5751241158
 20
12.2213982708
 30
0.0
 10
15.5942934024
 20
12.2116024476
 30
0.0
 10
15.6131379196
 20
12.2014990263
 30
0.0
 10
15.6316380523
 20
12.1910985195
 30
0.0
 10
15.6497745463
 20
12.1804117498
 30
0.0
 10
15.6675285287
 20
12.1694498394
 30
0.0
 10
15.6848815243
 20
12.1582241939
 30
0.0
 10
15.7018154756
 20
12.1467464909
 30
0.0
 10
15.7183127601
 20
12.1350286681
 30
0.0
 10
15.7343562108
 20
12.1230829103
 30
0.0
 10
15.749929137
 20
12.1109216419
 30
0.0
 10
15.7650153379
 20
12.0985575068
 30
0.0
 10
15.7795991179
 20
12.0860033568
 30
0.0
 10
15.7936653031
 20
12.0732722375
 30
0.0
 10
15.8071992566
 20
12.0603773735
 30
0.0
 10
15.8201868985
 20
12.0473321597
 30
0.0
 10
15.8326147172
 20
12.0341501423
 30
0.0
 10
15.8444697797
 20
12.0208450043
 30
0.0
 10
15.8557397449
 20
12.0074305514
 30
0.0
 10
15.8664128745
 20
11.9939206964
 30
0.0
 10
15.8764780492
 20
11.9803294478
 30
0.0
 10
15.8859247789
 20
11.9666708949
 30
0.0
 10
15.8947432072
 20
11.9529591906
 30
0.0
 10
15.9029241203
 20
11.9392085385
 30
0.0
 10
15.9104589534
 20
11.9254331791
 30
0.0
 10
15.9173398008
 20
11.9116473766
 30
0.0
 10
15.9235594284
 20
11.8978654096
 30
0.0
 10
15.9291112706
 20
11.8841015542
 30
0.0
 10
15.9339894367
 20
11.8703700749
 30
0.0
 10
15.938188716
 20
11.8566852143
 30
0.0
 10
15.9417045834
 20
11.8430611825
 30
0.0
 10
15.944533216
 20
11.8295121503
 30
0.0
 10
15.9466714925
 20
11.8160522371
 30
0.0
 10
15.9481169995
 20
11.8026955027
 30
0.0
 10
15.9488680417
 20
11.7894559358
 30
0.0
 10
15.9489236517
 20
11.7763474468
 30
0.0
 10
15.9482836054
 20
11.7633838365
 30
0.0
 10
15.9469484491
 20
11.7505788384
 30
0.0
 10
15.9449194323
 20
11.7379458774
 30
0.0
 10
15.9421987731
 20
11.7254988654
 30
0.0
 10
15.9399245903
 20
11.7173294836
 30
0.0
 10
15.938674856
 20
11.7132853361
 30
0.0
  0
SPLINE
  5
2ED
100
AcDbEntity
  8
LAYER_CHAMFER_FEAT
100
AcDbSpline
 62
7
  6
CONTINUOUS
 70
0
 71
3
 72
45
 73
41
 74
0
 42
0.0000001
 43
0.0000001
 44
0.0000000001
 40
0.0
 40
0.0
 40
0.0
 40
0.0
 40
0.0106260328
 40
0.0212747086
 40
0.0319684393
 40
0.0427291583
 40
0.0535781301
 40
0.0645357284
 40
0.0756212976
 40
0.0868529841
 40
0.098247652
 40
0.1098207803
 40
0.1215864235
 40
0.1335571754
 40
0.1581516048
 40
0.1836817515
 40
0.210196947
 40
0.2377257355
 40
0.2662776595
 40
0.2958451244
 40
0.3264052225
 40
0.3579214516
 40
0.3903453056
 40
0.4236177331
 40
0.4576704728
 40
0.4924272822
 40
0.5278050737
 40
0.5637149767
 40
0.600063338
 40
0.6367526755
 40
0.6736825944
 40
0.7107506783
 40
0.747853361
 40
0.784886791
 40
0.821747688
 40
0.8583342184
 40
0.8945468424
 40
0.9302893024
 40
0.9654693127
 40
1.0
 40
1.0
 40
1.0
 40
1.0
 10
14.9339105156
 20
11.6354766959
 30
0.0
 10
14.9334557397
 20
11.6340050253
 30
0.0
 10
14.9326281694
 20
11.6310321776
 30
0.0
 10
14.9316381023
 20
11.6265027006
 30
0.0
 10
14.9308997559
 20
11.621905551
 30
0.0
 10
14.9304138781
 20
11.6172458004
 30
0.0
 10
14.9301809772
 20
11.6125283289
 30
0.0
 10
14.9302012049
 20
11.6077581365
 30
0.0
 10
14.9304745155
 20
11.602940245
 30
0.0
 10
14.9310005318
 20
11.5980797163
 30
0.0
 10
14.9317786563
 20
11.5931816366
 30
0.0
 10
14.9328079945
 20
11.588251145
 30
0.0
 10
14.9340874413
 20
11.5832932892
 30
0.0
 10
14.9361432525
 20
11.576593644
 30
0.0
 10
14.9393496892
 20
11.5681702612
 30
0.0
 10
14.944133917
 20
11.558131543
 30
0.0
 10
14.9498684984
 20
11.5481113615
 30
0.0
 10
14.9565288189
 20
11.5381511071
 30
0.0
 10
14.9640869308
 20
11.5282911919
 30
0.0
 10
14.9725112839
 20
11.5185719526
 30
0.0
 10
14.9817668718
 20
11.5090332021
 30
0.0
 10
14.9918153014
 20
11.4997141393
 30
0.0
 10
15.0026149229
 20
11.4906531486
 30
0.0
 10
15.0141209769
 20
11.4818876287
 30
0.0
 10
15.0262857662
 20
11.4734538191
 30
0.0
 10
15.0390588449
 20
11.4653866341
 30
0.0
 10
15.0523872248
 20
11.4577195053
 30
0.0
 10
15.0662155936
 20
11.4504842321
 30
0.0
 10
15.0804865456
 20
11.4437108407
 30
0.0
 10
15.0951408223
 20
11.4374274531
 30
0.0
 10
15.1101175607
 20
11.4316601645
 30
0.0
 10
15.1253545498
 20
11.4264329316
 30
0.0
 10
15.140788492
 20
11.4217674694
 30
0.0
 10
15.1563552706
 20
11.41768316
 30
0.0
 10
15.1719902178
 20
11.4141969687
 30
0.0
 10
15.1876283975
 20
11.4113233788
 30
0.0
 10
15.203204841
 20
11.4090743207
 30
0.0
 10
15.2186549722
 20
11.4074591462
 30
0.0
 10
15.2339142909
 20
11.4064845577
 30
0.0
 10
15.2440206672
 20
11.4062623615
 30
0.0
 10
15.2490261915
 20
11.4062623615
 30
0.0
  0
SPLINE
  5
2EE
100
AcDbEntity
  8
LAYER_CUT_FEAT
100
AcDbSpline
 62
7
  6
CONTINUOUS
 70
0
 71
3
 72
22
 73
18
 74
0
 42
0.0000001
 43
0.0000001
 44
0.0000000001
 40
0.0
 40
0.0
 40
0.0
 40
0.0
 40
0.1381198487
 40
0.2053664697
 40
0.2714548684
 40
0.3364371463
 40
0.4003725865
 40
0.463327841
 40
0.5253764035
 40
0.5865986141
 40
0.6470813144
 40
0.7069174397
 40
0.7662054996
 40
0.8250488604
 40
0.8835549599
 40
0.9418344153
 40
1.0
 40
1.0
 40
1.0
 40
1.0
 10
16.0283601414
 20
11.9161202802
 30
0.0
 10
16.0333635171
 20
11.9059244725
 30
0.0
 10
16.0402577703
 20
11.8904849363
 30
0.0
 10
16.0481208907
 20
11.8695898584
 30
0.0
 10
16.0532338567
 20
11.8540996081
 30
0.0
 10
16.057608978
 20
11.8386679738
 30
0.0
 10
16.0612421075
 20
11.8233092576
 30
0.0
 10
16.0641295412
 20
11.8080382681
 30
0.0
 10
16.0662683555
 20
11.792869595
 30
0.0
 10
16.0676563474
 20
11.7778178137
 30
0.0
 10
16.068291991
 20
11.7628974037
 30
0.0
 10
16.0681744959
 20
11.7481227658
 30
0.0
 10
16.0673038539
 20
11.7335081817
 30
0.0
 10
16.0656807739
 20
11.7190678607
 30
0.0
 10
16.0633066495
 20
11.7048156985
 30
0.0
 10
16.0601839022
 20
11.6907660892
 30
0.0
 10
16.05760374
 20
11.681539526
 30
0.0
 10
16.05619162
 20
11.6769699094
 30
0.0
  0
SPLINE
  5
2EF
100
AcDbEntity
  8
LAYER_FEATURE
100
AcDbSpline
 62
7
  6
CONTINUOUS
 70
0
 71
3
 72
31
 73
27
 74
0
 42
0.0000001
 43
0.0000001
 44
0.0000000001
 40
0.0
 40
0.0
 40
0.0
 40
0.0
 40
0.0215915915
 40
0.0436803008
 40
0.0663531276
 40
0.0896921809
 40
0.1137645682
 40
0.1386210015
 40
0.1642986854
 40
0.1908223564
 40
0.2182039786
 40
0.2464448017
 40
0.2755354433
 40
0.3054576891
 40
0.3361847467
 40
0.3676824202
 40
0.3999099226
 40
0.4328202567
 40
0.5004653038
 40
0.5701603057
 40
0.6413790582
 40
0.713555825
 40
0.7861006932
 40
0.8584154209
 40
0.929905116
 40
1.0
 40
1.0
 40
1.0
 40
1.0
 10
16.6792394064
 20
12.8222257658
 30
0.0
 10
16.6792417222
 20
12.822599741
 30
0.0
 10
16.679211388
 20
12.8233569155
 30
0.0
 10
16.6790646599
 20
12.8244981387
 30
0.0
 10
16.6788166987
 20
12.8256526888
 30
0.0
 10
16.6784684815
 20
12.8268168209
 30
0.0
 10
16.6780211937
 20
12.8279870732
 30
0.0
 10
16.6774762617
 20
12.8291598804
 30
0.0
 10
16.6768354581
 20
12.830331705
 30
0.0
 10
16.6761007529
 20
12.8314989777
 30
0.0
 10
16.6752744807
 20
12.8326582085
 30
0.0
 10
16.6743591399
 20
12.8338058445
 30
0.0
 10
16.673357588
 20
12.834938439
 30
0.0
 10
16.6722728732
 20
12.8360525248
 30
0.0
 10
16.67110833
 20
12.8371447198
 30
0.0
 10
16.6698675363
 20
12.8382116958
 30
0.0
 10
16.6685542614
 20
12.8392501902
 30
0.0
 10
16.66669511
 20
12.8406049406
 30
0.0
 10
16.6642141218
 20
12.8422041862
 30
0.0
 10
16.6610452185
 20
12.8439440611
 30
0.0
 10
16.657695878
 20
12.8455010937
 30
0.0
 10
16.6542070317
 20
12.8468562519
 30
0.0
 10
16.6506211786
 20
12.8479930475
 30
0.0
 10
16.6469820041
 20
12.8488975956
 30
0.0
 10
16.6433340908
 20
12.8495588859
 30
0.0
 10
16.640895147
 20
12.8498356549
 30
0.0
 10
16.6396847187
 20
12.8499299429
 30
0.0
  0
SPLINE
  5
2F0
100
AcDbEntity
  8
LAYER_CHAMFER_FEAT
100
AcDbSpline
 62
7
  6
CONTINUOUS
 70
0
 71
3
 72
28
 73
24
 74
0
 42
0.0000001
 43
0.0000001
 44
0.0000000001
 40
0.0
 40
0.0
 40
0.0
 40
0.0
 40
0.0248059849
 40
0.0496693121
 40
0.0746466828
 40
0.0997934886
 40
0.1251633001
 40
0.1508072364
 40
0.1767736535
 40
0.2031076249
 40
0.2298508173
 40
0.257041145
 40
0.3128809649
 40
0.3708704111
 40
0.4311753294
 40
0.4939038002
 40
0.5591105877
 40
0.6268021591
 40
0.6969418232
 40
0.7694545098
 40
0.8442317173
 40
0.9211345749
 40
1.0
 40
1.0
 40
1.0
 40
1.0
 10
15.4116209341
 20
11.4878530113
 30
0.0
 10
15.4111472163
 20
11.4863200438
 30
0.0
 10
15.4101081706
 20
11.4832777038
 30
0.0
 10
15.408281614
 20
11.4788054347
 30
0.0
 10
15.4061882474
 20
11.4744270685
 30
0.0
 10
15.4038306893
 20
11.4701477865
 30
0.0
 10
15.4012115798
 20
11.4659724796
 30
0.0
 10
15.3983340779
 20
11.4619058563
 30
0.0
 10
15.3952014456
 20
11.4579525744
 30
0.0
 10
15.3918174098
 20
11.4541170595
 30
0.0
 10
15.3881857354
 20
11.4504035977
 30
0.0
 10
15.3829735265
 20
11.445578432
 30
0.0
 10
15.3758365609
 20
11.4398751524
 30
0.0
 10
15.3664349296
 20
11.433648456
 30
0.0
 10
15.3561624065
 20
11.4280037054
 30
0.0
 10
15.3450661172
 20
11.4229654335
 30
0.0
 10
15.3331958246
 20
11.4185549873
 30
0.0
 10
15.3206047972
 20
11.4147913595
 30
0.0
 10
15.3073494032
 20
11.4116908224
 30
0.0
 10
15.2934890274
 20
11.4092668605
 30
0.0
 10
15.2790857083
 20
11.407530094
 30
0.0
 10
15.2642044173
 20
11.4064881034
 30
0.0
 10
15.2541273407
 20
11.4062623615
 30
0.0
 10
15.2490261915
 20
11.4062623615
 30
0.0
  0
SPLINE
  5
2F1
100
AcDbEntity
  8
LAYER_FEATURE
100
AcDbSpline
 62
7
  6
CONTINUOUS
 70
0
 71
3
 72
26
 73
22
 74
0
 42
0.0000001
 43
0.0000001
 44
0.0000000001
 40
0.0
 40
0.0
 40
0.0
 40
0.0
 40
0.049708203
 40
0.0757858545
 40
0.102671858
 40
0.1303564892
 40
0.1588192575
 40
0.2179490502
 40
0.2797801694
 40
0.3439281401
 40
0.4099407394
 40
0.4773149849
 40
0.5455127466
 40
0.613975337
 40
0.6821375688
 40
0.7494416744
 40
0.8153511848
 40
0.8793663134
 40
0.9410371189
 40
0.9708823731
 40
1.0
 40
1.0
 40
1.0
 40
1.0
 10
16.6172211443
 20
13.0534348679
 30
0.0
 10
16.61679483
 20
13.0542415111
 30
0.0
 10
16.6160627626
 20
13.0554294858
 30
0.0
 10
16.6149439594
 20
13.0569465127
 30
0.0
 10
16.6140029822
 20
13.0580901649
 30
0.0
 10
16.6129767279
 20
13.0592176748
 30
0.0
 10
16.6114797917
 20
13.0607139474
 30
0.0
 10
16.6094104457
 20
13.0625194442
 30
0.0
 10
16.6066756461
 20
13.0645409795
 30
0.0
 10
16.6036910902
 20
13.0664203755
 30
0.0
 10
16.6004931997
 20
13.0681347484
 30
0.0
 10
16.5971208238
 20
13.0696633053
 30
0.0
 10
16.593615054
 20
13.0709874213
 30
0.0
 10
16.5900186251
 20
13.072090959
 30
0.0
 10
16.5863753868
 20
13.0729604642
 30
0.0
 10
16.582729766
 20
13.0735853336
 30
0.0
 10
16.5791260997
 20
13.0739579651
 30
0.0
 10
16.5756084244
 20
13.0740737677
 30
0.0
 10
16.5727529986
 20
13.0739538078
 30
0.0
 10
16.5705502186
 20
13.0737243732
 30
0.0
 10
16.5694791618
 20
13.0735662875
 30
0.0
 10
16.5689523683
 20
13.0734762099
 30
0.0
  0
SPLINE
  5
2F2
100
AcDbEntity
  8
LAYER_FEATURE
100
AcDbSpline
 62
7
  6
CONTINUOUS
 70
0
 71
3
 72
26
 73
22
 74
0
 42
0.0000001
 43
0.0000001
 44
0.0000000001
 40
0.0
 40
0.0
 40
0.0
 40
0.0
 40
0.0294861992
 40
0.0596857254
 40
0.1220124101
 40
0.1865992804
 40
0.252983193
 40
0.3206544779
 40
0.3890698421
 40
0.4576676394
 40
0.5258817069
 40
0.5931553204
 40
0.6589553626
 40
0.7227871128
 40
0.7842101653
 40
0.8428558671
 40
0.8710545413
 40
0.8984641743
 40
0.9250676898
 40
0.9508591339
 40
1.0
 40
1.0
 40
1.0
 40
1.0
 10
16.4359431623
 20
13.2825745697
 30
0.0
 10
16.4355480358
 20
13.2829427401
 30
0.0
 10
16.4347314841
 20
13.2836702294
 30
0.0
 10
16.4330016767
 20
13.2850859544
 30
0.0
 10
16.430665824
 20
13.2867720912
 30
0.0
 10
16.4276477921
 20
13.2886285953
 30
0.0
 10
16.424421783
 20
13.2903169939
 30
0.0
 10
16.421027245
 20
13.291816678
 30
0.0
 10
16.4175054742
 20
13.2931094036
 30
0.0
 10
16.4138994202
 20
13.2941794054
 30
0.0
 10
16.4102530498
 20
13.2950136368
 30
0.0
 10
16.4066108037
 20
13.2956019265
 30
0.0
 10
16.4030170505
 20
13.2959371062
 30
0.0
 10
16.3995154077
 20
13.2960150708
 30
0.0
 10
16.396148563
 20
13.2958348162
 30
0.0
 10
16.3934541773
 20
13.2954663733
 30
0.0
 10
16.3914047348
 20
13.2950398091
 30
0.0
 10
16.3899464906
 20
13.2946619692
 30
0.0
 10
16.3885513907
 20
13.2942231812
 30
0.0
 10
16.3868098508
 20
13.2935693742
 30
0.0
 10
16.3855666515
 20
13.2929771442
 30
0.0
 10
16.3847822247
 20
13.292535795
 30
0.0
  0
SPLINE
  5
2F3
100
AcDbEntity
  8
02___PRT_ALL_AXES
100
AcDbSpline
 62
7
  6
CONTINUOUS
 70
0
 71
3
 72
27
 73
23
 74
0
 42
0.0000001
 43
0.0000001
 44
0.0000000001
 40
0.0
 40
0.0
 40
0.0
 40
0.0
 40
0.0674988537
 40
0.1342320393
 40
0.2002022481
 40
0.2654213237
 40
0.3299063516
 40
0.3936804185
 40
0.4567709882
 40
0.5192094237
 40
0.5810302449
 40
0.642270724
 40
0.6726905755
 40
0.7029804974
 40
0.7331458849
 40
0.7631922999
 40
0.8229414214
 40
0.8822863948
 40
0.9118287302
 40
0.941290167
 40
0.9706780304
 40
1.0
 40
1.0
 40
1.0
 40
1.0
 10
15.0531296016
 20
12.2797168487
 30
0.0
 10
15.0561884557
 20
12.2797168487
 30
0.0
 10
15.0622732628
 20
12.2795298104
 30
0.0
 10
15.0713117425
 20
12.2786786675
 30
0.0
 10
15.0801751806
 20
12.2772637022
 30
0.0
 10
15.0888275644
 20
12.2752935979
 30
0.0
 10
15.097234359
 20
12.2727802222
 30
0.0
 10
15.105361942
 20
12.2697385037
 30
0.0
 10
15.1131779781
 20
12.2661861117
 30
0.0
 10
15.1206515624
 20
12.2621431144
 30
0.0
 10
15.1277529512
 20
12.2576319822
 30
0.0
 10
15.1333505343
 20
12.2534927913
 30
0.0
 10
15.137611944
 20
12.2499724634
 30
0.0
 10
15.1406913763
 20
12.2472367274
 30
0.0
 10
15.1436578365
 20
12.2444033212
 30
0.0
 10
15.1474509838
 20
12.240507678
 30
0.0
 10
15.1518989765
 20
12.2354105108
 30
0.0
 10
15.1559461023
 20
12.2300179065
 30
0.0
 10
15.1589213487
 20
12.2255543589
 30
0.0
 10
15.1610174631
 20
12.2221397566
 30
0.0
 10
15.1629788261
 20
12.2186575852
 30
0.0
 10
15.1641964224
 20
12.2162911408
 30
0.0
 10
15.1647818127
 20
12.2150982476
 30
0.0
  0
SPLINE
  5
2F4
100
AcDbEntity
  8
LAYER_FEATURE
100
AcDbSpline
 62
7
  6
CONTINUOUS
 70
0
 71
3
 72
31
 73
27
 74
0
 42
0.0000001
 43
0.0000001
 44
0.0000000001
 40
0.0
 40
0.0
 40
0.0
 40
0.0
 40
0.070831538
 40
0.1429475245
 40
0.2157693957
 40
0.2886964678
 40
0.3611278017
 40
0.4324739475
 40
0.5021729864
 40
0.569706165
 40
0.6025207125
 40
0.6346281388
 40
0.6659836053
 40
0.6965488271
 40
0.7262924662
 40
0.7551909802
 40
0.7832298282
 40
0.8104037483
 40
0.8367185872
 40
0.862191388
 40
0.8868524367
 40
0.910744921
 40
0.9339258724
 40
0.9564688943
 40
0.9784625607
 40
1.0
 40
1.0
 40
1.0
 40
1.0
 10
16.1572702605
 20
13.4820072414
 30
0.0
 10
16.1562038477
 20
13.4825997484
 30
0.0
 10
16.1540093783
 20
13.4837208425
 30
0.0
 10
16.150593669
 20
13.4851911874
 30
0.0
 10
16.1470568033
 20
13.4864521988
 30
0.0
 10
16.1434420701
 20
13.4874883705
 30
0.0
 10
16.1397935268
 20
13.4882871082
 30
0.0
 10
16.1361555985
 20
13.4888386671
 30
0.0
 10
16.1325727391
 20
13.489136309
 30
0.0
 10
16.1296411859
 20
13.4891700734
 30
0.0
 10
16.1273618292
 20
13.4890637888
 30
0.0
 10
16.1257093515
 20
13.488920212
 30
0.0
 10
16.1241027544
 20
13.4887124329
 30
0.0
 10
16.1225469282
 20
13.4884410989
 30
0.0
 10
16.1210466371
 20
13.4881070187
 30
0.0
 10
16.1196064691
 20
13.487711181
 30
0.0
 10
16.1182308172
 20
13.4872548045
 30
0.0
 10
16.1169239032
 20
13.4867391957
 30
0.0
 10
16.1156897053
 20
13.4861659497
 30
0.0
 10
16.1145320315
 20
13.4855366993
 30
0.0
 10
16.1134544274
 20
13.4848533471
 30
0.0
 10
16.1124602587
 20
13.4841178798
 30
0.0
 10
16.1115526175
 20
13.4833325027
 30
0.0
 10
16.1107343397
 20
13.4824994714
 30
0.0
 10
16.1100082399
 20
13.4816214056
 30
0.0
 10
16.1095832782
 20
13.4810022196
 30
0.0
 10
16.1093879255
 20
13.4806868792
 30
0.0
  0
SPLINE
  5
2F5
100
AcDbEntity
  8
LAYER_FEATURE
100
AcDbSpline
 62
7
  6
CONTINUOUS
 70
0
 71
3
 72
26
 73
22
 74
0
 42
0.0000001
 43
0.0000001
 44
0.0000000001
 40
0.0
 40
0.0
 40
0.0
 40
0.0
 40
0.0779371959
 40
0.1553853511
 40
0.2318483756
 40
0.3068498023
 40
0.3799429189
 40
0.4507219662
 40
0.5188341338
 40
0.5839930002
 40
0.6459937367
 40
0.7047304614
 40
0.7602157576
 40
0.8126015086
 40
0.8621983829
 40
0.8861115975
 40
0.9095230327
 40
0.9325188503
 40
0.9551945517
 40
0.9776525506
 40
1.0
 40
1.0
 40
1.0
 40
1.0
 10
15.8148145036
 20
13.6276783595
 30
0.0
 10
15.8137510935
 20
13.6280090989
 30
0.0
 10
15.8116119275
 20
13.6286090796
 30
0.0
 10
15.8083749925
 20
13.6293225
 30
0.0
 10
15.8051436016
 20
13.6298417905
 30
0.0
 10
15.8019488993
 20
13.6301619233
 30
0.0
 10
15.7988214736
 20
13.6302798262
 30
0.0
 10
15.7957912617
 20
13.6301943356
 30
0.0
 10
15.792887192
 20
13.6299061977
 30
0.0
 10
15.7901369169
 20
13.6294180225
 30
0.0
 10
15.7875665414
 20
13.6287341884
 30
0.0
 10
15.7852004507
 20
13.6278607642
 30
0.0
 10
15.7830610616
 20
13.6268052155
 30
0.0
 10
15.7811692352
 20
13.6255767874
 30
0.0
 10
15.7797976462
 20
13.6244027646
 30
0.0
 10
15.7788512265
 20
13.6233901009
 30
0.0
 10
15.7782226568
 20
13.6226048087
 30
0.0
 10
15.7776686068
 20
13.6217865274
 30
0.0
 10
15.7771903892
 20
13.6209372503
 30
0.0
 10
15.7767893712
 20
13.6200591298
 30
0.0
 10
15.7765738767
 20
13.6194552661
 30
0.0
 10
15.7764795924
 20
13.6191501767
 30
0.0
  0
SPLINE
  5
2F6
100
AcDbEntity
  8
LAYER_FEATURE
100
AcDbSpline
 62
7
  6
CONTINUOUS
 70
0
 71
3
 72
60
 73
56
 74
0
 42
0.0000001
 43
0.0000001
 44
0.0000000001
 40
0.0
 40
0.0
 40
0.0
 40
0.0
 40
0.0109643873
 40
0.0220516632
 40
0.03329873
 40
0.044742295
 40
0.0564151471
 40
0.0683461574
 40
0.0805605673
 40
0.0930798029
 40
0.1059214365
 40
0.1190992858
 40
0.1326236839
 40
0.1465015168
 40
0.1607365181
 40
0.1753294891
 40
0.1902784023
 40
0.2055787587
 40
0.2212236585
 40
0.2372040368
 40
0.2535088916
 40
0.2701253276
 40
0.2870388501
 40
0.3042334262
 40
0.339391052
 40
0.3754488965
 40
0.4122375528
 40
0.449575289
 40
0.4872714509
 40
0.5251297131
 40
0.562951218
 40
0.6005376753
 40
0.6376944849
 40
0.674233911
 40
0.6922178901
 40
0.7099819772
 40
0.7275061222
 40
0.744771404
 40
0.7617600505
 40
0.7784556734
 40
0.7948433522
 40
0.81090975
 40
0.8266433772
 40
0.8420346164
 40
0.8570760049
 40
0.8717623948
 40
0.8860910737
 40
0.900062113
 40
0.9136784309
 40
0.9269460829
 40
0.9524665825
 40
0.9647588378
 40
0.9767617027
 40
0.988499397
 40
1.0
 40
1.0
 40
1.0
 40
1.0
 10
15.54752847
 20
13.6658573103
 30
0.0
 10
15.5473725347
 20
13.664862136
 30
0.0
 10
15.547135526
 20
13.6628478188
 30
0.0
 10
15.5470062277
 20
13.6597886904
 30
0.0
 10
15.547101777
 20
13.6566842125
 30
0.0
 10
15.5474218289
 20
13.653540908
 30
0.0
 10
15.5479655323
 20
13.6503648521
 30
0.0
 10
15.5487317645
 20
13.6471623199
 30
0.0
 10
15.5497188242
 20
13.6439395641
 30
0.0
 10
15.5509246692
 20
13.640702851
 30
0.0
 10
15.5523468678
 20
13.6374584715
 30
0.0
 10
15.5539825127
 20
13.6342126866
 30
0.0
 10
15.5558283921
 20
13.6309718018
 30
0.0
 10
15.5578808282
 20
13.6277420747
 30
0.0
 10
15.5601357773
 20
13.6245297537
 30
0.0
 10
15.5625888438
 20
13.6213410863
 30
0.0
 10
15.5652351859
 20
13.6181822241
 30
0.0
 10
15.5680696586
 20
13.6150593242
 30
0.0
 10
15.5710867148
 20
13.6119784464
 30
0.0
 10
15.5742804498
 20
13.6089455667
 30
0.0
 10
15.5776446582
 20
13.6059666169
 30
0.0
 10
15.5811727364
 20
13.6030473729
 30
0.0
 10
15.5848578446
 20
13.6001935101
 30
0.0
 10
15.5900089192
 20
13.5964555654
 30
0.0
 10
15.5967978627
 20
13.5919871048
 30
0.0
 10
15.6053881333
 20
13.5870109248
 30
0.0
 10
15.6144154084
 20
13.5824197788
 30
0.0
 10
15.6238092784
 20
13.5782494767
 30
0.0
 10
15.6334967361
 20
13.5745324066
 30
0.0
 10
15.6434023872
 20
13.571297501
 30
0.0
 10
15.6534491286
 20
13.5685699386
 30
0.0
 10
15.6635588345
 20
13.5663709447
 30
0.0
 10
15.6736526209
 20
13.5647176596
 30
0.0
 10
15.6820299491
 20
13.5638004836
 30
0.0
 10
15.688656853
 20
13.5633542159
 30
0.0
 10
15.6935480752
 20
13.5631642015
 30
0.0
 10
15.6983767273
 20
13.563117496
 30
0.0
 10
15.703133423
 20
13.5632141589
 30
0.0
 10
15.7078088674
 20
13.5634540454
 30
0.0
 10
15.7123939393
 20
13.5638366682
 30
0.0
 10
15.7168796934
 20
13.564361284
 30
0.0
 10
15.7212573777
 20
13.5650269116
 30
0.0
 10
15.7255184608
 20
13.565832221
 30
0.0
 10
15.7296546311
 20
13.5667756962
 30
0.0
 10
15.7336578291
 20
13.567855509
 30
0.0
 10
15.7375202536
 20
13.56906956
 30
0.0
 10
15.7412343818
 20
13.5704155747
 30
0.0
 10
15.7447929213
 20
13.5718908864
 30
0.0
 10
15.7481891545
 20
13.5734928479
 30
0.0
 10
15.7524360805
 20
13.5757634875
 30
0.0
 10
15.7563985676
 20
13.5782995313
 30
0.0
 10
15.7600205566
 20
13.5811009306
 30
0.0
 10
15.7625112371
 20
13.5832850963
 30
0.0
 10
15.7648043115
 20
13.5855738758
 30
0.0
 10
15.7662117211
 20
13.5871818965
 30
0.0
 10
15.7668790672
 20
13.588001049
 30
0.0
  0
SPLINE
  5
2F7
100
AcDbEntity
  8
LAYER_FEATURE
100
AcDbSpline
 62
7
  6
CONTINUOUS
 70
0
 71
3
 72
32
 73
28
 74
0
 42
0.0000001
 43
0.0000001
 44
0.0000000001
 40
0.0
 40
0.0
 40
0.0
 40
0.0
 40
0.0215070983
 40
0.0433426483
 40
0.0656156589
 40
0.0884323764
 40
0.1118848073
 40
0.1360483626
 40
0.1609839905
 40
0.1867386957
 40
0.2133449987
 40
0.2408228626
 40
0.2691797643
 40
0.2984125707
 40
0.3285078762
 40
0.3594432938
 40
0.3911884054
 40
0.423705202
 40
0.4569495265
 40
0.4908709794
 40
0.5605085619
 40
0.6321368847
 40
0.7052083569
 40
0.7791380451
 40
0.8533203825
 40
0.927141205
 40
1.0
 40
1.0
 40
1.0
 40
1.0
 10
15.54752847
 20
13.6658573103
 30
0.0
 10
15.5475848656
 20
13.6662172253
 30
0.0
 10
15.5476636286
 20
13.6669484709
 30
0.0
 10
15.547679134
 20
13.6680613019
 30
0.0
 10
15.5475926321
 20
13.6691931369
 30
0.0
 10
15.5474045824
 20
13.6703402129
 30
0.0
 10
15.5471157183
 20
13.671499064
 30
0.0
 10
15.5467270124
 20
13.6726661254
 30
0.0
 10
15.5462397984
 20
13.6738378538
 30
0.0
 10
15.5456556045
 20
13.6750106768
 30
0.0
 10
15.5449763392
 20
13.6761810854
 30
0.0
 10
15.5442040647
 20
13.6773455035
 30
0.0
 10
15.5433412212
 20
13.6785004406
 30
0.0
 10
15.5423904381
 20
13.6796423734
 30
0.0
 10
15.5413546481
 20
13.680767843
 30
0.0
 10
15.5402370348
 20
13.6818734332
 30
0.0
 10
15.5390410027
 20
13.6829557525
 30
0.0
 10
15.5377702502
 20
13.6840115305
 30
0.0
 10
15.5364286224
 20
13.6850375156
 30
0.0
 10
15.5345343963
 20
13.6863731794
 30
0.0
 10
15.5320144386
 20
13.6879456298
 30
0.0
 10
15.5288056334
 20
13.6896499329
 30
0.0
 10
15.5254245254
 20
13.6911673447
 30
0.0
 10
15.5219124531
 20
13.6924793252
 30
0.0
 10
15.518312148
 20
13.6935698837
 30
0.0
 10
15.5146677237
 20
13.6944257239
 30
0.0
 10
15.5122151963
 20
13.6948366831
 30
0.0
 10
15.5109918222
 20
13.6949993979
 30
0.0
  0
SPLINE
  5
2F8
100
AcDbEntity
  8
LAYER_FEATURE
100
AcDbSpline
 62
7
  6
CONTINUOUS
 70
0
 71
3
 72
26
 73
22
 74
0
 42
0.0000001
 43
0.0000001
 44
0.0000000001
 40
0.0
 40
0.0
 40
0.0
 40
0.0
 40
0.0794705123
 40
0.1572434058
 40
0.2330472653
 40
0.3066623908
 40
0.3778886736
 40
0.446568396
 40
0.5125883294
 40
0.5758868879
 40
0.6364622522
 40
0.6657536469
 40
0.6943954492
 40
0.7497986998
 40
0.8029123207
 40
0.8540486692
 40
0.9036061742
 40
0.9279516477
 40
0.9520864377
 40
0.976079041
 40
1.0
 40
1.0
 40
1.0
 40
1.0
 10
15.44988111
 20
13.7020178372
 30
0.0
 10
15.4490594976
 20
13.7020971544
 30
0.0
 10
15.4474298381
 20
13.7022159053
 30
0.0
 10
15.4450089414
 20
13.7022726554
 30
0.0
 10
15.4426490038
 20
13.7022059126
 30
0.0
 10
15.4403639021
 20
13.7020161171
 30
0.0
 10
15.4381668153
 20
13.7017042824
 30
0.0
 10
15.4360705226
 20
13.7012721831
 30
0.0
 10
15.4340871233
 20
13.7007222299
 30
0.0
 10
15.4322281993
 20
13.7000575157
 30
0.0
 10
15.4307756475
 20
13.6994037271
 30
0.0
 10
15.4296886261
 20
13.6988254017
 30
0.0
 10
15.4286753277
 20
13.6982255909
 30
0.0
 10
15.4275015968
 20
13.6974137764
 30
0.0
 10
15.4262405727
 20
13.6963319487
 30
0.0
 10
15.4251504328
 20
13.6951593005
 30
0.0
 10
15.4243855179
 20
13.6941051287
 30
0.0
 10
15.4238693787
 20
13.6932266475
 30
0.0
 10
15.4235308564
 20
13.6925536756
 30
0.0
 10
15.4232392734
 20
13.6918639142
 30
0.0
 10
15.4230763803
 20
13.6913932013
 30
0.0
 10
15.4230030248
 20
13.6911558184
 30
0.0
  0
SPLINE
  5
2F9
100
AcDbEntity
  8
LAYER_FEATURE
100
AcDbSpline
 62
7
  6
CONTINUOUS
 70
0
 71
3
 72
39
 73
35
 74
0
 42
0.0000001
 43
0.0000001
 44
0.0000000001
 40
0.0
 40
0.0
 40
0.0
 40
0.0
 40
0.0486379055
 40
0.0613993374
 40
0.074403718
 40
0.1011410892
 40
0.1288506794
 40
0.1575143304
 40
0.1871001329
 40
0.2175641865
 40
0.2488520072
 40
0.280899877
 40
0.3136360641
 40
0.3469819545
 40
0.3808531093
 40
0.4151602556
 40
0.4498102282
 40
0.4847068724
 40
0.5197519192
 40
0.5548458421
 40
0.5898887019
 40
0.6247809884
 40
0.6594244672
 40
0.6937230378
 40
0.7275836109
 40
0.7609170109
 40
0.7936389189
 40
0.8256708639
 40
0.856941278
 40
0.8873866297
 40
0.916952651
 40
0.9455956757
 40
0.9732841045
 40
1.0
 40
1.0
 40
1.0
 40
1.0
 10
15.2075197768
 20
13.6805228492
 30
0.0
 10
15.2088305201
 20
13.6772249674
 30
0.0
 10
15.2108494564
 20
13.6731977685
 30
0.0
 10
15.2136945422
 20
13.6685747526
 30
0.0
 10
15.2158143853
 20
13.6653827902
 30
0.0
 10
15.2187422833
 20
13.6614224599
 30
0.0
 10
15.2226439506
 20
13.6567756652
 30
0.0
 10
15.2269493899
 20
13.6522104592
 30
0.0
 10
15.2316403509
 20
13.647746007
 30
0.0
 10
15.2366970735
 20
13.6434009731
 30
0.0
 10
15.2420982342
 20
13.6391935992
 30
0.0
 10
15.2478210602
 20
13.6351415707
 30
0.0
 10
15.2538414124
 20
13.6312619481
 30
0.0
 10
15.2601338859
 20
13.627571082
 30
0.0
 10
15.2666719176
 20
13.6240845415
 30
0.0
 10
15.2734278988
 20
13.6208170437
 30
0.0
 10
15.2803732926
 20
13.6177823877
 30
0.0
 10
15.2874787558
 20
13.6149933936
 30
0.0
 10
15.2947142641
 20
13.6124618464
 30
0.0
 10
15.302049241
 20
13.6101984447
 30
0.0
 10
15.3094526882
 20
13.6082127544
 30
0.0
 10
15.3168933191
 20
13.6065131677
 30
0.0
 10
15.3243396928
 20
13.6051068668
 30
0.0
 10
15.3317603493
 20
13.6039997929
 30
0.0
 10
15.3391239459
 20
13.6031966236
 30
0.0
 10
15.3463993915
 20
13.6027007543
 30
0.0
 10
15.3535559807
 20
13.602514287
 30
0.0
 10
15.3605635271
 20
13.6026380247
 30
0.0
 10
15.3673924896
 20
13.6030714722
 30
0.0
 10
15.3740141111
 20
13.60381285
 30
0.0
 10
15.3804004964
 20
13.604859093
 30
0.0
 10
15.3865248859
 20
13.6062059406
 30
0.0
 10
15.3923612006
 20
13.6078477368
 30
0.0
 10
15.3961116506
 20
13.6091582415
 30
0.0
 10
15.3979289698
 20
13.609863301
 30
0.0
  0
SPLINE
  5
2FA
100
AcDbEntity
  8
LAYER_FEATURE
100
AcDbSpline
 62
7
  6
CONTINUOUS
 70
0
 71
3
 72
25
 73
21
 74
0
 42
0.0000001
 43
0.0000001
 44
0.0000000001
 40
0.0
 40
0.0
 40
0.0
 40
0.0
 40
0.0476478046
 40
0.0726715229
 40
0.0985095819
 40
0.1251675464
 40
0.1526387908
 40
0.2099372557
 40
0.2702097177
 40
0.3331365032
 40
0.3983141746
 40
0.4652744331
 40
0.5335010736
 40
0.6024454674
 40
0.6715411602
 40
0.7402180306
 40
0.8079161118
 40
0.8741006619
 40
0.9382744783
 40
1.0
 40
1.0
 40
1.0
 40
1.0
 10
15.2075197768
 20
13.6805228492
 30
0.0
 10
15.2071997954
 20
13.6813279351
 30
0.0
 10
15.2066209027
 20
13.6825214343
 30
0.0
 10
15.2056938856
 20
13.6840546475
 30
0.0
 10
15.2048947426
 20
13.6852167391
 30
0.0
 10
15.2040058376
 20
13.6863682081
 30
0.0
 10
15.202685988
 20
13.6879063222
 30
0.0
 10
15.2008223605
 20
13.6897781369
 30
0.0
 10
15.1983102672
 20
13.6918956039
 30
0.0
 10
15.1955217332
 20
13.6938902303
 30
0.0
 10
15.1924907651
 20
13.6957378039
 30
0.0
 10
15.1892541251
 20
13.697415989
 30
0.0
 10
15.1858512137
 20
13.6989043691
 30
0.0
 10
15.1823234851
 20
13.7001848197
 30
0.0
 10
15.1787139511
 20
13.7012417313
 30
0.0
 10
15.1750666175
 20
13.7020622136
 30
0.0
 10
15.1714259584
 20
13.7026362778
 30
0.0
 10
15.1678362256
 20
13.7029568962
 30
0.0
 10
15.1643413586
 20
13.7030202061
 30
0.0
 10
15.1620531928
 20
13.7028873714
 30
0.0
 10
15.1609365349
 20
13.7027748967
 30
0.0
  0
SPLINE
  5
2FB
100
AcDbEntity
  8
LAYER_FEATURE
100
AcDbSpline
 62
7
  6
CONTINUOUS
 70
0
 71
3
 72
22
 73
18
 74
0
 42
0.0000001
 43
0.0000001
 44
0.0000000001
 40
0.0
 40
0.0
 40
0.0
 40
0.0
 40
0.0768244422
 40
0.1516449255
 40
0.2243736085
 40
0.2949781748
 40
0.4297314085
 40
0.493978554
 40
0.5561994029
 40
0.6164932319
 40
0.6749918809
 40
0.7318634731
 40
0.7873102782
 40
0.8415687732
 40
0.8949055669
 40
0.9476125757
 40
1.0
 40
1.0
 40
1.0
 40
1.0
 10
15.1064864328
 20
13.6960592365
 30
0.0
 10
15.1059707295
 20
13.695983599
 30
0.0
 10
15.1049558005
 20
13.6958125256
 30
0.0
 10
15.1034672479
 20
13.6954914444
 30
0.0
 10
15.1020364625
 20
13.6951099815
 30
0.0
 10
15.1002400715
 20
13.6945315909
 30
0.0
 10
15.0985446069
 20
13.6938322342
 30
0.0
 10
15.0969754878
 20
13.6930061594
 30
0.0
 10
15.0958944815
 20
13.6923432158
 30
0.0
 10
15.0948940336
 20
13.6916291326
 30
0.0
 10
15.0939771872
 20
13.6908658686
 30
0.0
 10
15.0931467274
 20
13.6900557017
 30
0.0
 10
15.0924052922
 20
13.6892009377
 30
0.0
 10
15.091755203
 20
13.6883041518
 30
0.0
 10
15.0911985729
 20
13.6873679874
 30
0.0
 10
15.090737255
 20
13.6863954425
 30
0.0
 10
15.0904939108
 20
13.6857238658
 30
0.0
 10
15.0903889685
 20
13.6853842855
 30
0.0
  0
SPLINE
  5
2FC
100
AcDbEntity
  8
LAYER_FEATURE
100
AcDbSpline
 62
7
  6
CONTINUOUS
 70
0
 71
3
 72
25
 73
21
 74
0
 42
0.0000001
 43
0.0000001
 44
0.0000000001
 40
0.0
 40
0.0
 40
0.0
 40
0.0
 40
0.0270736222
 40
0.0547030695
 40
0.0828673951
 40
0.1115493052
 40
0.1703741852
 40
0.2309882686
 40
0.2931654377
 40
0.3566543708
 40
0.4211839567
 40
0.4864679281
 40
0.5522093548
 40
0.6181049672
 40
0.6838493806
 40
0.749139287
 40
0.8136776782
 40
0.8771781585
 40
0.9393694268
 40
1.0
 40
1.0
 40
1.0
 40
1.0
 10
14.9182821537
 20
13.6174829225
 30
0.0
 10
14.9191945116
 20
13.6164984696
 30
0.0
 10
14.9210742651
 20
13.6145427003
 30
0.0
 10
14.9240220683
 20
13.6116801111
 30
0.0
 10
14.9271222346
 20
13.6088632131
 30
0.0
 10
14.9314880858
 20
13.6051438178
 30
0.0
 10
14.9372974098
 20
13.600644163
 30
0.0
 10
14.9447256707
 20
13.5955477747
 30
0.0
 10
14.9526184239
 20
13.5907442763
 30
0.0
 10
14.9609213815
 20
13.5862666905
 30
0.0
 10
14.9695776636
 20
13.5821456604
 30
0.0
 10
14.9785278596
 20
13.5784094694
 30
0.0
 10
14.9877105337
 20
13.5750837573
 30
0.0
 10
14.9970626347
 20
13.572191359
 30
0.0
 10
15.0065199416
 20
13.5697521351
 30
0.0
 10
15.016017527
 20
13.5677828342
 30
0.0
 10
15.0254901644
 20
13.5662969759
 30
0.0
 10
15.034872976
 20
13.5653047656
 30
0.0
 10
15.0441012101
 20
13.5648130189
 30
0.0
 10
15.050194098
 20
13.5648212291
 30
0.0
 10
15.0531985424
 20
13.5649132544
 30
0.0
  0
SPLINE
  5
2FD
100
AcDbEntity
  8
LAYER_FEATURE
100
AcDbSpline
 62
7
  6
CONTINUOUS
 70
0
 71
3
 72
28
 73
24
 74
0
 42
0.0000001
 43
0.0000001
 44
0.0000000001
 40
0.0
 40
0.0
 40
0.0
 40
0.0
 40
0.0281038733
 40
0.0569702468
 40
0.0865575833
 40
0.116829921
 40
0.1792420375
 40
0.2438095124
 40
0.3100630222
 40
0.3774877488
 40
0.4455392057
 40
0.5136573467
 40
0.5812804876
 40
0.6478591589
 40
0.7128702675
 40
0.7758320002
 40
0.8363197451
 40
0.8655302839
 40
0.8939988195
 40
0.9216961003
 40
0.9486027171
 40
0.9747080417
 40
1.0
 40
1.0
 40
1.0
 40
1.0
 10
14.9182821537
 20
13.6174829225
 30
0.0
 10
14.9179299596
 20
13.6178629471
 30
0.0
 10
14.9171971551
 20
13.6186160243
 30
0.0
 10
14.9160331615
 20
13.6197083818
 30
0.0
 10
14.9147927843
 20
13.6207755721
 30
0.0
 10
14.9130245271
 20
13.6221745764
 30
0.0
 10
14.910645408
 20
13.623836686
 30
0.0
 10
14.907581991
 20
13.6256607274
 30
0.0
 10
14.9043184309
 20
13.6273123222
 30
0.0
 10
14.9008945893
 20
13.6287712898
 30
0.0
 10
14.8973521451
 20
13.6300198828
 30
0.0
 10
14.8937342997
 20
13.6310428691
 30
0.0
 10
14.8900851583
 20
13.6318277764
 30
0.0
 10
14.8864492098
 20
13.6323650381
 30
0.0
 10
14.8828706573
 20
13.6326481059
 30
0.0
 10
14.8793931835
 20
13.632673504
 30
0.0
 10
14.8765821508
 20
13.6324773945
 30
0.0
 10
14.874422391
 20
13.6321873472
 30
0.0
 10
14.8728726401
 20
13.631908816
 30
0.0
 10
14.8713789764
 20
13.6315676669
 30
0.0
 10
14.8699458705
 20
13.6311648794
 30
0.0
 10
14.8685778762
 20
13.6307016583
 30
0.0
 10
14.867698117
 20
13.6303479516
 30
0.0
 10
14.8672709441
 20
13.6301610045
 30
0.0
  0
SPLINE
  5
2FE
100
AcDbEntity
  8
LAYER_FEATURE
100
AcDbSpline
 62
7
  6
CONTINUOUS
 70
0
 71
3
 72
15
 73
11
 74
0
 42
0.0000001
 43
0.0000001
 44
0.0000000001
 40
0.0
 40
0.0
 40
0.0
 40
0.0
 40
0.1394330408
 40
0.2736605401
 40
0.4030298658
 40
0.5280823783
 40
0.6494725563
 40
0.7679802153
 40
0.8844983004
 40
1.0
 40
1.0
 40
1.0
 40
1.0
 10
14.826048938
 20
13.6105212525
 30
0.0
 10
14.8255904901
 20
13.6102838377
 30
0.0
 10
14.8247075537
 20
13.6097842056
 30
0.0
 10
14.8234716806
 20
13.6089447476
 30
0.0
 10
14.8223555734
 20
13.6080331693
 30
0.0
 10
14.8213643866
 20
13.6070533527
 30
0.0
 10
14.8205026097
 20
13.6060093678
 30
0.0
 10
14.81977434
 20
13.6049056236
 30
0.0
 10
14.8191832199
 20
13.6037472044
 30
0.0
 10
14.8188818736
 20
13.6029403047
 30
0.0
 10
14.8187556105
 20
13.602531703
 30
0.0
  0
SPLINE
  5
2FF
100
AcDbEntity
  8
LAYER_FEATURE
100
AcDbSpline
 62
7
  6
CONTINUOUS
 70
0
 71
3
 72
15
 73
11
 74
0
 42
0.0000001
 43
0.0000001
 44
0.0000000001
 40
0.0
 40
0.0
 40
0.0
 40
0.0
 40
0.1203216074
 40
0.2427620442
 40
0.3669476863
 40
0.4924887336
 40
0.6189804625
 40
0.7460091941
 40
0.8731557843
 40
1.0
 40
1.0
 40
1.0
 40
1.0
 10
14.7147019267
 20
13.4843410755
 30
0.0
 10
14.7169090499
 20
13.4829468727
 30
0.0
 10
14.7214276899
 20
13.4802363468
 30
0.0
 10
14.728430646
 20
13.4764438774
 30
0.0
 10
14.735690648
 20
13.4729034917
 30
0.0
 10
14.74317191
 20
13.4696326496
 30
0.0
 10
14.7508378127
 20
13.4666473573
 30
0.0
 10
14.7586507947
 20
13.4639622485
 30
0.0
 10
14.7665723749
 20
13.4615905261
 30
0.0
 10
14.7719125717
 20
13.4602228379
 30
0.0
 10
14.7745919495
 20
13.4595943022
 30
0.0
  0
SPLINE
  5
300
100
AcDbEntity
  8
LAYER_FEATURE
100
AcDbSpline
 62
7
  6
CONTINUOUS
 70
0
 71
3
 72
28
 73
24
 74
0
 42
0.0000001
 43
0.0000001
 44
0.0000000001
 40
0.0
 40
0.0
 40
0.0
 40
0.0
 40
0.0680136593
 40
0.1377174807
 40
0.2085688388
 40
0.2799916307
 40
0.3513978612
 40
0.4221992443
 40
0.4918226223
 40
0.5597246773
 40
0.6254077346
 40
0.6884368852
 40
0.7188494969
 40
0.748474326
 40
0.7772838819
 40
0.8052583416
 40
0.8323872494
 40
0.8586695645
 40
0.9087209611
 40
0.9325718768
 40
0.9556917253
 40
0.9781446712
 40
1.0
 40
1.0
 40
1.0
 40
1.0
 10
14.7147019267
 20
13.4843410755
 30
0.0
 10
14.7136911764
 20
13.4849795496
 30
0.0
 10
14.7115965613
 20
13.486197765
 30
0.0
 10
14.7083071106
 20
13.4878222109
 30
0.0
 10
14.7048631971
 20
13.4892514134
 30
0.0
 10
14.7013069719
 20
13.4904678038
 30
0.0
 10
14.6976817625
 20
13.4914565976
 30
0.0
 10
14.6940317707
 20
13.4922057235
 30
0.0
 10
14.6904014875
 20
13.4927060557
 30
0.0
 10
14.6868350366
 20
13.4929514885
 30
0.0
 10
14.6833759428
 20
13.4929390032
 30
0.0
 10
14.680584746
 20
13.4927110547
 30
0.0
 10
14.6784440206
 20
13.4923957096
 30
0.0
 10
14.6769102215
 20
13.4920987101
 30
0.0
 10
14.6754338519
 20
13.4917393766
 30
0.0
 10
14.6740194494
 20
13.4913187393
 30
0.0
 10
14.6726711911
 20
13.4908380577
 30
0.0
 10
14.6709950974
 20
13.4901307014
 30
0.0
 10
14.6694349763
 20
13.4893011713
 30
0.0
 10
14.668020472
 20
13.4883462782
 30
0.0
 10
14.6670610673
 20
13.4875901707
 30
0.0
 10
14.6661895645
 20
13.4867851319
 30
0.0
 10
14.6656623782
 20
13.4862103261
 30
0.0
 10
14.6654154542
 20
13.4859160283
 30
0.0
  0
SPLINE
  5
301
100
AcDbEntity
  8
LAYER_FEATURE
100
AcDbSpline
 62
7
  6
CONTINUOUS
 70
0
 71
3
 72
11
 73
7
 74
0
 42
0.0000001
 43
0.0000001
 44
0.0000000001
 40
0.0
 40
0.0
 40
0.0
 40
0.0
 40
0.2533829981
 40
0.5039214602
 40
0.7524708122
 40
1.0
 40
1.0
 40
1.0
 40
1.0
 10
14.6423935264
 20
13.4557210285
 30
0.0
 10
14.6422259363
 20
13.4554779928
 30
0.0
 10
14.6419100472
 20
13.4549823508
 30
0.0
 10
14.6414951246
 20
13.4542091276
 30
0.0
 10
14.6411432641
 20
13.4534126766
 30
0.0
 10
14.6409510692
 20
13.4528668616
 30
0.0
 10
14.6408659203
 20
13.452591322
 30
0.0
  0
SPLINE
  5
302
100
AcDbEntity
  8
LAYER_FEATURE
100
AcDbSpline
 62
7
  6
CONTINUOUS
 70
0
 71
3
 72
18
 73
14
 74
0
 42
0.0000001
 43
0.0000001
 44
0.0000000001
 40
0.0
 40
0.0
 40
0.0
 40
0.0
 40
0.148869966
 40
0.2899293391
 40
0.4232213432
 40
0.549119823
 40
0.668374665
 40
0.7258953141
 40
0.7822227504
 40
0.8375627167
 40
0.8921412518
 40
0.9462005838
 40
1.0
 40
1.0
 40
1.0
 40
1.0
 10
14.5936357126
 20
13.2997799844
 30
0.0
 10
14.592779842
 20
13.2995854881
 30
0.0
 10
14.591127429
 20
13.2991379045
 30
0.0
 10
14.5887867961
 20
13.2982622474
 30
0.0
 10
14.5866705566
 20
13.2972072035
 30
0.0
 10
14.5847993068
 20
13.2959819549
 30
0.0
 10
14.5834426766
 20
13.2948128888
 30
0.0
 10
14.5825063168
 20
13.2938053981
 30
0.0
 10
14.5818842032
 20
13.2930243656
 30
0.0
 10
14.5813356492
 20
13.2922108442
 30
0.0
 10
14.5808619511
 20
13.2913667955
 30
0.0
 10
14.5804643951
 20
13.2904943382
 30
0.0
 10
14.580250546
 20
13.2898945029
 30
0.0
 10
14.5801568984
 20
13.2895914576
 30
0.0
  0
SPLINE
  5
303
100
AcDbEntity
  8
LAYER_FEATURE
100
AcDbSpline
 62
7
  6
CONTINUOUS
 70
0
 71
3
 72
40
 73
36
 74
0
 42
0.0000001
 43
0.0000001
 44
0.0000000001
 40
0.0
 40
0.0
 40
0.0
 40
0.0
 40
0.0475533836
 40
0.0938226825
 40
0.138749777
 40
0.1822938521
 40
0.2244187238
 40
0.2650921749
 40
0.3042902565
 40
0.3419970541
 40
0.3782059451
 40
0.4129201222
 40
0.4461546773
 40
0.4779377497
 40
0.5083122147
 40
0.5373380122
 40
0.5650934923
 40
0.5785276709
 40
0.5916833682
 40
0.617218648
 40
0.6418495731
 40
0.6657441702
 40
0.6890916574
 40
0.7120987791
 40
0.7349838199
 40
0.7579694301
 40
0.7812747098
 40
0.8051077306
 40
0.8296596417
 40
0.8551006878
 40
0.8815779522
 40
0.9092154679
 40
0.9381144308
 40
0.9683554722
 40
1.0
 40
1.0
 40
1.0
 40
1.0
 10
15.815741897
 20
11.8057604152
 30
0.0
 10
15.8161782574
 20
11.8071724781
 30
0.0
 10
15.8170724858
 20
11.8099483368
 30
0.0
 10
15.8184990127
 20
11.8140183654
 30
0.0
 10
15.8199904609
 20
11.8179320596
 30
0.0
 10
15.8215441403
 20
11.8216824599
 30
0.0
 10
15.8231573716
 20
11.8252631775
 30
0.0
 10
15.8248274075
 20
11.8286680075
 30
0.0
 10
15.8265513162
 20
11.831891054
 30
0.0
 10
15.8283261819
 20
11.8349267325
 30
0.0
 10
15.8301489208
 20
11.8377698348
 30
0.0
 10
15.8320164764
 20
11.8404154382
 30
0.0
 10
15.8339256794
 20
11.8428589947
 30
0.0
 10
15.8358733303
 20
11.8450962845
 30
0.0
 10
15.8378562637
 20
11.8471234189
 30
0.0
 10
15.8398710959
 20
11.8489368111
 30
0.0
 10
15.8415925439
 20
11.8502815363
 30
0.0
 10
15.8429816745
 20
11.8512430613
 30
0.0
 10
15.844349615
 20
11.8521116196
 30
0.0
 10
15.8460750071
 20
11.8530636874
 30
0.0
 10
15.8481846472
 20
11.8539924516
 30
0.0
 10
15.8503092337
 20
11.8546940386
 30
0.0
 10
15.8524447933
 20
11.8551665736
 30
0.0
 10
15.8545871637
 20
11.8554088307
 30
0.0
 10
15.8567319787
 20
11.8554199975
 30
0.0
 10
15.8588747825
 20
11.8552001344
 30
0.0
 10
15.8610111858
 20
11.8547498202
 30
0.0
 10
15.8631370009
 20
11.8540703546
 30
0.0
 10
15.8652482976
 20
11.8531634819
 30
0.0
 10
15.8673413609
 20
11.8520312861
 30
0.0
 10
15.8694127234
 20
11.8506762349
 30
0.0
 10
15.8714589512
 20
11.8491009428
 30
0.0
 10
15.8734768029
 20
11.847308394
 30
0.0
 10
15.875462898
 20
11.8453018465
 30
0.0
 10
15.8767343814
 20
11.8438571042
 30
0.0
 10
15.8773646073
 20
11.8431020565
 30
0.0
  0
SPLINE
  5
304
100
AcDbEntity
  8
02___PRT_ALL_AXES
100
AcDbSpline
 62
7
  6
CONTINUOUS
 70
0
 71
3
 72
26
 73
22
 74
0
 42
0.0000001
 43
0.0000001
 44
0.0000000001
 40
0.0
 40
0.0
 40
0.0
 40
0.0
 40
0.0244884502
 40
0.0495299549
 40
0.0751208289
 40
0.1012589514
 40
0.1279414646
 40
0.1551625596
 40
0.2111825901
 40
0.2692420421
 40
0.3292350535
 40
0.3910344733
 40
0.4544947845
 40
0.5194545088
 40
0.5857381773
 40
0.6531580104
 40
0.7215151889
 40
0.7906007253
 40
0.8601962768
 40
0.9300745658
 40
1.0
 40
1.0
 40
1.0
 40
1.0
 10
15.8954622669
 20
11.8526708005
 30
0.0
 10
15.8959908099
 20
11.8515937432
 30
0.0
 10
15.897022008
 20
11.8493965458
 30
0.0
 10
15.8984756957
 20
11.8460147867
 30
0.0
 10
15.8998520219
 20
11.8425138144
 30
0.0
 10
15.9011498777
 20
11.8388975255
 30
0.0
 10
15.9023682833
 20
11.8351695942
 30
0.0
 10
15.9039005933
 20
11.8300061498
 30
0.0
 10
15.9056062378
 20
11.8232935457
 30
0.0
 10
15.9073091894
 20
11.8149341033
 30
0.0
 10
15.9086883564
 20
11.806228635
 30
0.0
 10
15.9097472278
 20
11.7972123405
 30
0.0
 10
15.9104918067
 20
11.7879208206
 30
0.0
 10
15.9109303245
 20
11.7783901632
 30
0.0
 10
15.9110730046
 20
11.7686567026
 30
0.0
 10
15.9109317946
 20
11.7587569457
 30
0.0
 10
15.9105201146
 20
11.748727521
 30
0.0
 10
15.9098526056
 20
11.7386051865
 30
0.0
 10
15.9089448937
 20
11.728426849
 30
0.0
 10
15.9078133769
 20
11.7182296957
 30
0.0
 10
15.9069203698
 20
11.7114382831
 30
0.0
 10
15.9064413241
 20
11.7080461092
 30
0.0
  0
SPLINE
  5
305
100
AcDbEntity
  8
02___PRT_ALL_AXES
100
AcDbSpline
 62
7
  6
CONTINUOUS
 70
0
 71
3
 72
36
 73
32
 74
0
 42
0.0000001
 43
0.0000001
 44
0.0000000001
 40
0.0
 40
0.0
 40
0.0
 40
0.0
 40
0.0972097997
 40
0.1901798108
 40
0.2786621727
 40
0.3211525781
 40
0.3624431917
 40
0.4025125789
 40
0.4413426214
 40
0.4789170443
 40
0.5152234355
 40
0.5502520058
 40
0.5839965289
 40
0.6164548988
 40
0.6476284176
 40
0.6775238241
 40
0.706152246
 40
0.7335309103
 40
0.7596836072
 40
0.7846410786
 40
0.8084431384
 40
0.831138635
 40
0.8527877222
 40
0.873462789
 40
0.8932496943
 40
0.91224938
 40
0.9305778734
 40
0.948366612
 40
0.9657609084
 40
0.982917372
 40
1.0
 40
1.0
 40
1.0
 40
1.0
 10
15.8868077954
 20
11.6200553775
 30
0.0
 10
15.8860857402
 20
11.6177637516
 30
0.0
 10
15.8846338864
 20
11.6132926599
 30
0.0
 10
15.8823790159
 20
11.6067841922
 30
0.0
 10
15.8804538264
 20
11.6015941069
 30
0.0
 10
15.878898853
 20
11.5976303489
 30
0.0
 10
15.8777435181
 20
11.5947954864
 30
0.0
 10
15.876583706
 20
11.5920604543
 30
0.0
 10
15.8754197208
 20
11.5894273042
 30
0.0
 10
15.8742518303
 20
11.586897961
 30
0.0
 10
15.873080233
 20
11.5844742655
 30
0.0
 10
15.8719050738
 20
11.5821579425
 30
0.0
 10
15.8707264418
 20
11.5799506183
 30
0.0
 10
15.8695443795
 20
11.5778538224
 30
0.0
 10
15.8683588652
 20
11.5758689794
 30
0.0
 10
15.8671698504
 20
11.5739974211
 30
0.0
 10
15.8659772176
 20
11.5722403842
 30
0.0
 10
15.8647808183
 20
11.5705990148
 30
0.0
 10
15.8635804657
 20
11.5690743672
 30
0.0
 10
15.8623759023
 20
11.567667429
 30
0.0
 10
15.8611668752
 20
11.5663790864
 30
0.0
 10
15.8599530415
 20
11.5652101906
 30
0.0
 10
15.8587340612
 20
11.5641615144
 30
0.0
 10
15.8575095556
 20
11.5632337927
 30
0.0
 10
15.8562791118
 20
11.5624277669
 30
0.0
 10
15.8550423748
 20
11.561744101
 30
0.0
 10
15.8537989739
 20
11.5611835347
 30
0.0
 10
15.8525486839
 20
11.5607467125
 30
0.0
 10
15.8512913172
 20
11.5604342598
 30
0.0
 10
15.8500270285
 20
11.5602467138
 30
0.0
 10
15.8491801632
 20
11.560205189
 30
0.0
 10
15.8487579399
 20
11.5602051877
 30
0.0
  0
SPLINE
  5
306
100
AcDbEntity
  8
LAYER_FEATURE
100
AcDbSpline
 62
7
  6
CONTINUOUS
 70
0
 71
3
 72
63
 73
59
 74
0
 42
0.0000001
 43
0.0000001
 44
0.0000000001
 40
0.0
 40
0.0
 40
0.0
 40
0.0
 40
0.0176370354
 40
0.0357029489
 40
0.0541720361
 40
0.0730214824
 40
0.0922269035
 40
0.111762006
 40
0.1517107941
 40
0.1926445413
 40
0.2343271505
 40
0.2765146458
 40
0.3189578032
 40
0.361404778
 40
0.4036036896
 40
0.4453052013
 40
0.4862651318
 40
0.5063935874
 40
0.5262488296
 40
0.545802974
 40
0.5650290675
 40
0.5839010088
 40
0.6023938547
 40
0.620483753
 40
0.6381481786
 40
0.655366046
 40
0.672117762
 40
0.688385581
 40
0.7041535189
 40
0.7194078434
 40
0.7341370599
 40
0.7483323306
 40
0.7619877634
 40
0.7751006561
 40
0.7876721504
 40
0.7997074138
 40
0.8112165107
 40
0.8222147795
 40
0.8327236724
 40
0.8427714698
 40
0.8476342193
 40
0.8523957802
 40
0.8616367452
 40
0.8705485475
 40
0.8791919663
 40
0.8876354771
 40
0.8959539493
 40
0.9042265399
 40
0.9125340325
 40
0.9209559554
 40
0.9295679229
 40
0.938439367
 40
0.9476321588
 40
0.9571997997
 40
0.9671872784
 40
0.9776314879
 40
0.9885615925
 40
1.0
 40
1.0
 40
1.0
 40
1.0
 10
15.815741897
 20
11.8057604152
 30
0.0
 10
15.8152933303
 20
11.8043088528
 30
0.0
 10
15.8144213047
 20
11.8013591864
 30
0.0
 10
15.8132016278
 20
11.7968545221
 30
0.0
 10
15.8120563288
 20
11.7922227113
 30
0.0
 10
15.8109874291
 20
11.7874720445
 30
0.0
 10
15.8099967471
 20
11.7826107014
 30
0.0
 10
15.8087734465
 20
11.7759431731
 30
0.0
 10
15.8074560173
 20
11.7673917162
 30
0.0
 10
15.8062225438
 20
11.7569039003
 30
0.0
 10
15.8053336711
 20
11.7461877753
 30
0.0
 10
15.8047956593
 20
11.735318229
 30
0.0
 10
15.8046123033
 20
11.7243710936
 30
0.0
 10
15.8047848934
 20
11.7134228081
 30
0.0
 10
15.8053122102
 20
11.7025497721
 30
0.0
 10
15.8061905439
 20
11.6918279806
 30
0.0
 10
15.8072156776
 20
11.6830309797
 30
0.0
 10
15.8082094058
 20
11.6761291746
 30
0.0
 10
15.8090335278
 20
11.6710667941
 30
0.0
 10
15.8099393284
 20
11.6660973815
 30
0.0
 10
15.8109251922
 20
11.6612296041
 30
0.0
 10
15.8119894304
 20
11.6564719793
 30
0.0
 10
15.8131301416
 20
11.6518328146
 30
0.0
 10
15.8143453523
 20
11.6473202181
 30
0.0
 10
15.8156329279
 20
11.6429420683
 30
0.0
 10
15.8169906024
 20
11.6387060044
 30
0.0
 10
15.8184160332
 20
11.6346194228
 30
0.0
 10
15.8199066866
 20
11.6306894368
 30
0.0
 10
15.82146001
 20
11.6269229047
 30
0.0
 10
15.8230732568
 20
11.6233263686
 30
0.0
 10
15.8247436503
 20
11.6199060881
 30
0.0
 10
15.826468292
 20
11.6166680003
 30
0.0
 10
15.8282441875
 20
11.6136177104
 30
0.0
 10
15.8300683268
 20
11.6107605195
 30
0.0
 10
15.8319375448
 20
11.6081013431
 30
0.0
 10
15.833848734
 20
11.6056448116
 30
0.0
 10
15.8357986355
 20
11.6033951592
 30
0.0
 10
15.8377840675
 20
11.601356303
 30
0.0
 10
15.8398016719
 20
11.5995319061
 30
0.0
 10
15.8415256667
 20
11.5981784213
 30
0.0
 10
15.8429169905
 20
11.5972103115
 30
0.0
 10
15.8442870227
 20
11.5963356244
 30
0.0
 10
15.8460151099
 20
11.5953763181
 30
0.0
 10
15.848128318
 20
11.5944395536
 30
0.0
 10
15.8502566266
 20
11.5937307664
 30
0.0
 10
15.8523960542
 20
11.5932518449
 30
0.0
 10
15.8545424261
 20
11.5930041141
 30
0.0
 10
15.8566913435
 20
11.5929882706
 30
0.0
 10
15.8588383211
 20
11.5932044362
 30
0.0
 10
15.8609789544
 20
11.5936518744
 30
0.0
 10
15.863109005
 20
11.5943294151
 30
0.0
 10
15.8652245288
 20
11.5952352366
 30
0.0
 10
15.8673217965
 20
11.5963672492
 30
0.0
 10
15.8693972783
 20
11.5977230265
 30
0.0
 10
15.8714475941
 20
11.5992998462
 30
0.0
 10
15.8734693898
 20
11.6010948175
 30
0.0
 10
15.8754593672
 20
11.6031045621
 30
0.0
 10
15.8767332078
 20
11.6045518759
 30
0.0
 10
15.8773646071
 20
11.6053083194
 30
0.0
  0
SPLINE
  5
307
100
AcDbEntity
  8
LAYER_FEATURE
100
AcDbSpline
 62
7
  6
CONTINUOUS
 70
0
 71
3
 72
80
 73
76
 74
0
 42
0.0000001
 43
0.0000001
 44
0.0000000001
 40
0.0
 40
0.0
 40
0.0
 40
0.0
 40
0.0053540951
 40
0.0107128793
 40
0.0160810222
 40
0.0214631514
 40
0.0268638373
 40
0.0322875686
 40
0.0377387419
 40
0.0432216366
 40
0.0487404097
 40
0.0542990717
 40
0.0599014851
 40
0.0655513444
 40
0.0712521749
 40
0.0770073208
 40
0.0828199408
 40
0.0886930062
 40
0.1006301244
 40
0.112839904
 40
0.1190529636
 40
0.1253402264
 40
0.1381426335
 40
0.1512590076
 40
0.164697308
 40
0.1784628132
 40
0.1925582755
 40
0.2069840801
 40
0.2217384038
 40
0.2368173694
 40
0.2522151949
 40
0.2679243357
 40
0.2839356198
 40
0.3002383759
 40
0.3168205537
 40
0.3336688381
 40
0.3507687575
 40
0.3681047861
 40
0.3856604411
 40
0.4034183765
 40
0.4213604718
 40
0.4394679184
 40
0.4577213025
 40
0.4761006857
 40
0.4945856839
 40
0.513155544
 40
0.5317892195
 40
0.5504654451
 40
0.5691628106
 40
0.5878598339
 40
0.6065350341
 40
0.6251670044
 40
0.6437344856
 40
0.6622164394
 40
0.6805921234
 40
0.6988411663
 40
0.7169436454
 40
0.7348801648
 40
0.7526319364
 40
0.7701808628
 40
0.787509624
 40
0.8046017664
 40
0.821441796
 40
0.8380152765
 40
0.8543089315
 40
0.870310753
 40
0.8860101153
 40
0.9013978967
 40
0.9164666062
 40
0.9312105216
 40
0.9456258245
 40
0.9597107721
 40
0.9734657883
 40
0.9868937798
 40
1.0
 40
1.0
 40
1.0
 40
1.0
 10
14.5205131714
 20
12.1944369957
 30
0.0
 10
14.5214569844
 20
12.1974911627
 30
0.0
 10
14.5234560161
 20
12.2035686287
 30
0.0
 10
14.526783845
 20
12.2125767757
 30
0.0
 10
14.5304401799
 20
12.2214748876
 30
0.0
 10
14.5344233263
 20
12.2302590048
 30
0.0
 10
14.5387316461
 20
12.2389253558
 30
0.0
 10
14.5433631902
 20
12.2474702452
 30
0.0
 10
14.5483160329
 20
12.2558899617
 30
0.0
 10
14.5535879517
 20
12.2641809391
 30
0.0
 10
14.559176735
 20
12.2723395785
 30
0.0
 10
14.5650799036
 20
12.2803624299
 30
0.0
 10
14.5712949563
 20
12.2882460248
 30
0.0
 10
14.5778191701
 20
12.2959870234
 30
0.0
 10
14.5846497599
 20
12.3035821051
 30
0.0
 10
14.5917837507
 20
12.3110280244
 30
0.0
 10
14.5992181434
 20
12.3183216686
 30
0.0
 10
14.6095822321
 20
12.3278904174
 30
0.0
 10
14.623290631
 20
12.3394542534
 30
0.0
 10
14.6377951008
 20
12.3503419678
 30
0.0
 10
14.6499437283
 20
12.3587152628
 30
0.0
 10
14.6626065465
 20
12.3669567928
 30
0.0
 10
14.6791271978
 20
12.3768135397
 30
0.0
 10
14.6998831163
 20
12.387848557
 30
0.0
 10
14.72165358
 20
12.3981430679
 30
0.0
 10
14.744401047
 20
12.4076796106
 30
0.0
 10
14.7680868166
 20
12.4164422719
 30
0.0
 10
14.7926704841
 20
12.4244163285
 30
0.0
 10
14.8181101643
 20
12.4315883831
 30
0.0
 10
14.844362508
 20
12.4379463619
 30
0.0
 10
14.8713827823
 20
12.4434795492
 30
0.0
 10
14.8991249389
 20
12.4481786078
 30
0.0
 10
14.927541691
 20
12.4520356006
 30
0.0
 10
14.9565845919
 20
12.4550440081
 30
0.0
 10
14.9862041164
 20
12.4571987435
 30
0.0
 10
15.0163497457
 20
12.4584961646
 30
0.0
 10
15.0469700527
 20
12.4589340827
 30
0.0
 10
15.0780127911
 20
12.4585117691
 30
0.0
 10
15.1094249845
 20
12.4572299577
 30
0.0
 10
15.141153018
 20
12.4550908458
 30
0.0
 10
15.1731427301
 20
12.4520980916
 30
0.0
 10
15.2053395063
 20
12.4482568086
 30
0.0
 10
15.2376883728
 20
12.4435735583
 30
0.0
 10
15.2701340916
 20
12.4380563391
 30
0.0
 10
15.3026212551
 20
12.4317145733
 30
0.0
 10
15.3350943818
 20
12.4245590918
 30
0.0
 10
15.3674980117
 20
12.4166021155
 30
0.0
 10
15.3997768018
 20
12.4078572344
 30
0.0
 10
15.4318756212
 20
12.3983393847
 30
0.0
 10
15.4637396457
 20
12.3880648225
 30
0.0
 10
15.4953144523
 20
12.3770510968
 30
0.0
 10
15.5265461127
 20
12.3653170188
 30
0.0
 10
15.5573812856
 20
12.3528826293
 30
0.0
 10
15.5877673085
 20
12.3397691645
 30
0.0
 10
15.6176522884
 20
12.3259990193
 30
0.0
 10
15.6469851903
 20
12.311595708
 30
0.0
 10
15.6757159252
 20
12.2965838238
 30
0.0
 10
15.703795436
 20
12.2809889958
 30
0.0
 10
15.731175781
 20
12.2648378446
 30
0.0
 10
15.7578102168
 20
12.2481579353
 30
0.0
 10
15.7836532776
 20
12.2309777294
 30
0.0
 10
15.8086608535
 20
12.213326535
 30
0.0
 10
15.8327902646
 20
12.1952344544
 30
0.0
 10
15.8560003338
 20
12.1767323311
 30
0.0
 10
15.8782514558
 20
12.1578516949
 30
0.0
 10
15.8995056631
 20
12.1386247056
 30
0.0
 10
15.9197266888
 20
12.1190840957
 30
0.0
 10
15.9388800246
 20
12.0992631121
 30
0.0
 10
15.9569329793
 20
12.0791954556
 30
0.0
 10
15.9738547183
 20
12.058915227
 30
0.0
 10
15.9896163407
 20
12.038456843
 30
0.0
 10
16.0041908333
 20
12.017855071
 30
0.0
 10
16.017553354
 20
11.9971446266
 30
0.0
 10
16.029680547
 20
11.9763613241
 30
0.0
 10
16.0370161691
 20
11.9623114609
 30
0.0
 10
16.0404634575
 20
11.9552866257
 30
0.0
  0
SPLINE
  5
308
100
AcDbEntity
  8
LAYER_FEATURE
100
AcDbSpline
 62
7
  6
CONTINUOUS
 70
0
 71
3
 72
47
 73
43
 74
0
 42
0.0000001
 43
0.0000001
 44
0.0000000001
 40
0.0
 40
0.0
 40
0.0
 40
0.0
 40
0.0396643969
 40
0.0788611884
 40
0.1175668757
 40
0.1557607819
 40
0.1934228993
 40
0.2305351391
 40
0.2670810446
 40
0.3030460247
 40
0.3384174606
 40
0.3731848366
 40
0.4073398826
 40
0.4408767177
 40
0.4737920025
 40
0.5060850986
 40
0.5377582254
 40
0.56881662
 40
0.599268697
 40
0.6291262059
 40
0.6584043795
 40
0.6728328097
 40
0.6871237917
 40
0.7153035886
 40
0.742971893
 40
0.7701589713
 40
0.7968989545
 40
0.8232297817
 40
0.8362557822
 40
0.8491954055
 40
0.8620543963
 40
0.874838697
 40
0.8875544482
 40
0.9002079575
 40
0.9128057072
 40
0.9253543221
 40
0.9378605641
 40
0.9503313127
 40
0.9627735433
 40
0.975194316
 40
0.987600748
 40
1.0
 40
1.0
 40
1.0
 40
1.0
 10
14.9003883192
 20
12.6943759605
 30
0.0
 10
14.8875384542
 20
12.6943759605
 30
0.0
 10
14.8619891936
 20
12.6940878187
 30
0.0
 10
14.8239209791
 20
12.6927745053
 30
0.0
 10
14.7863700064
 20
12.6905839623
 30
0.0
 10
14.7493790627
 20
12.687518727
 30
0.0
 10
14.7129896863
 20
12.6835821813
 30
0.0
 10
14.6772430067
 20
12.6787787682
 30
0.0
 10
14.6421793266
 20
12.6731138604
 30
0.0
 10
14.6078381999
 20
12.6665938169
 30
0.0
 10
14.5742583539
 20
12.6592259474
 30
0.0
 10
14.5414776557
 20
12.6510185055
 30
0.0
 10
14.5095330705
 20
12.641980678
 30
0.0
 10
14.4784606217
 20
12.6321225724
 30
0.0
 10
14.4482953513
 20
12.6214552021
 30
0.0
 10
14.4190712814
 20
12.6099904847
 30
0.0
 10
14.3908213725
 20
12.5977412115
 30
0.0
 10
14.3635775296
 20
12.5847210556
 30
0.0
 10
14.337370438
 20
12.5709444671
 30
0.0
 10
14.3122300244
 20
12.5564269837
 30
0.0
 10
14.2920947712
 20
12.5436632843
 30
0.0
 10
14.2765580537
 20
12.5330947906
 30
0.0
 10
14.261546189
 20
12.5223953749
 30
0.0
 10
14.2434851481
 20
12.5085932379
 30
0.0
 10
14.2228829485
 20
12.4912811214
 30
0.0
 10
14.2034770016
 20
12.4733164431
 30
0.0
 10
14.1852901131
 20
12.454719863
 30
0.0
 10
14.1711163022
 20
12.4386550932
 30
0.0
 10
14.1604204022
 20
12.4255138329
 30
0.0
 10
14.1527436973
 20
12.4155484264
 30
0.0
 10
14.1453862751
 20
12.4054417798
 30
0.0
 10
14.1383501926
 20
12.3951966512
 30
0.0
 10
14.131637416
 20
12.3848159975
 30
0.0
 10
14.1252499185
 20
12.3743027069
 30
0.0
 10
14.1191894647
 20
12.3636597949
 30
0.0
 10
14.1134578139
 20
12.3528902552
 30
0.0
 10
14.1080566022
 20
12.3419971423
 30
0.0
 10
14.1029873319
 20
12.3309835597
 30
0.0
 10
14.0982515147
 20
12.3198526125
 30
0.0
 10
14.0938504154
 20
12.308607457
 30
0.0
 10
14.0897853907
 20
12.2972513903
 30
0.0
 10
14.087299833
 20
12.2896078358
 30
0.0
 10
14.0861138447
 20
12.2857699876
 30
0.0
  0
SPLINE
  5
309
100
AcDbEntity
  8
LAYER_CUT_FEAT
100
AcDbSpline
 62
7
  6
CONTINUOUS
 70
0
 71
3
 72
80
 73
76
 74
0
 42
0.0000001
 43
0.0000001
 44
0.0000000001
 40
0.0
 40
0.0
 40
0.0
 40
0.0
 40
0.0053540951
 40
0.0107128793
 40
0.0160810221
 40
0.0214631515
 40
0.0268638372
 40
0.0322875689
 40
0.0377387416
 40
0.0432216371
 40
0.0487404091
 40
0.0542990723
 40
0.0599014843
 40
0.065551345
 40
0.0712521741
 40
0.0770073213
 40
0.0828199403
 40
0.0886930063
 40
0.1006301241
 40
0.1128399032
 40
0.1190529648
 40
0.1253402251
 40
0.1381426321
 40
0.1512590064
 40
0.1646973074
 40
0.1784628134
 40
0.1925582765
 40
0.2069840818
 40
0.2217384059
 40
0.2368173714
 40
0.2522151964
 40
0.2679243365
 40
0.2839356199
 40
0.3002383753
 40
0.3168205525
 40
0.3336688367
 40
0.3507687563
 40
0.3681047852
 40
0.3856604408
 40
0.4034183767
 40
0.4213604724
 40
0.4394679193
 40
0.4577213033
 40
0.4761006864
 40
0.4945856843
 40
0.513155544
 40
0.5317892193
 40
0.5504654448
 40
0.5691628104
 40
0.5878598339
 40
0.6065350343
 40
0.6251670048
 40
0.643734486
 40
0.6622164396
 40
0.6805921234
 40
0.698841166
 40
0.7169436449
 40
0.7348801641
 40
0.7526319356
 40
0.7701808622
 40
0.7875096238
 40
0.8046017666
 40
0.8214417966
 40
0.8380152772
 40
0.8543089322
 40
0.8703107534
 40
0.8860101156
 40
0.9013978967
 40
0.916466606
 40
0.9312105215
 40
0.9456258237
 40
0.9597107733
 40
0.9734657846
 40
0.9868937857
 40
1.0
 40
1.0
 40
1.0
 40
1.0
 10
14.5084098525
 20
12.1552706511
 30
0.0
 10
14.5093536628
 20
12.1583248189
 30
0.0
 10
14.5113527062
 20
12.1644022811
 30
0.0
 10
14.5146805254
 20
12.1734104314
 30
0.0
 10
14.5183368644
 20
12.1823085419
 30
0.0
 10
14.5223200129
 20
12.1910926579
 30
0.0
 10
14.5266283256
 20
12.1997590129
 30
0.0
 10
14.531259882
 20
12.208303895
 30
0.0
 10
14.5362127082
 20
12.2167236218
 30
0.0
 10
14.5414846466
 20
12.2250145861
 30
0.0
 10
14.547073408
 20
12.2331732412
 30
0.0
 10
14.5529765991
 20
12.2411960751
 30
0.0
 10
14.559191629
 20
12.2490796887
 30
0.0
 10
14.565715864
 20
12.2568206686
 30
0.0
 10
14.5725464347
 20
12.2644157683
 30
0.0
 10
14.5796804411
 20
12.2718616719
 30
0.0
 10
14.5871148226
 20
12.2791553282
 30
0.0
 10
14.5974789198
 20
12.2887240673
 30
0.0
 10
14.6111873141
 20
12.3002879074
 30
0.0
 10
14.6256917786
 20
12.3111756313
 30
0.0
 10
14.6378404178
 20
12.319548908
 30
0.0
 10
14.6505032223
 20
12.3277904583
 30
0.0
 10
14.6670238783
 20
12.3376471953
 30
0.0
 10
14.6877797951
 20
12.348682216
 30
0.0
 10
14.709550261
 20
12.3589767248
 30
0.0
 10
14.7322977301
 20
12.3685132659
 30
0.0
 10
14.755983502
 20
12.3772759249
 30
0.0
 10
14.7805671713
 20
12.3852499796
 30
0.0
 10
14.8060068525
 20
12.3924220329
 30
0.0
 10
14.8322591961
 20
12.3987800114
 30
0.0
 10
14.8592794695
 20
12.4043131994
 30
0.0
 10
14.8870216247
 20
12.4090122594
 30
0.0
 10
14.9154383752
 20
12.4128692542
 30
0.0
 10
14.9444812747
 20
12.415877664
 30
0.0
 10
14.9741007982
 20
12.4180324014
 30
0.0
 10
15.004246427
 20
12.4193298239
 30
0.0
 10
15.0348667342
 20
12.4197677425
 30
0.0
 10
15.0659094732
 20
12.4193454279
 30
0.0
 10
15.0973216675
 20
12.4180636147
 30
0.0
 10
15.1290497017
 20
12.4159245007
 30
0.0
 10
15.1610394143
 20
12.4129317443
 30
0.0
 10
15.1932361907
 20
12.4090904596
 30
0.0
 10
15.225585057
 20
12.4044072081
 30
0.0
 10
15.2580307755
 20
12.3988899886
 30
0.0
 10
15.2905179386
 20
12.3925482236
 30
0.0
 10
15.3229910651
 20
12.3853927437
 30
0.0
 10
15.3553946952
 20
12.3774357695
 30
0.0
 10
15.3876734858
 20
12.3686908905
 30
0.0
 10
15.4197723058
 20
12.3591730424
 30
0.0
 10
15.4516363308
 20
12.3488984809
 30
0.0
 10
15.4832111377
 20
12.3378847548
 30
0.0
 10
15.5144427979
 20
12.3261506758
 30
0.0
 10
15.5452779702
 20
12.313716285
 30
0.0
 10
15.5756639924
 20
12.300602819
 30
0.0
 10
15.6055489713
 20
12.2868326727
 30
0.0
 10
15.6348818723
 20
12.2724293606
 30
0.0
 10
15.6636126065
 20
12.257417476
 30
0.0
 10
15.6916921169
 20
12.241822648
 30
0.0
 10
15.7190724622
 20
12.2256714973
 30
0.0
 10
15.7457068989
 20
12.2089915888
 30
0.0
 10
15.7715499611
 20
12.1918113839
 30
0.0
 10
15.7965575385
 20
12.1741601904
 30
0.0
 10
15.8206869505
 20
12.1560681102
 30
0.0
 10
15.8438970199
 20
12.1375659867
 30
0.0
 10
15.8661481416
 20
12.1186853502
 30
0.0
 10
15.8874023482
 20
12.0994583606
 30
0.0
 10
15.9076233731
 20
12.0799177503
 30
0.0
 10
15.9267767081
 20
12.0600967665
 30
0.0
 10
15.9448296623
 20
12.0400291099
 30
0.0
 10
15.9617514005
 20
12.0197488813
 30
0.0
 10
15.9775130241
 20
11.9992904972
 30
0.0
 10
15.9920875143
 20
11.9786887261
 30
0.0
 10
16.0054500397
 20
11.9579782799
 30
0.0
 10
16.0175772303
 20
11.9371949768
 30
0.0
 10
16.0249128545
 20
11.9231451122
 30
0.0
 10
16.0283601414
 20
11.9161202802
 30
0.0
  0
SPLINE
  5
30A
100
AcDbEntity
  8
LAYER_FEATURE
100
AcDbSpline
 62
7
  6
CONTINUOUS
 70
0
 71
3
 72
47
 73
43
 74
0
 42
0.0000001
 43
0.0000001
 44
0.0000000001
 40
0.0
 40
0.0
 40
0.0
 40
0.0
 40
0.0396643969
 40
0.0788611884
 40
0.1175668757
 40
0.1557607819
 40
0.1934228993
 40
0.2305351391
 40
0.2670810446
 40
0.3030460247
 40
0.3384174606
 40
0.3731848366
 40
0.4073398826
 40
0.4408767177
 40
0.4737920025
 40
0.5060850986
 40
0.5377582254
 40
0.56881662
 40
0.599268697
 40
0.6291262059
 40
0.6584043795
 40
0.6728328097
 40
0.6871237917
 40
0.7153035886
 40
0.742971893
 40
0.7701589713
 40
0.7968989545
 40
0.8232297817
 40
0.8362557822
 40
0.8491954055
 40
0.8620543963
 40
0.874838697
 40
0.8875544482
 40
0.9002079575
 40
0.9128057072
 40
0.9253543221
 40
0.9378605641
 40
0.9503313127
 40
0.9627735433
 40
0.975194316
 40
0.987600748
 40
1.0
 40
1.0
 40
1.0
 40
1.0
 10
15.2586464778
 20
13.8536997867
 30
0.0
 10
15.2457966129
 20
13.8536997867
 30
0.0
 10
15.2202473522
 20
13.853411645
 30
0.0
 10
15.1821791377
 20
13.8520983315
 30
0.0
 10
15.144628165
 20
13.8499077885
 30
0.0
 10
15.1076372214
 20
13.8468425533
 30
0.0
 10
15.0712478449
 20
13.8429060076
 30
0.0
 10
15.0355011653
 20
13.8381025944
 30
0.0
 10
15.0004374853
 20
13.8324376866
 30
0.0
 10
14.9660963585
 20
13.8259176431
 30
0.0
 10
14.9325165125
 20
13.8185497736
 30
0.0
 10
14.8997358144
 20
13.8103423317
 30
0.0
 10
14.8677912292
 20
13.8013045043
 30
0.0
 10
14.8367187804
 20
13.7914463987
 30
0.0
 10
14.8065535099
 20
13.7807790284
 30
0.0
 10
14.7773294401
 20
13.769314311
 30
0.0
 10
14.7490795311
 20
13.7570650378
 30
0.0
 10
14.7218356883
 20
13.7440448818
 30
0.0
 10
14.6956285967
 20
13.7302682934
 30
0.0
 10
14.670488183
 20
13.71575081
 30
0.0
 10
14.6503529298
 20
13.7029871105
 30
0.0
 10
14.6348162123
 20
13.6924186168
 30
0.0
 10
14.6198043476
 20
13.6817192011
 30
0.0
 10
14.6017433068
 20
13.6679170642
 30
0.0
 10
14.5811411071
 20
13.6506049477
 30
0.0
 10
14.5617351603
 20
13.6326402693
 30
0.0
 10
14.5435482717
 20
13.6140436893
 30
0.0
 10
14.5293744608
 20
13.5979789195
 30
0.0
 10
14.5186785609
 20
13.5848376591
 30
0.0
 10
14.5110018559
 20
13.5748722527
 30
0.0
 10
14.5036444338
 20
13.5647656061
 30
0.0
 10
14.4966083512
 20
13.5545204774
 30
0.0
 10
14.4898955746
 20
13.5441398237
 30
0.0
 10
14.4835080772
 20
13.5336265332
 30
0.0
 10
14.4774476234
 20
13.5229836212
 30
0.0
 10
14.4717159726
 20
13.5122140814
 30
0.0
 10
14.4663147608
 20
13.5013209686
 30
0.0
 10
14.4612454906
 20
13.4903073859
 30
0.0
 10
14.4565096734
 20
13.4791764387
 30
0.0
 10
14.452108574
 20
13.4679312833
 30
0.0
 10
14.4480435493
 20
13.4565752165
 30
0.0
 10
14.4455579917
 20
13.4489316621
 30
0.0
 10
14.4443720034
 20
13.4450938139
 30
0.0
  0
SPLINE
  5
30B
100
AcDbEntity
  8
LAYER_FEATURE
100
AcDbSpline
 62
7
  6
CONTINUOUS
 70
0
 71
3
 72
105
 73
101
 74
0
 42
0.0000001
 43
0.0000001
 44
0.0000000001
 40
0.0
 40
0.0
 40
0.0
 40
0.0
 40
0.0182166013
 40
0.0366904512
 40
0.0553982526
 40
0.0743153659
 40
0.0934162699
 40
0.1126745599
 40
0.1320631274
 40
0.15155428
 40
0.1711198736
 40
0.1907314387
 40
0.2103603062
 40
0.2299777321
 40
0.249555022
 40
0.2690636556
 40
0.2884754122
 40
0.3077624972
 40
0.3268976707
 40
0.345854379
 40
0.3646068893
 40
0.3831304286
 40
0.4014013271
 40
0.419397168
 40
0.4370969439
 40
0.4544812223
 40
0.463049779
 40
0.4715329874
 40
0.4799289385
 40
0.488235863
 40
0.4964521225
 40
0.5045762346
 40
0.5126068603
 40
0.520542829
 40
0.528383132
 40
0.5361269377
 40
0.5437735989
 40
0.5513226541
 40
0.5587738484
 40
0.5661271244
 40
0.5733826507
 40
0.58054081
 40
0.5945665558
 40
0.6014373128
 40
0.6082146651
 40
0.6214945371
 40
0.6280025601
 40
0.6344253683
 40
0.6407657148
 40
0.6470266509
 40
0.6532115183
 40
0.6593239526
 40
0.6653678831
 40
0.6713475212
 40
0.6772673638
 40
0.6831321713
 40
0.6889469663
 40
0.694717008
 40
0.7004477802
 40
0.7061449653
 40
0.7118144201
 40
0.7174621499
 40
0.723094275
 40
0.7287170028
 40
0.7343365911
 40
0.7399593152
 40
0.7455914336
 40
0.7512391525
 40
0.7569085936
 40
0.7626057615
 40
0.7683365128
 40
0.7741065317
 40
0.779921299
 40
0.7857860783
 40
0.7917058873
 40
0.7976854917
 40
0.803729384
 40
0.8098417789
 40
0.816026605
 40
0.8222874962
 40
0.8350489632
 40
0.8415569399
 40
0.8481525985
 40
0.8616140663
 40
0.8684847703
 40
0.875450249
 40
0.8896685628
 40
0.8969240317
 40
0.9042772552
 40
0.9117283924
 40
0.9192773941
 40
0.9269239999
 40
0.9346677509
 40
0.9425080009
 40
0.9504439144
 40
0.9584744896
 40
0.9665985471
 40
0.9748147573
 40
0.9831216302
 40
1.0
 40
1.0
 40
1.0
 40
1.0
 10
14.9527571618
 20
12.6514897902
 30
0.0
 10
14.9689299442
 20
12.6514897902
 30
0.0
 10
15.0015060047
 20
12.6509730372
 30
0.0
 10
15.0506428689
 20
12.6486899949
 30
0.0
 10
15.1003103761
 20
12.6448983147
 30
0.0
 10
15.1503999448
 20
12.6396062193
 30
0.0
 10
15.2008027709
 20
12.632825251
 30
0.0
 10
15.2514091972
 20
12.6245701525
 30
0.0
 10
15.3021091505
 20
12.6148588871
 30
0.0
 10
15.3527923336
 20
12.6037125801
 30
0.0
 10
15.4033484816
 20
12.5911554806
 30
0.0
 10
15.4536675996
 20
12.5772149078
 30
0.0
 10
15.5036402064
 20
12.5619211942
 30
0.0
 10
15.5531575735
 20
12.5453076162
 30
0.0
 10
15.6021119639
 20
12.5274103213
 30
0.0
 10
15.6503968678
 20
12.508268249
 30
0.0
 10
15.6979072364
 20
12.4879230448
 30
0.0
 10
15.7445397115
 20
12.4664189678
 30
0.0
 10
15.790192852
 20
12.4438027936
 30
0.0
 10
15.834767356
 20
12.4201237083
 30
0.0
 10
15.8781662769
 20
12.3954332037
 30
0.0
 10
15.9202952458
 20
12.3697849533
 30
0.0
 10
15.9610626365
 20
12.3432347195
 30
0.0
 10
16.00037991
 20
12.31584012
 30
0.0
 10
16.0381612752
 20
12.2876608918
 30
0.0
 10
16.0684417336
 20
12.2634600153
 30
0.0
 10
16.0918175013
 20
12.2437539096
 30
0.0
 10
16.1088314976
 20
12.2288876355
 30
0.0
 10
16.1254019388
 20
12.2138723289
 30
0.0
 10
16.1415198886
 20
12.1987161414
 30
0.0
 10
16.1571765178
 20
12.1834272853
 30
0.0
 10
16.1723633486
 20
12.1680141221
 30
0.0
 10
16.1870720705
 20
12.1524849902
 30
0.0
 10
16.2012947075
 20
12.1368483692
 30
0.0
 10
16.2150234946
 20
12.1211127401
 30
0.0
 10
16.2282509585
 20
12.1052866624
 30
0.0
 10
16.2409699088
 20
12.0893787497
 30
0.0
 10
16.2531733826
 20
12.0733976257
 30
0.0
 10
16.2648547859
 20
12.057351996
 30
0.0
 10
16.2760076569
 20
12.0412505976
 30
0.0
 10
16.2866261172
 20
12.0251019923
 30
0.0
 10
16.2999719563
 20
12.0036665955
 30
0.0
 10
16.3123318941
 20
11.9820270684
 30
0.0
 10
16.3236424923
 20
11.9602133939
 30
0.0
 10
16.334057252
 20
11.9386918407
 30
0.0
 10
16.3434297541
 20
11.9170318895
 30
0.0
 10
16.351695707
 20
11.8952764474
 30
0.0
 10
16.3572780089
 20
11.8791006316
 30
0.0
 10
16.3622811529
 20
11.8629660116
 30
0.0
 10
16.3667024941
 20
11.8468811702
 30
0.0
 10
16.3705395312
 20
11.8308549078
 30
0.0
 10
16.3737901163
 20
11.8148959359
 30
0.0
 10
16.3764524567
 20
11.799012963
 30
0.0
 10
16.3785249793
 20
11.7832146402
 30
0.0
 10
16.3800065759
 20
11.7675096057
 30
0.0
 10
16.3808962888
 20
11.7519064328
 30
0.0
 10
16.3811936613
 20
11.7364136667
 30
0.0
 10
16.3808984059
 20
11.7210397902
 30
0.0
 10
16.3800106801
 20
11.7057932362
 30
0.0
 10
16.3785309098
 20
11.6906823736
 30
0.0
 10
16.3764598504
 20
11.675715509
 30
0.0
 10
16.3737986548
 20
11.6609008654
 30
0.0
 10
16.3705486879
 20
11.6462466082
 30
0.0
 10
16.3667118085
 20
11.6317607839
 30
0.0
 10
16.3622900274
 20
11.6174513904
 30
0.0
 10
16.3572858616
 20
11.6033262783
 30
0.0
 10
16.3517020095
 20
11.5893932392
 30
0.0
 10
16.3455415974
 20
11.5756599184
 30
0.0
 10
16.338808029
 20
11.5621338592
 30
0.0
 10
16.3315050138
 20
11.5488224939
 30
0.0
 10
16.3236366451
 20
11.5357330859
 30
0.0
 10
16.3152072149
 20
11.522872837
 30
0.0
 10
16.3062214623
 20
11.5102487203
 30
0.0
 10
16.296684281
 20
11.4978676752
 30
0.0
 10
16.2866009979
 20
11.4857363941
 30
0.0
 10
16.2759771307
 20
11.4738615157
 30
0.0
 10
16.2648185374
 20
11.4622494597
 30
0.0
 10
16.2531314049
 20
11.4509065671
 30
0.0
 10
16.2409219266
 20
11.4398388548
 30
0.0
 10
16.2238483639
 20
11.4253661577
 30
0.0
 10
16.2058474748
 20
11.4115627893
 30
0.0
 10
16.1870009922
 20
11.3984388988
 30
0.0
 10
16.1672487292
 20
11.3855460559
 30
0.0
 10
16.1466598067
 20
11.3733659499
 30
0.0
 10
16.1253092608
 20
11.3618944007
 30
0.0
 10
16.1030573739
 20
11.3506990725
 30
0.0
 10
16.0800601552
 20
11.3402457202
 30
0.0
 10
16.0563848404
 20
11.3305215886
 30
0.0
 10
16.0380924697
 20
11.3235192275
 30
0.0
 10
16.019395432
 20
11.3168611349
 30
0.0
 10
16.0003036497
 20
11.3105508533
 30
0.0
 10
15.9808275829
 20
11.3045918174
 30
0.0
 10
15.9609778149
 20
11.2989872363
 30
0.0
 10
15.9407651448
 20
11.2937401853
 30
0.0
 10
15.9202005836
 20
11.2888534567
 30
0.0
 10
15.8992953011
 20
11.2843297629
 30
0.0
 10
15.8780607256
 20
11.2801714993
 30
0.0
 10
15.856508249
 20
11.2763809513
 30
0.0
 10
15.8272096778
 20
11.2717958312
 30
0.0
 10
15.805024949
 20
11.2689536635
 30
0.0
 10
15.790130662
 20
11.2673101061
 30
0.0
  0
SPLINE
  5
30C
100
AcDbEntity
  8
LAYER_FEATURE
100
AcDbSpline
 62
7
  6
CONTINUOUS
 70
0
 71
3
 72
71
 73
67
 74
0
 42
0.0000001
 43
0.0000001
 44
0.0000000001
 40
0.0
 40
0.0
 40
0.0
 40
0.0
 40
0.0202164706
 40
0.0402127471
 40
0.0599780254
 40
0.0795033433
 40
0.0987797029
 40
0.1177989037
 40
0.1365534395
 40
0.1550365047
 40
0.1732420836
 40
0.1911649904
 40
0.2088009164
 40
0.2261464816
 40
0.2431992941
 40
0.2599580134
 40
0.2764224011
 40
0.2925933802
 40
0.3084731009
 40
0.3240650059
 40
0.3393738817
 40
0.3544059153
 40
0.3691687522
 40
0.3836715459
 40
0.3979249878
 40
0.4119413339
 40
0.4257344215
 40
0.4393196634
 40
0.4527140153
 40
0.465935924
 40
0.479005253
 40
0.4919431745
 40
0.5047720282
 40
0.5175151566
 40
0.5301967134
 40
0.5428414468
 40
0.5554744645
 40
0.56812099
 40
0.5808061134
 40
0.5935545473
 40
0.6063903945
 40
0.6193369347
 40
0.632416429
 40
0.6456499578
 40
0.6590572879
 40
0.6726567665
 40
0.6864652391
 40
0.7004980031
 40
0.7147687851
 40
0.7292897343
 40
0.7440714291
 40
0.7591229093
 40
0.774451718
 40
0.7900639465
 40
0.8059642798
 40
0.8221560618
 40
0.8386413572
 40
0.8554210098
 40
0.872494696
 40
0.8898609942
 40
0.9075174449
 40
0.9254606048
 40
0.9436860961
 40
0.9621886685
 40
0.9809622517
 40
1.0
 40
1.0
 40
1.0
 40
1.0
 10
14.9527571618
 20
12.6514897902
 30
0.0
 10
14.9420796439
 20
12.6514897902
 30
0.0
 10
14.9208401797
 20
12.6512672733
 30
0.0
 10
14.8891760485
 20
12.6502540387
 30
0.0
 10
14.8579061531
 20
12.6485639958
 30
0.0
 10
14.8270613365
 20
12.6461988706
 30
0.0
 10
14.7966713794
 20
12.6431608873
 30
0.0
 10
14.7667659217
 20
12.6394530152
 30
0.0
 10
14.7373740419
 20
12.6350788513
 30
0.0
 10
14.7085243285
 20
12.6300426175
 30
0.0
 10
14.6802448478
 20
12.6243491781
 30
0.0
 10
14.6525630981
 20
12.6180040543
 30
0.0
 10
14.6255059972
 20
12.6110133827
 30
0.0
 10
14.5990998607
 20
12.6033839098
 30
0.0
 10
14.5733703712
 20
12.5951229928
 30
0.0
 10
14.5483425447
 20
12.586238619
 30
0.0
 10
14.5240407211
 20
12.5767393583
 30
0.0
 10
14.5004885474
 20
12.5666343557
 30
0.0
 10
14.4777089477
 20
12.5559333357
 30
0.0
 10
14.4557240922
 20
12.5446466137
 30
0.0
 10
14.4345553976
 20
12.532785049
 30
0.0
 10
14.4142235143
 20
12.5203600374
 30
0.0
 10
14.3947482965
 20
12.5073835205
 30
0.0
 10
14.3761487747
 20
12.4938679903
 30
0.0
 10
14.3584431656
 20
12.4798264475
 30
0.0
 10
14.3416488614
 20
12.465272397
 30
0.0
 10
14.3257823947
 20
12.4502198641
 30
0.0
 10
14.3108594133
 20
12.4346833931
 30
0.0
 10
14.2968946932
 20
12.418678015
 30
0.0
 10
14.2839021236
 20
12.4022192443
 30
0.0
 10
14.2718946566
 20
12.3853230982
 30
0.0
 10
14.2608842827
 20
12.3680060829
 30
0.0
 10
14.2508820371
 20
12.350285164
 30
0.0
 10
14.2418979795
 20
12.3321777547
 30
0.0
 10
14.2339411268
 20
12.3137017187
 30
0.0
 10
14.2270194398
 20
12.2948753349
 30
0.0
 10
14.2211398316
 20
12.275717258
 30
0.0
 10
14.2163081556
 20
12.2562464906
 30
0.0
 10
14.2125291441
 20
12.2364823618
 30
0.0
 10
14.2098064271
 20
12.2164444802
 30
0.0
 10
14.2081425577
 20
12.1961526954
 30
0.0
 10
14.2075390205
 20
12.1756270698
 30
0.0
 10
14.2079961872
 20
12.1548878531
 30
0.0
 10
14.2095133637
 20
12.1339554491
 30
0.0
 10
14.2120888221
 20
12.1128503951
 30
0.0
 10
14.215719814
 20
12.0915933486
 30
0.0
 10
14.2204025313
 20
12.070205063
 30
0.0
 10
14.2261321597
 20
12.0487063762
 30
0.0
 10
14.2329028997
 20
12.0271181987
 30
0.0
 10
14.2407079748
 20
12.0054615063
 30
0.0
 10
14.249539591
 20
11.98375731
 30
0.0
 10
14.2593889897
 20
11.9620266542
 30
0.0
 10
14.2702464591
 20
11.9402906021
 30
0.0
 10
14.2821013386
 20
11.9185702248
 30
0.0
 10
14.2949419862
 20
11.896886563
 30
0.0
 10
14.3087558288
 20
11.8752606283
 30
0.0
 10
14.3235293739
 20
11.8537133839
 30
0.0
 10
14.339248214
 20
11.8322657289
 30
0.0
 10
14.3558970051
 20
11.8109384547
 30
0.0
 10
14.3734595183
 20
11.7897522494
 30
0.0
 10
14.3919186521
 20
11.7687276768
 30
0.0
 10
14.4112564436
 20
11.747885152
 30
0.0
 10
14.4314540421
 20
11.7272449137
 30
0.0
 10
14.4524918288
 20
11.7068269734
 30
0.0
 10
14.4743491669
 20
11.6866513112
 30
0.0
 10
14.4893505409
 20
11.6734654762
 30
0.0
 10
14.4969803016
 20
11.6669165018
 30
0.0
  0
SPLINE
  5
30D
100
AcDbEntity
  8
LAYER_FEATURE
100
AcDbSpline
 62
7
  6
CONTINUOUS
 70
0
 71
3
 72
80
 73
76
 74
0
 42
0.0000001
 43
0.0000001
 44
0.0000000001
 40
0.0
 40
0.0
 40
0.0
 40
0.0
 40
0.0171786082
 40
0.034530198
 40
0.0520439838
 40
0.0697095606
 40
0.0875157518
 40
0.105451206
 40
0.1235042506
 40
0.1416629551
 40
0.1599151638
 40
0.1782485183
 40
0.196650488
 40
0.215108397
 40
0.2336094524
 40
0.252140772
 40
0.2706894107
 40
0.289242387
 40
0.3077867108
 40
0.3263094098
 40
0.3447975567
 40
0.363238296
 40
0.3816188704
 40
0.3999266494
 40
0.4181491568
 40
0.4362740982
 40
0.4542893888
 40
0.4721831827
 40
0.4899439032
 40
0.5075602729
 40
0.5250213434
 40
0.5423165268
 40
0.5594356282
 40
0.5763688815
 40
0.5931069834
 40
0.6096411284
 40
0.625963046
 40
0.6420650398
 40
0.6579400312
 40
0.6735816004
 40
0.68898403
 40
0.7041423511
 40
0.719052392
 40
0.733710832
 40
0.7481152528
 40
0.7622641919
 40
0.7761571985
 40
0.789794892
 40
0.8031790231
 40
0.8163125314
 40
0.8291996013
 40
0.8418457169
 40
0.8542577138
 40
0.8603787795
 40
0.8664445246
 40
0.8784144197
 40
0.8901792225
 40
0.8959889946
 40
0.9017523407
 40
0.913146193
 40
0.9243770775
 40
0.929937084
 40
0.9354627808
 40
0.9409564793
 40
0.9464205594
 40
0.9518574751
 40
0.9572697446
 40
0.962659945
 40
0.9680307113
 40
0.9733847243
 40
0.97872471
 40
0.9840534296
 40
0.9893736732
 40
0.9946882543
 40
1.0
 40
1.0
 40
1.0
 40
1.0
 10
14.9003883192
 20
12.6943759605
 30
0.0
 10
14.912860078
 20
12.6943759605
 30
0.0
 10
14.9379299816
 20
12.6941015331
 30
0.0
 10
14.9756971676
 20
12.6928821928
 30
0.0
 10
15.0137837298
 20
12.6908542046
 30
0.0
 10
15.0521496078
 20
12.6880197676
 30
0.0
 10
15.0907550966
 20
12.6843817751
 30
0.0
 10
15.129559937
 20
12.679944034
 30
0.0
 10
15.1685237635
 20
12.674711163
 30
0.0
 10
15.207606018
 20
12.6686886134
 30
0.0
 10
15.2467660211
 20
12.6618826553
 30
0.0
 10
15.2859630119
 20
12.6543003699
 30
0.0
 10
15.3251561878
 20
12.6459496441
 30
0.0
 10
15.3643047515
 20
12.6368391759
 30
0.0
 10
15.4033679511
 20
12.6269784523
 30
0.0
 10
15.442305123
 20
12.6163777384
 30
0.0
 10
15.4810757335
 20
12.6050480667
 30
0.0
 10
15.5196394206
 20
12.5930012253
 30
0.0
 10
15.5579560407
 20
12.5802497599
 30
0.0
 10
15.5959857078
 20
12.5668069481
 30
0.0
 10
15.633688834
 20
12.5526867839
 30
0.0
 10
15.6710261702
 20
12.5379039638
 30
0.0
 10
15.7079588468
 20
12.5224738703
 30
0.0
 10
15.7444484208
 20
12.5064125697
 30
0.0
 10
15.7804569115
 20
12.4897367835
 30
0.0
 10
15.8159468384
 20
12.4724638692
 30
0.0
 10
15.8508812601
 20
12.4546118029
 30
0.0
 10
15.8852238121
 20
12.4361991587
 30
0.0
 10
15.918938753
 20
12.4172451024
 30
0.0
 10
15.9519909971
 20
12.3977693614
 30
0.0
 10
15.9843461473
 20
12.3777922006
 30
0.0
 10
16.0159705315
 20
12.3573344033
 30
0.0
 10
16.0468312365
 20
12.3364172465
 30
0.0
 10
16.0768961523
 20
12.315062491
 30
0.0
 10
16.1061339999
 20
12.2932923492
 30
0.0
 10
16.1345143593
 20
12.2711294587
 30
0.0
 10
16.162007701
 20
12.2485968601
 30
0.0
 10
16.1885854156
 20
12.2257179695
 30
0.0
 10
16.2142198544
 20
12.2025165657
 30
0.0
 10
16.2388843524
 20
12.1790167562
 30
0.0
 10
16.2625532487
 20
12.155242949
 30
0.0
 10
16.2852019132
 20
12.1312198286
 30
0.0
 10
16.3068067688
 20
12.1069723261
 30
0.0
 10
16.3273453291
 20
12.0825256045
 30
0.0
 10
16.3467962131
 20
12.0579050242
 30
0.0
 10
16.3651391582
 20
12.033136114
 30
0.0
 10
16.3823550397
 20
12.0082445471
 30
0.0
 10
16.3984258842
 20
11.9832561134
 30
0.0
 10
16.4133349058
 20
11.958196694
 30
0.0
 10
16.427066499
 20
11.9330922679
 30
0.0
 10
16.4396062945
 20
11.9079687465
 30
0.0
 10
16.4509409832
 20
11.8828524568
 30
0.0
 10
16.4594113353
 20
11.8618531306
 30
0.0
 10
16.4655642759
 20
11.8450864086
 30
0.0
 10
16.4712526426
 20
11.8284954211
 30
0.0
 10
16.4776016795
 20
11.8078048935
 30
0.0
 10
16.4829633986
 20
11.7870280233
 30
0.0
 10
16.4866175055
 20
11.7704818483
 30
0.0
 10
16.4898258573
 20
11.754117906
 30
0.0
 10
16.4930608691
 20
11.7337547032
 30
0.0
 10
16.4952634138
 20
11.713401922
 30
0.0
 10
16.4963858809
 20
11.6972373704
 30
0.0
 10
16.4969086513
 20
11.6852105807
 30
0.0
 10
16.4971149872
 20
11.6732438999
 30
0.0
 10
16.4970047759
 20
11.6613403653
 30
0.0
 10
16.4965780678
 20
11.6495031108
 30
0.0
 10
16.4958349755
 20
11.6377352217
 30
0.0
 10
16.4947756358
 20
11.6260397799
 30
0.0
 10
16.4934003888
 20
11.6144198373
 30
0.0
 10
16.4917095222
 20
11.6028784403
 30
0.0
 10
16.4897035089
 20
11.591418603
 30
0.0
 10
16.4873828779
 20
11.5800433293
 30
0.0
 10
16.484748176
 20
11.5687555763
 30
0.0
 10
16.4818001939
 20
11.5575583979
 30
0.0
 10
16.4796262094
 20
11.5501550138
 30
0.0
 10
16.4784876277
 20
11.5464705728
 30
0.0
  0
SPLINE
  5
30E
100
AcDbEntity
  8
LAYER_CHAMFER_FEAT
100
AcDbSpline
 62
7
  6
CONTINUOUS
 70
0
 71
3
 72
73
 73
69
 74
0
 42
0.0000001
 43
0.0000001
 44
0.0000000001
 40
0.0
 40
0.0
 40
0.0
 40
0.0
 40
0.0157581792
 40
0.0311478662
 40
0.0461653865
 40
0.0608098076
 40
0.0750831744
 40
0.0889907477
 40
0.1025411984
 40
0.1091868333
 40
0.1157481233
 40
0.1286249886
 40
0.1411931613
 40
0.153476711
 40
0.1655037221
 40
0.1773061992
 40
0.1889198182
 40
0.2003835286
 40
0.2117390192
 40
0.2230300435
 40
0.2343016134
 40
0.2455991253
 40
0.2569674642
 40
0.2684501305
 40
0.2800884619
 40
0.2919209738
 40
0.303982834
 40
0.3163054897
 40
0.3289164616
 40
0.3353382876
 40
0.3418406525
 40
0.3550947267
 40
0.368695621
 40
0.3826550997
 40
0.3969813384
 40
0.4116791079
 40
0.4267500149
 40
0.4421927334
 40
0.4580032103
 40
0.4741748572
 40
0.4906987764
 40
0.5075639536
 40
0.5247574178
 40
0.5422644052
 40
0.5600685393
 40
0.5781519764
 40
0.5964955284
 40
0.6150788047
 40
0.6338803525
 40
0.6528777713
 40
0.6720478185
 40
0.6913665366
 40
0.7108093655
 40
0.7303512427
 40
0.7499667068
 40
0.7696300104
 40
0.7893152193
 40
0.8089963099
 40
0.8286472768
 40
0.8482422338
 40
0.867755512
 40
0.8871617689
 40
0.9064360722
 40
0.9255540794
 40
0.9444920388
 40
0.9632267129
 40
0.981736926
 40
1.0
 40
1.0
 40
1.0
 40
1.0
 10
15.0010134068
 20
11.7028720256
 30
0.0
 10
14.9977015154
 20
11.7020931409
 30
0.0
 10
14.9911838241
 20
11.7004281243
 30
0.0
 10
14.9816319933
 20
11.6975709092
 30
0.0
 10
14.9724372056
 20
11.6943885711
 30
0.0
 10
14.9636176853
 20
11.6908872828
 30
0.0
 10
14.95519064
 20
11.6870737269
 30
0.0
 10
14.9471727799
 20
11.682955341
 30
0.0
 10
14.9408042831
 20
11.6792520286
 30
0.0
 10
14.9359345102
 20
11.676142841
 30
0.0
 10
14.9312747391
 20
11.6729792512
 30
0.0
 10
14.9257267896
 20
11.6688521919
 30
0.0
 10
14.9194947887
 20
11.6635986703
 30
0.0
 10
14.9137424659
 20
11.6580851777
 30
0.0
 10
14.9084815846
 20
11.6523224384
 30
0.0
 10
14.9037228337
 20
11.646321642
 30
0.0
 10
14.8994759993
 20
11.6400945732
 30
0.0
 10
14.8957498936
 20
11.6336535577
 30
0.0
 10
14.8925523157
 20
11.6270114671
 30
0.0
 10
14.8898899192
 20
11.6201817189
 30
0.0
 10
14.8877682103
 20
11.6131781933
 30
0.0
 10
14.8861915202
 20
11.6060151697
 30
0.0
 10
14.8851629688
 20
11.5987072598
 30
0.0
 10
14.8846844072
 20
11.591269335
 30
0.0
 10
14.884756513
 20
11.5837164344
 30
0.0
 10
14.8853788209
 20
11.5760637356
 30
0.0
 10
14.8865497449
 20
11.5683264527
 30
0.0
 10
14.8882665266
 20
11.5605200524
 30
0.0
 10
14.8901376666
 20
11.5540091809
 30
0.0
 10
14.8918976562
 20
11.5487838166
 30
0.0
 10
14.8938589855
 20
11.5434822815
 30
0.0
 10
14.8966500059
 20
11.5368386287
 30
0.0
 10
14.9005028943
 20
11.5289091053
 30
0.0
 10
14.9048730001
 20
11.5209872005
 30
0.0
 10
14.9097515612
 20
11.5130885212
 30
0.0
 10
14.9151289174
 20
11.5052283782
 30
0.0
 10
14.9209944393
 20
11.4974220872
 30
0.0
 10
14.9273365858
 20
11.4896848615
 30
0.0
 10
14.9341428983
 20
11.4820318058
 30
0.0
 10
14.9413999904
 20
11.4744778506
 30
0.0
 10
14.949093612
 20
11.4670377564
 30
0.0
 10
14.9572086739
 20
11.4597260829
 30
0.0
 10
14.9657292547
 20
11.4525571464
 30
0.0
 10
14.9746386212
 20
11.4455449749
 30
0.0
 10
14.9839192892
 20
11.4387033094
 30
0.0
 10
14.9935530542
 20
11.4320455758
 30
0.0
 10
15.0035210031
 20
11.4255848301
 30
0.0
 10
15.0138035591
 20
11.4193337385
 30
0.0
 10
15.0243805357
 20
11.4133045713
 30
0.0
 10
15.0352311723
 20
11.4075091789
 30
0.0
 10
15.0463341538
 20
11.401958931
 30
0.0
 10
15.0576676696
 20
11.3966647204
 30
0.0
 10
15.0692094621
 20
11.3916369501
 30
0.0
 10
15.080936865
 20
11.3868855091
 30
0.0
 10
15.0928268343
 20
11.3824197168
 30
0.0
 10
15.104856011
 20
11.3782483424
 30
0.0
 10
15.1170007669
 20
11.3743795901
 30
0.0
 10
15.1292372446
 20
11.3708210677
 30
0.0
 10
15.1415414001
 20
11.3675797511
 30
0.0
 10
15.1538890618
 20
11.3646620065
 30
0.0
 10
15.1662559766
 20
11.3620735789
 30
0.0
 10
15.1786178478
 20
11.3598195549
 30
0.0
 10
15.1909503954
 20
11.3579043435
 30
0.0
 10
15.2032294045
 20
11.3563317131
 30
0.0
 10
15.2154307041
 20
11.3551047817
 30
0.0
 10
15.2275305161
 20
11.3542258981
 30
0.0
 10
15.2395047612
 20
11.3536968825
 30
0.0
 10
15.2474447114
 20
11.3535772286
 30
0.0
 10
15.2513877744
 20
11.3535772286
 30
0.0
  0
ENDSEC
  0
SECTION
  2
OBJECTS
  0
DICTIONARY
  5
C
100
AcDbDictionary
280
0
281
1
  3
ACAD_GROUP
350
D
  3
ACAD_MLINESTYLE
350
17
  3
ACAD_LAYOUT
350
1A
  3
ACAD_PLOTSETTINGS
350
19
  3
ACAD_PLOTSTYLENAME
350
E
  0
DICTIONARY
  5
D
102
{ACAD_REACTORS
330
C
102
}
100
AcDbDictionary
280
0
281
1
  0
ACDBDICTIONARYWDFLT
  5
E
102
{ACAD_REACTORS
330
C
102
}
100
AcDbDictionary
281
1
  3
Normal
350
F
100
AcDbDictionaryWithDefault
340
F
  0
DICTIONARY
  5
17
102
{ACAD_REACTORS
330
C
102
}
100
AcDbDictionary
280
0
281
1
  3
Standard
350
18
  0
DICTIONARY
  5
19
102
{ACAD_REACTORS
330
C
102
}
100
AcDbDictionary
281
1
  0
DICTIONARY
  5
1A
102
{ACAD_REACTORS
330
C
102
}
100
AcDbDictionary
281
1
  3
Model
350
30F
  3
Layout1
350
310
  0
ACDBPLACEHOLDER
  5
F
102
{ACAD_REACTORS
330
E
102
}
  0
MLINESTYLE
  5
18
102
{ACAD_REACTORS
330
17
102
}
100
AcDbMlineStyle
  2
STANDARD
 70
0
  3

 62
256
 51
90.0
 52
90.0
 71
2
 49
0.5
 62
256
  6
BYLAYER
 49
-0.5
 62
256
  6
BYLAYER
  0
LAYOUT
  5
30F
102
{ACAD_REACTORS
330
1A
102
}
100
AcDbPlotSettings
  1

  2
none_device
  4
ANSI_C_(22.00_x_17.00_Inches)
  6

 40
0.0
 41
0.0
 42
0.0
 43
0.0
 44
558.8
 45
431.8
 46
0.0
 47
0.0
 48
0.0
 49
0.0
140
0.0
141
0.0
142
1.0
143
1.0
 70
1024
 72
0
 73
0
 74
0
  7

 75
0
147
1.0
148
0.0
149
0.0
100
AcDbLayout
  1
Model
 70
0
 71
0
 10
0.0
 20
0.0
 11
22.0
 21
17.0
 12
0.0
 22
0.0
 32
0.0
 14
0.0
 24
0.0
 34
0.0
 15
0.0
 25
0.0
 35
0.0
146
0.0
 13
0.0
 23
0.0
 33
0.0
 16
1.0
 26
0.0
 36
0.0
 17
0.0
 27
1.0
 37
0.0
 76
0
330
222
345
0
346
0
  0
LAYOUT
  5
310
102
{ACAD_REACTORS
330
1A
102
}
100
AcDbPlotSettings
  1

  2
none_device
  4
ANSI_C_(22.00_x_17.00_Inches)
  6

 40
0.0
 41
0.0
 42
0.0
 43
0.0
 44
558.8
 45
431.8
 46
0.0
 47
0.0
 48
0.0
 49
0.0
140
0.0
141
0.0
142
1.0
143
1.0
 70
0
 72
0
 73
0
 74
0
  7

 75
0
147
1.0
148
0.0
149
0.0
100
AcDbLayout
  1
Layout1
 70
0
 71
1
 10
0.0
 20
0.0
 11
22.0
 21
17.0
 12
0.0
 22
0.0
 32
0.0
 14
0.0
 24
0.0
 34
0.0
 15
0.0
 25
0.0
 35
0.0
146
0.0
 13
0.0
 23
0.0
 33
0.0
 16
1.0
 26
0.0
 36
0.0
 17
0.0
 27
1.0
 37
0.0
 76
0
330
223
345
0
346
0
  0
ENDSEC
  0
EOF