999
DXF file: _cgs_temp_output.dxf
999
Pro/ENGINEER 2016360 by Parametric Technology Corporation
  0
SECTION
  2
HEADER
  9
$ACADVER
  1
AC1021
  9
$DWGCODEPAGE
  3
ANSI_1252
  9
$EXTMAX
 10
22.0
 20
17.0
 30
0.0
  9
$EXTMIN
 10
0.0
 20
0.0
 30
0.0
  9
$LIMMIN
 10
0.0
 20
0.0
  9
$LIMMAX
 10
22.0
 20
17.0
  9
$VIEWCTR
 10
11.0
 20
8.5
  9
$VIEWSIZE
 40
17.0
  9
$CLAYER
  8
0
  9
$LTSCALE
 40
1.21
  9
$CELTYPE
  6
BYLAYER
  9
$DIMSCALE
 40
1.0
  9
$DIMASZ
 40
0.1875
  9
$DIMEXO
 40
0.0625
  9
$DIMDLI
 40
0.836
  9
$DIMEXE
 40
0.125
  9
$DIMCEN
 40
0.198
  9
$DIMLFAC
 40
1.0
  9
$DIMBLK
  1
_CLOSED
  9
$DIMALT
 70
0
  9
$DIMALTF
 40
25.4
  9
$DIMTXT
 40
0.15625
  9
$DIMTOL
 70
0
  9
$DIMLIM
 70
0
  9
$DIMTFAC
 40
1.0
  9
$DIMGAP
 40
0.09
  9
$DIMDSEP
 70
46
  9
$AUNITS
 70
0
  9
$PDMODE
 70
3
  9
$PDSIZE
 40
0.3125
  9
$HANDSEED
  5
35F
  9
$TILEMODE
 70
1
  9
$MEASUREMENT
 70
0
  9
$INSUNITS
 70
1
  0
ENDSEC
  0
SECTION
  2
CLASSES
  0
CLASS
  1
ACDBDICTIONARYWDFLT
  2
AcDbDictionaryWithDefault
  3
AutoCAD 2000
 90
0
 91
1
280
0
281
0
  0
CLASS
  1
ACDBPLACEHOLDER
  2
AcDbPlaceHolder
  3
AutoCAD 2000
 90
0
 91
1
280
0
281
0
  0
CLASS
  1
LAYOUT
  2
AcDbLayout
  3
AutoCAD 2000
 90
0
 91
0
280
0
281
0
  0
ENDSEC
  0
SECTION
  2
TABLES
  0
TABLE
  2
VPORT
  5
8
100
AcDbSymbolTable
 70
2
  0
VPORT
  5
1F4
100
AcDbSymbolTableRecord
100
AcDbViewportTableRecord
  2
*ACTIVE
 70
0
 10
0.0
 20
0.0
 11
1.0
 21
1.0
 12
11.0
 22
8.5
 13
0.0
 23
0.0
 14
1.0
 24
1.0
 15
0.0
 25
0.0
 16
0.0
 26
0.0
 36
1.0
 17
0.0
 27
0.0
 37
0.0
 40
17.0
 41
1.2941176471
 42
50.0
 43
0.0
 44
0.0
 50
0.0
 51
0.0
 71
0
 72
100
 73
1
 74
1
 75
0
 76
0
 77
0
 78
0
  0
ENDTAB
  0
TABLE
  2
LTYPE
  5
5
100
AcDbSymbolTable
 70
6
  0
LTYPE
  5
14
100
AcDbSymbolTableRecord
100
AcDbLinetypeTableRecord
  2
BYBLOCK
 70
0
  3

 72
65
 73
0
 40
0.0
  0
LTYPE
  5
15
100
AcDbSymbolTableRecord
100
AcDbLinetypeTableRecord
  2
BYLAYER
 70
0
  3

 72
65
 73
0
 40
0.0
  0
LTYPE
  5
16
100
AcDbSymbolTableRecord
100
AcDbLinetypeTableRecord
  2
CONTINUOUS
 70
64
  3
Solid line
 72
65
 73
0
 40
0.0
  0
LTYPE
  5
1F5
100
AcDbSymbolTableRecord
100
AcDbLinetypeTableRecord
  2
CENTER
 70
64
  3
____ _ ____ _ ____ _ ____ _ ____ _ ____ _ ____
 72
65
 73
4
 40
0.6
 49
0.375
 74
0
 49
-0.075
 74
0
 49
0.075
 74
0
 49
-0.075
 74
0
  0
LTYPE
  5
1F6
100
AcDbSymbolTableRecord
100
AcDbLinetypeTableRecord
  2
HIDDEN
 70
64
  3
- - - - - - - - - - - - - - - - - - - -
 72
65
 73
2
 40
0.2
 49
0.1
 74
0
 49
-0.1
 74
0
  0
LTYPE
  5
1F7
100
AcDbSymbolTableRecord
100
AcDbLinetypeTableRecord
  2
PHANTOM
 70
64
  3
_____ _ _ _____ _ _ _____ _ _ _____
 72
65
 73
6
 40
0.8
 49
0.45
 74
0
 49
-0.05
 74
0
 49
0.1
 74
0
 49
-0.05
 74
0
 49
0.1
 74
0
 49
-0.05
 74
0
  0
LTYPE
  5
1F8
100
AcDbSymbolTableRecord
100
AcDbLinetypeTableRecord
  2
DOT
 70
64
  3
. . . . . . . . . . . . . . . . . . . .
 72
65
 73
2
 40
0.2
 49
0.1
 74
0
 49
-0.1
 74
0
  0
LTYPE
  5
1F9
100
AcDbSymbolTableRecord
100
AcDbLinetypeTableRecord
  2
DASHED
 70
64
  3
- - - - - - - - - - - - - - - - - - - -
 72
65
 73
2
 40
0.2
 49
0.1
 74
0
 49
-0.1
 74
0
  0
ENDTAB
  0
TABLE
  2
LAYER
  5
2
100
AcDbSymbolTable
 70
36
  0
LAYER
  5
10
100
AcDbSymbolTableRecord
100
AcDbLayerTableRecord
  2
0
 70
0
 62
7
  6
CONTINUOUS
370
-3
390
F
  0
LAYER
  5
1FA
100
AcDbSymbolTableRecord
100
AcDbLayerTableRecord
  2
DEFAULT_1
 70
0
 62
7
  6
CENTER
370
-3
390
F
  0
LAYER
  5
1FB
100
AcDbSymbolTableRecord
100
AcDbLayerTableRecord
  2
DEFAULT_2
 70
0
 62
8
  6
HIDDEN
370
-3
390
F
  0
LAYER
  5
1FC
100
AcDbSymbolTableRecord
100
AcDbLayerTableRecord
  2
DEFAULT_3
 70
0
 62
7
  6
PHANTOM
370
-3
390
F
  0
LAYER
  5
1FD
100
AcDbSymbolTableRecord
100
AcDbLayerTableRecord
  2
01_ALL_DTM_PLN
 70
0
 62
7
  6
CONTINUOUS
370
-3
390
F
  0
LAYER
  5
1FE
100
AcDbSymbolTableRecord
100
AcDbLayerTableRecord
  2
01__ASM_ALL_DTM_PLN
 70
0
 62
7
  6
CONTINUOUS
370
-3
390
F
  0
LAYER
  5
1FF
100
AcDbSymbolTableRecord
100
AcDbLayerTableRecord
  2
01__ASM_DEF_DTM_PLN
 70
0
 62
7
  6
CONTINUOUS
370
-3
390
F
  0
LAYER
  5
200
100
AcDbSymbolTableRecord
100
AcDbLayerTableRecord
  2
01___PRT_ALL_DTM_PLN
 70
0
 62
7
  6
CONTINUOUS
370
-3
390
F
  0
LAYER
  5
201
100
AcDbSymbolTableRecord
100
AcDbLayerTableRecord
  2
01___PRT_DEF_DTM_PLN
 70
0
 62
7
  6
CONTINUOUS
370
-3
390
F
  0
LAYER
  5
202
100
AcDbSymbolTableRecord
100
AcDbLayerTableRecord
  2
02_ALL_AXES
 70
0
 62
7
  6
CONTINUOUS
370
-3
390
F
  0
LAYER
  5
203
100
AcDbSymbolTableRecord
100
AcDbLayerTableRecord
  2
02__ASM_ALL_AXES
 70
0
 62
7
  6
CONTINUOUS
370
-3
390
F
  0
LAYER
  5
204
100
AcDbSymbolTableRecord
100
AcDbLayerTableRecord
  2
02___PRT_ALL_AXES
 70
0
 62
7
  6
CONTINUOUS
370
-3
390
F
  0
LAYER
  5
205
100
AcDbSymbolTableRecord
100
AcDbLayerTableRecord
  2
03_ALL_CURVES
 70
0
 62
7
  6
CONTINUOUS
370
-3
390
F
  0
LAYER
  5
206
100
AcDbSymbolTableRecord
100
AcDbLayerTableRecord
  2
03__ASM_ALL_CURVES
 70
0
 62
7
  6
CONTINUOUS
370
-3
390
F
  0
LAYER
  5
207
100
AcDbSymbolTableRecord
100
AcDbLayerTableRecord
  2
03___PRT_ALL_CURVES
 70
0
 62
7
  6
CONTINUOUS
370
-3
390
F
  0
LAYER
  5
208
100
AcDbSymbolTableRecord
100
AcDbLayerTableRecord
  2
04_ALL_DTM_PNT
 70
0
 62
7
  6
CONTINUOUS
370
-3
390
F
  0
LAYER
  5
209
100
AcDbSymbolTableRecord
100
AcDbLayerTableRecord
  2
04__ASM_ALL_DTM_PNT
 70
0
 62
7
  6
CONTINUOUS
370
-3
390
F
  0
LAYER
  5
20A
100
AcDbSymbolTableRecord
100
AcDbLayerTableRecord
  2
04___PRT_ALL_DTM_PNT
 70
0
 62
7
  6
CONTINUOUS
370
-3
390
F
  0
LAYER
  5
20B
100
AcDbSymbolTableRecord
100
AcDbLayerTableRecord
  2
05_ALL_DTM_CSYS
 70
0
 62
7
  6
CONTINUOUS
370
-3
390
F
  0
LAYER
  5
20C
100
AcDbSymbolTableRecord
100
AcDbLayerTableRecord
  2
05__ASM_ALL_DTM_CSYS
 70
0
 62
7
  6
CONTINUOUS
370
-3
390
F
  0
LAYER
  5
20D
100
AcDbSymbolTableRecord
100
AcDbLayerTableRecord
  2
05__ASM_DEF_DTM_CSYS
 70
0
 62
7
  6
CONTINUOUS
370
-3
390
F
  0
LAYER
  5
20E
100
AcDbSymbolTableRecord
100
AcDbLayerTableRecord
  2
05___PRT_ALL_DTM_CSYS
 70
0
 62
7
  6
CONTINUOUS
370
-3
390
F
  0
LAYER
  5
20F
100
AcDbSymbolTableRecord
100
AcDbLayerTableRecord
  2
05___PRT_DEF_DTM_CSYS
 70
0
 62
7
  6
CONTINUOUS
370
-3
390
F
  0
LAYER
  5
210
100
AcDbSymbolTableRecord
100
AcDbLayerTableRecord
  2
06_ALL_SURFS
 70
0
 62
7
  6
CONTINUOUS
370
-3
390
F
  0
LAYER
  5
211
100
AcDbSymbolTableRecord
100
AcDbLayerTableRecord
  2
06__ASM_ALL_SURFS
 70
0
 62
7
  6
CONTINUOUS
370
-3
390
F
  0
LAYER
  5
212
100
AcDbSymbolTableRecord
100
AcDbLayerTableRecord
  2
06___PRT_ALL_SURFS
 70
0
 62
7
  6
CONTINUOUS
370
-3
390
F
  0
LAYER
  5
213
100
AcDbSymbolTableRecord
100
AcDbLayerTableRecord
  2
07__ASM_ALL_SKELETONS
 70
0
 62
7
  6
CONTINUOUS
370
-3
390
F
  0
LAYER
  5
214
100
AcDbSymbolTableRecord
100
AcDbLayerTableRecord
  2
LAYER_AXIS
 70
0
 62
7
  6
CONTINUOUS
370
-3
390
F
  0
LAYER
  5
215
100
AcDbSymbolTableRecord
100
AcDbLayerTableRecord
  2
LAYER_CHAMFER_FEAT
 70
0
 62
7
  6
CONTINUOUS
370
-3
390
F
  0
LAYER
  5
216
100
AcDbSymbolTableRecord
100
AcDbLayerTableRecord
  2
LAYER_CUT_FEAT
 70
0
 62
7
  6
CONTINUOUS
370
-3
390
F
  0
LAYER
  5
217
100
AcDbSymbolTableRecord
100
AcDbLayerTableRecord
  2
LAYER_DATUM
 70
0
 62
7
  6
CONTINUOUS
370
-3
390
F
  0
LAYER
  5
218
100
AcDbSymbolTableRecord
100
AcDbLayerTableRecord
  2
LAYER_DIM
 70
0
 62
7
  6
CONTINUOUS
370
-3
390
F
  0
LAYER
  5
219
100
AcDbSymbolTableRecord
100
AcDbLayerTableRecord
  2
LAYER_FEATURE
 70
0
 62
7
  6
CONTINUOUS
370
-3
390
F
  0
LAYER
  5
21A
100
AcDbSymbolTableRecord
100
AcDbLayerTableRecord
  2
LAYER_GEOM_FEAT
 70
0
 62
7
  6
CONTINUOUS
370
-3
390
F
  0
LAYER
  5
21B
100
AcDbSymbolTableRecord
100
AcDbLayerTableRecord
  2
LAYER_NOGEOM_FEAT
 70
0
 62
7
  6
CONTINUOUS
370
-3
390
F
  0
LAYER
  5
21C
100
AcDbSymbolTableRecord
100
AcDbLayerTableRecord
  2
LAYER_PARAMETER_DIM
 70
0
 62
7
  6
CONTINUOUS
370
-3
390
F
  0
LAYER
  5
21D
100
AcDbSymbolTableRecord
100
AcDbLayerTableRecord
  2
LAYER_PROTRUSION_FEAT
 70
0
 62
7
  6
CONTINUOUS
370
-3
390
F
  0
LAYER
  5
21E
100
AcDbSymbolTableRecord
100
AcDbLayerTableRecord
  2
LAYER_QUILT
 70
0
 62
7
  6
CONTINUOUS
370
-3
390
F
  0
LAYER
  5
21F
100
AcDbSymbolTableRecord
100
AcDbLayerTableRecord
  2
LAYER_ROUND_FEAT
 70
0
 62
7
  6
CONTINUOUS
370
-3
390
F
  0
ENDTAB
  0
TABLE
  2
STYLE
  5
3
100
AcDbSymbolTable
 70
1
  0
STYLE
  5
11
100
AcDbSymbolTableRecord
100
AcDbTextStyleTableRecord
  2
STANDARD
 70
0
 40
0.0
 41
0.8
 50
0.0
 71
0
 42
0.2
  3
txt
  4

  0
STYLE
  5
220
100
AcDbSymbolTableRecord
100
AcDbTextStyleTableRecord
  2
TEXTSTYLE_1
 70
0
 40
0.0
 41
0.8
 50
0.0
 71
0
 42
0.2
  3
gdt
  4

  0
ENDTAB
  0
TABLE
  2
VIEW
  5
6
100
AcDbSymbolTable
 70
0
  0
ENDTAB
  0
TABLE
  2
UCS
  5
7
100
AcDbSymbolTable
 70
0
  0
ENDTAB
  0
TABLE
  2
APPID
  5
9
100
AcDbSymbolTable
 70
1
  0
APPID
  5
221
100
AcDbSymbolTableRecord
100
AcDbRegAppTableRecord
  2
ACAD
 70
0
  0
ENDTAB
  0
TABLE
  2
BLOCK_RECORD
  5
1
100
AcDbSymbolTable
 70
0
  0
BLOCK_RECORD
  5
222
100
AcDbSymbolTableRecord
100
AcDbBlockTableRecord
  2
*Model_Space
  0
BLOCK_RECORD
  5
223
100
AcDbSymbolTableRecord
100
AcDbBlockTableRecord
  2
*Paper_Space
  0
ENDTAB
  0
TABLE
  2
DIMSTYLE
  5
A
100
AcDbSymbolTable
 70
1
100
AcDbDimStyleTable
 71
0
  0
DIMSTYLE
105
224
100
AcDbSymbolTableRecord
100
AcDbDimStyleTableRecord
  2
STANDARD
 70
0
  3

  4

 40
1.0
 41
0.1875
 42
0.0625
 43
0.38
 44
0.125
 45
0.0
 46
0.0
 47
0.0001
 48
0.0001
140
0.15625
141
0.09
142
0.0
143
25.4
144
1.0
145
0.0
146
1.0
147
0.09
 71
0.0
 72
0.0
 73
1
 74
1
 75
0
 76
0
 77
0
 78
4
 79
1
170
0
171
3
172
0
173
0
174
0
175
0
176
0
177
0
178
0
270
2
179
4
271
4
272
4
273
2
274
2
275
0
280
0
281
0
282
0
283
1
284
4
285
0
286
0
287
3
288
0
340
11
278
46
  0
ENDTAB
  0
ENDSEC
  0
SECTION
  2
BLOCKS
  0
BLOCK
  5
20
100
AcDbEntity
  8
0
100
AcDbBlockBegin
  2
*Model_Space
 70
0
 10
0.0
 20
0.0
 30
0.0
  3
*Model_Space
  1

  0
ENDBLK
  5
21
100
AcDbEntity
  8
0
100
AcDbBlockEnd
  0
BLOCK
  5
1C
100
AcDbEntity
  8
0
100
AcDbBlockBegin
  2
*Paper_Space
 70
0
 10
0.0
 20
0.0
 30
0.0
  3
*Paper_Space
  1

  0
ENDBLK
  5
1D
100
AcDbEntity
  8
0
100
AcDbBlockEnd
  0
ENDSEC
  0
SECTION
  2
ENTITIES
  0
MTEXT
  5
225
100
AcDbEntity
  8
0
100
AcDbMText
 62
7
  6
CONTINUOUS
  7
STANDARD
 71
1
 72
1
 10
15.9560215477
 20
0.9479130325
 30
0.0
 11
1.0
 21
0.0
 31
0.0
 44
0.9
  1
SCALE: 1:0.143
 40
0.3
 41
3.36
  0
LINE
  5
226
100
AcDbEntity
  8
0
100
AcDbLine
 62
7
  6
CONTINUOUS
 10
0.0
 20
0.0
 11
0.0
 21
17.0
  0
LINE
  5
227
100
AcDbEntity
  8
0
100
AcDbLine
 62
7
  6
CONTINUOUS
 10
0.0
 20
0.0
 11
22.0
 21
0.0
  0
LINE
  5
228
100
AcDbEntity
  8
0
100
AcDbLine
 62
7
  6
CONTINUOUS
 10
0.0
 20
17.0
 11
22.0
 21
17.0
  0
LINE
  5
229
100
AcDbEntity
  8
0
100
AcDbLine
 62
7
  6
CONTINUOUS
 10
22.0
 20
0.0
 11
22.0
 21
17.0
  0
LINE
  5
22A
100
AcDbEntity
  8
02___PRT_ALL_AXES
100
AcDbLine
 62
7
  6
CONTINUOUS
 10
5.8617958476
 20
4.149093969
 11
6.3989387047
 21
4.149093969
  0
LINE
  5
22B
100
AcDbEntity
  8
LAYER_CUT_FEAT
100
AcDbLine
 62
7
  6
CONTINUOUS
 10
5.8617958476
 20
4.1490940112
 11
5.8617958476
 21
6.8910810545
  0
LINE
  5
22C
100
AcDbEntity
  8
LAYER_CUT_FEAT
100
AcDbLine
 62
7
  6
CONTINUOUS
 10
6.3989387047
 20
6.8910810545
 11
6.3989387047
 21
4.1490940112
  0
LINE
  5
22D
100
AcDbEntity
  8
LAYER_CUT_FEAT
100
AcDbLine
 62
7
  6
CONTINUOUS
 10
5.8617958476
 20
6.8824540033
 11
6.3989387047
 21
6.8824540033
  0
LINE
  5
22E
100
AcDbEntity
  8
LAYER_CUT_FEAT
100
AcDbLine
 62
7
  6
CONTINUOUS
 10
5.8617958476
 20
6.8824801433
 11
6.3989387047
 21
6.8824801433
  0
LINE
  5
22F
100
AcDbEntity
  8
LAYER_CUT_FEAT
100
AcDbLine
 62
7
  6
CONTINUOUS
 10
5.8617958476
 20
6.8865054386
 11
6.3989387047
 21
6.8865054386
  0
LINE
  5
230
100
AcDbEntity
  8
LAYER_CUT_FEAT
100
AcDbLine
 62
7
  6
CONTINUOUS
 10
5.8617958476
 20
6.8867941341
 11
6.3989387047
 21
6.8867941341
  0
LINE
  5
231
100
AcDbEntity
  8
LAYER_CUT_FEAT
100
AcDbLine
 62
7
  6
CONTINUOUS
 10
5.8617958476
 20
6.8868057571
 11
6.3989387047
 21
6.8868057571
  0
LINE
  5
232
100
AcDbEntity
  8
LAYER_CUT_FEAT
100
AcDbLine
 62
7
  6
CONTINUOUS
 10
5.8617958476
 20
6.8894975036
 11
6.3989387047
 21
6.8894975036
  0
LINE
  5
233
100
AcDbEntity
  8
LAYER_CUT_FEAT
100
AcDbLine
 62
7
  6
CONTINUOUS
 10
5.8617958476
 20
6.8896708447
 11
6.3989387047
 21
6.8896708447
  0
LINE
  5
234
100
AcDbEntity
  8
LAYER_CUT_FEAT
100
AcDbLine
 62
7
  6
CONTINUOUS
 10
5.8617958476
 20
6.8910232535
 11
6.3989387047
 21
6.8910232535
  0
LINE
  5
235
100
AcDbEntity
  8
LAYER_CUT_FEAT
100
AcDbLine
 62
7
  6
CONTINUOUS
 10
5.8617958476
 20
6.8910810545
 11
6.3989387047
 21
6.8910810545
  0
LINE
  5
236
100
AcDbEntity
  8
02___PRT_ALL_AXES
100
AcDbLine
 62
7
  6
CONTINUOUS
 10
5.8023006553
 20
11.2290120668
 11
6.3394435124
 21
11.2290120668
  0
LINE
  5
237
100
AcDbEntity
  8
LAYER_CUT_FEAT
100
AcDbLine
 62
7
  6
CONTINUOUS
 10
5.8023006553
 20
11.2290120932
 11
5.8023006553
 21
13.9711548664
  0
LINE
  5
238
100
AcDbEntity
  8
LAYER_CUT_FEAT
100
AcDbLine
 62
7
  6
CONTINUOUS
 10
5.8023006553
 20
12.4451428065
 11
6.3394435124
 21
12.4451428065
  0
LINE
  5
239
100
AcDbEntity
  8
LAYER_CUT_FEAT
100
AcDbLine
 62
7
  6
CONTINUOUS
 10
5.8023006553
 20
12.4862777197
 11
6.3394435124
 21
12.4862777197
  0
LINE
  5
23A
100
AcDbEntity
  8
LAYER_CUT_FEAT
100
AcDbLine
 62
7
  6
CONTINUOUS
 10
5.8023006553
 20
12.4897985974
 11
6.3394435124
 21
12.4897985974
  0
LINE
  5
23B
100
AcDbEntity
  8
LAYER_CUT_FEAT
100
AcDbLine
 62
7
  6
CONTINUOUS
 10
5.8023006553
 20
12.5310440457
 11
6.3394435124
 21
12.5310440457
  0
LINE
  5
23C
100
AcDbEntity
  8
LAYER_CUT_FEAT
100
AcDbLine
 62
7
  6
CONTINUOUS
 10
5.8023006553
 20
12.5345724842
 11
6.3394435124
 21
12.5345724842
  0
LINE
  5
23D
100
AcDbEntity
  8
LAYER_CUT_FEAT
100
AcDbLine
 62
7
  6
CONTINUOUS
 10
5.8023006553
 20
12.5758843008
 11
6.3394435124
 21
12.5758843008
  0
LINE
  5
23E
100
AcDbEntity
  8
LAYER_CUT_FEAT
100
AcDbLine
 62
7
  6
CONTINUOUS
 10
5.8023006553
 20
12.5794165217
 11
6.3394435124
 21
12.5794165217
  0
LINE
  5
23F
100
AcDbEntity
  8
LAYER_CUT_FEAT
100
AcDbLine
 62
7
  6
CONTINUOUS
 10
5.8023006553
 20
12.6207504691
 11
6.3394435124
 21
12.6207504691
  0
LINE
  5
240
100
AcDbEntity
  8
LAYER_CUT_FEAT
100
AcDbLine
 62
7
  6
CONTINUOUS
 10
6.3394435124
 20
11.2290120932
 11
6.3394435124
 21
13.9711548664
  0
LINE
  5
241
100
AcDbEntity
  8
02___PRT_ALL_AXES
100
AcDbLine
 62
7
  6
CONTINUOUS
 10
5.8023006553
 20
13.971154924
 11
6.3394435124
 21
13.971154924
  0
LINE
  5
242
100
AcDbEntity
  8
LAYER_FEATURE
100
AcDbLine
 62
7
  6
CONTINUOUS
 10
15.4646355817
 20
6.6232324212
 11
15.4439641327
 21
6.3869566775
  0
LINE
  5
243
100
AcDbEntity
  8
LAYER_FEATURE
100
AcDbLine
 62
7
  6
CONTINUOUS
 10
15.2848849601
 20
4.5686734142
 11
15.264213511
 21
4.3323976705
  0
LINE
  5
244
100
AcDbEntity
  8
LAYER_FEATURE
100
AcDbLine
 62
7
  6
CONTINUOUS
 10
16.5193216889
 20
6.1248779129
 11
16.3043651679
 21
6.0246420411
  0
LINE
  5
245
100
AcDbEntity
  8
LAYER_FEATURE
100
AcDbLine
 62
7
  6
CONTINUOUS
 10
14.6501460844
 20
5.2532670141
 11
14.4351895635
 21
5.1530311423
  0
LINE
  5
246
100
AcDbEntity
  8
LAYER_FEATURE
100
AcDbLine
 62
7
  6
CONTINUOUS
 10
14.5057048639
 20
5.9590247136
 11
14.6999899357
 21
5.8229848417
  0
LINE
  5
247
100
AcDbEntity
  8
LAYER_FEATURE
100
AcDbLine
 62
7
  6
CONTINUOUS
 10
16.1951298467
 20
4.7760766054
 11
16.3894149185
 21
4.6400367335
  0
LINE
  5
248
100
AcDbEntity
  8
LAYER_FEATURE
100
AcDbLine
 62
7
  6
CONTINUOUS
 10
15.6561463603
 20
4.2981079893
 11
15.6768178093
 21
4.5343837331
  0
LINE
  5
249
100
AcDbEntity
  8
LAYER_FEATURE
100
AcDbLine
 62
7
  6
CONTINUOUS
 10
15.8358969819
 20
6.3526669963
 11
15.856568431
 21
6.5889427401
  0
LINE
  5
24A
100
AcDbEntity
  8
LAYER_FEATURE
100
AcDbLine
 62
7
  6
CONTINUOUS
 10
14.6014602531
 20
4.7964624976
 11
14.816416774
 21
4.8966983695
  0
LINE
  5
24B
100
AcDbEntity
  8
LAYER_FEATURE
100
AcDbLine
 62
7
  6
CONTINUOUS
 10
16.4706358576
 20
5.6680733964
 11
16.6855923785
 21
5.7683092683
  0
LINE
  5
24C
100
AcDbEntity
  8
LAYER_FEATURE
100
AcDbLine
 62
7
  6
CONTINUOUS
 10
16.6150770781
 20
4.962315697
 11
16.4207920063
 21
5.0983555688
  0
LINE
  5
24D
100
AcDbEntity
  8
LAYER_FEATURE
100
AcDbLine
 62
7
  6
CONTINUOUS
 10
14.9256520953
 20
6.1452638052
 11
14.7313670235
 21
6.281303677
  0
LINE
  5
24E
100
AcDbEntity
  8
02___PRT_ALL_AXES
100
AcDbLine
 62
7
  6
CONTINUOUS
 10
15.2237580962
 20
11.1397852302
 11
15.7184994302
 21
11.1397852302
  0
LINE
  5
24F
100
AcDbEntity
  8
LAYER_CUT_FEAT
100
AcDbLine
 62
7
  6
CONTINUOUS
 10
15.6931044628
 20
12.0108566587
 11
15.569155969
 21
12.0108566587
  0
LINE
  5
250
100
AcDbEntity
  8
LAYER_CUT_FEAT
100
AcDbLine
 62
7
  6
CONTINUOUS
 10
15.7064463491
 20
12.1539495362
 11
15.6889438535
 21
12.1552423985
  0
LINE
  5
251
100
AcDbEntity
  8
LAYER_FEATURE
100
AcDbLine
 62
7
  6
CONTINUOUS
 10
15.4229000711
 20
13.4319778932
 11
15.4371246308
 21
13.5849049522
  0
LINE
  5
252
100
AcDbEntity
  8
LAYER_FEATURE
100
AcDbLine
 62
7
  6
CONTINUOUS
 10
15.8234022415
 20
13.0057649296
 11
15.8327485497
 21
13.0129044321
  0
LINE
  5
253
100
AcDbEntity
  8
LAYER_FEATURE
100
AcDbLine
 62
7
  6
CONTINUOUS
 10
15.6838061505
 20
11.6077629513
 11
15.6551441955
 21
11.6774471589
  0
LINE
  5
254
100
AcDbEntity
  8
LAYER_FEATURE
100
AcDbLine
 62
7
  6
CONTINUOUS
 10
15.4965840567
 20
11.3590465799
 11
15.5180416539
 21
11.5897354243
  0
LINE
  5
255
100
AcDbEntity
  8
LAYER_FEATURE
100
AcDbLine
 62
7
  6
CONTINUOUS
 10
15.6831707075
 20
13.3650241529
 11
15.7046283047
 21
13.5957129972
  0
LINE
  5
256
100
AcDbEntity
  8
LAYER_FEATURE
100
AcDbLine
 62
7
  6
CONTINUOUS
 10
15.8889665804
 20
12.6052298001
 11
15.9665224981
 21
12.6644735847
  0
LINE
  5
257
100
AcDbEntity
  8
LAYER_FEATURE
100
AcDbLine
 62
7
  6
CONTINUOUS
 10
15.9074206492
 20
11.8329486481
 11
15.8403505169
 21
11.996012508
  0
LINE
  5
258
100
AcDbEntity
  8
LAYER_FEATURE
100
AcDbLine
 62
7
  6
CONTINUOUS
 10
15.3242057067
 20
13.2508865063
 11
15.3126692187
 21
13.2789345241
  0
LWPOLYLINE
  5
259
100
AcDbEntity
  8
LAYER_FEATURE
100
AcDbPolyline
 62
7
  6
CONTINUOUS
 90
9
 70
0
 10
15.6863209591
 20
11.5295021069
 10
15.6858120888
 20
11.5275501533
 10
15.6852127746
 20
11.5255509855
 10
15.6846539634
 20
11.5239059529
 10
15.6841624826
 20
11.5226056374
 10
15.6837670373
 20
11.5216534973
 10
15.6834826037
 20
11.5210248257
 10
15.6833254614
 20
11.5207032198
 10
15.6832931418
 20
11.5206410278
  0
LINE
  5
25A
100
AcDbEntity
  8
LAYER_CHAMFER_FEAT
100
AcDbLine
 62
7
  6
CONTINUOUS
 10
15.782233938
 20
12.065899603
 11
15.7754261799
 21
12.0577435674
  0
LINE
  5
25B
100
AcDbEntity
  8
LAYER_CUT_FEAT
100
AcDbLine
 62
7
  6
CONTINUOUS
 10
15.6931044628
 20
13.0108566587
 11
15.569155969
 21
13.0108566587
  0
LINE
  5
25C
100
AcDbEntity
  8
LAYER_CHAMFER_FEAT
100
AcDbLine
 62
7
  6
CONTINUOUS
 10
15.782233938
 20
12.9558137144
 11
15.7754261799
 21
12.9639697501
  0
LWPOLYLINE
  5
25D
100
AcDbEntity
  8
LAYER_FEATURE
100
AcDbPolyline
 62
7
  6
CONTINUOUS
 90
8
 70
0
 10
15.8246473568
 20
13.0752827047
 10
15.8251642768
 20
13.0725613781
 10
15.8257602737
 20
13.0690378883
 10
15.8262965082
 20
13.0653783609
 10
15.8267628126
 20
13.0616064488
 10
15.8271468225
 20
13.0577495455
 10
15.8274357474
 20
13.0538168846
 10
15.8275888796
 20
13.0505607699
  0
LINE
  5
25E
100
AcDbEntity
  8
LAYER_CUT_FEAT
100
AcDbLine
 62
7
  6
CONTINUOUS
 10
15.2711468954
 20
13.2373170016
 11
15.2721101949
 21
13.2374362603
  0
LINE
  5
25F
100
AcDbEntity
  8
LAYER_CUT_FEAT
100
AcDbLine
 62
7
  6
CONTINUOUS
 10
14.7706971142
 20
13.2362996247
 11
15.2654384481
 21
13.2362996247
  0
LINE
  5
260
100
AcDbEntity
  8
LAYER_CUT_FEAT
100
AcDbLine
 62
7
  6
CONTINUOUS
 10
14.7724738837
 20
13.2387867937
 11
15.2672152176
 21
13.2387867937
  0
LINE
  5
261
100
AcDbEntity
  8
LAYER_FEATURE
100
AcDbLine
 62
7
  6
CONTINUOUS
 10
15.6891587872
 20
13.3049023397
 11
15.6887198799
 21
13.3054773731
  0
LINE
  5
262
100
AcDbEntity
  8
LAYER_FEATURE
100
AcDbLine
 62
7
  6
CONTINUOUS
 10
15.6891143286
 20
13.304809761
 11
15.6886821631
 21
13.3053987057
  0
LINE
  5
263
100
AcDbEntity
  8
LAYER_CUT_FEAT
100
AcDbLine
 62
7
  6
CONTINUOUS
 10
15.2809701796
 20
13.2745010548
 11
15.2816068466
 21
13.2745530403
  0
LINE
  5
264
100
AcDbEntity
  8
LAYER_CUT_FEAT
100
AcDbLine
 62
7
  6
CONTINUOUS
 10
15.2912619811
 20
13.3108398468
 11
15.2915713339
 21
13.310852035
  0
LINE
  5
265
100
AcDbEntity
  8
LAYER_CUT_FEAT
100
AcDbLine
 62
7
  6
CONTINUOUS
 10
14.779418634
 20
13.2710401216
 11
15.2741599679
 21
13.2710401216
  0
LINE
  5
266
100
AcDbEntity
  8
LAYER_CUT_FEAT
100
AcDbLine
 62
7
  6
CONTINUOUS
 10
14.7801828557
 20
13.273977576
 11
15.2749241896
 21
13.273977576
  0
LINE
  5
267
100
AcDbEntity
  8
LAYER_CUT_FEAT
100
AcDbLine
 62
7
  6
CONTINUOUS
 10
14.7819211963
 20
13.276317035
 11
15.2766625302
 21
13.276317035
  0
LINE
  5
268
100
AcDbEntity
  8
LAYER_CUT_FEAT
100
AcDbLine
 62
7
  6
CONTINUOUS
 10
14.7893423488
 20
13.3079666869
 11
15.2840836827
 21
13.3079666869
  0
LINE
  5
269
100
AcDbEntity
  8
LAYER_CUT_FEAT
100
AcDbLine
 62
7
  6
CONTINUOUS
 10
14.7901435886
 20
13.3108383583
 11
15.2848849226
 21
13.3108383583
  0
LINE
  5
26A
100
AcDbEntity
  8
LAYER_CUT_FEAT
100
AcDbLine
 62
7
  6
CONTINUOUS
 10
14.7918416389
 20
13.3130334152
 11
15.2865829728
 21
13.3130334152
  0
LINE
  5
26B
100
AcDbEntity
  8
LAYER_CUT_FEAT
100
AcDbLine
 62
7
  6
CONTINUOUS
 10
14.7997312469
 20
13.3440396868
 11
15.2944725808
 21
13.3440396868
  0
LINE
  5
26C
100
AcDbEntity
  8
LAYER_CUT_FEAT
100
AcDbLine
 62
7
  6
CONTINUOUS
 10
14.8005686469
 20
13.3468425001
 11
15.2953099808
 21
13.3468425001
  0
LINE
  5
26D
100
AcDbEntity
  8
LAYER_CUT_FEAT
100
AcDbLine
 62
7
  6
CONTINUOUS
 10
14.8022245885
 20
13.3488966174
 11
15.2969659224
 21
13.3488966174
  0
LINE
  5
26E
100
AcDbEntity
  8
LAYER_CUT_FEAT
100
AcDbLine
 62
7
  6
CONTINUOUS
 10
14.8105742036
 20
13.3792204934
 11
15.3053155375
 21
13.3792204934
  0
LINE
  5
26F
100
AcDbEntity
  8
LAYER_CUT_FEAT
100
AcDbLine
 62
7
  6
CONTINUOUS
 10
15.4688261107
 20
13.4304995159
 11
15.4721156143
 21
13.4304995159
  0
LINE
  5
270
100
AcDbEntity
  8
LAYER_FEATURE
100
AcDbLine
 62
7
  6
CONTINUOUS
 10
15.474058239
 20
13.4304906858
 11
15.4734080669
 21
13.4304956073
  0
LINE
  5
271
100
AcDbEntity
  8
02___PRT_ALL_AXES
100
AcDbLine
 62
7
  6
CONTINUOUS
 10
15.2237580962
 20
13.8819280873
 11
15.7184994302
 21
13.8819280873
  0
ARC
  5
272
100
AcDbEntity
  8
LAYER_CUT_FEAT
100
AcDbCircle
 62
7
  6
CONTINUOUS
 10
15.3207338332
 20
5.2124979742
 40
0.0357142857
100
AcDbArc
 50
123.4099725314
 51
328.5900274686
  0
ARC
  5
273
100
AcDbEntity
  8
LAYER_CUT_FEAT
100
AcDbCircle
 62
7
  6
CONTINUOUS
 10
15.5303222397
 20
5.1169830344
 40
0.0357142857
100
AcDbArc
 50
132.963629888
 51
37.036370112
  0
ARC
  5
274
100
AcDbEntity
  8
LAYER_FEATURE
100
AcDbCircle
 62
7
  6
CONTINUOUS
 10
14.6425993297
 20
5.2694510817
 40
0.0178571429
100
AcDbArc
 50
295.0
 51
11.7690387087
  0
ARC
  5
275
100
AcDbEntity
  8
LAYER_FEATURE
100
AcDbCircle
 62
7
  6
CONTINUOUS
 10
14.4276428088
 20
5.1692152099
 40
0.0178571429
100
AcDbArc
 50
194.4291655085
 51
295.0
  0
ARC
  5
276
100
AcDbEntity
  8
LAYER_FEATURE
100
AcDbCircle
 62
7
  6
CONTINUOUS
 10
15.267095769
 20
4.5702297668
 40
0.0178571429
100
AcDbArc
 50
355.0
 51
71.7690387087
  0
ARC
  5
277
100
AcDbEntity
  8
LAYER_FEATURE
100
AcDbCircle
 62
7
  6
CONTINUOUS
 10
15.24642432
 20
4.333954023
 40
0.0178571429
100
AcDbArc
 50
254.4291655085
 51
355.0
  0
ARC
  5
278
100
AcDbEntity
  8
LAYER_FEATURE
100
AcDbCircle
 62
7
  6
CONTINUOUS
 10
14.6090070078
 20
4.78027843
 40
0.0178571429
100
AcDbArc
 50
115.0
 51
215.5708344915
  0
ARC
  5
279
100
AcDbEntity
  8
LAYER_FEATURE
100
AcDbCircle
 62
7
  6
CONTINUOUS
 10
14.8239635287
 20
4.8805143019
 40
0.0178571429
100
AcDbArc
 50
38.2309612913
 51
115.0
  0
ARC
  5
27A
100
AcDbEntity
  8
LAYER_FEATURE
100
AcDbCircle
 62
7
  6
CONTINUOUS
 10
14.9358945317
 20
6.1598915202
 40
0.0178571429
100
AcDbArc
 50
235.0
 51
311.7690387087
  0
ARC
  5
27B
100
AcDbEntity
  8
LAYER_FEATURE
100
AcDbCircle
 62
7
  6
CONTINUOUS
 10
14.7416094598
 20
6.2959313921
 40
0.0178571429
100
AcDbArc
 50
134.4291655085
 51
235.0
  0
ARC
  5
27C
100
AcDbEntity
  8
LAYER_FEATURE
100
AcDbCircle
 62
7
  6
CONTINUOUS
 10
14.6897474993
 20
5.8083571266
 40
0.0178571429
100
AcDbArc
 50
338.2309612913
 51
55.0
  0
ARC
  5
27D
100
AcDbEntity
  8
LAYER_FEATURE
100
AcDbCircle
 62
7
  6
CONTINUOUS
 10
14.4954624275
 20
5.9443969985
 40
0.0178571429
100
AcDbArc
 50
55.0
 51
155.5708344915
  0
ARC
  5
27E
100
AcDbEntity
  8
LAYER_CUT_FEAT
100
AcDbCircle
 62
7
  6
CONTINUOUS
 10
15.2777835157
 20
5.6585540758
 40
0.0357142857
100
AcDbArc
 50
12.963629888
 51
277.036370112
  0
ARC
  5
27F
100
AcDbEntity
  8
LAYER_CUT_FEAT
100
AcDbCircle
 62
7
  6
CONTINUOUS
 10
15.1449830865
 20
6.9000175554
 40
0.3067142857
100
AcDbArc
 50
344.7662641238
 51
345.4515700331
  0
ARC
  5
280
100
AcDbEntity
  8
LAYER_CUT_FEAT
100
AcDbCircle
 62
7
  6
CONTINUOUS
 10
15.1922996263
 20
6.9128386758
 40
0.3067142857
100
AcDbArc
 50
342.8912641238
 51
343.5765700331
  0
ARC
  5
281
100
AcDbEntity
  8
LAYER_CUT_FEAT
100
AcDbCircle
 62
7
  6
CONTINUOUS
 10
15.2400103274
 20
6.9241047778
 40
0.3067142857
100
AcDbArc
 50
341.0162641238
 51
341.7015700331
  0
ARC
  5
282
100
AcDbEntity
  8
LAYER_CUT_FEAT
100
AcDbCircle
 62
7
  6
CONTINUOUS
 10
15.2880641002
 20
6.9338037974
 40
0.3067142857
100
AcDbArc
 50
339.1412641238
 51
339.8265700331
  0
ARC
  5
283
100
AcDbEntity
  8
LAYER_CUT_FEAT
100
AcDbCircle
 62
7
  6
CONTINUOUS
 10
15.4355020348
 20
6.8280927619
 40
0.0257142857
100
AcDbArc
 50
206.4837358762
 51
223.954131076
  0
ARC
  5
284
100
AcDbEntity
  8
LAYER_CUT_FEAT
100
AcDbCircle
 62
7
  6
CONTINUOUS
 10
15.4161092944
 20
6.8261827437
 40
0.0257142857
100
AcDbArc
 50
327.295868924
 51
344.7662641238
  0
ARC
  5
285
100
AcDbEntity
  8
LAYER_CUT_FEAT
100
AcDbCircle
 62
7
  6
CONTINUOUS
 10
15.4803097138
 20
6.8314468782
 40
0.0257142857
100
AcDbArc
 50
204.6087358762
 51
222.079131076
  0
ARC
  5
286
100
AcDbEntity
  8
LAYER_CUT_FEAT
100
AcDbCircle
 62
7
  6
CONTINUOUS
 10
15.4608648624
 20
6.8301723953
 40
0.0257142857
100
AcDbArc
 50
325.420868924
 51
342.8912641238
  0
ARC
  5
287
100
AcDbEntity
  8
LAYER_CUT_FEAT
100
AcDbCircle
 62
7
  6
CONTINUOUS
 10
15.5252031458
 20
6.8333331325
 40
0.0257142857
100
AcDbArc
 50
202.7337358762
 51
220.204131076
  0
ARC
  5
288
100
AcDbEntity
  8
LAYER_CUT_FEAT
100
AcDbCircle
 62
7
  6
CONTINUOUS
 10
15.5057270056
 20
6.8326955497
 40
0.0257142857
100
AcDbArc
 50
323.545868924
 51
341.0162641238
  0
ARC
  5
289
100
AcDbEntity
  8
LAYER_CUT_FEAT
100
AcDbCircle
 62
7
  6
CONTINUOUS
 10
15.5506476842
 20
6.833749505
 40
0.0257142857
100
AcDbArc
 50
321.670868924
 51
339.1412641238
  0
ARC
  5
28A
100
AcDbEntity
  8
LAYER_CUT_FEAT
100
AcDbCircle
 62
7
  6
CONTINUOUS
 10
15.5154816872
 20
6.8325069111
 40
0.019
100
AcDbArc
 50
245.0589332668
 51
298.6910667332
  0
ARC
  5
28B
100
AcDbEntity
  8
LAYER_CUT_FEAT
100
AcDbCircle
 62
7
  6
CONTINUOUS
 10
15.4706204934
 20
6.8303030219
 40
0.019
100
AcDbArc
 50
246.9339332668
 51
300.5660667332
  0
ARC
  5
28C
100
AcDbEntity
  8
LAYER_CUT_FEAT
100
AcDbCircle
 62
7
  6
CONTINUOUS
 10
15.4258554281
 20
6.8266324957
 40
0.019
100
AcDbArc
 50
248.8089332668
 51
302.4410667332
  0
ARC
  5
28D
100
AcDbEntity
  8
LAYER_FEATURE
100
AcDbCircle
 62
7
  6
CONTINUOUS
 10
15.4261749416
 20
6.38851303
 40
0.0178571429
100
AcDbArc
 50
278.2309612913
 51
355.0
  0
ARC
  5
28E
100
AcDbEntity
  8
LAYER_FEATURE
100
AcDbCircle
 62
7
  6
CONTINUOUS
 10
15.4468463907
 20
6.6247887738
 40
0.0178571429
100
AcDbArc
 50
355.0
 51
95.5708344915
  0
ARC
  5
28F
100
AcDbEntity
  8
LAYER_CUT_FEAT
100
AcDbCircle
 62
7
  6
CONTINUOUS
 10
15.4210012788
 20
6.8141119619
 40
0.0055714286
100
AcDbArc
 50
223.954131076
 51
248.8089332668
  0
ARC
  5
290
100
AcDbEntity
  8
LAYER_CUT_FEAT
100
AcDbCircle
 62
7
  6
CONTINUOUS
 10
15.4330589412
 20
6.815299538
 40
0.0055714286
100
AcDbArc
 50
302.4410667332
 51
327.295868924
  0
ARC
  5
291
100
AcDbEntity
  8
LAYER_CUT_FEAT
100
AcDbCircle
 62
7
  6
CONTINUOUS
 10
15.4653592827
 20
6.8179480151
 40
0.0055714286
100
AcDbArc
 50
222.079131076
 51
246.9339332668
  0
ARC
  5
292
100
AcDbEntity
  8
LAYER_CUT_FEAT
100
AcDbCircle
 62
7
  6
CONTINUOUS
 10
15.4774493457
 20
6.8187404397
 40
0.0055714286
100
AcDbArc
 50
300.5660667332
 51
325.420868924
  0
ARC
  5
293
100
AcDbEntity
  8
LAYER_CUT_FEAT
100
AcDbCircle
 62
7
  6
CONTINUOUS
 10
15.5098190489
 20
6.8203306613
 40
0.0055714286
100
AcDbArc
 50
220.204131076
 51
245.0589332668
  0
ARC
  5
294
100
AcDbEntity
  8
LAYER_CUT_FEAT
100
AcDbCircle
 62
7
  6
CONTINUOUS
 10
15.5219285662
 20
6.8207270858
 40
0.0055714286
100
AcDbArc
 50
298.6910667332
 51
323.545868924
  0
ARC
  5
295
100
AcDbEntity
  8
LAYER_CUT_FEAT
100
AcDbCircle
 62
7
  6
CONTINUOUS
 10
15.5543329688
 20
6.821257349
 40
0.0055714286
100
AcDbArc
 50
218.3291310759
 51
243.1839332668
  0
ARC
  5
296
100
AcDbEntity
  8
LAYER_CUT_FEAT
100
AcDbCircle
 62
7
  6
CONTINUOUS
 10
15.5397239973
 20
6.8261572908
 40
0.0054285714
100
AcDbArc
 50
20.173429967
 51
89.9999999999
  0
ARC
  5
297
100
AcDbEntity
  8
LAYER_CUT_FEAT
100
AcDbCircle
 62
7
  6
CONTINUOUS
 10
15.4950575776
 20
6.8247499875
 40
0.0054285714
100
AcDbArc
 50
22.048429967
 51
91.8749999999
  0
ARC
  5
298
100
AcDbEntity
  8
LAYER_CUT_FEAT
100
AcDbCircle
 62
7
  6
CONTINUOUS
 10
15.5363693943
 20
6.8261023963
 40
0.0054285714
100
AcDbArc
 50
91.8749999999
 51
161.701570033
  0
ARC
  5
299
100
AcDbEntity
  8
LAYER_CUT_FEAT
100
AcDbCircle
 62
7
  6
CONTINUOUS
 10
15.4504611186
 20
6.8218819934
 40
0.0054285714
100
AcDbArc
 50
23.9234299669
 51
93.7500000001
  0
ARC
  5
29A
100
AcDbEntity
  8
LAYER_CUT_FEAT
100
AcDbCircle
 62
7
  6
CONTINUOUS
 10
15.4917065668
 20
6.8245853629
 40
0.0054285714
100
AcDbArc
 50
93.7499999999
 51
163.576570033
  0
ARC
  5
29B
100
AcDbEntity
  8
LAYER_CUT_FEAT
100
AcDbCircle
 62
7
  6
CONTINUOUS
 10
15.4059823751
 20
6.8175563796
 40
0.0054285714
100
AcDbArc
 50
25.7984299669
 51
95.6249999999
  0
ARC
  5
29C
100
AcDbEntity
  8
LAYER_CUT_FEAT
100
AcDbCircle
 62
7
  6
CONTINUOUS
 10
15.4471172883
 20
6.8216078149
 40
0.0054285714
100
AcDbArc
 50
95.6249999999
 51
165.451570033
  0
ARC
  5
29D
100
AcDbEntity
  8
LAYER_FEATURE
100
AcDbCircle
 62
7
  6
CONTINUOUS
 10
15.6946070003
 20
4.5328273805
 40
0.0178571429
100
AcDbArc
 50
98.2309612913
 51
175.0
  0
ARC
  5
29E
100
AcDbEntity
  8
LAYER_FEATURE
100
AcDbCircle
 62
7
  6
CONTINUOUS
 10
15.6739355513
 20
4.2965516368
 40
0.0178571429
100
AcDbArc
 50
175.0
 51
275.5708344915
  0
ARC
  5
29F
100
AcDbEntity
  8
LAYER_CUT_FEAT
100
AcDbCircle
 62
7
  6
CONTINUOUS
 10
15.560390971
 20
5.4606702053
 40
1.3710714286
100
AcDbArc
 50
90.8636860119
 51
91.0113139881
  0
ARC
  5
2A0
100
AcDbEntity
  8
LAYER_CUT_FEAT
100
AcDbCircle
 62
7
  6
CONTINUOUS
 10
15.560390971
 20
5.4606702053
 40
1.3710714286
100
AcDbArc
 50
92.7386860119
 51
92.8863139881
  0
ARC
  5
2A1
100
AcDbEntity
  8
LAYER_CUT_FEAT
100
AcDbCircle
 62
7
  6
CONTINUOUS
 10
15.560390971
 20
5.4606702053
 40
1.3710714286
100
AcDbArc
 50
94.6136860119
 51
94.7613139881
  0
ARC
  5
2A2
100
AcDbEntity
  8
LAYER_CUT_FEAT
100
AcDbCircle
 62
7
  6
CONTINUOUS
 10
15.560390971
 20
5.4606702053
 40
1.3710714286
100
AcDbArc
 50
96.4886860119
 51
89.1363139881
  0
CIRCLE
  5
2A3
100
AcDbEntity
  8
LAYER_CUT_FEAT
100
AcDbCircle
 62
7
  6
CONTINUOUS
 10
15.560390971
 20
5.4606702053
 40
1.2947142857
  0
CIRCLE
  5
2A4
100
AcDbEntity
  8
LAYER_CUT_FEAT
100
AcDbCircle
 62
7
  6
CONTINUOUS
 10
15.560390971
 20
5.4606702053
 40
1.2857142857
  0
ARC
  5
2A5
100
AcDbEntity
  8
LAYER_FEATURE
100
AcDbCircle
 62
7
  6
CONTINUOUS
 10
15.560390971
 20
5.4606702053
 40
1.1875
100
AcDbArc
 50
95.5708344915
 51
134.4291655085
  0
ARC
  5
2A6
100
AcDbEntity
  8
LAYER_FEATURE
100
AcDbCircle
 62
7
  6
CONTINUOUS
 10
15.560390971
 20
5.4606702053
 40
1.1875
100
AcDbArc
 50
35.5708344915
 51
74.4291655085
  0
ARC
  5
2A7
100
AcDbEntity
  8
LAYER_FEATURE
100
AcDbCircle
 62
7
  6
CONTINUOUS
 10
15.560390971
 20
5.4606702053
 40
1.1875
100
AcDbArc
 50
335.5708344915
 51
14.4291655085
  0
ARC
  5
2A8
100
AcDbEntity
  8
LAYER_FEATURE
100
AcDbCircle
 62
7
  6
CONTINUOUS
 10
15.560390971
 20
5.4606702053
 40
1.1875
100
AcDbArc
 50
275.5708344915
 51
314.4291655085
  0
ARC
  5
2A9
100
AcDbEntity
  8
LAYER_FEATURE
100
AcDbCircle
 62
7
  6
CONTINUOUS
 10
15.560390971
 20
5.4606702053
 40
1.1875
100
AcDbArc
 50
155.5708344915
 51
194.4291655085
  0
ARC
  5
2AA
100
AcDbEntity
  8
LAYER_FEATURE
100
AcDbCircle
 62
7
  6
CONTINUOUS
 10
15.560390971
 20
5.4606702053
 40
1.1875
100
AcDbArc
 50
215.5708344915
 51
254.4291655085
  0
ARC
  5
2AB
100
AcDbEntity
  8
LAYER_FEATURE
100
AcDbCircle
 62
7
  6
CONTINUOUS
 10
15.560390971
 20
5.4606702053
 40
0.9196428571
100
AcDbArc
 50
98.2309612913
 51
131.7690387087
  0
ARC
  5
2AC
100
AcDbEntity
  8
LAYER_FEATURE
100
AcDbCircle
 62
7
  6
CONTINUOUS
 10
15.560390971
 20
5.4606702053
 40
0.9196428571
100
AcDbArc
 50
38.2309612913
 51
71.7690387087
  0
ARC
  5
2AD
100
AcDbEntity
  8
LAYER_FEATURE
100
AcDbCircle
 62
7
  6
CONTINUOUS
 10
15.560390971
 20
5.4606702053
 40
0.9196428571
100
AcDbArc
 50
338.2309612913
 51
11.7690387087
  0
ARC
  5
2AE
100
AcDbEntity
  8
LAYER_FEATURE
100
AcDbCircle
 62
7
  6
CONTINUOUS
 10
15.560390971
 20
5.4606702053
 40
0.9196428571
100
AcDbArc
 50
278.2309612913
 51
311.7690387087
  0
ARC
  5
2AF
100
AcDbEntity
  8
LAYER_FEATURE
100
AcDbCircle
 62
7
  6
CONTINUOUS
 10
15.560390971
 20
5.4606702053
 40
0.9196428571
100
AcDbArc
 50
158.2309612913
 51
191.7690387087
  0
ARC
  5
2B0
100
AcDbEntity
  8
LAYER_FEATURE
100
AcDbCircle
 62
7
  6
CONTINUOUS
 10
15.560390971
 20
5.4606702053
 40
0.9196428571
100
AcDbArc
 50
218.2309612913
 51
251.7690387087
  0
CIRCLE
  5
2B1
100
AcDbEntity
  8
LAYER_CHAMFER_FEAT
100
AcDbCircle
 62
7
  6
CONTINUOUS
 10
15.560390971
 20
5.4606702053
 40
0.5
  0
CIRCLE
  5
2B2
100
AcDbEntity
  8
LAYER_CHAMFER_FEAT
100
AcDbCircle
 62
7
  6
CONTINUOUS
 10
15.560390971
 20
5.4606702053
 40
0.491
  0
ARC
  5
2B3
100
AcDbEntity
  8
LAYER_CUT_FEAT
100
AcDbCircle
 62
7
  6
CONTINUOUS
 10
15.560390971
 20
5.4606702053
 40
0.3571428571
100
AcDbArc
 50
61.4843384185
 51
139.5156615815
  0
ARC
  5
2B4
100
AcDbEntity
  8
LAYER_CUT_FEAT
100
AcDbCircle
 62
7
  6
CONTINUOUS
 10
15.560390971
 20
5.4606702053
 40
0.3571428571
100
AcDbArc
 50
150.4843384185
 51
220.5156615815
  0
ARC
  5
2B5
100
AcDbEntity
  8
LAYER_CUT_FEAT
100
AcDbCircle
 62
7
  6
CONTINUOUS
 10
15.560390971
 20
5.4606702053
 40
0.3571428571
100
AcDbArc
 50
231.4843384185
 51
259.5156615815
  0
ARC
  5
2B6
100
AcDbEntity
  8
LAYER_CUT_FEAT
100
AcDbCircle
 62
7
  6
CONTINUOUS
 10
15.560390971
 20
5.4606702053
 40
0.3571428571
100
AcDbArc
 50
270.4843384185
 51
11.5156615815
  0
ARC
  5
2B7
100
AcDbEntity
  8
LAYER_CUT_FEAT
100
AcDbCircle
 62
7
  6
CONTINUOUS
 10
15.560390971
 20
5.4606702053
 40
0.3571428571
100
AcDbArc
 50
22.4843384185
 51
50.5156615815
  0
ARC
  5
2B8
100
AcDbEntity
  8
02___PRT_ALL_AXES
100
AcDbCircle
 62
7
  6
CONTINUOUS
 10
15.560390971
 20
5.4606702053
 40
0.3390118338
100
AcDbArc
 50
220.0987020407
 51
231.9012979593
  0
ARC
  5
2B9
100
AcDbEntity
  8
02___PRT_ALL_AXES
100
AcDbCircle
 62
7
  6
CONTINUOUS
 10
15.560390971
 20
5.4606702053
 40
0.3390118338
100
AcDbArc
 50
50.0987020407
 51
61.9012979593
  0
ARC
  5
2BA
100
AcDbEntity
  8
LAYER_CUT_FEAT
100
AcDbCircle
 62
7
  6
CONTINUOUS
 10
15.560390971
 20
5.4606702053
 40
0.3221794512
100
AcDbArc
 50
21.7226277324
 51
140.2773722676
  0
ARC
  5
2BB
100
AcDbEntity
  8
LAYER_CUT_FEAT
100
AcDbCircle
 62
7
  6
CONTINUOUS
 10
15.560390971
 20
5.4606702053
 40
0.3221794512
100
AcDbArc
 50
269.7226277324
 51
12.2773722676
  0
ARC
  5
2BC
100
AcDbEntity
  8
LAYER_CUT_FEAT
100
AcDbCircle
 62
7
  6
CONTINUOUS
 10
15.560390971
 20
5.4606702053
 40
0.3221794512
100
AcDbArc
 50
149.7226277324
 51
260.2773722676
  0
ARC
  5
2BD
100
AcDbEntity
  8
LAYER_CUT_FEAT
100
AcDbCircle
 62
7
  6
CONTINUOUS
 10
15.8903161118
 20
5.5615384434
 40
0.0357142857
100
AcDbArc
 50
244.963629888
 51
149.036370112
  0
ARC
  5
2BE
100
AcDbEntity
  8
LAYER_FEATURE
100
AcDbCircle
 62
7
  6
CONTINUOUS
 10
16.1848874103
 20
4.7614488903
 40
0.0178571429
100
AcDbArc
 50
55.0
 51
131.7690387087
  0
ARC
  5
2BF
100
AcDbEntity
  8
LAYER_FEATURE
100
AcDbCircle
 62
7
  6
CONTINUOUS
 10
16.3791724822
 20
4.6254090184
 40
0.0178571429
100
AcDbArc
 50
314.4291655085
 51
55.0
  0
ARC
  5
2C0
100
AcDbEntity
  8
LAYER_FEATURE
100
AcDbCircle
 62
7
  6
CONTINUOUS
 10
16.4310344426
 20
5.1129832839
 40
0.0178571429
100
AcDbArc
 50
158.2309612913
 51
235.0
  0
ARC
  5
2C1
100
AcDbEntity
  8
LAYER_FEATURE
100
AcDbCircle
 62
7
  6
CONTINUOUS
 10
16.6253195145
 20
4.976943412
 40
0.0178571429
100
AcDbArc
 50
235.0
 51
335.5708344915
  0
ARC
  5
2C2
100
AcDbEntity
  8
LAYER_CUT_FEAT
100
AcDbCircle
 62
7
  6
CONTINUOUS
 10
15.6870141714
 20
6.9534029576
 40
0.3067142857
100
AcDbArc
 50
205.7984299669
 51
206.4837358762
  0
ARC
  5
2C3
100
AcDbEntity
  8
LAYER_CUT_FEAT
100
AcDbCircle
 62
7
  6
CONTINUOUS
 10
15.7357872223
 20
6.9484607348
 40
0.3067142857
100
AcDbArc
 50
203.9234299669
 51
204.6087358762
  0
ARC
  5
2C4
100
AcDbEntity
  8
LAYER_CUT_FEAT
100
AcDbCircle
 62
7
  6
CONTINUOUS
 10
15.7843724545
 20
6.9419253487
 40
0.3067142857
100
AcDbArc
 50
202.0484299669
 51
202.7337358762
  0
ARC
  5
2C5
100
AcDbEntity
  8
LAYER_CUT_FEAT
100
AcDbCircle
 62
7
  6
CONTINUOUS
 10
15.8327178417
 20
6.9338037974
 40
0.3067142857
100
AcDbArc
 50
200.1734299669
 51
200.8587358762
  0
ARC
  5
2C6
100
AcDbEntity
  8
LAYER_CUT_FEAT
100
AcDbCircle
 62
7
  6
CONTINUOUS
 10
15.7533125227
 20
5.7466881678
 40
0.0357142857
100
AcDbArc
 50
313.4099725314
 51
158.5900274686
  0
ARC
  5
2C7
100
AcDbEntity
  8
LAYER_CUT_FEAT
100
AcDbCircle
 62
7
  6
CONTINUOUS
 10
15.5701342578
 20
6.833749505
 40
0.0257142857
100
AcDbArc
 50
200.8587358762
 51
218.329131076
  0
ARC
  5
2C8
100
AcDbEntity
  8
LAYER_CUT_FEAT
100
AcDbCircle
 62
7
  6
CONTINUOUS
 10
15.560390971
 20
6.8332418031
 40
0.019
100
AcDbArc
 50
243.1839332668
 51
296.8160667332
  0
ARC
  5
2C9
100
AcDbEntity
  8
LAYER_FEATURE
100
AcDbCircle
 62
7
  6
CONTINUOUS
 10
15.853686173
 20
6.3511106438
 40
0.0178571429
100
AcDbArc
 50
175.0
 51
251.7690387087
  0
ARC
  5
2CA
100
AcDbEntity
  8
LAYER_FEATURE
100
AcDbCircle
 62
7
  6
CONTINUOUS
 10
16.2968184133
 20
6.0408261087
 40
0.0178571429
100
AcDbArc
 50
218.2309612913
 51
295.0
  0
ARC
  5
2CB
100
AcDbEntity
  8
LAYER_FEATURE
100
AcDbCircle
 62
7
  6
CONTINUOUS
 10
16.5117749342
 20
6.1410619805
 40
0.0178571429
100
AcDbArc
 50
295.0
 51
35.5708344915
  0
ARC
  5
2CC
100
AcDbEntity
  8
LAYER_FEATURE
100
AcDbCircle
 62
7
  6
CONTINUOUS
 10
15.874357622
 20
6.5873863875
 40
0.0178571429
100
AcDbArc
 50
74.4291655085
 51
175.0
  0
ARC
  5
2CD
100
AcDbEntity
  8
LAYER_FEATURE
100
AcDbCircle
 62
7
  6
CONTINUOUS
 10
16.4781826123
 20
5.6518893288
 40
0.0178571429
100
AcDbArc
 50
115.0
 51
191.7690387087
  0
ARC
  5
2CE
100
AcDbEntity
  8
LAYER_FEATURE
100
AcDbCircle
 62
7
  6
CONTINUOUS
 10
16.6931391332
 20
5.7521252007
 40
0.0178571429
100
AcDbArc
 50
14.4291655085
 51
115.0
  0
ARC
  5
2CF
100
AcDbEntity
  8
LAYER_CUT_FEAT
100
AcDbCircle
 62
7
  6
CONTINUOUS
 10
15.5664489731
 20
6.821257349
 40
0.0055714286
100
AcDbArc
 50
296.8160667332
 51
321.670868924
  0
ARC
  5
2D0
100
AcDbEntity
  8
LAYER_CUT_FEAT
100
AcDbCircle
 62
7
  6
CONTINUOUS
 10
15.5810579447
 20
6.8261572908
 40
0.0054285714
100
AcDbArc
 50
89.9999999998
 51
159.8265700331
  0
ARC
  5
2D1
100
AcDbEntity
  8
LAYER_CUT_FEAT
100
AcDbCircle
 62
7
  6
CONTINUOUS
 10
13.9814394199
 20
-9.3312003618
 40
21.5653717886
100
AcDbArc
 50
85.3417840568
 51
85.5311130767
  0
ARC
  5
2D2
100
AcDbEntity
  8
LAYER_CUT_FEAT
100
AcDbCircle
 62
7
  6
CONTINUOUS
 10
16.9202666929
 20
-5.8337400157
 40
18.7252492572
100
AcDbArc
 50
93.6149842482
 51
93.8980252519
  0
ARC
  5
2D3
100
AcDbEntity
  8
LAYER_CUT_FEAT
100
AcDbCircle
 62
7
  6
CONTINUOUS
 10
14.7900055188
 20
24.7710460352
 40
11.9814251653
100
AcDbArc
 50
274.0270273994
 51
274.6645487756
  0
ARC
  5
2D4
100
AcDbEntity
  8
LAYER_CUT_FEAT
100
AcDbCircle
 62
7
  6
CONTINUOUS
 10
16.1191352774
 20
21.3130835312
 40
9.0772993064
100
AcDbArc
 50
266.7608908419
 51
267.9396520594
  0
ARC
  5
2D5
100
AcDbEntity
  8
LAYER_CUT_FEAT
100
AcDbCircle
 62
7
  6
CONTINUOUS
 10
15.2786627101
 20
4.6533972462
 40
7.6563619339
100
AcDbArc
 50
86.0125958417
 51
87.6826901705
  0
ARC
  5
2D6
100
AcDbEntity
  8
LAYER_FEATURE
100
AcDbCircle
 62
7
  6
CONTINUOUS
 10
13.1139477547
 20
12.4758168095
 40
2.7620688868
100
AcDbArc
 50
350.3009849569
 51
354.6703626679
  0
ARC
  5
2D7
100
AcDbEntity
  8
LAYER_CUT_FEAT
100
AcDbCircle
 62
7
  6
CONTINUOUS
 10
14.7823088407
 20
13.248776371
 40
0.5374166466
100
AcDbArc
 50
13.0226039904
 51
13.3667652121
  0
ARC
  5
2D8
100
AcDbEntity
  8
LAYER_CUT_FEAT
100
AcDbCircle
 62
7
  6
CONTINUOUS
 10
14.2875675076
 20
13.2487763712
 40
0.5374166457
100
AcDbArc
 50
13.0226039902
 51
13.3667652124
  0
ARC
  5
2D9
100
AcDbEntity
  8
LAYER_CUT_FEAT
100
AcDbCircle
 62
7
  6
CONTINUOUS
 10
15.9083226208
 20
13.3340929522
 40
0.5337010566
100
AcDbArc
 50
139.0131567234
 51
139.661391405
  0
ARC
  5
2DA
100
AcDbEntity
  8
LAYER_CUT_FEAT
100
AcDbCircle
 62
7
  6
CONTINUOUS
 10
15.9074321496
 20
11.6868540771
 40
0.5325262753
100
AcDbArc
 50
220.4245172418
 51
220.990341815
  0
ARC
  5
2DB
100
AcDbEntity
  8
LAYER_CUT_FEAT
100
AcDbCircle
 62
7
  6
CONTINUOUS
 10
14.7986177404
 20
13.2111694257
 40
0.5117085022
100
AcDbArc
 50
13.9753170885
 51
14.3308995352
  0
ARC
  5
2DC
100
AcDbEntity
  8
LAYER_CUT_FEAT
100
AcDbCircle
 62
7
  6
CONTINUOUS
 10
14.3038764069
 20
13.2111694258
 40
0.5117085017
100
AcDbArc
 50
13.9753170882
 51
14.3308995353
  0
ARC
  5
2DD
100
AcDbEntity
  8
LAYER_CUT_FEAT
100
AcDbCircle
 62
7
  6
CONTINUOUS
 10
14.3209564225
 20
13.1733631154
 40
0.4856731073
100
AcDbArc
 50
14.9604108018
 51
15.3285781004
  0
ARC
  5
2DE
100
AcDbEntity
  8
LAYER_CUT_FEAT
100
AcDbCircle
 62
7
  6
CONTINUOUS
 10
14.8156977566
 20
13.1733631155
 40
0.4856731071
100
AcDbArc
 50
14.9604108018
 51
15.3285781005
  0
ARC
  5
2DF
100
AcDbEntity
  8
LAYER_CUT_FEAT
100
AcDbCircle
 62
7
  6
CONTINUOUS
 10
14.8333930575
 20
13.1353871086
 40
0.4594663981
100
AcDbArc
 50
15.9811736562
 51
16.363198005
  0
ARC
  5
2E0
100
AcDbEntity
  8
LAYER_CUT_FEAT
100
AcDbCircle
 62
7
  6
CONTINUOUS
 10
14.3386517241
 20
13.1353871088
 40
0.4594663975
100
AcDbArc
 50
15.9811736559
 51
16.3631980052
  0
ARC
  5
2E1
100
AcDbEntity
  8
LAYER_FEATURE
100
AcDbCircle
 62
7
  6
CONTINUOUS
 10
15.4721156096
 20
13.2168053289
 40
0.213694187
100
AcDbArc
 50
89.653463671
 51
89.9999987551
  0
ARC
  5
2E2
100
AcDbEntity
  8
LAYER_CHAMFER_FEAT
100
AcDbCircle
 62
7
  6
CONTINUOUS
 10
15.6290933185
 20
12.1936486483
 40
0.1994288525
100
AcDbArc
 50
317.0890411795
 51
320.1653260541
  0
ARC
  5
2E3
100
AcDbEntity
  8
LAYER_CHAMFER_FEAT
100
AcDbCircle
 62
7
  6
CONTINUOUS
 10
15.6323023564
 20
12.8308915097
 40
0.195153872
100
AcDbArc
 50
39.8008826459
 51
42.9358586832
  0
ARC
  5
2E4
100
AcDbEntity
  8
LAYER_FEATURE
100
AcDbCircle
 62
7
  6
CONTINUOUS
 10
15.6682078258
 20
11.3431266003
 40
0.1723605636
100
AcDbArc
 50
174.7003561733
 51
177.9594647458
  0
ARC
  5
2E5
100
AcDbEntity
  8
LAYER_FEATURE
100
AcDbCircle
 62
7
  6
CONTINUOUS
 10
15.26931292
 20
13.4461643172
 40
0.1542409401
100
AcDbArc
 50
352.190105597
 51
354.7227200239
  0
ARC
  5
2E6
100
AcDbEntity
  8
LAYER_CUT_FEAT
100
AcDbCircle
 62
7
  6
CONTINUOUS
 10
15.354688327
 20
13.4159628249
 40
0.0882636066
100
AcDbArc
 50
229.7238118339
 51
230.8707278382
  0
ARC
  5
2E7
100
AcDbEntity
  8
LAYER_CUT_FEAT
100
AcDbCircle
 62
7
  6
CONTINUOUS
 10
15.335120665
 20
13.3763010173
 40
0.0795556946
100
AcDbArc
 50
232.9426860076
 51
234.1718741363
  0
ARC
  5
2E8
100
AcDbEntity
  8
LAYER_CUT_FEAT
100
AcDbCircle
 62
7
  6
CONTINUOUS
 10
15.3170311154
 20
13.336082884
 40
0.071970993
100
AcDbArc
 50
236.3896999247
 51
237.7038592942
  0
ARC
  5
2E9
100
AcDbEntity
  8
LAYER_CUT_FEAT
100
AcDbCircle
 62
7
  6
CONTINUOUS
 10
15.3003406745
 20
13.295390457
 40
0.0654656318
100
AcDbArc
 50
240.0704986868
 51
241.4704286662
  0
ARC
  5
2EA
100
AcDbEntity
  8
LAYER_CUT_FEAT
100
AcDbCircle
 62
7
  6
CONTINUOUS
 10
15.7013946293
 20
12.207966652
 40
0.0542528218
100
AcDbArc
 50
265.6527720097
 51
275.3428027012
  0
ARC
  5
2EB
100
AcDbEntity
  8
LAYER_CUT_FEAT
100
AcDbCircle
 62
7
  6
CONTINUOUS
 10
14.798212198
 20
13.3613559013
 40
0.0141459724
100
AcDbArc
 50
355.4536200849
 51
5.1770157516
  0
ARC
  5
2EC
100
AcDbEntity
  8
LAYER_CUT_FEAT
100
AcDbCircle
 62
7
  6
CONTINUOUS
 10
15.2929535319
 20
13.3613559013
 40
0.0141459724
100
AcDbArc
 50
355.4536200846
 51
5.1770157518
  0
LINE
  5
2ED
100
AcDbEntity
  8
LAYER_CUT_FEAT
100
AcDbLine
 62
7
  6
CONTINUOUS
 10
14.7997312469
 20
13.3440396868
 11
14.8005686469
 21
13.3468425001
  0
LINE
  5
2EE
100
AcDbEntity
  8
LAYER_CUT_FEAT
100
AcDbLine
 62
7
  6
CONTINUOUS
 10
14.7893423488
 20
13.3079666869
 11
14.7901435886
 21
13.3108383583
  0
LINE
  5
2EF
100
AcDbEntity
  8
LAYER_CUT_FEAT
100
AcDbLine
 62
7
  6
CONTINUOUS
 10
14.779418634
 20
13.2710401216
 11
14.7801828557
 21
13.273977576
  0
SPLINE
  5
2F0
100
AcDbEntity
  8
LAYER_CUT_FEAT
100
AcDbSpline
 62
7
  6
CONTINUOUS
 70
0
 71
3
 72
26
 73
22
 74
0
 42
0.0000001
 43
0.0000001
 44
0.0000000001
 40
0.0
 40
0.0
 40
0.0
 40
0.0
 40
0.0877780486
 40
0.1722737565
 40
0.2533421494
 40
0.3308628862
 40
0.4047451033
 40
0.4749317507
 40
0.5414052703
 40
0.6041943454
 40
0.6633822597
 40
0.7191166304
 40
0.7716204445
 40
0.821203486
 40
0.8682719829
 40
0.891029201
 40
0.9133564891
 40
0.9353321533
 40
0.9570393998
 40
0.9785653751
 40
1.0
 40
1.0
 40
1.0
 40
1.0
 10
14.8105742036
 20
13.3792204934
 30
0.0
 10
14.8166974925
 20
13.3984334232
 30
0.0
 10
14.8293196526
 20
13.4359521023
 30
0.0
 10
14.8498023001
 20
13.4904417476
 30
0.0
 10
14.871424567
 20
13.5419452241
 30
0.0
 10
14.8941208264
 20
13.5903060698
 30
0.0
 10
14.9178227991
 20
13.6353785673
 30
0.0
 10
14.9424597775
 20
13.6770271129
 30
0.0
 10
14.9679590725
 20
13.7151268622
 30
0.0
 10
14.9942466857
 20
13.7495637202
 30
0.0
 10
15.0212479867
 20
13.780234356
 30
0.0
 10
15.0488877893
 20
13.8070454523
 30
0.0
 10
15.0770925529
 20
13.8299131511
 30
0.0
 10
15.1057829828
 20
13.8487595682
 30
0.0
 10
15.1303130667
 20
13.8611950449
 30
0.0
 10
15.1500186913
 20
13.8689658233
 30
0.0
 10
15.164694213
 20
13.8736893053
 30
0.0
 10
15.1794175033
 20
13.8773676754
 30
0.0
 10
15.1941775015
 20
13.879997737
 30
0.0
 10
15.2089611241
 20
13.8815768149
 30
0.0
 10
15.2188339563
 20
13.881928077
 30
0.0
 10
15.2237580962
 20
13.8819280792
 30
0.0
  0
LINE
  5
2F1
100
AcDbEntity
  8
LAYER_CUT_FEAT
100
AcDbLine
 62
7
  6
CONTINUOUS
 10
15.2976283094
 20
13.3486232478
 11
15.2969659224
 21
13.3488966152
  0
SPLINE
  5
2F2
100
AcDbEntity
  8
LAYER_CUT_FEAT
100
AcDbSpline
 62
7
  6
CONTINUOUS
 70
0
 71
3
 72
13
 73
9
 74
0
 42
0.0000001
 43
0.0000001
 44
0.0000000001
 40
0.0
 40
0.0
 40
0.0
 40
0.0
 40
0.3318811085
 40
0.6055964184
 40
0.7205896472
 40
0.8224582861
 40
0.9140912646
 40
1.0
 40
1.0
 40
1.0
 40
1.0
 10
14.8005686469
 20
13.3468425001
 30
0.0
 10
14.800659815
 20
13.34713752
 30
0.0
 10
14.8008577716
 20
13.3476668426
 30
0.0
 10
14.8011994552
 20
13.3482511396
 30
0.0
 10
14.8015093467
 20
13.3485887189
 30
0.0
 10
14.8017393766
 20
13.3487636217
 30
0.0
 10
14.8019786375
 20
13.3488717711
 30
0.0
 10
14.8021446582
 20
13.3488966079
 30
0.0
 10
14.8022245885
 20
13.3488966152
 30
0.0
  0
SPLINE
  5
2F3
100
AcDbEntity
  8
LAYER_CUT_FEAT
100
AcDbSpline
 62
7
  6
CONTINUOUS
 70
0
 71
3
 72
11
 73
7
 74
0
 42
0.0000001
 43
0.0000001
 44
0.0000000001
 40
0.0
 40
0.0
 40
0.0
 40
0.0
 40
0.2130695115
 40
0.4545020176
 40
0.7190260189
 40
1.0
 40
1.0
 40
1.0
 40
1.0
 10
14.8095217839
 20
13.3488919837
 30
0.0
 10
14.8099045138
 20
13.3496333132
 30
0.0
 10
14.8105942293
 20
13.3512806154
 30
0.0
 10
14.8113859345
 20
13.3539866121
 30
0.0
 10
14.811980011
 20
13.3570138578
 30
0.0
 10
14.8122258583
 20
13.3591379305
 30
0.0
 10
14.81231366
 20
13.3602346058
 30
0.0
  0
SPLINE
  5
2F4
100
AcDbEntity
  8
LAYER_CUT_FEAT
100
AcDbSpline
 62
7
  6
CONTINUOUS
 70
0
 71
3
 72
11
 73
7
 74
0
 42
0.0000001
 43
0.0000001
 44
0.0000000001
 40
0.0
 40
0.0
 40
0.0
 40
0.0
 40
0.2459042091
 40
0.5080111385
 40
0.7659681271
 40
1.0
 40
1.0
 40
1.0
 40
1.0
 10
14.8104256124
 20
13.3730182859
 30
0.0
 10
14.810306908
 20
13.3735178108
 30
0.0
 10
14.8101433548
 20
13.374569744
 30
0.0
 10
14.8100886084
 20
13.3761714559
 30
0.0
 10
14.8102164565
 20
13.3777440761
 30
0.0
 10
14.810429932
 20
13.3787536302
 30
0.0
 10
14.8105742036
 20
13.3792204934
 30
0.0
  0
LINE
  5
2F5
100
AcDbEntity
  8
LAYER_CUT_FEAT
100
AcDbLine
 62
7
  6
CONTINUOUS
 10
15.2871793206
 20
13.3128129394
 11
15.2865829728
 21
13.313033416
  0
SPLINE
  5
2F6
100
AcDbEntity
  8
LAYER_CUT_FEAT
100
AcDbSpline
 62
7
  6
CONTINUOUS
 70
0
 71
3
 72
14
 73
10
 74
0
 42
0.0000001
 43
0.0000001
 44
0.0000000001
 40
0.0
 40
0.0
 40
0.0
 40
0.0
 40
0.3333689292
 40
0.4785615846
 40
0.6085000537
 40
0.7234411517
 40
0.8247735725
 40
0.9154017113
 40
1.0
 40
1.0
 40
1.0
 40
1.0
 10
14.7901435886
 20
13.3108383583
 30
0.0
 10
14.7902342045
 20
13.3111521539
 30
0.0
 10
14.7903906221
 20
13.3115968209
 30
0.0
 10
14.7906639063
 20
13.312127612
 30
0.0
 10
14.7908754915
 20
13.3124470298
 30
0.0
 10
14.7911008507
 20
13.3127023507
 30
0.0
 10
14.7913383247
 20
13.3128901635
 30
0.0
 10
14.7915861667
 20
13.3130065585
 30
0.0
 10
14.7917587539
 20
13.3130334161
 30
0.0
 10
14.7918416389
 20
13.313033416
 30
0.0
  0
SPLINE
  5
2F7
100
AcDbEntity
  8
LAYER_CUT_FEAT
100
AcDbSpline
 62
7
  6
CONTINUOUS
 70
0
 71
3
 72
11
 73
7
 74
0
 42
0.0000001
 43
0.0000001
 44
0.0000000001
 40
0.0
 40
0.0
 40
0.0
 40
0.0
 40
0.2104718412
 40
0.4516231354
 40
0.7173850821
 40
1.0
 40
1.0
 40
1.0
 40
1.0
 10
14.7987461793
 20
13.3130126969
 30
0.0
 10
14.7991674518
 20
13.3137925509
 30
0.0
 10
14.7999210167
 20
13.315547612
 30
0.0
 10
14.8007703399
 20
13.3184519563
 30
0.0
 10
14.8013913954
 20
13.3217229862
 30
0.0
 10
14.8016322766
 20
13.3240225832
 30
0.0
 10
14.801711679
 20
13.3252101143
 30
0.0
  0
SPLINE
  5
2F8
100
AcDbEntity
  8
LAYER_CUT_FEAT
100
AcDbSpline
 62
7
  6
CONTINUOUS
 70
0
 71
3
 72
11
 73
7
 74
0
 42
0.0000001
 43
0.0000001
 44
0.0000000001
 40
0.0
 40
0.0
 40
0.0
 40
0.0
 40
0.2427305919
 40
0.5037430209
 40
0.7628166556
 40
1.0
 40
1.0
 40
1.0
 40
1.0
 10
14.7996617601
 20
13.3378283153
 30
0.0
 10
14.7995361562
 20
13.3383199417
 30
0.0
 10
14.7993591807
 20
13.3393621186
 30
0.0
 10
14.7992848302
 20
13.340958347
 30
0.0
 10
14.7993933672
 20
13.3425409697
 30
0.0
 10
14.7995936876
 20
13.3435633293
 30
0.0
 10
14.7997312469
 20
13.3440396868
 30
0.0
  0
LINE
  5
2F9
100
AcDbEntity
  8
LAYER_CUT_FEAT
100
AcDbLine
 62
7
  6
CONTINUOUS
 10
15.2771922002
 20
13.2761438761
 11
15.2766625302
 21
13.276317035
  0
SPLINE
  5
2FA
100
AcDbEntity
  8
LAYER_CUT_FEAT
100
AcDbSpline
 62
7
  6
CONTINUOUS
 70
0
 71
3
 72
14
 73
10
 74
0
 42
0.0000001
 43
0.0000001
 44
0.0000000001
 40
0.0
 40
0.0
 40
0.0
 40
0.0
 40
0.3348283239
 40
0.4806936538
 40
0.6110500929
 40
0.7260218859
 40
0.8269106569
 40
0.9166256692
 40
1.0
 40
1.0
 40
1.0
 40
1.0
 10
14.7801828557
 20
13.273977576
 30
0.0
 10
14.7802725593
 20
13.274310449
 30
0.0
 10
14.7804291951
 20
13.2747827038
 30
0.0
 10
14.7807069678
 20
13.2753481874
 30
0.0
 10
14.7809233863
 20
13.2756890887
 30
0.0
 10
14.781154926
 20
13.2759619998
 30
0.0
 10
14.7813997707
 20
13.2761631112
 30
0.0
 10
14.7816561437
 20
13.2762880869
 30
0.0
 10
14.7818353519
 20
13.276317036
 30
0.0
 10
14.7819211963
 20
13.276317035
 30
0.0
  0
SPLINE
  5
2FB
100
AcDbEntity
  8
LAYER_CUT_FEAT
100
AcDbSpline
 62
7
  6
CONTINUOUS
 70
0
 71
3
 72
12
 73
8
 74
0
 42
0.0000001
 43
0.0000001
 44
0.0000000001
 40
0.0
 40
0.0
 40
0.0
 40
0.0
 40
0.0998111633
 40
0.2084225369
 40
0.4493966455
 40
0.7162138179
 40
1.0
 40
1.0
 40
1.0
 40
1.0
 10
14.7884549513
 20
13.2763124877
 30
0.0
 10
14.7886739572
 20
13.276703346
 30
0.0
 10
14.7890916794
 20
13.2775420372
 30
0.0
 10
14.7898484966
 20
13.279413528
 30
0.0
 10
14.7906221757
 20
13.2820776781
 30
0.0
 10
14.7912622114
 20
13.2855773034
 30
0.0
 10
14.7914931849
 20
13.2880415711
 30
0.0
 10
14.7915616359
 20
13.2893135927
 30
0.0
  0
SPLINE
  5
2FC
100
AcDbEntity
  8
LAYER_CUT_FEAT
100
AcDbSpline
 62
7
  6
CONTINUOUS
 70
0
 71
3
 72
11
 73
7
 74
0
 42
0.0000001
 43
0.0000001
 44
0.0000000001
 40
0.0
 40
0.0
 40
0.0
 40
0.0
 40
0.2395673582
 40
0.499478242
 40
0.7596594709
 40
1.0
 40
1.0
 40
1.0
 40
1.0
 10
14.7893520409
 20
13.3017528028
 30
0.0
 10
14.7892195997
 20
13.302235949
 30
0.0
 10
14.789029287
 20
13.3032672537
 30
0.0
 10
14.788935419
 20
13.3048563503
 30
0.0
 10
14.7890245189
 20
13.306447344
 30
0.0
 10
14.7892115753
 20
13.3074814119
 30
0.0
 10
14.7893423488
 20
13.3079666869
 30
0.0
  0
LINE
  5
2FD
100
AcDbEntity
  8
LAYER_CUT_FEAT
100
AcDbLine
 62
7
  6
CONTINUOUS
 10
15.2676776427
 20
13.2386553241
 11
15.2672152176
 21
13.238786794
  0
SPLINE
  5
2FE
100
AcDbEntity
  8
LAYER_CUT_FEAT
100
AcDbSpline
 62
7
  6
CONTINUOUS
 70
0
 71
3
 72
14
 73
10
 74
0
 42
0.0000001
 43
0.0000001
 44
0.0000000001
 40
0.0
 40
0.0
 40
0.0
 40
0.0
 40
0.3361213209
 40
0.4826361669
 40
0.6134181509
 40
0.7284524904
 40
0.8289453968
 40
0.9177991325
 40
1.0
 40
1.0
 40
1.0
 40
1.0
 10
14.7706971142
 20
13.2362996247
 30
0.0
 10
14.7707855375
 20
13.236651842
 30
0.0
 10
14.7709419356
 20
13.2371521417
 30
0.0
 10
14.7712236789
 20
13.2377530113
 30
0.0
 10
14.7714446815
 20
13.238115952
 30
0.0
 10
14.7716822318
 20
13.2384069556
 30
0.0
 10
14.7719343326
 20
13.2386217821
 30
0.0
 10
14.7721991897
 20
13.2387556679
 30
0.0
 10
14.7723850735
 20
13.2387867922
 30
0.0
 10
14.7724738837
 20
13.238786794
 30
0.0
  0
SPLINE
  5
2FF
100
AcDbEntity
  8
LAYER_CUT_FEAT
100
AcDbSpline
 62
7
  6
CONTINUOUS
 70
0
 71
3
 72
13
 73
9
 74
0
 42
0.0000001
 43
0.0000001
 44
0.0000000001
 40
0.0
 40
0.0
 40
0.0
 40
0.0
 40
0.0983872936
 40
0.2061601923
 40
0.3226920338
 40
0.4471000225
 40
0.7150422441
 40
1.0
 40
1.0
 40
1.0
 40
1.0
 10
14.7786245203
 20
13.2387657857
 30
0.0
 10
14.7788610334
 20
13.2391713159
 30
0.0
 10
14.7793111302
 20
13.2400479503
 30
0.0
 10
14.7798975185
 20
13.2414731297
 30
0.0
 10
14.7804203106
 20
13.2430541012
 30
0.0
 10
14.7810391752
 20
13.2454033638
 30
0.0
 10
14.7816002941
 20
13.2485920702
 30
0.0
 10
14.7818188623
 20
13.2512249225
 30
0.0
 10
14.7818743995
 20
13.2525834799
 30
0.0
  0
SPLINE
  5
300
100
AcDbEntity
  8
LAYER_CUT_FEAT
100
AcDbSpline
 62
7
  6
CONTINUOUS
 70
0
 71
3
 72
11
 73
7
 74
0
 42
0.0000001
 43
0.0000001
 44
0.0000000001
 40
0.0
 40
0.0
 40
0.0
 40
0.0
 40
0.2364118069
 40
0.4952129971
 40
0.7564939517
 40
1.0
 40
1.0
 40
1.0
 40
1.0
 10
14.7795074945
 20
13.2648303788
 30
0.0
 10
14.7793682848
 20
13.2653044661
 30
0.0
 10
14.7791647337
 20
13.2663237928
 30
0.0
 10
14.7790514573
 20
13.2679041181
 30
0.0
 10
14.7791210163
 20
13.2695018407
 30
0.0
 10
14.7792947136
 20
13.2705465086
 30
0.0
 10
14.779418634
 20
13.2710401216
 30
0.0
  0
LINE
  5
301
100
AcDbEntity
  8
LAYER_CUT_FEAT
100
AcDbLine
 62
7
  6
CONTINUOUS
 10
15.6722837337
 20
12.860088638
 11
15.649045616
 21
12.8584771787
  0
SPLINE
  5
302
100
AcDbEntity
  8
LAYER_CUT_FEAT
100
AcDbSpline
 62
7
  6
CONTINUOUS
 70
0
 71
3
 72
24
 73
20
 74
0
 42
0.0000001
 43
0.0000001
 44
0.0000000001
 40
0.0
 40
0.0
 40
0.0
 40
0.0
 40
0.0726726425
 40
0.1459167998
 40
0.2192838946
 40
0.2923232401
 40
0.3645877845
 40
0.4356387692
 40
0.5050506613
 40
0.572416239
 40
0.6373521422
 40
0.6995047629
 40
0.7585571541
 40
0.8142369501
 40
0.86632632
 40
0.9146746324
 40
0.9374265434
 40
0.9592264743
 40
1.0
 40
1.0
 40
1.0
 40
1.0
 10
15.5649093419
 20
12.4422097549
 30
0.0
 10
15.5641463383
 20
12.4522133634
 30
0.0
 10
15.562959404
 20
12.4723271427
 30
0.0
 10
15.5621858486
 20
12.5025952888
 30
0.0
 10
15.562414087
 20
12.5329234284
 30
0.0
 10
15.5636424776
 20
12.5630921645
 30
0.0
 10
15.5658620595
 20
12.5928837906
 30
0.0
 10
15.569056659
 20
12.6220832615
 30
0.0
 10
15.5732029715
 20
12.6504799742
 30
0.0
 10
15.5782708251
 20
12.677869293
 30
0.0
 10
15.5842233078
 20
12.7040541134
 30
0.0
 10
15.5910172381
 20
12.7288464171
 30
0.0
 10
15.5986033957
 20
12.7520686105
 30
0.0
 10
15.6069273282
 20
12.7735555437
 30
0.0
 10
15.6159295091
 20
12.7931538976
 30
0.0
 10
15.6241025025
 20
12.8080886841
 30
0.0
 10
15.6309569572
 20
12.8189335115
 30
0.0
 10
15.6376925351
 20
12.8285994847
 30
0.0
 10
15.6431388088
 20
12.835332703
 30
0.0
 10
15.6469390102
 20
12.8394851715
 30
0.0
  0
SPLINE
  5
303
100
AcDbEntity
  8
LAYER_CUT_FEAT
100
AcDbSpline
 62
7
  6
CONTINUOUS
 70
0
 71
3
 72
27
 73
23
 74
0
 42
0.0000001
 43
0.0000001
 44
0.0000000001
 40
0.0
 40
0.0
 40
0.0
 40
0.0
 40
0.0548620279
 40
0.1169558763
 40
0.1853637673
 40
0.2588416533
 40
0.3359233609
 40
0.4149994113
 40
0.4943847762
 40
0.5723830808
 40
0.6473496955
 40
0.7177581284
 40
0.7822735973
 40
0.8398446385
 40
0.8658227459
 40
0.8898725402
 40
0.9120153509
 40
0.9323333386
 40
0.9509855734
 40
0.9682242837
 40
0.984409674
 40
1.0
 40
1.0
 40
1.0
 40
1.0
 10
15.5649093419
 20
12.4422097549
 30
0.0
 10
15.5642506388
 20
12.441082634
 30
0.0
 10
15.5630352909
 20
12.4385684264
 30
0.0
 10
15.5615664171
 20
12.4344027555
 30
0.0
 10
15.5603677092
 20
12.4296933137
 30
0.0
 10
15.5594700925
 20
12.4245562969
 30
0.0
 10
15.5588963662
 20
12.4191182243
 30
0.0
 10
15.5586614079
 20
12.4135146251
 30
0.0
 10
15.5587712606
 20
12.4078854004
 30
0.0
 10
15.5592230818
 20
12.402371167
 30
0.0
 10
15.5600052294
 20
12.3971095075
 30
0.0
 10
15.5610975731
 20
12.3922305787
 30
0.0
 10
15.5624723138
 20
12.3878550835
 30
0.0
 10
15.5638691129
 20
12.3846103537
 30
0.0
 10
15.5651185248
 20
12.3823730905
 30
0.0
 10
15.5660710541
 20
12.3809416597
 30
0.0
 10
15.5670656713
 20
12.3797072725
 30
0.0
 10
15.5680972412
 20
12.3786775044
 30
0.0
 10
15.5691606852
 20
12.3778591578
 30
0.0
 10
15.5702511967
 20
12.3772586957
 30
0.0
 10
15.571362267
 20
12.3768829749
 30
0.0
 10
15.5721182878
 20
12.3767856051
 30
0.0
 10
15.5724891613
 20
12.3767765493
 30
0.0
  0
SPLINE
  5
304
100
AcDbEntity
  8
LAYER_CUT_FEAT
100
AcDbSpline
 62
7
  6
CONTINUOUS
 70
0
 71
3
 72
17
 73
13
 74
0
 42
0.0000001
 43
0.0000001
 44
0.0000000001
 40
0.0
 40
0.0
 40
0.0
 40
0.0
 40
0.1761807468
 40
0.3398797699
 40
0.4888396117
 40
0.6214461679
 40
0.7370121419
 40
0.8362270788
 40
0.8805650293
 40
0.9220827526
 40
0.9615736037
 40
1.0
 40
1.0
 40
1.0
 40
1.0
 10
15.7064463491
 20
12.1539495362
 30
0.0
 10
15.7067139944
 20
12.1524536811
 30
0.0
 10
15.7073210226
 20
12.1495829319
 30
0.0
 10
15.7084931635
 20
12.1455283389
 30
0.0
 10
15.709874679
 20
12.1419388664
 30
0.0
 10
15.7114396362
 20
12.1388824234
 30
0.0
 10
15.7131593812
 20
12.1364158281
 30
0.0
 10
15.7147633764
 20
12.1348305109
 30
0.0
 10
15.7160988058
 20
12.1339473147
 30
0.0
 10
15.7170820993
 20
12.1334871712
 30
0.0
 10
15.7180789753
 20
12.1332086547
 30
0.0
 10
15.7187525712
 20
12.1331461519
 30
0.0
 10
15.7190840101
 20
12.1331461561
 30
0.0
  0
SPLINE
  5
305
100
AcDbEntity
  8
LAYER_CUT_FEAT
100
AcDbSpline
 62
7
  6
CONTINUOUS
 70
0
 71
3
 72
12
 73
8
 74
0
 42
0.0000001
 43
0.0000001
 44
0.0000000001
 40
0.0
 40
0.0
 40
0.0
 40
0.0
 40
0.2925706409
 40
0.5510196945
 40
0.7827321945
 40
0.8923430191
 40
1.0
 40
1.0
 40
1.0
 40
1.0
 10
15.7927872525
 20
12.2416525711
 30
0.0
 10
15.7932357228
 20
12.2410828239
 30
0.0
 10
15.7941525305
 20
12.2400619295
 30
0.0
 10
15.7956926942
 20
12.2388627654
 30
0.0
 10
15.7970590952
 20
12.2382330196
 30
0.0
 10
15.7981482548
 20
12.2379895216
 30
0.0
 10
15.7986875544
 20
12.2379493664
 30
0.0
 10
15.7989543606
 20
12.2379493618
 30
0.0
  0
SPLINE
  5
306
100
AcDbEntity
  8
LAYER_CUT_FEAT
100
AcDbSpline
 62
7
  6
CONTINUOUS
 70
0
 71
3
 72
11
 73
7
 74
0
 42
0.0000001
 43
0.0000001
 44
0.0000000001
 40
0.0
 40
0.0
 40
0.0
 40
0.0
 40
0.261452481
 40
0.5137420461
 40
0.7590933044
 40
1.0
 40
1.0
 40
1.0
 40
1.0
 10
15.6722837337
 20
12.860088638
 30
0.0
 10
15.674297177
 20
12.8611953611
 30
0.0
 10
15.6783563518
 20
12.8631903093
 30
0.0
 10
15.6846209689
 20
12.8655165948
 30
0.0
 10
15.6909256039
 20
12.8671099193
 30
0.0
 10
15.6951712973
 20
12.8676830671
 30
0.0
 10
15.6972822294
 20
12.8678433939
 30
0.0
  0
SPLINE
  5
307
100
AcDbEntity
  8
LAYER_CUT_FEAT
100
AcDbSpline
 62
7
  6
CONTINUOUS
 70
0
 71
3
 72
9
 73
5
 74
0
 42
0.0000001
 43
0.0000001
 44
0.0000000001
 40
0.0
 40
0.0
 40
0.0
 40
0.0
 40
0.5140253649
 40
1.0
 40
1.0
 40
1.0
 40
1.0
 10
15.2690734855
 20
13.2378742693
 30
0.0
 10
15.269399275
 20
13.2376972053
 30
0.0
 10
15.2700720414
 20
13.2374168922
 30
0.0
 10
15.270796333
 20
13.2373169845
 30
0.0
 10
15.2711468954
 20
13.2373170033
 30
0.0
  0
SPLINE
  5
308
100
AcDbEntity
  8
LAYER_CUT_FEAT
100
AcDbSpline
 62
7
  6
CONTINUOUS
 70
0
 71
3
 72
10
 73
6
 74
0
 42
0.0000001
 43
0.0000001
 44
0.0000000001
 40
0.0
 40
0.0
 40
0.0
 40
0.0
 40
0.5175702428
 40
0.7611578812
 40
1.0
 40
1.0
 40
1.0
 40
1.0
 10
15.278577344
 20
13.2752459603
 30
0.0
 10
15.2789471032
 20
13.2750122962
 30
0.0
 10
15.279534798
 20
13.2747269748
 30
0.0
 10
15.2803598749
 20
13.2745330014
 30
0.0
 10
15.2807683324
 20
13.2745010273
 30
0.0
 10
15.2809701796
 20
13.2745010314
 30
0.0
  0
SPLINE
  5
309
100
AcDbEntity
  8
LAYER_CUT_FEAT
100
AcDbSpline
 62
7
  6
CONTINUOUS
 70
0
 71
3
 72
10
 73
6
 74
0
 42
0.0000001
 43
0.0000001
 44
0.0000000001
 40
0.0
 40
0.0
 40
0.0
 40
0.0
 40
0.522004473
 40
0.7640162603
 40
1.0
 40
1.0
 40
1.0
 40
1.0
 10
15.288552282
 20
13.311799124
 30
0.0
 10
15.2889636968
 20
13.3115021581
 30
0.0
 10
15.2896244551
 20
13.3111338493
 30
0.0
 10
15.2905669128
 20
13.3108813059
 30
0.0
 10
15.2910326014
 20
13.3108397845
 30
0.0
 10
15.2912619811
 20
13.3108397734
 30
0.0
  0
SPLINE
  5
30A
100
AcDbEntity
  8
LAYER_CUT_FEAT
100
AcDbSpline
 62
7
  6
CONTINUOUS
 70
0
 71
3
 72
11
 73
7
 74
0
 42
0.0000001
 43
0.0000001
 44
0.0000000001
 40
0.0
 40
0.0
 40
0.0
 40
0.0
 40
0.2733260597
 40
0.5274197577
 40
0.7674750023
 40
1.0
 40
1.0
 40
1.0
 40
1.0
 10
15.2989876182
 20
13.3474946184
 30
0.0
 10
15.2992206137
 20
13.3473051078
 30
0.0
 10
15.2996937635
 20
13.3469666885
 30
0.0
 10
15.3004491507
 20
13.3465835822
 30
0.0
 10
15.3012171307
 20
13.3463498316
 30
0.0
 10
15.301737487
 20
13.3462955731
 30
0.0
 10
15.3019929864
 20
13.3462943746
 30
0.0
  0
SPLINE
  5
30B
100
AcDbEntity
  8
LAYER_CUT_FEAT
100
AcDbSpline
 62
7
  6
CONTINUOUS
 70
0
 71
3
 72
15
 73
11
 74
0
 42
0.0000001
 43
0.0000001
 44
0.0000000001
 40
0.0
 40
0.0
 40
0.0
 40
0.0
 40
0.1460586244
 40
0.2865095727
 40
0.4210819304
 40
0.5495505779
 40
0.6717451375
 40
0.7875586264
 40
0.8969584757
 40
1.0
 40
1.0
 40
1.0
 40
1.0
 10
15.3235573677
 20
13.3156639648
 30
0.0
 10
15.3294994905
 20
13.3348926811
 30
0.0
 10
15.3417769479
 20
13.3724240028
 30
0.0
 10
15.3617982531
 20
13.4268964988
 30
0.0
 10
15.3830117798
 20
13.4783057795
 30
0.0
 10
15.4053469414
 20
13.5264806994
 30
0.0
 10
15.4287299063
 20
13.5712619078
 30
0.0
 10
15.4530849142
 20
13.6125026087
 30
0.0
 10
15.4783311228
 20
13.6500646588
 30
0.0
 10
15.4962348834
 20
13.6732603652
 30
0.0
 10
15.5053332251
 20
13.6841606355
 30
0.0
  0
SPLINE
  5
30C
100
AcDbEntity
  8
LAYER_CHAMFER_FEAT
100
AcDbSpline
 62
7
  6
CONTINUOUS
 70
0
 71
3
 72
15
 73
11
 74
0
 42
0.0000001
 43
0.0000001
 44
0.0000000001
 40
0.0
 40
0.0
 40
0.0
 40
0.0
 40
0.1460586786
 40
0.2865094231
 40
0.4210819674
 40
0.5495505353
 40
0.6717451076
 40
0.7875586031
 40
0.8969584524
 40
1.0
 40
1.0
 40
1.0
 40
1.0
 10
15.8511695682
 20
12.2056461643
 30
0.0
 10
15.8489161109
 20
12.1983539738
 30
0.0
 10
15.8442600846
 20
12.1841208174
 30
0.0
 10
15.83666731
 20
12.163462983
 30
0.0
 10
15.8286224228
 20
12.1439668251
 30
0.0
 10
15.8201521564
 20
12.1256972424
 30
0.0
 10
15.8112845375
 20
12.108714677
 30
0.0
 10
15.8020482856
 20
12.093074789
 30
0.0
 10
15.7924740587
 20
12.0788299709
 30
0.0
 10
15.7856843356
 20
12.0700333666
 30
0.0
 10
15.7822339376
 20
12.0658996053
 30
0.0
  0
SPLINE
  5
30D
100
AcDbEntity
  8
LAYER_FEATURE
100
AcDbSpline
 62
7
  6
CONTINUOUS
 70
0
 71
3
 72
15
 73
11
 74
0
 42
0.0000001
 43
0.0000001
 44
0.0000000001
 40
0.0
 40
0.0
 40
0.0
 40
0.0
 40
0.1248144754
 40
0.2496028075
 40
0.374385344
 40
0.4991680299
 40
0.624012906
 40
0.7490082625
 40
0.8742833218
 40
1.0
 40
1.0
 40
1.0
 40
1.0
 10
15.4688261107
 20
13.4304995159
 30
0.0
 10
15.4636511149
 20
13.4304995159
 30
0.0
 10
15.4532982733
 20
13.4301230995
 30
0.0
 10
15.4378547677
 20
13.4284362234
 30
0.0
 10
15.4225721744
 20
13.4256502414
 30
0.0
 10
15.407521086
 20
13.4217990195
 30
0.0
 10
15.3927600917
 20
13.4169274437
 30
0.0
 10
15.378334453
 20
13.4110850266
 30
0.0
 10
15.3642769874
 20
13.4043245959
 30
0.0
 10
15.3551831514
 20
13.3992505576
 30
0.0
 10
15.3507063515
 20
13.3965808381
 30
0.0
  0
SPLINE
  5
30E
100
AcDbEntity
  8
LAYER_CUT_FEAT
100
AcDbSpline
 62
7
  6
CONTINUOUS
 70
0
 71
3
 72
9
 73
5
 74
0
 42
0.0000001
 43
0.0000001
 44
0.0000000001
 40
0.0
 40
0.0
 40
0.0
 40
0.0
 40
0.5127420179
 40
1.0
 40
1.0
 40
1.0
 40
1.0
 10
14.8123004644
 20
13.3626323358
 30
0.0
 10
14.8121860877
 20
13.3638809475
 30
0.0
 10
14.8118891327
 20
13.3663100252
 30
0.0
 10
14.8114309621
 20
13.3687145112
 30
0.0
 10
14.811162465
 20
13.3698753873
 30
0.0
  0
SPLINE
  5
30F
100
AcDbEntity
  8
LAYER_CUT_FEAT
100
AcDbSpline
 62
7
  6
CONTINUOUS
 70
0
 71
3
 72
9
 73
5
 74
0
 42
0.0000001
 43
0.0000001
 44
0.0000000001
 40
0.0
 40
0.0
 40
0.0
 40
0.0
 40
0.5138924782
 40
1.0
 40
1.0
 40
1.0
 40
1.0
 10
14.80166794
 20
13.3276054518
 30
0.0
 10
14.801538003
 20
13.32884105
 30
0.0
 10
14.8012113609
 20
13.331238385
 30
0.0
 10
14.800722093
 20
13.3336085614
 30
0.0
 10
14.8004382632
 20
13.3347490101
 30
0.0
  0
LINE
  5
310
100
AcDbEntity
  8
LAYER_CUT_FEAT
100
AcDbLine
 62
7
  6
CONTINUOUS
 10
14.801711679
 20
13.3252101143
 11
14.80166794
 21
13.3276054518
  0
LINE
  5
311
100
AcDbEntity
  8
LAYER_FEATURE
100
AcDbLine
 62
7
  6
CONTINUOUS
 10
15.3242057067
 20
13.2508865063
 11
15.324532374
 21
13.2501413244
  0
SPLINE
  5
312
100
AcDbEntity
  8
LAYER_CUT_FEAT
100
AcDbSpline
 62
7
  6
CONTINUOUS
 70
0
 71
3
 72
9
 73
5
 74
0
 42
0.0000001
 43
0.0000001
 44
0.0000000001
 40
0.0
 40
0.0
 40
0.0
 40
0.0
 40
0.5150581522
 40
1.0
 40
1.0
 40
1.0
 40
1.0
 10
14.7914874003
 20
13.2917039728
 30
0.0
 10
14.7913421145
 20
13.2929252608
 30
0.0
 10
14.7909862905
 20
13.2952883848
 30
0.0
 10
14.7904663044
 20
13.2976216554
 30
0.0
 10
14.7901673629
 20
13.2987403884
 30
0.0
  0
LINE
  5
313
100
AcDbEntity
  8
LAYER_CUT_FEAT
100
AcDbLine
 62
7
  6
CONTINUOUS
 10
14.7915616359
 20
13.2893135927
 11
14.7914874003
 21
13.2917039728
  0
SPLINE
  5
314
100
AcDbEntity
  8
LAYER_CUT_FEAT
100
AcDbSpline
 62
7
  6
CONTINUOUS
 70
0
 71
3
 72
9
 73
5
 74
0
 42
0.0000001
 43
0.0000001
 44
0.0000000001
 40
0.0
 40
0.0
 40
0.0
 40
0.0
 40
0.5162400326
 40
1.0
 40
1.0
 40
1.0
 40
1.0
 10
14.7817697468
 20
13.2549663428
 30
0.0
 10
14.7816093408
 20
13.2561720433
 30
0.0
 10
14.7812248731
 20
13.2584985357
 30
0.0
 10
14.7806745793
 20
13.2607923366
 30
0.0
 10
14.7803607623
 20
13.261888081
 30
0.0
  0
LINE
  5
315
100
AcDbEntity
  8
LAYER_CUT_FEAT
100
AcDbLine
 62
7
  6
CONTINUOUS
 10
14.7818743995
 20
13.2525834799
 11
14.7817697468
 21
13.2549663428
  0
SPLINE
  5
316
100
AcDbEntity
  8
LAYER_CUT_FEAT
100
AcDbSpline
 62
7
  6
CONTINUOUS
 70
0
 71
3
 72
11
 73
7
 74
0
 42
0.0000001
 43
0.0000001
 44
0.0000000001
 40
0.0
 40
0.0
 40
0.0
 40
0.0
 40
0.2676027682
 40
0.5237120582
 40
0.7679379772
 40
1.0
 40
1.0
 40
1.0
 40
1.0
 10
15.591870684
 20
11.6261447379
 30
0.0
 10
15.5854009937
 20
11.6083934833
 30
0.0
 10
15.5721084183
 20
11.5738785245
 30
0.0
 10
15.5505973727
 20
11.5240926927
 30
0.0
 10
15.5280095157
 20
11.4775586234
 30
0.0
 10
15.5118638725
 20
11.4480408505
 30
0.0
 10
15.5036055559
 20
11.4338901363
 30
0.0
  0
SPLINE
  5
317
100
AcDbEntity
  8
LAYER_FEATURE
100
AcDbSpline
 62
7
  6
CONTINUOUS
 70
0
 71
3
 72
15
 73
11
 74
0
 42
0.0000001
 43
0.0000001
 44
0.0000000001
 40
0.0
 40
0.0
 40
0.0
 40
0.0
 40
0.1065173479
 40
0.2189479842
 40
0.3369934813
 40
0.4603402951
 40
0.5886609428
 40
0.7216148831
 40
0.8588490696
 40
1.0
 40
1.0
 40
1.0
 40
1.0
 10
15.693938449
 20
13.4805945611
 30
0.0
 10
15.7007663449
 20
13.4670547946
 30
0.0
 10
15.7141472881
 20
13.4388902294
 30
0.0
 10
15.7329199444
 20
13.3947280029
 30
0.0
 10
15.7508495481
 20
13.3476441263
 30
0.0
 10
15.767843689
 20
13.2978198021
 30
0.0
 10
15.7838224239
 20
13.2454384522
 30
0.0
 10
15.7987153714
 20
13.1906872658
 30
0.0
 10
15.8124605459
 20
13.1337570323
 30
0.0
 10
15.8207140134
 20
13.0949891334
 30
0.0
 10
15.8246471476
 20
13.0752833785
 30
0.0
  0
SPLINE
  5
318
100
AcDbEntity
  8
LAYER_FEATURE
100
AcDbSpline
 62
7
  6
CONTINUOUS
 70
0
 71
3
 72
13
 73
9
 74
0
 42
0.0000001
 43
0.0000001
 44
0.0000000001
 40
0.0
 40
0.0
 40
0.0
 40
0.0
 40
0.0915726684
 40
0.1985325955
 40
0.3174774896
 40
0.445468912
 40
0.7185680027
 40
1.0
 40
1.0
 40
1.0
 40
1.0
 10
15.8232204731
 20
13.0064499976
 30
0.0
 10
15.82358636
 20
13.0077573857
 30
0.0
 10
15.8243039677
 20
13.0106132529
 30
0.0
 10
15.8252498147
 20
13.01522536
 30
0.0
 10
15.826093765
 20
13.0204052268
 30
0.0
 10
15.8270412585
 20
13.0280582427
 30
0.0
 10
15.8277284945
 20
13.0381625246
 30
0.0
 10
15.8277310227
 20
13.0463910066
 30
0.0
 10
15.8275888733
 20
13.0505609888
 30
0.0
  0
SPLINE
  5
319
100
AcDbEntity
  8
LAYER_FEATURE
100
AcDbSpline
 62
7
  6
CONTINUOUS
 70
0
 71
3
 72
29
 73
25
 74
0
 42
0.0000001
 43
0.0000001
 44
0.0000000001
 40
0.0
 40
0.0
 40
0.0
 40
0.0
 40
0.0005106075
 40
0.0005347057
 40
0.0005521145
 40
0.0007116279
 40
0.00301463
 40
0.0079723181
 40
0.0155682362
 40
0.0257659466
 40
0.0385187024
 40
0.0537654841
 40
0.0714367127
 40
0.0914541351
 40
0.1137330267
 40
0.1647173215
 40
0.2236545346
 40
0.2898013603
 40
0.3624341916
 40
0.4408650831
 40
0.5244485123
 40
0.6125835212
 40
0.8003001695
 40
1.0
 40
1.0
 40
1.0
 40
1.0
 10
15.7104552421
 20
13.6233166989
 30
0.0
 10
15.7104574479
 20
13.6233209886
 30
0.0
 10
15.7104584946
 20
13.6233229678
 30
0.0
 10
15.7104622585
 20
13.6233304707
 30
0.0
 10
15.7104610266
 20
13.6233280103
 30
0.0
 10
15.7104527771
 20
13.6233112535
 30
0.0
 10
15.7104188722
 20
13.6232407089
 30
0.0
 10
15.7103628321
 20
13.6231188571
 30
0.0
 10
15.7102743556
 20
13.6229195346
 30
0.0
 10
15.7101619552
 20
13.6226551707
 30
0.0
 10
15.7100254186
 20
13.6223206193
 30
0.0
 10
15.7098682823
 20
13.6219189821
 30
0.0
 10
15.7096926889
 20
13.6214506807
 30
0.0
 10
15.7095011603
 20
13.6209175444
 30
0.0
 10
15.7092144971
 20
13.6200842478
 30
0.0
 10
15.7088326099
 20
13.6188950524
 30
0.0
 10
15.7083636756
 20
13.6172990919
 30
0.0
 10
15.7078799878
 20
13.6154948563
 30
0.0
 10
15.7073939289
 20
13.6135011558
 30
0.0
 10
15.7069159967
 20
13.6113364767
 30
0.0
 10
15.7064549568
 20
13.6090186252
 30
0.0
 10
15.70585991
 20
13.6056754897
 30
0.0
 10
15.7052044367
 20
13.6012300163
 30
0.0
 10
15.7048030245
 20
13.5975913952
 30
0.0
 10
15.7046283047
 20
13.5957129972
 30
0.0
  0
SPLINE
  5
31A
100
AcDbEntity
  8
LAYER_FEATURE
100
AcDbSpline
 62
7
  6
CONTINUOUS
 70
0
 71
3
 72
15
 73
11
 74
0
 42
0.0000001
 43
0.0000001
 44
0.0000000001
 40
0.0
 40
0.0
 40
0.0
 40
0.0
 40
0.1384966461
 40
0.2806791071
 40
0.4230146079
 40
0.5619795624
 40
0.6938241186
 40
0.8143051543
 40
0.9183843086
 40
1.0
 40
1.0
 40
1.0
 40
1.0
 10
15.6831707075
 20
13.3650241529
 30
0.0
 10
15.6829264104
 20
13.3623977357
 30
0.0
 10
15.6825584699
 20
13.3570624766
 30
0.0
 10
15.6823646335
 20
13.3490057281
 30
0.0
 10
15.6825274018
 20
13.3409391841
 30
0.0
 10
15.6830377816
 20
13.3330844345
 30
0.0
 10
15.6838648875
 20
13.3256753027
 30
0.0
 10
15.6849480626
 20
13.3189712238
 30
0.0
 10
15.6861831031
 20
13.3132694233
 30
0.0
 10
15.6871317981
 20
13.3098593667
 30
0.0
 10
15.6876069032
 20
13.3083793325
 30
0.0
  0
LINE
  5
31B
100
AcDbEntity
  8
LAYER_FEATURE
100
AcDbLine
 62
7
  6
CONTINUOUS
 10
15.6876069032
 20
13.3083793325
 11
15.6889802633
 21
13.3047112446
  0
SPLINE
  5
31C
100
AcDbEntity
  8
LAYER_FEATURE
100
AcDbSpline
 62
7
  6
CONTINUOUS
 70
0
 71
3
 72
15
 73
11
 74
0
 42
0.0000001
 43
0.0000001
 44
0.0000000001
 40
0.0
 40
0.0
 40
0.0
 40
0.0
 40
0.1429833537
 40
0.2812165091
 40
0.4143606339
 40
0.5421754779
 40
0.6645403935
 40
0.7814760271
 40
0.8931686659
 40
1.0
 40
1.0
 40
1.0
 40
1.0
 10
15.8387267956
 20
12.9434186468
 30
0.0
 10
15.834639409
 20
12.9617480321
 30
0.0
 10
15.8259619081
 20
12.9976597796
 30
0.0
 10
15.8111465833
 20
13.0500415114
 30
0.0
 10
15.7947765348
 20
13.099868424
 30
0.0
 10
15.7768819846
 20
13.1469479109
 30
0.0
 10
15.7574786921
 20
13.1911137661
 30
0.0
 10
15.7365585596
 20
13.2322255173
 30
0.0
 10
15.7140834367
 20
13.2701584693
 30
0.0
 10
15.6976637541
 20
13.2937424019
 30
0.0
 10
15.6891587872
 20
13.3049023397
 30
0.0
  0
SPLINE
  5
31D
100
AcDbEntity
  8
LAYER_FEATURE
100
AcDbSpline
 62
7
  6
CONTINUOUS
 70
0
 71
3
 72
14
 73
10
 74
0
 42
0.0000001
 43
0.0000001
 44
0.0000000001
 40
0.0
 40
0.0
 40
0.0
 40
0.0
 40
0.3914970621
 40
0.5574857813
 40
0.7005415669
 40
0.8183257438
 40
0.9086472718
 40
0.969643253
 40
1.0
 40
1.0
 40
1.0
 40
1.0
 10
15.8387267956
 20
12.9434186468
 30
0.0
 10
15.8390432594
 20
12.9419995037
 30
0.0
 10
15.8395360765
 20
12.9399873896
 30
0.0
 10
15.8402547701
 20
12.9374866066
 30
0.0
 10
15.8407330352
 20
12.9359750344
 30
0.0
 10
15.8411610707
 20
12.9347428999
 30
0.0
 10
15.8415163484
 20
12.9338085715
 30
0.0
 10
15.8417754081
 20
12.9331854659
 30
0.0
 10
15.8419145981
 20
12.93287597
 30
0.0
 10
15.8419634128
 20
12.9327743422
 30
0.0
  0
LINE
  5
31E
100
AcDbEntity
  8
LAYER_FEATURE
100
AcDbLine
 62
7
  6
CONTINUOUS
 10
15.8896160752
 20
12.6093630099
 11
15.8888120188
 21
12.607374565
  0
SPLINE
  5
31F
100
AcDbEntity
  8
LAYER_FEATURE
100
AcDbSpline
 62
7
  6
CONTINUOUS
 70
0
 71
3
 72
11
 73
7
 74
0
 42
0.0000001
 43
0.0000001
 44
0.0000000001
 40
0.0
 40
0.0
 40
0.0
 40
0.0
 40
0.241731925
 40
0.4895027762
 40
0.7425390521
 40
1.0
 40
1.0
 40
1.0
 40
1.0
 10
15.8375124308
 20
12.0728934355
 30
0.0
 10
15.8415010282
 20
12.0904897201
 30
0.0
 10
15.8489669869
 20
12.1262628605
 30
0.0
 10
15.8585540343
 20
12.1808585179
 30
0.0
 10
15.8666464917
 20
12.2368816917
 30
0.0
 10
15.8709933186
 20
12.2747421863
 30
0.0
 10
15.8729177238
 20
12.2938622633
 30
0.0
  0
SPLINE
  5
320
100
AcDbEntity
  8
LAYER_FEATURE
100
AcDbSpline
 62
7
  6
CONTINUOUS
 70
0
 71
3
 72
20
 73
16
 74
0
 42
0.0000001
 43
0.0000001
 44
0.0000000001
 40
0.0
 40
0.0
 40
0.0
 40
0.0
 40
0.0579721409
 40
0.1220156155
 40
0.1907202895
 40
0.2628470206
 40
0.4129763705
 40
0.564285823
 40
0.7088045873
 40
0.7758040997
 40
0.8376021331
 40
0.8927067675
 40
0.9394087127
 40
0.975811458
 40
1.0
 40
1.0
 40
1.0
 40
1.0
 10
15.8375124308
 20
12.0728934355
 30
0.0
 10
15.8371802065
 20
12.0714277793
 30
0.0
 10
15.8365492419
 20
12.0683272436
 30
0.0
 10
15.8357500897
 20
12.0634470561
 30
0.0
 10
15.8350819845
 20
12.0581770004
 30
0.0
 10
15.8343922178
 20
12.0506646864
 30
0.0
 10
15.8339918164
 20
12.0409812439
 30
0.0
 10
15.8342488268
 20
12.0294160676
 30
0.0
 10
15.8350646259
 20
12.0200377362
 30
0.0
 10
15.8360555153
 20
12.0130207117
 30
0.0
 10
15.8368969917
 20
12.0083269549
 30
0.0
 10
15.8378100007
 20
12.0041840056
 30
0.0
 10
15.8387294435
 20
12.0007198322
 30
0.0
 10
15.839566629
 20
11.9980664204
 30
0.0
 10
15.8401119921
 20
11.9965924201
 30
0.0
 10
15.8403505169
 20
11.996012508
 30
0.0
  0
LINE
  5
321
100
AcDbEntity
  8
LAYER_FEATURE
100
AcDbLine
 62
7
  6
CONTINUOUS
 10
15.9074206492
 20
11.8329486481
 11
15.9077473165
 21
11.8322034663
  0
SPLINE
  5
322
100
AcDbEntity
  8
LAYER_FEATURE
100
AcDbSpline
 62
7
  6
CONTINUOUS
 70
0
 71
3
 72
20
 73
16
 74
0
 42
0.0000001
 43
0.0000001
 44
0.0000000001
 40
0.0
 40
0.0
 40
0.0
 40
0.0
 40
0.0557767605
 40
0.1182863482
 40
0.185987001
 40
0.2575344593
 40
0.4074629575
 40
0.5594689647
 40
0.7052362768
 40
0.7729740488
 40
0.8355324251
 40
0.8913711992
 40
0.93871796
 40
0.975596508
 40
1.0
 40
1.0
 40
1.0
 40
1.0
 10
15.6863208292
 20
11.5295015676
 30
0.0
 10
15.6866672757
 20
11.5309325007
 30
0.0
 10
15.6873308354
 20
11.5339845765
 30
0.0
 10
15.6881808127
 20
11.538820878
 30
0.0
 10
15.6889049501
 20
11.5440982585
 30
0.0
 10
15.6896721142
 20
11.5516939904
 30
0.0
 10
15.6901539462
 20
11.5615487616
 30
0.0
 10
15.6899639954
 20
11.5733724269
 30
0.0
 10
15.6891756325
 20
11.5829966437
 30
0.0
 10
15.6881873542
 20
11.5902176773
 30
0.0
 10
15.6873382157
 20
11.5950582394
 30
0.0
 10
15.6864098109
 20
11.5993348148
 30
0.0
 10
15.6854699395
 20
11.6029118462
 30
0.0
 10
15.6846115294
 20
11.6056487368
 30
0.0
 10
15.6840511803
 20
11.607167224
 30
0.0
 10
15.6838061505
 20
11.6077629513
 30
0.0
  0
SPLINE
  5
323
100
AcDbEntity
  8
LAYER_FEATURE
100
AcDbSpline
 62
7
  6
CONTINUOUS
 70
0
 71
3
 72
21
 73
17
 74
0
 42
0.0000001
 43
0.0000001
 44
0.0000000001
 40
0.0
 40
0.0
 40
0.0
 40
0.0
 40
0.1703122872
 40
0.2508138861
 40
0.3281275981
 40
0.4022021244
 40
0.4729910466
 40
0.5404560787
 40
0.6045691794
 40
0.6653153744
 40
0.7226965562
 40
0.7767365476
 40
0.8274873942
 40
0.8750367605
 40
0.9195145446
 40
1.0
 40
1.0
 40
1.0
 40
1.0
 10
15.6832928926
 20
11.5206406527
 30
0.0
 10
15.676295885
 20
11.5075884702
 30
0.0
 10
15.6655070845
 20
11.4886175311
 30
0.0
 10
15.6503128811
 20
11.46446376
 30
0.0
 10
15.6390513295
 20
11.4477335014
 30
0.0
 10
15.6277402044
 20
11.4320671983
 30
0.0
 10
15.6164125558
 20
11.4174825997
 30
0.0
 10
15.6051046059
 20
11.4039945823
 30
0.0
 10
15.5938551329
 20
11.3916139484
 30
0.0
 10
15.5827052339
 20
11.3803464577
 30
0.0
 10
15.5716976837
 20
11.3701916661
 30
0.0
 10
15.5608756647
 20
11.3611413901
 30
0.0
 10
15.5502818531
 20
11.3531787106
 30
0.0
 10
15.5399532665
 20
11.3462757788
 30
0.0
 10
15.5270086152
 20
11.3386867478
 30
0.0
 10
15.5171390494
 20
11.3340440065
 30
0.0
 10
15.5106044138
 20
11.3315383614
 30
0.0
  0
SPLINE
  5
324
100
AcDbEntity
  8
LAYER_FEATURE
100
AcDbSpline
 62
7
  6
CONTINUOUS
 70
0
 71
3
 72
18
 73
14
 74
0
 42
0.0000001
 43
0.0000001
 44
0.0000000001
 40
0.0
 40
0.0
 40
0.0
 40
0.0
 40
0.0590533972
 40
0.1181413868
 40
0.1773136357
 40
0.236642105
 40
0.2962168862
 40
0.3561431271
 40
0.4774764725
 40
0.6016648821
 40
0.7296396334
 40
0.8622036925
 40
1.0
 40
1.0
 40
1.0
 40
1.0
 10
15.5188542631
 20
11.596355763
 30
0.0
 10
15.5242017408
 20
11.5975393839
 30
0.0
 10
15.5348158489
 20
11.6003055786
 30
0.0
 10
15.5504015367
 20
11.6055924532
 30
0.0
 10
15.5656058605
 20
11.6119588375
 30
0.0
 10
15.5803920887
 20
11.6193421024
 30
0.0
 10
15.5947406422
 20
11.6276822986
 30
0.0
 10
15.6133520839
 20
11.6400523399
 30
0.0
 10
15.6355672842
 20
11.6577275756
 30
0.0
 10
15.6604101613
 20
11.6819378242
 30
0.0
 10
15.6836977509
 20
11.7090266899
 30
0.0
 10
15.7055576437
 20
11.7388474033
 30
0.0
 10
15.7189770042
 20
11.7600526942
 30
0.0
 10
15.725487726
 20
11.7710498125
 30
0.0
  0
SPLINE
  5
325
100
AcDbEntity
  8
LAYER_FEATURE
100
AcDbSpline
 62
7
  6
CONTINUOUS
 70
0
 71
3
 72
29
 73
25
 74
0
 42
0.0000001
 43
0.0000001
 44
0.0000000001
 40
0.0
 40
0.0
 40
0.0
 40
0.0
 40
0.0005106075
 40
0.0005347057
 40
0.0005521145
 40
0.0007116279
 40
0.00301463
 40
0.0079723181
 40
0.0155682362
 40
0.0257659466
 40
0.0385187024
 40
0.0537654841
 40
0.0714367127
 40
0.0914541351
 40
0.1137330267
 40
0.1647173215
 40
0.2236545346
 40
0.2898013603
 40
0.3624341916
 40
0.4408650831
 40
0.5244485123
 40
0.6125835212
 40
0.8003001695
 40
1.0
 40
1.0
 40
1.0
 40
1.0
 10
15.5238685913
 20
11.6173391259
 30
0.0
 10
15.523870797
 20
11.6173434156
 30
0.0
 10
15.5238718438
 20
11.6173453948
 30
0.0
 10
15.5238756077
 20
11.6173528977
 30
0.0
 10
15.5238743758
 20
11.6173504373
 30
0.0
 10
15.5238661263
 20
11.6173336805
 30
0.0
 10
15.5238322214
 20
11.6172631359
 30
0.0
 10
15.5237761813
 20
11.6171412842
 30
0.0
 10
15.5236877048
 20
11.6169419617
 30
0.0
 10
15.5235753043
 20
11.6166775977
 30
0.0
 10
15.5234387677
 20
11.6163430464
 30
0.0
 10
15.5232816314
 20
11.6159414091
 30
0.0
 10
15.5231060381
 20
11.6154731077
 30
0.0
 10
15.5229145094
 20
11.6149399715
 30
0.0
 10
15.5226278462
 20
11.6141066749
 30
0.0
 10
15.5222459591
 20
11.6129174794
 30
0.0
 10
15.5217770247
 20
11.6113215189
 30
0.0
 10
15.521293337
 20
11.6095172833
 30
0.0
 10
15.5208072781
 20
11.6075235829
 30
0.0
 10
15.5203293459
 20
11.6053589038
 30
0.0
 10
15.519868306
 20
11.6030410523
 30
0.0
 10
15.5192732592
 20
11.5996979167
 30
0.0
 10
15.5186177859
 20
11.5952524434
 30
0.0
 10
15.5182163737
 20
11.5916138222
 30
0.0
 10
15.5180416539
 20
11.5897354243
 30
0.0
  0
SPLINE
  5
326
100
AcDbEntity
  8
LAYER_CHAMFER_FEAT
100
AcDbSpline
 62
7
  6
CONTINUOUS
 70
0
 71
3
 72
16
 73
12
 74
0
 42
0.0000001
 43
0.0000001
 44
0.0000000001
 40
0.0
 40
0.0
 40
0.0
 40
0.0
 40
0.1491240139
 40
0.2896554164
 40
0.4221618873
 40
0.4856616046
 40
0.5474678652
 40
0.6665036913
 40
0.7805761098
 40
0.8911810027
 40
1.0
 40
1.0
 40
1.0
 40
1.0
 10
15.7754261795
 20
12.0577435697
 30
0.0
 10
15.7723101852
 20
12.0540104418
 30
0.0
 10
15.7660087521
 20
12.0469608717
 30
0.0
 10
15.756046417
 20
12.0374393482
 30
0.0
 10
15.7474594698
 20
12.0305772499
 30
0.0
 10
15.7405109558
 20
12.0258388924
 30
0.0
 10
15.733698669
 20
12.0217009632
 30
0.0
 10
15.7250764314
 20
12.0173901028
 30
0.0
 10
15.7144863207
 20
12.0136288242
 30
0.0
 10
15.7038177122
 20
12.0113627055
 30
0.0
 10
15.6966528654
 20
12.010856652
 30
0.0
 10
15.6931044628
 20
12.0108566624
 30
0.0
  0
SPLINE
  5
327
100
AcDbEntity
  8
LAYER_CHAMFER_FEAT
100
AcDbSpline
 62
7
  6
CONTINUOUS
 70
0
 71
3
 72
31
 73
27
 74
0
 42
0.0000001
 43
0.0000001
 44
0.0000000001
 40
0.0
 40
0.0
 40
0.0
 40
0.0
 40
0.0202798053
 40
0.0417785282
 40
0.0645072001
 40
0.0884607219
 40
0.113620296
 40
0.1399554115
 40
0.1674254679
 40
0.1959811118
 40
0.2255653543
 40
0.2561145196
 40
0.2875590639
 40
0.319824297
 40
0.3864908631
 40
0.4554429169
 40
0.5259575384
 40
0.5972818785
 40
0.6686479221
 40
0.7392868799
 40
0.8084435607
 40
0.8753910748
 40
0.9078236292
 40
0.9394523181
 40
0.9702012624
 40
1.0
 40
1.0
 40
1.0
 40
1.0
 10
15.7822339364
 20
12.9558137058
 30
0.0
 10
15.7855907784
 20
12.9517920423
 30
0.0
 10
15.7921997211
 20
12.9432478103
 30
0.0
 10
15.8015351999
 20
12.929434139
 30
0.0
 10
15.8105518498
 20
12.9142950708
 30
0.0
 10
15.8192212815
 20
12.8978787371
 30
0.0
 10
15.8275168537
 20
12.880236168
 30
0.0
 10
15.8354125543
 20
12.8614227645
 30
0.0
 10
15.842883553
 20
12.8414976642
 30
0.0
 10
15.8499062262
 20
12.8205236825
 30
0.0
 10
15.8564583196
 20
12.7985670463
 30
0.0
 10
15.8625189793
 20
12.7756972327
 30
0.0
 10
15.868069067
 20
12.7519865221
 30
0.0
 10
15.8748378813
 20
12.7189923118
 30
0.0
 10
15.8818618386
 20
12.6761777992
 30
0.0
 10
15.8879347577
 20
12.6232595377
 30
0.0
 10
15.8916627601
 20
12.5689188158
 30
0.0
 10
15.8929980059
 20
12.5138438339
 30
0.0
 10
15.8919232628
 20
12.4587310577
 30
0.0
 10
15.8884524116
 20
12.4042774613
 30
0.0
 10
15.8826299877
 20
12.3511727159
 30
0.0
 10
15.8758108049
 20
12.3081546104
 30
0.0
 10
15.8692012218
 20
12.2749616328
 30
0.0
 10
15.863764024
 20
12.2510787189
 30
0.0
 10
15.8578123702
 20
12.228020906
 30
0.0
 10
15.8534422013
 20
12.2130004075
 30
0.0
 10
15.8511695682
 20
12.2056461643
 30
0.0
  0
SPLINE
  5
328
100
AcDbEntity
  8
LAYER_CUT_FEAT
100
AcDbSpline
 62
7
  6
CONTINUOUS
 70
0
 71
3
 72
21
 73
17
 74
0
 42
0.0000001
 43
0.0000001
 44
0.0000000001
 40
0.0
 40
0.0
 40
0.0
 40
0.0
 40
0.1479597795
 40
0.2188325828
 40
0.2877100521
 40
0.354669891
 40
0.4198022451
 40
0.4832103847
 40
0.5450111051
 40
0.664279337
 40
0.7220986885
 40
0.7789168645
 40
0.8349177905
 40
0.8902958197
 40
0.9452536993
 40
1.0
 40
1.0
 40
1.0
 40
1.0
 10
15.5054705816
 20
11.3375531586
 30
0.0
 10
15.5132642707
 20
11.3285850371
 30
0.0
 10
15.525247691
 20
11.3157027784
 30
0.0
 10
15.5419647924
 20
11.2997484907
 30
0.0
 10
15.5544415903
 20
11.2887922643
 30
0.0
 10
15.5670277276
 20
11.2786824621
 30
0.0
 10
15.5797147852
 20
11.2694261095
 30
0.0
 10
15.5924951678
 20
11.2610294626
 30
0.0
 10
15.6094425453
 20
11.25110811
 30
0.0
 10
15.6267690699
 20
11.2427595912
 30
0.0
 10
15.6443644122
 20
11.2361592661
 30
0.0
 10
15.6574753465
 20
11.2321440823
 30
0.0
 10
15.6706246185
 20
11.2290177607
 30
0.0
 10
15.6838034785
 20
11.2267826882
 30
0.0
 10
15.6970013114
 20
11.2254408477
 30
0.0
 10
15.7058136507
 20
11.2251423766
 30
0.0
 10
15.7102098812
 20
11.2251423735
 30
0.0
  0
SPLINE
  5
329
100
AcDbEntity
  8
LAYER_CUT_FEAT
100
AcDbSpline
 62
7
  6
CONTINUOUS
 70
0
 71
3
 72
39
 73
35
 74
0
 42
0.0000001
 43
0.0000001
 44
0.0000000001
 40
0.0
 40
0.0
 40
0.0
 40
0.0
 40
0.020279043
 40
0.0417769543
 40
0.0645047734
 40
0.0884573928
 40
0.1136160195
 40
0.1399501443
 40
0.1674191623
 40
0.1959737304
 40
0.2255568553
 40
0.2561048675
 40
0.2875482266
 40
0.3198122416
 40
0.3528177323
 40
0.3864816021
 40
0.4207174047
 40
0.4554358539
 40
0.4905453174
 40
0.5259523011
 40
0.5615619047
 40
0.5972782844
 40
0.6330051
 40
0.668645963
 40
0.7041048825
 40
0.7392867187
 40
0.774097631
 40
0.8084455455
 40
0.8422406291
 40
0.8753957717
 40
0.9078271161
 40
0.9394545824
 40
0.9702023762
 40
1.0
 40
1.0
 40
1.0
 40
1.0
 10
15.5053332241
 20
11.3375526768
 30
0.0
 10
15.4964816002
 20
11.3481573806
 30
0.0
 10
15.4790545209
 20
11.3706875977
 30
0.0
 10
15.4544378598
 20
11.4071127673
 30
0.0
 10
15.4306619329
 20
11.4470328741
 30
0.0
 10
15.407801568
 20
11.490320986
 30
0.0
 10
15.3859270357
 20
11.5368425503
 30
0.0
 10
15.3651069278
 20
11.5864514792
 30
0.0
 10
15.3454066967
 20
11.6389918248
 30
0.0
 10
15.3268886653
 20
11.6942979664
 30
0.0
 10
15.3096115069
 20
11.7521952402
 30
0.0
 10
15.2936301337
 20
11.8125005374
 30
0.0
 10
15.2789953931
 20
11.875022913
 30
0.0
 10
15.2657538733
 20
11.9395642252
 30
0.0
 10
15.2539478051
 20
12.0059198029
 30
0.0
 10
15.2436148002
 20
12.0738791045
 30
0.0
 10
15.2347878317
 20
12.1432264191
 30
0.0
 10
15.227495059
 20
12.2137415617
 30
0.0
 10
15.2217597309
 20
12.2852005866
 30
0.0
 10
15.2176001767
 20
12.3573765146
 30
0.0
 10
15.2150296412
 20
12.4300400593
 30
0.0
 10
15.2140563434
 20
12.5029603688
 30
0.0
 10
15.2146833905
 20
12.5759057661
 30
0.0
 10
15.2169087632
 20
12.6486444935
 30
0.0
 10
15.220725389
 20
12.7209454568
 30
0.0
 10
15.226121061
 20
12.7925789697
 30
0.0
 10
15.2330785788
 20
12.8633174895
 30
0.0
 10
15.2415757458
 20
12.9329363542
 30
0.0
 10
15.2515854344
 20
13.0012145003
 30
0.0
 10
15.2630757544
 20
13.0679352044
 30
0.0
 10
15.2760100176
 20
13.1328866878
 30
0.0
 10
15.2903470824
 20
13.1958631407
 30
0.0
 10
15.3060410256
 20
13.2566641654
 30
0.0
 10
15.3175646764
 20
13.2962716087
 30
0.0
 10
15.3235573677
 20
13.3156639648
 30
0.0
  0
SPLINE
  5
32A
100
AcDbEntity
  8
LAYER_CUT_FEAT
100
AcDbSpline
 62
7
  6
CONTINUOUS
 70
0
 71
3
 72
21
 73
17
 74
0
 42
0.0000001
 43
0.0000001
 44
0.0000000001
 40
0.0
 40
0.0
 40
0.0
 40
0.0
 40
0.1479626447
 40
0.2188365495
 40
0.2877148785
 40
0.3546753699
 40
0.4198081337
 40
0.4832164536
 40
0.5450171556
 40
0.6642847073
 40
0.7221034619
 40
0.7789208756
 40
0.8349209152
 40
0.8902979622
 40
0.9452547869
 40
1.0
 40
1.0
 40
1.0
 40
1.0
 10
15.5054529291
 20
13.6841398482
 30
0.0
 10
15.5132471773
 20
13.6931095464
 30
0.0
 10
15.5252315003
 20
13.7059940849
 30
0.0
 10
15.5419499478
 20
13.7219512615
 30
0.0
 10
15.5544277662
 20
13.7329094541
 30
0.0
 10
15.5670149408
 20
13.7430210902
 30
0.0
 10
15.5797030713
 20
13.7522791181
 30
0.0
 10
15.5924845546
 20
13.7606772837
 30
0.0
 10
15.6094333699
 20
13.7706004395
 30
0.0
 10
15.6267614395
 20
13.7789504729
 30
0.0
 10
15.644358386
 20
13.7855520333
 30
0.0
 10
15.6574705117
 20
13.789567945
 30
0.0
 10
15.6706209824
 20
13.7926948399
 30
0.0
 10
15.6838010485
 20
13.7949303347
 30
0.0
 10
15.6970000959
 20
13.796272406
 30
0.0
 10
15.7058132472
 20
13.7965709471
 30
0.0
 10
15.7102098812
 20
13.796570944
 30
0.0
  0
SPLINE
  5
32B
100
AcDbEntity
  8
LAYER_CHAMFER_FEAT
100
AcDbSpline
 62
7
  6
CONTINUOUS
 70
0
 71
3
 72
17
 73
13
 74
0
 42
0.0000001
 43
0.0000001
 44
0.0000000001
 40
0.0
 40
0.0
 40
0.0
 40
0.0
 40
0.0543263089
 40
0.1088779911
 40
0.219475565
 40
0.333540436
 40
0.4525683856
 40
0.5143704846
 40
0.5778660771
 40
0.7103637737
 40
0.8508858672
 40
1.0
 40
1.0
 40
1.0
 40
1.0
 10
15.6931044628
 20
13.0108566551
 30
0.0
 10
15.6948760687
 20
13.0108566499
 30
0.0
 10
15.6984280148
 20
13.0107319047
 30
0.0
 10
15.7055504339
 20
13.0099817905
 30
0.0
 10
15.7144874429
 20
13.0080845209
 30
0.0
 10
15.7250761071
 20
13.0043232017
 30
0.0
 10
15.7336987021
 20
13.0000123376
 30
0.0
 10
15.7405109574
 20
12.9958744378
 30
0.0
 10
15.7474594638
 20
12.9911360486
 30
0.0
 10
15.7560464162
 20
12.9842739647
 30
0.0
 10
15.7660087529
 20
12.9747524387
 30
0.0
 10
15.7723101784
 20
12.967702864
 30
0.0
 10
15.7754261783
 20
12.9639697412
 30
0.0
  0
SPLINE
  5
32C
100
AcDbEntity
  8
LAYER_CUT_FEAT
100
AcDbSpline
 62
7
  6
CONTINUOUS
 70
0
 71
3
 72
20
 73
16
 74
0
 42
0.0000001
 43
0.0000001
 44
0.0000000001
 40
0.0
 40
0.0
 40
0.0
 40
0.0
 40
0.0335684012
 40
0.0688807122
 40
0.1073844724
 40
0.1500978603
 40
0.1976306867
 40
0.2502658889
 40
0.3080402663
 40
0.3708063911
 40
0.4382766111
 40
0.5100542561
 40
0.6644892015
 40
0.8295633077
 40
1.0
 40
1.0
 40
1.0
 40
1.0
 10
15.6608463692
 20
12.8754831999
 30
0.0
 10
15.6603860211
 20
12.8754831921
 30
0.0
 10
15.6594375498
 20
12.8753597335
 30
0.0
 10
15.658055588
 20
12.8748168885
 30
0.0
 10
15.6567138206
 20
12.8739311892
 30
0.0
 10
15.6554220304
 20
12.8727176299
 30
0.0
 10
15.6541876923
 20
12.8711895222
 30
0.0
 10
15.6530198392
 20
12.869361071
 30
0.0
 10
15.6519281322
 20
12.867248894
 30
0.0
 10
15.6509224279
 20
12.8648724777
 30
0.0
 10
15.650012064
 20
12.8622540884
 30
0.0
 10
15.6489104859
 20
12.8583783047
 30
0.0
 10
15.6478501145
 20
12.8531089646
 30
0.0
 10
15.647092153
 20
12.8464262637
 30
0.0
 10
15.6469317786
 20
12.8418224837
 30
0.0
 10
15.6469390102
 20
12.8394851715
 30
0.0
  0
SPLINE
  5
32D
100
AcDbEntity
  8
LAYER_CUT_FEAT
100
AcDbSpline
 62
7
  6
CONTINUOUS
 70
0
 71
3
 72
16
 73
12
 74
0
 42
0.0000001
 43
0.0000001
 44
0.0000000001
 40
0.0
 40
0.0
 40
0.0
 40
0.0
 40
0.0426920593
 40
0.0861247775
 40
0.1777346426
 40
0.2795453176
 40
0.3944389165
 40
0.5238813118
 40
0.6682829899
 40
0.8272882678
 40
1.0
 40
1.0
 40
1.0
 40
1.0
 10
15.7504887419
 20
12.8677108848
 30
0.0
 10
15.7502279937
 20
12.8677108897
 30
0.0
 10
15.7497011842
 20
12.8676725357
 30
0.0
 10
15.7486375933
 20
12.8674402871
 30
0.0
 10
15.7473027462
 20
12.8668400015
 30
0.0
 10
15.7457936436
 20
12.8656939066
 30
0.0
 10
15.744354954
 20
12.8641330449
 30
0.0
 10
15.7429985594
 20
12.8621772273
 30
0.0
 10
15.7417370696
 20
12.8598490344
 30
0.0
 10
15.7405846569
 20
12.8571757798
 30
0.0
 10
15.7399237342
 20
12.8552585958
 30
0.0
 10
15.7396111565
 20
12.8542511082
 30
0.0
  0
SPLINE
  5
32E
100
AcDbEntity
  8
LAYER_CUT_FEAT
100
AcDbSpline
 62
7
  6
CONTINUOUS
 70
0
 71
3
 72
25
 73
21
 74
0
 42
0.0000001
 43
0.0000001
 44
0.0000000001
 40
0.0
 40
0.0
 40
0.0
 40
0.0
 40
0.0187299706
 40
0.0377032617
 40
0.0570463081
 40
0.0768763156
 40
0.1183826552
 40
0.1629640737
 40
0.2111354354
 40
0.263238853
 40
0.3194717723
 40
0.379914028
 40
0.4445507038
 40
0.5132901132
 40
0.5859775668
 40
0.6624061567
 40
0.7423253021
 40
0.8254476106
 40
0.9114537
 40
1.0
 40
1.0
 40
1.0
 40
1.0
 10
15.6972822294
 20
12.153869916
 30
0.0
 10
15.6956013059
 20
12.1539975879
 30
0.0
 10
15.6922275869
 20
12.1544120611
 30
0.0
 10
15.6872030539
 20
12.1554994009
 30
0.0
 10
15.6821985998
 20
12.1570530857
 30
0.0
 10
15.675462111
 20
12.1597832531
 30
0.0
 10
15.6670900849
 20
12.1644249261
 30
0.0
 10
15.6574124123
 20
12.1717141648
 30
0.0
 10
15.6479864997
 20
12.1807599888
 30
0.0
 10
15.6388542974
 20
12.191511984
 30
0.0
 10
15.6300555533
 20
12.2039151953
 30
0.0
 10
15.6216317338
 20
12.2179070518
 30
0.0
 10
15.6136238992
 20
12.2334169983
 30
0.0
 10
15.6060722538
 20
12.2503663015
 30
0.0
 10
15.5990153207
 20
12.2686683386
 30
0.0
 10
15.5924894922
 20
12.288229067
 30
0.0
 10
15.5865286634
 20
12.308947557
 30
0.0
 10
15.5811639319
 20
12.3307166238
 30
0.0
 10
15.5764233261
 20
12.3534231355
 30
0.0
 10
15.5737308756
 20
12.3689043916
 30
0.0
 10
15.5724891613
 20
12.3767765493
 30
0.0
  0
SPLINE
  5
32F
100
AcDbEntity
  8
LAYER_CUT_FEAT
100
AcDbSpline
 62
7
  6
CONTINUOUS
 70
0
 71
3
 72
73
 73
69
 74
0
 42
0.0000001
 43
0.0000001
 44
0.0000000001
 40
0.0
 40
0.0
 40
0.0
 40
0.0
 40
0.0041771608
 40
0.0083683562
 40
0.0125874462
 40
0.0168479539
 40
0.0211629139
 40
0.0255447457
 40
0.0345517547
 40
0.0439565714
 40
0.0538294058
 40
0.064226819
 40
0.0751925934
 40
0.0867590047
 40
0.0989482161
 40
0.1117736128
 40
0.1252409949
 40
0.1393496079
 40
0.1540930228
 40
0.1694598717
 40
0.1854344589
 40
0.2019972762
 40
0.2191254466
 40
0.2367931002
 40
0.2549716973
 40
0.2736303136
 40
0.292735901
 40
0.3122535188
 40
0.3321465445
 40
0.3523768715
 40
0.3729050978
 40
0.3936907042
 40
0.4146922221
 40
0.4571713466
 40
0.5
 40
0.5428286534
 40
0.5853077779
 40
0.6063092954
 40
0.6270949022
 40
0.6476231291
 40
0.6678534553
 40
0.6877464805
 40
0.7072640992
 40
0.7263696872
 40
0.7450283026
 40
0.7632068988
 40
0.7808745537
 40
0.7980027249
 40
0.8145655409
 40
0.8305401271
 40
0.8459069776
 40
0.8606503933
 40
0.8747590048
 40
0.888226386
 40
0.9010517844
 40
0.9132409965
 40
0.9248074063
 40
0.9357731799
 40
0.9461705946
 40
0.9560434295
 40
0.9654482452
 40
0.9744552538
 40
0.9788370862
 40
0.9831520464
 40
0.9874125536
 40
0.9916316441
 40
0.9958228392
 40
1.0
 40
1.0
 40
1.0
 40
1.0
 10
15.7184994302
 20
11.1397852359
 30
0.0
 10
15.7228692858
 20
11.1397852408
 30
0.0
 10
15.7316261755
 20
11.1400616288
 30
0.0
 10
15.7447437258
 20
11.1413044628
 30
0.0
 10
15.7578450275
 20
11.1433747803
 30
0.0
 10
15.7709209888
 20
11.1462710425
 30
0.0
 10
15.783963949
 20
11.149991361
 30
0.0
 10
15.8014568822
 20
11.1561013306
 30
0.0
 10
15.8232641715
 20
11.1658741085
 30
0.0
 10
15.8489032756
 20
11.1807385961
 30
0.0
 10
15.8742017509
 20
11.1988037255
 30
0.0
 10
15.8991017348
 20
11.2200194144
 30
0.0
 10
15.9235500221
 20
11.2443318095
 30
0.0
 10
15.9474927286
 20
11.2716813673
 30
0.0
 10
15.9708764547
 20
11.3020025813
 30
0.0
 10
15.9936480447
 20
11.3352234456
 30
0.0
 10
16.0157549839
 20
11.3712652578
 30
0.0
 10
16.0371456879
 20
11.4100425637
 30
0.0
 10
16.0577697787
 20
11.4514632629
 30
0.0
 10
16.0775783448
 20
11.4954287708
 30
0.0
 10
16.0965241737
 20
11.5418342278
 30
0.0
 10
16.1145619565
 20
11.5905687487
 30
0.0
 10
16.1316484315
 20
11.6415157141
 30
0.0
 10
16.1477425335
 20
11.6945530663
 30
0.0
 10
16.1628055304
 20
11.7495536107
 30
0.0
 10
16.1768011467
 20
11.8063853353
 30
0.0
 10
16.1896956445
 20
11.86491175
 30
0.0
 10
16.2014579188
 20
11.9249922295
 30
0.0
 10
16.2120595848
 20
11.9864823477
 30
0.0
 10
16.2214750738
 20
12.0492342648
 30
0.0
 10
16.2296816218
 20
12.1130969758
 30
0.0
 10
16.2366595476
 20
12.1779171382
 30
0.0
 10
16.2443309392
 20
12.2657411032
 30
0.0
 10
16.2507192645
 20
12.3768016411
 30
0.0
 10
16.2532735371
 20
12.5108566586
 30
0.0
 10
16.2507192639
 20
12.6449116759
 30
0.0
 10
16.2443309415
 20
12.7559722137
 30
0.0
 10
16.2366595436
 20
12.8437961782
 30
0.0
 10
16.2296816222
 20
12.9086163416
 30
0.0
 10
16.2214750775
 20
12.9724790534
 30
0.0
 10
16.2120595847
 20
13.0352309691
 30
0.0
 10
16.2014579148
 20
13.0967210862
 30
0.0
 10
16.1896956451
 20
13.1568015676
 30
0.0
 10
16.1768011505
 20
13.2153279837
 30
0.0
 10
16.1628055302
 20
13.2721597061
 30
0.0
 10
16.1477425293
 20
13.3271602487
 30
0.0
 10
16.1316484324
 20
13.3801976037
 30
0.0
 10
16.1145619604
 20
13.4311445711
 30
0.0
 10
16.0965241734
 20
13.4798790889
 30
0.0
 10
16.0775783403
 20
13.5262845434
 30
0.0
 10
16.0577697799
 20
13.5702500554
 30
0.0
 10
16.0371456918
 20
13.6116707571
 30
0.0
 10
16.0157549834
 20
13.6504480588
 30
0.0
 10
15.99364804
 20
13.6864898673
 30
0.0
 10
15.9708764563
 20
13.7197107375
 30
0.0
 10
15.9474927325
 20
13.7500319549
 30
0.0
 10
15.9235500214
 20
13.7773815068
 30
0.0
 10
15.8991017302
 20
13.8016938964
 30
0.0
 10
15.8742017529
 20
13.8229095945
 30
0.0
 10
15.8489032786
 20
13.8409747276
 30
0.0
 10
15.823264171
 20
13.8558392083
 30
0.0
 10
15.8014568786
 20
13.8656119756
 30
0.0
 10
15.7839639503
 20
13.8717219595
 30
0.0
 10
15.7709209902
 20
13.8754422818
 30
0.0
 10
15.757845025
 20
13.8783385238
 30
0.0
 10
15.7447437277
 20
13.8804088687
 30
0.0
 10
15.7316261747
 20
13.8816516782
 30
0.0
 10
15.7228692857
 20
13.8819280812
 30
0.0
 10
15.7184994302
 20
13.8819280792
 30
0.0
  0
SPLINE
  5
330
100
AcDbEntity
  8
LAYER_CUT_FEAT
100
AcDbSpline
 62
7
  6
CONTINUOUS
 70
0
 71
3
 72
49
 73
45
 74
0
 42
0.0000001
 43
0.0000001
 44
0.0000000001
 40
0.0
 40
0.0
 40
0.0
 40
0.0
 40
0.0077228553
 40
0.0154932266
 40
0.0233575616
 40
0.0313602664
 40
0.0395429021
 40
0.0479435933
 40
0.0655229271
 40
0.074767808
 40
0.0843443081
 40
0.0942713051
 40
0.104564281
 40
0.1152355906
 40
0.1262947352
 40
0.1377486244
 40
0.1496018205
 40
0.1618567615
 40
0.1745139617
 40
0.1875721912
 40
0.2010286342
 40
0.2148790324
 40
0.229117811
 40
0.2587302928
 40
0.289801351
 40
0.3222488649
 40
0.3559778712
 40
0.3908824085
 40
0.4268470853
 40
0.4637484675
 40
0.5014563333
 40
0.5398348197
 40
0.5787435005
 40
0.618038424
 40
0.6575731081
 40
0.6971995143
 40
0.7367690141
 40
0.776133345
 40
0.8151455722
 40
0.8536610631
 40
0.8915384749
 40
0.9286407743
 40
0.9648362945
 40
1.0
 40
1.0
 40
1.0
 40
1.0
 10
15.2237580962
 20
11.1397852359
 30
0.0
 10
15.217835221
 20
11.1397852293
 30
0.0
 10
15.2059468414
 20
11.1402943774
 30
0.0
 10
15.1881595365
 20
11.1425818904
 30
0.0
 10
15.1704146105
 20
11.1463904121
 30
0.0
 10
15.152735146
 20
11.1517139789
 30
0.0
 10
15.1351402723
 20
11.1585453876
 30
0.0
 10
15.111467852
 20
11.1698187336
 30
0.0
 10
15.0883723537
 20
11.1840132783
 30
0.0
 10
15.0660043952
 20
11.2007333334
 30
0.0
 10
15.0491212821
 20
11.2149330764
 30
0.0
 10
15.0324367047
 20
11.2305622576
 30
0.0
 10
15.0159662612
 20
11.2476046062
 30
0.0
 10
14.9997280361
 20
11.2660408601
 30
0.0
 10
14.9837392132
 20
11.2858507762
 30
0.0
 10
14.9680170126
 20
11.3070125413
 30
0.0
 10
14.9525783917
 20
11.3295029289
 30
0.0
 10
14.9374400917
 20
11.3532972578
 30
0.0
 10
14.9226185899
 20
11.3783694147
 30
0.0
 10
14.9081300578
 20
11.4046918778
 30
0.0
 10
14.8939903963
 20
11.4322356982
 30
0.0
 10
14.880214945
 20
11.4609706952
 30
0.0
 10
14.8621173788
 20
11.5013584365
 30
0.0
 10
14.8405680245
 20
11.5546492891
 30
0.0
 10
14.8167217345
 20
11.6219970978
 30
0.0
 10
14.7946654002
 20
11.6932625283
 30
0.0
 10
14.7744965488
 20
11.7681317196
 30
0.0
 10
14.7563043065
 20
11.8462762105
 30
0.0
 10
14.7401692715
 20
11.9273521208
 30
0.0
 10
14.7261629685
 20
12.0110024372
 30
0.0
 10
14.7143475507
 20
12.0968584822
 30
0.0
 10
14.7047754728
 20
12.1845416509
 30
0.0
 10
14.6974892217
 20
12.2736651138
 30
0.0
 10
14.6925211547
 20
12.3638355754
 30
0.0
 10
14.6898933485
 20
12.4546550426
 30
0.0
 10
14.689617464
 20
12.5457226109
 30
0.0
 10
14.6916947218
 20
12.6366362633
 30
0.0
 10
14.6961159083
 20
12.7269946751
 30
0.0
 10
14.7028613838
 20
12.8163990021
 30
0.0
 10
14.7119011888
 20
12.9044547155
 30
0.0
 10
14.7231951698
 20
12.9907732126
 30
0.0
 10
14.7366932733
 20
13.074974136
 30
0.0
 10
14.7523353076
 20
13.1566851087
 30
0.0
 10
14.7643337186
 20
13.2100930959
 30
0.0
 10
14.7706971142
 20
13.2362996247
 30
0.0
  0
SPLINE
  5
331
100
AcDbEntity
  8
LAYER_CUT_FEAT
100
AcDbSpline
 62
7
  6
CONTINUOUS
 70
0
 71
3
 72
49
 73
45
 74
0
 42
0.0000001
 43
0.0000001
 44
0.0000000001
 40
0.0
 40
0.0
 40
0.0
 40
0.0
 40
0.0351637055
 40
0.0713592257
 40
0.1084615251
 40
0.1463389369
 40
0.1848544278
 40
0.223866655
 40
0.2632309859
 40
0.3028004857
 40
0.3424268919
 40
0.381961576
 40
0.4212564995
 40
0.4601651803
 40
0.4985436667
 40
0.5362515325
 40
0.5731529147
 40
0.6091175915
 40
0.6440221288
 40
0.6777511351
 40
0.710198649
 40
0.7412697072
 40
0.770882189
 40
0.7851209676
 40
0.7989713658
 40
0.8124278088
 40
0.8254860383
 40
0.8381432385
 40
0.8503981795
 40
0.8622513756
 40
0.8737052648
 40
0.8847644094
 40
0.895435719
 40
0.9057286949
 40
0.9156556919
 40
0.925232192
 40
0.9344770729
 40
0.9520564067
 40
0.9604570979
 40
0.9686397336
 40
0.9766424384
 40
0.9845067734
 40
0.9922771447
 40
1.0
 40
1.0
 40
1.0
 40
1.0
 10
15.2654384481
 20
13.2362996247
 30
0.0
 10
15.2590750525
 20
13.2100930959
 30
0.0
 10
15.2470766415
 20
13.1566851087
 30
0.0
 10
15.2314346072
 20
13.074974136
 30
0.0
 10
15.2179365037
 20
12.9907732126
 30
0.0
 10
15.2066425227
 20
12.9044547155
 30
0.0
 10
15.1976027177
 20
12.8163990021
 30
0.0
 10
15.1908572423
 20
12.7269946751
 30
0.0
 10
15.1864360558
 20
12.6366362633
 30
0.0
 10
15.1843587979
 20
12.5457226109
 30
0.0
 10
15.1846346824
 20
12.4546550426
 30
0.0
 10
15.1872624887
 20
12.3638355754
 30
0.0
 10
15.1922305557
 20
12.2736651138
 30
0.0
 10
15.1995168067
 20
12.1845416509
 30
0.0
 10
15.2090888846
 20
12.0968584822
 30
0.0
 10
15.2209043024
 20
12.0110024372
 30
0.0
 10
15.2349106054
 20
11.9273521208
 30
0.0
 10
15.2510456404
 20
11.8462762105
 30
0.0
 10
15.2692378827
 20
11.7681317196
 30
0.0
 10
15.2894067342
 20
11.6932625283
 30
0.0
 10
15.3114630684
 20
11.6219970978
 30
0.0
 10
15.3353093584
 20
11.5546492891
 30
0.0
 10
15.3568587127
 20
11.5013584365
 30
0.0
 10
15.3749562789
 20
11.4609706952
 30
0.0
 10
15.3887317302
 20
11.4322356982
 30
0.0
 10
15.4028713918
 20
11.4046918778
 30
0.0
 10
15.4173599238
 20
11.3783694147
 30
0.0
 10
15.4321814256
 20
11.3532972578
 30
0.0
 10
15.4473197256
 20
11.3295029289
 30
0.0
 10
15.4627583465
 20
11.3070125413
 30
0.0
 10
15.4784805472
 20
11.2858507762
 30
0.0
 10
15.49446937
 20
11.2660408601
 30
0.0
 10
15.5107075951
 20
11.2476046062
 30
0.0
 10
15.5271780387
 20
11.2305622576
 30
0.0
 10
15.5438626161
 20
11.2149330764
 30
0.0
 10
15.5607457291
 20
11.2007333334
 30
0.0
 10
15.5831136876
 20
11.1840132783
 30
0.0
 10
15.6062091859
 20
11.1698187336
 30
0.0
 10
15.6298816062
 20
11.1585453876
 30
0.0
 10
15.6474764799
 20
11.1517139789
 30
0.0
 10
15.6651559444
 20
11.1463904121
 30
0.0
 10
15.6829008704
 20
11.1425818904
 30
0.0
 10
15.7006881754
 20
11.1402943774
 30
0.0
 10
15.712576555
 20
11.1397852293
 30
0.0
 10
15.7184994302
 20
11.1397852359
 30
0.0
  0
SPLINE
  5
332
100
AcDbEntity
  8
LAYER_CUT_FEAT
100
AcDbSpline
 62
7
  6
CONTINUOUS
 70
0
 71
3
 72
11
 73
7
 74
0
 42
0.0000001
 43
0.0000001
 44
0.0000000001
 40
0.0
 40
0.0
 40
0.0
 40
0.0
 40
0.2435060483
 40
0.5047870029
 40
0.7635881931
 40
1.0
 40
1.0
 40
1.0
 40
1.0
 10
15.2741599679
 20
13.2710401216
 30
0.0
 10
15.2740360475
 20
13.2705465086
 30
0.0
 10
15.2738623503
 20
13.2695018407
 30
0.0
 10
15.2737927912
 20
13.2679041181
 30
0.0
 10
15.2739060676
 20
13.2663237928
 30
0.0
 10
15.2741096187
 20
13.2653044661
 30
0.0
 10
15.2742488284
 20
13.2648303788
 30
0.0
  0
SPLINE
  5
333
100
AcDbEntity
  8
LAYER_CUT_FEAT
100
AcDbSpline
 62
7
  6
CONTINUOUS
 70
0
 71
3
 72
11
 73
7
 74
0
 42
0.0000001
 43
0.0000001
 44
0.0000000001
 40
0.0
 40
0.0
 40
0.0
 40
0.0
 40
0.2340318729
 40
0.4919888615
 40
0.7540957909
 40
1.0
 40
1.0
 40
1.0
 40
1.0
 10
15.3053155375
 20
13.3792204934
 30
0.0
 10
15.3051712659
 20
13.3787536302
 30
0.0
 10
15.3049577904
 20
13.3777440761
 30
0.0
 10
15.3048299423
 20
13.3761714559
 30
0.0
 10
15.3048846887
 20
13.374569744
 30
0.0
 10
15.3050482419
 20
13.3735178108
 30
0.0
 10
15.3051669463
 20
13.3730182859
 30
0.0
  0
SPLINE
  5
334
100
AcDbEntity
  8
LAYER_CUT_FEAT
100
AcDbSpline
 62
7
  6
CONTINUOUS
 70
0
 71
3
 72
14
 73
10
 74
0
 42
0.0000001
 43
0.0000001
 44
0.0000000001
 40
0.0
 40
0.0
 40
0.0
 40
0.0
 40
0.2952137447
 40
0.4348391541
 40
0.5670848882
 40
0.690640179
 40
0.8044255866
 40
0.9076650291
 40
1.0
 40
1.0
 40
1.0
 40
1.0
 10
15.2964530129
 20
13.3252101143
 30
0.0
 10
15.2963577751
 20
13.3237857509
 30
0.0
 10
15.2961232518
 20
13.3216915934
 30
0.0
 10
15.2956039902
 20
13.3189979366
 30
0.0
 10
15.2951347877
 20
13.317142991
 30
0.0
 10
15.2945852854
 20
13.3154409293
 30
0.0
 10
15.2939627408
 20
13.3139141556
 30
0.0
 10
15.2932756097
 20
13.3125829588
 30
0.0
 10
15.2927505318
 20
13.3117927936
 30
0.0
 10
15.2924766239
 20
13.3114401826
 30
0.0
  0
LINE
  5
335
100
AcDbEntity
  8
LAYER_CUT_FEAT
100
AcDbLine
 62
7
  6
CONTINUOUS
 10
15.2848849226
 20
13.3108383583
 11
15.2840836827
 21
13.3079666869
  0
SPLINE
  5
336
100
AcDbEntity
  8
LAYER_CUT_FEAT
100
AcDbSpline
 62
7
  6
CONTINUOUS
 70
0
 71
3
 72
11
 73
7
 74
0
 42
0.0000001
 43
0.0000001
 44
0.0000000001
 40
0.0
 40
0.0
 40
0.0
 40
0.0
 40
0.2371833444
 40
0.4962569791
 40
0.7572694081
 40
1.0
 40
1.0
 40
1.0
 40
1.0
 10
15.2944725808
 20
13.3440396868
 30
0.0
 10
15.2943350215
 20
13.3435633293
 30
0.0
 10
15.2941347012
 20
13.3425409697
 30
0.0
 10
15.2940261641
 20
13.340958347
 30
0.0
 10
15.2941005146
 20
13.3393621186
 30
0.0
 10
15.2942774901
 20
13.3383199417
 30
0.0
 10
15.2944030941
 20
13.3378283153
 30
0.0
  0
LINE
  5
337
100
AcDbEntity
  8
LAYER_CUT_FEAT
100
AcDbLine
 62
7
  6
CONTINUOUS
 10
15.2953099808
 20
13.3468425001
 11
15.2944725808
 21
13.3440396868
  0
LINE
  5
338
100
AcDbEntity
  8
LAYER_CUT_FEAT
100
AcDbLine
 62
7
  6
CONTINUOUS
 10
15.2749241896
 20
13.273977576
 11
15.2741599679
 21
13.2710401216
  0
SPLINE
  5
339
100
AcDbEntity
  8
LAYER_CUT_FEAT
100
AcDbSpline
 62
7
  6
CONTINUOUS
 70
0
 71
3
 72
14
 73
10
 74
0
 42
0.0000001
 43
0.0000001
 44
0.0000000001
 40
0.0
 40
0.0
 40
0.0
 40
0.0
 40
0.1526756331
 40
0.297372045
 40
0.4339709957
 40
0.562460837
 40
0.6829626517
 40
0.7957548117
 40
1.0
 40
1.0
 40
1.0
 40
1.0
 10
15.7927872525
 20
12.2416525711
 30
0.0
 10
15.790703977
 20
12.2369887023
 30
0.0
 10
15.7864425703
 20
12.2279934829
 30
0.0
 10
15.7795654362
 20
12.2151988066
 30
0.0
 10
15.7723956974
 20
12.2035029049
 30
0.0
 10
15.7649601225
 20
12.192949803
 30
0.0
 10
15.7572805624
 20
12.1835743755
 30
0.0
 10
15.7470997408
 20
12.173048664
 30
0.0
 10
15.738671112
 20
12.1664335074
 30
0.0
 10
15.7327992725
 20
12.162938352
 30
0.0
  0
SPLINE
  5
33A
100
AcDbEntity
  8
LAYER_CUT_FEAT
100
AcDbSpline
 62
7
  6
CONTINUOUS
 70
0
 71
3
 72
13
 73
9
 74
0
 42
0.0000001
 43
0.0000001
 44
0.0000000001
 40
0.0
 40
0.0
 40
0.0
 40
0.0
 40
0.2923268785
 40
0.5633291995
 40
0.6872545025
 40
0.8018489259
 40
0.9062568105
 40
1.0
 40
1.0
 40
1.0
 40
1.0
 10
15.2863029698
 20
13.2893135927
 30
0.0
 10
15.2862256743
 20
13.2878772143
 30
0.0
 10
15.2859525295
 20
13.2851142198
 30
0.0
 10
15.2852847262
 20
13.2817911417
 30
0.0
 10
15.284559605
 20
13.2793892889
 30
0.0
 10
15.283956618
 20
13.2778113446
 30
0.0
 10
15.2832867545
 20
13.2764236788
 30
0.0
 10
15.2827730002
 20
13.2755917774
 30
0.0
 10
15.2825041581
 20
13.2752169358
 30
0.0
  0
SPLINE
  5
33B
100
AcDbEntity
  8
LAYER_CUT_FEAT
100
AcDbSpline
 62
7
  6
CONTINUOUS
 70
0
 71
3
 72
28
 73
24
 74
0
 42
0.0000001
 43
0.0000001
 44
0.0000000001
 40
0.0
 40
0.0
 40
0.0
 40
0.0
 40
0.020835822
 40
0.0428622241
 40
0.0660808483
 40
0.0904796871
 40
0.1160350576
 40
0.1427132212
 40
0.1704717166
 40
0.1992604707
 40
0.229022736
 40
0.2596958944
 40
0.3234935908
 40
0.390066428
 40
0.4587652261
 40
0.5289006482
 40
0.5997571898
 40
0.6706064766
 40
0.7407202628
 40
0.8093834328
 40
0.8759073081
 40
0.9396436553
 40
1.0
 40
1.0
 40
1.0
 40
1.0
 10
15.764356975
 20
12.8293046115
 30
0.0
 10
15.7667008383
 20
12.826248662
 30
0.0
 10
15.7713109145
 20
12.8197978452
 30
0.0
 10
15.7778213932
 20
12.8094563166
 30
0.0
 10
15.7841000537
 20
12.7982120566
 30
0.0
 10
15.7901279434
 20
12.7860991827
 30
0.0
 10
15.7958872575
 20
12.7731537364
 30
0.0
 10
15.8013606986
 20
12.7594145857
 30
0.0
 10
15.806531803
 20
12.7449230087
 30
0.0
 10
15.8113849118
 20
12.729722678
 30
0.0
 10
15.815905447
 20
12.7138593607
 30
0.0
 10
15.8215445068
 20
12.6915963621
 30
0.0
 10
15.8276317024
 20
12.6624421794
 30
0.0
 10
15.8333310946
 20
12.626076234
 30
0.0
 10
15.8374478657
 20
12.5883191858
 30
0.0
 10
15.8399316047
 20
12.5496271955
 30
0.0
 10
15.8407518015
 20
12.5104669622
 30
0.0
 10
15.8398983954
 20
12.4713114609
 30
0.0
 10
15.8373818522
 20
12.4326334539
 30
0.0
 10
15.833233097
 20
12.3948999098
 30
0.0
 10
15.8275028862
 20
12.3585651248
 30
0.0
 10
15.8202618574
 20
12.3240681218
 30
0.0
 10
15.8143063378
 20
12.3019007675
 30
0.0
 10
15.8110644412
 20
12.2912258944
 30
0.0
  0
SPLINE
  5
33C
100
AcDbEntity
  8
LAYER_CUT_FEAT
100
AcDbSpline
 62
7
  6
CONTINUOUS
 70
0
 71
3
 72
20
 73
16
 74
0
 42
0.0000001
 43
0.0000001
 44
0.0000000001
 40
0.0
 40
0.0
 40
0.0
 40
0.0
 40
0.1684123992
 40
0.333017768
 40
0.4880378636
 40
0.560337616
 40
0.6283944675
 40
0.6917476735
 40
0.7500487571
 40
0.8030943263
 40
0.8508726621
 40
0.89363054
 40
0.9319634538
 40
0.9669125443
 40
1.0
 40
1.0
 40
1.0
 40
1.0
 10
15.764356975
 20
12.8293046115
 30
0.0
 10
15.764428906
 20
12.8317482161
 30
0.0
 10
15.7643781329
 20
12.8365881868
 30
0.0
 10
15.7637366017
 20
12.8436505974
 30
0.0
 10
15.7627327537
 20
12.8492602204
 30
0.0
 10
15.7616496659
 20
12.8534107977
 30
0.0
 10
15.760739446
 20
12.8562262237
 30
0.0
 10
15.7597222815
 20
12.8587877401
 30
0.0
 10
15.7586085092
 20
12.8610692131
 30
0.0
 10
15.7574091574
 20
12.8630477419
 30
0.0
 10
15.7561351283
 20
12.8647038469
 30
0.0
 10
15.7547966138
 20
12.8660210521
 30
0.0
 10
15.7534017971
 20
12.8669841662
 30
0.0
 10
15.7519609752
 20
12.8675759105
 30
0.0
 10
15.7509690372
 20
12.8677108757
 30
0.0
 10
15.7504887419
 20
12.8677108848
 30
0.0
  0
SPLINE
  5
33D
100
AcDbEntity
  8
LAYER_CUT_FEAT
100
AcDbSpline
 62
7
  6
CONTINUOUS
 70
0
 71
3
 72
16
 73
12
 74
0
 42
0.0000001
 43
0.0000001
 44
0.0000000001
 40
0.0
 40
0.0
 40
0.0
 40
0.0
 40
0.1742489343
 40
0.3349011202
 40
0.4807101109
 40
0.611001457
 40
0.7259179565
 40
0.8267577545
 40
0.9164261923
 40
0.958626977
 40
1.0
 40
1.0
 40
1.0
 40
1.0
 10
15.6722837337
 20
12.860088638
 30
0.0
 10
15.67197648
 20
12.8612290785
 30
0.0
 10
15.6713177025
 20
12.8634036171
 30
0.0
 10
15.6701431898
 20
12.8664465903
 30
0.0
 10
15.6688354327
 20
12.8691077386
 30
0.0
 10
15.6674117927
 20
12.871350986
 30
0.0
 10
15.6658878954
 20
12.8731468177
 30
0.0
 10
15.6642782957
 20
12.8744703557
 30
0.0
 10
15.6628411537
 20
12.8751689975
 30
0.0
 10
15.6616942609
 20
12.8754387348
 30
0.0
 10
15.6611268065
 20
12.8754832046
 30
0.0
 10
15.6608463692
 20
12.8754831999
 30
0.0
  0
SPLINE
  5
33E
100
AcDbEntity
  8
LAYER_CUT_FEAT
100
AcDbSpline
 62
7
  6
CONTINUOUS
 70
0
 71
3
 72
10
 73
6
 74
0
 42
0.0000001
 43
0.0000001
 44
0.0000000001
 40
0.0
 40
0.0
 40
0.0
 40
0.0
 40
0.2117109
 40
0.5713748529
 40
1.0
 40
1.0
 40
1.0
 40
1.0
 10
15.2721101949
 20
13.2374362603
 30
0.0
 10
15.2721909203
 20
13.237456295
 30
0.0
 10
15.2724017596
 20
13.2375409293
 30
0.0
 10
15.272713746
 20
13.2377889791
 30
0.0
 10
15.2729053789
 20
13.2380349355
 30
0.0
 10
15.272998567
 20
13.2381751929
 30
0.0
  0
LINE
  5
33F
100
AcDbEntity
  8
LAYER_CUT_FEAT
100
AcDbLine
 62
7
  6
CONTINUOUS
 10
15.2766157334
 20
13.2525834799
 11
15.2765110808
 21
13.2549663428
  0
SPLINE
  5
340
100
AcDbEntity
  8
LAYER_CUT_FEAT
100
AcDbSpline
 62
7
  6
CONTINUOUS
 70
0
 71
3
 72
9
 73
5
 74
0
 42
0.0000001
 43
0.0000001
 44
0.0000000001
 40
0.0
 40
0.0
 40
0.0
 40
0.0
 40
0.5162400326
 40
1.0
 40
1.0
 40
1.0
 40
1.0
 10
15.2765110808
 20
13.2549663428
 30
0.0
 10
15.2763506747
 20
13.2561720433
 30
0.0
 10
15.275966207
 20
13.2584985357
 30
0.0
 10
15.2754159132
 20
13.2607923366
 30
0.0
 10
15.2751020963
 20
13.261888081
 30
0.0
  0
SPLINE
  5
341
100
AcDbEntity
  8
LAYER_CHAMFER_FEAT
100
AcDbSpline
 62
7
  6
CONTINUOUS
 70
0
 71
3
 72
50
 73
46
 74
0
 42
0.0000001
 43
0.0000001
 44
0.0000000001
 40
0.0
 40
0.0
 40
0.0
 40
0.0
 40
0.0213237241
 40
0.031301959
 40
0.0408652231
 40
0.0500563154
 40
0.058926095
 40
0.0675334059
 40
0.0759444546
 40
0.0842315248
 40
0.0924710185
 40
0.100740977
 40
0.1091183869
 40
0.1176766284
 40
0.1264833808
 40
0.145060574
 40
0.1549442943
 40
0.1652709666
 40
0.176069968
 40
0.1873639918
 40
0.1991697371
 40
0.2114985743
 40
0.2243571514
 40
0.2377479367
 40
0.2516697121
 40
0.2661179908
 40
0.296558198
 40
0.3289839191
 40
0.3632721653
 40
0.3992722484
 40
0.4368106365
 40
0.4756949753
 40
0.5157174515
 40
0.556657868
 40
0.5982863746
 40
0.6403661019
 40
0.6826556497
 40
0.7249115364
 40
0.7668906101
 40
0.8083524798
 40
0.8490619568
 40
0.8887915964
 40
0.927324325
 40
0.9644562067
 40
1.0
 40
1.0
 40
1.0
 40
1.0
 10
15.7751575399
 20
12.0578653267
 30
0.0
 10
15.7705247169
 20
12.0528906421
 30
0.0
 10
15.7633087701
 20
12.0459460952
 30
0.0
 10
15.7530159497
 20
12.0379453051
 30
0.0
 10
15.7453735219
 20
12.0328784301
 30
0.0
 10
15.7376514554
 20
12.0286232159
 30
0.0
 10
15.7298617959
 20
12.0251880595
 30
0.0
 10
15.7220178747
 20
12.0225807218
 30
0.0
 10
15.7141336813
 20
12.0208075924
 30
0.0
 10
15.7062241349
 20
12.0198734206
 30
0.0
 10
15.698304876
 20
12.0197808353
 30
0.0
 10
15.6903918129
 20
12.0205301277
 30
0.0
 10
15.6825008229
 20
12.0221190633
 30
0.0
 10
15.6746464745
 20
12.0245436967
 30
0.0
 10
15.6640576445
 20
12.0289588142
 30
0.0
 10
15.6537621602
 20
12.0350190203
 30
0.0
 10
15.64387474
 20
12.0424545859
 30
0.0
 10
15.6364041067
 20
12.0489416728
 30
0.0
 10
15.6290480374
 20
12.0562102046
 30
0.0
 10
15.6218166297
 20
12.0642485666
 30
0.0
 10
15.6147219625
 20
12.0730428833
 30
0.0
 10
15.6077754288
 20
12.0825784252
 30
0.0
 10
15.6009884443
 20
12.0928391643
 30
0.0
 10
15.5943722391
 20
12.1038078646
 30
0.0
 10
15.5879376739
 20
12.1154661491
 30
0.0
 10
15.5794676229
 20
12.1321957358
 30
0.0
 10
15.5694498524
 20
12.1547345239
 30
0.0
 10
15.5585182741
 20
12.1837286234
 30
0.0
 10
15.5485486184
 20
12.2149321541
 30
0.0
 10
15.5396084426
 20
12.2481349708
 30
0.0
 10
15.5317583577
 20
12.2831142839
 30
0.0
 10
15.5250518754
 20
12.3196342672
 30
0.0
 10
15.5195346999
 20
12.3574483838
 30
0.0
 10
15.5152445418
 20
12.3963010093
 30
0.0
 10
15.5122106884
 20
12.4359292855
 30
0.0
 10
15.5104538817
 20
12.4760649583
 30
0.0
 10
15.5099861402
 20
12.5164362535
 30
0.0
 10
15.5108106361
 20
12.5567697604
 30
0.0
 10
15.5129217689
 20
12.5967923331
 30
0.0
 10
15.5163050697
 20
12.6362329756
 30
0.0
 10
15.5209374547
 20
12.6748247608
 30
0.0
 10
15.5267872362
 20
12.7123065587
 30
0.0
 10
15.5338145583
 20
12.7484253545
 30
0.0
 10
15.5419712238
 20
12.7829363662
 30
0.0
 10
15.5482729842
 20
12.8052412052
 30
0.0
 10
15.5516184552
 20
12.8160671532
 30
0.0
  0
SPLINE
  5
342
100
AcDbEntity
  8
LAYER_CUT_FEAT
100
AcDbSpline
 62
7
  6
CONTINUOUS
 70
0
 71
3
 72
14
 73
10
 74
0
 42
0.0000001
 43
0.0000001
 44
0.0000000001
 40
0.0
 40
0.0
 40
0.0
 40
0.0
 40
0.2981659447
 40
0.4384443317
 40
0.5708110582
 40
0.6939906499
 40
0.8069620268
 40
0.9090392624
 40
1.0
 40
1.0
 40
1.0
 40
1.0
 10
15.3070549939
 20
13.3602346058
 30
0.0
 10
15.3069420385
 20
13.3588237511
 30
0.0
 10
15.3066821505
 20
13.3567540972
 30
0.0
 10
15.3061281183
 20
13.3541006301
 30
0.0
 10
15.3056357386
 20
13.3522860032
 30
0.0
 10
15.3050650506
 20
13.350630829
 30
0.0
 10
15.3044235253
 20
13.3491567882
 30
0.0
 10
15.3037198081
 20
13.3478833797
 30
0.0
 10
15.3031839146
 20
13.3471359968
 30
0.0
 10
15.3029052855
 20
13.3468061445
 30
0.0
  0
SPLINE
  5
343
100
AcDbEntity
  8
LAYER_CUT_FEAT
100
AcDbSpline
 62
7
  6
CONTINUOUS
 70
0
 71
3
 72
11
 73
7
 74
0
 42
0.0000001
 43
0.0000001
 44
0.0000000001
 40
0.0
 40
0.0
 40
0.0
 40
0.0
 40
0.2135183883
 40
0.4464335362
 40
0.7070025689
 40
1.0
 40
1.0
 40
1.0
 40
1.0
 10
15.2816068466
 20
13.2745530403
 30
0.0
 10
15.2816871405
 20
13.2745661764
 30
0.0
 10
15.2818516437
 20
13.2746177404
 30
0.0
 10
15.2820836168
 20
13.2747585908
 30
0.0
 10
15.2823061379
 20
13.2749615046
 30
0.0
 10
15.2824390888
 20
13.2751262109
 30
0.0
 10
15.2825041581
 20
13.2752169358
 30
0.0
  0
LINE
  5
344
100
AcDbEntity
  8
LAYER_CUT_FEAT
100
AcDbLine
 62
7
  6
CONTINUOUS
 10
15.2863029698
 20
13.2893135927
 11
15.2862287342
 21
13.2917039728
  0
SPLINE
  5
345
100
AcDbEntity
  8
LAYER_CUT_FEAT
100
AcDbSpline
 62
7
  6
CONTINUOUS
 70
0
 71
3
 72
9
 73
5
 74
0
 42
0.0000001
 43
0.0000001
 44
0.0000000001
 40
0.0
 40
0.0
 40
0.0
 40
0.0
 40
0.5150581522
 40
1.0
 40
1.0
 40
1.0
 40
1.0
 10
15.2862287342
 20
13.2917039728
 30
0.0
 10
15.2860834485
 20
13.2929252608
 30
0.0
 10
15.2857276244
 20
13.2952883848
 30
0.0
 10
15.2852076383
 20
13.2976216554
 30
0.0
 10
15.2849086968
 20
13.2987403884
 30
0.0
  0
SPLINE
  5
346
100
AcDbEntity
  8
LAYER_CHAMFER_FEAT
100
AcDbSpline
 62
7
  6
CONTINUOUS
 70
0
 71
3
 72
42
 73
38
 74
0
 42
0.0000001
 43
0.0000001
 44
0.0000000001
 40
0.0
 40
0.0
 40
0.0
 40
0.0
 40
0.0076948297
 40
0.0154421444
 40
0.0232931199
 40
0.0312964543
 40
0.0394974087
 40
0.0479371255
 40
0.0656646933
 40
0.0847292893
 40
0.1052990865
 40
0.1274817408
 40
0.1513347925
 40
0.1768750494
 40
0.2040861858
 40
0.2329247768
 40
0.2633250046
 40
0.2952022743
 40
0.3284561641
 40
0.3629728389
 40
0.3986270233
 40
0.4352837734
 40
0.4728000446
 40
0.5110260865
 40
0.5498067928
 40
0.5889829694
 40
0.6283925426
 40
0.667871764
 40
0.7072563866
 40
0.7463828418
 40
0.7850894188
 40
0.8232174563
 40
0.8606125855
 40
0.8971259951
 40
0.932615779
 40
0.9669481841
 40
1.0
 40
1.0
 40
1.0
 40
1.0
 10
15.6931044628
 20
12.0108566624
 30
0.0
 10
15.6908294079
 20
12.0108566691
 30
0.0
 10
15.686261146
 20
12.011062773
 30
0.0
 10
15.6794281436
 20
12.0119887005
 30
0.0
 10
15.6726133893
 20
12.0135300073
 30
0.0
 10
15.6658267193
 20
12.0156840258
 30
0.0
 10
15.6590764024
 20
12.0184473786
 30
0.0
 10
15.6499886264
 20
12.0230122555
 30
0.0
 10
15.6387331576
 20
12.0303187383
 30
0.0
 10
15.6257511124
 20
12.0412884014
 30
0.0
 10
15.6131213695
 20
12.0545420378
 30
0.0
 10
15.6008982338
 20
12.0700125584
 30
0.0
 10
15.5891334252
 20
12.0876264309
 30
0.0
 10
15.5778802096
 20
12.1073000743
 30
0.0
 10
15.5671908311
 20
12.1289399243
 30
0.0
 10
15.5571160817
 20
12.1524423852
 30
0.0
 10
15.5477045005
 20
12.1776943187
 30
0.0
 10
15.5390017967
 20
12.2045735789
 30
0.0
 10
15.5310504698
 20
12.2329496999
 30
0.0
 10
15.5238895158
 20
12.2626846069
 30
0.0
 10
15.5175540956
 20
12.2936333353
 30
0.0
 10
15.5120753638
 20
12.3256448037
 30
0.0
 10
15.5074803129
 20
12.3585625969
 30
0.0
 10
15.5037915611
 20
12.392225754
 30
0.0
 10
15.5010272769
 20
12.42646959
 30
0.0
 10
15.4992011028
 20
12.4611265239
 30
0.0
 10
15.4983220245
 20
12.4960269137
 30
0.0
 10
15.4983943695
 20
12.5309999047
 30
0.0
 10
15.4994178014
 20
12.5658742811
 30
0.0
 10
15.5013872603
 20
12.6004793186
 30
0.0
 10
15.5042930359
 20
12.6346456353
 30
0.0
 10
15.5081208282
 20
12.6682060296
 30
0.0
 10
15.5128517658
 20
12.700996347
 30
0.0
 10
15.5184625294
 20
12.7328562213
 30
0.0
 10
15.5249255737
 20
12.7636301277
 30
0.0
 10
15.5322088971
 20
12.7931672858
 30
0.0
 10
15.5376983407
 20
12.8123251687
 30
0.0
 10
15.5405835294
 20
12.8216616429
 30
0.0
  0
SPLINE
  5
347
100
AcDbEntity
  8
LAYER_CUT_FEAT
100
AcDbSpline
 62
7
  6
CONTINUOUS
 70
0
 71
3
 72
11
 73
7
 74
0
 42
0.0000001
 43
0.0000001
 44
0.0000000001
 40
0.0
 40
0.0
 40
0.0
 40
0.0
 40
0.2403405291
 40
0.500521758
 40
0.7604326418
 40
1.0
 40
1.0
 40
1.0
 40
1.0
 10
15.2840836827
 20
13.3079666869
 30
0.0
 10
15.2839529093
 20
13.3074814119
 30
0.0
 10
15.2837658528
 20
13.306447344
 30
0.0
 10
15.2836767529
 20
13.3048563503
 30
0.0
 10
15.283770621
 20
13.3032672537
 30
0.0
 10
15.2839609336
 20
13.302235949
 30
0.0
 10
15.2840933748
 20
13.3017528028
 30
0.0
  0
SPLINE
  5
348
100
AcDbEntity
  8
LAYER_CUT_FEAT
100
AcDbSpline
 62
7
  6
CONTINUOUS
 70
0
 71
3
 72
26
 73
22
 74
0
 42
0.0000001
 43
0.0000001
 44
0.0000000001
 40
0.0
 40
0.0
 40
0.0
 40
0.0
 40
0.0212794961
 40
0.042652784
 40
0.0642121381
 40
0.0860469006
 40
0.108242227
 40
0.1308780972
 40
0.1777406447
 40
0.2271730198
 40
0.2795845528
 40
0.3352845352
 40
0.394492822
 40
0.457352
 40
0.5239388824
 40
0.594274748
 40
0.6683338517
 40
0.7460503986
 40
0.8273243625
 40
0.9120257965
 40
1.0
 40
1.0
 40
1.0
 40
1.0
 10
15.7102098812
 20
11.2251423735
 30
0.0
 10
15.7149062038
 20
11.2251423701
 30
0.0
 10
15.7243230657
 20
11.2254831681
 30
0.0
 10
15.738423048
 20
11.2270150153
 30
0.0
 10
15.752499672
 20
11.2295663311
 30
0.0
 10
15.7665400043
 20
11.2331344692
 30
0.0
 10
15.7805331276
 20
11.2377161479
 30
0.0
 10
15.799325797
 20
11.2452555733
 30
0.0
 10
15.8227134218
 20
11.2573215884
 30
0.0
 10
15.8500450325
 20
11.2755975791
 30
0.0
 10
15.8768979109
 20
11.2977675379
 30
0.0
 10
15.9031943591
 20
11.3237536962
 30
0.0
 10
15.9288621483
 20
11.3534723638
 30
0.0
 10
15.9538273204
 20
11.3868302882
 30
0.0
 10
15.9780165576
 20
11.4237240571
 30
0.0
 10
16.0013571186
 20
11.4640394968
 30
0.0
 10
16.0237777133
 20
11.5076516173
 30
0.0
 10
16.0452090852
 20
11.5544247007
 30
0.0
 10
16.0655844619
 20
11.6042129417
 30
0.0
 10
16.084839864
 20
11.6568598923
 30
0.0
 10
16.0966741474
 20
11.6930937261
 30
0.0
 10
16.1024065669
 20
11.7116438424
 30
0.0
  0
SPLINE
  5
349
100
AcDbEntity
  8
LAYER_CUT_FEAT
100
AcDbSpline
 62
7
  6
CONTINUOUS
 70
0
 71
3
 72
11
 73
7
 74
0
 42
0.0000001
 43
0.0000001
 44
0.0000000001
 40
0.0
 40
0.0
 40
0.0
 40
0.0
 40
0.2308433284
 40
0.4746717823
 40
0.7311975756
 40
1.0
 40
1.0
 40
1.0
 40
1.0
 10
15.503193544
 20
11.4300008298
 30
0.0
 10
15.5119528251
 20
11.4444909094
 30
0.0
 10
15.5290657841
 20
11.4748357272
 30
0.0
 10
15.5529339557
 20
11.5228865848
 30
0.0
 10
15.5756262517
 20
11.5745579316
 30
0.0
 10
15.5895987178
 20
11.6104803812
 30
0.0
 10
15.5963923059
 20
11.6289890344
 30
0.0
  0
SPLINE
  5
34A
100
AcDbEntity
  8
LAYER_CUT_FEAT
100
AcDbSpline
 62
7
  6
CONTINUOUS
 70
0
 71
3
 72
11
 73
7
 74
0
 42
0.0000001
 43
0.0000001
 44
0.0000000001
 40
0.0
 40
0.0
 40
0.0
 40
0.0
 40
0.2162532545
 40
0.4492069912
 40
0.708480734
 40
1.0
 40
1.0
 40
1.0
 40
1.0
 10
15.2915713339
 20
13.310852035
 30
0.0
 10
15.291651039
 20
13.3108583611
 30
0.0
 10
15.2918153634
 20
13.310895531
 30
0.0
 10
15.2920499382
 20
13.3110170098
 30
0.0
 10
15.2922754813
 20
13.3112015248
 30
0.0
 10
15.2924105028
 20
13.3113550627
 30
0.0
 10
15.2924766239
 20
13.3114401826
 30
0.0
  0
LINE
  5
34B
100
AcDbEntity
  8
LAYER_CUT_FEAT
100
AcDbLine
 62
7
  6
CONTINUOUS
 10
15.2964530129
 20
13.3252101143
 11
15.2964092739
 21
13.3276054518
  0
SPLINE
  5
34C
100
AcDbEntity
  8
LAYER_CUT_FEAT
100
AcDbSpline
 62
7
  6
CONTINUOUS
 70
0
 71
3
 72
9
 73
5
 74
0
 42
0.0000001
 43
0.0000001
 44
0.0000000001
 40
0.0
 40
0.0
 40
0.0
 40
0.0
 40
0.5138924782
 40
1.0
 40
1.0
 40
1.0
 40
1.0
 10
15.2964092739
 20
13.3276054518
 30
0.0
 10
15.296279337
 20
13.32884105
 30
0.0
 10
15.2959526948
 20
13.331238385
 30
0.0
 10
15.2954634269
 20
13.3336085614
 30
0.0
 10
15.2951795971
 20
13.3347490101
 30
0.0
  0
SPLINE
  5
34D
100
AcDbEntity
  8
LAYER_CUT_FEAT
100
AcDbSpline
 62
7
  6
CONTINUOUS
 70
0
 71
3
 72
60
 73
56
 74
0
 42
0.0000001
 43
0.0000001
 44
0.0000000001
 40
0.0
 40
0.0
 40
0.0
 40
0.0
 40
0.0114384526
 40
0.0223686359
 40
0.0328128834
 40
0.0428004308
 40
0.0523681172
 40
0.0615609588
 40
0.0704324563
 40
0.0790444628
 40
0.0874664376
 40
0.0957739725
 40
0.1040466073
 40
0.1123651266
 40
0.1208086826
 40
0.1294521449
 40
0.1383640052
 40
0.1476050063
 40
0.1523666033
 40
0.1572293847
 40
0.1672772223
 40
0.1777861799
 40
0.1887845092
 40
0.2002936593
 40
0.2123290063
 40
0.2249005471
 40
0.2380135317
 40
0.2516690217
 40
0.2658643769
 40
0.2805936749
 40
0.2958480718
 40
0.3116161128
 40
0.3278839997
 40
0.3446358242
 40
0.3618537711
 40
0.3795182979
 40
0.3976082959
 40
0.416101234
 40
0.4349732904
 40
0.4737518827
 40
0.5137341011
 40
0.554694251
 40
0.596395989
 40
0.6385951308
 40
0.6810423361
 40
0.7234857224
 40
0.7656734463
 40
0.807356285
 40
0.8482902517
 40
0.8882392837
 40
0.926978055
 40
0.9458278539
 40
0.964297068
 40
0.9823619158
 40
1.0
 40
1.0
 40
1.0
 40
1.0
 10
15.5053332251
 20
13.6841606355
 30
0.0
 10
15.5115639998
 20
13.6916254166
 30
0.0
 10
15.5241346919
 20
13.7059077688
 30
0.0
 10
15.5437721288
 20
13.725740567
 30
0.0
 10
15.5637238564
 20
13.7434536512
 30
0.0
 10
15.5839567721
 20
13.7590142281
 30
0.0
 10
15.6044382047
 20
13.7723933069
 30
0.0
 10
15.6251345575
 20
13.7835642867
 30
0.0
 10
15.6460110411
 20
13.792503253
 30
0.0
 10
15.6670309662
 20
13.7991892129
 30
0.0
 10
15.6881552197
 20
13.8036048786
 30
0.0
 10
15.7093421589
 20
13.8057378164
 30
0.0
 10
15.7305482059
 20
13.8055816657
 30
0.0
 10
15.7517291375
 20
13.8031368933
 30
0.0
 10
15.7728415321
 20
13.7984107785
 30
0.0
 10
15.7938442566
 20
13.7914163826
 30
0.0
 10
15.8146978332
 20
13.7821719845
 30
0.0
 10
15.8317511319
 20
13.7727054884
 30
0.0
 10
15.8452708924
 20
13.7640737577
 30
0.0
 10
15.8590008052
 20
13.7545201857
 30
0.0
 10
15.8760136827
 20
13.7411637451
 30
0.0
 10
15.8959238572
 20
13.723160089
 30
0.0
 10
15.9155165861
 20
13.7030401445
 30
0.0
 10
15.93475877
 20
13.6808400586
 30
0.0
 10
15.9536187419
 20
13.6565983139
 30
0.0
 10
15.9720647939
 20
13.6303569803
 30
0.0
 10
15.9900657206
 20
13.6021614369
 30
0.0
 10
16.0075908024
 20
13.5720604657
 30
0.0
 10
16.0246099505
 20
13.5401061869
 30
0.0
 10
16.0410937966
 20
13.5063540023
 30
0.0
 10
16.0570137865
 20
13.4708625077
 30
0.0
 10
16.0723422602
 20
13.433693396
 30
0.0
 10
16.0870525244
 20
13.394911348
 30
0.0
 10
16.1011189184
 20
13.354583915
 30
0.0
 10
16.1145168695
 20
13.3127814004
 30
0.0
 10
16.1272229607
 20
13.2695767144
 30
0.0
 10
16.1392149207
 20
13.2250453091
 30
0.0
 10
16.1504718997
 20
13.1792647809
 30
0.0
 10
16.1646019868
 20
13.1160947121
 30
0.0
 10
16.1802381528
 20
13.0345626673
 30
0.0
 10
16.1956263237
 20
12.9339396793
 30
0.0
 10
16.2076966926
 20
12.8303634648
 30
0.0
 10
16.2163642674
 20
12.7245575856
 30
0.0
 10
16.2215679616
 20
12.6172599067
 30
0.0
 10
16.2232711025
 20
12.5092194454
 30
0.0
 10
16.2214616848
 20
12.401190414
 30
0.0
 10
16.216152463
 20
12.2939269428
 30
0.0
 10
16.2073808538
 20
12.188177805
 30
0.0
 10
16.1952086757
 20
12.0846804552
 30
0.0
 10
16.1797216394
 20
11.9841578993
 30
0.0
 10
16.1640046287
 20
11.9027237877
 30
0.0
 10
16.1498116041
 20
11.8396425949
 30
0.0
 10
16.1385095248
 20
11.7939353871
 30
0.0
 10
16.1264737861
 20
11.7494823368
 30
0.0
 10
16.1178683
 20
11.7203745067
 30
0.0
 10
16.1134414926
 20
11.7060493527
 30
0.0
  0
SPLINE
  5
34E
100
AcDbEntity
  8
LAYER_CUT_FEAT
100
AcDbSpline
 62
7
  6
CONTINUOUS
 70
0
 71
3
 72
50
 73
46
 74
0
 42
0.0000001
 43
0.0000001
 44
0.0000000001
 40
0.0
 40
0.0
 40
0.0
 40
0.0
 40
0.0076945637
 40
0.0154416101
 40
0.023292316
 40
0.0312953742
 40
0.0394960423
 40
0.0479354694
 40
0.0656624212
 40
0.0750195272
 40
0.08473452
 40
0.0948263292
 40
0.105310098
 40
0.1161975185
 40
0.1274971581
 40
0.1392147668
 40
0.1513535562
 40
0.1639144524
 40
0.1768963219
 40
0.1902961705
 40
0.2041093185
 40
0.2183295549
 40
0.2329492736
 40
0.2479595928
 40
0.2633504616
 40
0.2952266275
 40
0.3284793713
 40
0.3629948517
 40
0.3986478035
 40
0.4353032895
 40
0.4728182623
 40
0.5110429833
 40
0.5498223512
 40
0.5889971731
 40
0.6284053845
 40
0.6678832417
 40
0.707266504
 40
0.7463916077
 40
0.7850968453
 40
0.8232235667
 40
0.8606174057
 40
0.8971295495
 40
0.9326180837
 40
0.9669494199
 40
1.0
 40
1.0
 40
1.0
 40
1.0
 10
15.7102098812
 20
13.796570944
 30
0.0
 10
15.7160600223
 20
13.7965709398
 30
0.0
 10
15.7278069804
 20
13.796040926
 30
0.0
 10
15.7453775605
 20
13.7936600147
 30
0.0
 10
15.762901221
 20
13.7896966116
 30
0.0
 10
15.7803526087
 20
13.784157725
 30
0.0
 10
15.7977107534
 20
13.7770518999
 30
0.0
 10
15.8210783932
 20
13.7653141194
 30
0.0
 10
15.843815623
 20
13.7505548476
 30
0.0
 10
15.8657796013
 20
13.7332080214
 30
0.0
 10
15.8823582987
 20
13.7184640521
 30
0.0
 10
15.8987202439
 20
13.702243163
 30
0.0
 10
15.9148484499
 20
13.684563971
 30
0.0
 10
15.9307233037
 20
13.6654485574
 30
0.0
 10
15.9463261633
 20
13.6449201289
 30
0.0
 10
15.9616383731
 20
13.623003706
 30
0.0
 10
15.9766415924
 20
13.5997259369
 30
0.0
 10
15.9913177526
 20
13.5751151406
 30
0.0
 10
16.0056491148
 20
13.5492012676
 30
0.0
 10
16.0196183013
 20
13.5220158756
 30
0.0
 10
16.0332083271
 20
13.4935920972
 30
0.0
 10
16.0464026453
 20
13.4639645913
 30
0.0
 10
16.0591851168
 20
13.4331695452
 30
0.0
 10
16.0715402652
 20
13.4012444628
 30
0.0
 10
16.0876111924
 20
13.3567023576
 30
0.0
 10
16.106473943
 20
13.2984411554
 30
0.0
 10
16.126920129
 20
13.2254747188
 30
0.0
 10
16.1453340401
 20
13.1490133226
 30
0.0
 10
16.1616251181
 20
13.0694309365
 30
0.0
 10
16.1757132717
 20
12.9871157127
 30
0.0
 10
16.1875291321
 20
12.902469965
 30
0.0
 10
16.1970144946
 20
12.8159075592
 30
0.0
 10
16.204122636
 20
12.7278519791
 30
0.0
 10
16.2088185292
 20
12.638734149
 30
0.0
 10
16.2110790197
 20
12.5489902896
 30
0.0
 10
16.2108929687
 20
12.4590597406
 30
0.0
 10
16.208261302
 20
12.3693827711
 30
0.0
 10
16.2031969865
 20
12.2803983885
 30
0.0
 10
16.1957249703
 20
12.192542147
 30
0.0
 10
16.1858820888
 20
12.1062439876
 30
0.0
 10
16.1737168283
 20
12.0219260269
 30
0.0
 10
16.1592891323
 20
11.9400006587
 30
0.0
 10
16.1426698884
 20
11.8608676835
 30
0.0
 10
16.1239413152
 20
11.7849149969
 30
0.0
 10
16.1098256027
 20
11.7356518509
 30
0.0
 10
16.1024065669
 20
11.7116438424
 30
0.0
  0
SPLINE
  5
34F
100
AcDbEntity
  8
LAYER_CUT_FEAT
100
AcDbSpline
 62
7
  6
CONTINUOUS
 70
0
 71
3
 72
11
 73
7
 74
0
 42
0.0000001
 43
0.0000001
 44
0.0000000001
 40
0.0
 40
0.0
 40
0.0
 40
0.0
 40
0.219726451
 40
0.4529397824
 40
0.7106343696
 40
1.0
 40
1.0
 40
1.0
 40
1.0
 10
15.3019929864
 20
13.3462943746
 30
0.0
 10
15.302071971
 20
13.346294004
 30
0.0
 10
15.302235674
 20
13.3463167897
 30
0.0
 10
15.30247266
 20
13.3464185386
 30
0.0
 10
15.3027011056
 20
13.3465843898
 30
0.0
 10
15.3028381623
 20
13.3467266813
 30
0.0
 10
15.3029052855
 20
13.3468061445
 30
0.0
  0
SPLINE
  5
350
100
AcDbEntity
  8
LAYER_CUT_FEAT
100
AcDbSpline
 62
7
  6
CONTINUOUS
 70
0
 71
3
 72
9
 73
5
 74
0
 42
0.0000001
 43
0.0000001
 44
0.0000000001
 40
0.0
 40
0.0
 40
0.0
 40
0.0
 40
0.5127420179
 40
1.0
 40
1.0
 40
1.0
 40
1.0
 10
15.3070417983
 20
13.3626323358
 30
0.0
 10
15.3069274216
 20
13.3638809475
 30
0.0
 10
15.3066304666
 20
13.3663100252
 30
0.0
 10
15.306172296
 20
13.3687145112
 30
0.0
 10
15.3059037989
 20
13.3698753873
 30
0.0
  0
SPLINE
  5
351
100
AcDbEntity
  8
LAYER_CUT_FEAT
100
AcDbSpline
 62
7
  6
CONTINUOUS
 70
0
 71
3
 72
20
 73
16
 74
0
 42
0.0000001
 43
0.0000001
 44
0.0000000001
 40
0.0
 40
0.0
 40
0.0
 40
0.0
 40
0.0351143325
 40
0.0716857795
 40
0.1109689804
 40
0.15390838
 40
0.2011323002
 40
0.2529996131
 40
0.3096565711
 40
0.3710854196
 40
0.4371413069
 40
0.5075793085
 40
0.6601941997
 40
0.8256718097
 40
1.0
 40
1.0
 40
1.0
 40
1.0
 10
15.7190840101
 20
12.1331461561
 30
0.0
 10
15.7194929264
 20
12.1331461613
 30
0.0
 10
15.7203305152
 20
12.1332425714
 30
0.0
 10
15.7215596393
 20
12.1336692132
 30
0.0
 10
15.7227613849
 20
12.134369327
 30
0.0
 10
15.7239275942
 20
12.1353330666
 30
0.0
 10
15.7250523753
 20
12.1365513028
 30
0.0
 10
15.7261292017
 20
12.1380145927
 30
0.0
 10
15.7271511853
 20
12.1397122235
 30
0.0
 10
15.7281111914
 20
12.1416317792
 30
0.0
 10
15.7290023038
 20
12.143759066
 30
0.0
 10
15.7301193269
 20
12.1469367742
 30
0.0
 10
15.7312787835
 20
12.1513180882
 30
0.0
 10
15.7322730688
 20
12.1569709675
 30
0.0
 10
15.7326666271
 20
12.160912589
 30
0.0
 10
15.7327992725
 20
12.162938352
 30
0.0
  0
SPLINE
  5
352
100
AcDbEntity
  8
LAYER_CUT_FEAT
100
AcDbSpline
 62
7
  6
CONTINUOUS
 70
0
 71
3
 72
25
 73
21
 74
0
 42
0.0000001
 43
0.0000001
 44
0.0000000001
 40
0.0
 40
0.0
 40
0.0
 40
0.0
 40
0.015520781
 40
0.0314024408
 40
0.0654435343
 40
0.0841883034
 40
0.104294587
 40
0.1489623566
 40
0.1999126557
 40
0.2570677087
 40
0.32001398
 40
0.3880990674
 40
0.4604953484
 40
0.5362468042
 40
0.6143057839
 40
0.6935648043
 40
0.7728863916
 40
0.851131618
 40
0.9271869456
 40
1.0
 40
1.0
 40
1.0
 40
1.0
 10
15.7989543606
 20
12.2379493618
 30
0.0
 10
15.7992572456
 20
12.2379493566
 30
0.0
 10
15.7998712893
 20
12.2380013893
 30
0.0
 10
15.8011135879
 20
12.238317521
 30
0.0
 10
15.8023168683
 20
12.2389527465
 30
0.0
 10
15.8034383964
 20
12.2398298844
 30
0.0
 10
15.8046112908
 20
12.2409659298
 30
0.0
 10
15.806002192
 20
12.2427588039
 30
0.0
 10
15.8074937466
 20
12.2453477296
 30
0.0
 10
15.8088424903
 20
12.2484069668
 30
0.0
 10
15.8100267814
 20
12.2518872052
 30
0.0
 10
15.8110271403
 20
12.255732147
 30
0.0
 10
15.811826574
 20
12.2598780847
 30
0.0
 10
15.8124114036
 20
12.2642558309
 30
0.0
 10
15.8127715553
 20
12.2687919269
 30
0.0
 10
15.8129008425
 20
12.2734100733
 30
0.0
 10
15.8127970402
 20
12.2780324788
 30
0.0
 10
15.8124619059
 20
12.2825813373
 30
0.0
 10
15.8119012846
 20
12.2869799042
 30
0.0
 10
15.8113696403
 20
12.2898381256
 30
0.0
 10
15.8110644412
 20
12.2912258944
 30
0.0
  0
SPLINE
  5
353
100
AcDbEntity
  8
LAYER_CUT_FEAT
100
AcDbSpline
 62
7
  6
CONTINUOUS
 70
0
 71
3
 72
40
 73
36
 74
0
 42
0.0000001
 43
0.0000001
 44
0.0000000001
 40
0.0
 40
0.0
 40
0.0
 40
0.0
 40
0.0475561297
 40
0.0938221297
 40
0.1387493282
 40
0.1822941007
 40
0.2244187884
 40
0.265092165
 40
0.3042902436
 40
0.3419971132
 40
0.3782059437
 40
0.4129201436
 40
0.4461547049
 40
0.4779377463
 40
0.5083122547
 40
0.5373379976
 40
0.5650935265
 40
0.5785276731
 40
0.591683369
 40
0.6172186634
 40
0.6418495914
 40
0.6657441741
 40
0.6890916763
 40
0.7120987877
 40
0.734983828
 40
0.7579694455
 40
0.7812747156
 40
0.805107737
 40
0.8296596616
 40
0.8551006779
 40
0.8815779868
 40
0.9092154526
 40
0.9381144555
 40
0.968355472
 40
1.0
 40
1.0
 40
1.0
 40
1.0
 10
16.1134414926
 20
11.7060493527
 30
0.0
 10
16.1091351302
 20
11.6921139588
 30
0.0
 10
16.1003108873
 20
11.6647211959
 30
0.0
 10
16.0862333252
 20
11.624557366
 30
0.0
 10
16.0715156829
 20
11.5859367482
 30
0.0
 10
16.0561836074
 20
11.548926645
 30
0.0
 10
16.0402636863
 20
11.5135911521
 30
0.0
 10
16.0237834706
 20
11.4799914708
 30
0.0
 10
16.0067713983
 20
11.4481857066
 30
0.0
 10
15.9892567091
 20
11.4182287945
 30
0.0
 10
15.9712693552
 20
11.3901724085
 30
0.0
 10
15.9528399101
 20
11.3640649072
 30
0.0
 10
15.933999426
 20
11.3399512712
 30
0.0
 10
15.9147794512
 20
11.3178731965
 30
0.0
 10
15.8952114874
 20
11.2978688235
 30
0.0
 10
15.8753284727
 20
11.27997397
 30
0.0
 10
15.8583409316
 20
11.266703727
 30
0.0
 10
15.8446325669
 20
11.2572152582
 30
0.0
 10
15.8311334025
 20
11.2486441002
 30
0.0
 10
15.814106816
 20
11.239248824
 30
0.0
 10
15.7932883641
 20
11.230083522
 30
0.0
 10
15.7723223844
 20
11.2231601998
 30
0.0
 10
15.7512481882
 20
11.2184969136
 30
0.0
 10
15.7301067153
 20
11.2161065054
 30
0.0
 10
15.7089411506
 20
11.2159960627
 30
0.0
 10
15.687795441
 20
11.2181659118
 30
0.0
 10
15.666712868
 20
11.2226096212
 30
0.0
 10
15.6457347826
 20
11.2293147579
 30
0.0
 10
15.6249000309
 20
11.238264094
 30
0.0
 10
15.6042450667
 20
11.2494367366
 30
0.0
 10
15.5838044712
 20
11.2628088954
 30
0.0
 10
15.5636116513
 20
11.2783541106
 30
0.0
 10
15.5436990986
 20
11.2960435447
 30
0.0
 10
15.5240997398
 20
11.3158445836
 30
0.0
 10
15.5115524728
 20
11.3301016949
 30
0.0
 10
15.5053332241
 20
11.3375526768
 30
0.0
  0
SPLINE
  5
354
100
AcDbEntity
  8
LAYER_CHAMFER_FEAT
100
AcDbSpline
 62
7
  6
CONTINUOUS
 70
0
 71
3
 72
35
 73
31
 74
0
 42
0.0000001
 43
0.0000001
 44
0.0000000001
 40
0.0
 40
0.0
 40
0.0
 40
0.0
 40
0.093938001
 40
0.1826935508
 40
0.265958239
 40
0.3054659498
 40
0.3435293416
 40
0.3801399529
 40
0.4152983829
 40
0.4490154842
 40
0.4813136333
 40
0.5122282087
 40
0.5418092429
 40
0.5701232172
 40
0.5972548039
 40
0.6233084462
 40
0.6484095312
 40
0.6727047928
 40
0.6963615002
 40
0.7195650561
 40
0.7425148799
 40
0.7654187006
 40
0.788485792
 40
0.8119199988
 40
0.8359134808
 40
0.8606418572
 40
0.8862610515
 40
0.9129058222
 40
0.9406896935
 40
1.0
 40
1.0
 40
1.0
 40
1.0
 10
15.5516184552
 20
12.8160671532
 30
0.0
 10
15.5547455132
 20
12.8261863168
 30
0.0
 10
15.5612765519
 20
12.8457322623
 30
0.0
 10
15.572247942
 20
12.8736541053
 30
0.0
 10
15.5822600584
 20
12.8953195926
 30
0.0
 10
15.5907008712
 20
12.9113729543
 30
0.0
 10
15.5971021474
 20
12.922545998
 30
0.0
 10
15.6036744805
 20
12.9330453414
 30
0.0
 10
15.6104074821
 20
12.9428539959
 30
0.0
 10
15.6172903834
 20
12.9519560471
 30
0.0
 10
15.6243123189
 20
12.9603367232
 30
0.0
 10
15.6314622959
 20
12.9679823631
 30
0.0
 10
15.6387292412
 20
12.9748803923
 30
0.0
 10
15.6461019856
 20
12.9810193027
 30
0.0
 10
15.6535692583
 20
12.9863885825
 30
0.0
 10
15.6611196241
 20
12.9909786423
 30
0.0
 10
15.6687413597
 20
12.9947807732
 30
0.0
 10
15.6764222681
 20
12.9977871911
 30
0.0
 10
15.6841494838
 20
12.9999911997
 30
0.0
 10
15.6919093573
 20
13.0013874305
 30
0.0
 10
15.6996874749
 20
13.0019722165
 30
0.0
 10
15.7074688987
 20
13.0017439344
 30
0.0
 10
15.7152385861
 20
13.0007032315
 30
0.0
 10
15.7229818543
 20
12.9988529108
 30
0.0
 10
15.7306846948
 20
12.9961976446
 30
0.0
 10
15.7383339375
 20
12.9927435641
 30
0.0
 10
15.745916989
 20
12.9884980838
 30
0.0
 10
15.7534224413
 20
12.9834692146
 30
0.0
 10
15.7635285143
 20
12.9755610405
 30
0.0
 10
15.7706211772
 20
12.9687206486
 30
0.0
 10
15.77517777
 20
12.9638262679
 30
0.0
  0
SPLINE
  5
355
100
AcDbEntity
  8
LAYER_CHAMFER_FEAT
100
AcDbSpline
 62
7
  6
CONTINUOUS
 70
0
 71
3
 72
23
 73
19
 74
0
 42
0.0000001
 43
0.0000001
 44
0.0000000001
 40
0.0
 40
0.0
 40
0.0
 40
0.0
 40
0.0879809805
 40
0.1726889547
 40
0.2539692829
 40
0.3316918102
 40
0.4057566471
 40
0.4760979566
 40
0.5426899954
 40
0.605554034
 40
0.6647669151
 40
0.72047121
 40
0.772886804
 40
0.8223230141
 40
0.869189187
 40
0.9140001406
 40
0.9573714596
 40
1.0
 40
1.0
 40
1.0
 40
1.0
 10
15.5405835294
 20
12.8216616429
 30
0.0
 10
15.5428128028
 20
12.8288755742
 30
0.0
 10
15.5474150206
 20
12.842966506
 30
0.0
 10
15.5549032367
 20
12.8634403204
 30
0.0
 10
15.5628269937
 20
12.8828024159
 30
0.0
 10
15.5711614179
 20
12.9009919508
 30
0.0
 10
15.5798805395
 20
12.9179522153
 30
0.0
 10
15.5889574241
 20
12.9336304422
 30
0.0
 10
15.598364346
 20
12.9479780189
 30
0.0
 10
15.6080730349
 20
12.9609505446
 30
0.0
 10
15.6180549241
 20
12.9725078016
 30
0.0
 10
15.6282814048
 20
12.9826135539
 30
0.0
 10
15.6387239103
 20
12.9912351231
 30
0.0
 10
15.6493538282
 20
12.9983427405
 30
0.0
 10
15.6601412655
 20
13.0039088714
 30
0.0
 10
15.6710548726
 20
13.0079080745
 30
0.0
 10
15.6820548232
 20
13.0103182196
 30
0.0
 10
15.6894460816
 20
13.0108566658
 30
0.0
 10
15.6931044628
 20
13.0108566551
 30
0.0
  0
SPLINE
  5
356
100
AcDbEntity
  8
LAYER_CUT_FEAT
100
AcDbSpline
 62
7
  6
CONTINUOUS
 70
0
 71
3
 72
14
 73
10
 74
0
 42
0.0000001
 43
0.0000001
 44
0.0000000001
 40
0.0
 40
0.0
 40
0.0
 40
0.0
 40
0.1179234442
 40
0.236073147
 40
0.3554156825
 40
0.4768826587
 40
0.6013453435
 40
0.729595947
 40
1.0
 40
1.0
 40
1.0
 40
1.0
 10
15.6972822294
 20
12.8678433939
 30
0.0
 10
15.6990620076
 20
12.8679785693
 30
0.0
 10
15.7026408637
 20
12.868073897
 30
0.0
 10
15.7080146317
 20
12.8676833767
 30
0.0
 10
15.7133776171
 20
12.8667602233
 30
0.0
 10
15.7187200978
 20
12.865306574
 30
0.0
 10
15.7240341967
 20
12.863325266
 30
0.0
 10
15.7311940785
 20
12.8599272361
 30
0.0
 10
15.7363115251
 20
12.8566726813
 30
0.0
 10
15.7396111565
 20
12.8542511082
 30
0.0
  0
SPLINE
  5
357
100
AcDbEntity
  8
LAYER_CUT_FEAT
100
AcDbSpline
 62
7
  6
CONTINUOUS
 70
0
 71
3
 72
14
 73
10
 74
0
 42
0.0000001
 43
0.0000001
 44
0.0000000001
 40
0.0
 40
0.0
 40
0.0
 40
0.0
 40
0.0822008675
 40
0.1710546032
 40
0.2715475096
 40
0.3865818491
 40
0.5173638331
 40
0.6638786791
 40
1.0
 40
1.0
 40
1.0
 40
1.0
 10
15.2672152176
 20
13.238786794
 30
0.0
 10
15.2671264075
 20
13.2387867922
 30
0.0
 10
15.2669405236
 20
13.2387556679
 30
0.0
 10
15.2666756666
 20
13.2386217821
 30
0.0
 10
15.2664235657
 20
13.2384069556
 30
0.0
 10
15.2661860154
 20
13.238115952
 30
0.0
 10
15.2659650128
 20
13.2377530113
 30
0.0
 10
15.2656832695
 20
13.2371521417
 30
0.0
 10
15.2655268714
 20
13.236651842
 30
0.0
 10
15.2654384481
 20
13.2362996247
 30
0.0
  0
SPLINE
  5
358
100
AcDbEntity
  8
LAYER_CUT_FEAT
100
AcDbSpline
 62
7
  6
CONTINUOUS
 70
0
 71
3
 72
14
 73
10
 74
0
 42
0.0000001
 43
0.0000001
 44
0.0000000001
 40
0.0
 40
0.0
 40
0.0
 40
0.0
 40
0.0833743308
 40
0.1730893431
 40
0.2739781141
 40
0.3889499071
 40
0.5193063462
 40
0.6651716761
 40
1.0
 40
1.0
 40
1.0
 40
1.0
 10
15.2766625302
 20
13.276317035
 30
0.0
 10
15.2765766858
 20
13.276317036
 30
0.0
 10
15.2763974777
 20
13.2762880869
 30
0.0
 10
15.2761411046
 20
13.2761631112
 30
0.0
 10
15.2758962599
 20
13.2759619998
 30
0.0
 10
15.2756647202
 20
13.2756890887
 30
0.0
 10
15.2754483017
 20
13.2753481874
 30
0.0
 10
15.275170529
 20
13.2747827038
 30
0.0
 10
15.2750138933
 20
13.274310449
 30
0.0
 10
15.2749241896
 20
13.273977576
 30
0.0
  0
SPLINE
  5
359
100
AcDbEntity
  8
LAYER_CUT_FEAT
100
AcDbSpline
 62
7
  6
CONTINUOUS
 70
0
 71
3
 72
14
 73
10
 74
0
 42
0.0000001
 43
0.0000001
 44
0.0000000001
 40
0.0
 40
0.0
 40
0.0
 40
0.0
 40
0.0845982887
 40
0.1752264275
 40
0.2765588483
 40
0.3914999463
 40
0.5214384154
 40
0.6666310708
 40
1.0
 40
1.0
 40
1.0
 40
1.0
 10
15.2865829728
 20
13.313033416
 30
0.0
 10
15.2865000878
 20
13.3130334161
 30
0.0
 10
15.2863275006
 20
13.3130065585
 30
0.0
 10
15.2860796586
 20
13.3128901635
 30
0.0
 10
15.2858421846
 20
13.3127023507
 30
0.0
 10
15.2856168254
 20
13.3124470298
 30
0.0
 10
15.2854052402
 20
13.312127612
 30
0.0
 10
15.285131956
 20
13.3115968209
 30
0.0
 10
15.2849755384
 20
13.3111521539
 30
0.0
 10
15.2848849226
 20
13.3108383583
 30
0.0
  0
SPLINE
  5
35A
100
AcDbEntity
  8
LAYER_CUT_FEAT
100
AcDbSpline
 62
7
  6
CONTINUOUS
 70
0
 71
3
 72
13
 73
9
 74
0
 42
0.0000001
 43
0.0000001
 44
0.0000000001
 40
0.0
 40
0.0
 40
0.0
 40
0.0
 40
0.2894436119
 40
0.5596466939
 40
0.6839111928
 40
0.7992851767
 40
0.9048426474
 40
1.0
 40
1.0
 40
1.0
 40
1.0
 10
15.2766157334
 20
13.2525834799
 30
0.0
 10
15.2765565855
 20
13.2511365982
 30
0.0
 10
15.2763171057
 20
13.2483424702
 30
0.0
 10
15.2756917136
 20
13.2449709915
 30
0.0
 10
15.2749986466
 20
13.2425145383
 30
0.0
 10
15.2744159068
 20
13.2408870371
 30
0.0
 10
15.2737639607
 20
13.2394442932
 30
0.0
 10
15.2732620247
 20
13.2385717229
 30
0.0
 10
15.272998567
 20
13.2381751929
 30
0.0
  0
SPLINE
  5
35B
100
AcDbEntity
  8
LAYER_CUT_FEAT
100
AcDbSpline
 62
7
  6
CONTINUOUS
 70
0
 71
3
 72
13
 73
9
 74
0
 42
0.0000001
 43
0.0000001
 44
0.0000000001
 40
0.0
 40
0.0
 40
0.0
 40
0.0
 40
0.0859087354
 40
0.1775417139
 40
0.2794103528
 40
0.3944035816
 40
0.6681188915
 40
1.0
 40
1.0
 40
1.0
 40
1.0
 10
15.2969659224
 20
13.3488966152
 30
0.0
 10
15.2968859921
 20
13.3488966079
 30
0.0
 10
15.2967199715
 20
13.3488717711
 30
0.0
 10
15.2964807105
 20
13.3487636217
 30
0.0
 10
15.2962506806
 20
13.3485887189
 30
0.0
 10
15.2959407892
 20
13.3482511396
 30
0.0
 10
15.2955991055
 20
13.3476668426
 30
0.0
 10
15.2954011489
 20
13.34713752
 30
0.0
 10
15.2953099808
 20
13.3468425001
 30
0.0
  0
SPLINE
  5
35C
100
AcDbEntity
  8
LAYER_CUT_FEAT
100
AcDbSpline
 62
7
  6
CONTINUOUS
 70
0
 71
3
 72
26
 73
22
 74
0
 42
0.0000001
 43
0.0000001
 44
0.0000000001
 40
0.0
 40
0.0
 40
0.0
 40
0.0
 40
0.0214346249
 40
0.0429606002
 40
0.0646678467
 40
0.0866435109
 40
0.108970799
 40
0.1317280171
 40
0.178796514
 40
0.2283795555
 40
0.2808833696
 40
0.3366177403
 40
0.3958056546
 40
0.4585947297
 40
0.5250682493
 40
0.5952548967
 40
0.6691371138
 40
0.7466578506
 40
0.8277262435
 40
0.9122219514
 40
1.0
 40
1.0
 40
1.0
 40
1.0
 10
15.7184994302
 20
13.8819280792
 30
0.0
 10
15.7135752902
 20
13.881928077
 30
0.0
 10
15.703702458
 20
13.8815768149
 30
0.0
 10
15.6889188355
 20
13.879997737
 30
0.0
 10
15.6741588372
 20
13.8773676754
 30
0.0
 10
15.659435547
 20
13.8736893053
 30
0.0
 10
15.6447600253
 20
13.8689658233
 30
0.0
 10
15.6250544006
 20
13.8611950449
 30
0.0
 10
15.6005243167
 20
13.8487595682
 30
0.0
 10
15.5718338868
 20
13.8299131511
 30
0.0
 10
15.5436291233
 20
13.8070454523
 30
0.0
 10
15.5159893207
 20
13.780234356
 30
0.0
 10
15.4889880196
 20
13.7495637202
 30
0.0
 10
15.4627004064
 20
13.7151268622
 30
0.0
 10
15.4372011114
 20
13.6770271129
 30
0.0
 10
15.412564133
 20
13.6353785673
 30
0.0
 10
15.3888621603
 20
13.5903060698
 30
0.0
 10
15.3661659009
 20
13.5419452241
 30
0.0
 10
15.344543634
 20
13.4904417476
 30
0.0
 10
15.3240609865
 20
13.4359521023
 30
0.0
 10
15.3114388264
 20
13.3984334232
 30
0.0
 10
15.3053155375
 20
13.3792204934
 30
0.0
  0
ENDSEC
  0
SECTION
  2
OBJECTS
  0
DICTIONARY
  5
C
100
AcDbDictionary
280
0
281
1
  3
ACAD_GROUP
350
D
  3
ACAD_MLINESTYLE
350
17
  3
ACAD_LAYOUT
350
1A
  3
ACAD_PLOTSETTINGS
350
19
  3
ACAD_PLOTSTYLENAME
350
E
  0
DICTIONARY
  5
D
102
{ACAD_REACTORS
330
C
102
}
100
AcDbDictionary
280
0
281
1
  0
ACDBDICTIONARYWDFLT
  5
E
102
{ACAD_REACTORS
330
C
102
}
100
AcDbDictionary
281
1
  3
Normal
350
F
100
AcDbDictionaryWithDefault
340
F
  0
DICTIONARY
  5
17
102
{ACAD_REACTORS
330
C
102
}
100
AcDbDictionary
280
0
281
1
  3
Standard
350
18
  0
DICTIONARY
  5
19
102
{ACAD_REACTORS
330
C
102
}
100
AcDbDictionary
281
1
  0
DICTIONARY
  5
1A
102
{ACAD_REACTORS
330
C
102
}
100
AcDbDictionary
281
1
  3
Model
350
35D
  3
Layout1
350
35E
  0
ACDBPLACEHOLDER
  5
F
102
{ACAD_REACTORS
330
E
102
}
  0
MLINESTYLE
  5
18
102
{ACAD_REACTORS
330
17
102
}
100
AcDbMlineStyle
  2
STANDARD
 70
0
  3

 62
256
 51
90.0
 52
90.0
 71
2
 49
0.5
 62
256
  6
BYLAYER
 49
-0.5
 62
256
  6
BYLAYER
  0
LAYOUT
  5
35D
102
{ACAD_REACTORS
330
1A
102
}
100
AcDbPlotSettings
  1

  2
none_device
  4
ANSI_C_(22.00_x_17.00_Inches)
  6

 40
0.0
 41
0.0
 42
0.0
 43
0.0
 44
558.8
 45
431.8
 46
0.0
 47
0.0
 48
0.0
 49
0.0
140
0.0
141
0.0
142
1.0
143
1.0
 70
1024
 72
0
 73
0
 74
0
  7

 75
0
147
1.0
148
0.0
149
0.0
100
AcDbLayout
  1
Model
 70
0
 71
0
 10
0.0
 20
0.0
 11
22.0
 21
17.0
 12
0.0
 22
0.0
 32
0.0
 14
0.0
 24
0.0
 34
0.0
 15
0.0
 25
0.0
 35
0.0
146
0.0
 13
0.0
 23
0.0
 33
0.0
 16
1.0
 26
0.0
 36
0.0
 17
0.0
 27
1.0
 37
0.0
 76
0
330
222
345
0
346
0
  0
LAYOUT
  5
35E
102
{ACAD_REACTORS
330
1A
102
}
100
AcDbPlotSettings
  1

  2
none_device
  4
ANSI_C_(22.00_x_17.00_Inches)
  6

 40
0.0
 41
0.0
 42
0.0
 43
0.0
 44
558.8
 45
431.8
 46
0.0
 47
0.0
 48
0.0
 49
0.0
140
0.0
141
0.0
142
1.0
143
1.0
 70
0
 72
0
 73
0
 74
0
  7

 75
0
147
1.0
148
0.0
149
0.0
100
AcDbLayout
  1
Layout1
 70
0
 71
1
 10
0.0
 20
0.0
 11
22.0
 21
17.0
 12
0.0
 22
0.0
 32
0.0
 14
0.0
 24
0.0
 34
0.0
 15
0.0
 25
0.0
 35
0.0
146
0.0
 13
0.0
 23
0.0
 33
0.0
 16
1.0
 26
0.0
 36
0.0
 17
0.0
 27
1.0
 37
0.0
 76
0
330
223
345
0
346
0
  0
ENDSEC
  0
EOF