999
DXF file: _cgs_temp_output.dxf
999
Pro/ENGINEER 2016360 by Parametric Technology Corporation
  0
SECTION
  2
HEADER
  9
$ACADVER
  1
AC1021
  9
$DWGCODEPAGE
  3
ANSI_1252
  9
$EXTMAX
 10
22.0
 20
17.0
 30
0.0
  9
$EXTMIN
 10
0.0
 20
0.0
 30
0.0
  9
$LIMMIN
 10
0.0
 20
0.0
  9
$LIMMAX
 10
22.0
 20
17.0
  9
$VIEWCTR
 10
11.0
 20
8.5
  9
$VIEWSIZE
 40
17.0
  9
$CLAYER
  8
0
  9
$LTSCALE
 40
1.21
  9
$CELTYPE
  6
BYLAYER
  9
$DIMSCALE
 40
1.0
  9
$DIMASZ
 40
0.1875
  9
$DIMEXO
 40
0.0625
  9
$DIMDLI
 40
0.836
  9
$DIMEXE
 40
0.125
  9
$DIMCEN
 40
0.198
  9
$DIMLFAC
 40
1.0
  9
$DIMBLK
  1
_CLOSED
  9
$DIMALT
 70
0
  9
$DIMALTF
 40
25.4
  9
$DIMTXT
 40
0.15625
  9
$DIMTOL
 70
0
  9
$DIMLIM
 70
0
  9
$DIMTFAC
 40
1.0
  9
$DIMGAP
 40
0.09
  9
$DIMDSEP
 70
46
  9
$AUNITS
 70
0
  9
$PDMODE
 70
3
  9
$PDSIZE
 40
0.3125
  9
$HANDSEED
  5
316
  9
$TILEMODE
 70
1
  9
$MEASUREMENT
 70
0
  9
$INSUNITS
 70
1
  0
ENDSEC
  0
SECTION
  2
CLASSES
  0
CLASS
  1
ACDBDICTIONARYWDFLT
  2
AcDbDictionaryWithDefault
  3
AutoCAD 2000
 90
0
 91
1
280
0
281
0
  0
CLASS
  1
ACDBPLACEHOLDER
  2
AcDbPlaceHolder
  3
AutoCAD 2000
 90
0
 91
1
280
0
281
0
  0
CLASS
  1
LAYOUT
  2
AcDbLayout
  3
AutoCAD 2000
 90
0
 91
0
280
0
281
0
  0
ENDSEC
  0
SECTION
  2
TABLES
  0
TABLE
  2
VPORT
  5
8
100
AcDbSymbolTable
 70
2
  0
VPORT
  5
1F4
100
AcDbSymbolTableRecord
100
AcDbViewportTableRecord
  2
*ACTIVE
 70
0
 10
0.0
 20
0.0
 11
1.0
 21
1.0
 12
11.0
 22
8.5
 13
0.0
 23
0.0
 14
1.0
 24
1.0
 15
0.0
 25
0.0
 16
0.0
 26
0.0
 36
1.0
 17
0.0
 27
0.0
 37
0.0
 40
17.0
 41
1.2941176471
 42
50.0
 43
0.0
 44
0.0
 50
0.0
 51
0.0
 71
0
 72
100
 73
1
 74
1
 75
0
 76
0
 77
0
 78
0
  0
ENDTAB
  0
TABLE
  2
LTYPE
  5
5
100
AcDbSymbolTable
 70
6
  0
LTYPE
  5
14
100
AcDbSymbolTableRecord
100
AcDbLinetypeTableRecord
  2
BYBLOCK
 70
0
  3

 72
65
 73
0
 40
0.0
  0
LTYPE
  5
15
100
AcDbSymbolTableRecord
100
AcDbLinetypeTableRecord
  2
BYLAYER
 70
0
  3

 72
65
 73
0
 40
0.0
  0
LTYPE
  5
16
100
AcDbSymbolTableRecord
100
AcDbLinetypeTableRecord
  2
CONTINUOUS
 70
64
  3
Solid line
 72
65
 73
0
 40
0.0
  0
LTYPE
  5
1F5
100
AcDbSymbolTableRecord
100
AcDbLinetypeTableRecord
  2
CENTER
 70
64
  3
____ _ ____ _ ____ _ ____ _ ____ _ ____ _ ____
 72
65
 73
4
 40
0.6
 49
0.375
 74
0
 49
-0.075
 74
0
 49
0.075
 74
0
 49
-0.075
 74
0
  0
LTYPE
  5
1F6
100
AcDbSymbolTableRecord
100
AcDbLinetypeTableRecord
  2
HIDDEN
 70
64
  3
- - - - - - - - - - - - - - - - - - - -
 72
65
 73
2
 40
0.2
 49
0.1
 74
0
 49
-0.1
 74
0
  0
LTYPE
  5
1F7
100
AcDbSymbolTableRecord
100
AcDbLinetypeTableRecord
  2
PHANTOM
 70
64
  3
_____ _ _ _____ _ _ _____ _ _ _____
 72
65
 73
6
 40
0.8
 49
0.45
 74
0
 49
-0.05
 74
0
 49
0.1
 74
0
 49
-0.05
 74
0
 49
0.1
 74
0
 49
-0.05
 74
0
  0
LTYPE
  5
1F8
100
AcDbSymbolTableRecord
100
AcDbLinetypeTableRecord
  2
DOT
 70
64
  3
. . . . . . . . . . . . . . . . . . . .
 72
65
 73
2
 40
0.2
 49
0.1
 74
0
 49
-0.1
 74
0
  0
LTYPE
  5
1F9
100
AcDbSymbolTableRecord
100
AcDbLinetypeTableRecord
  2
DASHED
 70
64
  3
- - - - - - - - - - - - - - - - - - - -
 72
65
 73
2
 40
0.2
 49
0.1
 74
0
 49
-0.1
 74
0
  0
ENDTAB
  0
TABLE
  2
LAYER
  5
2
100
AcDbSymbolTable
 70
36
  0
LAYER
  5
10
100
AcDbSymbolTableRecord
100
AcDbLayerTableRecord
  2
0
 70
0
 62
7
  6
CONTINUOUS
370
-3
390
F
  0
LAYER
  5
1FA
100
AcDbSymbolTableRecord
100
AcDbLayerTableRecord
  2
DEFAULT_1
 70
0
 62
7
  6
CENTER
370
-3
390
F
  0
LAYER
  5
1FB
100
AcDbSymbolTableRecord
100
AcDbLayerTableRecord
  2
DEFAULT_2
 70
0
 62
8
  6
HIDDEN
370
-3
390
F
  0
LAYER
  5
1FC
100
AcDbSymbolTableRecord
100
AcDbLayerTableRecord
  2
DEFAULT_3
 70
0
 62
7
  6
PHANTOM
370
-3
390
F
  0
LAYER
  5
1FD
100
AcDbSymbolTableRecord
100
AcDbLayerTableRecord
  2
01_ALL_DTM_PLN
 70
0
 62
7
  6
CONTINUOUS
370
-3
390
F
  0
LAYER
  5
1FE
100
AcDbSymbolTableRecord
100
AcDbLayerTableRecord
  2
01__ASM_ALL_DTM_PLN
 70
0
 62
7
  6
CONTINUOUS
370
-3
390
F
  0
LAYER
  5
1FF
100
AcDbSymbolTableRecord
100
AcDbLayerTableRecord
  2
01__ASM_DEF_DTM_PLN
 70
0
 62
7
  6
CONTINUOUS
370
-3
390
F
  0
LAYER
  5
200
100
AcDbSymbolTableRecord
100
AcDbLayerTableRecord
  2
01___PRT_ALL_DTM_PLN
 70
0
 62
7
  6
CONTINUOUS
370
-3
390
F
  0
LAYER
  5
201
100
AcDbSymbolTableRecord
100
AcDbLayerTableRecord
  2
01___PRT_DEF_DTM_PLN
 70
0
 62
7
  6
CONTINUOUS
370
-3
390
F
  0
LAYER
  5
202
100
AcDbSymbolTableRecord
100
AcDbLayerTableRecord
  2
02_ALL_AXES
 70
0
 62
7
  6
CONTINUOUS
370
-3
390
F
  0
LAYER
  5
203
100
AcDbSymbolTableRecord
100
AcDbLayerTableRecord
  2
02__ASM_ALL_AXES
 70
0
 62
7
  6
CONTINUOUS
370
-3
390
F
  0
LAYER
  5
204
100
AcDbSymbolTableRecord
100
AcDbLayerTableRecord
  2
02___PRT_ALL_AXES
 70
0
 62
7
  6
CONTINUOUS
370
-3
390
F
  0
LAYER
  5
205
100
AcDbSymbolTableRecord
100
AcDbLayerTableRecord
  2
03_ALL_CURVES
 70
0
 62
7
  6
CONTINUOUS
370
-3
390
F
  0
LAYER
  5
206
100
AcDbSymbolTableRecord
100
AcDbLayerTableRecord
  2
03__ASM_ALL_CURVES
 70
0
 62
7
  6
CONTINUOUS
370
-3
390
F
  0
LAYER
  5
207
100
AcDbSymbolTableRecord
100
AcDbLayerTableRecord
  2
03___PRT_ALL_CURVES
 70
0
 62
7
  6
CONTINUOUS
370
-3
390
F
  0
LAYER
  5
208
100
AcDbSymbolTableRecord
100
AcDbLayerTableRecord
  2
04_ALL_DTM_PNT
 70
0
 62
7
  6
CONTINUOUS
370
-3
390
F
  0
LAYER
  5
209
100
AcDbSymbolTableRecord
100
AcDbLayerTableRecord
  2
04__ASM_ALL_DTM_PNT
 70
0
 62
7
  6
CONTINUOUS
370
-3
390
F
  0
LAYER
  5
20A
100
AcDbSymbolTableRecord
100
AcDbLayerTableRecord
  2
04___PRT_ALL_DTM_PNT
 70
0
 62
7
  6
CONTINUOUS
370
-3
390
F
  0
LAYER
  5
20B
100
AcDbSymbolTableRecord
100
AcDbLayerTableRecord
  2
05_ALL_DTM_CSYS
 70
0
 62
7
  6
CONTINUOUS
370
-3
390
F
  0
LAYER
  5
20C
100
AcDbSymbolTableRecord
100
AcDbLayerTableRecord
  2
05__ASM_ALL_DTM_CSYS
 70
0
 62
7
  6
CONTINUOUS
370
-3
390
F
  0
LAYER
  5
20D
100
AcDbSymbolTableRecord
100
AcDbLayerTableRecord
  2
05__ASM_DEF_DTM_CSYS
 70
0
 62
7
  6
CONTINUOUS
370
-3
390
F
  0
LAYER
  5
20E
100
AcDbSymbolTableRecord
100
AcDbLayerTableRecord
  2
05___PRT_ALL_DTM_CSYS
 70
0
 62
7
  6
CONTINUOUS
370
-3
390
F
  0
LAYER
  5
20F
100
AcDbSymbolTableRecord
100
AcDbLayerTableRecord
  2
05___PRT_DEF_DTM_CSYS
 70
0
 62
7
  6
CONTINUOUS
370
-3
390
F
  0
LAYER
  5
210
100
AcDbSymbolTableRecord
100
AcDbLayerTableRecord
  2
06_ALL_SURFS
 70
0
 62
7
  6
CONTINUOUS
370
-3
390
F
  0
LAYER
  5
211
100
AcDbSymbolTableRecord
100
AcDbLayerTableRecord
  2
06__ASM_ALL_SURFS
 70
0
 62
7
  6
CONTINUOUS
370
-3
390
F
  0
LAYER
  5
212
100
AcDbSymbolTableRecord
100
AcDbLayerTableRecord
  2
06___PRT_ALL_SURFS
 70
0
 62
7
  6
CONTINUOUS
370
-3
390
F
  0
LAYER
  5
213
100
AcDbSymbolTableRecord
100
AcDbLayerTableRecord
  2
07__ASM_ALL_SKELETONS
 70
0
 62
7
  6
CONTINUOUS
370
-3
390
F
  0
LAYER
  5
214
100
AcDbSymbolTableRecord
100
AcDbLayerTableRecord
  2
LAYER_AXIS
 70
0
 62
7
  6
CONTINUOUS
370
-3
390
F
  0
LAYER
  5
215
100
AcDbSymbolTableRecord
100
AcDbLayerTableRecord
  2
LAYER_CHAMFER_FEAT
 70
0
 62
7
  6
CONTINUOUS
370
-3
390
F
  0
LAYER
  5
216
100
AcDbSymbolTableRecord
100
AcDbLayerTableRecord
  2
LAYER_CUT_FEAT
 70
0
 62
7
  6
CONTINUOUS
370
-3
390
F
  0
LAYER
  5
217
100
AcDbSymbolTableRecord
100
AcDbLayerTableRecord
  2
LAYER_DIM
 70
0
 62
7
  6
CONTINUOUS
370
-3
390
F
  0
LAYER
  5
218
100
AcDbSymbolTableRecord
100
AcDbLayerTableRecord
  2
LAYER_FEATURE
 70
0
 62
7
  6
CONTINUOUS
370
-3
390
F
  0
LAYER
  5
219
100
AcDbSymbolTableRecord
100
AcDbLayerTableRecord
  2
LAYER_GEOM_FEAT
 70
0
 62
7
  6
CONTINUOUS
370
-3
390
F
  0
LAYER
  5
21A
100
AcDbSymbolTableRecord
100
AcDbLayerTableRecord
  2
LAYER_NOGEOM_FEAT
 70
0
 62
7
  6
CONTINUOUS
370
-3
390
F
  0
LAYER
  5
21B
100
AcDbSymbolTableRecord
100
AcDbLayerTableRecord
  2
LAYER_PARAMETER_DIM
 70
0
 62
7
  6
CONTINUOUS
370
-3
390
F
  0
LAYER
  5
21C
100
AcDbSymbolTableRecord
100
AcDbLayerTableRecord
  2
LAYER_PROTRUSION_FEAT
 70
0
 62
7
  6
CONTINUOUS
370
-3
390
F
  0
ENDTAB
  0
TABLE
  2
STYLE
  5
3
100
AcDbSymbolTable
 70
1
  0
STYLE
  5
11
100
AcDbSymbolTableRecord
100
AcDbTextStyleTableRecord
  2
STANDARD
 70
0
 40
0.0
 41
0.8
 50
0.0
 71
0
 42
0.2
  3
txt
  4

  0
STYLE
  5
21D
100
AcDbSymbolTableRecord
100
AcDbTextStyleTableRecord
  2
TEXTSTYLE_1
 70
0
 40
0.0
 41
0.8
 50
0.0
 71
0
 42
0.2
  3
gdt
  4

  0
ENDTAB
  0
TABLE
  2
VIEW
  5
6
100
AcDbSymbolTable
 70
0
  0
ENDTAB
  0
TABLE
  2
UCS
  5
7
100
AcDbSymbolTable
 70
0
  0
ENDTAB
  0
TABLE
  2
APPID
  5
9
100
AcDbSymbolTable
 70
1
  0
APPID
  5
21E
100
AcDbSymbolTableRecord
100
AcDbRegAppTableRecord
  2
ACAD
 70
0
  0
ENDTAB
  0
TABLE
  2
BLOCK_RECORD
  5
1
100
AcDbSymbolTable
 70
0
  0
BLOCK_RECORD
  5
21F
100
AcDbSymbolTableRecord
100
AcDbBlockTableRecord
  2
*Model_Space
  0
BLOCK_RECORD
  5
220
100
AcDbSymbolTableRecord
100
AcDbBlockTableRecord
  2
*Paper_Space
  0
ENDTAB
  0
TABLE
  2
DIMSTYLE
  5
A
100
AcDbSymbolTable
 70
1
100
AcDbDimStyleTable
 71
0
  0
DIMSTYLE
105
221
100
AcDbSymbolTableRecord
100
AcDbDimStyleTableRecord
  2
STANDARD
 70
0
  3

  4

 40
1.0
 41
0.1875
 42
0.0625
 43
0.38
 44
0.125
 45
0.0
 46
0.0
 47
0.0001
 48
0.0001
140
0.15625
141
0.09
142
0.0
143
25.4
144
1.0
145
0.0
146
1.0
147
0.09
 71
0.0
 72
0.0
 73
1
 74
1
 75
0
 76
0
 77
0
 78
4
 79
1
170
0
171
3
172
0
173
0
174
0
175
0
176
0
177
0
178
0
270
2
179
4
271
4
272
4
273
2
274
2
275
0
280
0
281
0
282
0
283
1
284
4
285
0
286
0
287
3
288
0
340
11
278
46
  0
ENDTAB
  0
ENDSEC
  0
SECTION
  2
BLOCKS
  0
BLOCK
  5
20
100
AcDbEntity
  8
0
100
AcDbBlockBegin
  2
*Model_Space
 70
0
 10
0.0
 20
0.0
 30
0.0
  3
*Model_Space
  1

  0
ENDBLK
  5
21
100
AcDbEntity
  8
0
100
AcDbBlockEnd
  0
BLOCK
  5
1C
100
AcDbEntity
  8
0
100
AcDbBlockBegin
  2
*Paper_Space
 70
0
 10
0.0
 20
0.0
 30
0.0
  3
*Paper_Space
  1

  0
ENDBLK
  5
1D
100
AcDbEntity
  8
0
100
AcDbBlockEnd
  0
ENDSEC
  0
SECTION
  2
ENTITIES
  0
MTEXT
  5
222
100
AcDbEntity
  8
0
100
AcDbMText
 62
7
  6
CONTINUOUS
  7
STANDARD
 71
1
 72
1
 10
15.9560215477
 20
0.9479130325
 30
0.0
 11
1.0
 21
0.0
 31
0.0
 44
0.9
  1
SCALE: 1:1.000
 40
0.3
 41
3.36
  0
LINE
  5
223
100
AcDbEntity
  8
0
100
AcDbLine
 62
7
  6
CONTINUOUS
 10
0.0
 20
0.0
 11
0.0
 21
17.0
  0
LINE
  5
224
100
AcDbEntity
  8
0
100
AcDbLine
 62
7
  6
CONTINUOUS
 10
0.0
 20
0.0
 11
22.0
 21
0.0
  0
LINE
  5
225
100
AcDbEntity
  8
0
100
AcDbLine
 62
7
  6
CONTINUOUS
 10
0.0
 20
17.0
 11
22.0
 21
17.0
  0
LINE
  5
226
100
AcDbEntity
  8
0
100
AcDbLine
 62
7
  6
CONTINUOUS
 10
22.0
 20
0.0
 11
22.0
 21
17.0
  0
LINE
  5
227
100
AcDbEntity
  8
LAYER_FEATURE
100
AcDbLine
 62
7
  6
CONTINUOUS
 10
5.3103672762
 20
6.2751198968
 11
5.3103672762
 21
4.7651198968
  0
LINE
  5
228
100
AcDbEntity
  8
LAYER_FEATURE
100
AcDbLine
 62
7
  6
CONTINUOUS
 10
5.4103672762
 20
6.1751198968
 11
5.4103672762
 21
4.8651198968
  0
LINE
  5
229
100
AcDbEntity
  8
0
100
AcDbLine
 62
7
  6
CONTINUOUS
 10
5.4103672762
 20
4.9218917057
 11
6.4903672762
 21
4.9218917057
  0
LINE
  5
22A
100
AcDbEntity
  8
LAYER_FEATURE
100
AcDbLine
 62
7
  6
CONTINUOUS
 10
5.4103672762
 20
4.9219894762
 11
6.4903672762
 21
4.9219894762
  0
LINE
  5
22B
100
AcDbEntity
  8
LAYER_FEATURE
100
AcDbLine
 62
7
  6
CONTINUOUS
 10
5.4103672762
 20
4.9253066352
 11
6.4903672762
 21
4.9253066352
  0
LINE
  5
22C
100
AcDbEntity
  8
0
100
AcDbLine
 62
7
  6
CONTINUOUS
 10
5.4103672762
 20
4.9754115279
 11
6.4903672762
 21
4.9754115279
  0
LINE
  5
22D
100
AcDbEntity
  8
LAYER_FEATURE
100
AcDbLine
 62
7
  6
CONTINUOUS
 10
5.4103672762
 20
4.9772214902
 11
6.4903672762
 21
4.9772214902
  0
LINE
  5
22E
100
AcDbEntity
  8
LAYER_FEATURE
100
AcDbLine
 62
7
  6
CONTINUOUS
 10
5.4103672762
 20
4.9868482605
 11
6.4903672762
 21
4.9868482605
  0
LINE
  5
22F
100
AcDbEntity
  8
02___PRT_ALL_AXES
100
AcDbLine
 62
7
  6
CONTINUOUS
 10
6.5903672762
 20
5.0701198968
 11
6.9503672762
 21
5.0701198968
  0
LINE
  5
230
100
AcDbEntity
  8
0
100
AcDbLine
 62
7
  6
CONTINUOUS
 10
5.4103672762
 20
5.0800976872
 11
6.4903672762
 21
5.0800976872
  0
LINE
  5
231
100
AcDbEntity
  8
LAYER_FEATURE
100
AcDbLine
 62
7
  6
CONTINUOUS
 10
5.4103672762
 20
5.0855961829
 11
6.4903672762
 21
5.0855961829
  0
LINE
  5
232
100
AcDbEntity
  8
LAYER_FEATURE
100
AcDbLine
 62
7
  6
CONTINUOUS
 10
5.4103672762
 20
5.1005902291
 11
6.4903672762
 21
5.1005902291
  0
LINE
  5
233
100
AcDbEntity
  8
0
100
AcDbLine
 62
7
  6
CONTINUOUS
 10
5.4103672762
 20
5.2257027728
 11
6.4903672762
 21
5.2257027728
  0
LINE
  5
234
100
AcDbEntity
  8
LAYER_FEATURE
100
AcDbLine
 62
7
  6
CONTINUOUS
 10
5.4103672762
 20
5.2365050841
 11
6.4903672762
 21
5.2365050841
  0
LINE
  5
235
100
AcDbEntity
  8
LAYER_FEATURE
100
AcDbLine
 62
7
  6
CONTINUOUS
 10
5.4103672762
 20
5.2553986846
 11
6.4903672762
 21
5.2553986846
  0
LINE
  5
236
100
AcDbEntity
  8
LAYER_FEATURE
100
AcDbLine
 62
7
  6
CONTINUOUS
 10
6.5903672762
 20
6.2751198968
 11
6.4903672762
 21
6.1751198968
  0
LINE
  5
237
100
AcDbEntity
  8
LAYER_FEATURE
100
AcDbLine
 62
7
  6
CONTINUOUS
 10
6.5903672762
 20
4.7651198968
 11
6.4903672762
 21
4.8651198968
  0
LINE
  5
238
100
AcDbEntity
  8
0
100
AcDbLine
 62
7
  6
CONTINUOUS
 10
5.4103672762
 20
5.3981487638
 11
6.4903672762
 21
5.3981487638
  0
LINE
  5
239
100
AcDbEntity
  8
LAYER_FEATURE
100
AcDbLine
 62
7
  6
CONTINUOUS
 10
5.4103672762
 20
5.4151761793
 11
6.4903672762
 21
5.4151761793
  0
LINE
  5
23A
100
AcDbEntity
  8
LAYER_FEATURE
100
AcDbLine
 62
7
  6
CONTINUOUS
 10
5.4103672762
 20
5.4361198968
 11
6.4903672762
 21
5.4361198968
  0
LINE
  5
23B
100
AcDbEntity
  8
LAYER_FEATURE
100
AcDbLine
 62
7
  6
CONTINUOUS
 10
5.3103672762
 20
4.7651198968
 11
5.4103672762
 21
4.8651198968
  0
LINE
  5
23C
100
AcDbEntity
  8
LAYER_FEATURE
100
AcDbLine
 62
7
  6
CONTINUOUS
 10
5.3103672762
 20
6.2751198968
 11
5.4103672762
 21
6.1751198968
  0
LINE
  5
23D
100
AcDbEntity
  8
LAYER_FEATURE
100
AcDbLine
 62
7
  6
CONTINUOUS
 10
5.4103672762
 20
5.6041198968
 11
6.4903672762
 21
5.6041198968
  0
LINE
  5
23E
100
AcDbEntity
  8
LAYER_FEATURE
100
AcDbLine
 62
7
  6
CONTINUOUS
 10
5.4103672762
 20
5.6250636142
 11
6.4903672762
 21
5.6250636142
  0
LINE
  5
23F
100
AcDbEntity
  8
0
100
AcDbLine
 62
7
  6
CONTINUOUS
 10
5.4103672762
 20
5.6422539591
 11
6.4903672762
 21
5.6422539591
  0
LINE
  5
240
100
AcDbEntity
  8
LAYER_FEATURE
100
AcDbLine
 62
7
  6
CONTINUOUS
 10
5.4103672762
 20
5.7848411089
 11
6.4903672762
 21
5.7848411089
  0
LINE
  5
241
100
AcDbEntity
  8
LAYER_FEATURE
100
AcDbLine
 62
7
  6
CONTINUOUS
 10
5.4103672762
 20
5.8037347094
 11
6.4903672762
 21
5.8037347094
  0
LINE
  5
242
100
AcDbEntity
  8
0
100
AcDbLine
 62
7
  6
CONTINUOUS
 10
5.4103672762
 20
5.8145370207
 11
6.4903672762
 21
5.8145370207
  0
LINE
  5
243
100
AcDbEntity
  8
LAYER_FEATURE
100
AcDbLine
 62
7
  6
CONTINUOUS
 10
6.4903672762
 20
6.1751198968
 11
6.4903672762
 21
4.8651198968
  0
LINE
  5
244
100
AcDbEntity
  8
LAYER_FEATURE
100
AcDbLine
 62
7
  6
CONTINUOUS
 10
5.4103672762
 20
5.9396495644
 11
6.4903672762
 21
5.9396495644
  0
LINE
  5
245
100
AcDbEntity
  8
LAYER_FEATURE
100
AcDbLine
 62
7
  6
CONTINUOUS
 10
5.4103672762
 20
5.9546436106
 11
6.4903672762
 21
5.9546436106
  0
LINE
  5
246
100
AcDbEntity
  8
0
100
AcDbLine
 62
7
  6
CONTINUOUS
 10
5.4103672762
 20
5.9601421063
 11
6.4903672762
 21
5.9601421063
  0
LINE
  5
247
100
AcDbEntity
  8
02___PRT_ALL_AXES
100
AcDbLine
 62
7
  6
CONTINUOUS
 10
6.5903672762
 20
5.9701198968
 11
6.9503672762
 21
5.9701198968
  0
LINE
  5
248
100
AcDbEntity
  8
LAYER_FEATURE
100
AcDbLine
 62
7
  6
CONTINUOUS
 10
6.5903672762
 20
6.2751198968
 11
6.5903672762
 21
4.7651198968
  0
LINE
  5
249
100
AcDbEntity
  8
LAYER_FEATURE
100
AcDbLine
 62
7
  6
CONTINUOUS
 10
5.4103672762
 20
6.053391533
 11
6.4903672762
 21
6.053391533
  0
LINE
  5
24A
100
AcDbEntity
  8
LAYER_FEATURE
100
AcDbLine
 62
7
  6
CONTINUOUS
 10
5.4103672762
 20
6.0630183033
 11
6.4903672762
 21
6.0630183033
  0
LINE
  5
24B
100
AcDbEntity
  8
LAYER_CUT_FEAT
100
AcDbLine
 62
7
  6
CONTINUOUS
 10
5.4103672762
 20
6.0648282656
 11
6.4903672762
 21
6.0648282656
  0
LINE
  5
24C
100
AcDbEntity
  8
LAYER_FEATURE
100
AcDbLine
 62
7
  6
CONTINUOUS
 10
5.4103672762
 20
6.1149331583
 11
6.4903672762
 21
6.1149331583
  0
LINE
  5
24D
100
AcDbEntity
  8
LAYER_FEATURE
100
AcDbLine
 62
7
  6
CONTINUOUS
 10
6.4903672762
 20
6.1182503173
 11
5.4103672762
 21
6.1182503173
  0
LINE
  5
24E
100
AcDbEntity
  8
0
100
AcDbLine
 62
7
  6
CONTINUOUS
 10
5.4103672762
 20
6.1183480878
 11
6.4903672762
 21
6.1183480878
  0
LINE
  5
24F
100
AcDbEntity
  8
02___PRT_ALL_AXES
100
AcDbLine
 62
7
  6
CONTINUOUS
 10
6.9503672762
 20
5.9701198968
 11
6.9503672762
 21
5.0701198968
  0
LINE
  5
250
100
AcDbEntity
  8
LAYER_FEATURE
100
AcDbLine
 62
7
  6
CONTINUOUS
 10
5.2508720839
 20
11.8450478358
 11
5.2508720839
 21
13.3550477269
  0
LINE
  5
251
100
AcDbEntity
  8
LAYER_FEATURE
100
AcDbLine
 62
7
  6
CONTINUOUS
 10
5.3508720839
 20
11.945047834
 11
5.3508720839
 21
13.2550477287
  0
LINE
  5
252
100
AcDbEntity
  8
0
100
AcDbLine
 62
7
  6
CONTINUOUS
 10
5.3508720839
 20
12.0018195903
 11
6.4308720839
 21
12.0018195903
  0
LINE
  5
253
100
AcDbEntity
  8
LAYER_FEATURE
100
AcDbLine
 62
7
  6
CONTINUOUS
 10
5.3508720839
 20
12.0019173608
 11
6.4308720839
 21
12.0019173608
  0
LINE
  5
254
100
AcDbEntity
  8
LAYER_FEATURE
100
AcDbLine
 62
7
  6
CONTINUOUS
 10
5.3508720839
 20
12.0052345198
 11
6.4308720839
 21
12.0052345198
  0
LINE
  5
255
100
AcDbEntity
  8
0
100
AcDbLine
 62
7
  6
CONTINUOUS
 10
5.3508720839
 20
12.0553394125
 11
6.4308720839
 21
12.0553394125
  0
LINE
  5
256
100
AcDbEntity
  8
LAYER_FEATURE
100
AcDbLine
 62
7
  6
CONTINUOUS
 10
5.3508720839
 20
12.0571493748
 11
6.4308720839
 21
12.0571493748
  0
LINE
  5
257
100
AcDbEntity
  8
LAYER_FEATURE
100
AcDbLine
 62
7
  6
CONTINUOUS
 10
5.3508720839
 20
12.0667761451
 11
6.4308720839
 21
12.0667761451
  0
LINE
  5
258
100
AcDbEntity
  8
02___PRT_ALL_AXES
100
AcDbLine
 62
7
  6
CONTINUOUS
 10
6.5308720839
 20
12.1500477814
 11
6.8908720839
 21
12.1500477814
  0
LINE
  5
259
100
AcDbEntity
  8
0
100
AcDbLine
 62
7
  6
CONTINUOUS
 10
5.3508720839
 20
12.1600255718
 11
6.4308720839
 21
12.1600255718
  0
LINE
  5
25A
100
AcDbEntity
  8
LAYER_FEATURE
100
AcDbLine
 62
7
  6
CONTINUOUS
 10
5.3508720839
 20
12.1655240675
 11
6.4308720839
 21
12.1655240675
  0
LINE
  5
25B
100
AcDbEntity
  8
LAYER_FEATURE
100
AcDbLine
 62
7
  6
CONTINUOUS
 10
5.3508720839
 20
12.1805181137
 11
6.4308720839
 21
12.1805181137
  0
LINE
  5
25C
100
AcDbEntity
  8
0
100
AcDbLine
 62
7
  6
CONTINUOUS
 10
5.3508720839
 20
12.3056306575
 11
6.4308720839
 21
12.3056306575
  0
LINE
  5
25D
100
AcDbEntity
  8
LAYER_FEATURE
100
AcDbLine
 62
7
  6
CONTINUOUS
 10
5.3508720839
 20
12.3164329687
 11
6.4308720839
 21
12.3164329687
  0
LINE
  5
25E
100
AcDbEntity
  8
LAYER_FEATURE
100
AcDbLine
 62
7
  6
CONTINUOUS
 10
5.3508720839
 20
12.3353265692
 11
6.4308720839
 21
12.3353265692
  0
LINE
  5
25F
100
AcDbEntity
  8
LAYER_FEATURE
100
AcDbLine
 62
7
  6
CONTINUOUS
 10
6.4308720839
 20
13.2550477814
 11
6.5308720839
 21
13.3550477814
  0
LINE
  5
260
100
AcDbEntity
  8
LAYER_FEATURE
100
AcDbLine
 62
7
  6
CONTINUOUS
 10
6.4308720839
 20
11.9450477814
 11
6.5308720839
 21
11.8450477814
  0
LINE
  5
261
100
AcDbEntity
  8
LAYER_CUT_FEAT
100
AcDbLine
 62
7
  6
CONTINUOUS
 10
5.3508720839
 20
12.4780766484
 11
6.4308720839
 21
12.4780766484
  0
LINE
  5
262
100
AcDbEntity
  8
LAYER_FEATURE
100
AcDbLine
 62
7
  6
CONTINUOUS
 10
5.3508720839
 20
12.4951040639
 11
6.4308720839
 21
12.4951040639
  0
LINE
  5
263
100
AcDbEntity
  8
LAYER_FEATURE
100
AcDbLine
 62
7
  6
CONTINUOUS
 10
6.4308720839
 20
12.5160477814
 11
5.3508720839
 21
12.5160477814
  0
LINE
  5
264
100
AcDbEntity
  8
LAYER_FEATURE
100
AcDbLine
 62
7
  6
CONTINUOUS
 10
5.2508720839
 20
11.8450477814
 11
5.3508720839
 21
11.9450477814
  0
LINE
  5
265
100
AcDbEntity
  8
LAYER_FEATURE
100
AcDbLine
 62
7
  6
CONTINUOUS
 10
5.2508720839
 20
13.3550477814
 11
5.3508720839
 21
13.2550477814
  0
LINE
  5
266
100
AcDbEntity
  8
LAYER_FEATURE
100
AcDbLine
 62
7
  6
CONTINUOUS
 10
6.4308720839
 20
12.6840477814
 11
5.3508720839
 21
12.6840477814
  0
LINE
  5
267
100
AcDbEntity
  8
LAYER_FEATURE
100
AcDbLine
 62
7
  6
CONTINUOUS
 10
5.3508720839
 20
12.7049914988
 11
6.4308720839
 21
12.7049914988
  0
LINE
  5
268
100
AcDbEntity
  8
0
100
AcDbLine
 62
7
  6
CONTINUOUS
 10
5.3508720839
 20
12.7221818437
 11
6.4308720839
 21
12.7221818437
  0
LINE
  5
269
100
AcDbEntity
  8
LAYER_FEATURE
100
AcDbLine
 62
7
  6
CONTINUOUS
 10
5.3508720839
 20
12.8647689935
 11
6.4308720839
 21
12.8647689935
  0
LINE
  5
26A
100
AcDbEntity
  8
LAYER_FEATURE
100
AcDbLine
 62
7
  6
CONTINUOUS
 10
5.3508720839
 20
12.883662594
 11
6.4308720839
 21
12.883662594
  0
LINE
  5
26B
100
AcDbEntity
  8
0
100
AcDbLine
 62
7
  6
CONTINUOUS
 10
5.3508720839
 20
12.8944649053
 11
6.4308720839
 21
12.8944649053
  0
LINE
  5
26C
100
AcDbEntity
  8
LAYER_FEATURE
100
AcDbLine
 62
7
  6
CONTINUOUS
 10
6.4308720839
 20
11.9450477814
 11
6.4308720839
 21
13.2550477814
  0
LINE
  5
26D
100
AcDbEntity
  8
LAYER_FEATURE
100
AcDbLine
 62
7
  6
CONTINUOUS
 10
5.3508720839
 20
13.019577449
 11
6.4308720839
 21
13.019577449
  0
LINE
  5
26E
100
AcDbEntity
  8
LAYER_FEATURE
100
AcDbLine
 62
7
  6
CONTINUOUS
 10
5.3508720839
 20
13.0345714953
 11
6.4308720839
 21
13.0345714953
  0
LINE
  5
26F
100
AcDbEntity
  8
0
100
AcDbLine
 62
7
  6
CONTINUOUS
 10
5.3508720839
 20
13.0400699909
 11
6.4308720839
 21
13.0400699909
  0
LINE
  5
270
100
AcDbEntity
  8
02___PRT_ALL_AXES
100
AcDbLine
 62
7
  6
CONTINUOUS
 10
6.5308720839
 20
13.0500477814
 11
6.8908720839
 21
13.0500477814
  0
LINE
  5
271
100
AcDbEntity
  8
LAYER_FEATURE
100
AcDbLine
 62
7
  6
CONTINUOUS
 10
6.5308720839
 20
11.8450477814
 11
6.5308720839
 21
13.3550477814
  0
LINE
  5
272
100
AcDbEntity
  8
LAYER_FEATURE
100
AcDbLine
 62
7
  6
CONTINUOUS
 10
5.3508720839
 20
13.1333194176
 11
6.4308720839
 21
13.1333194176
  0
LINE
  5
273
100
AcDbEntity
  8
LAYER_FEATURE
100
AcDbLine
 62
7
  6
CONTINUOUS
 10
5.3508720839
 20
13.1429461879
 11
6.4308720839
 21
13.1429461879
  0
LINE
  5
274
100
AcDbEntity
  8
0
100
AcDbLine
 62
7
  6
CONTINUOUS
 10
5.3508720839
 20
13.1447561502
 11
6.4308720839
 21
13.1447561502
  0
LINE
  5
275
100
AcDbEntity
  8
LAYER_FEATURE
100
AcDbLine
 62
7
  6
CONTINUOUS
 10
5.3508720839
 20
13.194861043
 11
6.4308720839
 21
13.194861043
  0
LINE
  5
276
100
AcDbEntity
  8
LAYER_FEATURE
100
AcDbLine
 62
7
  6
CONTINUOUS
 10
5.3508720839
 20
13.1981782019
 11
6.4308720839
 21
13.1981782019
  0
LINE
  5
277
100
AcDbEntity
  8
0
100
AcDbLine
 62
7
  6
CONTINUOUS
 10
5.3508720839
 20
13.1982759724
 11
6.4308720839
 21
13.1982759724
  0
LINE
  5
278
100
AcDbEntity
  8
02___PRT_ALL_AXES
100
AcDbLine
 62
7
  6
CONTINUOUS
 10
6.8908720839
 20
13.0500477814
 11
6.8908720839
 21
12.1500477814
  0
LINE
  5
279
100
AcDbEntity
  8
0
100
AcDbLine
 62
7
  6
CONTINUOUS
 10
14.8896823486
 20
11.9096175031
 11
15.7605915327
 21
11.9096175031
  0
LINE
  5
27A
100
AcDbEntity
  8
0
100
AcDbLine
 62
7
  6
CONTINUOUS
 10
14.8259312168
 20
11.9165756692
 11
15.754783624
 21
11.9165756692
  0
LINE
  5
27B
100
AcDbEntity
  8
LAYER_FEATURE
100
AcDbLine
 62
7
  6
CONTINUOUS
 10
14.8247629592
 20
11.9167811754
 11
15.7546120901
 21
11.9167811754
  0
LINE
  5
27C
100
AcDbEntity
  8
LAYER_FEATURE
100
AcDbLine
 62
7
  6
CONTINUOUS
 10
14.8166693032
 20
11.9209847176
 11
15.7512131403
 21
11.9209847176
  0
LINE
  5
27D
100
AcDbEntity
  8
0
100
AcDbLine
 62
7
  6
CONTINUOUS
 10
14.7590974004
 20
11.9774384404
 11
15.7140989917
 21
11.9774384404
  0
LINE
  5
27E
100
AcDbEntity
  8
LAYER_FEATURE
100
AcDbLine
 62
7
  6
CONTINUOUS
 10
14.7553636399
 20
11.979637698
 11
15.7128704659
 21
11.979637698
  0
LINE
  5
27F
100
AcDbEntity
  8
LAYER_FEATURE
100
AcDbLine
 62
7
  6
CONTINUOUS
 10
14.7481719567
 20
11.9900581017
 11
15.70745491
 21
11.9900581017
  0
LINE
  5
280
100
AcDbEntity
  8
02___PRT_ALL_AXES
100
AcDbLine
 62
7
  6
CONTINUOUS
 10
15.9541876447
 20
12.0608049929
 11
16.2857696025
 21
12.0608049929
  0
LINE
  5
281
100
AcDbEntity
  8
0
100
AcDbLine
 62
7
  6
CONTINUOUS
 10
14.7028587001
 20
12.0883573326
 11
15.6671967608
 21
12.0883573326
  0
LINE
  5
282
100
AcDbEntity
  8
LAYER_FEATURE
100
AcDbLine
 62
7
  6
CONTINUOUS
 10
14.6969249231
 20
12.0944885763
 11
15.6651902329
 21
12.0944885763
  0
LINE
  5
283
100
AcDbEntity
  8
02___PRT_ALL_AXES
100
AcDbLine
 62
7
  6
CONTINUOUS
 10
15.9294899459
 20
13.0067663292
 11
15.8899047544
 21
12.9937673691
  0
LINE
  5
284
100
AcDbEntity
  8
LAYER_FEATURE
100
AcDbLine
 62
7
  6
CONTINUOUS
 10
14.6913391849
 20
12.1101058198
 11
15.6603457609
 21
12.1101058198
  0
LINE
  5
285
100
AcDbEntity
  8
02___PRT_ALL_AXES
100
AcDbLine
 62
7
  6
CONTINUOUS
 10
15.9294899459
 20
12.0148436566
 11
15.8899837984
 21
12.0278166603
  0
LINE
  5
286
100
AcDbEntity
  8
0
100
AcDbLine
 62
7
  6
CONTINUOUS
 10
14.6627201517
 20
12.2384748319
 11
15.6301614879
 21
12.2384748319
  0
LINE
  5
287
100
AcDbEntity
  8
LAYER_FEATURE
100
AcDbLine
 62
7
  6
CONTINUOUS
 10
14.6551671978
 20
12.2500914062
 11
15.6281161646
 21
12.2500914062
  0
LINE
  5
288
100
AcDbEntity
  8
LAYER_FEATURE
100
AcDbLine
 62
7
  6
CONTINUOUS
 10
14.6517341755
 20
12.2693767647
 11
15.6250258088
 21
12.2693767647
  0
LINE
  5
289
100
AcDbEntity
  8
LAYER_FEATURE
100
AcDbLine
 62
7
  6
CONTINUOUS
 10
15.7542400958
 20
13.1043831426
 11
15.8298818517
 21
13.1950057608
  0
LINE
  5
28A
100
AcDbEntity
  8
LAYER_FEATURE
100
AcDbLine
 62
7
  6
CONTINUOUS
 10
15.7542400958
 20
11.9172268432
 11
15.8298818517
 21
11.826604225
  0
LINE
  5
28B
100
AcDbEntity
  8
0
100
AcDbLine
 62
7
  6
CONTINUOUS
 10
14.641834261
 20
12.4133489012
 11
15.6098811645
 21
12.4133489012
  0
LINE
  5
28C
100
AcDbEntity
  8
LAYER_FEATURE
100
AcDbLine
 62
7
  6
CONTINUOUS
 10
14.634178001
 20
12.4312146984
 11
15.6089342707
 21
12.4312146984
  0
LINE
  5
28D
100
AcDbEntity
  8
LAYER_FEATURE
100
AcDbLine
 62
7
  6
CONTINUOUS
 10
14.8995353653
 20
11.826604225
 11
14.9688256843
 21
11.9096175031
  0
LINE
  5
28E
100
AcDbEntity
  8
LAYER_FEATURE
100
AcDbLine
 62
7
  6
CONTINUOUS
 10
14.6332337428
 20
12.4522803868
 11
15.6080849131
 21
12.4522803868
  0
LINE
  5
28F
100
AcDbEntity
  8
LAYER_FEATURE
100
AcDbLine
 62
7
  6
CONTINUOUS
 10
14.8995353653
 20
13.1950057608
 11
14.9688256843
 21
13.1119924827
  0
LINE
  5
290
100
AcDbEntity
  8
LAYER_FEATURE
100
AcDbLine
 62
7
  6
CONTINUOUS
 10
14.6360119014
 20
12.6201288431
 11
15.6106217044
 21
12.6201288431
  0
LINE
  5
291
100
AcDbEntity
  8
LAYER_FEATURE
100
AcDbLine
 62
7
  6
CONTINUOUS
 10
14.6376488379
 20
12.6409128051
 11
15.6121481544
 21
12.6409128051
  0
LINE
  5
292
100
AcDbEntity
  8
LAYER_CUT_FEAT
100
AcDbLine
 62
7
  6
CONTINUOUS
 10
14.6454052246
 20
12.6570963772
 11
15.6134943953
 21
12.6570963772
  0
LINE
  5
293
100
AcDbEntity
  8
LAYER_FEATURE
100
AcDbLine
 62
7
  6
CONTINUOUS
 10
14.6604893843
 20
12.7983416077
 11
15.632946885
 21
12.7983416077
  0
LINE
  5
294
100
AcDbEntity
  8
LAYER_FEATURE
100
AcDbLine
 62
7
  6
CONTINUOUS
 10
15.6366207817
 20
12.8168093642
 11
14.6645472806
 21
12.8168093642
  0
LINE
  5
295
100
AcDbEntity
  8
0
100
AcDbLine
 62
7
  6
CONTINUOUS
 10
14.6717298898
 20
12.8268176142
 11
15.6386735513
 21
12.8268176142
  0
LINE
  5
296
100
AcDbEntity
  8
LAYER_FEATURE
100
AcDbLine
 62
7
  6
CONTINUOUS
 10
15.6723642545
 20
12.9484082851
 11
14.7052144229
 21
12.9484082851
  0
LINE
  5
297
100
AcDbEntity
  8
02___PRT_ALL_AXES
100
AcDbLine
 62
7
  6
CONTINUOUS
 10
15.9541876447
 20
12.9608049929
 11
16.2857696025
 21
12.9608049929
  0
LINE
  5
298
100
AcDbEntity
  8
LAYER_FEATURE
100
AcDbLine
 62
7
  6
CONTINUOUS
 10
14.711296064
 20
12.9627520834
 11
15.6775067489
 21
12.9627520834
  0
LINE
  5
299
100
AcDbEntity
  8
0
100
AcDbLine
 62
7
  6
CONTINUOUS
 10
14.7166840814
 20
12.9676476013
 11
15.6793706975
 21
12.9676476013
  0
LINE
  5
29A
100
AcDbEntity
  8
LAYER_FEATURE
100
AcDbLine
 62
7
  6
CONTINUOUS
 10
14.765809019
 20
13.0556393032
 11
15.7205994779
 21
13.0556393032
  0
LINE
  5
29B
100
AcDbEntity
  8
LAYER_FEATURE
100
AcDbLine
 62
7
  6
CONTINUOUS
 10
14.7733190914
 20
13.0644550725
 11
15.7258357742
 21
13.0644550725
  0
LINE
  5
29C
100
AcDbEntity
  8
0
100
AcDbLine
 62
7
  6
CONTINUOUS
 10
14.7763851003
 20
13.0659121641
 11
15.7267640926
 21
13.0659121641
  0
LINE
  5
29D
100
AcDbEntity
  8
LAYER_FEATURE
100
AcDbLine
 62
7
  6
CONTINUOUS
 10
14.8449889949
 20
13.1119924457
 11
14.8445451167
 21
13.1119629343
  0
LINE
  5
29E
100
AcDbEntity
  8
LAYER_FEATURE
100
AcDbLine
 62
7
  6
CONTINUOUS
 10
14.8363417512
 20
13.109538143
 11
15.7585429209
 21
13.109538143
  0
LINE
  5
29F
100
AcDbEntity
  8
LAYER_FEATURE
100
AcDbLine
 62
7
  6
CONTINUOUS
 10
14.8445451167
 20
13.1119629343
 11
15.760566869
 21
13.1119629343
  0
LINE
  5
2A0
100
AcDbEntity
  8
0
100
AcDbLine
 62
7
  6
CONTINUOUS
 10
14.8449889949
 20
13.1119924827
 11
15.7605915327
 21
13.1119924827
  0
CIRCLE
  5
2A1
100
AcDbEntity
  8
LAYER_FEATURE
100
AcDbCircle
 62
7
  6
CONTINUOUS
 10
15.5603552569
 20
5.4606247044
 40
0.755
  0
CIRCLE
  5
2A2
100
AcDbEntity
  8
LAYER_FEATURE
100
AcDbCircle
 62
7
  6
CONTINUOUS
 10
15.5603552569
 20
5.4606247044
 40
0.5104403478
  0
CIRCLE
  5
2A3
100
AcDbEntity
  8
02___PRT_ALL_AXES
100
AcDbCircle
 62
7
  6
CONTINUOUS
 10
15.5603552569
 20
5.4606247044
 40
0.5
  0
CIRCLE
  5
2A4
100
AcDbEntity
  8
02___PRT_ALL_AXES
100
AcDbCircle
 62
7
  6
CONTINUOUS
 10
15.5603552569
 20
5.4606247044
 40
0.45
  0
CIRCLE
  5
2A5
100
AcDbEntity
  8
02___PRT_ALL_AXES
100
AcDbCircle
 62
7
  6
CONTINUOUS
 10
15.5603552569
 20
5.4606247044
 40
0.125
  0
ARC
  5
2A6
100
AcDbEntity
  8
LAYER_FEATURE
100
AcDbCircle
 62
7
  6
CONTINUOUS
 10
16.1586169178
 20
12.5101008637
 40
1.5264786399
100
AcDbArc
 50
182.1707883209
 51
182.9622809468
  0
ARC
  5
2A7
100
AcDbEntity
  8
LAYER_FEATURE
100
AcDbCircle
 62
7
  6
CONTINUOUS
 10
16.104045757
 20
12.5149635347
 40
1.4717958905
100
AcDbArc
 50
175.0908964074
 51
175.9025109818
  0
ARC
  5
2A8
100
AcDbEntity
  8
LAYER_FEATURE
100
AcDbCircle
 62
7
  6
CONTINUOUS
 10
15.8610756528
 20
12.474705634
 40
1.2266485858
100
AcDbArc
 50
189.6361103671
 51
190.5510849672
  0
ARC
  5
2A9
100
AcDbEntity
  8
LAYER_FEATURE
100
AcDbCircle
 62
7
  6
CONTINUOUS
 10
15.1282221253
 20
12.3677478159
 40
1.1055113387
100
AcDbArc
 50
342.8352752954
 51
343.8769601097
  0
ARC
  5
2AA
100
AcDbEntity
  8
LAYER_FEATURE
100
AcDbCircle
 62
7
  6
CONTINUOUS
 10
15.7321715291
 20
12.5725419692
 40
1.0952114391
100
AcDbArc
 50
167.1128097838
 51
168.102007242
  0
ARC
  5
2AB
100
AcDbEntity
  8
LAYER_FEATURE
100
AcDbCircle
 62
7
  6
CONTINUOUS
 10
15.6352549465
 20
13.0924732361
 40
0.8058748405
100
AcDbArc
 50
180.1931782803
 51
180.8139006769
  0
ARC
  5
2AC
100
AcDbEntity
  8
LAYER_FEATURE
100
AcDbCircle
 62
7
  6
CONTINUOUS
 10
15.6147199294
 20
11.938064867
 40
0.8043580458
100
AcDbArc
 50
178.5346776229
 51
179.7883709435
  0
ARC
  5
2AD
100
AcDbEntity
  8
LAYER_FEATURE
100
AcDbCircle
 62
7
  6
CONTINUOUS
 10
15.3971641503
 20
12.3537470297
 40
0.7466926549
100
AcDbArc
 50
199.0439800252
 51
200.3167033423
  0
ARC
  5
2AE
100
AcDbEntity
  8
LAYER_FEATURE
100
AcDbCircle
 62
7
  6
CONTINUOUS
 10
15.45405612
 20
13.1215051462
 40
0.6983330307
100
AcDbArc
 50
187.4213532551
 51
188.1038398629
  0
ARC
  5
2AF
100
AcDbEntity
  8
LAYER_FEATURE
100
AcDbCircle
 62
7
  6
CONTINUOUS
 10
15.4234126576
 20
11.9255532915
 40
0.6845757518
100
AcDbArc
 50
171.1680452734
 51
172.5658142859
  0
ARC
  5
2B0
100
AcDbEntity
  8
LAYER_FEATURE
100
AcDbCircle
 62
7
  6
CONTINUOUS
 10
15.2706537852
 20
12.7171282789
 40
0.6109108885
100
AcDbArc
 50
156.2928780209
 51
157.754109697
  0
ARC
  5
2B1
100
AcDbEntity
  8
LAYER_FEATURE
100
AcDbCircle
 62
7
  6
CONTINUOUS
 10
15.1486301852
 20
13.0499592284
 40
0.4625936856
100
AcDbArc
 50
196.0705895994
 51
196.9680902945
  0
ARC
  5
2B2
100
AcDbEntity
  8
LAYER_FEATURE
100
AcDbCircle
 62
7
  6
CONTINUOUS
 10
15.1179300718
 20
12.0127546139
 40
0.4444817697
100
AcDbArc
 50
162.0567931971
 51
163.9236519119
  0
ARC
  5
2B3
100
AcDbEntity
  8
LAYER_FEATURE
100
AcDbCircle
 62
7
  6
CONTINUOUS
 10
15.0258748793
 20
12.174023995
 40
0.3331101366
100
AcDbArc
 50
213.5227105645
 51
215.7005939636
  0
ARC
  5
2B4
100
AcDbEntity
  8
LAYER_FEATURE
100
AcDbCircle
 62
7
  6
CONTINUOUS
 10
14.9600387696
 20
12.8977835394
 40
0.2502871115
100
AcDbArc
 50
138.2469516909
 51
140.8983074746
  0
ARC
  5
2B5
100
AcDbEntity
  8
LAYER_FEATURE
100
AcDbCircle
 62
7
  6
CONTINUOUS
 10
14.8611665601
 20
12.8806130871
 40
0.2261770536
100
AcDbArc
 50
208.6240182317
 51
210.0690266059
  0
ARC
  5
2B6
100
AcDbEntity
  8
LAYER_FEATURE
100
AcDbCircle
 62
7
  6
CONTINUOUS
 10
14.8434022467
 20
12.1910360412
 40
0.2153972822
100
AcDbArc
 50
148.3492694844
 51
151.366718699
  0
ARC
  5
2B7
100
AcDbEntity
  8
LAYER_FEATURE
100
AcDbCircle
 62
7
  6
CONTINUOUS
 10
14.6143835864
 20
11.9636509207
 40
0.1963054567
100
AcDbArc
 50
358.5355025847
 51
1.6911991762
  0
ARC
  5
2B8
100
AcDbEntity
  8
LAYER_FEATURE
100
AcDbCircle
 62
7
  6
CONTINUOUS
 10
14.6357234952
 20
13.0782486385
 40
0.193757824
100
AcDbArc
 50
356.3491682656
 51
0.8213079286
  0
ARC
  5
2B9
100
AcDbEntity
  8
LAYER_FEATURE
100
AcDbCircle
 62
7
  6
CONTINUOUS
 10
14.5753505688
 20
12.057228028
 40
0.1736477497
100
AcDbArc
 50
351.1995296329
 51
354.6242238698
  0
ARC
  5
2BA
100
AcDbEntity
  8
LAYER_FEATURE
100
AcDbCircle
 62
7
  6
CONTINUOUS
 10
14.5544758137
 20
12.8707386729
 40
0.157901508
100
AcDbArc
 50
358.3819233727
 51
4.2931978496
  0
ARC
  5
2BB
100
AcDbEntity
  8
LAYER_FEATURE
100
AcDbCircle
 62
7
  6
CONTINUOUS
 10
14.6544564782
 20
11.9648407754
 40
0.1562149047
100
AcDbArc
 50
1.6887502761
 51
4.6266330752
  0
ARC
  5
2BC
100
AcDbEntity
  8
LAYER_FEATURE
100
AcDbCircle
 62
7
  6
CONTINUOUS
 10
14.8780156642
 20
12.0292095926
 40
0.1244025707
100
AcDbArc
 50
240.4536317143
 51
244.655014958
  0
ARC
  5
2BD
100
AcDbEntity
  8
LAYER_FEATURE
100
AcDbCircle
 62
7
  6
CONTINUOUS
 10
14.6536050274
 20
12.9891158346
 40
0.1104241893
100
AcDbArc
 50
348.7865080975
 51
351.0288590372
  0
ARC
  5
2BE
100
AcDbEntity
  8
LAYER_FEATURE
100
AcDbCircle
 62
7
  6
CONTINUOUS
 10
14.8692915989
 20
13.0131536687
 40
0.1018609805
100
AcDbArc
 50
104.0603445312
 51
108.8734270593
  0
ARC
  5
2BF
100
AcDbEntity
  8
LAYER_FEATURE
100
AcDbCircle
 62
7
  6
CONTINUOUS
 10
14.6945870072
 20
12.6629368491
 40
0.0848279171
100
AcDbArc
 50
230.9873226541
 51
233.7651197756
  0
ARC
  5
2C0
100
AcDbEntity
  8
LAYER_FEATURE
100
AcDbCircle
 62
7
  6
CONTINUOUS
 10
14.8460677948
 20
11.9409014387
 40
0.0357006775
100
AcDbArc
 50
179.784273698
 51
183.7347644428
  0
ARC
  5
2C1
100
AcDbEntity
  8
LAYER_FEATURE
100
AcDbCircle
 62
7
  6
CONTINUOUS
 10
14.86453566
 20
13.0898925195
 40
0.0351512381
100
AcDbArc
 50
174.3273397863
 51
180.2222701532
  0
ARC
  5
2C2
100
AcDbEntity
  8
LAYER_FEATURE
100
AcDbCircle
 62
7
  6
CONTINUOUS
 10
14.7954554129
 20
13.0356725956
 40
0.0341628143
100
AcDbArc
 50
181.3371481711
 51
187.3454320845
  0
ARC
  5
2C3
100
AcDbEntity
  8
LAYER_FEATURE
100
AcDbCircle
 62
7
  6
CONTINUOUS
 10
14.7774374986
 20
12.0098501123
 40
0.0331236362
100
AcDbArc
 50
172.5784055582
 51
176.7478552276
  0
SPLINE
  5
2C4
100
AcDbEntity
  8
02___PRT_ALL_AXES
100
AcDbSpline
 62
7
  6
CONTINUOUS
 70
0
 71
3
 72
75
 73
71
 74
0
 42
0.0000001
 43
0.0000001
 44
0.0000000001
 40
0.0
 40
0.0
 40
0.0
 40
0.0
 40
0.0038601586
 40
0.0077283481
 40
0.0116125394
 40
0.0155205794
 40
0.0194601384
 40
0.0234386607
 40
0.0274633101
 40
0.0315409504
 40
0.0398790151
 40
0.0485026047
 40
0.0574532441
 40
0.066766243
 40
0.0764709264
 40
0.0865910244
 40
0.0971451434
 40
0.1081472595
 40
0.1196071953
 40
0.1315310727
 40
0.1439217194
 40
0.1567790277
 40
0.1701002677
 40
0.1838803557
 40
0.1981120947
 40
0.2127863854
 40
0.2278924072
 40
0.2434177764
 40
0.2593486833
 40
0.2756700154
 40
0.2923654748
 40
0.3094176801
 40
0.3268082582
 40
0.3445179278
 40
0.3625265765
 40
0.3808133388
 40
0.3993566683
 40
0.4181344028
 40
0.4371238287
 40
0.4563017401
 40
0.4756445013
 40
0.4951281068
 40
0.5147282379
 40
0.5344203183
 40
0.5541795693
 40
0.5739810652
 40
0.5937997894
 40
0.6136106882
 40
0.6333887243
 40
0.6531089311
 40
0.6727464689
 40
0.6922766793
 40
0.7116751402
 40
0.730917721
 40
0.7499806397
 40
0.7688405237
 40
0.7874744681
 40
0.8058600961
 40
0.8239756211
 40
0.8417999126
 40
0.8593125687
 40
0.8764939893
 40
0.8933254496
 40
0.9097891852
 40
0.925868477
 40
0.9415477513
 40
0.9568127325
 40
0.9716503597
 40
0.9860495318
 40
1.0
 40
1.0
 40
1.0
 40
1.0
 10
16.2857696025
 20
12.0608049936
 30
0.0
 10
16.2868974258
 20
12.0608049954
 30
0.0
 10
16.2891558172
 20
12.0608610322
 30
0.0
 10
16.2925405985
 20
12.0611130269
 30
0.0
 10
16.2959228406
 20
12.0615329283
 30
0.0
 10
16.2993011303
 20
12.0621205242
 30
0.0
 10
16.3026742052
 20
12.0628755723
 30
0.0
 10
16.3060407452
 20
12.0637977704
 30
0.0
 10
16.3093995489
 20
12.064886728
 30
0.0
 10
16.3138987627
 20
12.0665727247
 30
0.0
 10
16.3195070962
 20
12.0691091652
 30
0.0
 10
16.3261321272
 20
12.0727891876
 30
0.0
 10
16.3326935474
 20
12.0771218173
 30
0.0
 10
16.3391817082
 20
12.0820997611
 30
0.0
 10
16.3455876607
 20
12.0877151786
 30
0.0
 10
16.3519024079
 20
12.0939594445
 30
0.0
 10
16.3581170689
 20
12.1008231657
 30
0.0
 10
16.3642228184
 20
12.1082961283
 30
0.0
 10
16.3702109216
 20
12.1163672707
 30
0.0
 10
16.376072742
 20
12.1250246778
 30
0.0
 10
16.3817997669
 20
12.1342555802
 30
0.0
 10
16.3873836313
 20
12.1440463604
 30
0.0
 10
16.3928161388
 20
12.1543825634
 30
0.0
 10
16.3980892892
 20
12.1652489096
 30
0.0
 10
16.4031952955
 20
12.1766293173
 30
0.0
 10
16.408126598
 20
12.1885069295
 30
0.0
 10
16.4128758821
 20
12.2008641396
 30
0.0
 10
16.4174360913
 20
12.2136826166
 30
0.0
 10
16.4218004437
 20
12.226943331
 30
0.0
 10
16.4259624469
 20
12.2406265836
 30
0.0
 10
16.4299159033
 20
12.2547120386
 30
0.0
 10
16.4336549223
 20
12.2691787563
 30
0.0
 10
16.4371739291
 20
12.2840052239
 30
0.0
 10
16.4404676746
 20
12.2991693867
 30
0.0
 10
16.4435312491
 20
12.3146486806
 30
0.0
 10
16.446360084
 20
12.3304200679
 30
0.0
 10
16.4489499592
 20
12.3464600741
 30
0.0
 10
16.4512970098
 20
12.3627448223
 30
0.0
 10
16.4533977307
 20
12.3792500683
 30
0.0
 10
16.4552489887
 20
12.3959512362
 30
0.0
 10
16.4568480231
 20
12.4128234559
 30
0.0
 10
16.4581924479
 20
12.4298416022
 30
0.0
 10
16.4592802561
 20
12.4469803315
 30
0.0
 10
16.4601098219
 20
12.4642141197
 30
0.0
 10
16.4606799069
 20
12.4815172997
 30
0.0
 10
16.4609896628
 20
12.4988641003
 30
0.0
 10
16.4610386281
 20
12.5162286855
 30
0.0
 10
16.4608267292
 20
12.5335851928
 30
0.0
 10
16.4603542808
 20
12.5509077716
 30
0.0
 10
16.4596219862
 20
12.5681706215
 30
0.0
 10
16.4586309409
 20
12.5853480324
 30
0.0
 10
16.4573826251
 20
12.6024144221
 30
0.0
 10
16.4558789017
 20
12.6193443747
 30
0.0
 10
16.4541220138
 20
12.6361126779
 30
0.0
 10
16.4521145805
 20
12.6526943613
 30
0.0
 10
16.4498595995
 20
12.6690647349
 30
0.0
 10
16.4473604372
 20
12.6851994266
 30
0.0
 10
16.4446208227
 20
12.7010744169
 30
0.0
 10
16.4416448427
 20
12.7166660749
 30
0.0
 10
16.438436934
 20
12.7319511943
 30
0.0
 10
16.4350018815
 20
12.7469070303
 30
0.0
 10
16.4313448099
 20
12.7615113343
 30
0.0
 10
16.4274711714
 20
12.7757423862
 30
0.0
 10
16.4233867381
 20
12.789579026
 30
0.0
 10
16.4190975922
 20
12.8030006838
 30
0.0
 10
16.4146101168
 20
12.815987431
 30
0.0
 10
16.4099309936
 20
12.8285199424
 30
0.0
 10
16.4050671571
 20
12.8405797385
 30
0.0
 10
16.4000258888
 20
12.8521486894
 30
0.0
 10
16.3964950608
 20
12.8596430281
 30
0.0
 10
16.3946994481
 20
12.8633021022
 30
0.0
  0
SPLINE
  5
2C5
100
AcDbEntity
  8
02___PRT_ALL_AXES
100
AcDbSpline
 62
7
  6
CONTINUOUS
 70
0
 71
3
 72
31
 73
27
 74
0
 42
0.0000001
 43
0.0000001
 44
0.0000000001
 40
0.0
 40
0.0
 40
0.0
 40
0.0
 40
0.0780274388
 40
0.1530680839
 40
0.2252161224
 40
0.2945935461
 40
0.3613528487
 40
0.3938119772
 40
0.425689107
 40
0.4878040337
 40
0.5479643704
 40
0.606463797
 40
0.6351986816
 40
0.6636441551
 40
0.69184598
 40
0.7198513947
 40
0.7477089351
 40
0.7754680786
 40
0.8031789723
 40
0.8308920829
 40
0.8586578674
 40
0.8865264168
 40
0.9145471561
 40
0.9427684961
 40
0.9712375721
 40
1.0
 40
1.0
 40
1.0
 40
1.0
 10
16.0389871385
 20
12.0607151659
 30
0.0
 10
16.0369177285
 20
12.0581441357
 30
0.0
 10
16.0327462464
 20
12.0531890148
 30
0.0
 10
16.0262620808
 20
12.0462049219
 30
0.0
 10
16.0196823696
 20
12.0398249857
 30
0.0
 10
16.0130156517
 20
12.0340579722
 30
0.0
 10
16.0073417716
 20
12.0297292025
 30
0.0
 10
16.0027692356
 20
12.0265906239
 30
0.0
 10
15.9982572541
 20
12.0237167648
 30
0.0
 10
15.9925742761
 20
12.0205070755
 30
0.0
 10
15.9856423261
 20
12.0172619933
 30
0.0
 10
15.9797928449
 20
12.0150820854
 30
0.0
 10
15.9751061908
 20
12.0136715811
 30
0.0
 10
15.9716046969
 20
12.0127821068
 30
0.0
 10
15.9680974054
 20
12.0120552227
 30
0.0
 10
15.9645854133
 20
12.0114912001
 30
0.0
 10
15.9610699224
 20
12.0110902145
 30
0.0
 10
15.9575521063
 20
12.0108524382
 30
0.0
 10
15.9540331549
 20
12.0107779536
 30
0.0
 10
15.9505142549
 20
12.0108667718
 30
0.0
 10
15.9469965971
 20
12.0111188947
 30
0.0
 10
15.9434813627
 20
12.0115341864
 30
0.0
 10
15.9399697439
 20
12.0121125309
 30
0.0
 10
15.9364628932
 20
12.0128536993
 30
0.0
 10
15.9329620604
 20
12.0137573989
 30
0.0
 10
15.9306458134
 20
12.0144640987
 30
0.0
 10
15.9294899461
 20
12.0148436612
 30
0.0
  0
SPLINE
  5
2C6
100
AcDbEntity
  8
LAYER_FEATURE
100
AcDbSpline
 62
7
  6
CONTINUOUS
 70
0
 71
3
 72
65
 73
61
 74
0
 42
0.0000001
 43
0.0000001
 44
0.0000000001
 40
0.0
 40
0.0
 40
0.0
 40
0.0
 40
0.0157899913
 40
0.0312192004
 40
0.0462939554
 40
0.0610216743
 40
0.0754110023
 40
0.0894718229
 40
0.1032153698
 40
0.1166542605
 40
0.1426703074
 40
0.1552857248
 40
0.1676619279
 40
0.17981913
 40
0.1917790847
 40
0.203564987
 40
0.2152014169
 40
0.2267141726
 40
0.2381301347
 40
0.2494770395
 40
0.260783266
 40
0.2720775707
 40
0.2833888237
 40
0.2947457361
 40
0.3061765901
 40
0.3177089921
 40
0.329369644
 40
0.3411841459
 40
0.353176843
 40
0.3653706848
 40
0.3777871627
 40
0.4033603961
 40
0.4165582606
 40
0.4300492731
 40
0.4438472347
 40
0.4579645358
 40
0.4724121507
 40
0.4871997618
 40
0.5023357763
 40
0.5178274352
 40
0.5336808544
 40
0.5499011032
 40
0.566492272
 40
0.5834575136
 40
0.6007991356
 40
0.6185186044
 40
0.636616659
 40
0.6550932833
 40
0.6739478323
 40
0.6931789852
 40
0.7127848707
 40
0.7327630164
 40
0.7531104599
 40
0.7738237082
 40
0.794898824
 40
0.8163314055
 40
0.8602481572
 40
0.9055320266
 40
0.9521340354
 40
1.0
 40
1.0
 40
1.0
 40
1.0
 10
15.8298818526
 20
13.1950057561
 30
0.0
 10
15.8317593849
 20
13.1972551341
 30
0.0
 10
15.8355321073
 20
13.2016524202
 30
0.0
 10
15.841311523
 20
13.2080094578
 30
0.0
 10
15.8471428117
 20
13.2140480102
 30
0.0
 10
15.8530233205
 20
13.2197652205
 30
0.0
 10
15.8589504146
 20
13.2251585157
 30
0.0
 10
15.8649213806
 20
13.2302253446
 30
0.0
 10
15.8709337757
 20
13.2349635424
 30
0.0
 10
15.878914373
 20
13.2407763143
 30
0.0
 10
15.8870565092
 20
13.2460031288
 30
0.0
 10
15.8953407472
 20
13.2505862067
 30
0.0
 10
15.9015184376
 20
13.253650308
 30
0.0
 10
15.9077207753
 20
13.2563744463
 30
0.0
 10
15.9139450504
 20
13.2587573972
 30
0.0
 10
15.9201883789
 20
13.2607978883
 30
0.0
 10
15.9264478547
 20
13.2624949305
 30
0.0
 10
15.9327205616
 20
13.2638475814
 30
0.0
 10
15.9390035263
 20
13.2648551816
 30
0.0
 10
15.9452937717
 20
13.2655171354
 30
0.0
 10
15.9515882839
 20
13.2658331353
 30
0.0
 10
15.9578840456
 20
13.2658029643
 30
0.0
 10
15.964178032
 20
13.2654266755
 30
0.0
 10
15.9704672234
 20
13.2647044467
 30
0.0
 10
15.9767486163
 20
13.2636366854
 30
0.0
 10
15.9830192286
 20
13.262223957
 30
0.0
 10
15.9892761
 20
13.2604670047
 30
0.0
 10
15.9955163221
 20
13.2583667506
 30
0.0
 10
16.0017369534
 20
13.255924271
 30
0.0
 10
16.0079353
 20
13.2531407303
 30
0.0
 10
16.0162468042
 20
13.248935726
 30
0.0
 10
16.0244255226
 20
13.2440784815
 30
0.0
 10
16.0324477681
 20
13.2386266007
 30
0.0
 10
16.038492192
 20
13.2341615423
 30
0.0
 10
16.0444974051
 20
13.2293660285
 30
0.0
 10
16.0504609553
 20
13.2242421001
 30
0.0
 10
16.0563801183
 20
13.2187921939
 30
0.0
 10
16.0622522354
 20
13.2130187845
 30
0.0
 10
16.0680746782
 20
13.2069245392
 30
0.0
 10
16.0738448171
 20
13.2005122374
 30
0.0
 10
16.0795600558
 20
13.1937848139
 30
0.0
 10
16.085217817
 20
13.186745341
 30
0.0
 10
16.0908155354
 20
13.179397025
 30
0.0
 10
16.0963506925
 20
13.1717432254
 30
0.0
 10
16.1018207603
 20
13.1637874201
 30
0.0
 10
16.1072232827
 20
13.1555332493
 30
0.0
 10
16.1125557778
 20
13.1469844608
 30
0.0
 10
16.1178158539
 20
13.1381449674
 30
0.0
 10
16.1230010854
 20
13.1290187841
 30
0.0
 10
16.1281091452
 20
13.1196100871
 30
0.0
 10
16.133137675
 20
13.1099231546
 30
0.0
 10
16.1380844121
 20
13.0999624171
 30
0.0
 10
16.1429470767
 20
13.0897324087
 30
0.0
 10
16.1477234667
 20
13.0792378104
 30
0.0
 10
16.1524114061
 20
13.0684833861
 30
0.0
 10
16.1585912096
 20
13.053684417
 30
0.0
 10
16.1660717814
 20
13.0345633606
 30
0.0
 10
16.1745905213
 20
13.0108441684
 30
0.0
 10
16.1827070546
 20
12.986211843
 30
0.0
 10
16.1877744703
 20
12.969428671
 30
0.0
 10
16.1902416272
 20
12.9608962005
 30
0.0
  0
SPLINE
  5
2C7
100
AcDbEntity
  8
LAYER_FEATURE
100
AcDbSpline
 62
7
  6
CONTINUOUS
 70
0
 71
3
 72
63
 73
59
 74
0
 42
0.0000001
 43
0.0000001
 44
0.0000000001
 40
0.0
 40
0.0
 40
0.0
 40
0.0
 40
0.0160005823
 40
0.0316441227
 40
0.0469366659
 40
0.0618853433
 40
0.07649838
 40
0.0907852196
 40
0.1047565203
 40
0.118424284
 40
0.1448986503
 40
0.1703368393
 40
0.1827156952
 40
0.1948926961
 40
0.206889811
 40
0.2187303505
 40
0.2304388227
 40
0.2420408181
 40
0.2535628166
 40
0.2650319979
 40
0.2764760077
 40
0.2879227192
 40
0.2993999813
 40
0.310935368
 40
0.3225559398
 40
0.3342880212
 40
0.3461570019
 40
0.3581871746
 40
0.3704015881
 40
0.3828219627
 40
0.3954685933
 40
0.4083603407
 40
0.4349419804
 40
0.4486675179
 40
0.4626990361
 40
0.4770482421
 40
0.4917255853
 40
0.5067402371
 40
0.5221002367
 40
0.5378124702
 40
0.553882817
 40
0.57031613
 40
0.587116371
 40
0.6042865952
 40
0.6218290699
 40
0.6397452656
 40
0.6580359533
 40
0.6767012059
 40
0.6957404715
 40
0.7151525882
 40
0.7349358309
 40
0.7550879414
 40
0.7756061525
 40
0.8177261588
 40
0.8612660918
 40
0.9061882973
 40
0.9524491555
 40
1.0
 40
1.0
 40
1.0
 40
1.0
 10
15.829881852
 20
11.8266042267
 30
0.0
 10
15.8317158395
 20
11.8244070147
 30
0.0
 10
15.8354006948
 20
11.8201094307
 30
0.0
 10
15.841042739
 20
11.8138907606
 30
0.0
 10
15.8467343823
 20
11.807975719
 30
0.0
 10
15.8524731034
 20
11.8023669306
 30
0.0
 10
15.8582564901
 20
11.7970668485
 30
0.0
 10
15.8640819952
 20
11.7920778054
 30
0.0
 10
15.8699472906
 20
11.7874019214
 30
0.0
 10
15.8777338992
 20
11.7816493496
 30
0.0
 10
15.887561122
 20
11.7752203138
 30
0.0
 10
15.8976899847
 20
11.7697416519
 30
0.0
 10
15.9058296049
 20
11.7660317357
 30
0.0
 10
15.9119012274
 20
11.7635992161
 30
0.0
 10
15.9179918171
 20
11.7614929464
 30
0.0
 10
15.9240987726
 20
11.7597138394
 30
0.0
 10
15.930219366
 20
11.7582628298
 30
0.0
 10
15.936350851
 20
11.7571405974
 30
0.0
 10
15.942490466
 20
11.7563477469
 30
0.0
 10
15.9486354187
 20
11.755884652
 30
0.0
 10
15.9547829095
 20
11.7557515768
 30
0.0
 10
15.960930128
 20
11.7559485705
 30
0.0
 10
15.9670742657
 20
11.7564755445
 30
0.0
 10
15.9732125227
 20
11.7573322214
 30
0.0
 10
15.9793421154
 20
11.7585181638
 30
0.0
 10
15.9854602787
 20
11.7600327802
 30
0.0
 10
15.9915642797
 20
11.7618753041
 30
0.0
 10
15.9976514
 20
11.7640448489
 30
0.0
 10
16.0037189768
 20
11.7665403493
 30
0.0
 10
16.0097643101
 20
11.7693606249
 30
0.0
 10
16.0157849183
 20
11.7725044063
 30
0.0
 10
16.0238573396
 20
11.7771725976
 30
0.0
 10
16.031790044
 20
11.7824499686
 30
0.0
 10
16.0395667431
 20
11.7882828122
 30
0.0
 10
16.0454245893
 20
11.7930195629
 30
0.0
 10
16.0512421253
 20
11.7980689888
 30
0.0
 10
16.0570170479
 20
11.8034290532
 30
0.0
 10
16.0627468554
 20
11.8090973312
 30
0.0
 10
16.0684290719
 20
11.8150713858
 30
0.0
 10
16.0740612857
 20
11.8213485787
 30
0.0
 10
16.0796410433
 20
11.8279261997
 30
0.0
 10
16.0851659719
 20
11.8348013628
 30
0.0
 10
16.0906336609
 20
11.8419710955
 30
0.0
 10
16.0960417752
 20
11.8494322636
 30
0.0
 10
16.1013879549
 20
11.8571816359
 30
0.0
 10
16.1066699057
 20
11.8652158327
 30
0.0
 10
16.1118853247
 20
11.8735313687
 30
0.0
 10
16.1170319626
 20
11.8821246227
 30
0.0
 10
16.1221075788
 20
11.890991861
 30
0.0
 10
16.1271099753
 20
11.9001292269
 30
0.0
 10
16.1320369728
 20
11.9095327399
 30
0.0
 10
16.1368864497
 20
11.9191983317
 30
0.0
 10
16.143302071
 20
11.9325458747
 30
0.0
 10
16.151104903
 20
11.9498649825
 30
0.0
 10
16.1600456199
 20
11.9714469487
 30
0.0
 10
16.1686280787
 20
11.9939682172
 30
0.0
 10
16.176837269
 20
12.0173893535
 30
0.0
 10
16.1819830408
 20
12.0333631779
 30
0.0
 10
16.184494254
 20
12.0414894669
 30
0.0
  0
SPLINE
  5
2C8
100
AcDbEntity
  8
02___PRT_ALL_AXES
100
AcDbSpline
 62
7
  6
CONTINUOUS
 70
0
 71
3
 72
32
 73
28
 74
0
 42
0.0000001
 43
0.0000001
 44
0.0000000001
 40
0.0
 40
0.0
 40
0.0
 40
0.0
 40
0.0287573579
 40
0.0572212698
 40
0.0854374059
 40
0.1134529293
 40
0.1413163266
 40
0.1690770559
 40
0.1967852701
 40
0.224491473
 40
0.2522461862
 40
0.2800995937
 40
0.3081012362
 40
0.3362996695
 40
0.3647421853
 40
0.3934745819
 40
0.4225408654
 40
0.4519831812
 40
0.5121421707
 40
0.5742580134
 40
0.6061364993
 40
0.638597522
 40
0.7053624025
 40
0.7747476793
 40
0.8469057549
 40
0.9219585039
 40
1.0
 40
1.0
 40
1.0
 40
1.0
 10
15.9294899461
 20
13.006766326
 30
0.0
 10
15.9306464884
 20
13.0071461125
 30
0.0
 10
15.9329640946
 20
13.0078531917
 30
0.0
 10
15.9364669955
 20
13.0087572772
 30
0.0
 10
15.9399759171
 20
13.0094986554
 30
0.0
 10
15.9434896157
 20
13.0100769893
 30
0.0
 10
15.9470069266
 20
13.0104921096
 30
0.0
 10
15.9505266637
 20
13.0107438423
 30
0.0
 10
15.9540476386
 20
13.0108320914
 30
0.0
 10
15.9575686612
 20
13.0107568489
 30
0.0
 10
15.9610885394
 20
13.0105181025
 30
0.0
 10
15.9646060876
 20
13.0101159843
 30
0.0
 10
15.9681201179
 20
13.0095506084
 30
0.0
 10
15.9716294513
 20
13.0088221987
 30
0.0
 10
15.9751329216
 20
13.0079310244
 30
0.0
 10
15.9786293422
 20
13.0068773884
 30
0.0
 10
15.9821176201
 20
13.0056616747
 30
0.0
 10
15.9867892569
 20
13.0038121216
 30
0.0
 10
15.9926111948
 20
13.001084018
 30
0.0
 10
15.9982969498
 20
12.9978695998
 30
0.0
 10
16.0028113263
 20
12.9949915289
 30
0.0
 10
16.0073863068
 20
12.9918484096
 30
0.0
 10
16.0130631446
 20
12.9875134839
 30
0.0
 10
16.0197331718
 20
12.9817385268
 30
0.0
 10
16.0263160255
 20
12.9753499884
 30
0.0
 10
16.0328031536
 20
12.9683566604
 30
0.0
 10
16.036976412
 20
12.9633951447
 30
0.0
 10
16.0390466799
 20
12.9608208172
 30
0.0
  0
SPLINE
  5
2C9
100
AcDbEntity
  8
02___PRT_ALL_AXES
100
AcDbSpline
 62
7
  6
CONTINUOUS
 70
0
 71
3
 72
23
 73
19
 74
0
 42
0.0000001
 43
0.0000001
 44
0.0000000001
 40
0.0
 40
0.0
 40
0.0
 40
0.0
 40
0.0478957868
 40
0.0962583982
 40
0.1455382643
 40
0.1961549964
 40
0.248487162
 40
0.3028662328
 40
0.3595739907
 40
0.4188439484
 40
0.4808638637
 40
0.5457792291
 40
0.6136984366
 40
0.6846964512
 40
0.7588171887
 40
0.8360801432
 40
0.9164864065
 40
1.0
 40
1.0
 40
1.0
 40
1.0
 10
16.2857696025
 20
12.3858049963
 30
0.0
 10
16.2850885555
 20
12.3858049924
 30
0.0
 10
16.2837186992
 20
12.3858790939
 30
0.0
 10
16.2816724164
 20
12.3862116101
 30
0.0
 10
16.2796343081
 20
12.3867647572
 30
0.0
 10
16.2776085886
 20
12.3875370038
 30
0.0
 10
16.2755988263
 20
12.3885264575
 30
0.0
 10
16.2736085081
 20
12.3897309293
 30
0.0
 10
16.2716409102
 20
12.3911479162
 30
0.0
 10
16.2696992549
 20
12.3927747088
 30
0.0
 10
16.2677867128
 20
12.3946083205
 30
0.0
 10
16.2659063979
 20
12.396645455
 30
0.0
 10
16.2640614384
 20
12.3988825512
 30
0.0
 10
16.2622549291
 20
12.4013157008
 30
0.0
 10
16.2604899049
 20
12.4039406514
 30
0.0
 10
16.2587693598
 20
12.4067529261
 30
0.0
 10
16.2570963304
 20
12.4097475265
 30
0.0
 10
16.2560344606
 20
12.4118230646
 30
0.0
 10
16.2555113121
 20
12.4128891292
 30
0.0
  0
SPLINE
  5
2CA
100
AcDbEntity
  8
02___PRT_ALL_AXES
100
AcDbSpline
 62
7
  6
CONTINUOUS
 70
0
 71
3
 72
54
 73
50
 74
0
 42
0.0000001
 43
0.0000001
 44
0.0000000001
 40
0.0
 40
0.0
 40
0.0
 40
0.0
 40
0.0139504584
 40
0.0283506412
 40
0.0431887665
 40
0.0584540849
 40
0.0741339064
 40
0.0902137431
 40
0.1235081009
 40
0.1582016239
 40
0.1941410936
 40
0.2311604872
 40
0.2690832359
 40
0.3077243112
 40
0.3468921589
 40
0.3863905411
 40
0.42602032
 40
0.4655812133
 40
0.5048735399
 40
0.5436999667
 40
0.5818672804
 40
0.6191882078
 40
0.6554833237
 40
0.690583084
 40
0.724330023
 40
0.7406518855
 40
0.7565833025
 40
0.7721091662
 40
0.787215688
 40
0.8018904389
 40
0.8161226457
 40
0.8299031695
 40
0.8432248355
 40
0.8560825695
 40
0.8684736035
 40
0.8803978777
 40
0.8918581707
 40
0.9028606415
 40
0.9134151072
 40
0.9235355227
 40
0.9332405313
 40
0.9425538182
 40
0.9515047486
 40
0.9601286172
 40
0.9684669469
 40
0.9765674535
 40
0.9844835874
 40
0.9922737657
 40
1.0
 40
1.0
 40
1.0
 40
1.0
 10
16.2555113121
 20
12.4128891292
 30
0.0
 10
16.2550125472
 20
12.4139055052
 30
0.0
 10
16.254031768
 20
12.4159872768
 30
0.0
 10
16.2526313972
 20
12.4192008755
 30
0.0
 10
16.2512803197
 20
12.4225508512
 30
0.0
 10
16.2499805776
 20
12.4260320985
 30
0.0
 10
16.2487340401
 20
12.429639527
 30
0.0
 10
16.2471268622
 20
12.4346688828
 30
0.0
 10
16.2452698418
 20
12.4412362511
 30
0.0
 10
16.2433061977
 20
12.4494409073
 30
0.0
 10
16.2415939386
 20
12.4580100823
 30
0.0
 10
16.2401433118
 20
12.4668928587
 30
0.0
 10
16.2389629964
 20
12.4760365766
 30
0.0
 10
16.2380600625
 20
12.4853869324
 30
0.0
 10
16.2374399203
 20
12.4948883784
 30
0.0
 10
16.2371062876
 20
12.5044844446
 30
0.0
 10
16.2370611662
 20
12.5141180869
 30
0.0
 10
16.2373048249
 20
12.5237320324
 30
0.0
 10
16.2378358019
 20
12.5332691287
 30
0.0
 10
16.2386509144
 20
12.5426726891
 30
0.0
 10
16.2397452786
 20
12.5518868417
 30
0.0
 10
16.2411123397
 20
12.5608568536
 30
0.0
 10
16.242743915
 20
12.56952953
 30
0.0
 10
16.2446302364
 20
12.5778533278
 30
0.0
 10
16.2464244724
 20
12.584530582
 30
0.0
 10
16.2479832497
 20
12.5896554467
 30
0.0
 10
16.2491955802
 20
12.5933389862
 30
0.0
 10
16.2504623056
 20
12.5968996713
 30
0.0
 10
16.251781545
 20
12.6003322325
 30
0.0
 10
16.2531513583
 20
12.603631567
 30
0.0
 10
16.2545696874
 20
12.6067927931
 30
0.0
 10
16.256034455
 20
12.6098112208
 30
0.0
 10
16.2575434861
 20
12.6126823875
 30
0.0
 10
16.2590945537
 20
12.6154020518
 30
0.0
 10
16.2606854014
 20
12.6179661879
 30
0.0
 10
16.262313677
 20
12.6203710275
 30
0.0
 10
16.263977045
 20
12.6226130073
 30
0.0
 10
16.2656730854
 20
12.6246888303
 30
0.0
 10
16.2673993764
 20
12.626595423
 30
0.0
 10
16.2691534796
 20
12.628329936
 30
0.0
 10
16.270932901
 20
12.6298897823
 30
0.0
 10
16.2727351808
 20
12.6312725373
 30
0.0
 10
16.2745577745
 20
12.632476043
 30
0.0
 10
16.27639813
 20
12.6334982938
 30
0.0
 10
16.2782536128
 20
12.6343374898
 30
0.0
 10
16.2801214463
 20
12.6349920752
 30
0.0
 10
16.2819988251
 20
12.6354606648
 30
0.0
 10
16.2838824471
 20
12.6357422808
 30
0.0
 10
16.285142574
 20
12.635804986
 30
0.0
 10
16.2857696025
 20
12.6358049896
 30
0.0
  0
SPLINE
  5
2CB
100
AcDbEntity
  8
02___PRT_ALL_AXES
100
AcDbSpline
 62
7
  6
CONTINUOUS
 70
0
 71
3
 72
28
 73
24
 74
0
 42
0.0000001
 43
0.0000001
 44
0.0000000001
 40
0.0
 40
0.0
 40
0.0
 40
0.0
 40
0.0835097208
 40
0.1639063366
 40
0.2411638137
 40
0.3152793559
 40
0.3862714679
 40
0.4541854325
 40
0.5190958559
 40
0.5811108722
 40
0.6403762416
 40
0.6970796177
 40
0.7514543981
 40
0.7778611819
 40
0.8037957597
 40
0.8293011312
 40
0.8544231857
 40
0.8792107178
 40
0.9037150441
 40
0.9279898367
 40
0.9520906781
 40
0.9760746809
 40
1.0
 40
1.0
 40
1.0
 40
1.0
 10
16.3946994481
 20
12.8633021022
 30
0.0
 10
16.3928160543
 20
12.8671400552
 30
0.0
 10
16.3889933762
 20
12.8746119761
 30
0.0
 10
16.382970423
 20
12.8853924976
 30
0.0
 10
16.3767765217
 20
12.8955165853
 30
0.0
 10
16.3704224504
 20
12.9049664632
 30
0.0
 10
16.3639189798
 20
12.9137257904
 30
0.0
 10
16.3572771367
 20
12.9217793263
 30
0.0
 10
16.3505080154
 20
12.9291130373
 30
0.0
 10
16.3436228641
 20
12.9357140092
 30
0.0
 10
16.3366328335
 20
12.9415705068
 30
0.0
 10
16.3295497709
 20
12.9466715421
 30
0.0
 10
16.3235203968
 20
12.9503201621
 30
0.0
 10
16.3186695641
 20
12.9528366558
 30
0.0
 10
16.3150517407
 20
12.9545114973
 30
0.0
 10
16.3114207413
 20
12.9559912359
 30
0.0
 10
16.3077780828
 20
12.9572751464
 30
0.0
 10
16.3041254212
 20
12.9583626489
 30
0.0
 10
16.3004643672
 20
12.9592531575
 30
0.0
 10
16.2967965954
 20
12.9599462607
 30
0.0
 10
16.2931237292
 20
12.9604415882
 30
0.0
 10
16.2894475903
 20
12.9607388794
 30
0.0
 10
16.2869944269
 20
12.9608049942
 30
0.0
 10
16.2857696025
 20
12.9608049922
 30
0.0
  0
SPLINE
  5
2CC
100
AcDbEntity
  8
LAYER_FEATURE
100
AcDbSpline
 62
7
  6
CONTINUOUS
 70
0
 71
3
 72
63
 73
59
 74
0
 42
0.0000001
 43
0.0000001
 44
0.0000000001
 40
0.0
 40
0.0
 40
0.0
 40
0.0
 40
0.0475510316
 40
0.0938121511
 40
0.1387345417
 40
0.1822746839
 40
0.2035150196
 40
0.224396201
 40
0.2449145026
 40
0.2650667114
 40
0.2848500385
 40
0.3042622516
 40
0.3233015973
 40
0.341966944
 40
0.360257707
 40
0.3781739946
 40
0.3957165401
 40
0.4128868537
 40
0.4296871612
 40
0.4461205608
 40
0.4621909703
 40
0.4779032876
 40
0.4932633462
 40
0.5082780786
 40
0.5229554781
 40
0.537304761
 40
0.5513363335
 40
0.565061944
 40
0.591643706
 40
0.6171762799
 40
0.6295967058
 40
0.6418111806
 40
0.6538414046
 40
0.6657104432
 40
0.6774425761
 40
0.6890632032
 40
0.7005986418
 40
0.7120759574
 40
0.7235227214
 40
0.7349667837
 40
0.7464360182
 40
0.7579580691
 40
0.7695601187
 40
0.781268644
 40
0.7931092387
 40
0.8051064083
 40
0.8172834656
 40
0.8296623783
 40
0.8551006845
 40
0.8815751726
 40
0.8952429994
 40
0.9092143641
 40
0.9235012699
 40
0.9381143729
 40
0.9530631204
 40
0.9683557323
 40
0.9839993468
 40
1.0
 40
1.0
 40
1.0
 40
1.0
 10
14.544922963
 20
12.980120519
 30
0.0
 10
14.5474341746
 20
12.9882468024
 30
0.0
 10
14.5525799458
 20
13.0042206206
 30
0.0
 10
14.5607891433
 20
13.0276417954
 30
0.0
 10
14.5693715715
 20
13.0501629336
 30
0.0
 10
14.5768827906
 20
13.0682943993
 30
0.0
 10
14.5830728539
 20
13.0823112507
 30
0.0
 10
14.5877609564
 20
13.0924882357
 30
0.0
 10
14.5925307818
 20
13.1024116626
 30
0.0
 10
14.5973802372
 20
13.1120772448
 30
0.0
 10
14.6023072472
 20
13.1214807576
 30
0.0
 10
14.6073096328
 20
13.1306181267
 30
0.0
 10
14.6123852602
 20
13.1394853605
 30
0.0
 10
14.6175318861
 20
13.1480786199
 30
0.0
 10
14.6227473181
 20
13.1563941496
 30
0.0
 10
14.6280292549
 20
13.1644283536
 30
0.0
 10
14.6333754496
 20
13.1721777176
 30
0.0
 10
14.638783548
 20
13.179638895
 30
0.0
 10
14.6442512538
 20
13.1868086172
 30
0.0
 10
14.6497761649
 20
13.1936837919
 30
0.0
 10
14.6553559405
 20
13.2002614
 30
0.0
 10
14.6609881359
 20
13.2065386069
 30
0.0
 10
14.6666703709
 20
13.2125126461
 30
0.0
 10
14.6724001606
 20
13.2181809411
 30
0.0
 10
14.6781750978
 20
13.2235409859
 30
0.0
 10
14.6839926305
 20
13.2285904378
 30
0.0
 10
14.6898504397
 20
13.2333271422
 30
0.0
 10
14.6976273806
 20
13.2391601417
 30
0.0
 10
14.7074431408
 20
13.2456904879
 30
0.0
 10
14.7175636631
 20
13.2512747389
 30
0.0
 10
14.7256981994
 20
13.2550695981
 30
0.0
 10
14.7317658246
 20
13.2575651545
 30
0.0
 10
14.7378529379
 20
13.2597346693
 30
0.0
 10
14.7439569362
 20
13.2615772157
 30
0.0
 10
14.7500751037
 20
13.2630918124
 30
0.0
 10
14.7562046927
 20
13.2642777729
 30
0.0
 10
14.7623429523
 20
13.2651344332
 30
0.0
 10
14.7684870885
 20
13.2656614221
 30
0.0
 10
14.7746343076
 20
13.2658584026
 30
0.0
 10
14.7807817985
 20
13.265725339
 30
0.0
 10
14.7869267505
 20
13.2652622341
 30
0.0
 10
14.7930663666
 20
13.2644693919
 30
0.0
 10
14.7991978504
 20
13.2633471527
 30
0.0
 10
14.805318445
 20
13.2618961483
 30
0.0
 10
14.8114253994
 20
13.2601170373
 30
0.0
 10
14.81751599
 20
13.2580107704
 30
0.0
 10
14.8235876117
 20
13.2555782489
 30
0.0
 10
14.8317272325
 20
13.251868334
 30
0.0
 10
14.8418560947
 20
13.2463896712
 30
0.0
 10
14.851683318
 20
13.239960636
 30
0.0
 10
14.8594699261
 20
13.2342080636
 30
0.0
 10
14.8653352222
 20
13.2295321805
 30
0.0
 10
14.8711607261
 20
13.2245431362
 30
0.0
 10
14.8769441145
 20
13.2192430558
 30
0.0
 10
14.8826828334
 20
13.2136342654
 30
0.0
 10
14.8883744793
 20
13.207719226
 30
0.0
 10
14.8940165212
 20
13.2015005543
 30
0.0
 10
14.8977013754
 20
13.1972029696
 30
0.0
 10
14.8995353652
 20
13.1950057602
 30
0.0
  0
SPLINE
  5
2CD
100
AcDbEntity
  8
LAYER_FEATURE
100
AcDbSpline
 62
7
  6
CONTINUOUS
 70
0
 71
3
 72
36
 73
32
 74
0
 42
0.0000001
 43
0.0000001
 44
0.0000000001
 40
0.0
 40
0.0
 40
0.0
 40
0.0
 40
0.083916121
 40
0.1651777394
 40
0.2436728771
 40
0.2818531605
 40
0.319306464
 40
0.3560232664
 40
0.391995127
 40
0.4272149683
 40
0.4616769691
 40
0.4953768401
 40
0.5283117362
 40
0.5604805414
 40
0.5918838488
 40
0.6225241838
 40
0.652406105
 40
0.6815363445
 40
0.7099240384
 40
0.7375807907
 40
0.7645210089
 40
0.7907619252
 40
0.8163239779
 40
0.8412308373
 40
0.8655097489
 40
0.8891915968
 40
0.9123111304
 40
0.9349070465
 40
0.9570220389
 40
0.9787028297
 40
1.0
 40
1.0
 40
1.0
 40
1.0
 10
15.7984819682
 20
12.8280998013
 30
0.0
 10
15.800441234
 20
12.8344399878
 30
0.0
 10
15.8044697726
 20
12.8468676072
 30
0.0
 10
15.81095463
 20
12.8650160372
 30
0.0
 10
15.8166879979
 20
12.8795843023
 30
0.0
 10
15.8214432693
 20
12.8908073394
 30
0.0
 10
15.8250542611
 20
12.898925545
 30
0.0
 10
15.8287404939
 20
12.9068175332
 30
0.0
 10
15.8324998688
 20
12.9144787247
 30
0.0
 10
15.8363301673
 20
12.9219046676
 30
0.0
 10
15.8402291966
 20
12.9290910343
 30
0.0
 10
15.8441946639
 20
12.93603366
 30
0.0
 10
15.8482242982
 20
12.9427284979
 30
0.0
 10
15.8523157431
 20
12.9491716688
 30
0.0
 10
15.8564666481
 20
12.9553594223
 30
0.0
 10
15.8606746085
 20
12.9612881677
 30
0.0
 10
15.8649371959
 20
12.9669544623
 30
0.0
 10
15.8692519673
 20
12.9723550066
 30
0.0
 10
15.8736164246
 20
12.9774866736
 30
0.0
 10
15.8780280906
 20
12.982346458
 30
0.0
 10
15.8824844102
 20
12.9869315503
 30
0.0
 10
15.8869828706
 20
12.9912392438
 30
0.0
 10
15.8915208753
 20
12.9952670408
 30
0.0
 10
15.8960958687
 20
12.9990125404
 30
0.0
 10
15.9007052259
 20
13.0024735435
 30
0.0
 10
15.9053463376
 20
13.005647962
 30
0.0
 10
15.9100165567
 20
13.008533883
 30
0.0
 10
15.9147131957
 20
13.0111295334
 30
0.0
 10
15.9194336225
 20
13.0134332963
 30
0.0
 10
15.9241748797
 20
13.0154436639
 30
0.0
 10
15.9273741425
 20
13.0165969031
 30
0.0
 10
15.928974241
 20
13.0171223419
 30
0.0
  0
SPLINE
  5
2CE
100
AcDbEntity
  8
LAYER_FEATURE
100
AcDbSpline
 62
7
  6
CONTINUOUS
 70
0
 71
3
 72
61
 73
57
 74
0
 42
0.0000001
 43
0.0000001
 44
0.0000000001
 40
0.0
 40
0.0
 40
0.0
 40
0.0
 40
0.0158703629
 40
0.032048333
 40
0.048520848
 40
0.0652753519
 40
0.0822981863
 40
0.0995753038
 40
0.1170921919
 40
0.1348338824
 40
0.1527850154
 40
0.1709298569
 40
0.2077352099
 40
0.2451189335
 40
0.2829452238
 40
0.3210754012
 40
0.3593688275
 40
0.3976838254
 40
0.4358785803
 40
0.4738120415
 40
0.511344838
 40
0.5483401899
 40
0.5665949852
 40
0.5846658012
 40
0.6025366991
 40
0.6201920907
 40
0.6376167658
 40
0.6547959261
 40
0.6717152271
 40
0.6883608183
 40
0.7047193764
 40
0.7207781465
 40
0.736524996
 40
0.7519484639
 40
0.7670378062
 40
0.7817830525
 40
0.7961750789
 40
0.8102056775
 40
0.8238676246
 40
0.8371547671
 40
0.8500621303
 40
0.8625860236
 40
0.8747241544
 40
0.8864757664
 40
0.8978418066
 40
0.9088250954
 40
0.9194305129
 40
0.9296652154
 40
0.9395388811
 40
0.9490639535
 40
0.9582558921
 40
0.9671334272
 40
0.9757187991
 40
0.9840379299
 40
0.9921205155
 40
1.0
 40
1.0
 40
1.0
 40
1.0
 10
15.7984819682
 20
12.8280998013
 30
0.0
 10
15.797107642
 20
12.8236524801
 30
0.0
 10
15.7944190448
 20
12.8146446204
 30
0.0
 10
15.7905999852
 20
12.8009345471
 30
0.0
 10
15.7869592236
 20
12.7869079581
 30
0.0
 10
15.7835007511
 20
12.7725803213
 30
0.0
 10
15.7802283375
 20
12.7579671413
 30
0.0
 10
15.7771455557
 20
12.7430843859
 30
0.0
 10
15.7742557675
 20
12.7279482741
 30
0.0
 10
15.7715621369
 20
12.7125753148
 30
0.0
 10
15.7690675931
 20
12.6969822376
 30
0.0
 10
15.7659962272
 20
12.6758211521
 30
0.0
 10
15.7626798261
 20
12.6489392502
 30
0.0
 10
15.7595511657
 20
12.6162301919
 30
0.0
 10
15.7572686696
 20
12.5830616984
 30
0.0
 10
15.7558423613
 20
12.5495784401
 30
0.0
 10
15.755278471
 20
12.5159262386
 30
0.0
 10
15.7555794917
 20
12.482251724
 30
0.0
 10
15.7567440832
 20
12.4487016246
 30
0.0
 10
15.7587671607
 20
12.415422059
 30
0.0
 10
15.76163984
 20
12.3825581848
 30
0.0
 10
15.7647448299
 20
12.3555185365
 30
0.0
 10
15.7676492647
 20
12.334209681
 30
0.0
 10
15.7700214008
 20
12.3184910749
 30
0.0
 10
15.772594306
 20
12.3029822744
 30
0.0
 10
15.7753651813
 20
12.2877001561
 30
0.0
 10
15.7783309957
 20
12.2726613922
 30
0.0
 10
15.7814885154
 20
12.2578823787
 30
0.0
 10
15.7848342926
 20
12.2433792281
 30
0.0
 10
15.7883646697
 20
12.2291677467
 30
0.0
 10
15.7920757923
 20
12.2152634224
 30
0.0
 10
15.7959636148
 20
12.2016814083
 30
0.0
 10
15.8000238947
 20
12.1884365004
 30
0.0
 10
15.8042521986
 20
12.1755431215
 30
0.0
 10
15.8086439163
 20
12.1630153096
 30
0.0
 10
15.8131942669
 20
12.1508667034
 30
0.0
 10
15.8178982936
 20
12.1391105203
 30
0.0
 10
15.8227508734
 20
12.1277595418
 30
0.0
 10
15.8277467309
 20
12.1168261062
 30
0.0
 10
15.8328804469
 20
12.1063220945
 30
0.0
 10
15.8381464538
 20
12.09625891
 30
0.0
 10
15.843539049
 20
12.0866474667
 30
0.0
 10
15.8490524097
 20
12.0774981861
 30
0.0
 10
15.8546806052
 20
12.0688209879
 30
0.0
 10
15.8604175921
 20
12.0606252698
 30
0.0
 10
15.8662572329
 20
12.0529199052
 30
0.0
 10
15.8721933119
 20
12.0457132472
 30
0.0
 10
15.8782195479
 20
12.039013129
 30
0.0
 10
15.8843295876
 20
12.032826851
 30
0.0
 10
15.8905170236
 20
12.027161194
 30
0.0
 10
15.896775394
 20
12.0220224401
 30
0.0
 10
15.9030981994
 20
12.0174163824
 30
0.0
 10
15.9094787999
 20
12.0133483377
 30
0.0
 10
15.9159106552
 20
12.0098230904
 30
0.0
 10
15.9223863792
 20
12.0068451751
 30
0.0
 10
15.9267785189
 20
12.005208675
 30
0.0
 10
15.9289742409
 20
12.0044876412
 30
0.0
  0
SPLINE
  5
2CF
100
AcDbEntity
  8
LAYER_FEATURE
100
AcDbSpline
 62
7
  6
CONTINUOUS
 70
0
 71
3
 72
23
 73
19
 74
0
 42
0.0000001
 43
0.0000001
 44
0.0000000001
 40
0.0
 40
0.0
 40
0.0
 40
0.0
 40
0.0737076618
 40
0.1460530233
 40
0.2169947725
 40
0.2864994102
 40
0.3545339514
 40
0.4210685788
 40
0.4860768402
 40
0.5495355285
 40
0.611425168
 40
0.671730207
 40
0.7304393351
 40
0.7875459338
 40
0.8430484039
 40
0.8969505852
 40
0.9492623256
 40
1.0
 40
1.0
 40
1.0
 40
1.0
 10
15.6622791226
 20
12.9179595221
 30
0.0
 10
15.6637962694
 20
12.9228690109
 30
0.0
 10
15.6668834486
 20
12.9325724826
 30
0.0
 10
15.6717201445
 20
12.9469071318
 30
0.0
 10
15.6767164423
 20
12.9608762234
 30
0.0
 10
15.681868074
 20
12.9744678958
 30
0.0
 10
15.6871707698
 20
12.987670877
 30
0.0
 10
15.6926200769
 20
13.0004740944
 30
0.0
 10
15.6982114365
 20
13.0128668355
 30
0.0
 10
15.7039401831
 20
13.0248387404
 30
0.0
 10
15.7098015224
 20
13.0363798062
 30
0.0
 10
15.7157905665
 20
13.0474803914
 30
0.0
 10
15.721902335
 20
13.0581312197
 30
0.0
 10
15.7281317395
 20
13.0683234094
 30
0.0
 10
15.7344735964
 20
13.0780484461
 30
0.0
 10
15.7409226987
 20
13.0872982554
 30
0.0
 10
15.747473587
 20
13.0960649618
 30
0.0
 10
15.7519734618
 20
13.1016676029
 30
0.0
 10
15.7542400961
 20
13.1043831405
 30
0.0
  0
SPLINE
  5
2D0
100
AcDbEntity
  8
LAYER_FEATURE
100
AcDbSpline
 62
7
  6
CONTINUOUS
 70
0
 71
3
 72
53
 73
49
 74
0
 42
0.0000001
 43
0.0000001
 44
0.0000000001
 40
0.0
 40
0.0
 40
0.0
 40
0.0
 40
0.0147758074
 40
0.0297979746
 40
0.0450574707
 40
0.0605460035
 40
0.0762545113
 40
0.0921736301
 40
0.1246043393
 40
0.1577588324
 40
0.1915532526
 40
0.2259004952
 40
0.2607107245
 40
0.2958918712
 40
0.3313500965
 40
0.3669902604
 40
0.4027163759
 40
0.4384320558
 40
0.4740409618
 40
0.5094472507
 40
0.5445560274
 40
0.5792737955
 40
0.6135089266
 40
0.6471721386
 40
0.6801769801
 40
0.7124403641
 40
0.7282694832
 40
0.7438838986
 40
0.7592744164
 40
0.774432173
 40
0.7893486454
 40
0.8040156697
 40
0.8184254814
 40
0.8325707333
 40
0.846444515
 40
0.8600403996
 40
0.8733524725
 40
0.8863753554
 40
0.89910426
 40
0.9115350332
 40
0.9236641889
 40
0.9354889725
 40
0.9470074274
 40
0.9582184413
 40
0.9691218251
 40
0.979718407
 40
0.9900100996
 40
1.0
 40
1.0
 40
1.0
 40
1.0
 10
15.6622791226
 20
12.9179595221
 30
0.0
 10
15.6607757475
 20
12.9130945984
 30
0.0
 10
15.6578246884
 20
12.9032584967
 30
0.0
 10
15.6535977745
 20
12.8883169563
 30
0.0
 10
15.6495365247
 20
12.8730751954
 30
0.0
 10
15.6456442069
 20
12.8575455159
 30
0.0
 10
15.6419238694
 20
12.8417401169
 30
0.0
 10
15.6371674751
 20
12.8201827505
 30
0.0
 10
15.6316812803
 20
12.7926326721
 30
0.0
 10
15.6258682999
 20
12.7588785824
 30
0.0
 10
15.6208043612
 20
12.7243364217
 30
0.0
 10
15.6165056237
 20
12.6891160295
 30
0.0
 10
15.6129857895
 20
12.6533291892
 30
0.0
 10
15.6102561024
 20
12.617089572
 30
0.0
 10
15.6083252643
 20
12.5805122886
 30
0.0
 10
15.6071994336
 20
12.5437135395
 30
0.0
 10
15.6068822148
 20
12.5068102352
 30
0.0
 10
15.6073746078
 20
12.4699196229
 30
0.0
 10
15.6086750455
 20
12.4331589087
 30
0.0
 10
15.6107793847
 20
12.3966448815
 30
0.0
 10
15.6136808979
 20
12.360493538
 30
0.0
 10
15.6173703375
 20
12.3248197049
 30
0.0
 10
15.6218359304
 20
12.2897366911
 30
0.0
 10
15.627063425
 20
12.2553558346
 30
0.0
 10
15.6330361529
 20
12.221786461
 30
0.0
 10
15.6386535771
 20
12.1944059353
 30
0.0
 10
15.6435128581
 20
12.1729956809
 30
0.0
 10
15.6473080126
 20
12.1573080742
 30
0.0
 10
15.6512738385
 20
12.1419015321
 30
0.0
 10
15.6554071917
 20
12.1267882636
 30
0.0
 10
15.6597047771
 20
12.1119802824
 30
0.0
 10
15.6641631883
 20
12.0974893524
 30
0.0
 10
15.6687788742
 20
12.0833269809
 30
0.0
 10
15.6735481609
 20
12.0695044117
 30
0.0
 10
15.6784672683
 20
12.0560326223
 30
0.0
 10
15.683532286
 20
12.0429223044
 30
0.0
 10
15.688739185
 20
12.030183858
 30
0.0
 10
15.6940838418
 20
12.0178273917
 30
0.0
 10
15.6995620185
 20
12.0058627051
 30
0.0
 10
15.7051693647
 20
11.9942992781
 30
0.0
 10
15.7109014474
 20
11.9831462772
 30
0.0
 10
15.7167537383
 20
11.9724125393
 30
0.0
 10
15.7227216034
 20
11.9621065577
 30
0.0
 10
15.7288003436
 20
11.9522364886
 30
0.0
 10
15.7349851722
 20
11.9428101582
 30
0.0
 10
15.7412712539
 20
11.9338349752
 30
0.0
 10
15.7476535408
 20
11.9253181845
 30
0.0
 10
15.7520340605
 20
11.9198697915
 30
0.0
 10
15.7542400964
 20
11.9172268468
 30
0.0
  0
SPLINE
  5
2D1
100
AcDbEntity
  8
LAYER_FEATURE
100
AcDbSpline
 62
7
  6
CONTINUOUS
 70
0
 71
3
 72
96
 73
92
 74
0
 42
0.0000001
 43
0.0000001
 44
0.0000000001
 40
0.0
 40
0.0
 40
0.0
 40
0.0
 40
0.0176370245
 40
0.0357008155
 40
0.0541689239
 40
0.0730176051
 40
0.0922219365
 40
0.1117559323
 40
0.1315926488
 40
0.151704285
 40
0.1720622779
 40
0.1926373946
 40
0.213399821
 40
0.2343192483
 40
0.255364958
 40
0.2765059044
 40
0.297710797
 40
0.3189481818
 40
0.3401865217
 40
0.3613942774
 40
0.3825399876
 40
0.4035923494
 40
0.4245203002
 40
0.4452930991
 40
0.4658804102
 40
0.4862523871
 40
0.5063797591
 40
0.5262339201
 40
0.5457870202
 40
0.5650120611
 40
0.5838829961
 40
0.6023748352
 40
0.6204637582
 40
0.6381272353
 40
0.655344159
 40
0.6720949881
 40
0.6883619084
 40
0.7041290124
 40
0.7118209626
 40
0.7193829788
 40
0.7268136958
 40
0.7341119303
 40
0.7412766521
 40
0.7483070326
 40
0.7552024171
 40
0.7619623747
 40
0.7685866729
 40
0.7750753293
 40
0.781428588
 40
0.7876469734
 40
0.7937312692
 40
0.7996825742
 40
0.8055022841
 40
0.8111921486
 40
0.8167542567
 40
0.8221910943
 40
0.827505532
 40
0.8327008831
 40
0.8377808918
 40
0.8427497891
 40
0.8476122805
 40
0.8523735952
 40
0.861614047
 40
0.8661084109
 40
0.8705277647
 40
0.8748799559
 40
0.8791733297
 40
0.8834166749
 40
0.8876191905
 40
0.891790412
 40
0.8959401505
 40
0.9000784045
 40
0.9042152777
 40
0.9083608861
 40
0.9125252655
 40
0.916718287
 40
0.9209495679
 40
0.9252284067
 40
0.9295637078
 40
0.9339639435
 40
0.9384370978
 40
0.9476293929
 40
0.9571965105
 40
0.9621358976
 40
0.9671851604
 40
0.9723486609
 40
0.9776302703
 40
0.9830334211
 40
0.988561098
 40
0.9942158941
 40
1.0
 40
1.0
 40
1.0
 40
1.0
 10
14.544922963
 20
12.980120519
 30
0.0
 10
14.5423415152
 20
12.9717669506
 30
0.0
 10
14.537323313
 20
12.9547930041
 30
0.0
 10
14.5303047733
 20
12.9288706274
 30
0.0
 10
14.5237141304
 20
12.9022169697
 30
0.0
 10
14.5175629893
 20
12.8748787956
 30
0.0
 10
14.5118621109
 20
12.8469038188
 30
0.0
 10
14.5066214913
 20
12.8183409512
 30
0.0
 10
14.5018503158
 20
12.7892401228
 30
0.0
 10
14.4975569495
 20
12.7596522189
 30
0.0
 10
14.4937489204
 20
12.7296289822
 30
0.0
 10
14.4904329059
 20
12.6992229236
 30
0.0
 10
14.4876147212
 20
12.6684872284
 30
0.0
 10
14.4852993084
 20
12.6374756627
 30
0.0
 10
14.4834907283
 20
12.6062424786
 30
0.0
 10
14.4821921529
 20
12.5748423184
 30
0.0
 10
14.4814058595
 20
12.5433301184
 30
0.0
 10
14.4811332272
 20
12.511761012
 30
0.0
 10
14.4813747342
 20
12.480190233
 30
0.0
 10
14.4821299569
 20
12.4486730179
 30
0.0
 10
14.4833975707
 20
12.4172645091
 30
0.0
 10
14.4851753526
 20
12.3860196575
 30
0.0
 10
14.4874601845
 20
12.3549931261
 30
0.0
 10
14.4902480594
 20
12.3242391931
 30
0.0
 10
14.4935340883
 20
12.2938116569
 30
0.0
 10
14.4973125084
 20
12.2637637407
 30
0.0
 10
14.5015766944
 20
12.2341479986
 30
0.0
 10
14.5063191693
 20
12.205016223
 30
0.0
 10
14.5115316185
 20
12.1764193524
 30
0.0
 10
14.5172049049
 20
12.1484073813
 30
0.0
 10
14.5233290851
 20
12.1210292712
 30
0.0
 10
14.5298934285
 20
12.094332863
 30
0.0
 10
14.5368864365
 20
12.0683647931
 30
0.0
 10
14.5442958664
 20
12.0431704035
 30
0.0
 10
14.5521087496
 20
12.0187936816
 30
0.0
 10
14.5603114367
 20
11.9952771034
 30
0.0
 10
14.5688895586
 20
11.9726618337
 30
0.0
 10
14.576398943
 20
11.9544526423
 30
0.0
 10
14.5825886418
 20
11.9403744116
 30
0.0
 10
14.5872770501
 20
11.9301521405
 30
0.0
 10
14.5920477015
 20
11.9201839391
 30
0.0
 10
14.5968984967
 20
11.9104741295
 30
0.0
 10
14.6018273504
 20
11.9010269718
 30
0.0
 10
14.6068320755
 20
11.8918465756
 30
0.0
 10
14.611910528
 20
11.8829369657
 30
0.0
 10
14.6170604558
 20
11.8743020148
 30
0.0
 10
14.6222796555
 20
11.8659455102
 30
0.0
 10
14.6275658164
 20
11.85787108
 30
0.0
 10
14.6329166802
 20
11.8500822686
 30
0.0
 10
14.6383298824
 20
11.8425824534
 30
0.0
 10
14.6438031148
 20
11.8353749311
 30
0.0
 10
14.6493339646
 20
11.8284628233
 30
0.0
 10
14.6549200784
 20
11.8218491754
 30
0.0
 10
14.6605590004
 20
11.8155368493
 30
0.0
 10
14.6662483369
 20
11.8095286366
 30
0.0
 10
14.6719855936
 20
11.8038271371
 30
0.0
 10
14.6777683414
 20
11.7984348871
 30
0.0
 10
14.6835940474
 20
11.7933542258
 30
0.0
 10
14.6894602665
 20
11.7885874254
 30
0.0
 10
14.6953643666
 20
11.7841365981
 30
0.0
 10
14.7013041123
 20
11.7800036338
 30
0.0
 10
14.7091877317
 20
11.774970257
 30
0.0
 10
14.7172165646
 20
11.7705135185
 30
0.0
 10
14.725365021
 20
11.7666869028
 30
0.0
 10
14.7314430645
 20
11.7641689673
 30
0.0
 10
14.7375407738
 20
11.7619782758
 30
0.0
 10
14.7436555836
 20
11.7601157384
 30
0.0
 10
14.7497847503
 20
11.7585823579
 30
0.0
 10
14.7559255152
 20
11.75737883
 30
0.0
 10
14.7620751116
 20
11.7565058311
 30
0.0
 10
14.7682307302
 20
11.7559637415
 30
0.0
 10
14.7743895614
 20
11.7557529084
 30
0.0
 10
14.7805487778
 20
11.7558733735
 30
0.0
 10
14.7867055521
 20
11.7563251419
 30
0.0
 10
14.7928570704
 20
11.7571079127
 30
0.0
 10
14.7990005193
 20
11.7582213507
 30
0.0
 10
14.8051331254
 20
11.7596648239
 30
0.0
 10
14.8112521202
 20
11.7614376762
 30
0.0
 10
14.8173547644
 20
11.7635389535
 30
0.0
 10
14.8234384363
 20
11.7659677551
 30
0.0
 10
14.8315942676
 20
11.7696743748
 30
0.0
 10
14.8417434703
 20
11.7751522432
 30
0.0
 10
14.8515901786
 20
11.7815845089
 30
0.0
 10
14.859392108
 20
11.7873419785
 30
0.0
 10
14.8652690018
 20
11.7920228626
 30
0.0
 10
14.8711059777
 20
11.7970181211
 30
0.0
 10
14.8769007021
 20
11.8023256153
 30
0.0
 10
14.8826506035
 20
11.8079430096
 30
0.0
 10
14.888353268
 20
11.8138678271
 30
0.0
 10
14.8940061466
 20
11.8200974396
 30
0.0
 10
14.8976979384
 20
11.8244028976
 30
0.0
 10
14.8995353653
 20
11.8266042253
 30
0.0
  0
SPLINE
  5
2D2
100
AcDbEntity
  8
02___PRT_ALL_AXES
100
AcDbSpline
 62
7
  6
CONTINUOUS
 70
0
 71
3
 72
75
 73
71
 74
0
 42
0.0000001
 43
0.0000001
 44
0.0000000001
 40
0.0
 40
0.0
 40
0.0
 40
0.0
 40
0.0038601585
 40
0.0077283481
 40
0.0116125396
 40
0.0155205787
 40
0.0194601393
 40
0.0234386599
 40
0.0274633107
 40
0.0315409507
 40
0.0398790166
 40
0.0485026057
 40
0.0574532421
 40
0.0667662399
 40
0.0764709254
 40
0.0865910264
 40
0.0971451463
 40
0.1081472591
 40
0.1196071915
 40
0.1315310698
 40
0.1439217203
 40
0.1567790312
 40
0.1701002694
 40
0.1838803532
 40
0.1981120908
 40
0.2127863844
 40
0.2278924098
 40
0.2434177793
 40
0.2593486828
 40
0.2756700121
 40
0.2923654725
 40
0.3094176811
 40
0.3268082608
 40
0.3445179286
 40
0.3625265748
 40
0.3808133366
 40
0.3993566679
 40
0.4181344043
 40
0.4371238297
 40
0.4563017396
 40
0.4756445001
 40
0.4951281062
 40
0.5147282382
 40
0.5344203187
 40
0.5541795691
 40
0.5739810649
 40
0.5937997895
 40
0.6136106884
 40
0.633388724
 40
0.6531089306
 40
0.6727464688
 40
0.6922766799
 40
0.7116751409
 40
0.7309177206
 40
0.7499806388
 40
0.7688405233
 40
0.7874744687
 40
0.8058600972
 40
0.8239756213
 40
0.8417999117
 40
0.8593125681
 40
0.8764939895
 40
0.8933254505
 40
0.9097891856
 40
0.925868477
 40
0.9415477507
 40
0.9568127312
 40
0.9716503656
 40
0.9860495208
 40
1.0
 40
1.0
 40
1.0
 40
1.0
 10
15.9541876447
 20
12.9608049888
 30
0.0
 10
15.9530598215
 20
12.9608049868
 30
0.0
 10
15.9508014298
 20
12.9607489595
 30
0.0
 10
15.9474166486
 20
12.9604969578
 30
0.0
 10
15.9440344074
 20
12.9600770539
 30
0.0
 10
15.940656115
 20
12.9594894704
 30
0.0
 10
15.9372830446
 20
12.9587344039
 30
0.0
 10
15.9339164995
 20
12.9578122234
 30
0.0
 10
15.9305576999
 20
12.9567232533
 30
0.0
 10
15.9260584831
 20
12.9550372634
 30
0.0
 10
15.9204501525
 20
12.952500815
 30
0.0
 10
15.9138251213
 20
12.9488207953
 30
0.0
 10
15.9072636987
 20
12.9444881714
 30
0.0
 10
15.9007755372
 20
12.9395102294
 30
0.0
 10
15.8943695859
 20
12.9338948086
 30
0.0
 10
15.8880548404
 20
12.9276505386
 30
0.0
 10
15.8818401807
 20
12.920786816
 30
0.0
 10
15.8757344288
 20
12.9133138576
 30
0.0
 10
15.8697463231
 20
12.9052427191
 30
0.0
 10
15.8638845036
 20
12.896585311
 30
0.0
 10
15.8581574807
 20
12.8873544047
 30
0.0
 10
15.8525736184
 20
12.8775636219
 30
0.0
 10
15.8471411099
 20
12.8672274206
 30
0.0
 10
15.8418679564
 20
12.8563610783
 30
0.0
 10
15.836761949
 20
12.844980672
 30
0.0
 10
15.8318306485
 20
12.8331030572
 30
0.0
 10
15.827081367
 20
12.8207458441
 30
0.0
 10
15.8225211583
 20
12.8079273668
 30
0.0
 10
15.8181568033
 20
12.794666655
 30
0.0
 10
15.8139947977
 20
12.7809834047
 30
0.0
 10
15.8100413419
 20
12.766897949
 30
0.0
 10
15.8063023258
 20
12.7524312288
 30
0.0
 10
15.8027833208
 20
12.7376047599
 30
0.0
 10
15.7994895736
 20
12.7224405982
 30
0.0
 10
15.7964259966
 20
12.7069613064
 30
0.0
 10
15.7935971604
 20
12.6911899196
 30
0.0
 10
15.7910072874
 20
12.6751499121
 30
0.0
 10
15.7886602397
 20
12.6588651625
 30
0.0
 10
15.7865595185
 20
12.6423599166
 30
0.0
 10
15.7847082581
 20
12.6256587498
 30
0.0
 10
15.7831092218
 20
12.6087865306
 30
0.0
 10
15.7817647974
 20
12.5917683841
 30
0.0
 10
15.7806769922
 20
12.5746296541
 30
0.0
 10
15.7798474276
 20
12.5573958657
 30
0.0
 10
15.779277341
 20
12.540092686
 30
0.0
 10
15.7789675831
 20
12.5227458856
 30
0.0
 10
15.7789186169
 20
12.5053813002
 30
0.0
 10
15.7791305176
 20
12.4880247929
 30
0.0
 10
15.7796029683
 20
12.4707022145
 30
0.0
 10
15.7803352622
 20
12.4534393646
 30
0.0
 10
15.7813263059
 20
12.4362619533
 30
0.0
 10
15.7825746205
 20
12.4191955632
 30
0.0
 10
15.784078344
 20
12.4022656106
 30
0.0
 10
15.7858352345
 20
12.3854973081
 30
0.0
 10
15.787842668
 20
12.3689156252
 30
0.0
 10
15.7900976479
 20
12.3525452511
 30
0.0
 10
15.7925968092
 20
12.3364105586
 30
0.0
 10
15.7953364232
 20
12.3205355681
 30
0.0
 10
15.7983124044
 20
12.3049439108
 30
0.0
 10
15.8015203143
 20
12.2896587921
 30
0.0
 10
15.8049553661
 20
12.274702956
 30
0.0
 10
15.808612437
 20
12.2600986512
 30
0.0
 10
15.8124860751
 20
12.2458675989
 30
0.0
 10
15.8165705085
 20
12.2320309592
 30
0.0
 10
15.8208596556
 20
12.2186093023
 30
0.0
 10
15.8253471306
 20
12.2056225555
 30
0.0
 10
15.8300262536
 20
12.1930900421
 30
0.0
 10
15.8348900897
 20
12.1810302492
 30
0.0
 10
15.839931357
 20
12.1694612974
 30
0.0
 10
15.8434621849
 20
12.1619669606
 30
0.0
 10
15.8452577991
 20
12.1583078836
 30
0.0
  0
SPLINE
  5
2D3
100
AcDbEntity
  8
02___PRT_ALL_AXES
100
AcDbSpline
 62
7
  6
CONTINUOUS
 70
0
 71
3
 72
36
 73
32
 74
0
 42
0.0000001
 43
0.0000001
 44
0.0000000001
 40
0.0
 40
0.0
 40
0.0
 40
0.0
 40
0.083916132
 40
0.1651777352
 40
0.2436728755
 40
0.2818531592
 40
0.3193064629
 40
0.3560232673
 40
0.3919951265
 40
0.4272149656
 40
0.4616769704
 40
0.4953768354
 40
0.5283117389
 40
0.560480536
 40
0.5918838522
 40
0.6225241792
 40
0.6524061073
 40
0.681536342
 40
0.7099240369
 40
0.7375807909
 40
0.764521003
 40
0.7907619279
 40
0.8163239703
 40
0.8412308412
 40
0.865509742
 40
0.8891916
 40
0.9123111259
 40
0.9349070466
 40
0.9570220371
 40
0.9787028262
 40
1.0
 40
1.0
 40
1.0
 40
1.0
 10
15.8016667114
 20
12.821609977
 30
0.0
 10
15.8035859034
 20
12.8278204847
 30
0.0
 10
15.8075320437
 20
12.8399939141
 30
0.0
 10
15.8138842625
 20
12.8577711431
 30
0.0
 10
15.8195003626
 20
12.8720414335
 30
0.0
 10
15.8241583702
 20
12.8830349197
 30
0.0
 10
15.8276955055
 20
12.8909870785
 30
0.0
 10
15.8313063407
 20
12.8987176475
 30
0.0
 10
15.8349888228
 20
12.9062221398
 30
0.0
 10
15.838740779
 20
12.9134961948
 30
0.0
 10
15.8425600568
 20
12.9205355754
 30
0.0
 10
15.8464444195
 20
12.9273361977
 30
0.0
 10
15.8503916287
 20
12.9338941042
 30
0.0
 10
15.8543993939
 20
12.9402054865
 30
0.0
 10
15.8584653925
 20
12.9462666811
 30
0.0
 10
15.86258729
 20
12.9520741593
 30
0.0
 10
15.8667626878
 20
12.9576245604
 30
0.0
 10
15.8709892095
 20
12.9629146421
 30
0.0
 10
15.875264397
 20
12.9679413485
 30
0.0
 10
15.8795858271
 20
12.9727017338
 30
0.0
 10
15.8839510027
 20
12.977193041
 30
0.0
 10
15.8883574474
 20
12.9814126321
 30
0.0
 10
15.892802641
 20
12.9853580388
 30
0.0
 10
15.8972840509
 20
12.9890269384
 30
0.0
 10
15.9017991384
 20
12.992417142
 30
0.0
 10
15.9063453151
 20
12.995526642
 30
0.0
 10
15.9109200174
 20
12.9983535269
 30
0.0
 10
15.9155205892
 20
13.000896093
 30
0.0
 10
15.9201444679
 20
13.0031527326
 30
0.0
 10
15.9247887494
 20
13.0051219805
 30
0.0
 10
15.927922576
 20
13.0062516316
 30
0.0
 10
15.9294899461
 20
13.006766326
 30
0.0
  0
SPLINE
  5
2D4
100
AcDbEntity
  8
02___PRT_ALL_AXES
100
AcDbSpline
 62
7
  6
CONTINUOUS
 70
0
 71
3
 72
75
 73
71
 74
0
 42
0.0000001
 43
0.0000001
 44
0.0000000001
 40
0.0
 40
0.0
 40
0.0
 40
0.0
 40
0.0038601586
 40
0.0077283481
 40
0.0116125394
 40
0.0155205794
 40
0.0194601384
 40
0.0234386607
 40
0.0274633101
 40
0.0315409504
 40
0.0398790151
 40
0.0485026047
 40
0.0574532441
 40
0.066766243
 40
0.0764709264
 40
0.0865910244
 40
0.0971451434
 40
0.1081472595
 40
0.1196071953
 40
0.1315310727
 40
0.1439217194
 40
0.1567790277
 40
0.1701002677
 40
0.1838803557
 40
0.1981120947
 40
0.2127863854
 40
0.2278924072
 40
0.2434177764
 40
0.2593486833
 40
0.2756700154
 40
0.2923654748
 40
0.3094176801
 40
0.3268082582
 40
0.3445179278
 40
0.3625265765
 40
0.3808133388
 40
0.3993566683
 40
0.4181344028
 40
0.4371238287
 40
0.4563017401
 40
0.4756445013
 40
0.4951281068
 40
0.5147282379
 40
0.5344203183
 40
0.5541795693
 40
0.5739810652
 40
0.5937997894
 40
0.6136106882
 40
0.6333887243
 40
0.6531089311
 40
0.6727464689
 40
0.6922766793
 40
0.7116751402
 40
0.730917721
 40
0.7499806397
 40
0.7688405237
 40
0.7874744681
 40
0.8058600961
 40
0.8239756211
 40
0.8417999126
 40
0.8593125687
 40
0.8764939893
 40
0.8933254496
 40
0.9097891852
 40
0.925868477
 40
0.9415477513
 40
0.9568127325
 40
0.9716503597
 40
0.9860495318
 40
1.0
 40
1.0
 40
1.0
 40
1.0
 10
16.2857696025
 20
12.9608049922
 30
0.0
 10
16.2846417793
 20
12.9608049904
 30
0.0
 10
16.2823833878
 20
12.9607489536
 30
0.0
 10
16.2789986065
 20
12.9604969589
 30
0.0
 10
16.2756163644
 20
12.9600770575
 30
0.0
 10
16.2722380748
 20
12.9594894616
 30
0.0
 10
16.2688649998
 20
12.9587344135
 30
0.0
 10
16.2654984599
 20
12.9578122154
 30
0.0
 10
16.2621396562
 20
12.9567232578
 30
0.0
 10
16.2576404424
 20
12.9550372611
 30
0.0
 10
16.2520321089
 20
12.9525008206
 30
0.0
 10
16.2454070778
 20
12.9488207983
 30
0.0
 10
16.2388456576
 20
12.9444881685
 30
0.0
 10
16.2323574969
 20
12.9395102247
 30
0.0
 10
16.2259515443
 20
12.9338948072
 30
0.0
 10
16.2196367972
 20
12.9276505414
 30
0.0
 10
16.2134221361
 20
12.9207868201
 30
0.0
 10
16.2073163866
 20
12.9133138575
 30
0.0
 10
16.2013282835
 20
12.9052427151
 30
0.0
 10
16.1954664631
 20
12.896585308
 30
0.0
 10
16.1897394381
 20
12.8873544056
 30
0.0
 10
16.1841555737
 20
12.8775636254
 30
0.0
 10
16.1787230663
 20
12.8672274224
 30
0.0
 10
16.1734499159
 20
12.8563610762
 30
0.0
 10
16.1683439096
 20
12.8449806685
 30
0.0
 10
16.163412607
 20
12.8331030563
 30
0.0
 10
16.1586633229
 20
12.8207458463
 30
0.0
 10
16.1541031137
 20
12.8079273693
 30
0.0
 10
16.1497387614
 20
12.7946666548
 30
0.0
 10
16.1455767582
 20
12.7809834022
 30
0.0
 10
16.1416233017
 20
12.7668979472
 30
0.0
 10
16.1378842828
 20
12.7524312295
 30
0.0
 10
16.1343652759
 20
12.7376047619
 30
0.0
 10
16.1310715305
 20
12.7224405991
 30
0.0
 10
16.1280079559
 20
12.7069613053
 30
0.0
 10
16.125179121
 20
12.6911899179
 30
0.0
 10
16.1225892458
 20
12.6751499117
 30
0.0
 10
16.1202421953
 20
12.6588651635
 30
0.0
 10
16.1181414744
 20
12.6423599175
 30
0.0
 10
16.1162902163
 20
12.6256587496
 30
0.0
 10
16.1146911819
 20
12.6087865299
 30
0.0
 10
16.1133467572
 20
12.5917683836
 30
0.0
 10
16.1122589489
 20
12.5746296543
 30
0.0
 10
16.1114293832
 20
12.5573958661
 30
0.0
 10
16.1108592982
 20
12.5400926861
 30
0.0
 10
16.1105495422
 20
12.5227458855
 30
0.0
 10
16.110500577
 20
12.5053813003
 30
0.0
 10
16.1107124758
 20
12.488024793
 30
0.0
 10
16.1111849242
 20
12.4707022143
 30
0.0
 10
16.1119172188
 20
12.4534393643
 30
0.0
 10
16.1129082641
 20
12.4362619535
 30
0.0
 10
16.1141565799
 20
12.4191955637
 30
0.0
 10
16.1156603033
 20
12.4022656111
 30
0.0
 10
16.1174171912
 20
12.3854973079
 30
0.0
 10
16.1194246245
 20
12.3689156246
 30
0.0
 10
16.1216796056
 20
12.3525452509
 30
0.0
 10
16.1241787679
 20
12.3364105592
 30
0.0
 10
16.1269183824
 20
12.3205355689
 30
0.0
 10
16.1298943623
 20
12.3049439109
 30
0.0
 10
16.1331022711
 20
12.2896587915
 30
0.0
 10
16.1365373235
 20
12.2747029555
 30
0.0
 10
16.1401943952
 20
12.2600986515
 30
0.0
 10
16.1440680336
 20
12.2458675996
 30
0.0
 10
16.1481524669
 20
12.2320309598
 30
0.0
 10
16.1524416128
 20
12.218609302
 30
0.0
 10
16.1569290882
 20
12.2056225549
 30
0.0
 10
16.1616082115
 20
12.1930900434
 30
0.0
 10
16.1664720479
 20
12.1810302473
 30
0.0
 10
16.1715133163
 20
12.1694612964
 30
0.0
 10
16.1750441442
 20
12.1619669577
 30
0.0
 10
16.176839757
 20
12.1583078836
 30
0.0
  0
SPLINE
  5
2D5
100
AcDbEntity
  8
02___PRT_ALL_AXES
100
AcDbSpline
 62
7
  6
CONTINUOUS
 70
0
 71
3
 72
27
 73
23
 74
0
 42
0.0000001
 43
0.0000001
 44
0.0000000001
 40
0.0
 40
0.0
 40
0.0
 40
0.0
 40
0.0835108819
 40
0.1639084768
 40
0.2411670201
 40
0.3152835272
 40
0.3862765801
 40
0.4541914395
 40
0.5191027191
 40
0.5811185563
 40
0.6403847151
 40
0.6970888473
 40
0.7514643494
 40
0.803793168
 40
0.829298868
 40
0.8544212605
 40
0.8792091196
 40
0.9037137687
 40
0.927988886
 40
0.9520900426
 40
0.9760743654
 40
1.0
 40
1.0
 40
1.0
 40
1.0
 10
15.8452577991
 20
12.1583078836
 30
0.0
 10
15.8471411942
 20
12.154469928
 30
0.0
 10
15.8509638709
 20
12.146998008
 30
0.0
 10
15.8569868258
 20
12.1362174866
 30
0.0
 10
15.8631807241
 20
12.1260934005
 30
0.0
 10
15.8695347973
 20
12.1166435218
 30
0.0
 10
15.8760382667
 20
12.1078841958
 30
0.0
 10
15.8826801126
 20
12.0998306594
 30
0.0
 10
15.8894492254
 20
12.0924969528
 30
0.0
 10
15.8963344071
 20
12.0858959675
 30
0.0
 10
15.9033243315
 20
12.0800395151
 30
0.0
 10
15.9104077634
 20
12.0749383149
 30
0.0
 10
15.9175726155
 20
12.0706023571
 30
0.0
 10
15.9236539564
 20
12.0676084846
 30
0.0
 10
15.9285364743
 20
12.0656187746
 30
0.0
 10
15.9321791723
 20
12.064334832
 30
0.0
 10
15.9358318236
 20
12.0632473372
 30
0.0
 10
15.9394928814
 20
12.0623568314
 30
0.0
 10
15.9431606505
 20
12.061663718
 30
0.0
 10
15.946833519
 20
12.0611684058
 30
0.0
 10
15.9505096562
 20
12.0608710966
 30
0.0
 10
15.9529628204
 20
12.0608049948
 30
0.0
 10
15.9541876447
 20
12.060804997
 30
0.0
  0
LINE
  5
2D6
100
AcDbEntity
  8
LAYER_FEATURE
100
AcDbLine
 62
7
  6
CONTINUOUS
 10
14.6454052246
 20
12.6570963769
 11
14.6444991964
 21
12.6569016966
  0
SPLINE
  5
2D7
100
AcDbEntity
  8
LAYER_FEATURE
100
AcDbSpline
 62
7
  6
CONTINUOUS
 70
0
 71
3
 72
31
 73
27
 74
0
 42
0.0000001
 43
0.0000001
 44
0.0000000001
 40
0.0
 40
0.0
 40
0.0
 40
0.0
 40
0.0281967492
 40
0.0560889439
 40
0.0837280065
 40
0.1111671338
 40
0.1384610049
 40
0.1656653938
 40
0.1928367541
 40
0.2200317969
 40
0.2473070557
 40
0.2747184351
 40
0.3023208284
 40
0.3301677048
 40
0.3583107801
 40
0.3867997435
 40
0.4156819473
 40
0.4450023329
 40
0.5051116166
 40
0.567446733
 40
0.6322691947
 40
0.69979765
 40
0.7702103636
 40
0.8436484263
 40
0.9202192458
 40
1.0
 40
1.0
 40
1.0
 40
1.0
 10
15.928974241
 20
13.0171223419
 30
0.0
 10
15.9302364818
 20
13.0175368353
 30
0.0
 10
15.9327663962
 20
13.01830465
 30
0.0
 10
15.9365920601
 20
13.019273466
 30
0.0
 10
15.9404246016
 20
13.0200522006
 30
0.0
 10
15.9442624547
 20
13.0206404752
 30
0.0
 10
15.9481041645
 20
13.0210380448
 30
0.0
 10
15.9519482353
 20
13.0212447583
 30
0.0
 10
15.9557931774
 20
13.0212604883
 30
0.0
 10
15.9596374959
 20
13.0210852774
 30
0.0
 10
15.9634796953
 20
13.0207191486
 30
0.0
 10
15.9673182907
 20
13.0201623066
 30
0.0
 10
15.9711517968
 20
13.0194149552
 30
0.0
 10
15.9749787422
 20
13.0184774278
 30
0.0
 10
15.9787976726
 20
13.0173501174
 30
0.0
 10
15.9826071148
 20
13.0160334796
 30
0.0
 10
15.9864057083
 20
13.014528049
 30
0.0
 10
15.9914957026
 20
13.0122512893
 30
0.0
 10
15.9978326228
 20
13.0089194913
 30
0.0
 10
16.0053041102
 20
13.0042106032
 30
0.0
 10
16.0126957365
 20
12.9987657225
 30
0.0
 10
16.0199967042
 20
12.9925937406
 30
0.0
 10
16.027196903
 20
12.9857041821
 30
0.0
 10
16.0342862036
 20
12.9781074445
 30
0.0
 10
16.0412544013
 20
12.9698151021
 30
0.0
 10
16.0457202641
 20
12.9639523827
 30
0.0
 10
16.047932908
 20
12.9609135204
 30
0.0
  0
SPLINE
  5
2D8
100
AcDbEntity
  8
LAYER_FEATURE
100
AcDbSpline
 62
7
  6
CONTINUOUS
 70
0
 71
3
 72
23
 73
19
 74
0
 42
0.0000001
 43
0.0000001
 44
0.0000000001
 40
0.0
 40
0.0
 40
0.0
 40
0.0
 40
0.0408177029
 40
0.0825018107
 40
0.1258518345
 40
0.171556728
 40
0.2201731459
 40
0.2721229864
 40
0.3277055418
 40
0.3871154437
 40
0.4504578706
 40
0.5177639846
 40
0.5890047068
 40
0.6640994532
 40
0.7429217289
 40
0.8253107019
 40
0.9110852015
 40
1.0
 40
1.0
 40
1.0
 40
1.0
 10
14.6717298898
 20
12.8268176142
 30
0.0
 10
14.6715519765
 20
12.826817614
 30
0.0
 10
14.6711917399
 20
12.8267885608
 30
0.0
 10
14.6706566718
 20
12.826658735
 30
0.0
 10
14.6701269084
 20
12.8264436067
 30
0.0
 10
14.6696047454
 20
12.8261446986
 30
0.0
 10
14.6690919427
 20
12.8257636464
 30
0.0
 10
14.6685901842
 20
12.8253021966
 30
0.0
 10
14.6681010957
 20
12.8247622393
 30
0.0
 10
14.6676263462
 20
12.8241458417
 30
0.0
 10
14.667167596
 20
12.823455336
 30
0.0
 10
14.6667264962
 20
12.8226933213
 30
0.0
 10
14.6663046903
 20
12.8218626583
 30
0.0
 10
14.66590376
 20
12.8209664978
 30
0.0
 10
14.6655252187
 20
12.8200082558
 30
0.0
 10
14.6651705098
 20
12.8189915373
 30
0.0
 10
14.6648410287
 20
12.8179202969
 30
0.0
 10
14.6646424014
 20
12.8171850654
 30
0.0
 10
14.6645472806
 20
12.8168093642
 30
0.0
  0
SPLINE
  5
2D9
100
AcDbEntity
  8
02___PRT_ALL_AXES
100
AcDbSpline
 62
7
  6
CONTINUOUS
 70
0
 71
3
 72
61
 73
57
 74
0
 42
0.0000001
 43
0.0000001
 44
0.0000000001
 40
0.0
 40
0.0
 40
0.0
 40
0.0
 40
0.0078794847
 40
0.0159620676
 40
0.0242811987
 40
0.0328665734
 40
0.041744109
 40
0.0509360436
 40
0.0604611159
 40
0.0703347856
 40
0.0805694887
 40
0.0911749016
 40
0.1021581901
 40
0.1135242348
 40
0.1252758475
 40
0.1374139736
 40
0.1499378662
 40
0.162845234
 40
0.1761323773
 40
0.18979432
 40
0.2038249177
 40
0.2182169485
 40
0.2329621955
 40
0.2480515339
 40
0.2634750009
 40
0.2792218542
 40
0.295280625
 40
0.3116391799
 40
0.3282847702
 40
0.3452040744
 40
0.3623832353
 40
0.379807908
 40
0.3974632988
 40
0.415334199
 40
0.4334050154
 40
0.4516598091
 40
0.4886551621
 40
0.5261879577
 40
0.5641214195
 40
0.6023161741
 40
0.6406311723
 40
0.6789245985
 40
0.717054776
 40
0.7548810663
 40
0.7922647899
 40
0.829070143
 40
0.847214985
 40
0.8651661175
 40
0.8829078075
 40
0.9004246961
 40
0.9177018148
 40
0.9347246467
 40
0.951479152
 40
0.9679516718
 40
0.9841296249
 40
1.0
 40
1.0
 40
1.0
 40
1.0
 10
15.9294899461
 20
12.0148436612
 30
0.0
 10
15.9273391332
 20
12.015549943
 30
0.0
 10
15.9230368325
 20
12.0171529799
 30
0.0
 10
15.916693556
 20
12.0200699736
 30
0.0
 10
15.9103932557
 20
12.0235231189
 30
0.0
 10
15.9041431642
 20
12.0275079634
 30
0.0
 10
15.8979496843
 20
12.0320198116
 30
0.0
 10
15.8918193155
 20
12.0370534521
 30
0.0
 10
15.8857584351
 20
12.0426032263
 30
0.0
 10
15.8797733714
 20
12.0486629781
 30
0.0
 10
15.8738703947
 20
12.0552260554
 30
0.0
 10
15.8680557251
 20
12.0622853056
 30
0.0
 10
15.8623355258
 20
12.0698330675
 30
0.0
 10
15.8567158851
 20
12.0778611581
 30
0.0
 10
15.8512028075
 20
12.086360877
 30
0.0
 10
15.8458022103
 20
12.0953230174
 30
0.0
 10
15.8405199125
 20
12.1047378714
 30
0.0
 10
15.8353616187
 20
12.1145952314
 30
0.0
 10
15.8303329066
 20
12.1248843987
 30
0.0
 10
15.8254392282
 20
12.1355942027
 30
0.0
 10
15.8206859002
 20
12.146713012
 30
0.0
 10
15.8160780921
 20
12.1582287418
 30
0.0
 10
15.8116208134
 20
12.1701288658
 30
0.0
 10
15.8073189184
 20
12.182400436
 30
0.0
 10
15.8031770972
 20
12.1950300981
 30
0.0
 10
15.799199869
 20
12.2080041022
 30
0.0
 10
15.7953915672
 20
12.2213083157
 30
0.0
 10
15.791756347
 20
12.2349282443
 30
0.0
 10
15.7882981774
 20
12.248849049
 30
0.0
 10
15.7850208374
 20
12.2630555596
 30
0.0
 10
15.7819279011
 20
12.2775322894
 30
0.0
 10
15.7790227453
 20
12.2922634549
 30
0.0
 10
15.7763085428
 20
12.3072329983
 30
0.0
 10
15.7737882665
 20
12.322424589
 30
0.0
 10
15.77146465
 20
12.3378216933
 30
0.0
 10
15.7686196169
 20
12.358694705
 30
0.0
 10
15.7655781398
 20
12.385181295
 30
0.0
 10
15.7627642135
 20
12.4173729843
 30
0.0
 10
15.7607825181
 20
12.4499718627
 30
0.0
 10
15.7596417443
 20
12.4828357414
 30
0.0
 10
15.7593468826
 20
12.5158214906
 30
0.0
 10
15.7598992375
 20
12.5487853832
 30
0.0
 10
15.7612963742
 20
12.5815837878
 30
0.0
 10
15.7635321837
 20
12.614073866
 30
0.0
 10
15.7665968527
 20
12.6461139059
 30
0.0
 10
15.7698454213
 20
12.6724459761
 30
0.0
 10
15.7728539655
 20
12.6931742412
 30
0.0
 10
15.7752974881
 20
12.7084483833
 30
0.0
 10
15.7779360245
 20
12.7235069099
 30
0.0
 10
15.7807667053
 20
12.7383334341
 30
0.0
 10
15.7837864329
 20
12.7529117832
 30
0.0
 10
15.7869919142
 20
12.7672260708
 30
0.0
 10
15.7903796489
 20
12.7812606567
 30
0.0
 10
15.793945943
 20
12.7950003482
 30
0.0
 10
15.7976868883
 20
12.8084300013
 30
0.0
 10
15.8003204941
 20
12.8172536163
 30
0.0
 10
15.8016667114
 20
12.821609977
 30
0.0
  0
SPLINE
  5
2DA
100
AcDbEntity
  8
LAYER_FEATURE
100
AcDbSpline
 62
7
  6
CONTINUOUS
 70
0
 71
3
 72
30
 73
26
 74
0
 42
0.0000001
 43
0.0000001
 44
0.0000000001
 40
0.0
 40
0.0
 40
0.0
 40
0.0
 40
0.0281954537
 40
0.0560863293
 40
0.0837240539
 40
0.1111618396
 40
0.1384543978
 40
0.1656575081
 40
0.1928276532
 40
0.2200215617
 40
0.2472957812
 40
0.2747062399
 40
0.3023078474
 40
0.3301540751
 40
0.358296683
 40
0.3867853232
 40
0.4449742344
 40
0.5050842504
 40
0.5674209184
 40
0.6322457553
 40
0.6997773947
 40
0.7701940771
 40
0.8436368662
 40
0.9202131328
 40
1.0
 40
1.0
 40
1.0
 40
1.0
 10
15.9289742409
 20
12.0044876412
 30
0.0
 10
15.9302367219
 20
12.0040730662
 30
0.0
 10
15.9327671245
 20
12.0033051262
 30
0.0
 10
15.9365935259
 20
12.002336173
 30
0.0
 10
15.9404268085
 20
12.0015573747
 30
0.0
 10
15.9442654061
 20
12.0009691277
 30
0.0
 10
15.9481078573
 20
12.0005716273
 30
0.0
 10
15.9519526721
 20
12.0003650988
 30
0.0
 10
15.9557983553
 20
12.0003495823
 30
0.0
 10
15.9596434122
 20
12.0005251215
 30
0.0
 10
15.9634863485
 20
12.0008916209
 30
0.0
 10
15.967325675
 20
12.0014489218
 30
0.0
 10
15.9711599096
 20
12.0021968087
 30
0.0
 10
15.9749875689
 20
12.0031349183
 30
0.0
 10
15.9788072509
 20
12.0042629442
 30
0.0
 10
15.9839229921
 20
12.0060316676
 30
0.0
 10
15.9903029685
 20
12.0087307711
 30
0.0
 10
15.9978454052
 20
12.0126978907
 30
0.0
 10
16.0053185463
 20
12.0174091742
 30
0.0
 10
16.0127113243
 20
12.0228565534
 30
0.0
 10
16.0200135141
 20
12.0290313371
 30
0.0
 10
16.0272148364
 20
12.0359239345
 30
0.0
 10
16.0343052014
 20
12.04352396
 30
0.0
 10
16.0412743879
 20
12.0518198248
 30
0.0
 10
16.0457408276
 20
12.0576849839
 30
0.0
 10
16.0479537546
 20
12.0607250979
 30
0.0
  0
SPLINE
  5
2DB
100
AcDbEntity
  8
02___PRT_ALL_AXES
100
AcDbSpline
 62
7
  6
CONTINUOUS
 70
0
 71
3
 72
23
 73
19
 74
0
 42
0.0000001
 43
0.0000001
 44
0.0000000001
 40
0.0
 40
0.0
 40
0.0
 40
0.0
 40
0.0478957868
 40
0.0962583982
 40
0.1455382643
 40
0.1961549964
 40
0.248487162
 40
0.3028662328
 40
0.3595739907
 40
0.4188439484
 40
0.4808638637
 40
0.5457792291
 40
0.6136984366
 40
0.6846964512
 40
0.7588171887
 40
0.8360801432
 40
0.9164864065
 40
1.0
 40
1.0
 40
1.0
 40
1.0
 10
16.2857696025
 20
12.6358049896
 30
0.0
 10
16.2864506496
 20
12.6358049934
 30
0.0
 10
16.2878205059
 20
12.6357308919
 30
0.0
 10
16.2898667886
 20
12.6353983757
 30
0.0
 10
16.2919048969
 20
12.6348452286
 30
0.0
 10
16.2939306164
 20
12.634072982
 30
0.0
 10
16.2959403787
 20
12.6330835283
 30
0.0
 10
16.2979306969
 20
12.6318790565
 30
0.0
 10
16.2998982948
 20
12.6304620696
 30
0.0
 10
16.3018399501
 20
12.628835277
 30
0.0
 10
16.3037524922
 20
12.6270016653
 30
0.0
 10
16.3056328071
 20
12.6249645308
 30
0.0
 10
16.3074777666
 20
12.6227274347
 30
0.0
 10
16.3092842759
 20
12.6202942851
 30
0.0
 10
16.3110493001
 20
12.6176693345
 30
0.0
 10
16.3127698452
 20
12.6148570597
 30
0.0
 10
16.3144428747
 20
12.6118624593
 30
0.0
 10
16.3155047444
 20
12.6097869212
 30
0.0
 10
16.3160278929
 20
12.6087208566
 30
0.0
  0
SPLINE
  5
2DC
100
AcDbEntity
  8
02___PRT_ALL_AXES
100
AcDbSpline
 62
7
  6
CONTINUOUS
 70
0
 71
3
 72
54
 73
50
 74
0
 42
0.0000001
 43
0.0000001
 44
0.0000000001
 40
0.0
 40
0.0
 40
0.0
 40
0.0
 40
0.0139504584
 40
0.0283506412
 40
0.0431887665
 40
0.0584540849
 40
0.0741339064
 40
0.0902137431
 40
0.1235081009
 40
0.1582016239
 40
0.1941410936
 40
0.2311604872
 40
0.2690832359
 40
0.3077243112
 40
0.3468921589
 40
0.3863905411
 40
0.42602032
 40
0.4655812133
 40
0.5048735399
 40
0.5436999667
 40
0.5818672804
 40
0.6191882078
 40
0.6554833237
 40
0.690583084
 40
0.724330023
 40
0.7406518855
 40
0.7565833025
 40
0.7721091662
 40
0.787215688
 40
0.8018904389
 40
0.8161226457
 40
0.8299031695
 40
0.8432248355
 40
0.8560825695
 40
0.8684736035
 40
0.8803978777
 40
0.8918581707
 40
0.9028606415
 40
0.9134151072
 40
0.9235355227
 40
0.9332405313
 40
0.9425538182
 40
0.9515047486
 40
0.9601286172
 40
0.9684669469
 40
0.9765674535
 40
0.9844835874
 40
0.9922737657
 40
1.0
 40
1.0
 40
1.0
 40
1.0
 10
16.3160278929
 20
12.6087208566
 30
0.0
 10
16.3165266579
 20
12.6077044806
 30
0.0
 10
16.317507437
 20
12.605622709
 30
0.0
 10
16.3189078078
 20
12.6024091104
 30
0.0
 10
16.3202588853
 20
12.5990591346
 30
0.0
 10
16.3215586274
 20
12.5955778873
 30
0.0
 10
16.3228051649
 20
12.5919704588
 30
0.0
 10
16.3244123428
 20
12.586941103
 30
0.0
 10
16.3262693633
 20
12.5803737347
 30
0.0
 10
16.3282330074
 20
12.5721690785
 30
0.0
 10
16.3299452664
 20
12.5635999035
 30
0.0
 10
16.3313958933
 20
12.5547171271
 30
0.0
 10
16.3325762087
 20
12.5455734092
 30
0.0
 10
16.3334791426
 20
12.5362230534
 30
0.0
 10
16.3340992847
 20
12.5267216074
 30
0.0
 10
16.3344329175
 20
12.5171255412
 30
0.0
 10
16.3344780389
 20
12.5074918989
 30
0.0
 10
16.3342343801
 20
12.4978779534
 30
0.0
 10
16.3337034032
 20
12.4883408571
 30
0.0
 10
16.3328882906
 20
12.4789372967
 30
0.0
 10
16.3317939265
 20
12.4697231442
 30
0.0
 10
16.3304268654
 20
12.4607531322
 30
0.0
 10
16.32879529
 20
12.4520804558
 30
0.0
 10
16.3269089686
 20
12.443756658
 30
0.0
 10
16.3251147326
 20
12.4370794038
 30
0.0
 10
16.3235559554
 20
12.4319545391
 30
0.0
 10
16.3223436248
 20
12.4282709997
 30
0.0
 10
16.3210768994
 20
12.4247103145
 30
0.0
 10
16.3197576601
 20
12.4212777533
 30
0.0
 10
16.3183878467
 20
12.4179784188
 30
0.0
 10
16.3169695176
 20
12.4148171927
 30
0.0
 10
16.3155047501
 20
12.411798765
 30
0.0
 10
16.313995719
 20
12.4089275983
 30
0.0
 10
16.3124446514
 20
12.406207934
 30
0.0
 10
16.3108538036
 20
12.4036437979
 30
0.0
 10
16.3092255281
 20
12.4012389584
 30
0.0
 10
16.3075621601
 20
12.3989969785
 30
0.0
 10
16.3058661196
 20
12.3969211555
 30
0.0
 10
16.3041398286
 20
12.3950145628
 30
0.0
 10
16.3023857254
 20
12.3932800499
 30
0.0
 10
16.300606304
 20
12.3917202035
 30
0.0
 10
16.2988040243
 20
12.3903374485
 30
0.0
 10
16.2969814306
 20
12.3891339428
 30
0.0
 10
16.2951410751
 20
12.388111692
 30
0.0
 10
16.2932855922
 20
12.387272496
 30
0.0
 10
16.2914177588
 20
12.3866179106
 30
0.0
 10
16.28954038
 20
12.386149321
 30
0.0
 10
16.2876567579
 20
12.3858677051
 30
0.0
 10
16.286396631
 20
12.3858049998
 30
0.0
 10
16.2857696025
 20
12.3858049963
 30
0.0
  0
SPLINE
  5
2DD
100
AcDbEntity
  8
02___PRT_ALL_AXES
100
AcDbSpline
 62
7
  6
CONTINUOUS
 70
0
 71
3
 72
28
 73
24
 74
0
 42
0.0000001
 43
0.0000001
 44
0.0000000001
 40
0.0
 40
0.0
 40
0.0
 40
0.0
 40
0.0835097208
 40
0.1639063366
 40
0.2411638137
 40
0.3152793559
 40
0.3862714679
 40
0.4541854325
 40
0.5190958559
 40
0.5811108722
 40
0.6403762416
 40
0.6970796177
 40
0.7514543981
 40
0.7778611819
 40
0.8037957597
 40
0.8293011312
 40
0.8544231857
 40
0.8792107178
 40
0.9037150441
 40
0.9279898367
 40
0.9520906781
 40
0.9760746809
 40
1.0
 40
1.0
 40
1.0
 40
1.0
 10
16.176839757
 20
12.1583078836
 30
0.0
 10
16.1787231507
 20
12.1544699306
 30
0.0
 10
16.1825458288
 20
12.1469980097
 30
0.0
 10
16.1885687821
 20
12.1362174882
 30
0.0
 10
16.1947626834
 20
12.1260934005
 30
0.0
 10
16.2011167546
 20
12.1166435226
 30
0.0
 10
16.2076202253
 20
12.1078841955
 30
0.0
 10
16.2142620683
 20
12.0998306595
 30
0.0
 10
16.2210311896
 20
12.0924969485
 30
0.0
 10
16.2279163409
 20
12.0858959766
 30
0.0
 10
16.2349063716
 20
12.080039479
 30
0.0
 10
16.2419894342
 20
12.0749384437
 30
0.0
 10
16.2480188082
 20
12.0712898237
 30
0.0
 10
16.252869641
 20
12.06877333
 30
0.0
 10
16.2564874643
 20
12.0670984885
 30
0.0
 10
16.2601184637
 20
12.0656187499
 30
0.0
 10
16.2637611222
 20
12.0643348394
 30
0.0
 10
16.2674137839
 20
12.0632473369
 30
0.0
 10
16.2710748379
 20
12.0623568284
 30
0.0
 10
16.2747426096
 20
12.0616637251
 30
0.0
 10
16.2784154758
 20
12.0611683976
 30
0.0
 10
16.2820916147
 20
12.0608711064
 30
0.0
 10
16.2845447782
 20
12.0608049917
 30
0.0
 10
16.2857696025
 20
12.0608049936
 30
0.0
  0
SPLINE
  5
2DE
100
AcDbEntity
  8
LAYER_FEATURE
100
AcDbSpline
 62
7
  6
CONTINUOUS
 70
0
 71
3
 72
19
 73
15
 74
0
 42
0.0000001
 43
0.0000001
 44
0.0000000001
 40
0.0
 40
0.0
 40
0.0
 40
0.0
 40
0.0497823375
 40
0.1017417003
 40
0.1558106282
 40
0.2119074731
 40
0.2699382177
 40
0.3297973873
 40
0.3913697945
 40
0.4545317035
 40
0.5850809816
 40
0.7203268241
 40
0.8590551726
 40
1.0
 40
1.0
 40
1.0
 40
1.0
 10
14.704082211
 20
12.8267850523
 30
0.0
 10
14.7043846303
 20
12.8273876694
 30
0.0
 10
14.7049755004
 20
12.8286330546
 30
0.0
 10
14.7058040374
 20
12.8305743891
 30
0.0
 10
14.7065919123
 20
12.8326244605
 30
0.0
 10
14.7073369508
 20
12.8347776314
 30
0.0
 10
14.7080371069
 20
12.8370280435
 30
0.0
 10
14.7086904647
 20
12.839369535
 30
0.0
 10
14.7092952458
 20
12.8417957121
 30
0.0
 10
14.7100427795
 20
12.8451717951
 30
0.0
 10
14.7108402607
 20
12.8495571205
 30
0.0
 10
14.7115708702
 20
12.8549887804
 30
0.0
 10
14.712077266
 20
12.8605871563
 30
0.0
 10
14.7122607539
 20
12.8643718252
 30
0.0
 10
14.7123143595
 20
12.8662800063
 30
0.0
  0
SPLINE
  5
2DF
100
AcDbEntity
  8
LAYER_FEATURE
100
AcDbSpline
 62
7
  6
CONTINUOUS
 70
0
 71
3
 72
15
 73
11
 74
0
 42
0.0000001
 43
0.0000001
 44
0.0000000001
 40
0.0
 40
0.0
 40
0.0
 40
0.0
 40
0.1334579795
 40
0.2652305047
 40
0.3949313889
 40
0.5221950729
 40
0.6466643488
 40
0.7679982866
 40
0.8858784742
 40
1.0
 40
1.0
 40
1.0
 40
1.0
 10
14.7119342545
 20
12.8825592336
 30
0.0
 10
14.7118236676
 20
12.8840217205
 30
0.0
 10
14.7115695656
 20
12.8869257558
 30
0.0
 10
14.711086434
 20
12.8912393758
 30
0.0
 10
14.7105050403
 20
12.8954721982
 30
0.0
 10
14.7098274497
 20
12.8996094023
 30
0.0
 10
14.7090560156
 20
12.9036365871
 30
0.0
 10
14.7081934523
 20
12.9075397519
 30
0.0
 10
14.7072427798
 20
12.9113052187
 30
0.0
 10
14.7065405183
 20
12.913756792
 30
0.0
 10
14.7061743879
 20
12.9149563197
 30
0.0
  0
LINE
  5
2E0
100
AcDbEntity
  8
LAYER_FEATURE
100
AcDbLine
 62
7
  6
CONTINUOUS
 10
14.7034265643
 20
12.9250840743
 11
14.7041140246
 21
12.9219033778
  0
SPLINE
  5
2E1
100
AcDbEntity
  8
LAYER_FEATURE
100
AcDbSpline
 62
7
  6
CONTINUOUS
 70
0
 71
3
 72
18
 73
14
 74
0
 42
0.0000001
 43
0.0000001
 44
0.0000000001
 40
0.0
 40
0.0
 40
0.0
 40
0.0
 40
0.0524578985
 40
0.1073668627
 40
0.1645285839
 40
0.2237393297
 40
0.2847686661
 40
0.3473724138
 40
0.4762507395
 40
0.6082213532
 40
0.7410210089
 40
0.8723605963
 40
1.0
 40
1.0
 40
1.0
 40
1.0
 10
14.7052144229
 20
12.9484082851
 30
0.0
 10
14.7050698008
 20
12.9480215206
 30
0.0
 10
14.7047927126
 20
12.9472227494
 30
0.0
 10
14.704420366
 20
12.9459820088
 30
0.0
 10
14.7040832884
 20
12.9446762618
 30
0.0
 10
14.7037831931
 20
12.9433121957
 30
0.0
 10
14.7035216074
 20
12.9418966502
 30
0.0
 10
14.7032231229
 20
12.9399312799
 30
0.0
 10
14.7029570964
 20
12.9373975387
 30
0.0
 10
14.7028092916
 20
12.9343009343
 30
0.0
 10
14.7028329971
 20
12.9311814396
 30
0.0
 10
14.703027704
 20
12.9281021991
 30
0.0
 10
14.7032737238
 20
12.9260770868
 30
0.0
 10
14.7034265643
 20
12.9250840743
 30
0.0
  0
SPLINE
  5
2E2
100
AcDbEntity
  8
LAYER_FEATURE
100
AcDbSpline
 62
7
  6
CONTINUOUS
 70
0
 71
3
 72
11
 73
7
 74
0
 42
0.0000001
 43
0.0000001
 44
0.0000000001
 40
0.0
 40
0.0
 40
0.0
 40
0.0
 40
0.244151479
 40
0.4928006619
 40
0.745055435
 40
1.0
 40
1.0
 40
1.0
 40
1.0
 10
14.7626783986
 20
12.971896622
 30
0.0
 10
14.762880406
 20
12.9731724577
 30
0.0
 10
14.7632502263
 20
12.975753775
 30
0.0
 10
14.7636999051
 20
12.979670375
 30
0.0
 10
14.7640483011
 20
12.9836545911
 30
0.0
 10
14.7642113639
 20
12.9863334261
 30
0.0
 10
14.7642758888
 20
12.9876807137
 30
0.0
  0
SPLINE
  5
2E3
100
AcDbEntity
  8
LAYER_FEATURE
100
AcDbSpline
 62
7
  6
CONTINUOUS
 70
0
 71
3
 72
14
 73
10
 74
0
 42
0.0000001
 43
0.0000001
 44
0.0000000001
 40
0.0
 40
0.0
 40
0.0
 40
0.0
 40
0.2528079533
 40
0.3794460725
 40
0.5057360996
 40
0.6313033977
 40
0.7557771352
 40
0.8787965376
 40
1.0
 40
1.0
 40
1.0
 40
1.0
 10
14.7642758888
 20
12.9876807137
 30
0.0
 10
14.7644188683
 20
12.9906661419
 30
0.0
 10
14.7645289044
 20
12.9951529493
 30
0.0
 10
14.7644697649
 20
13.0011321222
 30
0.0
 10
14.764322332
 20
13.0056049339
 30
0.0
 10
14.7640723902
 20
13.0100475188
 30
0.0
 10
14.76372082
 20
13.0144444601
 30
0.0
 10
14.7632688445
 20
13.0187803305
 30
0.0
 10
14.7628985447
 20
13.0216442031
 30
0.0
 10
14.7626964946
 20
13.023062828
 30
0.0
  0
SPLINE
  5
2E4
100
AcDbEntity
  8
LAYER_FEATURE
100
AcDbSpline
 62
7
  6
CONTINUOUS
 70
0
 71
3
 72
20
 73
16
 74
0
 42
0.0000001
 43
0.0000001
 44
0.0000000001
 40
0.0
 40
0.0
 40
0.0
 40
0.0
 40
0.0440654732
 40
0.0913039895
 40
0.1416734348
 40
0.195093132
 40
0.251432597
 40
0.3105267236
 40
0.3721802774
 40
0.4361722945
 40
0.5022601971
 40
0.570182886
 40
0.7103989881
 40
0.8544914436
 40
1.0
 40
1.0
 40
1.0
 40
1.0
 10
14.765809019
 20
13.0556393032
 30
0.0
 10
14.765622777
 20
13.055383267
 30
0.0
 10
14.7652591037
 20
13.0548363786
 30
0.0
 10
14.7647559758
 20
13.0539507284
 30
0.0
 10
14.76427868
 20
13.0529755223
 30
0.0
 10
14.7638296052
 20
13.0519157273
 30
0.0
 10
14.7634109908
 20
13.0507765747
 30
0.0
 10
14.7630249453
 20
13.0495638006
 30
0.0
 10
14.7626734213
 20
13.0482835076
 30
0.0
 10
14.7623582126
 20
13.0469421592
 30
0.0
 10
14.7620809171
 20
13.0455465254
 30
0.0
 10
14.7617602898
 20
13.0436021947
 30
0.0
 10
14.7614659956
 20
13.0410869057
 30
0.0
 10
14.7612838476
 20
13.0380025802
 30
0.0
 10
14.7612765359
 20
13.0359205517
 30
0.0
 10
14.7613019015
 20
13.0348753886
 30
0.0
  0
SPLINE
  5
2E5
100
AcDbEntity
  8
LAYER_FEATURE
100
AcDbSpline
 62
7
  6
CONTINUOUS
 70
0
 71
3
 72
22
 73
18
 74
0
 42
0.0000001
 43
0.0000001
 44
0.0000000001
 40
0.0
 40
0.0
 40
0.0
 40
0.0
 40
0.0377005797
 40
0.078172826
 40
0.1218599511
 40
0.1690665558
 40
0.2199657861
 40
0.2746291926
 40
0.3330455302
 40
0.3951362182
 40
0.4607674644
 40
0.5297591724
 40
0.6018925483
 40
0.6769169102
 40
0.7545538413
 40
0.834497946
 40
1.0
 40
1.0
 40
1.0
 40
1.0
 10
14.8363417512
 20
13.109538143
 30
0.0
 10
14.8361348763
 20
13.1094429166
 30
0.0
 10
14.8357214117
 20
13.1092106165
 30
0.0
 10
14.835133373
 20
13.1087647757
 30
0.0
 10
14.8345604009
 20
13.1082134558
 30
0.0
 10
14.8340050635
 20
13.1075597486
 30
0.0
 10
14.8334697127
 20
13.1068068578
 30
0.0
 10
14.8329568141
 20
13.1059585088
 30
0.0
 10
14.832468802
 20
13.105018872
 30
0.0
 10
14.8320080673
 20
13.1039925953
 30
0.0
 10
14.8315769039
 20
13.1028847885
 30
0.0
 10
14.831177475
 20
13.1017010031
 30
0.0
 10
14.8308117976
 20
13.10044719
 30
0.0
 10
14.830481735
 20
13.099129674
 30
0.0
 10
14.8301889648
 20
13.0977551022
 30
0.0
 10
14.8298464103
 20
13.0958334792
 30
0.0
 10
14.8296562693
 20
13.0943618123
 30
0.0
 10
14.8295565629
 20
13.0933670411
 30
0.0
  0
SPLINE
  5
2E6
100
AcDbEntity
  8
LAYER_FEATURE
100
AcDbSpline
 62
7
  6
CONTINUOUS
 70
0
 71
3
 72
17
 73
13
 74
0
 42
0.0000001
 43
0.0000001
 44
0.0000000001
 40
0.0
 40
0.0
 40
0.0
 40
0.0
 40
0.047673971
 40
0.0958255405
 40
0.1449149827
 40
0.1953706148
 40
0.3017695894
 40
0.4176279272
 40
0.544637492
 40
0.6838000527
 40
0.8355811668
 40
1.0
 40
1.0
 40
1.0
 40
1.0
 10
14.7166840814
 20
12.9676476
 30
0.0
 10
14.7165625412
 20
12.9676476021
 30
0.0
 10
14.7163180364
 20
12.967634185
 30
0.0
 10
14.7159528467
 20
12.9675740062
 30
0.0
 10
14.7155891469
 20
12.9674738952
 30
0.0
 10
14.7150987329
 20
12.9672842922
 30
0.0
 10
14.7144894532
 20
12.9669411931
 30
0.0
 10
14.7137912975
 20
12.9663836783
 30
0.0
 10
14.7131162976
 20
12.9656782084
 30
0.0
 10
14.7124683546
 20
12.9648300457
 30
0.0
 10
14.7118513322
 20
12.9638450971
 30
0.0
 10
14.7114778841
 20
12.9631297671
 30
0.0
 10
14.711296064
 20
12.9627520834
 30
0.0
  0
SPLINE
  5
2E7
100
AcDbEntity
  8
LAYER_FEATURE
100
AcDbSpline
 62
7
  6
CONTINUOUS
 70
0
 71
3
 72
56
 73
52
 74
0
 42
0.0000001
 43
0.0000001
 44
0.0000000001
 40
0.0
 40
0.0
 40
0.0
 40
0.0
 40
0.0147757968
 40
0.0297979056
 40
0.0450573708
 40
0.0605458769
 40
0.0762543475
 40
0.0921734331
 40
0.1082935455
 40
0.1246047935
 40
0.1577592154
 40
0.1915535645
 40
0.2259007324
 40
0.2607108881
 40
0.2958919596
 40
0.3313501084
 40
0.3669901967
 40
0.4027162358
 40
0.4384318392
 40
0.4740406688
 40
0.5094468829
 40
0.5445555833
 40
0.5792732779
 40
0.6135083364
 40
0.6471714744
 40
0.663761771
 40
0.6801769317
 40
0.696406677
 40
0.7124409775
 40
0.7282700643
 40
0.7438844442
 40
0.7592749293
 40
0.7744326551
 40
0.7893490945
 40
0.8040160868
 40
0.8184258691
 40
0.8325710904
 40
0.8464448415
 40
0.8600406979
 40
0.8733527424
 40
0.8863755969
 40
0.8991044747
 40
0.9115352211
 40
0.9236643509
 40
0.9354891095
 40
0.9470075391
 40
0.9582185294
 40
0.9691218907
 40
0.9797184487
 40
0.9900101191
 40
1.0
 40
1.0
 40
1.0
 40
1.0
 10
15.7238810354
 20
12.980120519
 30
0.0
 10
15.7221481348
 20
12.9745128508
 30
0.0
 10
15.7187465319
 20
12.9631750567
 30
0.0
 10
15.7138742895
 20
12.9459523655
 30
0.0
 10
15.7091930049
 20
12.9283836265
 30
0.0
 10
15.7047064337
 20
12.9104829972
 30
0.0
 10
15.7004181197
 20
12.8922645783
 30
0.0
 10
15.696331484
 20
12.8737428888
 30
0.0
 10
15.692449762
 20
12.8549326166
 30
0.0
 10
15.687524963
 20
12.8293493625
 30
0.0
 10
15.6819113016
 20
12.7967522874
 30
0.0
 10
15.6760742536
 20
12.7569366742
 30
0.0
 10
15.6711192124
 20
12.7163390794
 30
0.0
 10
15.6670620041
 20
12.675088611
 30
0.0
 10
15.6639155706
 20
12.6333162246
 30
0.0
 10
15.6616899425
 20
12.5911546242
 30
0.0
 10
15.6603922381
 20
12.548737745
 30
0.0
 10
15.6600265818
 20
12.5062003485
 30
0.0
 10
15.6605941508
 20
12.4636775815
 30
0.0
 10
15.6620931335
 20
12.4213045452
 30
0.0
 10
15.664518737
 20
12.3792158549
 30
0.0
 10
15.6678632374
 20
12.3375452306
 30
0.0
 10
15.6721159473
 20
12.2964249816
 30
0.0
 10
15.6772633056
 20
12.2559858878
 30
0.0
 10
15.6823086852
 20
12.2228025433
 30
0.0
 10
15.6867860567
 20
12.1967007291
 30
0.0
 10
15.6903404664
 20
12.1774683919
 30
0.0
 10
15.6941045647
 20
12.1585011145
 30
0.0
 10
15.6980753647
 20
12.1398139378
 30
0.0
 10
15.7022497002
 20
12.1214217221
 30
0.0
 10
15.7066242586
 20
12.1033390838
 30
0.0
 10
15.7111955568
 20
12.0855803921
 30
0.0
 10
15.7159599523
 20
12.0681597547
 30
0.0
 10
15.7209136604
 20
12.0510910135
 30
0.0
 10
15.7260527459
 20
12.0343877282
 30
0.0
 10
15.7313731141
 20
12.0180631616
 30
0.0
 10
15.736870537
 20
12.0021302767
 30
0.0
 10
15.7425406549
 20
11.9866017263
 30
0.0
 10
15.7483789558
 20
11.9714898325
 30
0.0
 10
15.7543808014
 20
11.956806585
 30
0.0
 10
15.7605414375
 20
11.9425636359
 30
0.0
 10
15.7668559759
 20
11.9287722792
 30
0.0
 10
15.7733194061
 20
11.9154434436
 30
0.0
 10
15.7799266159
 20
11.9025876943
 30
0.0
 10
15.7866723855
 20
11.8902152176
 30
0.0
 10
15.7935513764
 20
11.8783358045
 30
0.0
 10
15.8005581681
 20
11.8669588541
 30
0.0
 10
15.8076872438
 20
11.8560933883
 30
0.0
 10
15.8149330347
 20
11.8457479501
 30
0.0
 10
15.8222897171
 20
11.8359308862
 30
0.0
 10
15.8273390166
 20
11.8296506752
 30
0.0
 10
15.829881852
 20
11.8266042267
 30
0.0
  0
SPLINE
  5
2E8
100
AcDbEntity
  8
LAYER_FEATURE
100
AcDbSpline
 62
7
  6
CONTINUOUS
 70
0
 71
3
 72
14
 73
10
 74
0
 42
0.0000001
 43
0.0000001
 44
0.0000000001
 40
0.0
 40
0.0
 40
0.0
 40
0.0
 40
0.1127369463
 40
0.2267807244
 40
0.3433834334
 40
0.4636920958
 40
0.5887285046
 40
0.7193754373
 40
1.0
 40
1.0
 40
1.0
 40
1.0
 10
14.7763851003
 20
13.0659121631
 30
0.0
 10
14.7762542732
 20
13.0659121613
 30
0.0
 10
14.7759908464
 20
13.0658965976
 30
0.0
 10
14.7755976755
 20
13.0658268015
 30
0.0
 10
14.7752064247
 20
13.0657107393
 30
0.0
 10
14.7748180551
 20
13.0655488506
 30
0.0
 10
14.7744333398
 20
13.0653415521
 30
0.0
 10
14.7739140934
 20
13.06499727
 30
0.0
 10
14.7735511914
 20
13.0646835029
 30
0.0
 10
14.7733190914
 20
13.0644550725
 30
0.0
  0
SPLINE
  5
2E9
100
AcDbEntity
  8
LAYER_FEATURE
100
AcDbSpline
 62
7
  6
CONTINUOUS
 70
0
 71
3
 72
22
 73
18
 74
0
 42
0.0000001
 43
0.0000001
 44
0.0000000001
 40
0.0
 40
0.0
 40
0.0
 40
0.0
 40
0.1701700269
 40
0.2502259102
 40
0.3268071952
 40
0.3998606827
 40
0.4693673126
 40
0.5353426927
 40
0.5978469691
 40
0.6569885928
 40
0.7129348402
 40
0.7659190074
 40
0.8162493895
 40
0.8643146249
 40
0.9105846473
 40
0.9556099277
 40
1.0
 40
1.0
 40
1.0
 40
1.0
 10
14.8834334388
 20
11.9165675587
 30
0.0
 10
14.8836256643
 20
11.9160412325
 30
0.0
 10
14.8839328702
 20
11.9152756978
 30
0.0
 10
14.8843915162
 20
11.9143019798
 30
0.0
 10
14.8847422736
 20
11.9136316311
 30
0.0
 10
14.8851059166
 20
11.9130080604
 30
0.0
 10
14.885481509
 20
11.9124328436
 30
0.0
 10
14.8858681341
 20
11.9119074719
 30
0.0
 10
14.8862648162
 20
11.9114332781
 30
0.0
 10
14.886670614
 20
11.9110115002
 30
0.0
 10
14.8870845517
 20
11.9106432368
 30
0.0
 10
14.8875056704
 20
11.9103294989
 30
0.0
 10
14.8879329932
 20
11.9100712122
 30
0.0
 10
14.8883654767
 20
11.9098692073
 30
0.0
 10
14.8888020523
 20
11.9097242532
 30
0.0
 10
14.8892414013
 20
11.9096369731
 30
0.0
 10
14.8895361825
 20
11.9096175135
 30
0.0
 10
14.8896823486
 20
11.9096175138
 30
0.0
  0
LINE
  5
2EA
100
AcDbEntity
  8
LAYER_FEATURE
100
AcDbLine
 62
7
  6
CONTINUOUS
 10
14.8247629592
 20
11.9167811754
 11
14.8259312168
 21
11.9165756689
  0
SPLINE
  5
2EB
100
AcDbEntity
  8
LAYER_FEATURE
100
AcDbSpline
 62
7
  6
CONTINUOUS
 70
0
 71
3
 72
23
 73
19
 74
0
 42
0.0000001
 43
0.0000001
 44
0.0000000001
 40
0.0
 40
0.0
 40
0.0
 40
0.0
 40
0.0805739267
 40
0.1599904681
 40
0.2378994779
 40
0.3139883513
 40
0.3879461454
 40
0.4594832692
 40
0.5283316577
 40
0.5942479275
 40
0.6570187228
 40
0.7164663472
 40
0.7724550576
 40
0.8248996293
 40
0.8737760945
 40
0.9191348728
 40
0.9611254005
 40
1.0
 40
1.0
 40
1.0
 40
1.0
 10
14.8104429356
 20
11.9385759757
 30
0.0
 10
14.8104765961
 20
11.938063085
 30
0.0
 10
14.8105578293
 20
11.9370455519
 30
0.0
 10
14.8107225764
 20
11.9355367095
 30
0.0
 10
14.8109287046
 20
11.9340618193
 30
0.0
 10
14.8111751254
 20
11.9326284306
 30
0.0
 10
14.8114606057
 20
11.9312437615
 30
0.0
 10
14.8117836787
 20
11.929914837
 30
0.0
 10
14.8121426962
 20
11.9286483709
 30
0.0
 10
14.8125358363
 20
11.9274507532
 30
0.0
 10
14.8129611117
 20
11.9263280122
 30
0.0
 10
14.8134163789
 20
11.9252857733
 30
0.0
 10
14.8138993646
 20
11.9243292318
 30
0.0
 10
14.8144077048
 20
11.9234631247
 30
0.0
 10
14.8149389558
 20
11.9226917423
 30
0.0
 10
14.8154907035
 20
11.9220188025
 30
0.0
 10
14.8160603705
 20
11.9214478138
 30
0.0
 10
14.8164651441
 20
11.9211254896
 30
0.0
 10
14.8166693032
 20
11.9209847176
 30
0.0
  0
SPLINE
  5
2EC
100
AcDbEntity
  8
LAYER_FEATURE
100
AcDbSpline
 62
7
  6
CONTINUOUS
 70
0
 71
3
 72
15
 73
11
 74
0
 42
0.0000001
 43
0.0000001
 44
0.0000000001
 40
0.0
 40
0.0
 40
0.0
 40
0.0
 40
0.1501716874
 40
0.2914584958
 40
0.4243674307
 40
0.5496995881
 40
0.6685004737
 40
0.7820721526
 40
0.8919809993
 40
1.0
 40
1.0
 40
1.0
 40
1.0
 10
14.7553636399
 20
11.979637698
 30
0.0
 10
14.7555041808
 20
11.9794629409
 30
0.0
 10
14.7557886006
 20
11.979132861
 30
0.0
 10
14.7562393458
 20
11.9786863763
 30
0.0
 10
14.7566997049
 20
11.9783054342
 30
0.0
 10
14.7571683414
 20
11.9779914022
 30
0.0
 10
14.7576439439
 20
11.9777454459
 30
0.0
 10
14.7581251488
 20
11.9775687414
 30
0.0
 10
14.7586101723
 20
11.9774622315
 30
0.0
 10
14.7589360906
 20
11.9774384462
 30
0.0
 10
14.7590974004
 20
11.9774384433
 30
0.0
  0
SPLINE
  5
2ED
100
AcDbEntity
  8
LAYER_FEATURE
100
AcDbSpline
 62
7
  6
CONTINUOUS
 70
0
 71
3
 72
20
 73
16
 74
0
 42
0.0000001
 43
0.0000001
 44
0.0000000001
 40
0.0
 40
0.0
 40
0.0
 40
0.0
 40
0.14046051
 40
0.2809948009
 40
0.419189179
 40
0.4866777682
 40
0.5527107717
 40
0.6170182565
 40
0.6793447126
 40
0.7394516683
 40
0.79712114
 40
0.8521590231
 40
0.9043981179
 40
0.9537119788
 40
1.0
 40
1.0
 40
1.0
 40
1.0
 10
14.7443672065
 20
12.0117292215
 30
0.0
 10
14.7443070872
 20
12.0106879979
 30
0.0
 10
14.7442458542
 20
12.0086011405
 30
0.0
 10
14.7443263174
 20
12.0054881313
 30
0.0
 10
14.7445366889
 20
12.002924404
 30
0.0
 10
14.7447913869
 20
12.0009227179
 30
0.0
 10
14.7450216978
 20
11.9994716941
 30
0.0
 10
14.745291586
 20
11.9980665116
 30
0.0
 10
14.7455996808
 20
11.9967142736
 30
0.0
 10
14.745944406
 20
11.9954218219
 30
0.0
 10
14.7463240109
 20
11.99419568
 30
0.0
 10
14.7467365733
 20
11.993042044
 30
0.0
 10
14.7471800097
 20
11.9919666501
 30
0.0
 10
14.747652082
 20
11.9909749851
 30
0.0
 10
14.7479953489
 20
11.9903529579
 30
0.0
 10
14.7481719567
 20
11.9900581017
 30
0.0
  0
SPLINE
  5
2EE
100
AcDbEntity
  8
LAYER_FEATURE
100
AcDbSpline
 62
7
  6
CONTINUOUS
 70
0
 71
3
 72
15
 73
11
 74
0
 42
0.0000001
 43
0.0000001
 44
0.0000000001
 40
0.0
 40
0.0
 40
0.0
 40
0.0
 40
0.1241767739
 40
0.2495955328
 40
0.3757558033
 40
0.502151971
 40
0.6282767938
 40
0.753624902
 40
0.8776963143
 40
1.0
 40
1.0
 40
1.0
 40
1.0
 10
14.7482345573
 20
12.0409594227
 30
0.0
 10
14.7483665796
 20
12.0423545306
 30
0.0
 10
14.748592322
 20
12.0451625975
 30
0.0
 10
14.7488161887
 20
12.0493976005
 30
0.0
 10
14.7489263882
 20
12.0536621646
 30
0.0
 10
14.7489223927
 20
12.0579361069
 30
0.0
 10
14.7488042227
 20
12.0621992513
 30
0.0
 10
14.748572438
 20
12.0664314749
 30
0.0
 10
14.7482281459
 20
12.0706127471
 30
0.0
 10
14.7479220986
 20
12.0733766593
 30
0.0
 10
14.7477500971
 20
12.0747461028
 30
0.0
  0
SPLINE
  5
2EF
100
AcDbEntity
  8
LAYER_FEATURE
100
AcDbSpline
 62
7
  6
CONTINUOUS
 70
0
 71
3
 72
11
 73
7
 74
0
 42
0.0000001
 43
0.0000001
 44
0.0000000001
 40
0.0
 40
0.0
 40
0.0
 40
0.0
 40
0.2597742206
 40
0.5136709965
 40
0.7607121776
 40
1.0
 40
1.0
 40
1.0
 40
1.0
 10
14.7477500971
 20
12.0747461028
 30
0.0
 10
14.7476002814
 20
12.075938907
 30
0.0
 10
14.7472699381
 20
12.0782934086
 30
0.0
 10
14.7466749922
 20
12.0817637369
 30
0.0
 10
14.7459884566
 20
12.0851204293
 30
0.0
 10
14.7454628962
 20
12.0873093908
 30
0.0
 10
14.7451845177
 20
12.0883811988
 30
0.0
  0
SPLINE
  5
2F0
100
AcDbEntity
  8
LAYER_FEATURE
100
AcDbSpline
 62
7
  6
CONTINUOUS
 70
0
 71
3
 72
22
 73
18
 74
0
 42
0.0000001
 43
0.0000001
 44
0.0000000001
 40
0.0
 40
0.0
 40
0.0
 40
0.0
 40
0.1682075649
 40
0.2473617708
 40
0.3231262073
 40
0.3954829093
 40
0.4644380845
 40
0.5300285602
 40
0.5923355026
 40
0.6514837169
 40
0.707652148
 40
0.7610767127
 40
0.8120607116
 40
0.8609748317
 40
0.9082600155
 40
0.9544182293
 40
1.0
 40
1.0
 40
1.0
 40
1.0
 10
14.6969249231
 20
12.0944885763
 30
0.0
 10
14.6971145969
 20
12.0940208814
 30
0.0
 10
14.6974155879
 20
12.0933415203
 30
0.0
 10
14.6978601777
 20
12.0924797177
 30
0.0
 10
14.6981982794
 20
12.0918872491
 30
0.0
 10
14.6985470418
 20
12.0913368772
 30
0.0
 10
14.6989056846
 20
12.0908298021
 30
0.0
 10
14.6992734535
 20
12.0903671961
 30
0.0
 10
14.6996495215
 20
12.0899500842
 30
0.0
 10
14.7000331229
 20
12.0895794404
 30
0.0
 10
14.7004234266
 20
12.0892560997
 30
0.0
 10
14.7008196553
 20
12.0889808833
 30
0.0
 10
14.7012209577
 20
12.0887544719
 30
0.0
 10
14.7016264902
 20
12.0885775608
 30
0.0
 10
14.7020353274
 20
12.0884506841
 30
0.0
 10
14.702446386
 20
12.0883743658
 30
0.0
 10
14.7027219358
 20
12.088357332
 30
0.0
 10
14.7028587001
 20
12.0883573327
 30
0.0
  0
SPLINE
  5
2F1
100
AcDbEntity
  8
LAYER_FEATURE
100
AcDbSpline
 62
7
  6
CONTINUOUS
 70
0
 71
3
 72
17
 73
13
 74
0
 42
0.0000001
 43
0.0000001
 44
0.0000000001
 40
0.0
 40
0.0
 40
0.0
 40
0.0
 40
0.1231081266
 40
0.2511509836
 40
0.3819703244
 40
0.5133185447
 40
0.6429334664
 40
0.7686050478
 40
0.8293110097
 40
0.8882605531
 40
0.9452309532
 40
1.0
 40
1.0
 40
1.0
 40
1.0
 10
14.6903284875
 20
12.1337354811
 30
0.0
 10
14.6901423544
 20
12.1327740266
 30
0.0
 10
14.6898293183
 20
12.1307992242
 30
0.0
 10
14.6895344869
 20
12.1277734479
 30
0.0
 10
14.6894086778
 20
12.1246703003
 30
0.0
 10
14.689454499
 20
12.1215524718
 30
0.0
 10
14.6896710366
 20
12.1184828936
 30
0.0
 10
14.6899935606
 20
12.1159882757
 30
0.0
 10
14.690336243
 20
12.114066757
 30
0.0
 10
14.6906291085
 20
12.112692288
 30
0.0
 10
14.6909592586
 20
12.1113749388
 30
0.0
 10
14.6912082843
 20
12.1105213693
 30
0.0
 10
14.6913391849
 20
12.1101058198
 30
0.0
  0
LINE
  5
2F2
100
AcDbEntity
  8
LAYER_FEATURE
100
AcDbLine
 62
7
  6
CONTINUOUS
 10
14.6908304067
 20
12.1358396239
 11
14.6903284875
 21
12.1337354811
  0
LINE
  5
2F3
100
AcDbEntity
  8
LAYER_FEATURE
100
AcDbLine
 62
7
  6
CONTINUOUS
 10
14.6950668484
 20
12.1496879478
 11
14.6975240281
 21
12.1584661771
  0
SPLINE
  5
2F4
100
AcDbEntity
  8
LAYER_FEATURE
100
AcDbSpline
 62
7
  6
CONTINUOUS
 70
0
 71
3
 72
15
 73
11
 74
0
 42
0.0000001
 43
0.0000001
 44
0.0000000001
 40
0.0
 40
0.0
 40
0.0
 40
0.0
 40
0.1161380601
 40
0.235745821
 40
0.3583792264
 40
0.4835710847
 40
0.6108352935
 40
0.7396708277
 40
0.8695655646
 40
1.0
 40
1.0
 40
1.0
 40
1.0
 10
14.6975240281
 20
12.1584661771
 30
0.0
 10
14.6978203972
 20
12.1597004229
 30
0.0
 10
14.698377608
 20
12.162216631
 30
0.0
 10
14.6990990073
 20
12.1660671584
 30
0.0
 10
14.6997159011
 20
12.1700359802
 30
0.0
 10
14.7002253455
 20
12.1741043175
 30
0.0
 10
14.700624924
 20
12.1782529896
 30
0.0
 10
14.7009127366
 20
12.1824624197
 30
0.0
 10
14.7010874157
 20
12.1867126944
 30
0.0
 10
14.7011278627
 20
12.1895580743
 30
0.0
 10
14.7011290629
 20
12.1909836553
 30
0.0
  0
SPLINE
  5
2F5
100
AcDbEntity
  8
LAYER_FEATURE
100
AcDbSpline
 62
7
  6
CONTINUOUS
 70
0
 71
3
 72
22
 73
18
 74
0
 42
0.0000001
 43
0.0000001
 44
0.0000000001
 40
0.0
 40
0.0
 40
0.0
 40
0.0
 40
0.1449238294
 40
0.2167538955
 40
0.2878192505
 40
0.3578673225
 40
0.4266543143
 40
0.4939440754
 40
0.5595106677
 40
0.6231402187
 40
0.6846329959
 40
0.7438057901
 40
0.8004946022
 40
0.8545578862
 40
0.9058801953
 40
0.9543771298
 40
1.0
 40
1.0
 40
1.0
 40
1.0
 10
14.7011290629
 20
12.1909836553
 30
0.0
 10
14.701131066
 20
12.1933629351
 30
0.0
 10
14.7010444619
 20
12.196922464
 30
0.0
 10
14.7007477946
 20
12.2016387608
 30
0.0
 10
14.7004372739
 20
12.2051213748
 30
0.0
 10
14.7000394383
 20
12.2085447824
 30
0.0
 10
14.6995559718
 20
12.2118945688
 30
0.0
 10
14.6989889256
 20
12.2151565984
 30
0.0
 10
14.6983407072
 20
12.2183171242
 30
0.0
 10
14.6976140659
 20
12.2213628348
 30
0.0
 10
14.6968120782
 20
12.2242809165
 30
0.0
 10
14.6959381352
 20
12.2270591073
 30
0.0
 10
14.6949959185
 20
12.2296857596
 30
0.0
 10
14.6939893929
 20
12.2321498749
 30
0.0
 10
14.692922742
 20
12.2344412285
 30
0.0
 10
14.6918004573
 20
12.2365501647
 30
0.0
 10
14.6909933802
 20
12.2378693408
 30
0.0
 10
14.6905802674
 20
12.2384941256
 30
0.0
  0
SPLINE
  5
2F6
100
AcDbEntity
  8
LAYER_FEATURE
100
AcDbSpline
 62
7
  6
CONTINUOUS
 70
0
 71
3
 72
23
 73
19
 74
0
 42
0.0000001
 43
0.0000001
 44
0.0000000001
 40
0.0
 40
0.0
 40
0.0
 40
0.0
 40
0.0893598691
 40
0.1757617104
 40
0.2589019776
 40
0.338538346
 40
0.4144471897
 40
0.4864459482
 40
0.5543988219
 40
0.6182236141
 40
0.6779049533
 40
0.7335073817
 40
0.7851929495
 40
0.8332435028
 40
0.8780835053
 40
0.9202976833
 40
0.9606364916
 40
1.0
 40
1.0
 40
1.0
 40
1.0
 10
14.6551671978
 20
12.2500914062
 30
0.0
 10
14.6552567186
 20
12.2496620009
 30
0.0
 10
14.6554462624
 20
12.2488201323
 30
0.0
 10
14.6557679318
 20
12.2475903862
 30
0.0
 10
14.6561210759
 20
12.2464190248
 30
0.0
 10
14.6565040507
 20
12.2453113971
 30
0.0
 10
14.6569151482
 20
12.2442724416
 30
0.0
 10
14.657352512
 20
12.2433068254
 30
0.0
 10
14.6578141927
 20
12.2424188566
 30
0.0
 10
14.6582981739
 20
12.241612479
 30
0.0
 10
14.6588023678
 20
12.2408912479
 30
0.0
 10
14.6593246764
 20
12.2402583394
 30
0.0
 10
14.6598630261
 20
12.2397165853
 30
0.0
 10
14.6604153744
 20
12.2392685087
 30
0.0
 10
14.6609796626
 20
12.238916443
 30
0.0
 10
14.6615537746
 20
12.2386626387
 30
0.0
 10
14.6621348901
 20
12.2385092104
 30
0.0
 10
14.6625269295
 20
12.2384748373
 30
0.0
 10
14.6627201517
 20
12.2384748415
 30
0.0
  0
SPLINE
  5
2F7
100
AcDbEntity
  8
LAYER_FEATURE
100
AcDbSpline
 62
7
  6
CONTINUOUS
 70
0
 71
3
 72
18
 73
14
 74
0
 42
0.0000001
 43
0.0000001
 44
0.0000000001
 40
0.0
 40
0.0
 40
0.0
 40
0.0
 40
0.0521756188
 40
0.1068318782
 40
0.1637737191
 40
0.2227999928
 40
0.2836824041
 40
0.3461784582
 40
0.4749637479
 40
0.6070091117
 40
0.7400519393
 40
0.8717987189
 40
1.0
 40
1.0
 40
1.0
 40
1.0
 10
14.653616465
 20
12.2926519317
 30
0.0
 10
14.6534702248
 20
12.2922689004
 30
0.0
 10
14.6531898184
 20
12.2914772618
 30
0.0
 10
14.6528124815
 20
12.2902465282
 30
0.0
 10
14.6524701478
 20
12.2889498532
 30
0.0
 10
14.6521645578
 20
12.287593877
 30
0.0
 10
14.6518972657
 20
12.2861853968
 30
0.0
 10
14.65159075
 20
12.284227445
 30
0.0
 10
14.6513144799
 20
12.2817001373
 30
0.0
 10
14.6511542429
 20
12.2786076525
 30
0.0
 10
14.6511654128
 20
12.2754876916
 30
0.0
 10
14.6513477407
 20
12.2724034085
 30
0.0
 10
14.6515854673
 20
12.2703731416
 30
0.0
 10
14.6517341755
 20
12.2693767647
 30
0.0
  0
LINE
  5
2F8
100
AcDbEntity
  8
LAYER_FEATURE
100
AcDbLine
 62
7
  6
CONTINUOUS
 10
14.6543470245
 20
12.2942548001
 11
14.653616465
 21
12.2926519317
  0
SPLINE
  5
2F9
100
AcDbEntity
  8
LAYER_FEATURE
100
AcDbSpline
 62
7
  6
CONTINUOUS
 70
0
 71
3
 72
9
 73
5
 74
0
 42
0.0000001
 43
0.0000001
 44
0.0000000001
 40
0.0
 40
0.0
 40
0.0
 40
0.0
 40
0.4840729617
 40
1.0
 40
1.0
 40
1.0
 40
1.0
 10
14.6600425842
 20
12.3040635749
 30
0.0
 10
14.6606568358
 20
12.305058459
 30
0.0
 10
14.6618519399
 20
12.3071597861
 30
0.0
 10
14.6629164525
 20
12.3093295379
 30
0.0
 10
14.6634358457
 20
12.3104623097
 30
0.0
  0
SPLINE
  5
2FA
100
AcDbEntity
  8
LAYER_FEATURE
100
AcDbSpline
 62
7
  6
CONTINUOUS
 70
0
 71
3
 72
15
 73
11
 74
0
 42
0.0000001
 43
0.0000001
 44
0.0000000001
 40
0.0
 40
0.0
 40
0.0
 40
0.0
 40
0.1076174276
 40
0.220935719
 40
0.3396495715
 40
0.4633980109
 40
0.5917726685
 40
0.7243247727
 40
0.8605712209
 40
1.0
 40
1.0
 40
1.0
 40
1.0
 10
14.6634358457
 20
12.3104623097
 30
0.0
 10
14.6638711311
 20
12.3114116465
 30
0.0
 10
14.6647121635
 20
12.3133850388
 30
0.0
 10
14.6658603235
 20
12.3164758226
 30
0.0
 10
14.6669233512
 20
12.3197618079
 30
0.0
 10
14.6678961866
 20
12.3232274848
 30
0.0
 10
14.6687742442
 20
12.3268566133
 30
0.0
 10
14.6695533613
 20
12.3306321258
 30
0.0
 10
14.670229838
 20
12.3345362012
 30
0.0
 10
14.670606408
 20
12.3371853225
 30
0.0
 10
14.6707774896
 20
12.3385275487
 30
0.0
  0
SPLINE
  5
2FB
100
AcDbEntity
  8
LAYER_FEATURE
100
AcDbSpline
 62
7
  6
CONTINUOUS
 70
0
 71
3
 72
23
 73
19
 74
0
 42
0.0000001
 43
0.0000001
 44
0.0000000001
 40
0.0
 40
0.0
 40
0.0
 40
0.0
 40
0.0655415499
 40
0.1321013502
 40
0.1993714351
 40
0.2670408633
 40
0.3347937861
 40
0.4023144099
 40
0.4692885391
 40
0.5354064894
 40
0.6003655707
 40
0.6638727968
 40
0.7256477051
 40
0.7854252607
 40
0.8429593777
 40
0.8980258403
 40
0.9504283034
 40
1.0
 40
1.0
 40
1.0
 40
1.0
 10
14.6707774896
 20
12.3385275487
 30
0.0
 10
14.6709437558
 20
12.3398319954
 30
0.0
 10
14.6712371964
 20
12.3424666343
 30
0.0
 10
14.671559392
 20
12.3464543125
 30
0.0
 10
14.671765904
 20
12.350492425
 30
0.0
 10
14.6718555956
 20
12.3545587424
 30
0.0
 10
14.6718279647
 20
12.3586309829
 30
0.0
 10
14.6716831684
 20
12.362686788
 30
0.0
 10
14.671422005
 20
12.3667039072
 30
0.0
 10
14.6710459196
 20
12.3706603011
 30
0.0
 10
14.6705569903
 20
12.3745342722
 30
0.0
 10
14.6699579196
 20
12.3783045854
 30
0.0
 10
14.6692520153
 20
12.3819505867
 30
0.0
 10
14.6684431738
 20
12.3854523311
 30
0.0
 10
14.667535853
 20
12.388790666
 30
0.0
 10
14.6665350309
 20
12.3919474415
 30
0.0
 10
14.6654462374
 20
12.3949053381
 30
0.0
 10
14.6646425784
 20
12.3967881535
 30
0.0
 10
14.6642254293
 20
12.3976910325
 30
0.0
  0
SPLINE
  5
2FC
100
AcDbEntity
  8
LAYER_FEATURE
100
AcDbSpline
 62
7
  6
CONTINUOUS
 70
0
 71
3
 72
11
 73
7
 74
0
 42
0.0000001
 43
0.0000001
 44
0.0000000001
 40
0.0
 40
0.0
 40
0.0
 40
0.0
 40
0.2737798966
 40
0.5317735783
 40
0.7738127396
 40
1.0
 40
1.0
 40
1.0
 40
1.0
 10
14.6642254293
 20
12.3976910325
 30
0.0
 10
14.6638308416
 20
12.3985450797
 30
0.0
 10
14.6630232988
 20
12.4001854347
 30
0.0
 10
14.6617144076
 20
12.4025018881
 30
0.0
 10
14.660348769
 20
12.4045927502
 30
0.0
 10
14.6593713618
 20
12.405873348
 30
0.0
 10
14.6588733029
 20
12.4064700538
 30
0.0
  0
SPLINE
  5
2FD
100
AcDbEntity
  8
LAYER_FEATURE
100
AcDbSpline
 62
7
  6
CONTINUOUS
 70
0
 71
3
 72
15
 73
11
 74
0
 42
0.0000001
 43
0.0000001
 44
0.0000000001
 40
0.0
 40
0.0
 40
0.0
 40
0.0
 40
0.1460610135
 40
0.2851144714
 40
0.417487925
 40
0.5436528203
 40
0.6641961821
 40
0.7798396959
 40
0.8914444039
 40
1.0
 40
1.0
 40
1.0
 40
1.0
 10
14.6588733029
 20
12.4064700538
 30
0.0
 10
14.6584779797
 20
12.4069436757
 30
0.0
 10
14.6576798521
 20
12.4078466267
 30
0.0
 10
14.6564289724
 20
12.4090913269
 30
0.0
 10
14.6551566874
 20
12.4101898078
 30
0.0
 10
14.6538654801
 20
12.4111396367
 30
0.0
 10
14.6525577652
 20
12.4119387076
 30
0.0
 10
14.6512359819
 20
12.4125850643
 30
0.0
 10
14.6499030142
 20
12.4130768919
 30
0.0
 10
14.6489987524
 20
12.4133032634
 30
0.0
 10
14.648548329
 20
12.4133890101
 30
0.0
  0
SPLINE
  5
2FE
100
AcDbEntity
  8
LAYER_FEATURE
100
AcDbSpline
 62
7
  6
CONTINUOUS
 70
0
 71
3
 72
11
 73
7
 74
0
 42
0.0000001
 43
0.0000001
 44
0.0000000001
 40
0.0
 40
0.0
 40
0.0
 40
0.0
 40
0.2667840712
 40
0.5195484191
 40
0.7623596121
 40
1.0
 40
1.0
 40
1.0
 40
1.0
 10
14.6404753246
 20
12.4137907931
 30
0.0
 10
14.6405827945
 20
12.4137197611
 30
0.0
 10
14.640800446
 20
12.4135934185
 30
0.0
 10
14.6411419751
 20
12.4134527951
 30
0.0
 10
14.6414870974
 20
12.4133679036
 30
0.0
 10
14.641719511
 20
12.4133489044
 30
0.0
 10
14.641834261
 20
12.4133489018
 30
0.0
  0
SPLINE
  5
2FF
100
AcDbEntity
  8
LAYER_FEATURE
100
AcDbSpline
 62
7
  6
CONTINUOUS
 70
0
 71
3
 72
22
 73
18
 74
0
 42
0.0000001
 43
0.0000001
 44
0.0000000001
 40
0.0
 40
0.0
 40
0.0
 40
0.0
 40
0.1606540573
 40
0.2388170414
 40
0.3151019766
 40
0.3891983445
 40
0.4608176069
 40
0.5296934354
 40
0.5955849657
 40
0.658282291
 40
0.7176122922
 40
0.773445192
 40
0.8257034799
 40
0.8743731424
 40
0.9195174192
 40
0.961302086
 40
1.0
 40
1.0
 40
1.0
 40
1.0
 10
14.634178001
 20
12.4312146984
 30
0.0
 10
14.6342489089
 20
12.4301988892
 30
0.0
 10
14.634396625
 20
12.428691247
 30
0.0
 10
14.6346819534
 20
12.4267142754
 30
0.0
 10
14.6349341614
 20
12.425287532
 30
0.0
 10
14.6352252191
 20
12.4239105684
 30
0.0
 10
14.6355536435
 20
12.422590343
 30
0.0
 10
14.6359177564
 20
12.4213335309
 30
0.0
 10
14.6363157115
 20
12.4201464692
 30
0.0
 10
14.6367454986
 20
12.4190351309
 30
0.0
 10
14.6372049541
 20
12.4180050803
 30
0.0
 10
14.6376917876
 20
12.4170614475
 30
0.0
 10
14.6382036236
 20
12.4162089011
 30
0.0
 10
14.6387380118
 20
12.4154516615
 30
0.0
 10
14.6392925422
 20
12.4147933789
 30
0.0
 10
14.6398646378
 20
12.4142375028
 30
0.0
 10
14.6402707002
 20
12.4139260392
 30
0.0
 10
14.6404753246
 20
12.4137907931
 30
0.0
  0
SPLINE
  5
300
100
AcDbEntity
  8
LAYER_FEATURE
100
AcDbSpline
 62
7
  6
CONTINUOUS
 70
0
 71
3
 72
20
 73
16
 74
0
 42
0.0000001
 43
0.0000001
 44
0.0000000001
 40
0.0
 40
0.0
 40
0.0
 40
0.0
 40
0.0437987123
 40
0.0907844642
 40
0.1409236195
 40
0.194142111
 40
0.2503147203
 40
0.3092804876
 40
0.3708474299
 40
0.4347970962
 40
0.5008887875
 40
0.568862725
 40
0.7093263591
 40
0.8538605083
 40
1.0
 40
1.0
 40
1.0
 40
1.0
 10
14.6378247675
 20
12.4729227239
 30
0.0
 10
14.6376374416
 20
12.4726716033
 30
0.0
 10
14.6372714414
 20
12.472134244
 30
0.0
 10
14.6367647439
 20
12.4712620231
 30
0.0
 10
14.6362835261
 20
12.4702995779
 30
0.0
 10
14.635830193
 20
12.4692518095
 30
0.0
 10
14.6354070006
 20
12.4681238845
 30
0.0
 10
14.6350160784
 20
12.4669214791
 30
0.0
 10
14.6346594024
 20
12.4656506411
 30
0.0
 10
14.6343387921
 20
12.4643177842
 30
0.0
 10
14.634055872
 20
12.4629296339
 30
0.0
 10
14.6337272918
 20
12.4609933114
 30
0.0
 10
14.6334228222
 20
12.4584852102
 30
0.0
 10
14.6332282945
 20
12.4554059216
 30
0.0
 10
14.6332126276
 20
12.4533255124
 30
0.0
 10
14.6332337428
 20
12.4522803868
 30
0.0
  0
LINE
  5
301
100
AcDbEntity
  8
LAYER_FEATURE
100
AcDbLine
 62
7
  6
CONTINUOUS
 10
14.6387124551
 20
12.4738674179
 11
14.6378247675
 21
12.4729227239
  0
SPLINE
  5
302
100
AcDbEntity
  8
LAYER_FEATURE
100
AcDbSpline
 62
7
  6
CONTINUOUS
 70
0
 71
3
 72
9
 73
5
 74
0
 42
0.0000001
 43
0.0000001
 44
0.0000000001
 40
0.0
 40
0.0
 40
0.0
 40
0.0
 40
0.2446471296
 40
1.0
 40
1.0
 40
1.0
 40
1.0
 10
14.6453096117
 20
12.4786764925
 30
0.0
 10
14.6447517143
 20
12.4783128923
 30
0.0
 10
14.642491485
 20
12.4767958196
 30
0.0
 10
14.6403121485
 20
12.4751590585
 30
0.0
 10
14.6387124551
 20
12.4738674179
 30
0.0
  0
SPLINE
  5
303
100
AcDbEntity
  8
LAYER_FEATURE
100
AcDbSpline
 62
7
  6
CONTINUOUS
 70
0
 71
3
 72
10
 73
6
 74
0
 42
0.0000001
 43
0.0000001
 44
0.0000000001
 40
0.0
 40
0.0
 40
0.0
 40
0.0
 40
0.4809709785
 40
0.7355019873
 40
1.0
 40
1.0
 40
1.0
 40
1.0
 10
14.6453096117
 20
12.4786764925
 30
0.0
 10
14.6460151736
 20
12.4791363307
 30
0.0
 10
14.6470458443
 20
12.4799160035
 30
0.0
 10
14.6483467129
 20
12.4810886625
 30
0.0
 10
14.6489882468
 20
12.4817331956
 30
0.0
 10
14.6493067989
 20
12.4820693799
 30
0.0
  0
SPLINE
  5
304
100
AcDbEntity
  8
LAYER_FEATURE
100
AcDbSpline
 62
7
  6
CONTINUOUS
 70
0
 71
3
 72
15
 73
11
 74
0
 42
0.0000001
 43
0.0000001
 44
0.0000000001
 40
0.0
 40
0.0
 40
0.0
 40
0.0
 40
0.0989770877
 40
0.2054288583
 40
0.3195086803
 40
0.4412105446
 40
0.5703980916
 40
0.7068273409
 40
0.8501644856
 40
1.0
 40
1.0
 40
1.0
 40
1.0
 10
14.6493067989
 20
12.4820693799
 30
0.0
 10
14.6498400716
 20
12.4826321698
 30
0.0
 10
14.6508883473
 20
12.4838565524
 30
0.0
 10
14.6523525843
 20
12.4858891883
 30
0.0
 10
14.6537586223
 20
12.4881741613
 30
0.0
 10
14.6550999845
 20
12.4907007481
 30
0.0
 10
14.6563706429
 20
12.493457379
 30
0.0
 10
14.657564709
 20
12.4964312718
 30
0.0
 10
14.6586765983
 20
12.4996085218
 30
0.0
 10
14.6593455228
 20
12.5018061707
 30
0.0
 10
14.6596664007
 20
12.5029351587
 30
0.0
  0
SPLINE
  5
305
100
AcDbEntity
  8
LAYER_FEATURE
100
AcDbSpline
 62
7
  6
CONTINUOUS
 70
0
 71
3
 72
23
 73
19
 74
0
 42
0.0000001
 43
0.0000001
 44
0.0000000001
 40
0.0
 40
0.0
 40
0.0
 40
0.0
 40
0.0563238675
 40
0.1147696748
 40
0.1750926655
 40
0.2370330607
 40
0.3003153211
 40
0.3646530504
 40
0.4297508387
 40
0.4953071435
 40
0.5610166996
 40
0.6265730122
 40
0.6916708391
 40
0.7560085584
 40
0.8192909936
 40
0.8812311139
 40
0.9415548579
 40
1.0
 40
1.0
 40
1.0
 40
1.0
 10
14.6596664007
 20
12.5029351587
 30
0.0
 10
14.659984996
 20
12.5040561157
 30
0.0
 10
14.6605866357
 20
12.5063539985
 30
0.0
 10
14.6613716175
 20
12.5098914008
 30
0.0
 10
14.6620527035
 20
12.5135685104
 30
0.0
 10
14.6626261231
 20
12.5173650993
 30
0.0
 10
14.6630887082
 20
12.521260406
 30
0.0
 10
14.6634379048
 20
12.5252330613
 30
0.0
 10
14.6636717809
 20
12.5292612809
 30
0.0
 10
14.6637890444
 20
12.533322963
 30
0.0
 10
14.6637890465
 20
12.5373958206
 30
0.0
 10
14.6636717877
 20
12.541457504
 30
0.0
 10
14.6634379153
 20
12.5454857242
 30
0.0
 10
14.6630887242
 20
12.5494583855
 30
0.0
 10
14.6626261416
 20
12.5533536855
 30
0.0
 10
14.6620527263
 20
12.5571503054
 30
0.0
 10
14.6613716515
 20
12.5608273528
 30
0.0
 10
14.6608391581
 20
12.5632269855
 30
0.0
 10
14.6605545704
 20
12.5644022631
 30
0.0
  0
SPLINE
  5
306
100
AcDbEntity
  8
LAYER_FEATURE
100
AcDbSpline
 62
7
  6
CONTINUOUS
 70
0
 71
3
 72
11
 73
7
 74
0
 42
0.0000001
 43
0.0000001
 44
0.0000000001
 40
0.0
 40
0.0
 40
0.0
 40
0.0
 40
0.2652713283
 40
0.5208470318
 40
0.7659758287
 40
1.0
 40
1.0
 40
1.0
 40
1.0
 10
14.6605545704
 20
12.5644022631
 30
0.0
 10
14.6602790622
 20
12.5655400448
 30
0.0
 10
14.6597012027
 20
12.5677653156
 30
0.0
 10
14.6587342275
 20
12.5710051741
 30
0.0
 10
14.6576864714
 20
12.5740745208
 30
0.0
 10
14.6569186778
 20
12.5760456439
 30
0.0
 10
14.6565208358
 20
12.576998707
 30
0.0
  0
SPLINE
  5
307
100
AcDbEntity
  8
LAYER_FEATURE
100
AcDbSpline
 62
7
  6
CONTINUOUS
 70
0
 71
3
 72
15
 73
11
 74
0
 42
0.0000001
 43
0.0000001
 44
0.0000000001
 40
0.0
 40
0.0
 40
0.0
 40
0.0
 40
0.1507834787
 40
0.2942731217
 40
0.4303030574
 40
0.5588039186
 40
0.6798015108
 40
0.7934431914
 40
0.9000232642
 40
1.0
 40
1.0
 40
1.0
 40
1.0
 10
14.6565208358
 20
12.576998707
 30
0.0
 10
14.6561042447
 20
12.577996685
 30
0.0
 10
14.6552511093
 20
12.5799280068
 30
0.0
 10
14.6538745435
 20
12.5826914869
 30
0.0
 10
14.6524367407
 20
12.585241929
 30
0.0
 10
14.6509426066
 20
12.5875705418
 30
0.0
 10
14.6493970789
 20
12.5896693773
 30
0.0
 10
14.6478050899
 20
12.5915313467
 30
0.0
 10
14.6461719257
 20
12.5931497682
 30
0.0
 10
14.6450240928
 20
12.5940910664
 30
0.0
 10
14.6444454956
 20
12.5945145988
 30
0.0
  0
LINE
  5
308
100
AcDbEntity
  8
LAYER_FEATURE
100
AcDbLine
 62
7
  6
CONTINUOUS
 10
14.6399042737
 20
12.5985605792
 11
14.6411884842
 21
12.5970249893
  0
SPLINE
  5
309
100
AcDbEntity
  8
LAYER_FEATURE
100
AcDbSpline
 62
7
  6
CONTINUOUS
 70
0
 71
3
 72
20
 73
16
 74
0
 42
0.0000001
 43
0.0000001
 44
0.0000000001
 40
0.0
 40
0.0
 40
0.0
 40
0.0
 40
0.1410693105
 40
0.2820348528
 40
0.4204766574
 40
0.4880196901
 40
0.5540614408
 40
0.6183328913
 40
0.6805799092
 40
0.7405659114
 40
0.7980753791
 40
0.8529173508
 40
0.9049285973
 40
0.9539875933
 40
1.0
 40
1.0
 40
1.0
 40
1.0
 10
14.6360119014
 20
12.6201288431
 30
0.0
 10
14.6359560407
 20
12.61908673
 30
0.0
 10
14.6359032284
 20
12.6169996589
 30
0.0
 10
14.6359961954
 20
12.6138889688
 30
0.0
 10
14.6362169194
 20
12.6113301893
 30
0.0
 10
14.6364797824
 20
12.6093347551
 30
0.0
 10
14.6367159457
 20
12.6078899638
 30
0.0
 10
14.6369914975
 20
12.6064920678
 30
0.0
 10
14.6373050387
 20
12.6051481322
 30
0.0
 10
14.6376549654
 20
12.6038649553
 30
0.0
 10
14.6380395015
 20
12.6026490118
 30
0.0
 10
14.6384567004
 20
12.6015064442
 30
0.0
 10
14.638904458
 20
12.6004429289
 30
0.0
 10
14.6393805162
 20
12.5994638912
 30
0.0
 10
14.6397264137
 20
12.5988508085
 30
0.0
 10
14.6399042737
 20
12.5985605792
 30
0.0
  0
SPLINE
  5
30A
100
AcDbEntity
  8
LAYER_FEATURE
100
AcDbSpline
 62
7
  6
CONTINUOUS
 70
0
 71
3
 72
22
 73
18
 74
0
 42
0.0000001
 43
0.0000001
 44
0.0000000001
 40
0.0
 40
0.0
 40
0.0
 40
0.0
 40
0.037606854
 40
0.0779247976
 40
0.1214240576
 40
0.1684319209
 40
0.2191397287
 40
0.2736332685
 40
0.3319123267
 40
0.3939068397
 40
0.4594895608
 40
0.5284853759
 40
0.6006792158
 40
0.6758230939
 40
0.7536404155
 40
0.8338268293
 40
1.0
 40
1.0
 40
1.0
 40
1.0
 10
14.6444991964
 20
12.6569016966
 30
0.0
 10
14.6442921649
 20
12.6568120984
 30
0.0
 10
14.6438779432
 20
12.6565910198
 30
0.0
 10
14.6432878811
 20
12.6561607833
 30
0.0
 10
14.6427125399
 20
12.6556246587
 30
0.0
 10
14.6421544888
 20
12.6549856994
 30
0.0
 10
14.6416160686
 20
12.6542470545
 30
0.0
 10
14.6410997424
 20
12.6534123827
 30
0.0
 10
14.6406079488
 20
12.6524857845
 30
0.0
 10
14.6401430897
 20
12.6514718387
 30
0.0
 10
14.6397074748
 20
12.6503755892
 30
0.0
 10
14.6393032871
 20
12.6492025259
 30
0.0
 10
14.6389325658
 20
12.6479585427
 30
0.0
 10
14.6385971991
 20
12.6466499126
 30
0.0
 10
14.6382988909
 20
12.6452832358
 30
0.0
 10
14.637948468
 20
12.6433702052
 30
0.0
 10
14.6377525021
 20
12.6419042036
 30
0.0
 10
14.6376488379
 20
12.6409128051
 30
0.0
  0
SPLINE
  5
30B
100
AcDbEntity
  8
LAYER_FEATURE
100
AcDbSpline
 62
7
  6
CONTINUOUS
 70
0
 71
3
 72
15
 73
11
 74
0
 42
0.0000001
 43
0.0000001
 44
0.0000000001
 40
0.0
 40
0.0
 40
0.0
 40
0.0
 40
0.100342644
 40
0.2062985425
 40
0.3188649853
 40
0.438791877
 40
0.566609074
 40
0.7026522979
 40
0.8471047054
 40
1.0
 40
1.0
 40
1.0
 40
1.0
 10
14.658471595
 20
12.6570749796
 30
0.0
 10
14.6589506061
 20
12.6572695784
 30
0.0
 10
14.6599090631
 20
12.6577370394
 30
0.0
 10
14.6612915942
 20
12.6586308063
 30
0.0
 10
14.6626493604
 20
12.6597299307
 30
0.0
 10
14.6639779868
 20
12.6610300779
 30
0.0
 10
14.6652735897
 20
12.6625266851
 30
0.0
 10
14.6665321727
 20
12.6642146633
 30
0.0
 10
14.6677496701
 20
12.6660882653
 30
0.0
 10
14.6685099394
 20
12.6674194656
 30
0.0
 10
14.6688834269
 20
12.6681131229
 30
0.0
  0
SPLINE
  5
30C
100
AcDbEntity
  8
LAYER_FEATURE
100
AcDbSpline
 62
7
  6
CONTINUOUS
 70
0
 71
3
 72
23
 73
19
 74
0
 42
0.0000001
 43
0.0000001
 44
0.0000000001
 40
0.0
 40
0.0
 40
0.0
 40
0.0
 40
0.0475131383
 40
0.0980417722
 40
0.1514545903
 40
0.2075836722
 40
0.2662276382
 40
0.3271584819
 40
0.3901251738
 40
0.4548576327
 40
0.5210699672
 40
0.588463536
 40
0.6567298375
 40
0.7255531189
 40
0.7946133997
 40
0.8635880438
 40
0.9321568568
 40
1.0
 40
1.0
 40
1.0
 40
1.0
 10
14.6688834269
 20
12.6681131229
 30
0.0
 10
14.6693268058
 20
12.6689365855
 30
0.0
 10
14.6701849139
 20
12.6706667512
 30
0.0
 10
14.6713557793
 20
12.6734098395
 30
0.0
 10
14.672444619
 20
12.676367848
 30
0.0
 10
14.6734454339
 20
12.6795245748
 30
0.0
 10
14.6743527596
 20
12.6828629175
 30
0.0
 10
14.6751616052
 20
12.6863646513
 30
0.0
 10
14.675867513
 20
12.690010649
 30
0.0
 10
14.6764665882
 20
12.6937809575
 30
0.0
 10
14.6769555214
 20
12.6976549251
 30
0.0
 10
14.6773316115
 20
12.7016113166
 30
0.0
 10
14.6775927784
 20
12.705628433
 30
0.0
 10
14.6777375807
 20
12.7096842402
 30
0.0
 10
14.677765213
 20
12.7137564719
 30
0.0
 10
14.6776755296
 20
12.7178228123
 30
0.0
 10
14.6774690193
 20
12.7218608774
 30
0.0
 10
14.6772527401
 20
12.7245377406
 30
0.0
 10
14.6771248865
 20
12.7258670195
 30
0.0
  0
SPLINE
  5
30D
100
AcDbEntity
  8
LAYER_FEATURE
100
AcDbSpline
 62
7
  6
CONTINUOUS
 70
0
 71
3
 72
11
 73
7
 74
0
 42
0.0000001
 43
0.0000001
 44
0.0000000001
 40
0.0
 40
0.0
 40
0.0
 40
0.0
 40
0.2576054387
 40
0.5107321448
 40
0.7584835351
 40
1.0
 40
1.0
 40
1.0
 40
1.0
 10
14.6771248865
 20
12.7258670195
 30
0.0
 10
14.6769985668
 20
12.7271803498
 30
0.0
 10
14.6767132581
 20
12.7297809724
 30
0.0
 10
14.6761823495
 20
12.7336297978
 30
0.0
 10
14.6755540458
 20
12.7373804231
 30
0.0
 10
14.6750652801
 20
12.7398386948
 30
0.0
 10
14.6748043937
 20
12.7410478582
 30
0.0
  0
SPLINE
  5
30E
100
AcDbEntity
  8
LAYER_FEATURE
100
AcDbSpline
 62
7
  6
CONTINUOUS
 70
0
 71
3
 72
15
 73
11
 74
0
 42
0.0000001
 43
0.0000001
 44
0.0000000001
 40
0.0
 40
0.0
 40
0.0
 40
0.0
 40
0.141771958
 40
0.2793598623
 40
0.412412502
 40
0.5406190765
 40
0.6636978748
 40
0.7814077096
 40
0.8935569147
 40
1.0
 40
1.0
 40
1.0
 40
1.0
 10
14.6748043937
 20
12.7410478582
 30
0.0
 10
14.6745256024
 20
12.7423400074
 30
0.0
 10
14.6739401573
 20
12.7448785714
 30
0.0
 10
14.6729625387
 20
12.748598183
 30
0.0
 10
14.6719012118
 20
12.7521631038
 30
0.0
 10
14.6707599193
 20
12.7555608948
 30
0.0
 10
14.6695426111
 20
12.7587797882
 30
0.0
 10
14.6682535109
 20
12.7618086964
 30
0.0
 10
14.6668971166
 20
12.7646370235
 30
0.0
 10
14.6659253565
 20
12.7664298757
 30
0.0
 10
14.6654278706
 20
12.7672886636
 30
0.0
  0
LINE
  5
30F
100
AcDbEntity
  8
LAYER_FEATURE
100
AcDbLine
 62
7
  6
CONTINUOUS
 10
14.6615957925
 20
12.774740237
 11
14.6626323612
 21
12.7722607386
  0
SPLINE
  5
310
100
AcDbEntity
  8
LAYER_FEATURE
100
AcDbSpline
 62
7
  6
CONTINUOUS
 70
0
 71
3
 72
17
 73
13
 74
0
 42
0.0000001
 43
0.0000001
 44
0.0000000001
 40
0.0
 40
0.0
 40
0.0
 40
0.0
 40
0.123658852
 40
0.2521037552
 40
0.3831658552
 40
0.5145919165
 40
0.6441190416
 40
0.7695415278
 40
0.8300653662
 40
0.8887965983
 40
0.945514645
 40
1.0
 40
1.0
 40
1.0
 40
1.0
 10
14.6604893843
 20
12.7983416077
 30
0.0
 10
14.6603072836
 20
12.797375898
 30
0.0
 10
14.6600023837
 20
12.7953941492
 30
0.0
 10
14.6597197159
 20
12.7923606514
 30
0.0
 10
14.6596063808
 20
12.7892543066
 30
0.0
 10
14.6596647269
 20
12.7861378707
 30
0.0
 10
14.6598935813
 20
12.7830742481
 30
0.0
 10
14.6602262033
 20
12.7805875711
 30
0.0
 10
14.6605767536
 20
12.7786746478
 30
0.0
 10
14.6608751568
 20
12.7773080763
 30
0.0
 10
14.6612106102
 20
12.7759996157
 30
0.0
 10
14.6614631636
 20
12.775152425
 30
0.0
 10
14.6615957925
 20
12.774740237
 30
0.0
  0
SPLINE
  5
311
100
AcDbEntity
  8
LAYER_FEATURE
100
AcDbSpline
 62
7
  6
CONTINUOUS
 70
0
 71
3
 72
82
 73
78
 74
0
 42
0.0000001
 43
0.0000001
 44
0.0000000001
 40
0.0
 40
0.0
 40
0.0
 40
0.0
 40
0.0175845463
 40
0.0355903295
 40
0.0539953928
 40
0.0727766506
 40
0.0919098019
 40
0.1113695469
 40
0.1311296441
 40
0.1511630222
 40
0.1714418665
 40
0.1919377083
 40
0.2126215098
 40
0.2334637468
 40
0.2544344897
 40
0.2755034833
 40
0.2966402247
 40
0.3178140414
 40
0.3389941683
 40
0.3601498247
 40
0.3812502906
 40
0.4022649845
 40
0.42316354
 40
0.4439158845
 40
0.4644923179
 40
0.4848635932
 40
0.5050009981
 40
0.5248764395
 40
0.5444625299
 40
0.5637326779
 40
0.5826611816
 40
0.6012233282
 40
0.619395499
 40
0.6371552821
 40
0.6544815946
 40
0.6713548161
 40
0.687756936
 40
0.7036717178
 40
0.719084885
 40
0.7339843318
 40
0.7483603648
 40
0.7622059819
 40
0.7755171961
 40
0.7882934113
 40
0.8005378575
 40
0.8122580936
 40
0.8234665789
 40
0.8341813103
 40
0.8444265072
 40
0.8542333074
 40
0.8636404057
 40
0.8682094179
 40
0.8726967324
 40
0.8771094677
 40
0.8814552499
 40
0.8857421695
 40
0.8899787664
 40
0.8941739673
 40
0.8983370435
 40
0.9024775329
 40
0.9066051721
 40
0.9107298089
 40
0.9148613183
 40
0.9190095152
 40
0.9231840667
 40
0.9273944163
 40
0.9316497056
 40
0.9359587179
 40
0.9403298193
 40
0.944770924
 40
0.9492894591
 40
0.9585839689
 40
0.968264845
 40
0.9783731839
 40
0.9835990806
 40
0.9889437423
 40
1.0
 40
1.0
 40
1.0
 40
1.0
 10
14.6675332491
 20
12.9179595221
 30
0.0
 10
14.6653181518
 20
12.9107914647
 30
0.0
 10
14.6610106985
 20
12.8962287566
 30
0.0
 10
14.6549813739
 20
12.8739925487
 30
0.0
 10
14.6493151075
 20
12.8511346521
 30
0.0
 10
14.6440216588
 20
12.827694334
 30
0.0
 10
14.6391100916
 20
12.8037116121
 30
0.0
 10
14.6345888314
 20
12.7792275283
 30
0.0
 10
14.6304656335
 20
12.7542839626
 30
0.0
 10
14.6267475711
 20
12.7289235976
 30
0.0
 10
14.6234410236
 20
12.7031898324
 30
0.0
 10
14.6205516645
 20
12.6771267111
 30
0.0
 10
14.6180844518
 20
12.6507788455
 30
0.0
 10
14.6160436195
 20
12.6241913384
 30
0.0
 10
14.6144326697
 20
12.5974097055
 30
0.0
 10
14.613254367
 20
12.5704797971
 30
0.0
 10
14.6125107337
 20
12.5434477186
 30
0.0
 10
14.6122030459
 20
12.5163597518
 30
0.0
 10
14.6123318317
 20
12.4892622745
 30
0.0
 10
14.6128968701
 20
12.462201681
 30
0.0
 10
14.6138971913
 20
12.4352243019
 30
0.0
 10
14.6153310787
 20
12.4083763249
 30
0.0
 10
14.6171960715
 20
12.3817037142
 30
0.0
 10
14.6194889691
 20
12.3552521324
 30
0.0
 10
14.6222058369
 20
12.3290668609
 30
0.0
 10
14.6253420127
 20
12.3031927222
 30
0.0
 10
14.6288921151
 20
12.2776740024
 30
0.0
 10
14.632850053
 20
12.2525543745
 30
0.0
 10
14.6372090358
 20
12.2278768228
 30
0.0
 10
14.6419615863
 20
12.2036835684
 30
0.0
 10
14.6470995532
 20
12.1800159958
 30
0.0
 10
14.6526141261
 20
12.1569145805
 30
0.0
 10
14.6584958517
 20
12.1344188186
 30
0.0
 10
14.6647346512
 20
12.1125671573
 30
0.0
 10
14.6713198395
 20
12.0913969273
 30
0.0
 10
14.6782401454
 20
12.0709442768
 30
0.0
 10
14.6854837351
 20
12.0512441074
 30
0.0
 10
14.693038236
 20
12.032330012
 30
0.0
 10
14.700890764
 20
12.014234215
 30
0.0
 10
14.7090279535
 20
11.9969875153
 30
0.0
 10
14.7174359902
 20
11.9806192325
 30
0.0
 10
14.726100648
 20
11.965157158
 30
0.0
 10
14.7350073301
 20
11.9506275106
 30
0.0
 10
14.7441411144
 20
11.9370549019
 30
0.0
 10
14.7534868052
 20
11.9244623097
 30
0.0
 10
14.7630289783
 20
11.912871073
 30
0.0
 10
14.7727520574
 20
11.9023008901
 30
0.0
 10
14.7826402688
 20
11.8927698985
 30
0.0
 10
14.7926779599
 20
11.8842945908
 30
0.0
 10
14.8028485255
 20
11.8768904308
 30
0.0
 10
14.8115054125
 20
11.8715729175
 30
0.0
 10
14.81847095
 20
11.8678891846
 30
0.0
 10
14.82366626
 20
11.8654284159
 30
0.0
 10
14.8288807302
 20
11.8632443303
 30
0.0
 10
14.834112185
 20
11.8613378425
 30
0.0
 10
14.8393583634
 20
11.8597099222
 30
0.0
 10
14.8446169671
 20
11.8583612865
 30
0.0
 10
14.8498857048
 20
11.8572926566
 30
0.0
 10
14.855162234
 20
11.8565044932
 30
0.0
 10
14.8604442184
 20
11.8559972568
 30
0.0
 10
14.8657292901
 20
11.8557711358
 30
0.0
 10
14.8710150832
 20
11.8558263095
 30
0.0
 10
14.8762992269
 20
11.8561626881
 30
0.0
 10
14.8815793509
 20
11.8567801594
 30
0.0
 10
14.8868531053
 20
11.8576783612
 30
0.0
 10
14.8921181423
 20
11.8588568938
 30
0.0
 10
14.8973721487
 20
11.8603151382
 30
0.0
 10
14.9026128234
 20
11.8620524246
 30
0.0
 10
14.9078378763
 20
11.8640678854
 30
0.0
 10
14.9130451388
 20
11.8663606474
 30
0.0
 10
14.9200263245
 20
11.8698180305
 30
0.0
 10
14.9287079528
 20
11.8748545799
 30
0.0
 10
14.9389156826
 20
11.881930397
 30
0.0
 10
14.947221967
 20
11.8886474614
 30
0.0
 10
14.9537963648
 20
11.8945330728
 30
0.0
 10
14.9604692872
 20
11.9009077103
 30
0.0
 10
14.9653007073
 20
11.9059770706
 30
0.0
 10
14.9684597352
 20
11.9094802782
 30
0.0
  0
SPLINE
  5
312
100
AcDbEntity
  8
LAYER_FEATURE
100
AcDbSpline
 62
7
  6
CONTINUOUS
 70
0
 71
3
 72
58
 73
54
 74
0
 42
0.0000001
 43
0.0000001
 44
0.0000000001
 40
0.0
 40
0.0
 40
0.0
 40
0.0
 40
0.047585489
 40
0.0939096182
 40
0.1389252114
 40
0.1825904958
 40
0.2248688407
 40
0.2657297559
 40
0.3051493914
 40
0.3431113716
 40
0.3796076702
 40
0.3973072902
 40
0.4146418527
 40
0.431613229
 40
0.4482239764
 40
0.4644775061
 40
0.480378017
 40
0.4959306571
 40
0.5111414804
 40
0.5260175889
 40
0.5405671198
 40
0.568720522
 40
0.5823507751
 40
0.5956988618
 40
0.6216016589
 40
0.6341944982
 40
0.6465705802
 40
0.6587496539
 40
0.6707528044
 40
0.6826023286
 40
0.6943216868
 40
0.7059353264
 40
0.7174685637
 40
0.728947369
 40
0.740398183
 40
0.7518476827
 40
0.7633225573
 40
0.7748492792
 40
0.7864538773
 40
0.7981617358
 40
0.8099974026
 40
0.8219844308
 40
0.8341452501
 40
0.8465010522
 40
0.8590717386
 40
0.8849250725
 40
0.89824615
 40
0.9118480594
 40
0.9257438836
 40
0.9399454647
 40
0.954463353
 40
0.9693069648
 40
1.0
 40
1.0
 40
1.0
 40
1.0
 10
14.6675332491
 20
12.9179595221
 30
0.0
 10
14.6696653645
 20
12.9248590499
 30
0.0
 10
14.6740322301
 20
12.93842674
 30
0.0
 10
14.6809900598
 20
12.9583308075
 30
0.0
 10
14.6882584154
 20
12.9774889306
 30
0.0
 10
14.6958251383
 20
12.9958691119
 30
0.0
 10
14.7036776895
 20
13.0134409007
 30
0.0
 10
14.7118030315
 20
13.0301751237
 30
0.0
 10
14.7201877696
 20
13.0460441324
 30
0.0
 10
14.7288179753
 20
13.0610214472
 30
0.0
 10
14.7362770531
 20
13.0728571492
 30
0.0
 10
14.7423607867
 20
13.0818483589
 30
0.0
 10
14.7469293088
 20
13.088284751
 30
0.0
 10
14.7515481097
 20
13.0944802542
 30
0.0
 10
14.7562153469
 20
13.1004322874
 30
0.0
 10
14.7609290468
 20
13.1061383913
 30
0.0
 10
14.7656872993
 20
13.1115961629
 30
0.0
 10
14.7704881197
 20
13.1168033591
 30
0.0
 10
14.7753295239
 20
13.1217577499
 30
0.0
 10
14.7802096287
 20
13.1264574078
 30
0.0
 10
14.7866936438
 20
13.1323164713
 30
0.0
 10
14.793317197
 20
13.1377343485
 30
0.0
 10
14.8000755268
 20
13.1426694377
 30
0.0
 10
14.8067319002
 20
13.1471546819
 30
0.0
 10
14.8135114625
 20
13.1511676545
 30
0.0
 10
14.8203963025
 20
13.154664861
 30
0.0
 10
14.825532055
 20
13.1569945847
 30
0.0
 10
14.8306856608
 20
13.1590542996
 30
0.0
 10
14.8358550545
 20
13.1608431907
 30
0.0
 10
14.8410380452
 20
13.1623603565
 30
0.0
 10
14.846232418
 20
13.163605153
 30
0.0
 10
14.8514359627
 20
13.1645769233
 30
0.0
 10
14.8566464226
 20
13.1652752655
 30
0.0
 10
14.8618615475
 20
13.1656997768
 30
0.0
 10
14.86707906
 20
13.1658503096
 30
0.0
 10
14.872296685
 20
13.1657267353
 30
0.0
 10
14.8775121449
 20
13.1653291622
 30
0.0
 10
14.8827231653
 20
13.1646577456
 30
0.0
 10
14.887927488
 20
13.1637128421
 30
0.0
 10
14.8931228648
 20
13.1624948858
 30
0.0
 10
14.8983070688
 20
13.1610044679
 30
0.0
 10
14.903477903
 20
13.1592422813
 30
0.0
 10
14.9086331487
 20
13.1572091518
 30
0.0
 10
14.9137707697
 20
13.1549059482
 30
0.0
 10
14.9206580255
 20
13.1514444358
 30
0.0
 10
14.927440914
 20
13.1474664074
 30
0.0
 10
14.9341010143
 20
13.1430153946
 30
0.0
 10
14.9391183037
 20
13.1393796301
 30
0.0
 10
14.9441051465
 20
13.1354817112
 30
0.0
 10
14.9490596424
 20
13.1313231541
 30
0.0
 10
14.9539798276
 20
13.1269057112
 30
0.0
 10
14.9605645245
 20
13.1206031786
 30
0.0
 10
14.9653342793
 20
13.1155954467
 30
0.0
 10
14.9684537163
 20
13.1121363824
 30
0.0
  0
SPLINE
  5
313
100
AcDbEntity
  8
LAYER_FEATURE
100
AcDbSpline
 62
7
  6
CONTINUOUS
 70
0
 71
3
 72
23
 73
19
 74
0
 42
0.0000001
 43
0.0000001
 44
0.0000000001
 40
0.0
 40
0.0
 40
0.0
 40
0.0
 40
0.0737077669
 40
0.1460529945
 40
0.2169947594
 40
0.2864994308
 40
0.3545339512
 40
0.4210685773
 40
0.4860768457
 40
0.5495355372
 40
0.6114251694
 40
0.6717302059
 40
0.7304393479
 40
0.7875459411
 40
0.8430484004
 40
0.8969505948
 40
0.9492623402
 40
1.0
 40
1.0
 40
1.0
 40
1.0
 10
15.7238810354
 20
12.980120519
 30
0.0
 10
15.7256298101
 20
12.985779556
 30
0.0
 10
15.7291883125
 20
12.9969644719
 30
0.0
 10
15.7347634365
 20
13.0134876155
 30
0.0
 10
15.7405225263
 20
13.0295893861
 30
0.0
 10
15.7464606649
 20
13.045256126
 30
0.0
 10
15.7525729339
 20
13.0604748299
 30
0.0
 10
15.7588541976
 20
13.075232735
 30
0.0
 10
15.7652991985
 20
13.089517499
 30
0.0
 10
15.7719025614
 20
13.1033171764
 30
0.0
 10
15.7786587639
 20
13.1166202353
 30
0.0
 10
15.7855621675
 20
13.1294155656
 30
0.0
 10
15.7926070255
 20
13.1416924778
 30
0.0
 10
15.7997874862
 20
13.1534407255
 30
0.0
 10
15.8070975693
 20
13.1646504978
 30
0.0
 10
15.8145312634
 20
13.1753124949
 30
0.0
 10
15.822082284
 20
13.1854176328
 30
0.0
 10
15.8272691703
 20
13.1918756315
 30
0.0
 10
15.8298818526
 20
13.1950057561
 30
0.0
  0
ENDSEC
  0
SECTION
  2
OBJECTS
  0
DICTIONARY
  5
C
100
AcDbDictionary
280
0
281
1
  3
ACAD_GROUP
350
D
  3
ACAD_MLINESTYLE
350
17
  3
ACAD_LAYOUT
350
1A
  3
ACAD_PLOTSETTINGS
350
19
  3
ACAD_PLOTSTYLENAME
350
E
  0
DICTIONARY
  5
D
102
{ACAD_REACTORS
330
C
102
}
100
AcDbDictionary
280
0
281
1
  0
ACDBDICTIONARYWDFLT
  5
E
102
{ACAD_REACTORS
330
C
102
}
100
AcDbDictionary
281
1
  3
Normal
350
F
100
AcDbDictionaryWithDefault
340
F
  0
DICTIONARY
  5
17
102
{ACAD_REACTORS
330
C
102
}
100
AcDbDictionary
280
0
281
1
  3
Standard
350
18
  0
DICTIONARY
  5
19
102
{ACAD_REACTORS
330
C
102
}
100
AcDbDictionary
281
1
  0
DICTIONARY
  5
1A
102
{ACAD_REACTORS
330
C
102
}
100
AcDbDictionary
281
1
  3
Model
350
314
  3
Layout1
350
315
  0
ACDBPLACEHOLDER
  5
F
102
{ACAD_REACTORS
330
E
102
}
  0
MLINESTYLE
  5
18
102
{ACAD_REACTORS
330
17
102
}
100
AcDbMlineStyle
  2
STANDARD
 70
0
  3

 62
256
 51
90.0
 52
90.0
 71
2
 49
0.5
 62
256
  6
BYLAYER
 49
-0.5
 62
256
  6
BYLAYER
  0
LAYOUT
  5
314
102
{ACAD_REACTORS
330
1A
102
}
100
AcDbPlotSettings
  1

  2
none_device
  4
ANSI_C_(22.00_x_17.00_Inches)
  6

 40
0.0
 41
0.0
 42
0.0
 43
0.0
 44
558.8
 45
431.8
 46
0.0
 47
0.0
 48
0.0
 49
0.0
140
0.0
141
0.0
142
1.0
143
1.0
 70
1024
 72
0
 73
0
 74
0
  7

 75
0
147
1.0
148
0.0
149
0.0
100
AcDbLayout
  1
Model
 70
0
 71
0
 10
0.0
 20
0.0
 11
22.0
 21
17.0
 12
0.0
 22
0.0
 32
0.0
 14
0.0
 24
0.0
 34
0.0
 15
0.0
 25
0.0
 35
0.0
146
0.0
 13
0.0
 23
0.0
 33
0.0
 16
1.0
 26
0.0
 36
0.0
 17
0.0
 27
1.0
 37
0.0
 76
0
330
21F
345
0
346
0
  0
LAYOUT
  5
315
102
{ACAD_REACTORS
330
1A
102
}
100
AcDbPlotSettings
  1

  2
none_device
  4
ANSI_C_(22.00_x_17.00_Inches)
  6

 40
0.0
 41
0.0
 42
0.0
 43
0.0
 44
558.8
 45
431.8
 46
0.0
 47
0.0
 48
0.0
 49
0.0
140
0.0
141
0.0
142
1.0
143
1.0
 70
0
 72
0
 73
0
 74
0
  7

 75
0
147
1.0
148
0.0
149
0.0
100
AcDbLayout
  1
Layout1
 70
0
 71
1
 10
0.0
 20
0.0
 11
22.0
 21
17.0
 12
0.0
 22
0.0
 32
0.0
 14
0.0
 24
0.0
 34
0.0
 15
0.0
 25
0.0
 35
0.0
146
0.0
 13
0.0
 23
0.0
 33
0.0
 16
1.0
 26
0.0
 36
0.0
 17
0.0
 27
1.0
 37
0.0
 76
0
330
220
345
0
346
0
  0
ENDSEC
  0
EOF