999
DXF file: _cgs_temp_output.dxf
999
Pro/ENGINEER 2016360 by Parametric Technology Corporation
  0
SECTION
  2
HEADER
  9
$ACADVER
  1
AC1021
  9
$DWGCODEPAGE
  3
ANSI_1252
  9
$EXTMAX
 10
22.0
 20
17.0
 30
0.0
  9
$EXTMIN
 10
0.0
 20
0.0
 30
0.0
  9
$LIMMIN
 10
0.0
 20
0.0
  9
$LIMMAX
 10
22.0
 20
17.0
  9
$VIEWCTR
 10
11.0
 20
8.5
  9
$VIEWSIZE
 40
17.0
  9
$CLAYER
  8
0
  9
$LTSCALE
 40
1.21
  9
$CELTYPE
  6
BYLAYER
  9
$DIMSCALE
 40
1.0
  9
$DIMASZ
 40
0.1875
  9
$DIMEXO
 40
0.0625
  9
$DIMDLI
 40
0.836
  9
$DIMEXE
 40
0.125
  9
$DIMCEN
 40
0.198
  9
$DIMLFAC
 40
1.0
  9
$DIMBLK
  1
_CLOSED
  9
$DIMALT
 70
0
  9
$DIMALTF
 40
25.4
  9
$DIMTXT
 40
0.15625
  9
$DIMTOL
 70
0
  9
$DIMLIM
 70
0
  9
$DIMTFAC
 40
1.0
  9
$DIMGAP
 40
0.09
  9
$DIMDSEP
 70
46
  9
$AUNITS
 70
0
  9
$PDMODE
 70
3
  9
$PDSIZE
 40
0.3125
  9
$HANDSEED
  5
3BE
  9
$TILEMODE
 70
1
  9
$MEASUREMENT
 70
0
  9
$INSUNITS
 70
1
  0
ENDSEC
  0
SECTION
  2
CLASSES
  0
CLASS
  1
ACDBDICTIONARYWDFLT
  2
AcDbDictionaryWithDefault
  3
AutoCAD 2000
 90
0
 91
1
280
0
281
0
  0
CLASS
  1
ACDBPLACEHOLDER
  2
AcDbPlaceHolder
  3
AutoCAD 2000
 90
0
 91
1
280
0
281
0
  0
CLASS
  1
LAYOUT
  2
AcDbLayout
  3
AutoCAD 2000
 90
0
 91
0
280
0
281
0
  0
ENDSEC
  0
SECTION
  2
TABLES
  0
TABLE
  2
VPORT
  5
8
100
AcDbSymbolTable
 70
2
  0
VPORT
  5
1F4
100
AcDbSymbolTableRecord
100
AcDbViewportTableRecord
  2
*ACTIVE
 70
0
 10
0.0
 20
0.0
 11
1.0
 21
1.0
 12
11.0
 22
8.5
 13
0.0
 23
0.0
 14
1.0
 24
1.0
 15
0.0
 25
0.0
 16
0.0
 26
0.0
 36
1.0
 17
0.0
 27
0.0
 37
0.0
 40
17.0
 41
1.2941176471
 42
50.0
 43
0.0
 44
0.0
 50
0.0
 51
0.0
 71
0
 72
100
 73
1
 74
1
 75
0
 76
0
 77
0
 78
0
  0
ENDTAB
  0
TABLE
  2
LTYPE
  5
5
100
AcDbSymbolTable
 70
6
  0
LTYPE
  5
14
100
AcDbSymbolTableRecord
100
AcDbLinetypeTableRecord
  2
BYBLOCK
 70
0
  3

 72
65
 73
0
 40
0.0
  0
LTYPE
  5
15
100
AcDbSymbolTableRecord
100
AcDbLinetypeTableRecord
  2
BYLAYER
 70
0
  3

 72
65
 73
0
 40
0.0
  0
LTYPE
  5
16
100
AcDbSymbolTableRecord
100
AcDbLinetypeTableRecord
  2
CONTINUOUS
 70
64
  3
Solid line
 72
65
 73
0
 40
0.0
  0
LTYPE
  5
1F5
100
AcDbSymbolTableRecord
100
AcDbLinetypeTableRecord
  2
CENTER
 70
64
  3
____ _ ____ _ ____ _ ____ _ ____ _ ____ _ ____
 72
65
 73
4
 40
0.6
 49
0.375
 74
0
 49
-0.075
 74
0
 49
0.075
 74
0
 49
-0.075
 74
0
  0
LTYPE
  5
1F6
100
AcDbSymbolTableRecord
100
AcDbLinetypeTableRecord
  2
HIDDEN
 70
64
  3
- - - - - - - - - - - - - - - - - - - -
 72
65
 73
2
 40
0.2
 49
0.1
 74
0
 49
-0.1
 74
0
  0
LTYPE
  5
1F7
100
AcDbSymbolTableRecord
100
AcDbLinetypeTableRecord
  2
PHANTOM
 70
64
  3
_____ _ _ _____ _ _ _____ _ _ _____
 72
65
 73
6
 40
0.8
 49
0.45
 74
0
 49
-0.05
 74
0
 49
0.1
 74
0
 49
-0.05
 74
0
 49
0.1
 74
0
 49
-0.05
 74
0
  0
LTYPE
  5
1F8
100
AcDbSymbolTableRecord
100
AcDbLinetypeTableRecord
  2
DOT
 70
64
  3
. . . . . . . . . . . . . . . . . . . .
 72
65
 73
2
 40
0.2
 49
0.1
 74
0
 49
-0.1
 74
0
  0
LTYPE
  5
1F9
100
AcDbSymbolTableRecord
100
AcDbLinetypeTableRecord
  2
DASHED
 70
64
  3
- - - - - - - - - - - - - - - - - - - -
 72
65
 73
2
 40
0.2
 49
0.1
 74
0
 49
-0.1
 74
0
  0
ENDTAB
  0
TABLE
  2
LAYER
  5
2
100
AcDbSymbolTable
 70
36
  0
LAYER
  5
10
100
AcDbSymbolTableRecord
100
AcDbLayerTableRecord
  2
0
 70
0
 62
7
  6
CONTINUOUS
370
-3
390
F
  0
LAYER
  5
1FA
100
AcDbSymbolTableRecord
100
AcDbLayerTableRecord
  2
DEFAULT_1
 70
0
 62
7
  6
CENTER
370
-3
390
F
  0
LAYER
  5
1FB
100
AcDbSymbolTableRecord
100
AcDbLayerTableRecord
  2
DEFAULT_2
 70
0
 62
8
  6
HIDDEN
370
-3
390
F
  0
LAYER
  5
1FC
100
AcDbSymbolTableRecord
100
AcDbLayerTableRecord
  2
DEFAULT_3
 70
0
 62
7
  6
PHANTOM
370
-3
390
F
  0
LAYER
  5
1FD
100
AcDbSymbolTableRecord
100
AcDbLayerTableRecord
  2
01_ALL_DTM_PLN
 70
0
 62
7
  6
CONTINUOUS
370
-3
390
F
  0
LAYER
  5
1FE
100
AcDbSymbolTableRecord
100
AcDbLayerTableRecord
  2
01__ASM_ALL_DTM_PLN
 70
0
 62
7
  6
CONTINUOUS
370
-3
390
F
  0
LAYER
  5
1FF
100
AcDbSymbolTableRecord
100
AcDbLayerTableRecord
  2
01__ASM_DEF_DTM_PLN
 70
0
 62
7
  6
CONTINUOUS
370
-3
390
F
  0
LAYER
  5
200
100
AcDbSymbolTableRecord
100
AcDbLayerTableRecord
  2
01___PRT_ALL_DTM_PLN
 70
0
 62
7
  6
CONTINUOUS
370
-3
390
F
  0
LAYER
  5
201
100
AcDbSymbolTableRecord
100
AcDbLayerTableRecord
  2
01___PRT_DEF_DTM_PLN
 70
0
 62
7
  6
CONTINUOUS
370
-3
390
F
  0
LAYER
  5
202
100
AcDbSymbolTableRecord
100
AcDbLayerTableRecord
  2
02_ALL_AXES
 70
0
 62
7
  6
CONTINUOUS
370
-3
390
F
  0
LAYER
  5
203
100
AcDbSymbolTableRecord
100
AcDbLayerTableRecord
  2
02__ASM_ALL_AXES
 70
0
 62
7
  6
CONTINUOUS
370
-3
390
F
  0
LAYER
  5
204
100
AcDbSymbolTableRecord
100
AcDbLayerTableRecord
  2
02___PRT_ALL_AXES
 70
0
 62
7
  6
CONTINUOUS
370
-3
390
F
  0
LAYER
  5
205
100
AcDbSymbolTableRecord
100
AcDbLayerTableRecord
  2
03_ALL_CURVES
 70
0
 62
7
  6
CONTINUOUS
370
-3
390
F
  0
LAYER
  5
206
100
AcDbSymbolTableRecord
100
AcDbLayerTableRecord
  2
03__ASM_ALL_CURVES
 70
0
 62
7
  6
CONTINUOUS
370
-3
390
F
  0
LAYER
  5
207
100
AcDbSymbolTableRecord
100
AcDbLayerTableRecord
  2
03___PRT_ALL_CURVES
 70
0
 62
7
  6
CONTINUOUS
370
-3
390
F
  0
LAYER
  5
208
100
AcDbSymbolTableRecord
100
AcDbLayerTableRecord
  2
04_ALL_DTM_PNT
 70
0
 62
7
  6
CONTINUOUS
370
-3
390
F
  0
LAYER
  5
209
100
AcDbSymbolTableRecord
100
AcDbLayerTableRecord
  2
04__ASM_ALL_DTM_PNT
 70
0
 62
7
  6
CONTINUOUS
370
-3
390
F
  0
LAYER
  5
20A
100
AcDbSymbolTableRecord
100
AcDbLayerTableRecord
  2
04___PRT_ALL_DTM_PNT
 70
0
 62
7
  6
CONTINUOUS
370
-3
390
F
  0
LAYER
  5
20B
100
AcDbSymbolTableRecord
100
AcDbLayerTableRecord
  2
05_ALL_DTM_CSYS
 70
0
 62
7
  6
CONTINUOUS
370
-3
390
F
  0
LAYER
  5
20C
100
AcDbSymbolTableRecord
100
AcDbLayerTableRecord
  2
05__ASM_ALL_DTM_CSYS
 70
0
 62
7
  6
CONTINUOUS
370
-3
390
F
  0
LAYER
  5
20D
100
AcDbSymbolTableRecord
100
AcDbLayerTableRecord
  2
05__ASM_DEF_DTM_CSYS
 70
0
 62
7
  6
CONTINUOUS
370
-3
390
F
  0
LAYER
  5
20E
100
AcDbSymbolTableRecord
100
AcDbLayerTableRecord
  2
05___PRT_ALL_DTM_CSYS
 70
0
 62
7
  6
CONTINUOUS
370
-3
390
F
  0
LAYER
  5
20F
100
AcDbSymbolTableRecord
100
AcDbLayerTableRecord
  2
05___PRT_DEF_DTM_CSYS
 70
0
 62
7
  6
CONTINUOUS
370
-3
390
F
  0
LAYER
  5
210
100
AcDbSymbolTableRecord
100
AcDbLayerTableRecord
  2
06_ALL_SURFS
 70
0
 62
7
  6
CONTINUOUS
370
-3
390
F
  0
LAYER
  5
211
100
AcDbSymbolTableRecord
100
AcDbLayerTableRecord
  2
06__ASM_ALL_SURFS
 70
0
 62
7
  6
CONTINUOUS
370
-3
390
F
  0
LAYER
  5
212
100
AcDbSymbolTableRecord
100
AcDbLayerTableRecord
  2
06___PRT_ALL_SURFS
 70
0
 62
7
  6
CONTINUOUS
370
-3
390
F
  0
LAYER
  5
213
100
AcDbSymbolTableRecord
100
AcDbLayerTableRecord
  2
07__ASM_ALL_SKELETONS
 70
0
 62
7
  6
CONTINUOUS
370
-3
390
F
  0
LAYER
  5
214
100
AcDbSymbolTableRecord
100
AcDbLayerTableRecord
  2
LAYER_AXIS
 70
0
 62
7
  6
CONTINUOUS
370
-3
390
F
  0
LAYER
  5
215
100
AcDbSymbolTableRecord
100
AcDbLayerTableRecord
  2
LAYER_CHAMFER_FEAT
 70
0
 62
7
  6
CONTINUOUS
370
-3
390
F
  0
LAYER
  5
216
100
AcDbSymbolTableRecord
100
AcDbLayerTableRecord
  2
LAYER_CUT_FEAT
 70
0
 62
7
  6
CONTINUOUS
370
-3
390
F
  0
LAYER
  5
217
100
AcDbSymbolTableRecord
100
AcDbLayerTableRecord
  2
LAYER_DIM
 70
0
 62
7
  6
CONTINUOUS
370
-3
390
F
  0
LAYER
  5
218
100
AcDbSymbolTableRecord
100
AcDbLayerTableRecord
  2
LAYER_FEATURE
 70
0
 62
7
  6
CONTINUOUS
370
-3
390
F
  0
LAYER
  5
219
100
AcDbSymbolTableRecord
100
AcDbLayerTableRecord
  2
LAYER_GEOM_FEAT
 70
0
 62
7
  6
CONTINUOUS
370
-3
390
F
  0
LAYER
  5
21A
100
AcDbSymbolTableRecord
100
AcDbLayerTableRecord
  2
LAYER_NOGEOM_FEAT
 70
0
 62
7
  6
CONTINUOUS
370
-3
390
F
  0
LAYER
  5
21B
100
AcDbSymbolTableRecord
100
AcDbLayerTableRecord
  2
LAYER_PARAMETER_DIM
 70
0
 62
7
  6
CONTINUOUS
370
-3
390
F
  0
LAYER
  5
21C
100
AcDbSymbolTableRecord
100
AcDbLayerTableRecord
  2
LAYER_PROTRUSION_FEAT
 70
0
 62
7
  6
CONTINUOUS
370
-3
390
F
  0
ENDTAB
  0
TABLE
  2
STYLE
  5
3
100
AcDbSymbolTable
 70
1
  0
STYLE
  5
11
100
AcDbSymbolTableRecord
100
AcDbTextStyleTableRecord
  2
STANDARD
 70
0
 40
0.0
 41
0.8
 50
0.0
 71
0
 42
0.2
  3
txt
  4

  0
STYLE
  5
21D
100
AcDbSymbolTableRecord
100
AcDbTextStyleTableRecord
  2
TEXTSTYLE_1
 70
0
 40
0.0
 41
0.8
 50
0.0
 71
0
 42
0.2
  3
gdt
  4

  0
ENDTAB
  0
TABLE
  2
VIEW
  5
6
100
AcDbSymbolTable
 70
0
  0
ENDTAB
  0
TABLE
  2
UCS
  5
7
100
AcDbSymbolTable
 70
0
  0
ENDTAB
  0
TABLE
  2
APPID
  5
9
100
AcDbSymbolTable
 70
1
  0
APPID
  5
21E
100
AcDbSymbolTableRecord
100
AcDbRegAppTableRecord
  2
ACAD
 70
0
  0
ENDTAB
  0
TABLE
  2
BLOCK_RECORD
  5
1
100
AcDbSymbolTable
 70
0
  0
BLOCK_RECORD
  5
21F
100
AcDbSymbolTableRecord
100
AcDbBlockTableRecord
  2
*Model_Space
  0
BLOCK_RECORD
  5
220
100
AcDbSymbolTableRecord
100
AcDbBlockTableRecord
  2
*Paper_Space
  0
ENDTAB
  0
TABLE
  2
DIMSTYLE
  5
A
100
AcDbSymbolTable
 70
1
100
AcDbDimStyleTable
 71
0
  0
DIMSTYLE
105
221
100
AcDbSymbolTableRecord
100
AcDbDimStyleTableRecord
  2
STANDARD
 70
0
  3

  4

 40
1.0
 41
0.1875
 42
0.0625
 43
0.38
 44
0.125
 45
0.0
 46
0.0
 47
0.0001
 48
0.0001
140
0.15625
141
0.09
142
0.0
143
25.4
144
1.0
145
0.0
146
1.0
147
0.09
 71
0.0
 72
0.0
 73
1
 74
1
 75
0
 76
0
 77
0
 78
4
 79
1
170
0
171
3
172
0
173
0
174
0
175
0
176
0
177
0
178
0
270
2
179
4
271
4
272
4
273
2
274
2
275
0
280
0
281
0
282
0
283
1
284
4
285
0
286
0
287
3
288
0
340
11
278
46
  0
ENDTAB
  0
ENDSEC
  0
SECTION
  2
BLOCKS
  0
BLOCK
  5
20
100
AcDbEntity
  8
0
100
AcDbBlockBegin
  2
*Model_Space
 70
0
 10
0.0
 20
0.0
 30
0.0
  3
*Model_Space
  1

  0
ENDBLK
  5
21
100
AcDbEntity
  8
0
100
AcDbBlockEnd
  0
BLOCK
  5
1C
100
AcDbEntity
  8
0
100
AcDbBlockBegin
  2
*Paper_Space
 70
0
 10
0.0
 20
0.0
 30
0.0
  3
*Paper_Space
  1

  0
ENDBLK
  5
1D
100
AcDbEntity
  8
0
100
AcDbBlockEnd
  0
ENDSEC
  0
SECTION
  2
ENTITIES
  0
MTEXT
  5
222
100
AcDbEntity
  8
0
100
AcDbMText
 62
7
  6
CONTINUOUS
  7
STANDARD
 71
1
 72
1
 10
15.9560215477
 20
0.9479130325
 30
0.0
 11
1.0
 21
0.0
 31
0.0
 44
0.9
  1
SCALE: 1:1.000
 40
0.3
 41
3.36
  0
LINE
  5
223
100
AcDbEntity
  8
0
100
AcDbLine
 62
7
  6
CONTINUOUS
 10
0.0
 20
0.0
 11
0.0
 21
17.0
  0
LINE
  5
224
100
AcDbEntity
  8
0
100
AcDbLine
 62
7
  6
CONTINUOUS
 10
0.0
 20
0.0
 11
22.0
 21
0.0
  0
LINE
  5
225
100
AcDbEntity
  8
0
100
AcDbLine
 62
7
  6
CONTINUOUS
 10
0.0
 20
17.0
 11
22.0
 21
17.0
  0
LINE
  5
226
100
AcDbEntity
  8
0
100
AcDbLine
 62
7
  6
CONTINUOUS
 10
22.0
 20
0.0
 11
22.0
 21
17.0
  0
LINE
  5
227
100
AcDbEntity
  8
LAYER_FEATURE
100
AcDbLine
 62
7
  6
CONTINUOUS
 10
5.2953672762
 20
6.2851198968
 11
5.2953672762
 21
4.7551198968
  0
LINE
  5
228
100
AcDbEntity
  8
LAYER_FEATURE
100
AcDbLine
 62
7
  6
CONTINUOUS
 10
5.3953672762
 20
6.1851198968
 11
5.3953672762
 21
6.181809401
  0
LINE
  5
229
100
AcDbEntity
  8
LAYER_FEATURE
100
AcDbLine
 62
7
  6
CONTINUOUS
 10
5.3953672762
 20
4.8584303925
 11
5.3953672762
 21
4.8551198968
  0
LINE
  5
22A
100
AcDbEntity
  8
0
100
AcDbLine
 62
7
  6
CONTINUOUS
 10
5.3953672762
 20
4.8584303925
 11
5.3953672762
 21
4.861567932
  0
LINE
  5
22B
100
AcDbEntity
  8
LAYER_FEATURE
100
AcDbLine
 62
7
  6
CONTINUOUS
 10
5.3953672762
 20
4.861567932
 11
5.3953672762
 21
4.9088990015
  0
LINE
  5
22C
100
AcDbEntity
  8
0
100
AcDbLine
 62
7
  6
CONTINUOUS
 10
5.3953672762
 20
4.9088990015
 11
5.3953672762
 21
4.918057435
  0
LINE
  5
22D
100
AcDbEntity
  8
0
100
AcDbLine
 62
7
  6
CONTINUOUS
 10
5.3953672762
 20
5.0088850924
 11
5.3953672762
 21
5.0233224581
  0
LINE
  5
22E
100
AcDbEntity
  8
LAYER_FEATURE
100
AcDbLine
 62
7
  6
CONTINUOUS
 10
5.3953672762
 20
4.918057435
 11
5.3953672762
 21
5.0088850924
  0
LINE
  5
22F
100
AcDbEntity
  8
LAYER_FEATURE
100
AcDbLine
 62
7
  6
CONTINUOUS
 10
5.3953672762
 20
5.0233224581
 11
5.3953672762
 21
5.1502883866
  0
LINE
  5
230
100
AcDbEntity
  8
0
100
AcDbLine
 62
7
  6
CONTINUOUS
 10
5.3953672762
 20
5.1502883866
 11
5.3953672762
 21
5.1688350551
  0
LINE
  5
231
100
AcDbEntity
  8
LAYER_FEATURE
100
AcDbLine
 62
7
  6
CONTINUOUS
 10
5.3953672762
 20
5.1688350551
 11
5.3953672762
 21
5.3216532304
  0
LINE
  5
232
100
AcDbEntity
  8
0
100
AcDbLine
 62
7
  6
CONTINUOUS
 10
5.3953672762
 20
5.3216532304
 11
5.3953672762
 21
5.3428066609
  0
LINE
  5
233
100
AcDbEntity
  8
LAYER_FEATURE
100
AcDbLine
 62
7
  6
CONTINUOUS
 10
5.3953672762
 20
5.3428066609
 11
5.3953672762
 21
5.5090966631
  0
LINE
  5
234
100
AcDbEntity
  8
0
100
AcDbLine
 62
7
  6
CONTINUOUS
 10
5.3953672762
 20
5.5090966631
 11
5.3953672762
 21
5.5311431304
  0
LINE
  5
235
100
AcDbEntity
  8
LAYER_FEATURE
100
AcDbLine
 62
7
  6
CONTINUOUS
 10
5.3953672762
 20
5.5311431304
 11
5.3953672762
 21
5.6974331327
  0
LINE
  5
236
100
AcDbEntity
  8
0
100
AcDbLine
 62
7
  6
CONTINUOUS
 10
5.3953672762
 20
5.6974331327
 11
5.3953672762
 21
5.7185865631
  0
LINE
  5
237
100
AcDbEntity
  8
LAYER_FEATURE
100
AcDbLine
 62
7
  6
CONTINUOUS
 10
5.3953672762
 20
5.7185865631
 11
5.3953672762
 21
5.8714047384
  0
LINE
  5
238
100
AcDbEntity
  8
0
100
AcDbLine
 62
7
  6
CONTINUOUS
 10
5.3953672762
 20
5.8714047384
 11
5.3953672762
 21
5.8899514069
  0
LINE
  5
239
100
AcDbEntity
  8
0
100
AcDbLine
 62
7
  6
CONTINUOUS
 10
5.3953672762
 20
6.0169173354
 11
5.3953672762
 21
6.0313547012
  0
LINE
  5
23A
100
AcDbEntity
  8
LAYER_FEATURE
100
AcDbLine
 62
7
  6
CONTINUOUS
 10
5.3953672762
 20
5.8899514069
 11
5.3953672762
 21
6.0169173354
  0
LINE
  5
23B
100
AcDbEntity
  8
LAYER_FEATURE
100
AcDbLine
 62
7
  6
CONTINUOUS
 10
5.3953672762
 20
6.0313547012
 11
5.3953672762
 21
6.1221823585
  0
LINE
  5
23C
100
AcDbEntity
  8
0
100
AcDbLine
 62
7
  6
CONTINUOUS
 10
5.3953672762
 20
6.1221823585
 11
5.3953672762
 21
6.131340792
  0
LINE
  5
23D
100
AcDbEntity
  8
LAYER_CUT_FEAT
100
AcDbLine
 62
7
  6
CONTINUOUS
 10
5.3953672762
 20
6.1786718615
 11
5.3953672762
 21
6.181809401
  0
LINE
  5
23E
100
AcDbEntity
  8
LAYER_FEATURE
100
AcDbLine
 62
7
  6
CONTINUOUS
 10
5.3953672762
 20
6.131340792
 11
5.3953672762
 21
6.1786718615
  0
LINE
  5
23F
100
AcDbEntity
  8
0
100
AcDbLine
 62
7
  6
CONTINUOUS
 10
5.3953672762
 20
4.8583326221
 11
6.4753672762
 21
4.8583326221
  0
LINE
  5
240
100
AcDbEntity
  8
0
100
AcDbLine
 62
7
  6
CONTINUOUS
 10
5.3953672762
 20
4.8584303925
 11
6.4753672762
 21
4.8584303925
  0
LINE
  5
241
100
AcDbEntity
  8
0
100
AcDbLine
 62
7
  6
CONTINUOUS
 10
5.3953672762
 20
4.861567932
 11
6.4753672762
 21
4.861567932
  0
LINE
  5
242
100
AcDbEntity
  8
0
100
AcDbLine
 62
7
  6
CONTINUOUS
 10
5.3953672762
 20
4.9073303442
 11
6.4753672762
 21
4.9073303442
  0
LINE
  5
243
100
AcDbEntity
  8
0
100
AcDbLine
 62
7
  6
CONTINUOUS
 10
5.3953672762
 20
4.9088990015
 11
6.4753672762
 21
4.9088990015
  0
LINE
  5
244
100
AcDbEntity
  8
0
100
AcDbLine
 62
7
  6
CONTINUOUS
 10
5.3953672762
 20
4.918057435
 11
6.4753672762
 21
4.918057435
  0
LINE
  5
245
100
AcDbEntity
  8
02___PRT_ALL_AXES
100
AcDbLine
 62
7
  6
CONTINUOUS
 10
6.5753672762
 20
4.9751198968
 11
6.9653672762
 21
4.9751198968
  0
LINE
  5
246
100
AcDbEntity
  8
0
100
AcDbLine
 62
7
  6
CONTINUOUS
 10
5.3953672762
 20
5.0041903224
 11
6.4753672762
 21
5.0041903224
  0
LINE
  5
247
100
AcDbEntity
  8
0
100
AcDbLine
 62
7
  6
CONTINUOUS
 10
5.3953672762
 20
5.0088850924
 11
6.4753672762
 21
5.0088850924
  0
LINE
  5
248
100
AcDbEntity
  8
0
100
AcDbLine
 62
7
  6
CONTINUOUS
 10
5.3953672762
 20
5.0233224581
 11
6.4753672762
 21
5.0233224581
  0
LINE
  5
249
100
AcDbEntity
  8
0
100
AcDbLine
 62
7
  6
CONTINUOUS
 10
5.3953672762
 20
5.1410655372
 11
6.4753672762
 21
5.1410655372
  0
LINE
  5
24A
100
AcDbEntity
  8
0
100
AcDbLine
 62
7
  6
CONTINUOUS
 10
5.3953672762
 20
5.1502883866
 11
6.4753672762
 21
5.1502883866
  0
LINE
  5
24B
100
AcDbEntity
  8
0
100
AcDbLine
 62
7
  6
CONTINUOUS
 10
5.3953672762
 20
5.1688350551
 11
6.4753672762
 21
5.1688350551
  0
LINE
  5
24C
100
AcDbEntity
  8
LAYER_FEATURE
100
AcDbLine
 62
7
  6
CONTINUOUS
 10
6.5753672762
 20
6.2851198968
 11
6.4753672762
 21
6.1851198968
  0
LINE
  5
24D
100
AcDbEntity
  8
LAYER_FEATURE
100
AcDbLine
 62
7
  6
CONTINUOUS
 10
6.5753672762
 20
4.7551198968
 11
6.4753672762
 21
4.8551198968
  0
LINE
  5
24E
100
AcDbEntity
  8
0
100
AcDbLine
 62
7
  6
CONTINUOUS
 10
5.3953672762
 20
5.3069033973
 11
6.4753672762
 21
5.3069033973
  0
LINE
  5
24F
100
AcDbEntity
  8
0
100
AcDbLine
 62
7
  6
CONTINUOUS
 10
5.3953672762
 20
5.3216532304
 11
6.4753672762
 21
5.3216532304
  0
LINE
  5
250
100
AcDbEntity
  8
0
100
AcDbLine
 62
7
  6
CONTINUOUS
 10
5.3953672762
 20
5.3428066609
 11
6.4753672762
 21
5.3428066609
  0
LINE
  5
251
100
AcDbEntity
  8
LAYER_FEATURE
100
AcDbLine
 62
7
  6
CONTINUOUS
 10
5.2953672762
 20
4.7551198968
 11
5.3953672762
 21
4.8551198968
  0
LINE
  5
252
100
AcDbEntity
  8
0
100
AcDbLine
 62
7
  6
CONTINUOUS
 10
5.3953672762
 20
5.5090966631
 11
6.4753672762
 21
5.5090966631
  0
LINE
  5
253
100
AcDbEntity
  8
LAYER_FEATURE
100
AcDbLine
 62
7
  6
CONTINUOUS
 10
5.2953672762
 20
6.2851198968
 11
5.3953672762
 21
6.1851198968
  0
LINE
  5
254
100
AcDbEntity
  8
0
100
AcDbLine
 62
7
  6
CONTINUOUS
 10
5.3953672762
 20
5.5311431304
 11
6.4753672762
 21
5.5311431304
  0
LINE
  5
255
100
AcDbEntity
  8
0
100
AcDbLine
 62
7
  6
CONTINUOUS
 10
5.3953672762
 20
5.6974331327
 11
6.4753672762
 21
5.6974331327
  0
LINE
  5
256
100
AcDbEntity
  8
0
100
AcDbLine
 62
7
  6
CONTINUOUS
 10
5.3953672762
 20
5.7185865631
 11
6.4753672762
 21
5.7185865631
  0
LINE
  5
257
100
AcDbEntity
  8
0
100
AcDbLine
 62
7
  6
CONTINUOUS
 10
5.3953672762
 20
5.7333363962
 11
6.4753672762
 21
5.7333363962
  0
LINE
  5
258
100
AcDbEntity
  8
LAYER_CUT_FEAT
100
AcDbLine
 62
7
  6
CONTINUOUS
 10
6.4753672762
 20
6.181809401
 11
6.4753672762
 21
6.1786718615
  0
LINE
  5
259
100
AcDbEntity
  8
LAYER_FEATURE
100
AcDbLine
 62
7
  6
CONTINUOUS
 10
6.4753672762
 20
6.1851198968
 11
6.4753672762
 21
6.181809401
  0
LINE
  5
25A
100
AcDbEntity
  8
0
100
AcDbLine
 62
7
  6
CONTINUOUS
 10
6.4753672762
 20
6.131340792
 11
6.4753672762
 21
6.1221823585
  0
LINE
  5
25B
100
AcDbEntity
  8
LAYER_FEATURE
100
AcDbLine
 62
7
  6
CONTINUOUS
 10
6.4753672762
 20
6.1786718615
 11
6.4753672762
 21
6.131340792
  0
LINE
  5
25C
100
AcDbEntity
  8
0
100
AcDbLine
 62
7
  6
CONTINUOUS
 10
6.4753672762
 20
6.0313547012
 11
6.4753672762
 21
6.0169173354
  0
LINE
  5
25D
100
AcDbEntity
  8
LAYER_FEATURE
100
AcDbLine
 62
7
  6
CONTINUOUS
 10
6.4753672762
 20
6.1221823585
 11
6.4753672762
 21
6.0313547012
  0
LINE
  5
25E
100
AcDbEntity
  8
0
100
AcDbLine
 62
7
  6
CONTINUOUS
 10
6.4753672762
 20
5.8899514069
 11
6.4753672762
 21
5.8714047384
  0
LINE
  5
25F
100
AcDbEntity
  8
LAYER_FEATURE
100
AcDbLine
 62
7
  6
CONTINUOUS
 10
6.4753672762
 20
6.0169173354
 11
6.4753672762
 21
5.8899514069
  0
LINE
  5
260
100
AcDbEntity
  8
0
100
AcDbLine
 62
7
  6
CONTINUOUS
 10
6.4753672762
 20
5.7185865631
 11
6.4753672762
 21
5.6974331327
  0
LINE
  5
261
100
AcDbEntity
  8
LAYER_FEATURE
100
AcDbLine
 62
7
  6
CONTINUOUS
 10
6.4753672762
 20
5.8714047384
 11
6.4753672762
 21
5.7185865631
  0
LINE
  5
262
100
AcDbEntity
  8
LAYER_FEATURE
100
AcDbLine
 62
7
  6
CONTINUOUS
 10
6.4753672762
 20
5.6974331327
 11
6.4753672762
 21
5.5311431304
  0
LINE
  5
263
100
AcDbEntity
  8
0
100
AcDbLine
 62
7
  6
CONTINUOUS
 10
6.4753672762
 20
5.5311431304
 11
6.4753672762
 21
5.5090966631
  0
LINE
  5
264
100
AcDbEntity
  8
0
100
AcDbLine
 62
7
  6
CONTINUOUS
 10
6.4753672762
 20
5.3428066609
 11
6.4753672762
 21
5.3216532304
  0
LINE
  5
265
100
AcDbEntity
  8
LAYER_FEATURE
100
AcDbLine
 62
7
  6
CONTINUOUS
 10
6.4753672762
 20
5.5090966631
 11
6.4753672762
 21
5.3428066609
  0
LINE
  5
266
100
AcDbEntity
  8
0
100
AcDbLine
 62
7
  6
CONTINUOUS
 10
6.4753672762
 20
5.1688350551
 11
6.4753672762
 21
5.1502883866
  0
LINE
  5
267
100
AcDbEntity
  8
LAYER_FEATURE
100
AcDbLine
 62
7
  6
CONTINUOUS
 10
6.4753672762
 20
5.3216532304
 11
6.4753672762
 21
5.1688350551
  0
LINE
  5
268
100
AcDbEntity
  8
LAYER_FEATURE
100
AcDbLine
 62
7
  6
CONTINUOUS
 10
6.4753672762
 20
5.1502883866
 11
6.4753672762
 21
5.0233224581
  0
LINE
  5
269
100
AcDbEntity
  8
0
100
AcDbLine
 62
7
  6
CONTINUOUS
 10
6.4753672762
 20
5.0233224581
 11
6.4753672762
 21
5.0088850924
  0
LINE
  5
26A
100
AcDbEntity
  8
0
100
AcDbLine
 62
7
  6
CONTINUOUS
 10
6.4753672762
 20
4.918057435
 11
6.4753672762
 21
4.9088990015
  0
LINE
  5
26B
100
AcDbEntity
  8
LAYER_FEATURE
100
AcDbLine
 62
7
  6
CONTINUOUS
 10
6.4753672762
 20
5.0088850924
 11
6.4753672762
 21
4.918057435
  0
LINE
  5
26C
100
AcDbEntity
  8
0
100
AcDbLine
 62
7
  6
CONTINUOUS
 10
6.4753672762
 20
4.861567932
 11
6.4753672762
 21
4.8584303925
  0
LINE
  5
26D
100
AcDbEntity
  8
LAYER_FEATURE
100
AcDbLine
 62
7
  6
CONTINUOUS
 10
6.4753672762
 20
4.8584303925
 11
6.4753672762
 21
4.8551198968
  0
LINE
  5
26E
100
AcDbEntity
  8
LAYER_FEATURE
100
AcDbLine
 62
7
  6
CONTINUOUS
 10
6.4753672762
 20
4.9088990015
 11
6.4753672762
 21
4.861567932
  0
LINE
  5
26F
100
AcDbEntity
  8
0
100
AcDbLine
 62
7
  6
CONTINUOUS
 10
5.3953672762
 20
5.8714047384
 11
6.4753672762
 21
5.8714047384
  0
LINE
  5
270
100
AcDbEntity
  8
0
100
AcDbLine
 62
7
  6
CONTINUOUS
 10
5.3953672762
 20
5.8899514069
 11
6.4753672762
 21
5.8899514069
  0
LINE
  5
271
100
AcDbEntity
  8
0
100
AcDbLine
 62
7
  6
CONTINUOUS
 10
5.3953672762
 20
5.8991742563
 11
6.4753672762
 21
5.8991742563
  0
LINE
  5
272
100
AcDbEntity
  8
LAYER_FEATURE
100
AcDbLine
 62
7
  6
CONTINUOUS
 10
6.5753672762
 20
6.2851198968
 11
6.5753672762
 21
4.7551198968
  0
LINE
  5
273
100
AcDbEntity
  8
0
100
AcDbLine
 62
7
  6
CONTINUOUS
 10
5.3953672762
 20
6.0169173354
 11
6.4753672762
 21
6.0169173354
  0
LINE
  5
274
100
AcDbEntity
  8
0
100
AcDbLine
 62
7
  6
CONTINUOUS
 10
5.3953672762
 20
6.0313547012
 11
6.4753672762
 21
6.0313547012
  0
LINE
  5
275
100
AcDbEntity
  8
0
100
AcDbLine
 62
7
  6
CONTINUOUS
 10
5.3953672762
 20
6.0360494711
 11
6.4753672762
 21
6.0360494711
  0
LINE
  5
276
100
AcDbEntity
  8
02___PRT_ALL_AXES
100
AcDbLine
 62
7
  6
CONTINUOUS
 10
6.5753672762
 20
6.0651198968
 11
6.9653672762
 21
6.0651198968
  0
LINE
  5
277
100
AcDbEntity
  8
0
100
AcDbLine
 62
7
  6
CONTINUOUS
 10
5.3953672762
 20
6.1221823585
 11
6.4753672762
 21
6.1221823585
  0
LINE
  5
278
100
AcDbEntity
  8
LAYER_CUT_FEAT
100
AcDbLine
 62
7
  6
CONTINUOUS
 10
5.3953672762
 20
6.131340792
 11
6.4753672762
 21
6.131340792
  0
LINE
  5
279
100
AcDbEntity
  8
LAYER_CUT_FEAT
100
AcDbLine
 62
7
  6
CONTINUOUS
 10
5.3953672762
 20
6.1329094493
 11
6.4753672762
 21
6.1329094493
  0
LINE
  5
27A
100
AcDbEntity
  8
LAYER_CUT_FEAT
100
AcDbLine
 62
7
  6
CONTINUOUS
 10
5.3953672762
 20
6.1786718615
 11
6.4753672762
 21
6.1786718615
  0
LINE
  5
27B
100
AcDbEntity
  8
0
100
AcDbLine
 62
7
  6
CONTINUOUS
 10
6.4753672762
 20
6.181809401
 11
5.3953672762
 21
6.181809401
  0
LINE
  5
27C
100
AcDbEntity
  8
0
100
AcDbLine
 62
7
  6
CONTINUOUS
 10
5.3953672762
 20
6.1819071715
 11
6.4753672762
 21
6.1819071715
  0
LINE
  5
27D
100
AcDbEntity
  8
02___PRT_ALL_AXES
100
AcDbLine
 62
7
  6
CONTINUOUS
 10
6.9653672762
 20
6.0651198419
 11
6.9653672762
 21
4.9751199516
  0
LINE
  5
27E
100
AcDbEntity
  8
LAYER_FEATURE
100
AcDbLine
 62
7
  6
CONTINUOUS
 10
5.2358720839
 20
11.8350478366
 11
5.2358720839
 21
13.3650477262
  0
LINE
  5
27F
100
AcDbEntity
  8
0
100
AcDbLine
 62
7
  6
CONTINUOUS
 10
5.3358720839
 20
11.9330477814
 11
5.3358720839
 21
11.9331388758
  0
LINE
  5
280
100
AcDbEntity
  8
0
100
AcDbLine
 62
7
  6
CONTINUOUS
 10
5.3358720839
 20
11.9570477686
 11
5.3358720839
 21
11.9632589762
  0
LINE
  5
281
100
AcDbEntity
  8
LAYER_FEATURE
100
AcDbLine
 62
7
  6
CONTINUOUS
 10
5.3358720839
 20
11.9331388758
 11
5.3358720839
 21
11.9570477686
  0
LINE
  5
282
100
AcDbEntity
  8
LAYER_FEATURE
100
AcDbLine
 62
7
  6
CONTINUOUS
 10
5.3358720839
 20
11.9632589762
 11
5.3358720839
 21
12.0330486984
  0
LINE
  5
283
100
AcDbEntity
  8
0
100
AcDbLine
 62
7
  6
CONTINUOUS
 10
5.3358720839
 20
12.0330486984
 11
5.3358720839
 21
12.0449679185
  0
LINE
  5
284
100
AcDbEntity
  8
0
100
AcDbLine
 62
7
  6
CONTINUOUS
 10
5.3358720839
 20
12.1549845218
 11
5.3358720839
 21
12.1716461301
  0
LINE
  5
285
100
AcDbEntity
  8
LAYER_FEATURE
100
AcDbLine
 62
7
  6
CONTINUOUS
 10
5.3358720839
 20
12.0449679185
 11
5.3358720839
 21
12.1549845218
  0
LINE
  5
286
100
AcDbEntity
  8
LAYER_FEATURE
100
AcDbLine
 62
7
  6
CONTINUOUS
 10
5.3358720839
 20
12.1716461301
 11
5.3358720839
 21
12.3129767237
  0
LINE
  5
287
100
AcDbEntity
  8
0
100
AcDbLine
 62
7
  6
CONTINUOUS
 10
5.3358720839
 20
12.3129767237
 11
5.3358720839
 21
12.3330308957
  0
LINE
  5
288
100
AcDbEntity
  8
LAYER_FEATURE
100
AcDbLine
 62
7
  6
CONTINUOUS
 10
5.3358720839
 20
12.3330308957
 11
5.3358720839
 21
12.4942257153
  0
LINE
  5
289
100
AcDbEntity
  8
LAYER_CUT_FEAT
100
AcDbLine
 62
7
  6
CONTINUOUS
 10
5.3358720839
 20
12.4942257153
 11
5.3358720839
 21
12.5160477814
  0
LINE
  5
28A
100
AcDbEntity
  8
LAYER_FEATURE
100
AcDbLine
 62
7
  6
CONTINUOUS
 10
5.3358720839
 20
12.5160477814
 11
5.3358720839
 21
12.6840477814
  0
LINE
  5
28B
100
AcDbEntity
  8
0
100
AcDbLine
 62
7
  6
CONTINUOUS
 10
5.3358720839
 20
12.6840477814
 11
5.3358720839
 21
12.7058698474
  0
LINE
  5
28C
100
AcDbEntity
  8
LAYER_FEATURE
100
AcDbLine
 62
7
  6
CONTINUOUS
 10
5.3358720839
 20
12.7058698474
 11
5.3358720839
 21
12.867064667
  0
LINE
  5
28D
100
AcDbEntity
  8
0
100
AcDbLine
 62
7
  6
CONTINUOUS
 10
5.3358720839
 20
12.867064667
 11
5.3358720839
 21
12.8871188391
  0
LINE
  5
28E
100
AcDbEntity
  8
LAYER_FEATURE
100
AcDbLine
 62
7
  6
CONTINUOUS
 10
5.3358720839
 20
12.8871188391
 11
5.3358720839
 21
13.0284494326
  0
LINE
  5
28F
100
AcDbEntity
  8
0
100
AcDbLine
 62
7
  6
CONTINUOUS
 10
5.3358720839
 20
13.0284494326
 11
5.3358720839
 21
13.0451110409
  0
LINE
  5
290
100
AcDbEntity
  8
LAYER_FEATURE
100
AcDbLine
 62
7
  6
CONTINUOUS
 10
5.3358720839
 20
13.0451110409
 11
5.3358720839
 21
13.1551276442
  0
LINE
  5
291
100
AcDbEntity
  8
0
100
AcDbLine
 62
7
  6
CONTINUOUS
 10
5.3358720839
 20
13.1551276442
 11
5.3358720839
 21
13.1670468643
  0
LINE
  5
292
100
AcDbEntity
  8
0
100
AcDbLine
 62
7
  6
CONTINUOUS
 10
5.3358720839
 20
13.2368365865
 11
5.3358720839
 21
13.2430477941
  0
LINE
  5
293
100
AcDbEntity
  8
LAYER_FEATURE
100
AcDbLine
 62
7
  6
CONTINUOUS
 10
5.3358720839
 20
13.1670468643
 11
5.3358720839
 21
13.2368365865
  0
LINE
  5
294
100
AcDbEntity
  8
0
100
AcDbLine
 62
7
  6
CONTINUOUS
 10
5.3358720839
 20
13.2669566869
 11
5.3358720839
 21
13.2670477814
  0
LINE
  5
295
100
AcDbEntity
  8
LAYER_FEATURE
100
AcDbLine
 62
7
  6
CONTINUOUS
 10
5.3358720839
 20
13.2430477941
 11
5.3358720839
 21
13.2669566869
  0
LINE
  5
296
100
AcDbEntity
  8
02___PRT_ALL_AXES
100
AcDbLine
 62
7
  6
CONTINUOUS
 10
5.3358720839
 20
11.9330477814
 11
6.4158720839
 21
11.9330477814
  0
LINE
  5
297
100
AcDbEntity
  8
0
100
AcDbLine
 62
7
  6
CONTINUOUS
 10
5.3358720839
 20
11.9331388758
 11
6.4158720839
 21
11.9331388758
  0
LINE
  5
298
100
AcDbEntity
  8
0
100
AcDbLine
 62
7
  6
CONTINUOUS
 10
5.3358720839
 20
11.9564322176
 11
6.4158720839
 21
11.9564322176
  0
LINE
  5
299
100
AcDbEntity
  8
0
100
AcDbLine
 62
7
  6
CONTINUOUS
 10
5.3358720839
 20
11.9570477686
 11
6.4158720839
 21
11.9570477686
  0
LINE
  5
29A
100
AcDbEntity
  8
0
100
AcDbLine
 62
7
  6
CONTINUOUS
 10
5.3358720839
 20
11.9632589762
 11
6.4158720839
 21
11.9632589762
  0
LINE
  5
29B
100
AcDbEntity
  8
0
100
AcDbLine
 62
7
  6
CONTINUOUS
 10
5.3358720839
 20
12.0301110117
 11
6.4158720839
 21
12.0301110117
  0
LINE
  5
29C
100
AcDbEntity
  8
0
100
AcDbLine
 62
7
  6
CONTINUOUS
 10
5.3358720839
 20
12.0330486984
 11
6.4158720839
 21
12.0330486984
  0
LINE
  5
29D
100
AcDbEntity
  8
0
100
AcDbLine
 62
7
  6
CONTINUOUS
 10
5.3358720839
 20
12.0449679185
 11
6.4158720839
 21
12.0449679185
  0
LINE
  5
29E
100
AcDbEntity
  8
02___PRT_ALL_AXES
100
AcDbLine
 62
7
  6
CONTINUOUS
 10
6.5158720839
 20
12.0550477814
 11
6.9058720839
 21
12.0550477814
  0
LINE
  5
29F
100
AcDbEntity
  8
0
100
AcDbLine
 62
7
  6
CONTINUOUS
 10
5.3358720839
 20
12.1481803841
 11
6.4158720839
 21
12.1481803841
  0
LINE
  5
2A0
100
AcDbEntity
  8
0
100
AcDbLine
 62
7
  6
CONTINUOUS
 10
5.3358720839
 20
12.1549845218
 11
6.4158720839
 21
12.1549845218
  0
LINE
  5
2A1
100
AcDbEntity
  8
0
100
AcDbLine
 62
7
  6
CONTINUOUS
 10
5.3358720839
 20
12.1716461301
 11
6.4158720839
 21
12.1716461301
  0
LINE
  5
2A2
100
AcDbEntity
  8
0
100
AcDbLine
 62
7
  6
CONTINUOUS
 10
5.3358720839
 20
12.3010750566
 11
6.4158720839
 21
12.3010750566
  0
LINE
  5
2A3
100
AcDbEntity
  8
LAYER_FEATURE
100
AcDbLine
 62
7
  6
CONTINUOUS
 10
6.4158720839
 20
13.2650477814
 11
6.5158720839
 21
13.3650477814
  0
LINE
  5
2A4
100
AcDbEntity
  8
0
100
AcDbLine
 62
7
  6
CONTINUOUS
 10
5.3358720839
 20
12.3129767237
 11
6.4158720839
 21
12.3129767237
  0
LINE
  5
2A5
100
AcDbEntity
  8
LAYER_CUT_FEAT
100
AcDbLine
 62
7
  6
CONTINUOUS
 10
5.3358720839
 20
12.3330308957
 11
6.4158720839
 21
12.3330308957
  0
LINE
  5
2A6
100
AcDbEntity
  8
LAYER_FEATURE
100
AcDbLine
 62
7
  6
CONTINUOUS
 10
6.4158720839
 20
11.9350477814
 11
6.5158720839
 21
11.8350477814
  0
LINE
  5
2A7
100
AcDbEntity
  8
LAYER_CUT_FEAT
100
AcDbLine
 62
7
  6
CONTINUOUS
 10
5.3358720839
 20
12.4766339194
 11
6.4158720839
 21
12.4766339194
  0
LINE
  5
2A8
100
AcDbEntity
  8
LAYER_CUT_FEAT
100
AcDbLine
 62
7
  6
CONTINUOUS
 10
5.3358720839
 20
12.4942257153
 11
6.4158720839
 21
12.4942257153
  0
LINE
  5
2A9
100
AcDbEntity
  8
0
100
AcDbLine
 62
7
  6
CONTINUOUS
 10
6.4158720839
 20
12.5160477814
 11
5.3358720839
 21
12.5160477814
  0
LINE
  5
2AA
100
AcDbEntity
  8
LAYER_FEATURE
100
AcDbLine
 62
7
  6
CONTINUOUS
 10
5.2358720839
 20
11.8350477814
 11
5.3358720839
 21
11.9350477814
  0
LINE
  5
2AB
100
AcDbEntity
  8
LAYER_FEATURE
100
AcDbLine
 62
7
  6
CONTINUOUS
 10
5.2358720839
 20
13.3650477814
 11
5.3358720839
 21
13.2650477814
  0
LINE
  5
2AC
100
AcDbEntity
  8
0
100
AcDbLine
 62
7
  6
CONTINUOUS
 10
6.4158720839
 20
12.6840477814
 11
5.3358720839
 21
12.6840477814
  0
LINE
  5
2AD
100
AcDbEntity
  8
0
100
AcDbLine
 62
7
  6
CONTINUOUS
 10
5.3358720839
 20
12.7058698474
 11
6.4158720839
 21
12.7058698474
  0
LINE
  5
2AE
100
AcDbEntity
  8
0
100
AcDbLine
 62
7
  6
CONTINUOUS
 10
5.3358720839
 20
12.867064667
 11
6.4158720839
 21
12.867064667
  0
LINE
  5
2AF
100
AcDbEntity
  8
0
100
AcDbLine
 62
7
  6
CONTINUOUS
 10
5.3358720839
 20
12.8871188391
 11
6.4158720839
 21
12.8871188391
  0
LINE
  5
2B0
100
AcDbEntity
  8
0
100
AcDbLine
 62
7
  6
CONTINUOUS
 10
5.3358720839
 20
12.8990205062
 11
6.4158720839
 21
12.8990205062
  0
LINE
  5
2B1
100
AcDbEntity
  8
0
100
AcDbLine
 62
7
  6
CONTINUOUS
 10
6.4158720839
 20
13.2670477814
 11
6.4158720839
 21
13.2669566869
  0
LINE
  5
2B2
100
AcDbEntity
  8
0
100
AcDbLine
 62
7
  6
CONTINUOUS
 10
6.4158720839
 20
13.2430477941
 11
6.4158720839
 21
13.2368365865
  0
LINE
  5
2B3
100
AcDbEntity
  8
0
100
AcDbLine
 62
7
  6
CONTINUOUS
 10
6.4158720839
 20
13.1670468643
 11
6.4158720839
 21
13.1551276442
  0
LINE
  5
2B4
100
AcDbEntity
  8
0
100
AcDbLine
 62
7
  6
CONTINUOUS
 10
6.4158720839
 20
13.0451110409
 11
6.4158720839
 21
13.0284494326
  0
LINE
  5
2B5
100
AcDbEntity
  8
0
100
AcDbLine
 62
7
  6
CONTINUOUS
 10
6.4158720839
 20
12.8871188391
 11
6.4158720839
 21
12.867064667
  0
LINE
  5
2B6
100
AcDbEntity
  8
0
100
AcDbLine
 62
7
  6
CONTINUOUS
 10
6.4158720839
 20
12.7058698474
 11
6.4158720839
 21
12.6840477814
  0
LINE
  5
2B7
100
AcDbEntity
  8
LAYER_CUT_FEAT
100
AcDbLine
 62
7
  6
CONTINUOUS
 10
6.4158720839
 20
12.5160477814
 11
6.4158720839
 21
12.4942257153
  0
LINE
  5
2B8
100
AcDbEntity
  8
0
100
AcDbLine
 62
7
  6
CONTINUOUS
 10
6.4158720839
 20
12.3330308957
 11
6.4158720839
 21
12.3129767237
  0
LINE
  5
2B9
100
AcDbEntity
  8
LAYER_FEATURE
100
AcDbLine
 62
7
  6
CONTINUOUS
 10
6.4158720839
 20
12.4942257153
 11
6.4158720839
 21
12.3330308957
  0
LINE
  5
2BA
100
AcDbEntity
  8
LAYER_FEATURE
100
AcDbLine
 62
7
  6
CONTINUOUS
 10
6.4158720839
 20
12.3129767237
 11
6.4158720839
 21
12.1716461301
  0
LINE
  5
2BB
100
AcDbEntity
  8
0
100
AcDbLine
 62
7
  6
CONTINUOUS
 10
6.4158720839
 20
12.1716461301
 11
6.4158720839
 21
12.1549845218
  0
LINE
  5
2BC
100
AcDbEntity
  8
0
100
AcDbLine
 62
7
  6
CONTINUOUS
 10
6.4158720839
 20
12.0449679185
 11
6.4158720839
 21
12.0330486984
  0
LINE
  5
2BD
100
AcDbEntity
  8
LAYER_FEATURE
100
AcDbLine
 62
7
  6
CONTINUOUS
 10
6.4158720839
 20
12.1549845218
 11
6.4158720839
 21
12.0449679185
  0
LINE
  5
2BE
100
AcDbEntity
  8
0
100
AcDbLine
 62
7
  6
CONTINUOUS
 10
6.4158720839
 20
11.9632589762
 11
6.4158720839
 21
11.9570477686
  0
LINE
  5
2BF
100
AcDbEntity
  8
LAYER_FEATURE
100
AcDbLine
 62
7
  6
CONTINUOUS
 10
6.4158720839
 20
12.0330486984
 11
6.4158720839
 21
11.9632589762
  0
LINE
  5
2C0
100
AcDbEntity
  8
LAYER_FEATURE
100
AcDbLine
 62
7
  6
CONTINUOUS
 10
6.4158720839
 20
11.9570477686
 11
6.4158720839
 21
11.9331388758
  0
LINE
  5
2C1
100
AcDbEntity
  8
0
100
AcDbLine
 62
7
  6
CONTINUOUS
 10
6.4158720839
 20
11.9331388758
 11
6.4158720839
 21
11.9330477814
  0
LINE
  5
2C2
100
AcDbEntity
  8
LAYER_FEATURE
100
AcDbLine
 62
7
  6
CONTINUOUS
 10
6.4158720839
 20
12.5160477814
 11
6.4158720839
 21
12.6840477814
  0
LINE
  5
2C3
100
AcDbEntity
  8
LAYER_FEATURE
100
AcDbLine
 62
7
  6
CONTINUOUS
 10
6.4158720839
 20
12.7058698474
 11
6.4158720839
 21
12.867064667
  0
LINE
  5
2C4
100
AcDbEntity
  8
LAYER_FEATURE
100
AcDbLine
 62
7
  6
CONTINUOUS
 10
6.4158720839
 20
12.8871188391
 11
6.4158720839
 21
13.0284494326
  0
LINE
  5
2C5
100
AcDbEntity
  8
LAYER_FEATURE
100
AcDbLine
 62
7
  6
CONTINUOUS
 10
6.4158720839
 20
13.0451110409
 11
6.4158720839
 21
13.1551276442
  0
LINE
  5
2C6
100
AcDbEntity
  8
LAYER_FEATURE
100
AcDbLine
 62
7
  6
CONTINUOUS
 10
6.4158720839
 20
13.1670468643
 11
6.4158720839
 21
13.2368365865
  0
LINE
  5
2C7
100
AcDbEntity
  8
LAYER_FEATURE
100
AcDbLine
 62
7
  6
CONTINUOUS
 10
6.4158720839
 20
13.2430477941
 11
6.4158720839
 21
13.2669566869
  0
LINE
  5
2C8
100
AcDbEntity
  8
LAYER_FEATURE
100
AcDbLine
 62
7
  6
CONTINUOUS
 10
6.5158720839
 20
11.835047831
 11
6.5158720839
 21
13.3650477317
  0
LINE
  5
2C9
100
AcDbEntity
  8
0
100
AcDbLine
 62
7
  6
CONTINUOUS
 10
5.3358720839
 20
13.0284494326
 11
6.4158720839
 21
13.0284494326
  0
LINE
  5
2CA
100
AcDbEntity
  8
0
100
AcDbLine
 62
7
  6
CONTINUOUS
 10
5.3358720839
 20
13.0451110409
 11
6.4158720839
 21
13.0451110409
  0
LINE
  5
2CB
100
AcDbEntity
  8
0
100
AcDbLine
 62
7
  6
CONTINUOUS
 10
5.3358720839
 20
13.0519151786
 11
6.4158720839
 21
13.0519151786
  0
LINE
  5
2CC
100
AcDbEntity
  8
02___PRT_ALL_AXES
100
AcDbLine
 62
7
  6
CONTINUOUS
 10
6.5158720839
 20
13.1450477814
 11
6.9058720839
 21
13.1450477814
  0
LINE
  5
2CD
100
AcDbEntity
  8
0
100
AcDbLine
 62
7
  6
CONTINUOUS
 10
5.3358720839
 20
13.1551276442
 11
6.4158720839
 21
13.1551276442
  0
LINE
  5
2CE
100
AcDbEntity
  8
0
100
AcDbLine
 62
7
  6
CONTINUOUS
 10
5.3358720839
 20
13.1670468643
 11
6.4158720839
 21
13.1670468643
  0
LINE
  5
2CF
100
AcDbEntity
  8
0
100
AcDbLine
 62
7
  6
CONTINUOUS
 10
5.3358720839
 20
13.169984551
 11
6.4158720839
 21
13.169984551
  0
LINE
  5
2D0
100
AcDbEntity
  8
0
100
AcDbLine
 62
7
  6
CONTINUOUS
 10
5.3358720839
 20
13.2368365865
 11
6.4158720839
 21
13.2368365865
  0
LINE
  5
2D1
100
AcDbEntity
  8
0
100
AcDbLine
 62
7
  6
CONTINUOUS
 10
5.3358720839
 20
13.2430477941
 11
6.4158720839
 21
13.2430477941
  0
LINE
  5
2D2
100
AcDbEntity
  8
0
100
AcDbLine
 62
7
  6
CONTINUOUS
 10
5.3358720839
 20
13.2436633451
 11
6.4158720839
 21
13.2436633451
  0
LINE
  5
2D3
100
AcDbEntity
  8
0
100
AcDbLine
 62
7
  6
CONTINUOUS
 10
5.3358720839
 20
13.2669566869
 11
6.4158720839
 21
13.2669566869
  0
LINE
  5
2D4
100
AcDbEntity
  8
02___PRT_ALL_AXES
100
AcDbLine
 62
7
  6
CONTINUOUS
 10
5.3358720839
 20
13.2670477814
 11
6.4158720839
 21
13.2670477814
  0
LINE
  5
2D5
100
AcDbEntity
  8
02___PRT_ALL_AXES
100
AcDbLine
 62
7
  6
CONTINUOUS
 10
6.9058720839
 20
13.1450477814
 11
6.9058720839
 21
12.0550477814
  0
LINE
  5
2D6
100
AcDbEntity
  8
LAYER_FEATURE
100
AcDbLine
 62
7
  6
CONTINUOUS
 10
14.7261729855
 20
13.1118599629
 11
14.7262405946
 21
13.1119421193
  0
LINE
  5
2D7
100
AcDbEntity
  8
LAYER_FEATURE
100
AcDbLine
 62
7
  6
CONTINUOUS
 10
14.7261729855
 20
13.1118599629
 11
14.7262411941
 21
13.1119388645
  0
LINE
  5
2D8
100
AcDbEntity
  8
LAYER_FEATURE
100
AcDbLine
 62
7
  6
CONTINUOUS
 10
14.8158602332
 20
11.8460763397
 11
14.8154225512
 21
11.8461050461
  0
LINE
  5
2D9
100
AcDbEntity
  8
0
100
AcDbLine
 62
7
  6
CONTINUOUS
 10
14.8158602332
 20
11.8460763174
 11
15.7740570158
 21
11.8460763174
  0
LINE
  5
2DA
100
AcDbEntity
  8
0
100
AcDbLine
 62
7
  6
CONTINUOUS
 10
14.8154225512
 20
11.8461050461
 11
15.7740330363
 21
11.8461050461
  0
LINE
  5
2DB
100
AcDbEntity
  8
0
100
AcDbLine
 62
7
  6
CONTINUOUS
 10
14.806879799
 20
11.8482971943
 11
15.772203273
 21
11.8482971943
  0
LINE
  5
2DC
100
AcDbEntity
  8
0
100
AcDbLine
 62
7
  6
CONTINUOUS
 10
14.7462005772
 20
11.8873869585
 11
15.7395754538
 21
11.8873869585
  0
LINE
  5
2DD
100
AcDbEntity
  8
0
100
AcDbLine
 62
7
  6
CONTINUOUS
 10
14.7433701161
 20
11.8886223279
 11
15.7381159896
 21
11.8886223279
  0
LINE
  5
2DE
100
AcDbEntity
  8
0
100
AcDbLine
 62
7
  6
CONTINUOUS
 10
14.73541391
 20
11.8969061051
 11
15.7301597835
 21
11.8969061051
  0
LINE
  5
2DF
100
AcDbEntity
  8
02___PRT_ALL_AXES
100
AcDbLine
 62
7
  6
CONTINUOUS
 10
15.9238265715
 20
11.9658049929
 11
16.2830403592
 21
11.9658049929
  0
LINE
  5
2E0
100
AcDbEntity
  8
0
100
AcDbLine
 62
7
  6
CONTINUOUS
 10
14.6838948926
 20
11.977420912
 11
15.6770743563
 21
11.977420912
  0
LINE
  5
2E1
100
AcDbEntity
  8
0
100
AcDbLine
 62
7
  6
CONTINUOUS
 10
14.6789009595
 20
11.981545149
 11
15.6736468331
 21
11.981545149
  0
LINE
  5
2E2
100
AcDbEntity
  8
0
100
AcDbLine
 62
7
  6
CONTINUOUS
 10
14.672175864
 20
11.9952494528
 11
15.6669217375
 21
11.9952494528
  0
LINE
  5
2E3
100
AcDbEntity
  8
0
100
AcDbLine
 62
7
  6
CONTINUOUS
 10
14.6339908153
 20
12.1088841624
 11
15.6254353968
 21
12.1088841624
  0
LINE
  5
2E4
100
AcDbEntity
  8
0
100
AcDbLine
 62
7
  6
CONTINUOUS
 10
14.6272379891
 20
12.117345455
 11
15.6219838626
 21
12.117345455
  0
LINE
  5
2E5
100
AcDbEntity
  8
0
100
AcDbLine
 62
7
  6
CONTINUOUS
 10
14.6222888314
 20
12.1353600443
 11
15.6170347049
 21
12.1353600443
  0
LINE
  5
2E6
100
AcDbEntity
  8
LAYER_FEATURE
100
AcDbLine
 62
7
  6
CONTINUOUS
 10
14.6000860022
 20
12.2711560737
 11
14.6003693589
 21
12.2711371651
  0
LINE
  5
2E7
100
AcDbEntity
  8
LAYER_FEATURE
100
AcDbLine
 62
7
  6
CONTINUOUS
 10
15.7209188591
 20
13.1118599629
 11
15.7209837759
 21
13.111938849
  0
LINE
  5
2E8
100
AcDbEntity
  8
LAYER_FEATURE
100
AcDbLine
 62
7
  6
CONTINUOUS
 10
15.7222325882
 20
13.1134454044
 11
15.7978743442
 21
13.2040680227
  0
LINE
  5
2E9
100
AcDbEntity
  8
0
100
AcDbLine
 62
7
  6
CONTINUOUS
 10
14.6003693589
 20
12.2711371516
 11
15.5902001499
 21
12.2711371516
  0
LINE
  5
2EA
100
AcDbEntity
  8
0
100
AcDbLine
 62
7
  6
CONTINUOUS
 10
14.5925666314
 20
12.2850215128
 11
15.5873125049
 21
12.2850215128
  0
LINE
  5
2EB
100
AcDbEntity
  8
0
100
AcDbLine
 62
7
  6
CONTINUOUS
 10
14.5897943628
 20
12.3058869526
 11
15.5845402363
 21
12.3058869526
  0
LINE
  5
2EC
100
AcDbEntity
  8
LAYER_FEATURE
100
AcDbLine
 62
7
  6
CONTINUOUS
 10
15.7222325882
 20
11.9081645814
 11
15.7978743442
 21
11.8175419632
  0
LINE
  5
2ED
100
AcDbEntity
  8
LAYER_FEATURE
100
AcDbLine
 62
7
  6
CONTINUOUS
 10
14.8708207265
 20
11.8175419632
 11
14.8946380549
 21
11.8460763174
  0
LINE
  5
2EE
100
AcDbEntity
  8
0
100
AcDbLine
 62
7
  6
CONTINUOUS
 10
14.5776957536
 20
12.4709892053
 11
15.5724416272
 21
12.4709892053
  0
LINE
  5
2EF
100
AcDbEntity
  8
0
100
AcDbLine
 62
7
  6
CONTINUOUS
 10
14.5773249669
 20
12.4930151019
 11
15.5720708404
 21
12.4930151019
  0
LINE
  5
2F0
100
AcDbEntity
  8
LAYER_FEATURE
100
AcDbLine
 62
7
  6
CONTINUOUS
 10
14.8708207265
 20
13.2040680227
 11
14.8946380549
 21
13.1755336684
  0
LINE
  5
2F1
100
AcDbEntity
  8
0
100
AcDbLine
 62
7
  6
CONTINUOUS
 10
14.5838301059
 20
12.6601825362
 11
15.5785759794
 21
12.6601825362
  0
LINE
  5
2F2
100
AcDbEntity
  8
LAYER_CUT_FEAT
100
AcDbLine
 62
7
  6
CONTINUOUS
 10
14.58589084
 20
12.6815844824
 11
15.5806367135
 21
12.6815844824
  0
LINE
  5
2F3
100
AcDbEntity
  8
LAYER_CUT_FEAT
100
AcDbLine
 62
7
  6
CONTINUOUS
 10
14.5936683455
 20
12.697198388
 11
15.5831800037
 21
12.697198388
  0
LINE
  5
2F4
100
AcDbEntity
  8
LAYER_CUT_FEAT
100
AcDbLine
 62
7
  6
CONTINUOUS
 10
14.6104727195
 20
12.8372741869
 11
15.605218593
 21
12.8372741869
  0
LINE
  5
2F5
100
AcDbEntity
  8
0
100
AcDbLine
 62
7
  6
CONTINUOUS
 10
15.6095438994
 20
12.8563183242
 11
14.6147980259
 21
12.8563183242
  0
LINE
  5
2F6
100
AcDbEntity
  8
0
100
AcDbLine
 62
7
  6
CONTINUOUS
 10
14.6219806351
 20
12.8663265742
 11
15.6129041556
 21
12.8663265742
  0
LINE
  5
2F7
100
AcDbEntity
  8
0
100
AcDbLine
 62
7
  6
CONTINUOUS
 10
15.6502110418
 20
12.987917245
 11
14.6554651682
 21
12.987917245
  0
LINE
  5
2F8
100
AcDbEntity
  8
0
100
AcDbLine
 62
7
  6
CONTINUOUS
 10
14.6617046364
 20
13.0030607308
 11
15.65645051
 21
13.0030607308
  0
LINE
  5
2F9
100
AcDbEntity
  8
0
100
AcDbLine
 62
7
  6
CONTINUOUS
 10
14.6672806627
 20
13.0083583274
 11
15.6599215569
 21
13.0083583274
  0
LINE
  5
2FA
100
AcDbEntity
  8
02___PRT_ALL_AXES
100
AcDbLine
 62
7
  6
CONTINUOUS
 10
15.9238265715
 20
13.0558049929
 11
16.2830403592
 21
13.0558049929
  0
LINE
  5
2FB
100
AcDbEntity
  8
0
100
AcDbLine
 62
7
  6
CONTINUOUS
 10
14.7151624316
 20
13.0999075061
 11
15.7099083051
 21
13.0999075061
  0
LINE
  5
2FC
100
AcDbEntity
  8
0
100
AcDbLine
 62
7
  6
CONTINUOUS
 10
14.7228105769
 20
13.1099235051
 11
15.7175564504
 21
13.1099235051
  0
LINE
  5
2FD
100
AcDbEntity
  8
0
100
AcDbLine
 62
7
  6
CONTINUOUS
 10
14.7263282838
 20
13.1118635776
 11
15.7209188591
 21
13.1118635776
  0
LINE
  5
2FE
100
AcDbEntity
  8
LAYER_FEATURE
100
AcDbLine
 62
7
  6
CONTINUOUS
 10
14.7263282838
 20
13.1118635327
 11
14.7261729855
 21
13.1118599629
  0
LINE
  5
2FF
100
AcDbEntity
  8
0
100
AcDbLine
 62
7
  6
CONTINUOUS
 10
14.7847281922
 20
13.164172185
 11
15.7645737039
 21
13.164172185
  0
LINE
  5
300
100
AcDbEntity
  8
0
100
AcDbLine
 62
7
  6
CONTINUOUS
 10
14.7931654075
 20
13.1682492606
 11
15.7679767965
 21
13.1682492606
  0
LINE
  5
301
100
AcDbEntity
  8
0
100
AcDbLine
 62
7
  6
CONTINUOUS
 10
14.7943398112
 20
13.1684569452
 11
15.7681501486
 21
13.1684569452
  0
LINE
  5
302
100
AcDbEntity
  8
0
100
AcDbLine
 62
7
  6
CONTINUOUS
 10
14.858088964
 20
13.1755336684
 11
15.7740570158
 21
13.1755336684
  0
CIRCLE
  5
303
100
AcDbEntity
  8
LAYER_FEATURE
100
AcDbCircle
 62
7
  6
CONTINUOUS
 10
15.5603552569
 20
5.4606247044
 40
0.765
  0
CIRCLE
  5
304
100
AcDbEntity
  8
02___PRT_ALL_AXES
100
AcDbCircle
 62
7
  6
CONTINUOUS
 10
15.5603552569
 20
5.4606247044
 40
0.545
  0
CIRCLE
  5
305
100
AcDbEntity
  8
02___PRT_ALL_AXES
100
AcDbCircle
 62
7
  6
CONTINUOUS
 10
15.5603552569
 20
5.4606247044
 40
0.125
  0
ARC
  5
306
100
AcDbEntity
  8
0
100
AcDbCircle
 62
7
  6
CONTINUOUS
 10
15.6250288759
 20
12.4011562146
 40
1.0373693658
100
AcDbArc
 50
194.8459674104
 51
195.8778255277
  0
ARC
  5
307
100
AcDbEntity
  8
LAYER_FEATURE
100
AcDbCircle
 62
7
  6
CONTINUOUS
 10
15.5999428853
 20
11.8991004141
 40
0.8008829903
100
AcDbArc
 50
181.085254501
 51
182.3420021089
  0
ARC
  5
308
100
AcDbEntity
  8
LAYER_FEATURE
100
AcDbCircle
 62
7
  6
CONTINUOUS
 10
15.4891461122
 20
11.865461904
 40
0.7605271047
100
AcDbArc
 50
174.6290003555
 51
175.931308689
  0
ARC
  5
309
100
AcDbEntity
  8
LAYER_FEATURE
100
AcDbCircle
 62
7
  6
CONTINUOUS
 10
15.2419913674
 20
11.9083620347
 40
0.5828912337
100
AcDbArc
 50
167.3628974137
 51
168.9198163561
  0
ARC
  5
30A
100
AcDbEntity
  8
0
100
AcDbCircle
 62
7
  6
CONTINUOUS
 10
15.1822952625
 20
12.2370774437
 40
0.5645374902
100
AcDbArc
 50
205.3638311233
 51
206.9131953258
  0
ARC
  5
30B
100
AcDbEntity
  8
LAYER_FEATURE
100
AcDbCircle
 62
7
  6
CONTINUOUS
 10
14.9544041684
 20
12.0405343482
 40
0.3527152279
100
AcDbArc
 50
157.8371114299
 51
160.0164252562
  0
ARC
  5
30C
100
AcDbEntity
  8
0
100
AcDbCircle
 62
7
  6
CONTINUOUS
 10
14.9124557223
 20
12.0589843488
 40
0.240027416
100
AcDbArc
 50
222.4734801304
 51
225.215446582
  0
ARC
  5
30D
100
AcDbEntity
  8
LAYER_FEATURE
100
AcDbCircle
 62
7
  6
CONTINUOUS
 10
14.6038616609
 20
11.8802303381
 40
0.1953769584
100
AcDbArc
 50
1.0854837027
 51
2.0992913332
  0
ARC
  5
30E
100
AcDbEntity
  8
LAYER_FEATURE
100
AcDbCircle
 62
7
  6
CONTINUOUS
 10
14.5432799214
 20
11.9543353567
 40
0.1895051858
100
AcDbArc
 50
354.645321557
 51
357.8761039822
  0
ARC
  5
30F
100
AcDbEntity
  8
LAYER_FEATURE
100
AcDbCircle
 62
7
  6
CONTINUOUS
 10
14.7328021897
 20
12.238169508
 40
0.1671300617
100
AcDbArc
 50
143.055846505
 51
146.6294933804
  0
ARC
  5
310
100
AcDbEntity
  8
LAYER_FEATURE
100
AcDbCircle
 62
7
  6
CONTINUOUS
 10
14.5261962515
 20
12.0687102953
 40
0.1506442341
100
AcDbArc
 50
347.4139850117
 51
351.1791907112
  0
ARC
  5
311
100
AcDbEntity
  8
0
100
AcDbCircle
 62
7
  6
CONTINUOUS
 10
14.8383932279
 20
11.9533627878
 40
0.1096899045
100
AcDbArc
 50
253.3038823229
 51
257.9119465457
  0
ARC
  5
312
100
AcDbEntity
  8
LAYER_FEATURE
100
AcDbCircle
 62
7
  6
CONTINUOUS
 10
14.8369743471
 20
11.9467224651
 40
0.1009174715
100
AcDbArc
 50
266.500454841
 51
273.1777463462
  0
ARC
  5
313
100
AcDbEntity
  8
LAYER_FEATURE
100
AcDbCircle
 62
7
  6
CONTINUOUS
 10
14.5943731317
 20
12.4999032073
 40
0.0493488569
100
AcDbArc
 50
258.7854706287
 51
262.7781418073
  0
ARC
  5
314
100
AcDbEntity
  8
LAYER_FEATURE
100
AcDbCircle
 62
7
  6
CONTINUOUS
 10
14.7658109769
 20
11.9169168366
 40
0.0353641383
100
AcDbArc
 50
175.9359950846
 51
179.9200561766
  0
ARC
  5
315
100
AcDbEntity
  8
LAYER_FEATURE
100
AcDbCircle
 62
7
  6
CONTINUOUS
 10
14.8341606967
 20
11.86777494
 40
0.0344603623
100
AcDbArc
 50
182.3317253255
 51
186.3707028972
  0
ARC
  5
316
100
AcDbEntity
  8
LAYER_FEATURE
100
AcDbCircle
 62
7
  6
CONTINUOUS
 10
14.6992579229
 20
12.0146767799
 40
0.0298429534
100
AcDbArc
 50
168.9755841469
 51
173.4316712035
  0
ARC
  5
317
100
AcDbEntity
  8
LAYER_CUT_FEAT
100
AcDbCircle
 62
7
  6
CONTINUOUS
 10
15.7779933683
 20
12.5821200289
 40
1.1950766125
100
AcDbArc
 50
166.7358996104
 51
167.672199372
  0
ARC
  5
318
100
AcDbEntity
  8
LAYER_FEATURE
100
AcDbCircle
 62
7
  6
CONTINUOUS
 10
15.57813293
 20
13.1639204373
 40
0.8001737752
100
AcDbArc
 50
181.4693271129
 51
182.0929242742
  0
ARC
  5
319
100
AcDbEntity
  8
0
100
AcDbCircle
 62
7
  6
CONTINUOUS
 10
15.3119462229
 20
12.7262889351
 40
0.7066942392
100
AcDbArc
 50
156.9432345975
 51
158.2711659519
  0
ARC
  5
31A
100
AcDbEntity
  8
LAYER_FEATURE
100
AcDbCircle
 62
7
  6
CONTINUOUS
 10
15.3848440539
 20
13.1714311711
 40
0.6804737884
100
AcDbArc
 50
188.1237493169
 51
188.8180843312
  0
ARC
  5
31B
100
AcDbEntity
  8
LAYER_FEATURE
100
AcDbCircle
 62
7
  6
CONTINUOUS
 10
15.0988809305
 20
13.0894681884
 40
0.4625936855
100
AcDbArc
 50
196.0705895994
 51
196.9680902945
  0
ARC
  5
31C
100
AcDbEntity
  8
0
100
AcDbCircle
 62
7
  6
CONTINUOUS
 10
14.9753995606
 20
12.909120327
 40
0.322681129
100
AcDbArc
 50
141.5160043838
 51
143.7538058785
  0
ARC
  5
31D
100
AcDbEntity
  8
LAYER_FEATURE
100
AcDbCircle
 62
7
  6
CONTINUOUS
 10
14.8298529317
 20
12.9228690592
 40
0.2445868049
100
AcDbArc
 50
207.2058283786
 51
208.5774782432
  0
ARC
  5
31E
100
AcDbEntity
  8
LAYER_FEATURE
100
AcDbCircle
 62
7
  6
CONTINUOUS
 10
14.5852212081
 20
13.1275979032
 40
0.1934018464
100
AcDbArc
 50
355.3308356958
 51
2.1038480184
  0
ARC
  5
31F
100
AcDbEntity
  8
LAYER_FEATURE
100
AcDbCircle
 62
7
  6
CONTINUOUS
 10
14.504726559
 20
12.9102476329
 40
0.157901508
100
AcDbArc
 50
358.3819233727
 51
4.2931978496
  0
ARC
  5
320
100
AcDbEntity
  8
0
100
AcDbCircle
 62
7
  6
CONTINUOUS
 10
14.8465542552
 20
13.0469962312
 40
0.1324864756
100
AcDbArc
 50
113.7643443985
 51
117.8176703768
  0
ARC
  5
321
100
AcDbEntity
  8
LAYER_FEATURE
100
AcDbCircle
 62
7
  6
CONTINUOUS
 10
14.6035719592
 20
13.0317809386
 40
0.1105291578
100
AcDbArc
 50
347.7626274684
 51
351.7754491125
  0
ARC
  5
322
100
AcDbEntity
  8
LAYER_FEATURE
100
AcDbCircle
 62
7
  6
CONTINUOUS
 10
14.659661099
 20
12.7093904311
 40
0.1019799232
100
AcDbArc
 50
225.7375533521
 51
228.1942233969
  0
ARC
  5
323
100
AcDbEntity
  8
LAYER_FEATURE
100
AcDbCircle
 62
7
  6
CONTINUOUS
 10
14.6396696307
 20
12.6559443319
 40
0.0560002095
100
AcDbArc
 50
175.6595883169
 51
184.7224100158
  0
ARC
  5
324
100
AcDbEntity
  8
LAYER_FEATURE
100
AcDbCircle
 62
7
  6
CONTINUOUS
 10
15.6344155042
 20
12.6559443319
 40
0.0560002095
100
AcDbArc
 50
175.6595883175
 51
184.7224100166
  0
ARC
  5
325
100
AcDbEntity
  8
LAYER_FEATURE
100
AcDbCircle
 62
7
  6
CONTINUOUS
 10
14.8138420042
 20
13.1443227498
 40
0.0356316328
100
AcDbArc
 50
175.638104526
 51
181.4798435274
  0
ARC
  5
326
100
AcDbEntity
  8
0
100
AcDbCircle
 62
7
  6
CONTINUOUS
 10
17.2811244429
 20
12.5107694582
 40
1.7091458198
100
AcDbArc
 50
180.5951908639
 51
181.3336758089
  0
ARC
  5
327
100
AcDbEntity
  8
0
100
AcDbCircle
 62
7
  6
CONTINUOUS
 10
16.2853433026
 20
12.5107520304
 40
1.7081104278
100
AcDbArc
 50
180.59496704
 51
181.3338996328
  0
ARC
  5
328
100
AcDbEntity
  8
LAYER_FEATURE
100
AcDbCircle
 62
7
  6
CONTINUOUS
 10
17.2769240463
 20
12.5107792686
 40
1.7041666835
100
AcDbArc
 50
180.3061398399
 51
181.6227268329
  0
ARC
  5
329
100
AcDbEntity
  8
0
100
AcDbCircle
 62
7
  6
CONTINUOUS
 10
16.168895906
 20
12.5183611303
 40
1.5913977824
100
AcDbArc
 50
174.1130468633
 51
174.8871599362
  0
ARC
  5
32A
100
AcDbEntity
  8
0
100
AcDbCircle
 62
7
  6
CONTINUOUS
 10
17.0669182183
 20
12.4922249315
 40
1.4940436151
100
AcDbArc
 50
187.1646196365
 51
187.9718366855
  0
ARC
  5
32B
100
AcDbEntity
  8
LAYER_FEATURE
100
AcDbCircle
 62
7
  6
CONTINUOUS
 10
17.0656907755
 20
12.4926638772
 40
1.4920685258
100
AcDbArc
 50
186.8498105929
 51
188.2866457291
  0
ARC
  5
32C
100
AcDbEntity
  8
0
100
AcDbCircle
 62
7
  6
CONTINUOUS
 10
16.0652261959
 20
12.4913020375
 40
1.4870365994
100
AcDbArc
 50
187.1627177745
 51
187.9737385475
  0
ARC
  5
32D
100
AcDbEntity
  8
0
100
AcDbCircle
 62
7
  6
CONTINUOUS
 10
16.6290181805
 20
12.4036956674
 40
1.0469548995
100
AcDbArc
 50
194.8506911929
 51
195.8731017453
  0
ARC
  5
32E
100
AcDbEntity
  8
LAYER_FEATURE
100
AcDbCircle
 62
7
  6
CONTINUOUS
 10
16.6218473804
 20
12.402800394
 40
1.0388842323
100
AcDbArc
 50
194.446091078
 51
196.2777018601
  0
ARC
  5
32F
100
AcDbEntity
  8
0
100
AcDbCircle
 62
7
  6
CONTINUOUS
 10
16.184309981
 20
12.2406444747
 40
0.5726336624
100
AcDbArc
 50
205.3747846076
 51
206.9022418416
  0
ARC
  5
330
100
AcDbEntity
  8
LAYER_FEATURE
100
AcDbCircle
 62
7
  6
CONTINUOUS
 10
16.1794902557
 20
12.239739726
 40
0.5667838491
100
AcDbArc
 50
204.7668060254
 51
207.5102204238
  0
ARC
  5
331
100
AcDbEntity
  8
0
100
AcDbCircle
 62
7
  6
CONTINUOUS
 10
15.9103436652
 20
12.0620021691
 40
0.2443827767
100
AcDbArc
 50
222.4979181707
 51
225.1910085417
  0
ARC
  5
332
100
AcDbEntity
  8
0
100
AcDbCircle
 62
7
  6
CONTINUOUS
 10
17.1582095309
 20
12.5188841864
 40
1.585940535
100
AcDbArc
 50
174.1117149751
 51
174.8884918245
  0
ARC
  5
333
100
AcDbEntity
  8
LAYER_FEATURE
100
AcDbCircle
 62
7
  6
CONTINUOUS
 10
17.1518656072
 20
12.519047514
 40
1.5788118606
100
AcDbArc
 50
173.8065747683
 51
175.1936320312
  0
ARC
  5
334
100
AcDbEntity
  8
LAYER_CUT_FEAT
100
AcDbCircle
 62
7
  6
CONTINUOUS
 10
16.7637112433
 20
12.5841704688
 40
1.1858190051
100
AcDbArc
 50
166.7322447142
 51
167.6758542682
  0
ARC
  5
335
100
AcDbEntity
  8
LAYER_FEATURE
100
AcDbCircle
 62
7
  6
CONTINUOUS
 10
16.7571903671
 20
12.5847122027
 40
1.1784616003
100
AcDbArc
 50
166.3601117303
 51
168.0479872522
  0
ARC
  5
336
100
AcDbEntity
  8
LAYER_FEATURE
100
AcDbCircle
 62
7
  6
CONTINUOUS
 10
16.3010119533
 20
12.7272743166
 40
0.7000189864
100
AcDbArc
 50
156.4156201059
 51
158.7987804435
  0
ARC
  5
337
100
AcDbEntity
  8
0
100
AcDbCircle
 62
7
  6
CONTINUOUS
 10
16.2984573108
 20
12.7296818582
 40
0.6977884638
100
AcDbArc
 50
156.9347601109
 51
158.2796404384
  0
ARC
  5
338
100
AcDbEntity
  8
LAYER_FEATURE
100
AcDbCircle
 62
7
  6
CONTINUOUS
 10
15.9674238802
 20
12.9095376068
 40
0.3189029025
100
AcDbArc
 50
140.6220954755
 51
144.6477147869
  0
ARC
  5
339
100
AcDbEntity
  8
0
100
AcDbCircle
 62
7
  6
CONTINUOUS
 10
15.9657297596
 20
12.9124921045
 40
0.3171263933
100
AcDbArc
 50
141.4964033379
 51
143.7734069245
  0
ARC
  5
33A
100
AcDbEntity
  8
LAYER_FEATURE
100
AcDbCircle
 62
7
  6
CONTINUOUS
 10
15.9433733654
 20
12.9288665145
 40
0.2880496644
100
AcDbArc
 50
140.1493651483
 51
140.538600452
  0
SPLINE
  5
33B
100
AcDbEntity
  8
02___PRT_ALL_AXES
100
AcDbSpline
 62
7
  6
CONTINUOUS
 70
0
 71
3
 72
75
 73
71
 74
0
 42
0.0000001
 43
0.0000001
 44
0.0000000001
 40
0.0
 40
0.0
 40
0.0
 40
0.0
 40
0.0038601584
 40
0.0077283485
 40
0.0116125388
 40
0.0155205797
 40
0.0194601386
 40
0.0234386601
 40
0.0274633113
 40
0.0315409492
 40
0.0398790149
 40
0.0485026059
 40
0.0574532448
 40
0.0667662428
 40
0.076470926
 40
0.0865910246
 40
0.0971451438
 40
0.1081472588
 40
0.119607194
 40
0.1315310723
 40
0.1439217209
 40
0.1567790302
 40
0.170100268
 40
0.183880353
 40
0.1981120921
 40
0.2127863855
 40
0.22789241
 40
0.2434177792
 40
0.259348683
 40
0.2756700126
 40
0.2923654727
 40
0.3094176808
 40
0.3268082606
 40
0.3445179292
 40
0.3625265759
 40
0.3808133375
 40
0.3993566676
 40
0.4181344035
 40
0.4371238295
 40
0.4563017403
 40
0.4756445012
 40
0.4951281068
 40
0.5147282381
 40
0.5344203184
 40
0.5541795693
 40
0.5739810654
 40
0.5937997897
 40
0.6136106883
 40
0.6333887242
 40
0.6531089314
 40
0.6727464698
 40
0.69227668
 40
0.71167514
 40
0.7309177198
 40
0.7499806392
 40
0.7688405249
 40
0.7874744704
 40
0.8058600972
 40
0.8239756198
 40
0.8417999107
 40
0.8593125685
 40
0.8764939911
 40
0.8933254522
 40
0.9097891854
 40
0.9258684763
 40
0.9415477505
 40
0.9568127287
 40
0.9716503767
 40
0.9860495014
 40
1.0
 40
1.0
 40
1.0
 40
1.0
 10
16.2830403592
 20
11.9658049966
 30
0.0
 10
16.2844062783
 20
11.9658049941
 30
0.0
 10
16.2871414422
 20
11.96587285
 30
0.0
 10
16.2912407861
 20
11.9661780697
 30
0.0
 10
16.2953370602
 20
11.9666865913
 30
0.0
 10
16.2994285419
 20
11.9673982518
 30
0.0
 10
16.3035137106
 20
11.9683126956
 30
0.0
 10
16.3075909675
 20
11.969429572
 30
0.0
 10
16.3116588463
 20
11.970748436
 30
0.0
 10
16.3171079017
 20
11.9727903451
 30
0.0
 10
16.323900212
 20
11.9758622692
 30
0.0
 10
16.3319238603
 20
11.9803191859
 30
0.0
 10
16.3398704698
 20
11.9855664814
 30
0.0
 10
16.3477283542
 20
11.9915953223
 30
0.0
 10
16.3554866746
 20
11.9983962164
 30
0.0
 10
16.3631345344
 20
12.0059587172
 30
0.0
 10
16.3706611788
 20
12.0142714467
 30
0.0
 10
16.3780559212
 20
12.023322033
 30
0.0
 10
16.38530818
 20
12.0330970826
 30
0.0
 10
16.3924074954
 20
12.0435821657
 30
0.0
 10
16.3993435577
 20
12.0547618166
 30
0.0
 10
16.4061062364
 20
12.0666195403
 30
0.0
 10
16.4126856082
 20
12.0791378281
 30
0.0
 10
16.419071982
 20
12.0922981774
 30
0.0
 10
16.4252559228
 20
12.1060811156
 30
0.0
 10
16.4312282763
 20
12.1204662267
 30
0.0
 10
16.4369801845
 20
12.1354321841
 30
0.0
 10
16.4425031042
 20
12.1509567839
 30
0.0
 10
16.4477888228
 20
12.1670169795
 30
0.0
 10
16.4528294735
 20
12.1835889162
 30
0.0
 10
16.4576175482
 20
12.2006479678
 30
0.0
 10
16.4621459127
 20
12.218168773
 30
0.0
 10
16.4664078186
 20
12.2361252745
 30
0.0
 10
16.4703969118
 20
12.2544907598
 30
0.0
 10
16.4741072431
 20
12.2732379028
 30
0.0
 10
16.4775332778
 20
12.2923388043
 30
0.0
 10
16.4806699041
 20
12.3117650346
 30
0.0
 10
16.4835124404
 20
12.3314876752
 30
0.0
 10
16.4860566465
 20
12.3514773624
 30
0.0
 10
16.4882987269
 20
12.371704332
 30
0.0
 10
16.4902353359
 20
12.3921384645
 30
0.0
 10
16.4918635836
 20
12.4127493306
 30
0.0
 10
16.4931810395
 20
12.4335062362
 30
0.0
 10
16.494185736
 20
12.4543782686
 30
0.0
 10
16.4948761732
 20
12.4753343421
 30
0.0
 10
16.4952513221
 20
12.4963432451
 30
0.0
 10
16.4953106234
 20
12.5173736872
 30
0.0
 10
16.495053989
 20
12.538394346
 30
0.0
 10
16.4944818015
 20
12.5593739136
 30
0.0
 10
16.4935949143
 20
12.5802811434
 30
0.0
 10
16.4923946495
 20
12.601084897
 30
0.0
 10
16.490882799
 20
12.6217541909
 30
0.0
 10
16.4890616205
 20
12.6422582437
 30
0.0
 10
16.4869338321
 20
12.6625665214
 30
0.0
 10
16.4845026094
 20
12.6826487831
 30
0.0
 10
16.4817715799
 20
12.7024751262
 30
0.0
 10
16.4787448177
 20
12.7220160313
 30
0.0
 10
16.475426838
 20
12.7412424072
 30
0.0
 10
16.4718225924
 20
12.7601256354
 30
0.0
 10
16.4679374582
 20
12.7786376128
 30
0.0
 10
16.4637772304
 20
12.7967507936
 30
0.0
 10
16.4593481122
 20
12.8144382306
 30
0.0
 10
16.454656706
 20
12.831673616
 30
0.0
 10
16.4497100016
 20
12.8484313228
 30
0.0
 10
16.444515367
 20
12.8646864396
 30
0.0
 10
16.4390805371
 20
12.8804148324
 30
0.0
 10
16.4334135997
 20
12.8955931033
 30
0.0
 10
16.4275229542
 20
12.9101988453
 30
0.0
 10
16.4214174216
 20
12.9242101333
 30
0.0
 10
16.4171411968
 20
12.9332866036
 30
0.0
 10
16.4149665054
 20
12.9377181587
 30
0.0
  0
SPLINE
  5
33C
100
AcDbEntity
  8
LAYER_FEATURE
100
AcDbSpline
 62
7
  6
CONTINUOUS
 70
0
 71
3
 72
50
 73
46
 74
0
 42
0.0000001
 43
0.0000001
 44
0.0000000001
 40
0.0
 40
0.0
 40
0.0
 40
0.0
 40
0.0333224956
 40
0.065300342
 40
0.0959847367
 40
0.1254415453
 40
0.1537527125
 40
0.1810175054
 40
0.2073533864
 40
0.2202176561
 40
0.2329022057
 40
0.2454267763
 40
0.2578121176
 40
0.2700798855
 40
0.2822525344
 40
0.29435319
 40
0.3064054919
 40
0.3184334393
 40
0.3304612096
 40
0.3425129812
 40
0.3546127581
 40
0.3667841844
 40
0.379050398
 40
0.3914338589
 40
0.4039562421
 40
0.4166383036
 40
0.4294998082
 40
0.4558293705
 40
0.4830869168
 40
0.4971034092
 40
0.5113944218
 40
0.5408425288
 40
0.5560240182
 40
0.5715211214
 40
0.6034893007
 40
0.6368018048
 40
0.6714966916
 40
0.7076001538
 40
0.745127787
 40
0.7840857294
 40
0.8244716708
 40
0.8662757367
 40
0.90948126
 40
0.9540654542
 40
1.0
 40
1.0
 40
1.0
 40
1.0
 10
15.797874345
 20
13.2040680184
 30
0.0
 10
15.8012199445
 20
13.2080762107
 30
0.0
 10
15.8079647543
 20
13.2157763145
 30
0.0
 10
15.8184623054
 20
13.2265554533
 30
0.0
 10
15.8291147666
 20
13.2363070621
 30
0.0
 10
15.8399073395
 20
13.2450164369
 30
0.0
 10
15.8508256782
 20
13.2526706111
 30
0.0
 10
15.8618543058
 20
13.259257363
 30
0.0
 10
15.8711979639
 20
13.2638841034
 30
0.0
 10
15.8786990239
 20
13.2670232479
 30
0.0
 10
15.8842980908
 20
13.2690870879
 30
0.0
 10
15.8899117204
 20
13.2708776502
 30
0.0
 10
15.8955379544
 20
13.2723942911
 30
0.0
 10
15.9011747058
 20
13.2736363913
 30
0.0
 10
15.9068199041
 20
13.2746034382
 30
0.0
 10
15.9124714504
 20
13.2752950625
 30
0.0
 10
15.9181272445
 20
13.2757109416
 30
0.0
 10
15.9237851701
 20
13.2758509517
 30
0.0
 10
15.929443111
 20
13.2757149786
 30
0.0
 10
15.9350989519
 20
13.2753031397
 30
0.0
 10
15.9407505746
 20
13.2746155428
 30
0.0
 10
15.9463958824
 20
13.2736525315
 30
0.0
 10
15.9520327704
 20
13.2724144442
 30
0.0
 10
15.9576591759
 20
13.2709018261
 30
0.0
 10
15.9632730022
 20
13.2691152577
 30
0.0
 10
15.9688722974
 20
13.2670554216
 30
0.0
 10
15.9763736583
 20
13.2639216302
 30
0.0
 10
15.9857176197
 20
13.2593016912
 30
0.0
 10
15.9948233995
 20
13.2538701779
 30
0.0
 10
16.0020484858
 20
13.2490102788
 30
0.0
 10
16.0093761178
 20
13.2436978623
 30
0.0
 10
16.0165691522
 20
13.2378989232
 30
0.0
 10
16.023622591
 20
13.2316525518
 30
0.0
 10
16.0307737638
 20
13.2249270979
 30
0.0
 10
16.03961244
 20
13.2158585734
 30
0.0
 10
16.0499423084
 20
13.2040745104
 30
0.0
 10
16.0600892442
 20
13.1912948096
 30
0.0
 10
16.0700389164
 20
13.1775380056
 30
0.0
 10
16.0797774886
 20
13.162823636
 30
0.0
 10
16.0892912436
 20
13.1471726994
 30
0.0
 10
16.0985667386
 20
13.1306075075
 30
0.0
 10
16.1075907997
 20
13.113151718
 30
0.0
 10
16.1163505907
 20
13.0948302281
 30
0.0
 10
16.1248335331
 20
13.0756694095
 30
0.0
 10
16.1302173499
 20
13.0625463711
 30
0.0
 10
16.1328637413
 20
13.0558535378
 30
0.0
  0
SPLINE
  5
33D
100
AcDbEntity
  8
LAYER_FEATURE
100
AcDbSpline
 62
7
  6
CONTINUOUS
 70
0
 71
3
 72
50
 73
46
 74
0
 42
0.0000001
 43
0.0000001
 44
0.0000000001
 40
0.0
 40
0.0
 40
0.0
 40
0.0
 40
0.0333212995
 40
0.0652979045
 40
0.0959810193
 40
0.1254365194
 40
0.1537463624
 40
0.1810098323
 40
0.207344411
 40
0.2202080473
 40
0.2328919725
 40
0.2454159402
 40
0.2578006951
 40
0.2700679033
 40
0.2822400174
 40
0.2943401697
 40
0.3063920011
 40
0.3184195147
 40
0.3304468901
 40
0.3424983087
 40
0.3545977753
 40
0.3667689381
 40
0.3790349325
 40
0.3914182248
 40
0.4039404839
 40
0.4166224739
 40
0.4294839507
 40
0.4558136054
 40
0.4830714289
 40
0.4970881261
 40
0.5113793854
 40
0.5408281055
 40
0.5560099539
 40
0.5715074579
 40
0.6034765287
 40
0.6367900406
 40
0.6714860357
 40
0.707590691
 40
0.7451195869
 40
0.7840788463
 40
0.8244661442
 40
0.8662715904
 40
0.9094785059
 40
0.9540640841
 40
1.0
 40
1.0
 40
1.0
 40
1.0
 10
15.7978743447
 20
11.8175419658
 30
0.0
 10
15.8012201751
 20
11.8135334987
 30
0.0
 10
15.8079654506
 20
11.8058328858
 30
0.0
 10
15.8184637558
 20
11.7950530951
 30
0.0
 10
15.8291169908
 20
11.7853009803
 30
0.0
 10
15.8399103548
 20
11.7765912488
 30
0.0
 10
15.8508294992
 20
11.76893687
 30
0.0
 10
15.8618589424
 20
11.7623500649
 30
0.0
 10
15.8712032954
 20
11.7577234161
 30
0.0
 10
15.8787049028
 20
11.7545844131
 30
0.0
 10
15.8843043839
 20
11.7525207338
 30
0.0
 10
15.8899184205
 20
11.7507303524
 30
0.0
 10
15.8955450672
 20
11.7492139511
 30
0.0
 10
15.9011822251
 20
11.7479721113
 30
0.0
 10
15.9068278321
 20
11.7470053806
 30
0.0
 10
15.9124797826
 20
11.7463140984
 30
0.0
 10
15.9181359797
 20
11.74589861
 30
0.0
 10
15.9237943047
 20
11.7457590249
 30
0.0
 10
15.9294526421
 20
11.7458954613
 30
0.0
 10
15.9351088749
 20
11.7463078078
 30
0.0
 10
15.9407608867
 20
11.7469959402
 30
0.0
 10
15.9464065762
 20
11.7479595394
 30
0.0
 10
15.9520438446
 20
11.7491982352
 30
0.0
 10
15.9576706197
 20
11.7507115183
 30
0.0
 10
15.963284816
 20
11.7524987692
 30
0.0
 10
15.9688844676
 20
11.7545593435
 30
0.0
 10
15.976386321
 20
11.7576941602
 30
0.0
 10
15.9857308698
 20
11.7623154939
 30
0.0
 10
15.9948371728
 20
11.7677484707
 30
0.0
 10
16.0020626623
 20
11.7726096074
 30
0.0
 10
16.0093907138
 20
11.7779233433
 30
0.0
 10
16.0165841308
 20
11.7837236517
 30
0.0
 10
16.0236379297
 20
11.7899714282
 30
0.0
 10
16.0307894603
 20
11.7966983789
 30
0.0
 10
16.0396285599
 20
11.8057688435
 30
0.0
 10
16.0499588739
 20
11.8175553228
 30
0.0
 10
16.0601062076
 20
11.8303375496
 30
0.0
 10
16.070056226
 20
11.8440969847
 30
0.0
 10
16.0797950904
 20
11.8588140837
 30
0.0
 10
16.0893090813
 20
11.8744678414
 30
0.0
 10
16.0985847533
 20
11.8910359389
 30
0.0
 10
16.1076089309
 20
11.9084947112
 30
0.0
 10
16.1163687744
 20
11.9268192534
 30
0.0
 10
16.1248517063
 20
11.9459831852
 30
0.0
 10
16.1302354734
 20
11.9591083147
 30
0.0
 10
16.1328818318
 20
11.965802202
 30
0.0
  0
SPLINE
  5
33E
100
AcDbEntity
  8
LAYER_FEATURE
100
AcDbSpline
 62
7
  6
CONTINUOUS
 70
0
 71
3
 72
13
 73
9
 74
0
 42
0.0000001
 43
0.0000001
 44
0.0000000001
 40
0.0
 40
0.0
 40
0.0
 40
0.0
 40
0.1143370585
 40
0.229789576
 40
0.3474500502
 40
0.4683258125
 40
0.7230037062
 40
1.0
 40
1.0
 40
1.0
 40
1.0
 10
14.7462005772
 20
11.887386961
 30
0.0
 10
14.7460802377
 20
11.8873869579
 30
0.0
 10
14.7458381837
 20
11.8874001028
 30
0.0
 10
14.7454766234
 20
11.8874590883
 30
0.0
 10
14.7451165168
 20
11.887557224
 30
0.0
 10
14.7446310013
 20
11.8877430225
 30
0.0
 10
14.7440277312
 20
11.8880791623
 30
0.0
 10
14.7435869356
 20
11.8884274339
 30
0.0
 10
14.7433701161
 20
11.8886223279
 30
0.0
  0
SPLINE
  5
33F
100
AcDbEntity
  8
LAYER_FEATURE
100
AcDbSpline
 62
7
  6
CONTINUOUS
 70
0
 71
3
 72
11
 73
7
 74
0
 42
0.0000001
 43
0.0000001
 44
0.0000000001
 40
0.0
 40
0.0
 40
0.0
 40
0.0
 40
0.2768531856
 40
0.5368052509
 40
0.7782431984
 40
1.0
 40
1.0
 40
1.0
 40
1.0
 10
14.6147980259
 20
12.8563183242
 30
0.0
 10
14.6149512829
 20
12.8569236471
 30
0.0
 10
14.6152784407
 20
12.858090074
 30
0.0
 10
14.615851209
 20
12.859750475
 30
0.0
 10
14.6164859035
 20
12.8612543288
 30
0.0
 10
14.6169672399
 20
12.8621833161
 30
0.0
 10
14.617218971
 20
12.8626155059
 30
0.0
  0
SPLINE
  5
340
100
AcDbEntity
  8
02___PRT_ALL_AXES
100
AcDbSpline
 62
7
  6
CONTINUOUS
 70
0
 71
3
 72
23
 73
19
 74
0
 42
0.0000001
 43
0.0000001
 44
0.0000000001
 40
0.0
 40
0.0
 40
0.0
 40
0.0
 40
0.0478957868
 40
0.0962583982
 40
0.1455382643
 40
0.1961549964
 40
0.248487162
 40
0.3028662328
 40
0.3595739907
 40
0.4188439484
 40
0.4808638637
 40
0.5457792291
 40
0.6136984366
 40
0.6846964512
 40
0.7588171887
 40
0.8360801432
 40
0.9164864065
 40
1.0
 40
1.0
 40
1.0
 40
1.0
 10
16.2830403592
 20
12.3858049963
 30
0.0
 10
16.2823593121
 20
12.3858049924
 30
0.0
 10
16.2809894558
 20
12.3858790939
 30
0.0
 10
16.2789431731
 20
12.3862116101
 30
0.0
 10
16.2769050647
 20
12.3867647572
 30
0.0
 10
16.2748793453
 20
12.3875370038
 30
0.0
 10
16.2728695829
 20
12.3885264575
 30
0.0
 10
16.2708792647
 20
12.3897309293
 30
0.0
 10
16.2689116668
 20
12.3911479162
 30
0.0
 10
16.2669700115
 20
12.3927747088
 30
0.0
 10
16.2650574695
 20
12.3946083205
 30
0.0
 10
16.2631771546
 20
12.396645455
 30
0.0
 10
16.2613321951
 20
12.3988825512
 30
0.0
 10
16.2595256857
 20
12.4013157008
 30
0.0
 10
16.2577606616
 20
12.4039406514
 30
0.0
 10
16.2560401165
 20
12.4067529261
 30
0.0
 10
16.254367087
 20
12.4097475265
 30
0.0
 10
16.2533052172
 20
12.4118230646
 30
0.0
 10
16.2527820687
 20
12.4128891292
 30
0.0
  0
SPLINE
  5
341
100
AcDbEntity
  8
LAYER_FEATURE
100
AcDbSpline
 62
7
  6
CONTINUOUS
 70
0
 71
3
 72
11
 73
7
 74
0
 42
0.0000001
 43
0.0000001
 44
0.0000000001
 40
0.0
 40
0.0
 40
0.0
 40
0.0
 40
0.2681734912
 40
0.5255238475
 40
0.7700537769
 40
1.0
 40
1.0
 40
1.0
 40
1.0
 10
14.6536271058
 20
12.9804322733
 30
0.0
 10
14.6537272336
 20
12.9811151199
 30
0.0
 10
14.6539523624
 20
12.9824492431
 30
0.0
 10
14.6543740155
 20
12.9843864189
 30
0.0
 10
14.6548692418
 20
12.9862044053
 30
0.0
 10
14.6552579048
 20
12.9873629583
 30
0.0
 10
14.6554651682
 20
12.987917245
 30
0.0
  0
SPLINE
  5
342
100
AcDbEntity
  8
LAYER_FEATURE
100
AcDbSpline
 62
7
  6
CONTINUOUS
 70
0
 71
3
 72
11
 73
7
 74
0
 42
0.0000001
 43
0.0000001
 44
0.0000000001
 40
0.0
 40
0.0
 40
0.0
 40
0.0
 40
0.2655829931
 40
0.5221193775
 40
0.7675482244
 40
1.0
 40
1.0
 40
1.0
 40
1.0
 10
14.58589084
 20
12.6815844824
 30
0.0
 10
14.5859725902
 20
12.6822857036
 30
0.0
 10
14.58616205
 20
12.6836611184
 30
0.0
 10
14.5865308191
 20
12.6856685389
 30
0.0
 10
14.5869762179
 20
12.6875700741
 30
0.0
 10
14.5873317201
 20
12.6887904657
 30
0.0
 10
14.5875228445
 20
12.6893780655
 30
0.0
  0
SPLINE
  5
343
100
AcDbEntity
  8
LAYER_FEATURE
100
AcDbSpline
 62
7
  6
CONTINUOUS
 70
0
 71
3
 72
11
 73
7
 74
0
 42
0.0000001
 43
0.0000001
 44
0.0000000001
 40
0.0
 40
0.0
 40
0.0
 40
0.0
 40
0.2579825566
 40
0.5120716483
 40
0.7601015747
 40
1.0
 40
1.0
 40
1.0
 40
1.0
 10
14.6095303014
 20
12.8287626257
 30
0.0
 10
14.6095517275
 20
12.8294995561
 30
0.0
 10
14.6096230378
 20
12.8309616305
 30
0.0
 10
14.6098162913
 20
12.8331257694
 30
0.0
 10
14.610093307
 20
12.8352287002
 30
0.0
 10
14.6103366596
 20
12.8366022616
 30
0.0
 10
14.6104727195
 20
12.8372741869
 30
0.0
  0
SPLINE
  5
344
100
AcDbEntity
  8
LAYER_FEATURE
100
AcDbSpline
 62
7
  6
CONTINUOUS
 70
0
 71
3
 72
11
 73
7
 74
0
 42
0.0000001
 43
0.0000001
 44
0.0000000001
 40
0.0
 40
0.0
 40
0.0
 40
0.0
 40
0.2556702154
 40
0.5090012712
 40
0.7578146536
 40
1.0
 40
1.0
 40
1.0
 40
1.0
 10
14.5773249669
 20
12.4930151019
 30
0.0
 10
14.5773264924
 20
12.4937562797
 30
0.0
 10
14.5773585116
 20
12.4952319605
 30
0.0
 10
14.5774932667
 20
12.4974252758
 30
0.0
 10
14.5777132468
 20
12.4995724145
 30
0.0
 10
14.5779185669
 20
12.5009814692
 30
0.0
 10
14.5780358156
 20
12.5016736968
 30
0.0
  0
SPLINE
  5
345
100
AcDbEntity
  8
LAYER_FEATURE
100
AcDbSpline
 62
7
  6
CONTINUOUS
 70
0
 71
3
 72
11
 73
7
 74
0
 42
0.0000001
 43
0.0000001
 44
0.0000000001
 40
0.0
 40
0.0
 40
0.0
 40
0.0
 40
0.2464058126
 40
0.4966507451
 40
0.7485765299
 40
1.0
 40
1.0
 40
1.0
 40
1.0
 10
14.5897943628
 20
12.3058869526
 30
0.0
 10
14.5897135145
 20
12.3066080958
 30
0.0
 10
14.5895814362
 20
12.3080652404
 30
0.0
 10
14.5894711616
 20
12.3102675851
 30
0.0
 10
14.5894477397
 20
12.3124873354
 30
0.0
 10
14.5894903746
 20
12.3139695337
 30
0.0
 10
14.5895264668
 20
12.3147090914
 30
0.0
  0
SPLINE
  5
346
100
AcDbEntity
  8
LAYER_FEATURE
100
AcDbSpline
 62
7
  6
CONTINUOUS
 70
0
 71
3
 72
11
 73
7
 74
0
 42
0.0000001
 43
0.0000001
 44
0.0000000001
 40
0.0
 40
0.0
 40
0.0
 40
0.0
 40
0.2393255754
 40
0.487158316
 40
0.7414368515
 40
1.0
 40
1.0
 40
1.0
 40
1.0
 10
14.5786949265
 20
12.462520438
 30
0.0
 10
14.5785542797
 20
12.4631868149
 30
0.0
 10
14.5783016334
 20
12.4645505365
 30
0.0
 10
14.5780106741
 20
12.4666409481
 30
0.0
 10
14.5778030513
 20
12.4687962505
 30
0.0
 10
14.5777220829
 20
12.4702538736
 30
0.0
 10
14.5776957536
 20
12.4709892053
 30
0.0
  0
SPLINE
  5
347
100
AcDbEntity
  8
LAYER_FEATURE
100
AcDbSpline
 62
7
  6
CONTINUOUS
 70
0
 71
3
 72
11
 73
7
 74
0
 42
0.0000001
 43
0.0000001
 44
0.0000000001
 40
0.0
 40
0.0
 40
0.0
 40
0.0
 40
0.2369870375
 40
0.484010284
 40
0.7390603991
 40
1.0
 40
1.0
 40
1.0
 40
1.0
 10
14.6222888314
 20
12.1353600443
 30
0.0
 10
14.6221300321
 20
12.1360020063
 30
0.0
 10
14.6218405261
 20
12.137321919
 30
0.0
 10
14.6214942449
 20
12.1393556633
 30
0.0
 10
14.6212293334
 20
12.1414689396
 30
0.0
 10
14.6211098324
 20
12.1429043096
 30
0.0
 10
14.6210638941
 20
12.1436310097
 30
0.0
  0
SPLINE
  5
348
100
AcDbEntity
  8
02___PRT_ALL_AXES
100
AcDbSpline
 62
7
  6
CONTINUOUS
 70
0
 71
3
 72
54
 73
50
 74
0
 42
0.0000001
 43
0.0000001
 44
0.0000000001
 40
0.0
 40
0.0
 40
0.0
 40
0.0
 40
0.0139504584
 40
0.0283506412
 40
0.0431887665
 40
0.0584540849
 40
0.0741339064
 40
0.0902137431
 40
0.1235081009
 40
0.1582016239
 40
0.1941410936
 40
0.2311604872
 40
0.2690832359
 40
0.3077243112
 40
0.3468921589
 40
0.3863905411
 40
0.42602032
 40
0.4655812133
 40
0.5048735399
 40
0.5436999667
 40
0.5818672804
 40
0.6191882078
 40
0.6554833237
 40
0.690583084
 40
0.724330023
 40
0.7406518855
 40
0.7565833025
 40
0.7721091662
 40
0.787215688
 40
0.8018904389
 40
0.8161226457
 40
0.8299031695
 40
0.8432248355
 40
0.8560825695
 40
0.8684736035
 40
0.8803978777
 40
0.8918581707
 40
0.9028606415
 40
0.9134151072
 40
0.9235355227
 40
0.9332405313
 40
0.9425538182
 40
0.9515047486
 40
0.9601286172
 40
0.9684669469
 40
0.9765674535
 40
0.9844835874
 40
0.9922737657
 40
1.0
 40
1.0
 40
1.0
 40
1.0
 10
16.2527820687
 20
12.4128891292
 30
0.0
 10
16.2522833038
 20
12.4139055052
 30
0.0
 10
16.2513025247
 20
12.4159872768
 30
0.0
 10
16.2499021539
 20
12.4192008755
 30
0.0
 10
16.2485510764
 20
12.4225508512
 30
0.0
 10
16.2472513342
 20
12.4260320985
 30
0.0
 10
16.2460047967
 20
12.429639527
 30
0.0
 10
16.2443976188
 20
12.4346688828
 30
0.0
 10
16.2425405984
 20
12.4412362511
 30
0.0
 10
16.2405769543
 20
12.4494409073
 30
0.0
 10
16.2388646953
 20
12.4580100823
 30
0.0
 10
16.2374140684
 20
12.4668928587
 30
0.0
 10
16.236233753
 20
12.4760365766
 30
0.0
 10
16.2353308191
 20
12.4853869324
 30
0.0
 10
16.234710677
 20
12.4948883784
 30
0.0
 10
16.2343770442
 20
12.5044844446
 30
0.0
 10
16.2343319228
 20
12.5141180869
 30
0.0
 10
16.2345755815
 20
12.5237320324
 30
0.0
 10
16.2351065585
 20
12.5332691287
 30
0.0
 10
16.2359216711
 20
12.5426726891
 30
0.0
 10
16.2370160352
 20
12.5518868417
 30
0.0
 10
16.2383830963
 20
12.5608568536
 30
0.0
 10
16.2400146716
 20
12.56952953
 30
0.0
 10
16.241900993
 20
12.5778533278
 30
0.0
 10
16.243695229
 20
12.584530582
 30
0.0
 10
16.2452540063
 20
12.5896554467
 30
0.0
 10
16.2464663369
 20
12.5933389862
 30
0.0
 10
16.2477330622
 20
12.5968996713
 30
0.0
 10
16.2490523016
 20
12.6003322325
 30
0.0
 10
16.250422115
 20
12.603631567
 30
0.0
 10
16.251840444
 20
12.6067927931
 30
0.0
 10
16.2533052116
 20
12.6098112208
 30
0.0
 10
16.2548142427
 20
12.6126823875
 30
0.0
 10
16.2563653103
 20
12.6154020518
 30
0.0
 10
16.2579561581
 20
12.6179661879
 30
0.0
 10
16.2595844336
 20
12.6203710275
 30
0.0
 10
16.2612478016
 20
12.6226130073
 30
0.0
 10
16.2629438421
 20
12.6246888303
 30
0.0
 10
16.264670133
 20
12.626595423
 30
0.0
 10
16.2664242363
 20
12.628329936
 30
0.0
 10
16.2682036577
 20
12.6298897823
 30
0.0
 10
16.2700059374
 20
12.6312725373
 30
0.0
 10
16.2718285311
 20
12.632476043
 30
0.0
 10
16.2736688866
 20
12.6334982938
 30
0.0
 10
16.2755243695
 20
12.6343374898
 30
0.0
 10
16.2773922029
 20
12.6349920752
 30
0.0
 10
16.2792695817
 20
12.6354606648
 30
0.0
 10
16.2811532037
 20
12.6357422808
 30
0.0
 10
16.2824133307
 20
12.635804986
 30
0.0
 10
16.2830403592
 20
12.6358049896
 30
0.0
  0
SPLINE
  5
349
100
AcDbEntity
  8
LAYER_FEATURE
100
AcDbSpline
 62
7
  6
CONTINUOUS
 70
0
 71
3
 72
11
 73
7
 74
0
 42
0.0000001
 43
0.0000001
 44
0.0000000001
 40
0.0
 40
0.0
 40
0.0
 40
0.0
 40
0.2293149907
 40
0.4736159189
 40
0.7311703265
 40
1.0
 40
1.0
 40
1.0
 40
1.0
 10
14.5944544546
 20
12.2776186618
 30
0.0
 10
14.5942433198
 20
12.2781642398
 30
0.0
 10
14.593846676
 20
12.2793065515
 30
0.0
 10
14.5933394552
 20
12.2811024799
 30
0.0
 10
14.5929049955
 20
12.2830208055
 30
0.0
 10
14.5926712251
 20
12.2843437222
 30
0.0
 10
14.5925666314
 20
12.2850215128
 30
0.0
  0
SPLINE
  5
34A
100
AcDbEntity
  8
LAYER_FEATURE
100
AcDbSpline
 62
7
  6
CONTINUOUS
 70
0
 71
3
 72
11
 73
7
 74
0
 42
0.0000001
 43
0.0000001
 44
0.0000000001
 40
0.0
 40
0.0
 40
0.0
 40
0.0
 40
0.2267305275
 40
0.4700807219
 40
0.728465666
 40
1.0
 40
1.0
 40
1.0
 40
1.0
 10
14.672175864
 20
11.9952494528
 30
0.0
 10
14.6719496774
 20
11.9957581462
 30
0.0
 10
14.6715218834
 20
11.9968313952
 30
0.0
 10
14.6709678316
 20
11.9985331424
 30
0.0
 10
14.6704830581
 20
12.0003698254
 30
0.0
 10
14.6702153243
 20
12.0016437511
 30
0.0
 10
14.6700931226
 20
12.0022991805
 30
0.0
  0
SPLINE
  5
34B
100
AcDbEntity
  8
02___PRT_ALL_AXES
100
AcDbSpline
 62
7
  6
CONTINUOUS
 70
0
 71
3
 72
27
 73
23
 74
0
 42
0.0000001
 43
0.0000001
 44
0.0000000001
 40
0.0
 40
0.0
 40
0.0
 40
0.0
 40
0.0835109787
 40
0.163908426
 40
0.2411670488
 40
0.3152835275
 40
0.3862765872
 40
0.45419144
 40
0.5191027144
 40
0.5811185469
 40
0.6403847038
 40
0.6970888395
 40
0.7514643487
 40
0.8037931739
 40
0.8292988612
 40
0.854421268
 40
0.8792091126
 40
0.9037137739
 40
0.9279888818
 40
0.9520900444
 40
0.9760743643
 40
1.0
 40
1.0
 40
1.0
 40
1.0
 10
16.4149665054
 20
12.9377181587
 30
0.0
 10
16.4126855021
 20
12.9423663546
 30
0.0
 10
16.4080558188
 20
12.951415678
 30
0.0
 10
16.4007613476
 20
12.9644720873
 30
0.0
 10
16.393259855
 20
12.9767334772
 30
0.0
 10
16.3855643626
 20
12.9881783322
 30
0.0
 10
16.37768794
 20
12.9987868482
 30
0.0
 10
16.3696439257
 20
13.0085405745
 30
0.0
 10
16.3614457778
 20
13.0174225064
 30
0.0
 10
16.3531070573
 20
13.0254170317
 30
0.0
 10
16.344641482
 20
13.0325098453
 30
0.0
 10
16.3360626597
 20
13.0386879681
 30
0.0
 10
16.3273852268
 20
13.0439392937
 30
0.0
 10
16.320020053
 20
13.0475652205
 30
0.0
 10
16.3141067724
 20
13.0499749584
 30
0.0
 10
16.3096950695
 20
13.05152998
 30
0.0
 10
16.3052712936
 20
13.0528470275
 30
0.0
 10
16.300837354
 20
13.0539255598
 30
0.0
 10
16.2963952717
 20
13.0547649675
 30
0.0
 10
16.2919470241
 20
13.0553648705
 30
0.0
 10
16.2874948112
 20
13.0557249289
 30
0.0
 10
16.2845237576
 20
13.0558049864
 30
0.0
 10
16.2830403592
 20
13.0558049892
 30
0.0
  0
SPLINE
  5
34C
100
AcDbEntity
  8
LAYER_FEATURE
100
AcDbSpline
 62
7
  6
CONTINUOUS
 70
0
 71
3
 72
13
 73
9
 74
0
 42
0.0000001
 43
0.0000001
 44
0.0000000001
 40
0.0
 40
0.0
 40
0.0
 40
0.0
 40
0.1065302374
 40
0.2185053941
 40
0.3358820112
 40
0.4585998178
 40
0.7195203484
 40
1.0
 40
1.0
 40
1.0
 40
1.0
 10
14.6298615225
 20
12.1116082553
 30
0.0
 10
14.6297315751
 20
12.1117918228
 30
0.0
 10
14.6294758909
 20
12.1121761113
 30
0.0
 10
14.6291134884
 20
12.1127859266
 30
0.0
 10
14.6287635582
 20
12.1134419784
 30
0.0
 10
14.6283054623
 20
12.1143956728
 30
0.0
 10
14.6277733878
 20
12.1156942934
 30
0.0
 10
14.6274102387
 20
12.1167789106
 30
0.0
 10
14.6272379891
 20
12.117345455
 30
0.0
  0
SPLINE
  5
34D
100
AcDbEntity
  8
LAYER_FEATURE
100
AcDbSpline
 62
7
  6
CONTINUOUS
 70
0
 71
3
 72
63
 73
59
 74
0
 42
0.0000001
 43
0.0000001
 44
0.0000000001
 40
0.0
 40
0.0
 40
0.0
 40
0.0
 40
0.0475510316
 40
0.0938121511
 40
0.1387345417
 40
0.1822746839
 40
0.2035150196
 40
0.224396201
 40
0.2449145026
 40
0.2650667114
 40
0.2848500385
 40
0.3042622516
 40
0.3233015973
 40
0.341966944
 40
0.360257707
 40
0.3781739946
 40
0.3957165401
 40
0.4128868537
 40
0.4296871612
 40
0.4461205608
 40
0.4621909703
 40
0.4779032876
 40
0.4932633462
 40
0.5082780786
 40
0.5229554781
 40
0.537304761
 40
0.5513363335
 40
0.565061944
 40
0.591643706
 40
0.6171762799
 40
0.6295967058
 40
0.6418111806
 40
0.6538414046
 40
0.6657104432
 40
0.6774425761
 40
0.6890632032
 40
0.7005986418
 40
0.7120759574
 40
0.7235227214
 40
0.7349667837
 40
0.7464360182
 40
0.7579580691
 40
0.7695601187
 40
0.781268644
 40
0.7931092387
 40
0.8051064083
 40
0.8172834656
 40
0.8296623783
 40
0.8551006845
 40
0.8815751726
 40
0.8952429994
 40
0.9092143641
 40
0.9235012699
 40
0.9381143729
 40
0.9530631204
 40
0.9683557323
 40
0.9839993468
 40
1.0
 40
1.0
 40
1.0
 40
1.0
 10
14.5115114712
 20
12.9863366186
 30
0.0
 10
14.5140559438
 20
12.994570535
 30
0.0
 10
14.519269871
 20
13.0107559269
 30
0.0
 10
14.5275877996
 20
13.034487316
 30
0.0
 10
14.5362839023
 20
13.0573067474
 30
0.0
 10
14.5438946077
 20
13.0756783649
 30
0.0
 10
14.5501666587
 20
13.08988087
 30
0.0
 10
14.5549168552
 20
13.1001926495
 30
0.0
 10
14.5597498571
 20
13.1102475126
 30
0.0
 10
14.5646635437
 20
13.1200411157
 30
0.0
 10
14.5696558121
 20
13.1295691784
 30
0.0
 10
14.5747244545
 20
13.1388275721
 30
0.0
 10
14.5798673087
 20
13.1478122528
 30
0.0
 10
14.5850821019
 20
13.1565193302
 30
0.0
 10
14.5903666124
 20
13.1649449993
 30
0.0
 10
14.5957185086
 20
13.1730856166
 30
0.0
 10
14.6011355139
 20
13.1809376212
 30
0.0
 10
14.6066152427
 20
13.1884976222
 30
0.0
 10
14.6121553684
 20
13.1957623076
 30
0.0
 10
14.6177534572
 20
13.2027285442
 30
0.0
 10
14.6234071371
 20
13.209393273
 30
0.0
 10
14.6291139312
 20
13.2157536217
 30
0.0
 10
14.6348714275
 20
13.2218067872
 30
0.0
 10
14.6406771085
 20
13.227550159
 30
0.0
 10
14.6465285349
 20
13.2329811978
 30
0.0
 10
14.6524231211
 20
13.2380975298
 30
0.0
 10
14.658358517
 20
13.242896972
 30
0.0
 10
14.6662384638
 20
13.2488072298
 30
0.0
 10
14.6761842341
 20
13.2554240706
 30
0.0
 10
14.6864388031
 20
13.2610822852
 30
0.0
 10
14.6946810816
 20
13.2649274075
 30
0.0
 10
14.7008290726
 20
13.2674560175
 30
0.0
 10
14.7069968099
 20
13.2696542677
 30
0.0
 10
14.7131816559
 20
13.2715212187
 30
0.0
 10
14.7193808587
 20
13.2730558762
 30
0.0
 10
14.7255916344
 20
13.2742575448
 30
0.0
 10
14.7318111954
 20
13.2751255517
 30
0.0
 10
14.7380367109
 20
13.2756595205
 30
0.0
 10
14.7442653501
 20
13.27585911
 30
0.0
 10
14.7504942648
 20
13.275724284
 30
0.0
 10
14.7567206069
 20
13.2752550453
 30
0.0
 10
14.7629415423
 20
13.2744517018
 30
0.0
 10
14.7691542378
 20
13.2733145985
 30
0.0
 10
14.7753559
 20
13.2718443755
 30
0.0
 10
14.7815437411
 20
13.2700417002
 30
0.0
 10
14.7877150019
 20
13.2679075357
 30
0.0
 10
14.7938670424
 20
13.2654427954
 30
0.0
 10
14.8021144727
 20
13.2616837425
 30
0.0
 10
14.8123774921
 20
13.2561325147
 30
0.0
 10
14.8223348772
 20
13.2496183267
 30
0.0
 10
14.8302246192
 20
13.2437895612
 30
0.0
 10
14.8361676013
 20
13.2390517459
 30
0.0
 10
14.8420702643
 20
13.2339966215
 30
0.0
 10
14.8479302538
 20
13.2286263414
 30
0.0
 10
14.8537449822
 20
13.2229432624
 30
0.0
 10
14.8595120142
 20
13.2169498781
 30
0.0
 10
14.8652287851
 20
13.2106488399
 30
0.0
 10
14.8689624453
 20
13.2062943335
 30
0.0
 10
14.8708207264
 20
13.204068022
 30
0.0
  0
SPLINE
  5
34E
100
AcDbEntity
  8
LAYER_FEATURE
100
AcDbSpline
 62
7
  6
CONTINUOUS
 70
0
 71
3
 72
14
 73
10
 74
0
 42
0.0000001
 43
0.0000001
 44
0.0000000001
 40
0.0
 40
0.0
 40
0.0
 40
0.0
 40
0.1051469375
 40
0.2159983861
 40
0.3325943608
 40
0.4549431229
 40
0.5829853794
 40
0.7166173211
 40
1.0
 40
1.0
 40
1.0
 40
1.0
 10
14.73541391
 20
11.8969061051
 30
0.0
 10
14.7352791593
 20
11.8970663478
 30
0.0
 10
14.735013324
 20
11.8974048722
 30
0.0
 10
14.7346353009
 20
11.8979490327
 30
0.0
 10
14.7342685163
 20
11.898541504
 30
0.0
 10
14.7339139149
 20
11.8991807314
 30
0.0
 10
14.73357234
 20
11.8998651286
 30
0.0
 10
14.7331267549
 20
11.9008549918
 30
0.0
 10
14.7328284996
 20
11.9016308725
 30
0.0
 10
14.7326420958
 20
11.902163468
 30
0.0
  0
SPLINE
  5
34F
100
AcDbEntity
  8
LAYER_FEATURE
100
AcDbSpline
 62
7
  6
CONTINUOUS
 70
0
 71
3
 72
14
 73
10
 74
0
 42
0.0000001
 43
0.0000001
 44
0.0000000001
 40
0.0
 40
0.0
 40
0.0
 40
0.0
 40
0.2111903391
 40
0.3256917448
 40
0.446679478
 40
0.5744549091
 40
0.7092127475
 40
0.8510661688
 40
1.0
 40
1.0
 40
1.0
 40
1.0
 10
14.6820476601
 20
11.9779383944
 30
0.0
 10
14.6817510283
 20
11.9781065926
 30
0.0
 10
14.6813208838
 20
11.9784160068
 30
0.0
 10
14.6807908935
 20
11.9789055915
 30
0.0
 10
14.6803906434
 20
11.9793351704
 30
0.0
 10
14.6799996353
 20
11.9798158648
 30
0.0
 10
14.6796186657
 20
11.9803465998
 30
0.0
 10
14.6792487309
 20
11.9809259677
 30
0.0
 10
14.6790156829
 20
11.9813338014
 30
0.0
 10
14.6789009595
 20
11.981545149
 30
0.0
  0
SPLINE
  5
350
100
AcDbEntity
  8
LAYER_FEATURE
100
AcDbSpline
 62
7
  6
CONTINUOUS
 70
0
 71
3
 72
15
 73
11
 74
0
 42
0.0000001
 43
0.0000001
 44
0.0000000001
 40
0.0
 40
0.0
 40
0.0
 40
0.0
 40
0.1037827352
 40
0.212342714
 40
0.3265073005
 40
0.4469635712
 40
0.5742258933
 40
0.7086693446
 40
0.8505576682
 40
1.0
 40
1.0
 40
1.0
 40
1.0
 10
14.806879799
 20
11.8482971943
 30
0.0
 10
14.8067340147
 20
11.8483530408
 30
0.0
 10
14.8064422922
 20
11.8484850656
 30
0.0
 10
14.8060182995
 20
11.8487345408
 30
0.0
 10
14.8056001997
 20
11.8490385996
 30
0.0
 10
14.805189051
 20
11.8493963063
 30
0.0
 10
14.8047857475
 20
11.8498066946
 30
0.0
 10
14.8043912362
 20
11.850268733
 30
0.0
 10
14.8040064838
 20
11.8507812093
 30
0.0
 10
14.803763403
 20
11.851146141
 30
0.0
 10
14.8036434679
 20
11.8513362721
 30
0.0
  0
LINE
  5
351
100
AcDbEntity
  8
LAYER_FEATURE
100
AcDbLine
 62
7
  6
CONTINUOUS
 10
14.7931654075
 20
13.1682492606
 11
14.7943398112
 21
13.1684569457
  0
SPLINE
  5
352
100
AcDbEntity
  8
LAYER_FEATURE
100
AcDbSpline
 62
7
  6
CONTINUOUS
 70
0
 71
3
 72
13
 73
9
 74
0
 42
0.0000001
 43
0.0000001
 44
0.0000000001
 40
0.0
 40
0.0
 40
0.0
 40
0.0
 40
0.2791637185
 40
0.5343048548
 40
0.6548674378
 40
0.7719250308
 40
0.8865725774
 40
1.0
 40
1.0
 40
1.0
 40
1.0
 10
14.8551201233
 20
13.1741704788
 30
0.0
 10
14.8553459812
 20
13.1743847416
 30
0.0
 10
14.8558054618
 20
13.174767865
 30
0.0
 10
14.8564388917
 20
13.1751398685
 30
0.0
 10
14.8569494309
 20
13.1753454587
 30
0.0
 10
14.8573278047
 20
13.1754539167
 30
0.0
 10
14.8577078911
 20
13.1755191342
 30
0.0
 10
14.857962471
 20
13.1755336644
 30
0.0
 10
14.858088964
 20
13.175533663
 30
0.0
  0
SPLINE
  5
353
100
AcDbEntity
  8
LAYER_FEATURE
100
AcDbSpline
 62
7
  6
CONTINUOUS
 70
0
 71
3
 72
15
 73
11
 74
0
 42
0.0000001
 43
0.0000001
 44
0.0000000001
 40
0.0
 40
0.0
 40
0.0
 40
0.0
 40
0.1474798469
 40
0.2870740621
 40
0.419262796
 40
0.5447454949
 40
0.6643975941
 40
0.7792886986
 40
0.8906906064
 40
1.0
 40
1.0
 40
1.0
 40
1.0
 10
14.7228105769
 20
13.1099235051
 30
0.0
 10
14.7229388111
 20
13.1100717915
 30
0.0
 10
14.7231979072
 20
13.1103524552
 30
0.0
 10
14.7236057603
 20
13.1107330855
 30
0.0
 10
14.7240209733
 20
13.1110604814
 30
0.0
 10
14.7244425532
 20
13.1113336872
 30
0.0
 10
14.7248695157
 20
13.1115519006
 30
0.0
 10
14.7253008649
 20
13.11171434
 30
0.0
 10
14.725735329
 20
13.1118203212
 30
0.0
 10
14.7260278392
 20
13.1118532053
 30
0.0
 10
14.7261729855
 20
13.1118599629
 30
0.0
  0
SPLINE
  5
354
100
AcDbEntity
  8
LAYER_FEATURE
100
AcDbSpline
 62
7
  6
CONTINUOUS
 70
0
 71
3
 72
14
 73
10
 74
0
 42
0.0000001
 43
0.0000001
 44
0.0000000001
 40
0.0
 40
0.0
 40
0.0
 40
0.0
 40
0.1486893267
 40
0.2904324261
 40
0.4251893943
 40
0.5530431061
 40
0.6741516639
 40
0.7887726748
 40
1.0
 40
1.0
 40
1.0
 40
1.0
 10
14.7816060638
 20
13.1604272616
 30
0.0
 10
14.7817194091
 20
13.1606437331
 30
0.0
 10
14.7819498012
 20
13.1610619486
 30
0.0
 10
14.7823157974
 20
13.1616574907
 30
0.0
 10
14.7826931382
 20
13.1622048809
 30
0.0
 10
14.7830808358
 20
13.1627026696
 30
0.0
 10
14.7834780831
 20
13.1631497434
 30
0.0
 10
14.7840044857
 20
13.1636623721
 30
0.0
 10
14.7844323052
 20
13.163990677
 30
0.0
 10
14.7847281922
 20
13.164172185
 30
0.0
  0
SPLINE
  5
355
100
AcDbEntity
  8
LAYER_FEATURE
100
AcDbSpline
 62
7
  6
CONTINUOUS
 70
0
 71
3
 72
13
 73
9
 74
0
 42
0.0000001
 43
0.0000001
 44
0.0000000001
 40
0.0
 40
0.0
 40
0.0
 40
0.0
 40
0.2884109724
 40
0.4229724832
 40
0.5510268247
 40
0.6726115321
 40
0.7878389047
 40
1.0
 40
1.0
 40
1.0
 40
1.0
 10
14.6617046364
 20
13.0030607308
 30
0.0
 10
14.6619148357
 20
13.0035234785
 30
0.0
 10
14.662248185
 20
13.0041914948
 30
0.0
 10
14.6627417633
 20
13.0050281043
 30
0.0
 10
14.6631150345
 20
13.0055933387
 30
0.0
 10
14.6634990784
 20
13.0061095942
 30
0.0
 10
14.6640100185
 20
13.0067139559
 30
0.0
 10
14.6644271313
 20
13.0071169287
 30
0.0
 10
14.6647183916
 20
13.0073513508
 30
0.0
  0
SPLINE
  5
356
100
AcDbEntity
  8
LAYER_FEATURE
100
AcDbSpline
 62
7
  6
CONTINUOUS
 70
0
 71
3
 72
13
 73
9
 74
0
 42
0.0000001
 43
0.0000001
 44
0.0000000001
 40
0.0
 40
0.0
 40
0.0
 40
0.0
 40
0.2797510619
 40
0.5404807407
 40
0.6632834014
 40
0.7808512946
 40
0.8931103008
 40
1.0
 40
1.0
 40
1.0
 40
1.0
 10
14.7125776337
 20
13.0940555116
 30
0.0
 10
14.7127462242
 20
13.0946300868
 30
0.0
 10
14.713102463
 20
13.0957315591
 30
0.0
 10
14.7136256048
 20
13.0970527459
 30
0.0
 10
14.7140770452
 20
13.0980259825
 30
0.0
 10
14.7144225387
 20
13.0986973296
 30
0.0
 10
14.7147808063
 20
13.0993229895
 30
0.0
 10
14.7150337792
 20
13.0997183097
 30
0.0
 10
14.7151624316
 20
13.0999075061
 30
0.0
  0
SPLINE
  5
357
100
AcDbEntity
  8
LAYER_FEATURE
100
AcDbSpline
 62
7
  6
CONTINUOUS
 70
0
 71
3
 72
11
 73
7
 74
0
 42
0.0000001
 43
0.0000001
 44
0.0000000001
 40
0.0
 40
0.0
 40
0.0
 40
0.0
 40
0.2570985693
 40
0.5095500471
 40
0.757224199
 40
1.0
 40
1.0
 40
1.0
 40
1.0
 10
15.6288676308
 20
12.9241756218
 30
0.0
 10
15.6303744939
 20
12.9290518326
 30
0.0
 10
15.6334396303
 20
12.9386920385
 30
0.0
 10
15.6382374252
 20
12.9529384344
 30
0.0
 10
15.6431903894
 20
12.9668301654
 30
0.0
 10
15.6466280002
 20
12.9759398663
 30
0.0
 10
15.6483729794
 20
12.9804322733
 30
0.0
  0
SPLINE
  5
358
100
AcDbEntity
  8
LAYER_FEATURE
100
AcDbSpline
 62
7
  6
CONTINUOUS
 70
0
 71
3
 72
11
 73
7
 74
0
 42
0.0000001
 43
0.0000001
 44
0.0000000001
 40
0.0
 40
0.0
 40
0.0
 40
0.0
 40
0.2440192966
 40
0.492121035
 40
0.7441639298
 40
1.0
 40
1.0
 40
1.0
 40
1.0
 10
15.6288676308
 20
12.9241756218
 30
0.0
 10
15.6273343008
 20
12.9192137641
 30
0.0
 10
15.624324733
 20
12.9091812787
 30
0.0
 10
15.6200149368
 20
12.8939405412
 30
0.0
 10
15.6158749313
 20
12.8783924269
 30
0.0
 10
15.6132494014
 20
12.8679066759
 30
0.0
 10
15.6119648446
 20
12.8626155059
 30
0.0
  0
SPLINE
  5
359
100
AcDbEntity
  8
LAYER_FEATURE
100
AcDbSpline
 62
7
  6
CONTINUOUS
 70
0
 71
3
 72
96
 73
92
 74
0
 42
0.0000001
 43
0.0000001
 44
0.0000000001
 40
0.0
 40
0.0
 40
0.0
 40
0.0
 40
0.0176370245
 40
0.0357008155
 40
0.0541689239
 40
0.0730176051
 40
0.0922219365
 40
0.1117559323
 40
0.1315926488
 40
0.151704285
 40
0.1720622779
 40
0.1926373946
 40
0.213399821
 40
0.2343192483
 40
0.255364958
 40
0.2765059044
 40
0.297710797
 40
0.3189481818
 40
0.3401865217
 40
0.3613942774
 40
0.3825399876
 40
0.4035923494
 40
0.4245203002
 40
0.4452930991
 40
0.4658804102
 40
0.4862523871
 40
0.5063797591
 40
0.5262339201
 40
0.5457870202
 40
0.5650120611
 40
0.5838829961
 40
0.6023748352
 40
0.6204637582
 40
0.6381272353
 40
0.655344159
 40
0.6720949881
 40
0.6883619084
 40
0.7041290124
 40
0.7118209626
 40
0.7193829788
 40
0.7268136958
 40
0.7341119303
 40
0.7412766521
 40
0.7483070326
 40
0.7552024171
 40
0.7619623747
 40
0.7685866729
 40
0.7750753293
 40
0.781428588
 40
0.7876469734
 40
0.7937312692
 40
0.7996825742
 40
0.8055022841
 40
0.8111921486
 40
0.8167542567
 40
0.8221910943
 40
0.827505532
 40
0.8327008831
 40
0.8377808918
 40
0.8427497891
 40
0.8476122805
 40
0.8523735952
 40
0.861614047
 40
0.8661084109
 40
0.8705277647
 40
0.8748799559
 40
0.8791733297
 40
0.8834166749
 40
0.8876191905
 40
0.891790412
 40
0.8959401505
 40
0.9000784045
 40
0.9042152777
 40
0.9083608861
 40
0.9125252655
 40
0.916718287
 40
0.9209495679
 40
0.9252284067
 40
0.9295637078
 40
0.9339639435
 40
0.9384370978
 40
0.9476293929
 40
0.9571965105
 40
0.9621358976
 40
0.9671851604
 40
0.9723486609
 40
0.9776302703
 40
0.9830334211
 40
0.988561098
 40
0.9942158941
 40
1.0
 40
1.0
 40
1.0
 40
1.0
 10
14.5115114712
 20
12.9863366186
 30
0.0
 10
14.508895832
 20
12.977872407
 30
0.0
 10
14.5038111636
 20
12.9606736401
 30
0.0
 10
14.4966996631
 20
12.9344079206
 30
0.0
 10
14.4900217269
 20
12.9074012343
 30
0.0
 10
14.4837891137
 20
12.8797009652
 30
0.0
 10
14.478012727
 20
12.8513554589
 30
0.0
 10
14.4727026952
 20
12.8224142751
 30
0.0
 10
14.4678683253
 20
12.7929280053
 30
0.0
 10
14.4635180933
 20
12.7629482086
 30
0.0
 10
14.4596596267
 20
12.7325273132
 30
0.0
 10
14.4562996915
 20
12.7017185253
 30
0.0
 10
14.4534441798
 20
12.6705757348
 30
0.0
 10
14.4510980993
 20
12.6391534199
 30
0.0
 10
14.4492655645
 20
12.6075065513
 30
0.0
 10
14.4479497894
 20
12.5756904949
 30
0.0
 10
14.4471530815
 20
12.5437609148
 30
0.0
 10
14.4468768382
 20
12.5117736745
 30
0.0
 10
14.4471215439
 20
12.4797847395
 30
0.0
 10
14.4478867696
 20
12.4478500778
 30
0.0
 10
14.449171173
 20
12.4160255623
 30
0.0
 10
14.4509725016
 20
12.3843668716
 30
0.0
 10
14.4532875962
 20
12.3529293927
 30
0.0
 10
14.4561123967
 20
12.3217681229
 30
0.0
 10
14.4594419491
 20
12.290937573
 30
0.0
 10
14.4632704146
 20
12.2604916711
 30
0.0
 10
14.4675910798
 20
12.2304836676
 30
0.0
 10
14.4723963689
 20
12.2009660406
 30
0.0
 10
14.4776778572
 20
12.1719904035
 30
0.0
 10
14.4834262864
 20
12.1436074129
 30
0.0
 10
14.4896315816
 20
12.1158666788
 30
0.0
 10
14.4962828699
 20
12.0888166758
 30
0.0
 10
14.5033685006
 20
12.062504658
 30
0.0
 10
14.5108760686
 20
12.0369765678
 30
0.0
 10
14.5187924337
 20
12.0122769755
 30
0.0
 10
14.5271037657
 20
11.9884489195
 30
0.0
 10
14.5357955051
 20
11.9655341098
 30
0.0
 10
14.5434043515
 20
11.947083737
 30
0.0
 10
14.5496760331
 20
11.9328190397
 30
0.0
 10
14.5544265395
 20
11.9224613742
 30
0.0
 10
14.5592603784
 20
11.9123611436
 30
0.0
 10
14.5641754225
 20
11.9025227273
 30
0.0
 10
14.569169559
 20
11.8929504417
 30
0.0
 10
14.5742405719
 20
11.8836484509
 30
0.0
 10
14.5793862887
 20
11.8746208329
 30
0.0
 10
14.5846044274
 20
11.8658715118
 30
0.0
 10
14.5898927556
 20
11.857404325
 30
0.0
 10
14.5952489319
 20
11.8492229487
 30
0.0
 10
14.600670668
 20
11.8413309743
 30
0.0
 10
14.6061555683
 20
11.8337318237
 30
0.0
 10
14.6117012938
 20
11.8264288376
 30
0.0
 10
14.6173053999
 20
11.8194251787
 30
0.0
 10
14.622965502
 20
11.8127239328
 30
0.0
 10
14.6286791117
 20
11.8063279997
 30
0.0
 10
14.6344438036
 20
11.800240208
 30
0.0
 10
14.6402570505
 20
11.794463192
 30
0.0
 10
14.646116391
 20
11.7889995214
 30
0.0
 10
14.6520192586
 20
11.7838515666
 30
0.0
 10
14.657963176
 20
11.7790216299
 30
0.0
 10
14.6639454762
 20
11.7745118512
 30
0.0
 10
14.669963894
 20
11.7703241456
 30
0.0
 10
14.6779519322
 20
11.7652241016
 30
0.0
 10
14.6860871073
 20
11.7607083334
 30
0.0
 10
14.6943434902
 20
11.7568310341
 30
0.0
 10
14.7005020376
 20
11.7542797484
 30
0.0
 10
14.7066805113
 20
11.7520600411
 30
0.0
 10
14.7128763118
 20
11.7501728344
 30
0.0
 10
14.7190866596
 20
11.7486191442
 30
0.0
 10
14.7253087592
 20
11.7473996755
 30
0.0
 10
14.7315398072
 20
11.7465151137
 30
0.0
 10
14.7377769571
 20
11.7459658442
 30
0.0
 10
14.7440173623
 20
11.7457522185
 30
0.0
 10
14.7502581577
 20
11.7458742792
 30
0.0
 10
14.7564964787
 20
11.7463320313
 30
0.0
 10
14.762729474
 20
11.74712517
 30
0.0
 10
14.7689542931
 20
11.7482533555
 30
0.0
 10
14.7751681258
 20
11.7497159474
 30
0.0
 10
14.7813681669
 20
11.7515122813
 30
0.0
 10
14.7875516408
 20
11.75364139
 30
0.0
 10
14.7937158911
 20
11.7561023612
 30
0.0
 10
14.8019797467
 20
11.7598580752
 30
0.0
 10
14.8122633759
 20
11.7654084981
 30
0.0
 10
14.8222405042
 20
11.7719259595
 30
0.0
 10
14.8301457704
 20
11.7777596869
 30
0.0
 10
14.8361005038
 20
11.7825025695
 30
0.0
 10
14.8420147907
 20
11.7875639903
 30
0.0
 10
14.8478862664
 20
11.7929417825
 30
0.0
 10
14.8537123254
 20
11.7986335794
 30
0.0
 10
14.8594905219
 20
11.8046368713
 30
0.0
 10
14.865218273
 20
11.8109489952
 30
0.0
 10
14.8689589628
 20
11.8153114791
 30
0.0
 10
14.8708207264
 20
11.8175419635
 30
0.0
  0
SPLINE
  5
35A
100
AcDbEntity
  8
LAYER_FEATURE
100
AcDbSpline
 62
7
  6
CONTINUOUS
 70
0
 71
3
 72
11
 73
7
 74
0
 42
0.0000001
 43
0.0000001
 44
0.0000000001
 40
0.0
 40
0.0
 40
0.0
 40
0.0
 40
0.2425484117
 40
0.4904904882
 40
0.7431933786
 40
1.0
 40
1.0
 40
1.0
 40
1.0
 10
15.604276175
 20
12.8287626257
 30
0.0
 10
15.6019092154
 20
12.8175974945
 30
0.0
 10
15.5974348444
 20
12.7949516951
 30
0.0
 10
15.5915523939
 20
12.7604748786
 30
0.0
 10
15.5864384142
 20
12.7251977836
 30
0.0
 10
15.583572893
 20
12.7013916789
 30
0.0
 10
15.582268718
 20
12.6893780655
 30
0.0
  0
SPLINE
  5
35B
100
AcDbEntity
  8
LAYER_FEATURE
100
AcDbSpline
 62
7
  6
CONTINUOUS
 70
0
 71
3
 72
15
 73
11
 74
0
 42
0.0000001
 43
0.0000001
 44
0.0000000001
 40
0.0
 40
0.0
 40
0.0
 40
0.0
 40
0.1362989316
 40
0.2694305822
 40
0.3993509345
 40
0.5260306798
 40
0.6494452918
 40
0.7695794361
 40
0.8864303426
 40
1.0
 40
1.0
 40
1.0
 40
1.0
 10
15.6594642651
 20
13.0073513508
 30
0.0
 10
15.6612695815
 20
13.0114812135
 30
0.0
 10
15.6649228215
 20
13.0196083595
 30
0.0
 10
15.6706001723
 20
13.0315328322
 30
0.0
 10
15.676406816
 20
13.0430398299
 30
0.0
 10
15.6823380302
 20
13.0541200305
 30
0.0
 10
15.6883891277
 20
13.0647646171
 30
0.0
 10
15.6945553093
 20
13.074965157
 30
0.0
 10
15.7008315771
 20
13.0847133094
 30
0.0
 10
15.7051472539
 20
13.0909947374
 30
0.0
 10
15.7073235072
 20
13.0940555116
 30
0.0
  0
SPLINE
  5
35C
100
AcDbEntity
  8
LAYER_FEATURE
100
AcDbSpline
 62
7
  6
CONTINUOUS
 70
0
 71
3
 72
15
 73
11
 74
0
 42
0.0000001
 43
0.0000001
 44
0.0000000001
 40
0.0
 40
0.0
 40
0.0
 40
0.0
 40
0.1361162378
 40
0.2690664018
 40
0.398831078
 40
0.5254070482
 40
0.6487962849
 40
0.7690089902
 40
0.8860658548
 40
1.0
 40
1.0
 40
1.0
 40
1.0
 10
15.6767935336
 20
11.9779383944
 30
0.0
 10
15.6785439231
 20
11.9745824841
 30
0.0
 10
15.6820758806
 20
11.9679858848
 30
0.0
 10
15.6875338674
 20
11.9583305377
 30
0.0
 10
15.6930864011
 20
11.9490368172
 30
0.0
 10
15.6987297868
 20
11.9401109076
 30
0.0
 10
15.7044603929
 20
11.931558578
 30
0.0
 10
15.7102745133
 20
11.9233853928
 30
0.0
 10
15.7161683298
 20
11.9155967569
 30
0.0
 10
15.7202024395
 20
11.9105968089
 30
0.0
 10
15.7222325895
 20
11.9081645886
 30
0.0
  0
SPLINE
  5
35D
100
AcDbEntity
  8
LAYER_FEATURE
100
AcDbSpline
 62
7
  6
CONTINUOUS
 70
0
 71
3
 72
15
 73
11
 74
0
 42
0.0000001
 43
0.0000001
 44
0.0000000001
 40
0.0
 40
0.0
 40
0.0
 40
0.0
 40
0.1335280617
 40
0.2647481333
 40
0.3935874415
 40
0.5199840785
 40
0.6438769647
 40
0.7652097428
 40
0.8839338467
 40
1.0
 40
1.0
 40
1.0
 40
1.0
 10
15.624607396
 20
12.1116082553
 30
0.0
 10
15.6260631668
 20
12.1066276663
 30
0.0
 10
15.6290273768
 20
12.0967751087
 30
0.0
 10
15.633674153
 20
12.0822022972
 30
0.0
 10
15.6384797731
 20
12.0679732175
 30
0.0
 10
15.6434403195
 20
12.0540993935
 30
0.0
 10
15.6485518514
 20
12.0405918901
 30
0.0
 10
15.6538102767
 20
12.0274614628
 30
0.0
 10
15.6592113424
 20
12.0147187816
 30
0.0
 10
15.6629470354
 20
12.0063935923
 30
0.0
 10
15.6648389961
 20
12.0022991805
 30
0.0
  0
SPLINE
  5
35E
100
AcDbEntity
  8
LAYER_FEATURE
100
AcDbSpline
 62
7
  6
CONTINUOUS
 70
0
 71
3
 72
11
 73
7
 74
0
 42
0.0000001
 43
0.0000001
 44
0.0000000001
 40
0.0
 40
0.0
 40
0.0
 40
0.0
 40
0.2585290333
 40
0.511792643
 40
0.7591520296
 40
1.0
 40
1.0
 40
1.0
 40
1.0
 10
15.5892003282
 20
12.2776186618
 30
0.0
 10
15.5908996177
 20
12.2659645468
 30
0.0
 10
15.5945450303
 20
12.2429335735
 30
0.0
 10
15.6008234282
 20
12.2089210132
 30
0.0
 10
15.6078404557
 20
12.1758759308
 30
0.0
 10
15.6130698965
 20
12.1542552921
 30
0.0
 10
15.6158097676
 20
12.1436310097
 30
0.0
  0
SPLINE
  5
35F
100
AcDbEntity
  8
LAYER_FEATURE
100
AcDbSpline
 62
7
  6
CONTINUOUS
 70
0
 71
3
 72
11
 73
7
 74
0
 42
0.0000001
 43
0.0000001
 44
0.0000000001
 40
0.0
 40
0.0
 40
0.0
 40
0.0
 40
0.2530371785
 40
0.5045001496
 40
0.7537103698
 40
1.0
 40
1.0
 40
1.0
 40
1.0
 10
15.5734408
 20
12.462520438
 30
0.0
 10
15.573795165
 20
12.4500207285
 30
0.0
 10
15.5747771305
 20
12.4251059847
 30
0.0
 10
15.5770758341
 20
12.3879266574
 30
0.0
 10
15.5801896264
 20
12.3511412876
 30
0.0
 10
15.5828200962
 20
12.3267934194
 30
0.0
 10
15.5842723404
 20
12.3147090914
 30
0.0
  0
SPLINE
  5
360
100
AcDbEntity
  8
LAYER_FEATURE
100
AcDbSpline
 62
7
  6
CONTINUOUS
 70
0
 71
3
 72
11
 73
7
 74
0
 42
0.0000001
 43
0.0000001
 44
0.0000000001
 40
0.0
 40
0.0
 40
0.0
 40
0.0
 40
0.2478621727
 40
0.4976009903
 40
0.7485407202
 40
1.0
 40
1.0
 40
1.0
 40
1.0
 10
15.5786055549
 20
12.6513339417
 30
0.0
 10
15.5775670565
 20
12.6389993448
 30
0.0
 10
15.5757672227
 20
12.6142118846
 30
0.0
 10
15.5738994576
 20
12.5768734545
 30
0.0
 10
15.5728570119
 20
12.5393231944
 30
0.0
 10
15.5727145341
 20
12.5142313942
 30
0.0
 10
15.5727816891
 20
12.5016736968
 30
0.0
  0
SPLINE
  5
361
100
AcDbEntity
  8
LAYER_FEATURE
100
AcDbSpline
 62
7
  6
CONTINUOUS
 70
0
 71
3
 72
11
 73
7
 74
0
 42
0.0000001
 43
0.0000001
 44
0.0000000001
 40
0.0
 40
0.0
 40
0.0
 40
0.0
 40
0.2299462231
 40
0.4744761525
 40
0.7318265088
 40
1.0
 40
1.0
 40
1.0
 40
1.0
 10
15.6502110418
 20
12.987917245
 30
0.0
 10
15.6500037783
 20
12.9873629583
 30
0.0
 10
15.6496151153
 20
12.9862044053
 30
0.0
 10
15.649119889
 20
12.9843864189
 30
0.0
 10
15.6486982359
 20
12.9824492431
 30
0.0
 10
15.6484731071
 20
12.9811151199
 30
0.0
 10
15.6483729794
 20
12.9804322733
 30
0.0
  0
SPLINE
  5
362
100
AcDbEntity
  8
LAYER_FEATURE
100
AcDbSpline
 62
7
  6
CONTINUOUS
 70
0
 71
3
 72
11
 73
7
 74
0
 42
0.0000001
 43
0.0000001
 44
0.0000000001
 40
0.0
 40
0.0
 40
0.0
 40
0.0
 40
0.2324517756
 40
0.4778806225
 40
0.7344170069
 40
1.0
 40
1.0
 40
1.0
 40
1.0
 10
15.582268718
 20
12.6893780655
 30
0.0
 10
15.5820775936
 20
12.6887904657
 30
0.0
 10
15.5817220914
 20
12.6875700741
 30
0.0
 10
15.5812766926
 20
12.6856685389
 30
0.0
 10
15.5809079235
 20
12.6836611184
 30
0.0
 10
15.5807184638
 20
12.6822857036
 30
0.0
 10
15.5806367135
 20
12.6815844824
 30
0.0
  0
SPLINE
  5
363
100
AcDbEntity
  8
LAYER_FEATURE
100
AcDbSpline
 62
7
  6
CONTINUOUS
 70
0
 71
3
 72
11
 73
7
 74
0
 42
0.0000001
 43
0.0000001
 44
0.0000000001
 40
0.0
 40
0.0
 40
0.0
 40
0.0
 40
0.2398984253
 40
0.4879283517
 40
0.7420174434
 40
1.0
 40
1.0
 40
1.0
 40
1.0
 10
15.605218593
 20
12.8372741869
 30
0.0
 10
15.6050825331
 20
12.8366022616
 30
0.0
 10
15.6048391806
 20
12.8352287002
 30
0.0
 10
15.6045621648
 20
12.8331257694
 30
0.0
 10
15.6043689113
 20
12.8309616305
 30
0.0
 10
15.604297601
 20
12.8294995561
 30
0.0
 10
15.604276175
 20
12.8287626257
 30
0.0
  0
SPLINE
  5
364
100
AcDbEntity
  8
LAYER_FEATURE
100
AcDbSpline
 62
7
  6
CONTINUOUS
 70
0
 71
3
 72
11
 73
7
 74
0
 42
0.0000001
 43
0.0000001
 44
0.0000000001
 40
0.0
 40
0.0
 40
0.0
 40
0.0
 40
0.2421853464
 40
0.4909987288
 40
0.7443297846
 40
1.0
 40
1.0
 40
1.0
 40
1.0
 10
15.5727816891
 20
12.5016736968
 30
0.0
 10
15.5726644404
 20
12.5009814692
 30
0.0
 10
15.5724591203
 20
12.4995724145
 30
0.0
 10
15.5722391402
 20
12.4974252758
 30
0.0
 10
15.5721043851
 20
12.4952319605
 30
0.0
 10
15.5720723659
 20
12.4937562797
 30
0.0
 10
15.5720708404
 20
12.4930151019
 30
0.0
  0
SPLINE
  5
365
100
AcDbEntity
  8
LAYER_FEATURE
100
AcDbSpline
 62
7
  6
CONTINUOUS
 70
0
 71
3
 72
11
 73
7
 74
0
 42
0.0000001
 43
0.0000001
 44
0.0000000001
 40
0.0
 40
0.0
 40
0.0
 40
0.0
 40
0.2514234701
 40
0.5033492549
 40
0.7535941874
 40
1.0
 40
1.0
 40
1.0
 40
1.0
 10
15.5842723404
 20
12.3147090914
 30
0.0
 10
15.5842362481
 20
12.3139695337
 30
0.0
 10
15.5841936132
 20
12.3124873354
 30
0.0
 10
15.5842170351
 20
12.3102675851
 30
0.0
 10
15.5843273098
 20
12.3080652404
 30
0.0
 10
15.584459388
 20
12.3066080958
 30
0.0
 10
15.5845402363
 20
12.3058869526
 30
0.0
  0
SPLINE
  5
366
100
AcDbEntity
  8
LAYER_FEATURE
100
AcDbSpline
 62
7
  6
CONTINUOUS
 70
0
 71
3
 72
11
 73
7
 74
0
 42
0.0000001
 43
0.0000001
 44
0.0000000001
 40
0.0
 40
0.0
 40
0.0
 40
0.0
 40
0.2585631485
 40
0.512841684
 40
0.7606744246
 40
1.0
 40
1.0
 40
1.0
 40
1.0
 10
15.5724416272
 20
12.4709892053
 30
0.0
 10
15.5724679564
 20
12.4702538736
 30
0.0
 10
15.5725489248
 20
12.4687962505
 30
0.0
 10
15.5727565476
 20
12.4666409481
 30
0.0
 10
15.5730475069
 20
12.4645505365
 30
0.0
 10
15.5733001532
 20
12.4631868149
 30
0.0
 10
15.5734408
 20
12.462520438
 30
0.0
  0
SPLINE
  5
367
100
AcDbEntity
  8
LAYER_FEATURE
100
AcDbSpline
 62
7
  6
CONTINUOUS
 70
0
 71
3
 72
11
 73
7
 74
0
 42
0.0000001
 43
0.0000001
 44
0.0000000001
 40
0.0
 40
0.0
 40
0.0
 40
0.0
 40
0.2609396009
 40
0.515989716
 40
0.7630129625
 40
1.0
 40
1.0
 40
1.0
 40
1.0
 10
15.6158097676
 20
12.1436310097
 30
0.0
 10
15.6158557059
 20
12.1429043096
 30
0.0
 10
15.6159752069
 20
12.1414689396
 30
0.0
 10
15.6162401184
 20
12.1393556633
 30
0.0
 10
15.6165863996
 20
12.137321919
 30
0.0
 10
15.6168759056
 20
12.1360020063
 30
0.0
 10
15.6170347049
 20
12.1353600443
 30
0.0
  0
SPLINE
  5
368
100
AcDbEntity
  8
02___PRT_ALL_AXES
100
AcDbSpline
 62
7
  6
CONTINUOUS
 70
0
 71
3
 72
54
 73
50
 74
0
 42
0.0000001
 43
0.0000001
 44
0.0000000001
 40
0.0
 40
0.0
 40
0.0
 40
0.0
 40
0.0139504584
 40
0.0283506412
 40
0.0431887665
 40
0.0584540849
 40
0.0741339064
 40
0.0902137431
 40
0.1235081009
 40
0.1582016239
 40
0.1941410936
 40
0.2311604872
 40
0.2690832359
 40
0.3077243112
 40
0.3468921589
 40
0.3863905411
 40
0.42602032
 40
0.4655812133
 40
0.5048735399
 40
0.5436999667
 40
0.5818672804
 40
0.6191882078
 40
0.6554833237
 40
0.690583084
 40
0.724330023
 40
0.7406518855
 40
0.7565833025
 40
0.7721091662
 40
0.787215688
 40
0.8018904389
 40
0.8161226457
 40
0.8299031695
 40
0.8432248355
 40
0.8560825695
 40
0.8684736035
 40
0.8803978777
 40
0.8918581707
 40
0.9028606415
 40
0.9134151072
 40
0.9235355227
 40
0.9332405313
 40
0.9425538182
 40
0.9515047486
 40
0.9601286172
 40
0.9684669469
 40
0.9765674535
 40
0.9844835874
 40
0.9922737657
 40
1.0
 40
1.0
 40
1.0
 40
1.0
 10
16.3132986496
 20
12.6087208566
 30
0.0
 10
16.3137974145
 20
12.6077044806
 30
0.0
 10
16.3147781936
 20
12.605622709
 30
0.0
 10
16.3161785644
 20
12.6024091104
 30
0.0
 10
16.3175296419
 20
12.5990591346
 30
0.0
 10
16.3188293841
 20
12.5955778873
 30
0.0
 10
16.3200759216
 20
12.5919704588
 30
0.0
 10
16.3216830995
 20
12.586941103
 30
0.0
 10
16.3235401199
 20
12.5803737347
 30
0.0
 10
16.325503764
 20
12.5721690785
 30
0.0
 10
16.327216023
 20
12.5635999035
 30
0.0
 10
16.3286666499
 20
12.5547171271
 30
0.0
 10
16.3298469653
 20
12.5455734092
 30
0.0
 10
16.3307498992
 20
12.5362230534
 30
0.0
 10
16.3313700414
 20
12.5267216074
 30
0.0
 10
16.3317036741
 20
12.5171255412
 30
0.0
 10
16.3317487955
 20
12.5074918989
 30
0.0
 10
16.3315051368
 20
12.4978779534
 30
0.0
 10
16.3309741598
 20
12.4883408571
 30
0.0
 10
16.3301590473
 20
12.4789372967
 30
0.0
 10
16.3290646831
 20
12.4697231442
 30
0.0
 10
16.327697622
 20
12.4607531322
 30
0.0
 10
16.3260660467
 20
12.4520804558
 30
0.0
 10
16.3241797253
 20
12.443756658
 30
0.0
 10
16.3223854893
 20
12.4370794038
 30
0.0
 10
16.320826712
 20
12.4319545391
 30
0.0
 10
16.3196143814
 20
12.4282709997
 30
0.0
 10
16.3183476561
 20
12.4247103145
 30
0.0
 10
16.3170284167
 20
12.4212777533
 30
0.0
 10
16.3156586033
 20
12.4179784188
 30
0.0
 10
16.3142402743
 20
12.4148171927
 30
0.0
 10
16.3127755067
 20
12.411798765
 30
0.0
 10
16.3112664756
 20
12.4089275983
 30
0.0
 10
16.309715408
 20
12.406207934
 30
0.0
 10
16.3081245602
 20
12.4036437979
 30
0.0
 10
16.3064962847
 20
12.4012389584
 30
0.0
 10
16.3048329167
 20
12.3989969785
 30
0.0
 10
16.3031368762
 20
12.3969211555
 30
0.0
 10
16.3014105853
 20
12.3950145628
 30
0.0
 10
16.2996564821
 20
12.3932800499
 30
0.0
 10
16.2978770606
 20
12.3917202035
 30
0.0
 10
16.2960747809
 20
12.3903374485
 30
0.0
 10
16.2942521872
 20
12.3891339428
 30
0.0
 10
16.2924118317
 20
12.388111692
 30
0.0
 10
16.2905563488
 20
12.387272496
 30
0.0
 10
16.2886885154
 20
12.3866179106
 30
0.0
 10
16.2868111366
 20
12.386149321
 30
0.0
 10
16.2849275146
 20
12.3858677051
 30
0.0
 10
16.2836673876
 20
12.3858049998
 30
0.0
 10
16.2830403592
 20
12.3858049963
 30
0.0
  0
SPLINE
  5
369
100
AcDbEntity
  8
LAYER_FEATURE
100
AcDbSpline
 62
7
  6
CONTINUOUS
 70
0
 71
3
 72
11
 73
7
 74
0
 42
0.0000001
 43
0.0000001
 44
0.0000000001
 40
0.0
 40
0.0
 40
0.0
 40
0.0
 40
0.2688296735
 40
0.5263840811
 40
0.7706850093
 40
1.0
 40
1.0
 40
1.0
 40
1.0
 10
15.5873125049
 20
12.2850215128
 30
0.0
 10
15.5874170986
 20
12.2843437222
 30
0.0
 10
15.587650869
 20
12.2830208055
 30
0.0
 10
15.5880853287
 20
12.2811024799
 30
0.0
 10
15.5885925496
 20
12.2793065515
 30
0.0
 10
15.5889891933
 20
12.2781642398
 30
0.0
 10
15.5892003282
 20
12.2776186618
 30
0.0
  0
SPLINE
  5
36A
100
AcDbEntity
  8
LAYER_FEATURE
100
AcDbSpline
 62
7
  6
CONTINUOUS
 70
0
 71
3
 72
11
 73
7
 74
0
 42
0.0000001
 43
0.0000001
 44
0.0000000001
 40
0.0
 40
0.0
 40
0.0
 40
0.0
 40
0.271534334
 40
0.5299192781
 40
0.7732694725
 40
1.0
 40
1.0
 40
1.0
 40
1.0
 10
15.6648389961
 20
12.0022991805
 30
0.0
 10
15.6649611978
 20
12.0016437511
 30
0.0
 10
15.6652289316
 20
12.0003698254
 30
0.0
 10
15.6657137051
 20
11.9985331424
 30
0.0
 10
15.6662677569
 20
11.9968313952
 30
0.0
 10
15.6666955509
 20
11.9957581462
 30
0.0
 10
15.6669217375
 20
11.9952494528
 30
0.0
  0
SPLINE
  5
36B
100
AcDbEntity
  8
02___PRT_ALL_AXES
100
AcDbSpline
 62
7
  6
CONTINUOUS
 70
0
 71
3
 72
27
 73
23
 74
0
 42
0.0000001
 43
0.0000001
 44
0.0000000001
 40
0.0
 40
0.0
 40
0.0
 40
0.0
 40
0.0835109787
 40
0.163908426
 40
0.2411670488
 40
0.3152835275
 40
0.3862765872
 40
0.45419144
 40
0.5191027144
 40
0.5811185469
 40
0.6403847038
 40
0.6970888395
 40
0.7514643487
 40
0.8037931739
 40
0.8292988612
 40
0.854421268
 40
0.8792091126
 40
0.9037137739
 40
0.9279888818
 40
0.9520900444
 40
0.9760743643
 40
1.0
 40
1.0
 40
1.0
 40
1.0
 10
16.1511142129
 20
12.0838918272
 30
0.0
 10
16.1533952162
 20
12.0792436312
 30
0.0
 10
16.1580248995
 20
12.0701943079
 30
0.0
 10
16.1653193707
 20
12.0571378985
 30
0.0
 10
16.1728208634
 20
12.0448765086
 30
0.0
 10
16.1805163557
 20
12.0334316536
 30
0.0
 10
16.1883927783
 20
12.0228231376
 30
0.0
 10
16.1964367927
 20
12.0130694114
 30
0.0
 10
16.2046349405
 20
12.0041874795
 30
0.0
 10
16.212973661
 20
11.9961929541
 30
0.0
 10
16.2214392364
 20
11.9891001406
 30
0.0
 10
16.2300180587
 20
11.9829220177
 30
0.0
 10
16.2386954915
 20
11.9776706921
 30
0.0
 10
16.2460606653
 20
11.9740447654
 30
0.0
 10
16.2519739459
 20
11.9716350274
 30
0.0
 10
16.2563856489
 20
11.9700800058
 30
0.0
 10
16.2608094248
 20
11.9687629583
 30
0.0
 10
16.2652433643
 20
11.967684426
 30
0.0
 10
16.2696854466
 20
11.9668450183
 30
0.0
 10
16.2741336942
 20
11.9662451153
 30
0.0
 10
16.2785859071
 20
11.9658850569
 30
0.0
 10
16.2815569608
 20
11.9658049994
 30
0.0
 10
16.2830403592
 20
11.9658049966
 30
0.0
  0
SPLINE
  5
36C
100
AcDbEntity
  8
LAYER_FEATURE
100
AcDbSpline
 62
7
  6
CONTINUOUS
 70
0
 71
3
 72
13
 73
9
 74
0
 42
0.0000001
 43
0.0000001
 44
0.0000000001
 40
0.0
 40
0.0
 40
0.0
 40
0.0
 40
0.2804796516
 40
0.5414001822
 40
0.6641179888
 40
0.7814946059
 40
0.8934697626
 40
1.0
 40
1.0
 40
1.0
 40
1.0
 10
15.6219838626
 20
12.117345455
 30
0.0
 10
15.6221561123
 20
12.1167789106
 30
0.0
 10
15.6225192613
 20
12.1156942934
 30
0.0
 10
15.6230513358
 20
12.1143956728
 30
0.0
 10
15.6235094317
 20
12.1134419784
 30
0.0
 10
15.623859362
 20
12.1127859266
 30
0.0
 10
15.6242217644
 20
12.1121761113
 30
0.0
 10
15.6244774486
 20
12.1117918228
 30
0.0
 10
15.624607396
 20
12.1116082553
 30
0.0
  0
SPLINE
  5
36D
100
AcDbEntity
  8
LAYER_FEATURE
100
AcDbSpline
 62
7
  6
CONTINUOUS
 70
0
 71
3
 72
11
 73
7
 74
0
 42
0.0000001
 43
0.0000001
 44
0.0000000001
 40
0.0
 40
0.0
 40
0.0
 40
0.0
 40
0.282218416
 40
0.5433865153
 40
0.7826955082
 40
1.0
 40
1.0
 40
1.0
 40
1.0
 10
15.7275061443
 20
11.9018326729
 30
0.0
 10
15.7276872999
 20
11.9013358569
 30
0.0
 10
15.7280646542
 20
11.9003892702
 30
0.0
 10
15.7287037501
 20
11.8990676424
 30
0.0
 10
15.7293892014
 20
11.8979085003
 30
0.0
 10
15.7298977216
 20
11.8972177435
 30
0.0
 10
15.7301597835
 20
11.8969061051
 30
0.0
  0
SPLINE
  5
36E
100
AcDbEntity
  8
LAYER_FEATURE
100
AcDbSpline
 62
7
  6
CONTINUOUS
 70
0
 71
3
 72
14
 73
10
 74
0
 42
0.0000001
 43
0.0000001
 44
0.0000000001
 40
0.0
 40
0.0
 40
0.0
 40
0.0
 40
0.1489338312
 40
0.2907872525
 40
0.4255450909
 40
0.553320522
 40
0.6743082552
 40
0.7888096609
 40
1.0
 40
1.0
 40
1.0
 40
1.0
 10
15.6736468331
 20
11.981545149
 30
0.0
 10
15.6737615564
 20
11.9813338014
 30
0.0
 10
15.6739946044
 20
11.9809259677
 30
0.0
 10
15.6743645392
 20
11.9803465998
 30
0.0
 10
15.6747455088
 20
11.9798158648
 30
0.0
 10
15.6751365169
 20
11.9793351704
 30
0.0
 10
15.675536767
 20
11.9789055915
 30
0.0
 10
15.6760667573
 20
11.9784160068
 30
0.0
 10
15.6764969018
 20
11.9781065926
 30
0.0
 10
15.6767935336
 20
11.9779383944
 30
0.0
  0
SPLINE
  5
36F
100
AcDbEntity
  8
LAYER_FEATURE
100
AcDbSpline
 62
7
  6
CONTINUOUS
 70
0
 71
3
 72
11
 73
7
 74
0
 42
0.0000001
 43
0.0000001
 44
0.0000000001
 40
0.0
 40
0.0
 40
0.0
 40
0.0
 40
0.2447671267
 40
0.4936248872
 40
0.7456754059
 40
1.0
 40
1.0
 40
1.0
 40
1.0
 10
14.7129643274
 20
13.0159694073
 30
0.0
 10
14.7131519046
 20
13.0172584346
 30
0.0
 10
14.7134926464
 20
13.0198636323
 30
0.0
 10
14.7138986789
 20
13.0238116157
 30
0.0
 10
14.7142027148
 20
13.0278197603
 30
0.0
 10
14.7143360868
 20
13.0305116469
 30
0.0
 10
14.7143856431
 20
13.0318642061
 30
0.0
  0
SPLINE
  5
370
100
AcDbEntity
  8
LAYER_FEATURE
100
AcDbSpline
 62
7
  6
CONTINUOUS
 70
0
 71
3
 72
14
 73
10
 74
0
 42
0.0000001
 43
0.0000001
 44
0.0000000001
 40
0.0
 40
0.0
 40
0.0
 40
0.0
 40
0.2538946432
 40
0.3808040028
 40
0.5071828493
 40
0.6326569256
 40
0.756856757
 40
0.8794238652
 40
1.0
 40
1.0
 40
1.0
 40
1.0
 10
14.7143856431
 20
13.0318642061
 30
0.0
 10
14.7144952079
 20
13.0348545993
 30
0.0
 10
14.7145555587
 20
13.0393444512
 30
0.0
 10
14.7144299616
 20
13.0453211324
 30
0.0
 10
14.7142329249
 20
13.0497813096
 30
0.0
 10
14.7139337583
 20
13.0542037556
 30
0.0
 10
14.7135335142
 20
13.0585731238
 30
0.0
 10
14.7130335872
 20
13.0628740839
 30
0.0
 10
14.7126313446
 20
13.0657117715
 30
0.0
 10
14.712413435
 20
13.0671160743
 30
0.0
  0
LINE
  5
371
100
AcDbEntity
  8
LAYER_FEATURE
100
AcDbLine
 62
7
  6
CONTINUOUS
 10
14.710888052
 20
13.0788215521
 11
14.7111987053
 21
13.0752723392
  0
SPLINE
  5
372
100
AcDbEntity
  8
LAYER_FEATURE
100
AcDbSpline
 62
7
  6
CONTINUOUS
 70
0
 71
3
 72
15
 73
11
 74
0
 42
0.0000001
 43
0.0000001
 44
0.0000000001
 40
0.0
 40
0.0
 40
0.0
 40
0.0
 40
0.1123987617
 40
0.2300475198
 40
0.3521869644
 40
0.4779944228
 40
0.6065980798
 40
0.7370900139
 40
0.868538517
 40
1.0
 40
1.0
 40
1.0
 40
1.0
 10
14.7125776337
 20
13.0940555116
 30
0.0
 10
14.7124153065
 20
13.0935022823
 30
0.0
 10
14.712112957
 20
13.0923610522
 30
0.0
 10
14.7117320239
 20
13.0905945481
 30
0.0
 10
14.7114156215
 20
13.0887455436
 30
0.0
 10
14.7111664625
 20
13.0868296625
 30
0.0
 10
14.710986668
 20
13.0848630336
 30
0.0
 10
14.7108777747
 20
13.0828622418
 30
0.0
 10
14.710840711
 20
13.0808442064
 30
0.0
 10
14.7108641568
 20
13.0794954638
 30
0.0
 10
14.710888052
 20
13.0788215521
 30
0.0
  0
SPLINE
  5
373
100
AcDbEntity
  8
LAYER_FEATURE
100
AcDbSpline
 62
7
  6
CONTINUOUS
 70
0
 71
3
 72
15
 73
11
 74
0
 42
0.0000001
 43
0.0000001
 44
0.0000000001
 40
0.0
 40
0.0
 40
0.0
 40
0.0
 40
0.1362989318
 40
0.2694305825
 40
0.3993509346
 40
0.5260306797
 40
0.6494452917
 40
0.7695794358
 40
0.8864303425
 40
1.0
 40
1.0
 40
1.0
 40
1.0
 10
14.6647183916
 20
13.0073513508
 30
0.0
 10
14.666523708
 20
13.0114812135
 30
0.0
 10
14.6701769479
 20
13.0196083596
 30
0.0
 10
14.6758542988
 20
13.0315328322
 30
0.0
 10
14.6816609425
 20
13.0430398299
 30
0.0
 10
14.6875921567
 20
13.0541200305
 30
0.0
 10
14.6936432541
 20
13.0647646171
 30
0.0
 10
14.6998094357
 20
13.074965157
 30
0.0
 10
14.7060857036
 20
13.0847133094
 30
0.0
 10
14.7104013804
 20
13.0909947374
 30
0.0
 10
14.7125776337
 20
13.0940555116
 30
0.0
  0
LINE
  5
374
100
AcDbEntity
  8
LAYER_FEATURE
100
AcDbLine
 62
7
  6
CONTINUOUS
 10
15.7381159896
 20
11.8886223279
 11
15.739152196
 21
11.8878748519
  0
SPLINE
  5
375
100
AcDbEntity
  8
LAYER_FEATURE
100
AcDbSpline
 62
7
  6
CONTINUOUS
 70
0
 71
3
 72
15
 73
11
 74
0
 42
0.0000001
 43
0.0000001
 44
0.0000000001
 40
0.0
 40
0.0
 40
0.0
 40
0.0
 40
0.102294058
 40
0.212359784
 40
0.329703854
 40
0.4536942382
 40
0.5835872313
 40
0.7185490362
 40
0.8576738905
 40
1.0
 40
1.0
 40
1.0
 40
1.0
 10
14.7816060638
 20
13.1604272616
 30
0.0
 10
14.7813865506
 20
13.1600080261
 30
0.0
 10
14.7809662497
 20
13.1591189089
 30
0.0
 10
14.7804079315
 20
13.1576985361
 30
0.0
 10
14.7799024686
 20
13.1561525986
 30
0.0
 10
14.7794541669
 20
13.154494076
 30
0.0
 10
14.7790668048
 20
13.1527367998
 30
0.0
 10
14.7787436802
 20
13.15089552
 30
0.0
 10
14.7784875471
 20
13.1489857576
 30
0.0
 10
14.7783640158
 20
13.1476892336
 30
0.0
 10
14.7783135766
 20
13.1470327465
 30
0.0
  0
SPLINE
  5
376
100
AcDbEntity
  8
LAYER_FEATURE
100
AcDbSpline
 62
7
  6
CONTINUOUS
 70
0
 71
3
 72
15
 73
11
 74
0
 42
0.0000001
 43
0.0000001
 44
0.0000000001
 40
0.0
 40
0.0
 40
0.0
 40
0.0
 40
0.138703705
 40
0.2732300561
 40
0.4036757215
 40
0.5301677687
 40
0.6528549928
 40
0.7719135502
 40
0.8875511646
 40
1.0
 40
1.0
 40
1.0
 40
1.0
 10
14.7262405946
 20
13.1119421193
 30
0.0
 10
14.7284152484
 20
13.1145837049
 30
0.0
 10
14.7327915161
 20
13.1197121808
 30
0.0
 10
14.739541176
 20
13.1270368993
 30
0.0
 10
14.7463696159
 20
13.1338690989
 30
0.0
 10
14.7532713669
 20
13.1402031468
 30
0.0
 10
14.7602411251
 20
13.1460339334
 30
0.0
 10
14.7672735822
 20
13.1513567743
 30
0.0
 10
14.7743629457
 20
13.1561670155
 30
0.0
 10
14.7791879244
 20
13.1590681639
 30
0.0
 10
14.7816060638
 20
13.1604272616
 30
0.0
  0
SPLINE
  5
377
100
AcDbEntity
  8
LAYER_FEATURE
100
AcDbSpline
 62
7
  6
CONTINUOUS
 70
0
 71
3
 72
15
 73
11
 74
0
 42
0.0000001
 43
0.0000001
 44
0.0000000001
 40
0.0
 40
0.0
 40
0.0
 40
0.0
 40
0.1011068557
 40
0.2088721646
 40
0.3234994512
 40
0.4451047662
 40
0.573685674
 40
0.7091496993
 40
0.8513311037
 40
1.0
 40
1.0
 40
1.0
 40
1.0
 10
14.8551201233
 20
13.1741704788
 30
0.0
 10
14.8549572957
 20
13.1740160104
 30
0.0
 10
14.854635662
 20
13.1736811198
 30
0.0
 10
14.854180405
 20
13.1731249685
 30
0.0
 10
14.8537388297
 20
13.1725012846
 30
0.0
 10
14.8533124296
 20
13.1718122751
 30
0.0
 10
14.8529025708
 20
13.1710602438
 30
0.0
 10
14.8525106516
 20
13.1702477399
 30
0.0
 10
14.8521380043
 20
13.169377552
 30
0.0
 10
14.8519082225
 20
13.1687739809
 30
0.0
 10
14.851796494
 20
13.1684634496
 30
0.0
  0
SPLINE
  5
378
100
AcDbEntity
  8
LAYER_FEATURE
100
AcDbSpline
 62
7
  6
CONTINUOUS
 70
0
 71
3
 72
15
 73
11
 74
0
 42
0.0000001
 43
0.0000001
 44
0.0000000001
 40
0.0
 40
0.0
 40
0.0
 40
0.0
 40
0.1292039208
 40
0.2562487254
 40
0.3815896409
 40
0.5057074567
 40
0.6290984088
 40
0.7522700706
 40
0.8757364327
 40
1.0
 40
1.0
 40
1.0
 40
1.0
 10
14.7987984791
 20
13.1685392779
 30
0.0
 10
14.8011037513
 20
13.1694216016
 30
0.0
 10
14.805731356
 20
13.1710306112
 30
0.0
 10
14.8127625258
 20
13.1729749734
 30
0.0
 10
14.8198131815
 20
13.1744259118
 30
0.0
 10
14.8268774747
 20
13.175381968
 30
0.0
 10
14.8339498642
 20
13.1758422325
 30
0.0
 10
14.8410247926
 20
13.1758062601
 30
0.0
 10
14.8480961129
 20
13.1752741211
 30
0.0
 10
14.8527838533
 20
13.1745918908
 30
0.0
 10
14.8551201233
 20
13.1741704788
 30
0.0
  0
SPLINE
  5
379
100
AcDbEntity
  8
02___PRT_ALL_AXES
100
AcDbSpline
 62
7
  6
CONTINUOUS
 70
0
 71
3
 72
75
 73
71
 74
0
 42
0.0000001
 43
0.0000001
 44
0.0000000001
 40
0.0
 40
0.0
 40
0.0
 40
0.0
 40
0.0038601584
 40
0.0077283485
 40
0.0116125388
 40
0.0155205797
 40
0.0194601386
 40
0.0234386601
 40
0.0274633113
 40
0.0315409492
 40
0.0398790149
 40
0.0485026059
 40
0.0574532448
 40
0.0667662428
 40
0.076470926
 40
0.0865910246
 40
0.0971451438
 40
0.1081472588
 40
0.119607194
 40
0.1315310723
 40
0.1439217209
 40
0.1567790302
 40
0.170100268
 40
0.183880353
 40
0.1981120921
 40
0.2127863855
 40
0.22789241
 40
0.2434177792
 40
0.259348683
 40
0.2756700126
 40
0.2923654727
 40
0.3094176808
 40
0.3268082606
 40
0.3445179292
 40
0.3625265759
 40
0.3808133375
 40
0.3993566676
 40
0.4181344035
 40
0.4371238295
 40
0.4563017403
 40
0.4756445012
 40
0.4951281068
 40
0.5147282381
 40
0.5344203184
 40
0.5541795693
 40
0.5739810654
 40
0.5937997897
 40
0.6136106883
 40
0.6333887242
 40
0.6531089314
 40
0.6727464698
 40
0.69227668
 40
0.71167514
 40
0.7309177198
 40
0.7499806392
 40
0.7688405249
 40
0.7874744704
 40
0.8058600972
 40
0.8239756198
 40
0.8417999107
 40
0.8593125685
 40
0.8764939911
 40
0.8933254522
 40
0.9097891854
 40
0.9258684763
 40
0.9415477505
 40
0.9568127287
 40
0.9716503767
 40
0.9860495014
 40
1.0
 40
1.0
 40
1.0
 40
1.0
 10
16.2830403592
 20
13.0558049892
 30
0.0
 10
16.28167444
 20
13.0558049917
 30
0.0
 10
16.2789392761
 20
13.0557371358
 30
0.0
 10
16.2748399323
 20
13.0554319161
 30
0.0
 10
16.2707436581
 20
13.0549233945
 30
0.0
 10
16.2666521764
 20
13.0542117341
 30
0.0
 10
16.2625670077
 20
13.0532972902
 30
0.0
 10
16.2584897508
 20
13.0521804139
 30
0.0
 10
16.254421872
 20
13.0508615498
 30
0.0
 10
16.2489728166
 20
13.0488196408
 30
0.0
 10
16.2421805063
 20
13.0457477167
 30
0.0
 10
16.2341568581
 20
13.0412907999
 30
0.0
 10
16.2262102486
 20
13.0360435044
 30
0.0
 10
16.2183523641
 20
13.0300146635
 30
0.0
 10
16.2105940437
 20
13.0232137694
 30
0.0
 10
16.2029461839
 20
13.0156512686
 30
0.0
 10
16.1954195395
 20
13.0073385391
 30
0.0
 10
16.1880247971
 20
12.9982879528
 30
0.0
 10
16.1807725383
 20
12.9885129032
 30
0.0
 10
16.1736732229
 20
12.9780278201
 30
0.0
 10
16.1667371607
 20
12.9668481692
 30
0.0
 10
16.1599744819
 20
12.9549904455
 30
0.0
 10
16.1533951102
 20
12.9424721577
 30
0.0
 10
16.1470087363
 20
12.9293118085
 30
0.0
 10
16.1408247955
 20
12.9155288702
 30
0.0
 10
16.134852442
 20
12.9011437591
 30
0.0
 10
16.1291005338
 20
12.8861778018
 30
0.0
 10
16.1235776141
 20
12.8706532019
 30
0.0
 10
16.1182918955
 20
12.8545930063
 30
0.0
 10
16.1132512448
 20
12.8380210696
 30
0.0
 10
16.1084631701
 20
12.820962018
 30
0.0
 10
16.1039348056
 20
12.8034412128
 30
0.0
 10
16.0996728997
 20
12.7854847113
 30
0.0
 10
16.0956838065
 20
12.767119226
 30
0.0
 10
16.0919734752
 20
12.748372083
 30
0.0
 10
16.0885474405
 20
12.7292711815
 30
0.0
 10
16.0854108142
 20
12.7098449513
 30
0.0
 10
16.0825682779
 20
12.6901223106
 30
0.0
 10
16.0800240718
 20
12.6701326234
 30
0.0
 10
16.0777819915
 20
12.6499056538
 30
0.0
 10
16.0758453824
 20
12.6294715213
 30
0.0
 10
16.0742171347
 20
12.6088606552
 30
0.0
 10
16.0728996789
 20
12.5881037496
 30
0.0
 10
16.0718949823
 20
12.5672317172
 30
0.0
 10
16.0712045451
 20
12.5462756437
 30
0.0
 10
16.0708293962
 20
12.5252667407
 30
0.0
 10
16.0707700949
 20
12.5042362986
 30
0.0
 10
16.0710267293
 20
12.4832156398
 30
0.0
 10
16.0715989168
 20
12.4622360723
 30
0.0
 10
16.072485804
 20
12.4413288424
 30
0.0
 10
16.0736860689
 20
12.4205250889
 30
0.0
 10
16.0751979193
 20
12.3998557949
 30
0.0
 10
16.0770190979
 20
12.3793517421
 30
0.0
 10
16.0791468862
 20
12.3590434644
 30
0.0
 10
16.0815781089
 20
12.3389612027
 30
0.0
 10
16.0843091384
 20
12.3191348596
 30
0.0
 10
16.0873359006
 20
12.2995939545
 30
0.0
 10
16.0906538803
 20
12.2803675786
 30
0.0
 10
16.0942581259
 20
12.2614843504
 30
0.0
 10
16.0981432601
 20
12.242972373
 30
0.0
 10
16.1023034879
 20
12.2248591922
 30
0.0
 10
16.1067326061
 20
12.2071717552
 30
0.0
 10
16.1114240123
 20
12.1899363698
 30
0.0
 10
16.1163707167
 20
12.173178663
 30
0.0
 10
16.1215653513
 20
12.1569235462
 30
0.0
 10
16.1270001812
 20
12.1411951534
 30
0.0
 10
16.1326671186
 20
12.1260168825
 30
0.0
 10
16.1385577641
 20
12.1114111405
 30
0.0
 10
16.1446632967
 20
12.0973998525
 30
0.0
 10
16.1489395216
 20
12.0883233822
 30
0.0
 10
16.1511142129
 20
12.0838918272
 30
0.0
  0
SPLINE
  5
37A
100
AcDbEntity
  8
LAYER_FEATURE
100
AcDbSpline
 62
7
  6
CONTINUOUS
 70
0
 71
3
 72
13
 73
9
 74
0
 42
0.0000001
 43
0.0000001
 44
0.0000000001
 40
0.0
 40
0.0
 40
0.0
 40
0.0
 40
0.1160377708
 40
0.2330050771
 40
0.3518010098
 40
0.4732760524
 40
0.7271229651
 40
1.0
 40
1.0
 40
1.0
 40
1.0
 10
14.6672806627
 20
13.008358325
 30
0.0
 10
14.6671721389
 20
13.0083583265
 30
0.0
 10
14.6669540738
 20
13.0083476567
 30
0.0
 10
14.6666280798
 20
13.0082997276
 30
0.0
 10
14.6663031177
 20
13.0082199842
 30
0.0
 10
14.6658656674
 20
13.0080692923
 30
0.0
 10
14.6653208349
 20
13.007796883
 30
0.0
 10
14.6649172031
 20
13.0075113651
 30
0.0
 10
14.6647183916
 20
13.0073513508
 30
0.0
  0
SPLINE
  5
37B
100
AcDbEntity
  8
LAYER_FEATURE
100
AcDbSpline
 62
7
  6
CONTINUOUS
 70
0
 71
3
 72
15
 73
11
 74
0
 42
0.0000001
 43
0.0000001
 44
0.0000000001
 40
0.0
 40
0.0
 40
0.0
 40
0.0
 40
0.1378601965
 40
0.2715775445
 40
0.4013423945
 40
0.5273835759
 40
0.6499594537
 40
0.7693627604
 40
0.8859235551
 40
1.0
 40
1.0
 40
1.0
 40
1.0
 10
14.7468416629
 20
11.8873842294
 30
0.0
 10
14.7490970281
 20
11.8852339929
 30
0.0
 10
14.753631005
 20
11.8810921635
 30
0.0
 10
14.7606057704
 20
11.8752862928
 30
0.0
 10
14.767643058
 20
11.8699888072
 30
0.0
 10
14.7747372049
 20
11.8652042489
 30
0.0
 10
14.7818827538
 20
11.8609366429
 30
0.0
 10
14.7890742391
 20
11.857189609
 30
0.0
 10
14.7963055299
 20
11.8539666789
 30
0.0
 10
14.8011972352
 20
11.8521515784
 30
0.0
 10
14.8036434679
 20
11.8513362721
 30
0.0
  0
SPLINE
  5
37C
100
AcDbEntity
  8
LAYER_FEATURE
100
AcDbSpline
 62
7
  6
CONTINUOUS
 70
0
 71
3
 72
15
 73
11
 74
0
 42
0.0000001
 43
0.0000001
 44
0.0000000001
 40
0.0
 40
0.0
 40
0.0
 40
0.0
 40
0.1459176112
 40
0.2875363673
 40
0.4239037442
 40
0.5541414957
 40
0.6774644562
 40
0.7932028725
 40
0.9008302742
 40
1.0
 40
1.0
 40
1.0
 40
1.0
 10
14.7999131345
 20
11.8639511916
 30
0.0
 10
14.7999851943
 20
11.8633105778
 30
0.0
 10
14.8001510668
 20
11.8620507523
 30
0.0
 10
14.8004701436
 20
11.8602048331
 30
0.0
 10
14.8008536445
 20
11.8584419531
 30
0.0
 10
14.8012983074
 20
11.856776941
 30
0.0
 10
14.801800359
 20
11.855223727
 30
0.0
 10
14.8023556059
 20
11.8537951837
 30
0.0
 10
14.8029593509
 20
11.852503253
 30
0.0
 10
14.8034097179
 20
11.8517068317
 30
0.0
 10
14.8036434679
 20
11.8513362721
 30
0.0
  0
SPLINE
  5
37D
100
AcDbEntity
  8
02___PRT_ALL_AXES
100
AcDbSpline
 62
7
  6
CONTINUOUS
 70
0
 71
3
 72
76
 73
72
 74
0
 42
0.0000001
 43
0.0000001
 44
0.0000000001
 40
0.0
 40
0.0
 40
0.0
 40
0.0
 40
0.0038601513
 40
0.0077283337
 40
0.0116125173
 40
0.0155205503
 40
0.0194601018
 40
0.0234386165
 40
0.0274632586
 40
0.0315408912
 40
0.0356780262
 40
0.0398808208
 40
0.0485043939
 40
0.0574550146
 40
0.0667679955
 40
0.0764726621
 40
0.0865927437
 40
0.0971468441
 40
0.108148937
 40
0.1196088478
 40
0.1315327018
 40
0.143923328
 40
0.1567806156
 40
0.1701018307
 40
0.1838818905
 40
0.1981136008
 40
0.2127878638
 40
0.2278938586
 40
0.2434191997
 40
0.2593500759
 40
0.2756713768
 40
0.2923668054
 40
0.3094189796
 40
0.3268095248
 40
0.3445191594
 40
0.3625277733
 40
0.3808145022
 40
0.3993577984
 40
0.4181354985
 40
0.4371248878
 40
0.4563027617
 40
0.4756454861
 40
0.4951290558
 40
0.5147291508
 40
0.5344211942
 40
0.5541804076
 40
0.5739818662
 40
0.5938005533
 40
0.613611415
 40
0.6333894137
 40
0.6531095835
 40
0.6727470846
 40
0.6922772582
 40
0.7116756821
 40
0.7309182263
 40
0.7499811101
 40
0.7688409599
 40
0.7874748694
 40
0.8058604614
 40
0.8239759503
 40
0.8418002084
 40
0.8593128338
 40
0.8764942241
 40
0.893325653
 40
0.9097893544
 40
0.9258686153
 40
0.9415478606
 40
0.9568128087
 40
0.971650435
 40
0.986049519
 40
1.0
 40
1.0
 40
1.0
 40
1.0
 10
15.9238265715
 20
13.0558049927
 30
0.0
 10
15.9224606523
 20
13.0558049939
 30
0.0
 10
15.919725489
 20
13.0557371264
 30
0.0
 10
15.9156261436
 20
13.0554319256
 30
0.0
 10
15.9115298717
 20
13.054923387
 30
0.0
 10
15.9074383876
 20
13.0542117371
 30
0.0
 10
15.9033532218
 20
13.0532972932
 30
0.0
 10
15.899275956
 20
13.0521804036
 30
0.0
 10
15.8952081155
 20
13.0508615784
 30
0.0
 10
15.8911512706
 20
13.0493413159
 30
0.0
 10
15.8871068616
 20
13.0476202391
 30
0.0
 10
15.8816870393
 20
13.0450367633
 30
0.0
 10
15.8749427895
 20
13.0412906894
 30
0.0
 10
15.8669965392
 20
13.036043541
 30
0.0
 10
15.8591385526
 20
13.0300146584
 30
0.0
 10
15.8513802622
 20
13.0232137727
 30
0.0
 10
15.8437323952
 20
13.0156512652
 30
0.0
 10
15.8362057542
 20
13.0073385349
 30
0.0
 10
15.8288110104
 20
12.9982879505
 30
0.0
 10
15.8215587499
 20
12.9885129051
 30
0.0
 10
15.8144594331
 20
12.9780278244
 30
0.0
 10
15.8075233715
 20
12.9668481725
 30
0.0
 10
15.8007606941
 20
12.9549904457
 30
0.0
 10
15.7941813239
 20
12.9424721549
 30
0.0
 10
15.7877949509
 20
12.9293118048
 30
0.0
 10
15.7816110086
 20
12.9155288689
 30
0.0
 10
15.7756386532
 20
12.901143761
 30
0.0
 10
15.7698867437
 20
12.8861778052
 30
0.0
 10
15.7643638248
 20
12.8706532043
 30
0.0
 10
15.759078108
 20
12.8545930061
 30
0.0
 10
15.7540374592
 20
12.8380210672
 30
0.0
 10
15.7492493846
 20
12.8209620156
 30
0.0
 10
15.7447210184
 20
12.8034412122
 30
0.0
 10
15.7404591106
 20
12.7854847128
 30
0.0
 10
15.7364700163
 20
12.7671192282
 30
0.0
 10
15.7327596859
 20
12.7483720843
 30
0.0
 10
15.7293336534
 20
12.7292711811
 30
0.0
 10
15.7261970289
 20
12.7098449497
 30
0.0
 10
15.7233544921
 20
12.6901223094
 30
0.0
 10
15.7208102843
 20
12.6701326233
 30
0.0
 10
15.7185682022
 20
12.6499056546
 30
0.0
 10
15.7166315923
 20
12.6294715222
 30
0.0
 10
15.7150033457
 20
12.6088606556
 30
0.0
 10
15.7136858921
 20
12.5881037494
 30
0.0
 10
15.7126811968
 20
12.5672317168
 30
0.0
 10
15.7119907589
 20
12.5462756435
 30
0.0
 10
15.7116156085
 20
12.5252667407
 30
0.0
 10
15.7115563057
 20
12.5042362985
 30
0.0
 10
15.7118129396
 20
12.4832156396
 30
0.0
 10
15.7123851282
 20
12.4622360721
 30
0.0
 10
15.7132720175
 20
12.4413288426
 30
0.0
 10
15.7144722829
 20
12.4205250893
 30
0.0
 10
15.7159841325
 20
12.3998557952
 30
0.0
 10
15.7178053099
 20
12.3793517419
 30
0.0
 10
15.7199330973
 20
12.3590434637
 30
0.0
 10
15.7223643198
 20
12.3389612019
 30
0.0
 10
15.7250953503
 20
12.3191348593
 30
0.0
 10
15.728122114
 20
12.299593955
 30
0.0
 10
15.7314400936
 20
12.2803675794
 30
0.0
 10
15.7350443386
 20
12.2614843508
 30
0.0
 10
15.7389294721
 20
12.2429723727
 30
0.0
 10
15.7430896995
 20
12.2248591914
 30
0.0
 10
15.7475188177
 20
12.2071717544
 30
0.0
 10
15.7522102246
 20
12.1899363696
 30
0.0
 10
15.7571569296
 20
12.1731786635
 30
0.0
 10
15.7623515639
 20
12.1569235466
 30
0.0
 10
15.7677863936
 20
12.141195154
 30
0.0
 10
15.7734533307
 20
12.1260168809
 30
0.0
 10
15.7793439761
 20
12.1114111422
 30
0.0
 10
15.7854495078
 20
12.0973998533
 30
0.0
 10
15.7897257326
 20
12.0883233849
 30
0.0
 10
15.7919004252
 20
12.0838918272
 30
0.0
  0
SPLINE
  5
37E
100
AcDbEntity
  8
LAYER_FEATURE
100
AcDbSpline
 62
7
  6
CONTINUOUS
 70
0
 71
3
 72
14
 73
10
 74
0
 42
0.0000001
 43
0.0000001
 44
0.0000000001
 40
0.0
 40
0.0
 40
0.0
 40
0.0
 40
0.2543647028
 40
0.3814803021
 40
0.5079973851
 40
0.6335059203
 40
0.7576041232
 40
0.8798954029
 40
1.0
 40
1.0
 40
1.0
 40
1.0
 10
14.7326549217
 20
11.9473122017
 30
0.0
 10
14.7327505225
 20
11.9498726271
 30
0.0
 10
14.7328007655
 20
11.9537169131
 30
0.0
 10
14.7326832418
 20
11.9588329357
 30
0.0
 10
14.732503062
 20
11.9626481756
 30
0.0
 10
14.7322315583
 20
11.9664274978
 30
0.0
 10
14.7318697614
 20
11.9701565162
 30
0.0
 10
14.7314190707
 20
11.9738209847
 30
0.0
 10
14.7310568407
 20
11.976235972
 30
0.0
 10
14.7308607263
 20
11.9774297814
 30
0.0
  0
SPLINE
  5
37F
100
AcDbEntity
  8
LAYER_FEATURE
100
AcDbSpline
 62
7
  6
CONTINUOUS
 70
0
 71
3
 72
11
 73
7
 74
0
 42
0.0000001
 43
0.0000001
 44
0.0000000001
 40
0.0
 40
0.0
 40
0.0
 40
0.0
 40
0.2629212613
 40
0.5150075436
 40
0.7594622982
 40
1.0
 40
1.0
 40
1.0
 40
1.0
 10
14.6820476601
 20
11.9779383944
 30
0.0
 10
14.6821954698
 20
11.9778545824
 30
0.0
 10
14.6824942213
 20
11.9777058969
 30
0.0
 10
14.6829581708
 20
11.9775418229
 30
0.0
 10
14.6834255796
 20
11.9774429808
 30
0.0
 10
14.6837394403
 20
11.9774209154
 30
0.0
 10
14.6838948926
 20
11.9774209173
 30
0.0
  0
SPLINE
  5
380
100
AcDbEntity
  8
LAYER_FEATURE
100
AcDbSpline
 62
7
  6
CONTINUOUS
 70
0
 71
3
 72
15
 73
11
 74
0
 42
0.0000001
 43
0.0000001
 44
0.0000000001
 40
0.0
 40
0.0
 40
0.0
 40
0.0
 40
0.1374249152
 40
0.2713045495
 40
0.4016190248
 40
0.5283661637
 40
0.6515517706
 40
0.7711944176
 40
0.8873291233
 40
1.0
 40
1.0
 40
1.0
 40
1.0
 10
14.6820476601
 20
11.9779383944
 30
0.0
 10
14.6839824626
 20
11.9742289208
 30
0.0
 10
14.6878898858
 20
11.9669509698
 30
0.0
 10
14.6939467776
 20
11.9563282752
 30
0.0
 10
14.7001185507
 20
11.9461500174
 30
0.0
 10
14.7064001986
 20
11.9364244493
 30
0.0
 10
14.7127867834
 20
11.9271593033
 30
0.0
 10
14.7192732832
 20
11.9183618996
 30
0.0
 10
14.7258544344
 20
11.9100394823
 30
0.0
 10
14.7303693217
 20
11.9047325709
 30
0.0
 10
14.7326420958
 20
11.902163468
 30
0.0
  0
SPLINE
  5
381
100
AcDbEntity
  8
LAYER_FEATURE
100
AcDbSpline
 62
7
  6
CONTINUOUS
 70
0
 71
3
 72
15
 73
11
 74
0
 42
0.0000001
 43
0.0000001
 44
0.0000000001
 40
0.0
 40
0.0
 40
0.0
 40
0.0
 40
0.1346080953
 40
0.2682960179
 40
0.4001087708
 40
0.5291149526
 40
0.6544193335
 40
0.7751761488
 40
0.8906035609
 40
1.0
 40
1.0
 40
1.0
 40
1.0
 10
14.730446873
 20
11.9169661796
 30
0.0
 10
14.730445718
 20
11.9162917679
 30
0.0
 10
14.7304674484
 20
11.9149473877
 30
0.0
 10
14.7305719454
 20
11.9129450709
 30
0.0
 10
14.7307474177
 20
11.9109758533
 30
0.0
 10
14.7309923676
 20
11.909056378
 30
0.0
 10
14.7313047033
 20
11.9072028192
 30
0.0
 10
14.7316817693
 20
11.9054307551
 30
0.0
 10
14.732120335
 20
11.9037551427
 30
0.0
 10
14.7324610356
 20
11.9026807957
 30
0.0
 10
14.7326420958
 20
11.902163468
 30
0.0
  0
SPLINE
  5
382
100
AcDbEntity
  8
LAYER_FEATURE
100
AcDbSpline
 62
7
  6
CONTINUOUS
 70
0
 71
3
 72
15
 73
11
 74
0
 42
0.0000001
 43
0.0000001
 44
0.0000000001
 40
0.0
 40
0.0
 40
0.0
 40
0.0
 40
0.1205441215
 40
0.2433464706
 40
0.367926701
 40
0.4937917957
 40
0.6204397285
 40
0.7473630426
 40
0.8740523808
 40
1.0
 40
1.0
 40
1.0
 40
1.0
 10
14.675058779
 20
12.0456097941
 30
0.0
 10
14.6752676845
 20
12.0469482847
 30
0.0
 10
14.675648039
 20
12.0496569563
 30
0.0
 10
14.6761038323
 20
12.0537671136
 30
0.0
 10
14.6764487668
 20
12.0579480761
 30
0.0
 10
14.6766811958
 20
12.062180056
 30
0.0
 10
14.6768000168
 20
12.0664430813
 30
0.0
 10
14.6768046637
 20
12.0707170275
 30
0.0
 10
14.6766951171
 20
12.0749816687
 30
0.0
 10
14.6765456608
 20
12.0778173241
 30
0.0
 10
14.676451708
 20
12.0792296228
 30
0.0
  0
SPLINE
  5
383
100
AcDbEntity
  8
LAYER_FEATURE
100
AcDbSpline
 62
7
  6
CONTINUOUS
 70
0
 71
3
 72
15
 73
11
 74
0
 42
0.0000001
 43
0.0000001
 44
0.0000000001
 40
0.0
 40
0.0
 40
0.0
 40
0.0
 40
0.1371199213
 40
0.2720220655
 40
0.4040423725
 40
0.5325454482
 40
0.6569282391
 40
0.7766294612
 40
0.8911373997
 40
1.0
 40
1.0
 40
1.0
 40
1.0
 10
14.676451708
 20
12.0792296228
 30
0.0
 10
14.6763595335
 20
12.0806151904
 30
0.0
 10
14.676134669
 20
12.0833613248
 30
0.0
 10
14.6756720895
 20
12.0874275564
 30
0.0
 10
14.6750891654
 20
12.0913901912
 30
0.0
 10
14.6743893907
 20
12.0952256825
 30
0.0
 10
14.6735769465
 20
12.0989113237
 30
0.0
 10
14.6726566707
 20
12.1024253493
 30
0.0
 10
14.6716340891
 20
12.105746898
 30
0.0
 10
14.6708678633
 20
12.1078764497
 30
0.0
 10
14.6704670133
 20
12.108903459
 30
0.0
  0
SPLINE
  5
384
100
AcDbEntity
  8
LAYER_FEATURE
100
AcDbSpline
 62
7
  6
CONTINUOUS
 70
0
 71
3
 72
15
 73
11
 74
0
 42
0.0000001
 43
0.0000001
 44
0.0000000001
 40
0.0
 40
0.0
 40
0.0
 40
0.0
 40
0.1538559702
 40
0.2977337113
 40
0.4320878945
 40
0.5577083336
 40
0.6756874283
 40
0.7874741953
 40
0.8948762396
 40
1.0
 40
1.0
 40
1.0
 40
1.0
 10
14.6298615225
 20
12.1116082553
 30
0.0
 10
14.6300137293
 20
12.1113932437
 30
0.0
 10
14.6303225003
 20
12.1109869205
 30
0.0
 10
14.6308161806
 20
12.1104347453
 30
0.0
 10
14.6313230125
 20
12.1099627326
 30
0.0
 10
14.6318412401
 20
12.1095728915
 30
0.0
 10
14.6323691581
 20
12.1092670119
 30
0.0
 10
14.6329049593
 20
12.109046822
 30
0.0
 10
14.633446278
 20
12.1089139071
 30
0.0
 10
14.6338108219
 20
12.1088841671
 30
0.0
 10
14.6339908153
 20
12.1088841682
 30
0.0
  0
SPLINE
  5
385
100
AcDbEntity
  8
LAYER_FEATURE
100
AcDbSpline
 62
7
  6
CONTINUOUS
 70
0
 71
3
 72
15
 73
11
 74
0
 42
0.0000001
 43
0.0000001
 44
0.0000000001
 40
0.0
 40
0.0
 40
0.0
 40
0.0
 40
0.1335280616
 40
0.2647481331
 40
0.3935874411
 40
0.519984078
 40
0.6438769641
 40
0.7652097423
 40
0.8839338466
 40
1.0
 40
1.0
 40
1.0
 40
1.0
 10
14.6298615225
 20
12.1116082553
 30
0.0
 10
14.6313172933
 20
12.1066276663
 30
0.0
 10
14.6342815033
 20
12.0967751087
 30
0.0
 10
14.6389282794
 20
12.0822022972
 30
0.0
 10
14.6437338996
 20
12.0679732176
 30
0.0
 10
14.6486944459
 20
12.0540993935
 30
0.0
 10
14.6538059778
 20
12.0405918902
 30
0.0
 10
14.6590644032
 20
12.0274614628
 30
0.0
 10
14.6644654689
 20
12.0147187817
 30
0.0
 10
14.6682011619
 20
12.0063935923
 30
0.0
 10
14.6700931226
 20
12.0022991805
 30
0.0
  0
SPLINE
  5
386
100
AcDbEntity
  8
LAYER_FEATURE
100
AcDbSpline
 62
7
  6
CONTINUOUS
 70
0
 71
3
 72
15
 73
11
 74
0
 42
0.0000001
 43
0.0000001
 44
0.0000000001
 40
0.0
 40
0.0
 40
0.0
 40
0.0
 40
0.1245073889
 40
0.2509692064
 40
0.3784835715
 40
0.5061355137
 40
0.6330083609
 40
0.7581951044
 40
0.8808099112
 40
1.0
 40
1.0
 40
1.0
 40
1.0
 10
14.6696108542
 20
12.0180904565
 30
0.0
 10
14.6695349024
 20
12.0174368615
 30
0.0
 10
14.6694073773
 20
12.0161163165
 30
0.0
 10
14.669288763
 20
12.0141192179
 30
0.0
 10
14.6692418855
 20
12.012102506
 30
0.0
 10
14.669267149
 20
12.0100832443
 30
0.0
 10
14.6693643363
 20
12.0080784725
 30
0.0
 10
14.6695326198
 20
12.0061051014
 30
0.0
 10
14.6697705551
 20
12.0041798252
 30
0.0
 10
14.6699776716
 20
12.0029184023
 30
0.0
 10
14.6700931226
 20
12.0022991805
 30
0.0
  0
LINE
  5
387
100
AcDbEntity
  8
LAYER_FEATURE
100
AcDbLine
 62
7
  6
CONTINUOUS
 10
14.622925702
 20
12.1610750394
 11
14.6223336507
 21
12.1591315349
  0
LINE
  5
388
100
AcDbEntity
  8
LAYER_FEATURE
100
AcDbLine
 62
7
  6
CONTINUOUS
 10
14.6277492613
 20
12.1735929955
 11
14.630580093
 21
12.1815947349
  0
SPLINE
  5
389
100
AcDbEntity
  8
LAYER_FEATURE
100
AcDbSpline
 62
7
  6
CONTINUOUS
 70
0
 71
3
 72
15
 73
11
 74
0
 42
0.0000001
 43
0.0000001
 44
0.0000000001
 40
0.0
 40
0.0
 40
0.0
 40
0.0
 40
0.1131204712
 40
0.2305224608
 40
0.3517974585
 40
0.4765049601
 40
0.6041774876
 40
0.7343251722
 40
0.8664400263
 40
1.0
 40
1.0
 40
1.0
 40
1.0
 10
14.630580093
 20
12.1815947349
 30
0.0
 10
14.6309307012
 20
12.1827386917
 30
0.0
 10
14.6315981979
 20
12.1850845211
 30
0.0
 10
14.6324853468
 20
12.1886989348
 30
0.0
 10
14.6332739441
 20
12.1924614247
 30
0.0
 10
14.6339602275
 20
12.1963541963
 30
0.0
 10
14.6345409447
 20
12.2003589207
 30
0.0
 10
14.6350133361
 20
12.2044567132
 30
0.0
 10
14.6353751559
 20
12.2086281978
 30
0.0
 10
14.6355408324
 20
12.2114337749
 30
0.0
 10
14.6356050914
 20
12.2128449817
 30
0.0
  0
SPLINE
  5
38A
100
AcDbEntity
  8
LAYER_FEATURE
100
AcDbSpline
 62
7
  6
CONTINUOUS
 70
0
 71
3
 72
23
 73
19
 74
0
 42
0.0000001
 43
0.0000001
 44
0.0000000001
 40
0.0
 40
0.0
 40
0.0
 40
0.0
 40
0.0719050146
 40
0.1440024013
 40
0.2159540621
 40
0.2874261677
 40
0.3580868898
 40
0.4276118218
 40
0.495685703
 40
0.5620057521
 40
0.6262846484
 40
0.6882539339
 40
0.7476677655
 40
0.8043071229
 40
0.8579850935
 40
0.9085524121
 40
0.95590679
 40
1.0
 40
1.0
 40
1.0
 40
1.0
 10
14.6356050914
 20
12.2128449817
 30
0.0
 10
14.6356667687
 20
12.2141994913
 30
0.0
 10
14.6357505926
 20
12.2169141027
 30
0.0
 10
14.6357587287
 20
12.2209868767
 30
0.0
 10
14.6356495772
 20
12.2250500694
 30
0.0
 10
14.6354237521
 20
12.2290813181
 30
0.0
 10
14.6350824933
 20
12.2330585351
 30
0.0
 10
14.6346276926
 20
12.2369598947
 30
0.0
 10
14.6340618608
 20
12.2407640114
 30
0.0
 10
14.633388125
 20
12.2444500417
 30
0.0
 10
14.6326102036
 20
12.2479978085
 30
0.0
 10
14.631732386
 20
12.2513879175
 30
0.0
 10
14.6307595022
 20
12.254601867
 30
0.0
 10
14.629696887
 20
12.2576221727
 30
0.0
 10
14.628550346
 20
12.260432429
 30
0.0
 10
14.6273260419
 20
12.2630175516
 30
0.0
 10
14.6260306469
 20
12.2653634377
 30
0.0
 10
14.625090447
 20
12.2668114634
 30
0.0
 10
14.6246081369
 20
12.2674887465
 30
0.0
  0
SPLINE
  5
38B
100
AcDbEntity
  8
LAYER_FEATURE
100
AcDbSpline
 62
7
  6
CONTINUOUS
 70
0
 71
3
 72
9
 73
5
 74
0
 42
0.0000001
 43
0.0000001
 44
0.0000000001
 40
0.0
 40
0.0
 40
0.0
 40
0.0
 40
0.5190693504
 40
1.0
 40
1.0
 40
1.0
 40
1.0
 10
14.6246081369
 20
12.2674887465
 30
0.0
 10
14.6241247243
 20
12.2681675777
 30
0.0
 10
14.6231429621
 20
12.2694405352
 30
0.0
 10
14.6220474731
 20
12.2706184991
 30
0.0
 10
14.6214909041
 20
12.271153684
 30
0.0
  0
SPLINE
  5
38C
100
AcDbEntity
  8
LAYER_FEATURE
100
AcDbSpline
 62
7
  6
CONTINUOUS
 70
0
 71
3
 72
21
 73
17
 74
0
 42
0.0000001
 43
0.0000001
 44
0.0000000001
 40
0.0
 40
0.0
 40
0.0
 40
0.0
 40
0.1662857279
 40
0.3202869084
 40
0.3925667639
 40
0.4616671701
 40
0.5275991541
 40
0.5904088839
 40
0.6501762413
 40
0.7070236687
 40
0.7611176573
 40
0.8126777958
 40
0.8619793331
 40
0.9093626906
 40
0.9552240452
 40
1.0
 40
1.0
 40
1.0
 40
1.0
 10
14.5944544546
 20
12.2776186618
 30
0.0
 10
14.5946333611
 20
12.2771563628
 30
0.0
 10
14.5950045455
 20
12.276275849
 30
0.0
 10
14.5955349987
 20
12.2752312702
 30
0.0
 10
14.5959832952
 20
12.2744730719
 30
0.0
 10
14.5963220422
 20
12.2739558798
 30
0.0
 10
14.5966697525
 20
12.2734791619
 30
0.0
 10
14.5970257008
 20
12.2730438991
 30
0.0
 10
14.5973892011
 20
12.2726510213
 30
0.0
 10
14.5977595124
 20
12.2723013387
 30
0.0
 10
14.5981359417
 20
12.2719956395
 30
0.0
 10
14.5985177301
 20
12.271734581
 30
0.0
 10
14.5989041595
 20
12.2715188208
 30
0.0
 10
14.5992944739
 20
12.2713489009
 30
0.0
 10
14.5996877628
 20
12.2712253857
 30
0.0
 10
14.5999536983
 20
12.2711737558
 30
0.0
 10
14.6000860022
 20
12.2711560737
 30
0.0
  0
SPLINE
  5
38D
100
AcDbEntity
  8
LAYER_FEATURE
100
AcDbSpline
 62
7
  6
CONTINUOUS
 70
0
 71
3
 72
11
 73
7
 74
0
 42
0.0000001
 43
0.0000001
 44
0.0000000001
 40
0.0
 40
0.0
 40
0.0
 40
0.0
 40
0.2585290343
 40
0.511792644
 40
0.7591520302
 40
1.0
 40
1.0
 40
1.0
 40
1.0
 10
14.5944544546
 20
12.2776186618
 30
0.0
 10
14.5961537442
 20
12.2659645467
 30
0.0
 10
14.5997991568
 20
12.2429335734
 30
0.0
 10
14.6060775547
 20
12.2089210131
 30
0.0
 10
14.6130945822
 20
12.1758759307
 30
0.0
 10
14.618324023
 20
12.1542552921
 30
0.0
 10
14.6210638941
 20
12.1436310097
 30
0.0
  0
SPLINE
  5
38E
100
AcDbEntity
  8
LAYER_FEATURE
100
AcDbSpline
 62
7
  6
CONTINUOUS
 70
0
 71
3
 72
15
 73
11
 74
0
 42
0.0000001
 43
0.0000001
 44
0.0000000001
 40
0.0
 40
0.0
 40
0.0
 40
0.0
 40
0.1148050789
 40
0.2342214784
 40
0.3574518
 40
0.4836469889
 40
0.611919414
 40
0.741355149
 40
0.8710257823
 40
1.0
 40
1.0
 40
1.0
 40
1.0
 10
14.6223336507
 20
12.1591315349
 30
0.0
 10
14.6221872925
 20
12.1585523358
 30
0.0
 10
14.6219174912
 20
12.157363248
 30
0.0
 10
14.6215854524
 20
12.1555325512
 30
0.0
 10
14.6213200522
 20
12.1536311521
 30
0.0
 10
14.6211235667
 20
12.1516751266
 30
0.0
 10
14.6209976697
 20
12.149680957
 30
0.0
 10
14.6209434376
 20
12.1476654669
 30
0.0
 10
14.6209613314
 20
12.1456457052
 30
0.0
 10
14.6210215529
 20
12.1443008085
 30
0.0
 10
14.6210638941
 20
12.1436310097
 30
0.0
  0
LINE
  5
38F
100
AcDbEntity
  8
LAYER_FEATURE
100
AcDbLine
 62
7
  6
CONTINUOUS
 10
14.5932266747
 20
12.3300995529
 11
14.5924453803
 21
12.3286631053
  0
SPLINE
  5
390
100
AcDbEntity
  8
LAYER_FEATURE
100
AcDbSpline
 62
7
  6
CONTINUOUS
 70
0
 71
3
 72
9
 73
5
 74
0
 42
0.0000001
 43
0.0000001
 44
0.0000000001
 40
0.0
 40
0.0
 40
0.0
 40
0.0
 40
0.4825533264
 40
1.0
 40
1.0
 40
1.0
 40
1.0
 10
14.5992282138
 20
12.3386207425
 30
0.0
 10
14.5998751315
 20
12.3394793378
 30
0.0
 10
14.6011396295
 20
12.341316639
 30
0.0
 10
14.6022688114
 20
12.3432391166
 30
0.0
 10
14.6028222624
 20
12.3442503329
 30
0.0
  0
SPLINE
  5
391
100
AcDbEntity
  8
LAYER_FEATURE
100
AcDbSpline
 62
7
  6
CONTINUOUS
 70
0
 71
3
 72
15
 73
11
 74
0
 42
0.0000001
 43
0.0000001
 44
0.0000000001
 40
0.0
 40
0.0
 40
0.0
 40
0.0
 40
0.1051852937
 40
0.2166568214
 40
0.3341819223
 40
0.4574559477
 40
0.5861134058
 40
0.7197370587
 40
0.8578655526
 40
1.0
 40
1.0
 40
1.0
 40
1.0
 10
14.6028222624
 20
12.3442503329
 30
0.0
 10
14.6032890741
 20
12.3451032497
 30
0.0
 10
14.6041954375
 20
12.3468906297
 30
0.0
 10
14.6054420879
 20
12.3497183557
 30
0.0
 10
14.6066103818
 20
12.352759119
 30
0.0
 10
14.6076947751
 20
12.3559985907
 30
0.0
 10
14.6086901843
 20
12.3594216486
 30
0.0
 10
14.6095919018
 20
12.3630122292
 30
0.0
 10
14.6103956523
 20
12.3667534084
 30
0.0
 10
14.6108576306
 20
12.3693030783
 30
0.0
 10
14.6110722346
 20
12.3705992886
 30
0.0
  0
SPLINE
  5
392
100
AcDbEntity
  8
LAYER_FEATURE
100
AcDbSpline
 62
7
  6
CONTINUOUS
 70
0
 71
3
 72
23
 73
19
 74
0
 42
0.0000001
 43
0.0000001
 44
0.0000000001
 40
0.0
 40
0.0
 40
0.0
 40
0.0
 40
0.0629553264
 40
0.12724991
 40
0.1925906511
 40
0.258678444
 40
0.3252064685
 40
0.3918650479
 40
0.4583432022
 40
0.5243314863
 40
0.5895243859
 40
0.6536228942
 40
0.716337152
 40
0.7773890943
 40
0.8365156338
 40
0.8934710491
 40
0.9480323856
 40
1.0
 40
1.0
 40
1.0
 40
1.0
 10
14.6110722346
 20
12.3705992886
 30
0.0
 10
14.6112819614
 20
12.3718660401
 30
0.0
 10
14.6116629574
 20
12.3744337732
 30
0.0
 10
14.6121165203
 20
12.3783360478
 30
0.0
 10
14.612456516
 20
12.3823139937
 30
0.0
 10
14.6126810667
 20
12.3863457138
 30
0.0
 10
14.6127889261
 20
12.390409121
 30
0.0
 10
14.6127795017
 20
12.3944819058
 30
0.0
 10
14.6126528435
 20
12.3985417229
 30
0.0
 10
14.6124096528
 20
12.402566294
 30
0.0
 10
14.6120512736
 20
12.4065335394
 30
0.0
 10
14.6115796875
 20
12.4104217009
 30
0.0
 10
14.6109974997
 20
12.4142094617
 30
0.0
 10
14.6103079273
 20
12.4178760768
 30
0.0
 10
14.6095147753
 20
12.4214014621
 30
0.0
 10
14.6086224108
 20
12.4247663966
 30
0.0
 10
14.6076357719
 20
12.427952394
 30
0.0
 10
14.6069000007
 20
12.4299977532
 30
0.0
 10
14.6065158013
 20
12.4309855656
 30
0.0
  0
SPLINE
  5
393
100
AcDbEntity
  8
LAYER_FEATURE
100
AcDbSpline
 62
7
  6
CONTINUOUS
 70
0
 71
3
 72
11
 73
7
 74
0
 42
0.0000001
 43
0.0000001
 44
0.0000000001
 40
0.0
 40
0.0
 40
0.0
 40
0.0
 40
0.2715003412
 40
0.5289132385
 40
0.7718203696
 40
1.0
 40
1.0
 40
1.0
 40
1.0
 10
14.6065158013
 20
12.4309855656
 30
0.0
 10
14.6061499956
 20
12.4319260862
 30
0.0
 10
14.6053975551
 20
12.4337432342
 30
0.0
 10
14.6041706223
 20
12.4363378561
 30
0.0
 10
14.6028798674
 20
12.4387198348
 30
0.0
 10
14.6019511735
 20
12.440206085
 30
0.0
 10
14.6014758642
 20
12.4409085174
 30
0.0
  0
SPLINE
  5
394
100
AcDbEntity
  8
LAYER_FEATURE
100
AcDbSpline
 62
7
  6
CONTINUOUS
 70
0
 71
3
 72
17
 73
13
 74
0
 42
0.0000001
 43
0.0000001
 44
0.0000000001
 40
0.0
 40
0.0
 40
0.0
 40
0.0
 40
0.1529476174
 40
0.2966432897
 40
0.4314197504
 40
0.5578300007
 40
0.6766654379
 40
0.7889947349
 40
0.8431646492
 40
0.8962460507
 40
0.9484511099
 40
1.0
 40
1.0
 40
1.0
 40
1.0
 10
14.6014758642
 20
12.4409085174
 30
0.0
 10
14.6009854648
 20
12.4416332503
 30
0.0
 10
14.5999908298
 20
12.4430102726
 30
0.0
 10
14.5984049405
 20
12.4449046629
 30
0.0
 10
14.5967769136
 20
12.4465565929
 30
0.0
 10
14.5951117511
 20
12.4479601222
 30
0.0
 10
14.5934146584
 20
12.44910983
 30
0.0
 10
14.5919601196
 20
12.4498613952
 30
0.0
 10
14.5907912983
 20
12.450324225
 30
0.0
 10
14.5899212791
 20
12.4506013104
 30
0.0
 10
14.5890483305
 20
12.4508121186
 30
0.0
 10
14.5884619984
 20
12.4509088398
 30
0.0
 10
14.5881694023
 20
12.450945844
 30
0.0
  0
SPLINE
  5
395
100
AcDbEntity
  8
LAYER_FEATURE
100
AcDbSpline
 62
7
  6
CONTINUOUS
 70
0
 71
3
 72
11
 73
7
 74
0
 42
0.0000001
 43
0.0000001
 44
0.0000000001
 40
0.0
 40
0.0
 40
0.0
 40
0.0
 40
0.2733073878
 40
0.5289141259
 40
0.769846949
 40
1.0
 40
1.0
 40
1.0
 40
1.0
 10
14.5833893345
 20
12.4522453734
 30
0.0
 10
14.5834971697
 20
12.4521481669
 30
0.0
 10
14.5837154806
 20
12.4519702569
 30
0.0
 10
14.5840618013
 20
12.451750748
 30
0.0
 10
14.5844138948
 20
12.4515894717
 30
0.0
 10
14.5846556878
 20
12.4515203901
 30
0.0
 10
14.5847756129
 20
12.4514966239
 30
0.0
  0
SPLINE
  5
396
100
AcDbEntity
  8
LAYER_FEATURE
100
AcDbSpline
 62
7
  6
CONTINUOUS
 70
0
 71
3
 72
17
 73
13
 74
0
 42
0.0000001
 43
0.0000001
 44
0.0000000001
 40
0.0
 40
0.0
 40
0.0
 40
0.0
 40
0.1554519119
 40
0.3034902504
 40
0.4432489874
 40
0.5740057136
 40
0.6952168138
 40
0.7521463201
 40
0.8065926248
 40
0.8585610009
 40
0.9080857172
 40
1.0
 40
1.0
 40
1.0
 40
1.0
 10
14.5786949265
 20
12.462520438
 30
0.0
 10
14.5788175245
 20
12.4619395756
 30
0.0
 10
14.5790814687
 20
12.4608105273
 30
0.0
 10
14.5795461108
 20
12.45918209
 30
0.0
 10
14.5800667688
 20
12.4576699025
 30
0.0
 10
14.5806390567
 20
12.4562866526
 30
0.0
 10
14.5811655678
 20
12.4552295831
 30
0.0
 10
14.581610963
 20
12.4544607955
 30
0.0
 10
14.5819477849
 20
12.4539354856
 30
0.0
 10
14.5822937468
 20
12.4534503725
 30
0.0
 10
14.5827546909
 20
12.4528730517
 30
0.0
 10
14.5831286142
 20
12.452480396
 30
0.0
 10
14.5833893345
 20
12.4522453734
 30
0.0
  0
LINE
  5
397
100
AcDbEntity
  8
LAYER_FEATURE
100
AcDbLine
 62
7
  6
CONTINUOUS
 10
14.5936683455
 20
12.6971983869
 11
14.5929162054
 21
12.6970645165
  0
SPLINE
  5
398
100
AcDbEntity
  8
LAYER_FEATURE
100
AcDbSpline
 62
7
  6
CONTINUOUS
 70
0
 71
3
 72
11
 73
7
 74
0
 42
0.0000001
 43
0.0000001
 44
0.0000000001
 40
0.0
 40
0.0
 40
0.0
 40
0.0
 40
0.2530371785
 40
0.5045001505
 40
0.7537103707
 40
1.0
 40
1.0
 40
1.0
 40
1.0
 10
14.5786949265
 20
12.462520438
 30
0.0
 10
14.5790492914
 20
12.4500207285
 30
0.0
 10
14.580031257
 20
12.4251059847
 30
0.0
 10
14.5823299606
 20
12.3879266573
 30
0.0
 10
14.5854437529
 20
12.3511412875
 30
0.0
 10
14.5880742227
 20
12.3267934194
 30
0.0
 10
14.5895264668
 20
12.3147090914
 30
0.0
  0
SPLINE
  5
399
100
AcDbEntity
  8
LAYER_FEATURE
100
AcDbSpline
 62
7
  6
CONTINUOUS
 70
0
 71
3
 72
15
 73
11
 74
0
 42
0.0000001
 43
0.0000001
 44
0.0000000001
 40
0.0
 40
0.0
 40
0.0
 40
0.0
 40
0.1048205755
 40
0.2168158917
 40
0.3354033374
 40
0.4598864986
 40
0.5894771072
 40
0.7233132589
 40
0.8604752609
 40
1.0
 40
1.0
 40
1.0
 40
1.0
 10
14.5924453803
 20
12.3286631053
 30
0.0
 10
14.5922385737
 20
12.3282070083
 30
0.0
 10
14.5918447578
 20
12.3272479758
 30
0.0
 10
14.5913263229
 20
12.3257308986
 30
0.0
 10
14.5908640299
 20
12.3240979648
 30
0.0
 10
14.5904618291
 20
12.3223629183
 30
0.0
 10
14.5901231255
 20
12.3205402805
 30
0.0
 10
14.5898508069
 20
12.3186453774
 30
0.0
 10
14.5896471967
 20
12.3166942015
 30
0.0
 10
14.5895589597
 20
12.3153748952
 30
0.0
 10
14.5895264668
 20
12.3147090914
 30
0.0
  0
LINE
  5
39A
100
AcDbEntity
  8
LAYER_FEATURE
100
AcDbLine
 62
7
  6
CONTINUOUS
 10
14.5832746546
 20
12.5137637464
 11
14.5823674128
 21
12.5129507283
  0
SPLINE
  5
39B
100
AcDbEntity
  8
LAYER_FEATURE
100
AcDbSpline
 62
7
  6
CONTINUOUS
 70
0
 71
3
 72
9
 73
5
 74
0
 42
0.0000001
 43
0.0000001
 44
0.0000000001
 40
0.0
 40
0.0
 40
0.0
 40
0.0
 40
0.4934169748
 40
1.0
 40
1.0
 40
1.0
 40
1.0
 10
14.5899679645
 20
12.5175978334
 30
0.0
 10
14.5888317025
 20
12.5170323487
 30
0.0
 10
14.586563181
 20
12.5158162245
 30
0.0
 10
14.5843677386
 20
12.5144730737
 30
0.0
 10
14.5832746546
 20
12.5137637464
 30
0.0
  0
SPLINE
  5
39C
100
AcDbEntity
  8
LAYER_FEATURE
100
AcDbSpline
 62
7
  6
CONTINUOUS
 70
0
 71
3
 72
10
 73
6
 74
0
 42
0.0000001
 43
0.0000001
 44
0.0000000001
 40
0.0
 40
0.0
 40
0.0
 40
0.0
 40
0.4819661933
 40
0.7361430579
 40
1.0
 40
1.0
 40
1.0
 40
1.0
 10
14.5899679645
 20
12.5175978334
 30
0.0
 10
14.5906798648
 20
12.5179521255
 30
0.0
 10
14.5917263846
 20
12.5185789293
 30
0.0
 10
14.5930532065
 20
12.5195604102
 30
0.0
 10
14.5937084892
 20
12.5201102041
 30
0.0
 10
14.5940340615
 20
12.5203991989
 30
0.0
  0
SPLINE
  5
39D
100
AcDbEntity
  8
LAYER_FEATURE
100
AcDbSpline
 62
7
  6
CONTINUOUS
 70
0
 71
3
 72
17
 73
13
 74
0
 42
0.0000001
 43
0.0000001
 44
0.0000000001
 40
0.0
 40
0.0
 40
0.0
 40
0.0
 40
0.050058964
 40
0.1004964164
 40
0.1516789115
 40
0.2039532408
 40
0.3129403192
 40
0.4297294746
 40
0.5559391142
 40
0.6926659902
 40
0.8405907946
 40
1.0
 40
1.0
 40
1.0
 40
1.0
 10
14.6219806351
 20
12.8663265741
 30
0.0
 10
14.6218753594
 20
12.8663265742
 30
0.0
 10
14.6216638765
 20
12.8663165384
 30
0.0
 10
14.6213476525
 20
12.866271447
 30
0.0
 10
14.6210323547
 20
12.8661964117
 30
0.0
 10
14.6206081153
 20
12.8660547151
 30
0.0
 10
14.6200793649
 20
12.8657985824
 30
0.0
 10
14.6194667712
 20
12.8653790194
 30
0.0
 10
14.6188695333
 20
12.864846076
 30
0.0
 10
14.618290318
 20
12.8642029521
 30
0.0
 10
14.6177317479
 20
12.863453157
 30
0.0
 10
14.6173877004
 20
12.8629051924
 30
0.0
 10
14.617218971
 20
12.8626155059
 30
0.0
  0
SPLINE
  5
39E
100
AcDbEntity
  8
LAYER_FEATURE
100
AcDbSpline
 62
7
  6
CONTINUOUS
 70
0
 71
3
 72
15
 73
11
 74
0
 42
0.0000001
 43
0.0000001
 44
0.0000000001
 40
0.0
 40
0.0
 40
0.0
 40
0.0
 40
0.1093093936
 40
0.2207113014
 40
0.3356024059
 40
0.4552545051
 40
0.580737204
 40
0.7129259379
 40
0.8525201531
 40
1.0
 40
1.0
 40
1.0
 40
1.0
 10
15.7209188591
 20
13.1118599629
 30
0.0
 10
15.7207737127
 20
13.1118532053
 30
0.0
 10
15.7204812025
 20
13.1118203212
 30
0.0
 10
15.7200467384
 20
13.11171434
 30
0.0
 10
15.7196153893
 20
13.1115519006
 30
0.0
 10
15.7191884268
 20
13.1113336872
 30
0.0
 10
15.7187668469
 20
13.1110604814
 30
0.0
 10
15.7183516339
 20
13.1107330855
 30
0.0
 10
15.7179437807
 20
13.1103524552
 30
0.0
 10
15.7176846847
 20
13.1100717915
 30
0.0
 10
15.7175564504
 20
13.1099235051
 30
0.0
  0
SPLINE
  5
39F
100
AcDbEntity
  8
LAYER_FEATURE
100
AcDbSpline
 62
7
  6
CONTINUOUS
 70
0
 71
3
 72
15
 73
11
 74
0
 42
0.0000001
 43
0.0000001
 44
0.0000000001
 40
0.0
 40
0.0
 40
0.0
 40
0.0
 40
0.0977281133
 40
0.2030205949
 40
0.3162062045
 40
0.4374151688
 40
0.5666159804
 40
0.7036446742
 40
0.8482277258
 40
1.0
 40
1.0
 40
1.0
 40
1.0
 10
14.5940340615
 20
12.5203991989
 30
0.0
 10
14.594579036
 20
12.5208829462
 30
0.0
 10
14.5956542167
 20
12.5219531296
 30
0.0
 10
14.5971621195
 20
12.5237692851
 30
0.0
 10
14.5986170879
 20
12.5258456076
 30
0.0
 10
14.6000125344
 20
12.5281723159
 30
0.0
 10
14.6013423332
 20
12.5307388162
 30
0.0
 10
14.6026003954
 20
12.533533264
 30
0.0
 10
14.6037808847
 20
12.5365426385
 30
0.0
 10
14.6044958985
 20
12.5386343361
 30
0.0
 10
14.6048406439
 20
12.5397122279
 30
0.0
  0
SPLINE
  5
3A0
100
AcDbEntity
  8
LAYER_FEATURE
100
AcDbSpline
 62
7
  6
CONTINUOUS
 70
0
 71
3
 72
23
 73
19
 74
0
 42
0.0000001
 43
0.0000001
 44
0.0000000001
 40
0.0
 40
0.0
 40
0.0
 40
0.0
 40
0.0547040606
 40
0.1117104371
 40
0.1707894498
 40
0.2316936512
 40
0.2941574752
 40
0.3579022607
 40
0.4226382512
 40
0.488067553
 40
0.5538866064
 40
0.6197887113
 40
0.6854665258
 40
0.7506144266
 40
0.8149313197
 40
0.8781222657
 40
0.9399032891
 40
1.0
 40
1.0
 40
1.0
 40
1.0
 10
14.6048406439
 20
12.5397122279
 30
0.0
 10
14.6051843879
 20
12.5407869884
 30
0.0
 10
14.6058373157
 20
12.5429976642
 30
0.0
 10
14.6066993896
 20
12.5464143069
 30
0.0
 10
14.6074608556
 20
12.5499856308
 30
0.0
 10
14.6081174977
 20
12.5536919968
 30
0.0
 10
14.6086656917
 20
12.5575131545
 30
0.0
 10
14.6091024112
 20
12.5614281506
 30
0.0
 10
14.6094252407
 20
12.5654155243
 30
0.0
 10
14.6096323967
 20
12.5694534026
 30
0.0
 10
14.6097227332
 20
12.5735196316
 30
0.0
 10
14.6096957514
 20
12.5775918986
 30
0.0
 10
14.6095515994
 20
12.5816478556
 30
0.0
 10
14.6092910762
 20
12.5856652515
 30
0.0
 10
14.6089156187
 20
12.5896220338
 30
0.0
 10
14.6084273056
 20
12.5934965371
 30
0.0
 10
14.607828838
 20
12.597267437
 30
0.0
 10
14.6073513344
 20
12.5997362844
 30
0.0
 10
14.6070938668
 20
12.60094888
 30
0.0
  0
SPLINE
  5
3A1
100
AcDbEntity
  8
LAYER_FEATURE
100
AcDbSpline
 62
7
  6
CONTINUOUS
 70
0
 71
3
 72
11
 73
7
 74
0
 42
0.0000001
 43
0.0000001
 44
0.0000000001
 40
0.0
 40
0.0
 40
0.0
 40
0.0
 40
0.2637890331
 40
0.5189013823
 40
0.7645432442
 40
1.0
 40
1.0
 40
1.0
 40
1.0
 10
14.6070938668
 20
12.60094888
 30
0.0
 10
14.6068436397
 20
12.6021273747
 30
0.0
 10
14.6063150482
 20
12.6044380876
 30
0.0
 10
14.6054214588
 20
12.6078143277
 30
0.0
 10
14.6044434285
 20
12.611032124
 30
0.0
 10
14.6037219874
 20
12.6131083502
 30
0.0
 10
14.6033467477
 20
12.6141161267
 30
0.0
  0
SPLINE
  5
3A2
100
AcDbEntity
  8
LAYER_FEATURE
100
AcDbSpline
 62
7
  6
CONTINUOUS
 70
0
 71
3
 72
15
 73
11
 74
0
 42
0.0000001
 43
0.0000001
 44
0.0000000001
 40
0.0
 40
0.0
 40
0.0
 40
0.0
 40
0.1492688459
 40
0.2918416508
 40
0.4274942066
 40
0.5560825198
 40
0.6775380999
 40
0.7918898636
 40
0.8992847576
 40
1.0
 40
1.0
 40
1.0
 40
1.0
 10
14.6033467477
 20
12.6141161267
 30
0.0
 10
14.6029522978
 20
12.6151754959
 30
0.0
 10
14.6021418583
 20
12.6172324299
 30
0.0
 10
14.6008288786
 20
12.6201927745
 30
0.0
 10
14.5994501223
 20
12.6229492332
 30
0.0
 10
14.598010348
 20
12.6254922783
 30
0.0
 10
14.596514392
 20
12.6278132097
 30
0.0
 10
14.5949671604
 20
12.6299041861
 30
0.0
 10
14.5933738713
 20
12.6317578267
 30
0.0
 10
14.5922492943
 20
12.632865542
 30
0.0
 10
14.5916805045
 20
12.6333736994
 30
0.0
  0
SPLINE
  5
3A3
100
AcDbEntity
  8
LAYER_FEATURE
100
AcDbSpline
 62
7
  6
CONTINUOUS
 70
0
 71
3
 72
13
 73
9
 74
0
 42
0.0000001
 43
0.0000001
 44
0.0000000001
 40
0.0
 40
0.0
 40
0.0
 40
0.0
 40
0.2121610953
 40
0.3273884679
 40
0.4489731753
 40
0.5770275168
 40
0.7115890276
 40
1.0
 40
1.0
 40
1.0
 40
1.0
 10
15.6594642651
 20
13.0073513508
 30
0.0
 10
15.6591730048
 20
13.0071169287
 30
0.0
 10
15.658755892
 20
13.0067139559
 30
0.0
 10
15.6582449519
 20
13.0061095942
 30
0.0
 10
15.657860908
 20
13.0055933387
 30
0.0
 10
15.6574876368
 20
13.0050281043
 30
0.0
 10
15.6569940585
 20
13.0041914948
 30
0.0
 10
15.6566607092
 20
13.0035234785
 30
0.0
 10
15.65645051
 20
13.0030607308
 30
0.0
  0
LINE
  5
3A4
100
AcDbEntity
  8
LAYER_FEATURE
100
AcDbLine
 62
7
  6
CONTINUOUS
 10
14.5872366367
 20
12.6380788252
 11
14.5884846145
 21
12.6363574742
  0
SPLINE
  5
3A5
100
AcDbEntity
  8
LAYER_FEATURE
100
AcDbSpline
 62
7
  6
CONTINUOUS
 70
0
 71
3
 72
15
 73
11
 74
0
 42
0.0000001
 43
0.0000001
 44
0.0000000001
 40
0.0
 40
0.0
 40
0.0
 40
0.0
 40
0.1429907374
 40
0.2825791763
 40
0.4178045554
 40
0.5477653203
 40
0.6716355129
 40
0.7886835493
 40
0.8982947819
 40
1.0
 40
1.0
 40
1.0
 40
1.0
 10
14.5838596813
 20
12.6513339417
 30
0.0
 10
14.5839142395
 20
12.6506800773
 30
0.0
 10
14.5840458529
 20
12.6493897464
 30
0.0
 10
14.584314006
 20
12.6474909416
 30
0.0
 10
14.5846487045
 20
12.6456634058
 30
0.0
 10
14.5850470967
 20
12.6439225392
 30
0.0
 10
14.5855057923
 20
12.6422829463
 30
0.0
 10
14.5860209306
 20
12.6407582872
 30
0.0
 10
14.5865881275
 20
12.6393613538
 30
0.0
 10
14.5870143164
 20
12.6384891597
 30
0.0
 10
14.5872366367
 20
12.6380788252
 30
0.0
  0
SPLINE
  5
3A6
100
AcDbEntity
  8
LAYER_FEATURE
100
AcDbSpline
 62
7
  6
CONTINUOUS
 70
0
 71
3
 72
11
 73
7
 74
0
 42
0.0000001
 43
0.0000001
 44
0.0000000001
 40
0.0
 40
0.0
 40
0.0
 40
0.0
 40
0.2478621716
 40
0.4976009888
 40
0.748540719
 40
1.0
 40
1.0
 40
1.0
 40
1.0
 10
14.5838596813
 20
12.6513339417
 30
0.0
 10
14.582821183
 20
12.6389993448
 30
0.0
 10
14.5810213491
 20
12.6142118847
 30
0.0
 10
14.579153584
 20
12.5768734547
 30
0.0
 10
14.5781111384
 20
12.5393231946
 30
0.0
 10
14.5779686606
 20
12.5142313942
 30
0.0
 10
14.5780358156
 20
12.5016736968
 30
0.0
  0
SPLINE
  5
3A7
100
AcDbEntity
  8
LAYER_FEATURE
100
AcDbSpline
 62
7
  6
CONTINUOUS
 70
0
 71
3
 72
15
 73
11
 74
0
 42
0.0000001
 43
0.0000001
 44
0.0000000001
 40
0.0
 40
0.0
 40
0.0
 40
0.0
 40
0.0946362755
 40
0.1985455842
 40
0.311720643
 40
0.4338777918
 40
0.5645185426
 40
0.7029743021
 40
0.8484399139
 40
1.0
 40
1.0
 40
1.0
 40
1.0
 10
14.5823674128
 20
12.5129507283
 30
0.0
 10
14.5821158197
 20
12.5126591032
 30
0.0
 10
14.5816264272
 20
12.5120136405
 30
0.0
 10
14.5809629019
 20
12.5109305205
 30
0.0
 10
14.5803409123
 20
12.5096963547
 30
0.0
 10
14.5797655982
 20
12.5083213621
 30
0.0
 10
14.579241636
 20
12.5068167701
 30
0.0
 10
14.5787734262
 20
12.5051950652
 30
0.0
 10
14.5783649249
 20
12.5034698167
 30
0.0
 10
14.5781388256
 20
12.5022818607
 30
0.0
 10
14.5780358156
 20
12.5016736968
 30
0.0
  0
SPLINE
  5
3A8
100
AcDbEntity
  8
LAYER_FEATURE
100
AcDbSpline
 62
7
  6
CONTINUOUS
 70
0
 71
3
 72
13
 73
9
 74
0
 42
0.0000001
 43
0.0000001
 44
0.0000000001
 40
0.0
 40
0.0
 40
0.0
 40
0.0
 40
0.1068896992
 40
0.2191487054
 40
0.3367165986
 40
0.4595192593
 40
0.7202489381
 40
1.0
 40
1.0
 40
1.0
 40
1.0
 10
15.7099083051
 20
13.0999075061
 30
0.0
 10
15.7097796527
 20
13.0997183097
 30
0.0
 10
15.7095266798
 20
13.0993229895
 30
0.0
 10
15.7091684122
 20
13.0986973296
 30
0.0
 10
15.7088229187
 20
13.0980259825
 30
0.0
 10
15.7083714783
 20
13.0970527459
 30
0.0
 10
15.7078483365
 20
13.0957315591
 30
0.0
 10
15.7074920977
 20
13.0946300868
 30
0.0
 10
15.7073235072
 20
13.0940555116
 30
0.0
  0
SPLINE
  5
3A9
100
AcDbEntity
  8
LAYER_FEATURE
100
AcDbSpline
 62
7
  6
CONTINUOUS
 70
0
 71
3
 72
14
 73
10
 74
0
 42
0.0000001
 43
0.0000001
 44
0.0000000001
 40
0.0
 40
0.0
 40
0.0
 40
0.0
 40
0.2133613879
 40
0.328439466
 40
0.4496267031
 40
0.5772174407
 40
0.7114094896
 40
0.8523290404
 40
1.0
 40
1.0
 40
1.0
 40
1.0
 10
14.609003773
 20
12.6971625814
 30
0.0
 10
14.6097893212
 20
12.6976076567
 30
0.0
 10
14.6109309899
 20
12.698416705
 30
0.0
 10
14.612345339
 20
12.6996904749
 30
0.0
 10
14.6134135104
 20
12.7008013996
 30
0.0
 10
14.6144592417
 20
12.7020407009
 30
0.0
 10
14.6154806776
 20
12.7034058768
 30
0.0
 10
14.6164754636
 20
12.7048937504
 30
0.0
 10
14.6171048343
 20
12.7059408864
 30
0.0
 10
14.6174151657
 20
12.7064832749
 30
0.0
  0
SPLINE
  5
3AA
100
AcDbEntity
  8
02___PRT_ALL_AXES
100
AcDbSpline
 62
7
  6
CONTINUOUS
 70
0
 71
3
 72
28
 73
24
 74
0
 42
0.0000001
 43
0.0000001
 44
0.0000000001
 40
0.0
 40
0.0
 40
0.0
 40
0.0
 40
0.0835099152
 40
0.1639062348
 40
0.2411638705
 40
0.3152793562
 40
0.386271481
 40
0.4541854331
 40
0.5190958474
 40
0.5811108569
 40
0.6403762273
 40
0.6970796105
 40
0.751454399
 40
0.7778611762
 40
0.8037957655
 40
0.8293011223
 40
0.8544231919
 40
0.8792107113
 40
0.9037150479
 40
0.927989834
 40
0.9520906791
 40
0.9760746805
 40
1.0
 40
1.0
 40
1.0
 40
1.0
 10
15.7919004252
 20
12.0838918272
 30
0.0
 10
15.7941814297
 20
12.0792436289
 30
0.0
 10
15.7988111117
 20
12.0701943064
 30
0.0
 10
15.8061055845
 20
12.0571378971
 30
0.0
 10
15.8136070744
 20
12.0448765084
 30
0.0
 10
15.8213025682
 20
12.0334316526
 30
0.0
 10
15.8291789908
 20
12.0228231364
 30
0.0
 10
15.8372230026
 20
12.0130694117
 30
0.0
 10
15.8454211609
 20
12.0041874755
 30
0.0
 10
15.8537598449
 20
11.9961929673
 30
0.0
 10
15.8622255481
 20
11.9891000971
 30
0.0
 10
15.8708039242
 20
11.9829221759
 30
0.0
 10
15.8781061618
 20
11.9785032823
 30
0.0
 10
15.8839810655
 20
11.9754555399
 30
0.0
 10
15.8883626441
 20
11.9734271053
 30
0.0
 10
15.8927601972
 20
11.9716349992
 30
0.0
 10
15.8971718517
 20
11.9700800154
 30
0.0
 10
15.9015956394
 20
11.9687629551
 30
0.0
 10
15.9060295758
 20
11.9676844255
 30
0.0
 10
15.9104716595
 20
11.9668450207
 30
0.0
 10
15.914919906
 20
11.9662451096
 30
0.0
 10
15.9193721198
 20
11.9658850639
 30
0.0
 10
15.9223431731
 20
11.9658049944
 30
0.0
 10
15.9238265715
 20
11.9658049931
 30
0.0
  0
SPLINE
  5
3AB
100
AcDbEntity
  8
LAYER_FEATURE
100
AcDbSpline
 62
7
  6
CONTINUOUS
 70
0
 71
3
 72
55
 73
51
 74
0
 42
0.0000001
 43
0.0000001
 44
0.0000000001
 40
0.0
 40
0.0
 40
0.0
 40
0.0
 40
0.0147757967
 40
0.0297979287
 40
0.0450574032
 40
0.060545917
 40
0.0762544001
 40
0.0921734961
 40
0.1082936198
 40
0.124604879
 40
0.1577593236
 40
0.1915536954
 40
0.2259008875
 40
0.2607110664
 40
0.2958921622
 40
0.3313503355
 40
0.3669904478
 40
0.4027165114
 40
0.4384321395
 40
0.4740409933
 40
0.5094472313
 40
0.5445559567
 40
0.5792736737
 40
0.6135087568
 40
0.6471719177
 40
0.6801767121
 40
0.6964064695
 40
0.712440783
 40
0.7282698781
 40
0.7438842683
 40
0.7592747668
 40
0.7744325015
 40
0.7893489489
 40
0.8040159544
 40
0.8184257467
 40
0.8325709741
 40
0.8464447371
 40
0.860040605
 40
0.8733526546
 40
0.8863755185
 40
0.8991044088
 40
0.9115351606
 40
0.923664297
 40
0.935489068
 40
0.9470075043
 40
0.9582184987
 40
0.969121871
 40
0.9797184373
 40
0.9900101107
 40
1.0
 40
1.0
 40
1.0
 40
1.0
 10
15.6904695435
 20
12.9863366186
 30
0.0
 10
15.6887136919
 20
12.9806546806
 30
0.0
 10
15.6852670349
 20
12.9691667158
 30
0.0
 10
15.6803302584
 20
12.9517159092
 30
0.0
 10
15.6755869688
 20
12.9339144683
 30
0.0
 10
15.6710409743
 20
12.9157767451
 30
0.0
 10
15.6666958609
 20
12.8973170235
 30
0.0
 10
15.6625550967
 20
12.8785500132
 30
0.0
 10
15.6586219627
 20
12.8594905981
 30
0.0
 10
15.6536319336
 20
12.833568493
 30
0.0
 10
15.6479439199
 20
12.8005396686
 30
0.0
 10
15.642029558
 20
12.7601966965
 30
0.0
 10
15.6370088905
 20
12.7190613849
 30
0.0
 10
15.6328979406
 20
12.6772645531
 30
0.0
 10
15.6297098346
 20
12.6349388899
 30
0.0
 10
15.6274547292
 20
12.5922188576
 30
0.0
 10
15.6261398324
 20
12.5492401655
 30
0.0
 10
15.6257693385
 20
12.5061393598
 30
0.0
 10
15.6263444202
 20
12.4630533775
 30
0.0
 10
15.6278632585
 20
12.4201191082
 30
0.0
 10
15.6303209925
 20
12.3774729549
 30
0.0
 10
15.6337097842
 20
12.3352503901
 30
0.0
 10
15.6380188278
 20
12.2935855443
 30
0.0
 10
15.6432343618
 20
12.2526106804
 30
0.0
 10
15.6493397573
 20
12.2124561064
 30
0.0
 10
15.6551850058
 20
12.1796028146
 30
0.0
 10
15.6602986744
 20
12.1538348539
 30
0.0
 10
15.6643220745
 20
12.1349001438
 30
0.0
 10
15.668551702
 20
12.1162643294
 30
0.0
 10
15.6729842028
 20
12.0979421848
 30
0.0
 10
15.6776160419
 20
12.0799482771
 30
0.0
 10
15.6824435452
 20
12.0622969039
 30
0.0
 10
15.6874628695
 20
12.0450020881
 30
0.0
 10
15.6926700163
 20
12.0280775649
 30
0.0
 10
15.6980608526
 20
12.0115367788
 30
0.0
 10
15.7036310959
 20
11.9953928651
 30
0.0
 10
15.7093763101
 20
11.9796586365
 30
0.0
 10
15.7152919356
 20
11.9643465834
 30
0.0
 10
15.7213732831
 20
11.9494688593
 30
0.0
 10
15.727615516
 20
11.9350372614
 30
0.0
 10
15.7340136841
 20
11.9210632341
 30
0.0
 10
15.7405627281
 20
11.9075578607
 30
0.0
 10
15.7472574538
 20
11.8945318386
 30
0.0
 10
15.7540925635
 20
11.8819954831
 30
0.0
 10
15.7610626691
 20
11.8699587281
 30
0.0
 10
15.7681622723
 20
11.8584310943
 30
0.0
 10
15.7753857665
 20
11.8474217105
 30
0.0
 10
15.7827275253
 20
11.836939244
 30
0.0
 10
15.7901816583
 20
11.8269921621
 30
0.0
 10
15.7952978247
 20
11.8206287617
 30
0.0
 10
15.7978743447
 20
11.8175419658
 30
0.0
  0
SPLINE
  5
3AC
100
AcDbEntity
  8
LAYER_FEATURE
100
AcDbSpline
 62
7
  6
CONTINUOUS
 70
0
 71
3
 72
23
 73
19
 74
0
 42
0.0000001
 43
0.0000001
 44
0.0000000001
 40
0.0
 40
0.0
 40
0.0
 40
0.0
 40
0.0467264579
 40
0.0965329045
 40
0.1493039602
 40
0.2048843869
 40
0.2630829417
 40
0.3236796346
 40
0.3864296712
 40
0.4510676499
 40
0.5173109719
 40
0.5848630224
 40
0.6534161491
 40
0.7226543368
 40
0.7922562852
 40
0.8618970039
 40
0.9312529715
 40
1.0
 40
1.0
 40
1.0
 40
1.0
 10
14.6174151657
 20
12.7064832749
 30
0.0
 10
14.6178680275
 20
12.7072747742
 30
0.0
 10
14.6187459514
 20
12.7089433611
 30
0.0
 10
14.6199467507
 20
12.7115997307
 30
0.0
 10
14.6210679219
 20
12.7144768716
 30
0.0
 10
14.6221032981
 20
12.7175590372
 30
0.0
 10
14.6230472406
 20
12.7208295575
 30
0.0
 10
14.6238945624
 20
12.7242705941
 30
0.0
 10
14.6246405977
 20
12.727863365
 30
0.0
 10
14.6252812321
 20
12.731588218
 30
0.0
 10
14.6258129278
 20
12.7354247575
 30
0.0
 10
14.6262327476
 20
12.7393519589
 30
0.0
 10
14.6265383701
 20
12.7433482867
 30
0.0
 10
14.6267281082
 20
12.7473918232
 30
0.0
 10
14.6268009079
 20
12.751460371
 30
0.0
 10
14.6267563742
 20
12.7555316345
 30
0.0
 10
14.6265947454
 20
12.7595832032
 30
0.0
 10
14.6264084177
 20
12.7622723912
 30
0.0
 10
14.6262955021
 20
12.7636092728
 30
0.0
  0
SPLINE
  5
3AD
100
AcDbEntity
  8
LAYER_FEATURE
100
AcDbSpline
 62
7
  6
CONTINUOUS
 70
0
 71
3
 72
11
 73
7
 74
0
 42
0.0000001
 43
0.0000001
 44
0.0000000001
 40
0.0
 40
0.0
 40
0.0
 40
0.0
 40
0.256960833
 40
0.5098770629
 40
0.7578463647
 40
1.0
 40
1.0
 40
1.0
 40
1.0
 10
14.6262955021
 20
12.7636092728
 30
0.0
 10
14.6261837463
 20
12.7649324217
 30
0.0
 10
14.6259271996
 20
12.7675550996
 30
0.0
 10
14.6254392142
 20
12.7714412897
 30
0.0
 10
14.6248527772
 20
12.7752364589
 30
0.0
 10
14.6243918825
 20
12.7777273815
 30
0.0
 10
14.6241447703
 20
12.7789540824
 30
0.0
  0
SPLINE
  5
3AE
100
AcDbEntity
  8
LAYER_FEATURE
100
AcDbSpline
 62
7
  6
CONTINUOUS
 70
0
 71
3
 72
15
 73
11
 74
0
 42
0.0000001
 43
0.0000001
 44
0.0000000001
 40
0.0
 40
0.0
 40
0.0
 40
0.0
 40
0.1409600725
 40
0.2779879178
 40
0.410725933
 40
0.5388543892
 40
0.6620798604
 40
0.7801461105
 40
0.8928425517
 40
1.0
 40
1.0
 40
1.0
 40
1.0
 10
14.6241447703
 20
12.7789540824
 30
0.0
 10
14.6238802462
 20
12.7802672184
 30
0.0
 10
14.6233227434
 20
12.7828498189
 30
0.0
 10
14.6223867907
 20
12.7866395731
 30
0.0
 10
14.6213654432
 20
12.7902808175
 30
0.0
 10
14.6202623057
 20
12.7937608394
 30
0.0
 10
14.6190812002
 20
12.7970675767
 30
0.0
 10
14.6178262347
 20
12.8001896222
 30
0.0
 10
14.6165017932
 20
12.8031160518
 30
0.0
 10
14.6155511768
 20
12.8049776406
 30
0.0
 10
14.6150638753
 20
12.8058717671
 30
0.0
  0
LINE
  5
3AF
100
AcDbEntity
  8
LAYER_FEATURE
100
AcDbLine
 62
7
  6
CONTINUOUS
 10
14.6113162234
 20
12.8136013081
 11
14.6123247967
 21
12.8110468092
  0
SPLINE
  5
3B0
100
AcDbEntity
  8
LAYER_FEATURE
100
AcDbSpline
 62
7
  6
CONTINUOUS
 70
0
 71
3
 72
15
 73
11
 74
0
 42
0.0000001
 43
0.0000001
 44
0.0000000001
 40
0.0
 40
0.0
 40
0.0
 40
0.0
 40
0.1320467627
 40
0.2639126537
 40
0.3946516137
 40
0.5233316026
 40
0.6490466118
 40
0.7709291308
 40
0.8881634089
 40
1.0
 40
1.0
 40
1.0
 40
1.0
 10
14.6095303014
 20
12.8287626257
 30
0.0
 10
14.6095106937
 20
12.8280882342
 30
0.0
 10
14.609495779
 20
12.8267395462
 30
0.0
 10
14.6095455836
 20
12.824723327
 30
0.0
 10
14.6096670981
 20
12.8227273522
 30
0.0
 10
14.6098592859
 20
12.8207684992
 30
0.0
 10
14.6101205049
 20
12.8188632851
 30
0.0
 10
14.6104485316
 20
12.8170277448
 30
0.0
 10
14.6108405539
 20
12.8152773856
 30
0.0
 10
14.6111502837
 20
12.814148098
 30
0.0
 10
14.6113162234
 20
12.8136013081
 30
0.0
  0
SPLINE
  5
3B1
100
AcDbEntity
  8
LAYER_FEATURE
100
AcDbSpline
 62
7
  6
CONTINUOUS
 70
0
 71
3
 72
11
 73
7
 74
0
 42
0.0000001
 43
0.0000001
 44
0.0000000001
 40
0.0
 40
0.0
 40
0.0
 40
0.0
 40
0.2425484121
 40
0.4904904882
 40
0.7431933783
 40
1.0
 40
1.0
 40
1.0
 40
1.0
 10
14.6095303014
 20
12.8287626257
 30
0.0
 10
14.6071633419
 20
12.8175974945
 30
0.0
 10
14.6026889709
 20
12.7949516951
 30
0.0
 10
14.5968065204
 20
12.7604748786
 30
0.0
 10
14.5916925407
 20
12.7251977836
 30
0.0
 10
14.5888270195
 20
12.7013916789
 30
0.0
 10
14.5875228445
 20
12.6893780655
 30
0.0
  0
SPLINE
  5
3B2
100
AcDbEntity
  8
LAYER_FEATURE
100
AcDbSpline
 62
7
  6
CONTINUOUS
 70
0
 71
3
 72
17
 73
13
 74
0
 42
0.0000001
 43
0.0000001
 44
0.0000000001
 40
0.0
 40
0.0
 40
0.0
 40
0.0
 40
0.0436100001
 40
0.0889633206
 40
0.1363653623
 40
0.1860786052
 40
0.2931754877
 40
0.4114537718
 40
0.5414145872
 40
0.6830898452
 40
0.8361531213
 40
1.0
 40
1.0
 40
1.0
 40
1.0
 10
14.5929162054
 20
12.6970645165
 30
0.0
 10
14.5927838125
 20
12.6970171605
 30
0.0
 10
14.592518827
 20
12.696905771
 30
0.0
 10
14.5921319058
 20
12.6966956481
 30
0.0
 10
14.5917494671
 20
12.6964401154
 30
0.0
 10
14.5912338848
 20
12.6960295842
 30
0.0
 10
14.590606232
 20
12.6953984818
 30
0.0
 10
14.5899025522
 20
12.6944916137
 30
0.0
 10
14.5892349087
 20
12.6934242523
 30
0.0
 10
14.5886084746
 20
12.6922051006
 30
0.0
 10
14.5880281727
 20
12.6908440206
 30
0.0
 10
14.5876862466
 20
12.6898804348
 30
0.0
 10
14.5875228445
 20
12.6893780655
 30
0.0
  0
SPLINE
  5
3B3
100
AcDbEntity
  8
LAYER_FEATURE
100
AcDbSpline
 62
7
  6
CONTINUOUS
 70
0
 71
3
 72
11
 73
7
 74
0
 42
0.0000001
 43
0.0000001
 44
0.0000000001
 40
0.0
 40
0.0
 40
0.0
 40
0.0
 40
0.2570985696
 40
0.5095500476
 40
0.7572241991
 40
1.0
 40
1.0
 40
1.0
 40
1.0
 10
14.6341217573
 20
12.9241756218
 30
0.0
 10
14.6356286204
 20
12.9290518326
 30
0.0
 10
14.6386937567
 20
12.9386920385
 30
0.0
 10
14.6434915517
 20
12.9529384344
 30
0.0
 10
14.6484445159
 20
12.9668301654
 30
0.0
 10
14.6518821267
 20
12.9759398663
 30
0.0
 10
14.6536271058
 20
12.9804322733
 30
0.0
  0
SPLINE
  5
3B4
100
AcDbEntity
  8
LAYER_FEATURE
100
AcDbSpline
 62
7
  6
CONTINUOUS
 70
0
 71
3
 72
11
 73
7
 74
0
 42
0.0000001
 43
0.0000001
 44
0.0000000001
 40
0.0
 40
0.0
 40
0.0
 40
0.0
 40
0.2440192969
 40
0.4921210355
 40
0.7441639299
 40
1.0
 40
1.0
 40
1.0
 40
1.0
 10
14.6341217573
 20
12.9241756218
 30
0.0
 10
14.6325884273
 20
12.9192137641
 30
0.0
 10
14.6295788595
 20
12.9091812787
 30
0.0
 10
14.6252690633
 20
12.8939405412
 30
0.0
 10
14.6211290578
 20
12.8783924269
 30
0.0
 10
14.6185035279
 20
12.8679066759
 30
0.0
 10
14.617218971
 20
12.8626155059
 30
0.0
  0
SPLINE
  5
3B5
100
AcDbEntity
  8
LAYER_FEATURE
100
AcDbSpline
 62
7
  6
CONTINUOUS
 70
0
 71
3
 72
19
 73
15
 74
0
 42
0.0000001
 43
0.0000001
 44
0.0000000001
 40
0.0
 40
0.0
 40
0.0
 40
0.0
 40
0.0497823375
 40
0.1017417003
 40
0.1558106282
 40
0.2119074731
 40
0.2699382177
 40
0.3297973873
 40
0.3913697945
 40
0.4545317035
 40
0.5850809816
 40
0.7203268241
 40
0.8590551726
 40
1.0
 40
1.0
 40
1.0
 40
1.0
 10
14.6543329563
 20
12.8662940123
 30
0.0
 10
14.6546353756
 20
12.8668966294
 30
0.0
 10
14.6552262457
 20
12.8681420145
 30
0.0
 10
14.6560547827
 20
12.870083349
 30
0.0
 10
14.6568426576
 20
12.8721334204
 30
0.0
 10
14.6575876961
 20
12.8742865914
 30
0.0
 10
14.6582878522
 20
12.8765370035
 30
0.0
 10
14.65894121
 20
12.878878495
 30
0.0
 10
14.6595459911
 20
12.8813046721
 30
0.0
 10
14.6602935248
 20
12.8846807551
 30
0.0
 10
14.661091006
 20
12.8890660805
 30
0.0
 10
14.6618216155
 20
12.8944977404
 30
0.0
 10
14.6623280114
 20
12.9000961163
 30
0.0
 10
14.6625114992
 20
12.9038807852
 30
0.0
 10
14.6625651048
 20
12.9057889663
 30
0.0
  0
SPLINE
  5
3B6
100
AcDbEntity
  8
LAYER_FEATURE
100
AcDbSpline
 62
7
  6
CONTINUOUS
 70
0
 71
3
 72
15
 73
11
 74
0
 42
0.0000001
 43
0.0000001
 44
0.0000000001
 40
0.0
 40
0.0
 40
0.0
 40
0.0
 40
0.1334579795
 40
0.2652305047
 40
0.3949313889
 40
0.5221950729
 40
0.6466643488
 40
0.7679982866
 40
0.8858784742
 40
1.0
 40
1.0
 40
1.0
 40
1.0
 10
14.6621849998
 20
12.9220681936
 30
0.0
 10
14.6620744129
 20
12.9235306804
 30
0.0
 10
14.6618203109
 20
12.9264347158
 30
0.0
 10
14.6613371793
 20
12.9307483358
 30
0.0
 10
14.6607557856
 20
12.9349811582
 30
0.0
 10
14.660078195
 20
12.9391183623
 30
0.0
 10
14.6593067609
 20
12.9431455471
 30
0.0
 10
14.6584441976
 20
12.9470487119
 30
0.0
 10
14.6574935251
 20
12.9508141787
 30
0.0
 10
14.6567912636
 20
12.953265752
 30
0.0
 10
14.6564251332
 20
12.9544652797
 30
0.0
  0
LINE
  5
3B7
100
AcDbEntity
  8
LAYER_FEATURE
100
AcDbLine
 62
7
  6
CONTINUOUS
 10
14.6536773096
 20
12.9645930343
 11
14.6543647699
 21
12.9614123378
  0
SPLINE
  5
3B8
100
AcDbEntity
  8
LAYER_FEATURE
100
AcDbSpline
 62
7
  6
CONTINUOUS
 70
0
 71
3
 72
15
 73
11
 74
0
 42
0.0000001
 43
0.0000001
 44
0.0000000001
 40
0.0
 40
0.0
 40
0.0
 40
0.0
 40
0.1221185075
 40
0.2468558237
 40
0.3733300404
 40
0.5006374088
 40
0.6278638427
 40
0.754096256
 40
0.8784339177
 40
1.0
 40
1.0
 40
1.0
 40
1.0
 10
14.6536271058
 20
12.9804322733
 30
0.0
 10
14.6535332372
 20
12.9797921125
 30
0.0
 10
14.6533696776
 20
12.978494095
 30
0.0
 10
14.6531970675
 20
12.9765232367
 30
0.0
 10
14.6530954768
 20
12.9745199015
 30
0.0
 10
14.6530657783
 20
12.9725010397
 30
0.0
 10
14.6531082239
 20
12.9704836862
 30
0.0
 10
14.653222453
 20
12.9684848628
 30
0.0
 10
14.6534074844
 20
12.9665214813
 30
0.0
 10
14.6535793293
 20
12.9652296175
 30
0.0
 10
14.6536773096
 20
12.9645930343
 30
0.0
  0
SPLINE
  5
3B9
100
AcDbEntity
  8
LAYER_FEATURE
100
AcDbSpline
 62
7
  6
CONTINUOUS
 70
0
 71
3
 72
23
 73
19
 74
0
 42
0.0000001
 43
0.0000001
 44
0.0000000001
 40
0.0
 40
0.0
 40
0.0
 40
0.0
 40
0.073707716
 40
0.1460530092
 40
0.2169947655
 40
0.2864994215
 40
0.3545339519
 40
0.4210685785
 40
0.4860768447
 40
0.5495355337
 40
0.6114251692
 40
0.6717302085
 40
0.7304393433
 40
0.7875459377
 40
0.8430484033
 40
0.8969505942
 40
0.9492623336
 40
1.0
 40
1.0
 40
1.0
 40
1.0
 10
15.6904695435
 20
12.9863366186
 30
0.0
 10
15.6922414796
 20
12.9920706059
 30
0.0
 10
15.6958471154
 20
13.0034036673
 30
0.0
 10
15.7014960815
 20
13.0201456612
 30
0.0
 10
15.7073314514
 20
13.0364607037
 30
0.0
 10
15.7133482417
 20
13.0523349486
 30
0.0
 10
15.7195414673
 20
13.0677552245
 30
0.0
 10
15.725905926
 20
13.0827085995
 30
0.0
 10
15.7324362914
 20
13.0971825652
 30
0.0
 10
15.7391271171
 20
13.1111650192
 30
0.0
 10
15.7459728049
 20
13.1246442783
 30
0.0
 10
15.7529676429
 20
13.1376090839
 30
0.0
 10
15.7601058129
 20
13.1500486025
 30
0.0
 10
15.7673813785
 20
13.1619524564
 30
0.0
 10
15.774788282
 20
13.1733107041
 30
0.0
 10
15.7823204363
 20
13.1841139191
 30
0.0
 10
15.7899714738
 20
13.1943528969
 30
0.0
 10
15.7952270557
 20
13.2008964361
 30
0.0
 10
15.797874345
 20
13.2040680184
 30
0.0
  0
SPLINE
  5
3BA
100
AcDbEntity
  8
LAYER_FEATURE
100
AcDbSpline
 62
7
  6
CONTINUOUS
 70
0
 71
3
 72
11
 73
7
 74
0
 42
0.0000001
 43
0.0000001
 44
0.0000000001
 40
0.0
 40
0.0
 40
0.0
 40
0.0
 40
0.2217568016
 40
0.4631947491
 40
0.7231468144
 40
1.0
 40
1.0
 40
1.0
 40
1.0
 10
15.6119648446
 20
12.8626155059
 30
0.0
 10
15.6117131135
 20
12.8621833161
 30
0.0
 10
15.6112317771
 20
12.8612543288
 30
0.0
 10
15.6105970825
 20
12.859750475
 30
0.0
 10
15.6100243142
 20
12.858090074
 30
0.0
 10
15.6096971564
 20
12.8569236471
 30
0.0
 10
15.6095438994
 20
12.8563183242
 30
0.0
  0
SPLINE
  5
3BB
100
AcDbEntity
  8
02___PRT_ALL_AXES
100
AcDbSpline
 62
7
  6
CONTINUOUS
 70
0
 71
3
 72
23
 73
19
 74
0
 42
0.0000001
 43
0.0000001
 44
0.0000000001
 40
0.0
 40
0.0
 40
0.0
 40
0.0
 40
0.0478957868
 40
0.0962583982
 40
0.1455382643
 40
0.1961549964
 40
0.248487162
 40
0.3028662328
 40
0.3595739907
 40
0.4188439484
 40
0.4808638637
 40
0.5457792291
 40
0.6136984366
 40
0.6846964512
 40
0.7588171887
 40
0.8360801432
 40
0.9164864065
 40
1.0
 40
1.0
 40
1.0
 40
1.0
 10
16.2830403592
 20
12.6358049896
 30
0.0
 10
16.2837214062
 20
12.6358049934
 30
0.0
 10
16.2850912625
 20
12.6357308919
 30
0.0
 10
16.2871375452
 20
12.6353983757
 30
0.0
 10
16.2891756536
 20
12.6348452286
 30
0.0
 10
16.2912013731
 20
12.634072982
 30
0.0
 10
16.2932111354
 20
12.6330835283
 30
0.0
 10
16.2952014536
 20
12.6318790565
 30
0.0
 10
16.2971690515
 20
12.6304620696
 30
0.0
 10
16.2991107068
 20
12.628835277
 30
0.0
 10
16.3010232488
 20
12.6270016653
 30
0.0
 10
16.3029035638
 20
12.6249645308
 30
0.0
 10
16.3047485232
 20
12.6227274347
 30
0.0
 10
16.3065550326
 20
12.6202942851
 30
0.0
 10
16.3083200567
 20
12.6176693345
 30
0.0
 10
16.3100406019
 20
12.6148570597
 30
0.0
 10
16.3117136313
 20
12.6118624593
 30
0.0
 10
16.3127755011
 20
12.6097869212
 30
0.0
 10
16.3132986496
 20
12.6087208566
 30
0.0
  0
ENDSEC
  0
SECTION
  2
OBJECTS
  0
DICTIONARY
  5
C
100
AcDbDictionary
280
0
281
1
  3
ACAD_GROUP
350
D
  3
ACAD_MLINESTYLE
350
17
  3
ACAD_LAYOUT
350
1A
  3
ACAD_PLOTSETTINGS
350
19
  3
ACAD_PLOTSTYLENAME
350
E
  0
DICTIONARY
  5
D
102
{ACAD_REACTORS
330
C
102
}
100
AcDbDictionary
280
0
281
1
  0
ACDBDICTIONARYWDFLT
  5
E
102
{ACAD_REACTORS
330
C
102
}
100
AcDbDictionary
281
1
  3
Normal
350
F
100
AcDbDictionaryWithDefault
340
F
  0
DICTIONARY
  5
17
102
{ACAD_REACTORS
330
C
102
}
100
AcDbDictionary
280
0
281
1
  3
Standard
350
18
  0
DICTIONARY
  5
19
102
{ACAD_REACTORS
330
C
102
}
100
AcDbDictionary
281
1
  0
DICTIONARY
  5
1A
102
{ACAD_REACTORS
330
C
102
}
100
AcDbDictionary
281
1
  3
Model
350
3BC
  3
Layout1
350
3BD
  0
ACDBPLACEHOLDER
  5
F
102
{ACAD_REACTORS
330
E
102
}
  0
MLINESTYLE
  5
18
102
{ACAD_REACTORS
330
17
102
}
100
AcDbMlineStyle
  2
STANDARD
 70
0
  3

 62
256
 51
90.0
 52
90.0
 71
2
 49
0.5
 62
256
  6
BYLAYER
 49
-0.5
 62
256
  6
BYLAYER
  0
LAYOUT
  5
3BC
102
{ACAD_REACTORS
330
1A
102
}
100
AcDbPlotSettings
  1

  2
none_device
  4
ANSI_C_(22.00_x_17.00_Inches)
  6

 40
0.0
 41
0.0
 42
0.0
 43
0.0
 44
558.8
 45
431.8
 46
0.0
 47
0.0
 48
0.0
 49
0.0
140
0.0
141
0.0
142
1.0
143
1.0
 70
1024
 72
0
 73
0
 74
0
  7

 75
0
147
1.0
148
0.0
149
0.0
100
AcDbLayout
  1
Model
 70
0
 71
0
 10
0.0
 20
0.0
 11
22.0
 21
17.0
 12
0.0
 22
0.0
 32
0.0
 14
0.0
 24
0.0
 34
0.0
 15
0.0
 25
0.0
 35
0.0
146
0.0
 13
0.0
 23
0.0
 33
0.0
 16
1.0
 26
0.0
 36
0.0
 17
0.0
 27
1.0
 37
0.0
 76
0
330
21F
345
0
346
0
  0
LAYOUT
  5
3BD
102
{ACAD_REACTORS
330
1A
102
}
100
AcDbPlotSettings
  1

  2
none_device
  4
ANSI_C_(22.00_x_17.00_Inches)
  6

 40
0.0
 41
0.0
 42
0.0
 43
0.0
 44
558.8
 45
431.8
 46
0.0
 47
0.0
 48
0.0
 49
0.0
140
0.0
141
0.0
142
1.0
143
1.0
 70
0
 72
0
 73
0
 74
0
  7

 75
0
147
1.0
148
0.0
149
0.0
100
AcDbLayout
  1
Layout1
 70
0
 71
1
 10
0.0
 20
0.0
 11
22.0
 21
17.0
 12
0.0
 22
0.0
 32
0.0
 14
0.0
 24
0.0
 34
0.0
 15
0.0
 25
0.0
 35
0.0
146
0.0
 13
0.0
 23
0.0
 33
0.0
 16
1.0
 26
0.0
 36
0.0
 17
0.0
 27
1.0
 37
0.0
 76
0
330
220
345
0
346
0
  0
ENDSEC
  0
EOF