999
DXF file: _cgs_temp_output.dxf
999
Pro/ENGINEER 2016360 by Parametric Technology Corporation
  0
SECTION
  2
HEADER
  9
$ACADVER
  1
AC1021
  9
$DWGCODEPAGE
  3
ANSI_1252
  9
$EXTMAX
 10
22.0
 20
17.0
 30
0.0
  9
$EXTMIN
 10
0.0
 20
0.0
 30
0.0
  9
$LIMMIN
 10
0.0
 20
0.0
  9
$LIMMAX
 10
22.0
 20
17.0
  9
$VIEWCTR
 10
11.0
 20
8.5
  9
$VIEWSIZE
 40
17.0
  9
$CLAYER
  8
0
  9
$LTSCALE
 40
1.21
  9
$CELTYPE
  6
BYLAYER
  9
$DIMSCALE
 40
1.0
  9
$DIMASZ
 40
0.1875
  9
$DIMEXO
 40
0.0625
  9
$DIMDLI
 40
0.836
  9
$DIMEXE
 40
0.125
  9
$DIMCEN
 40
0.198
  9
$DIMLFAC
 40
1.0
  9
$DIMBLK
  1
_CLOSED
  9
$DIMALT
 70
0
  9
$DIMALTF
 40
25.4
  9
$DIMTXT
 40
0.15625
  9
$DIMTOL
 70
0
  9
$DIMLIM
 70
0
  9
$DIMTFAC
 40
1.0
  9
$DIMGAP
 40
0.09
  9
$DIMDSEP
 70
46
  9
$AUNITS
 70
0
  9
$PDMODE
 70
3
  9
$PDSIZE
 40
0.3125
  9
$HANDSEED
  5
2FA
  9
$TILEMODE
 70
1
  9
$MEASUREMENT
 70
0
  9
$INSUNITS
 70
1
  0
ENDSEC
  0
SECTION
  2
CLASSES
  0
CLASS
  1
ACDBDICTIONARYWDFLT
  2
AcDbDictionaryWithDefault
  3
AutoCAD 2000
 90
0
 91
1
280
0
281
0
  0
CLASS
  1
ACDBPLACEHOLDER
  2
AcDbPlaceHolder
  3
AutoCAD 2000
 90
0
 91
1
280
0
281
0
  0
CLASS
  1
LAYOUT
  2
AcDbLayout
  3
AutoCAD 2000
 90
0
 91
0
280
0
281
0
  0
ENDSEC
  0
SECTION
  2
TABLES
  0
TABLE
  2
VPORT
  5
8
100
AcDbSymbolTable
 70
2
  0
VPORT
  5
1F4
100
AcDbSymbolTableRecord
100
AcDbViewportTableRecord
  2
*ACTIVE
 70
0
 10
0.0
 20
0.0
 11
1.0
 21
1.0
 12
11.0
 22
8.5
 13
0.0
 23
0.0
 14
1.0
 24
1.0
 15
0.0
 25
0.0
 16
0.0
 26
0.0
 36
1.0
 17
0.0
 27
0.0
 37
0.0
 40
17.0
 41
1.2941176471
 42
50.0
 43
0.0
 44
0.0
 50
0.0
 51
0.0
 71
0
 72
100
 73
1
 74
1
 75
0
 76
0
 77
0
 78
0
  0
ENDTAB
  0
TABLE
  2
LTYPE
  5
5
100
AcDbSymbolTable
 70
6
  0
LTYPE
  5
14
100
AcDbSymbolTableRecord
100
AcDbLinetypeTableRecord
  2
BYBLOCK
 70
0
  3

 72
65
 73
0
 40
0.0
  0
LTYPE
  5
15
100
AcDbSymbolTableRecord
100
AcDbLinetypeTableRecord
  2
BYLAYER
 70
0
  3

 72
65
 73
0
 40
0.0
  0
LTYPE
  5
16
100
AcDbSymbolTableRecord
100
AcDbLinetypeTableRecord
  2
CONTINUOUS
 70
64
  3
Solid line
 72
65
 73
0
 40
0.0
  0
LTYPE
  5
1F5
100
AcDbSymbolTableRecord
100
AcDbLinetypeTableRecord
  2
CENTER
 70
64
  3
____ _ ____ _ ____ _ ____ _ ____ _ ____ _ ____
 72
65
 73
4
 40
0.6
 49
0.375
 74
0
 49
-0.075
 74
0
 49
0.075
 74
0
 49
-0.075
 74
0
  0
LTYPE
  5
1F6
100
AcDbSymbolTableRecord
100
AcDbLinetypeTableRecord
  2
HIDDEN
 70
64
  3
- - - - - - - - - - - - - - - - - - - -
 72
65
 73
2
 40
0.2
 49
0.1
 74
0
 49
-0.1
 74
0
  0
LTYPE
  5
1F7
100
AcDbSymbolTableRecord
100
AcDbLinetypeTableRecord
  2
PHANTOM
 70
64
  3
_____ _ _ _____ _ _ _____ _ _ _____
 72
65
 73
6
 40
0.8
 49
0.45
 74
0
 49
-0.05
 74
0
 49
0.1
 74
0
 49
-0.05
 74
0
 49
0.1
 74
0
 49
-0.05
 74
0
  0
LTYPE
  5
1F8
100
AcDbSymbolTableRecord
100
AcDbLinetypeTableRecord
  2
DOT
 70
64
  3
. . . . . . . . . . . . . . . . . . . .
 72
65
 73
2
 40
0.2
 49
0.1
 74
0
 49
-0.1
 74
0
  0
LTYPE
  5
1F9
100
AcDbSymbolTableRecord
100
AcDbLinetypeTableRecord
  2
DASHED
 70
64
  3
- - - - - - - - - - - - - - - - - - - -
 72
65
 73
2
 40
0.2
 49
0.1
 74
0
 49
-0.1
 74
0
  0
ENDTAB
  0
TABLE
  2
LAYER
  5
2
100
AcDbSymbolTable
 70
36
  0
LAYER
  5
10
100
AcDbSymbolTableRecord
100
AcDbLayerTableRecord
  2
0
 70
0
 62
7
  6
CONTINUOUS
370
-3
390
F
  0
LAYER
  5
1FA
100
AcDbSymbolTableRecord
100
AcDbLayerTableRecord
  2
DEFAULT_1
 70
0
 62
7
  6
CENTER
370
-3
390
F
  0
LAYER
  5
1FB
100
AcDbSymbolTableRecord
100
AcDbLayerTableRecord
  2
DEFAULT_2
 70
0
 62
8
  6
HIDDEN
370
-3
390
F
  0
LAYER
  5
1FC
100
AcDbSymbolTableRecord
100
AcDbLayerTableRecord
  2
DEFAULT_3
 70
0
 62
7
  6
PHANTOM
370
-3
390
F
  0
LAYER
  5
1FD
100
AcDbSymbolTableRecord
100
AcDbLayerTableRecord
  2
01_ALL_DTM_PLN
 70
0
 62
7
  6
CONTINUOUS
370
-3
390
F
  0
LAYER
  5
1FE
100
AcDbSymbolTableRecord
100
AcDbLayerTableRecord
  2
01__ASM_ALL_DTM_PLN
 70
0
 62
7
  6
CONTINUOUS
370
-3
390
F
  0
LAYER
  5
1FF
100
AcDbSymbolTableRecord
100
AcDbLayerTableRecord
  2
01__ASM_DEF_DTM_PLN
 70
0
 62
7
  6
CONTINUOUS
370
-3
390
F
  0
LAYER
  5
200
100
AcDbSymbolTableRecord
100
AcDbLayerTableRecord
  2
01___PRT_ALL_DTM_PLN
 70
0
 62
7
  6
CONTINUOUS
370
-3
390
F
  0
LAYER
  5
201
100
AcDbSymbolTableRecord
100
AcDbLayerTableRecord
  2
01___PRT_DEF_DTM_PLN
 70
0
 62
7
  6
CONTINUOUS
370
-3
390
F
  0
LAYER
  5
202
100
AcDbSymbolTableRecord
100
AcDbLayerTableRecord
  2
02_ALL_AXES
 70
0
 62
7
  6
CONTINUOUS
370
-3
390
F
  0
LAYER
  5
203
100
AcDbSymbolTableRecord
100
AcDbLayerTableRecord
  2
02__ASM_ALL_AXES
 70
0
 62
7
  6
CONTINUOUS
370
-3
390
F
  0
LAYER
  5
204
100
AcDbSymbolTableRecord
100
AcDbLayerTableRecord
  2
02___PRT_ALL_AXES
 70
0
 62
7
  6
CONTINUOUS
370
-3
390
F
  0
LAYER
  5
205
100
AcDbSymbolTableRecord
100
AcDbLayerTableRecord
  2
03_ALL_CURVES
 70
0
 62
7
  6
CONTINUOUS
370
-3
390
F
  0
LAYER
  5
206
100
AcDbSymbolTableRecord
100
AcDbLayerTableRecord
  2
03__ASM_ALL_CURVES
 70
0
 62
7
  6
CONTINUOUS
370
-3
390
F
  0
LAYER
  5
207
100
AcDbSymbolTableRecord
100
AcDbLayerTableRecord
  2
03___PRT_ALL_CURVES
 70
0
 62
7
  6
CONTINUOUS
370
-3
390
F
  0
LAYER
  5
208
100
AcDbSymbolTableRecord
100
AcDbLayerTableRecord
  2
04_ALL_DTM_PNT
 70
0
 62
7
  6
CONTINUOUS
370
-3
390
F
  0
LAYER
  5
209
100
AcDbSymbolTableRecord
100
AcDbLayerTableRecord
  2
04__ASM_ALL_DTM_PNT
 70
0
 62
7
  6
CONTINUOUS
370
-3
390
F
  0
LAYER
  5
20A
100
AcDbSymbolTableRecord
100
AcDbLayerTableRecord
  2
04___PRT_ALL_DTM_PNT
 70
0
 62
7
  6
CONTINUOUS
370
-3
390
F
  0
LAYER
  5
20B
100
AcDbSymbolTableRecord
100
AcDbLayerTableRecord
  2
05_ALL_DTM_CSYS
 70
0
 62
7
  6
CONTINUOUS
370
-3
390
F
  0
LAYER
  5
20C
100
AcDbSymbolTableRecord
100
AcDbLayerTableRecord
  2
05__ASM_ALL_DTM_CSYS
 70
0
 62
7
  6
CONTINUOUS
370
-3
390
F
  0
LAYER
  5
20D
100
AcDbSymbolTableRecord
100
AcDbLayerTableRecord
  2
05__ASM_DEF_DTM_CSYS
 70
0
 62
7
  6
CONTINUOUS
370
-3
390
F
  0
LAYER
  5
20E
100
AcDbSymbolTableRecord
100
AcDbLayerTableRecord
  2
05___PRT_ALL_DTM_CSYS
 70
0
 62
7
  6
CONTINUOUS
370
-3
390
F
  0
LAYER
  5
20F
100
AcDbSymbolTableRecord
100
AcDbLayerTableRecord
  2
05___PRT_DEF_DTM_CSYS
 70
0
 62
7
  6
CONTINUOUS
370
-3
390
F
  0
LAYER
  5
210
100
AcDbSymbolTableRecord
100
AcDbLayerTableRecord
  2
06_ALL_SURFS
 70
0
 62
7
  6
CONTINUOUS
370
-3
390
F
  0
LAYER
  5
211
100
AcDbSymbolTableRecord
100
AcDbLayerTableRecord
  2
06__ASM_ALL_SURFS
 70
0
 62
7
  6
CONTINUOUS
370
-3
390
F
  0
LAYER
  5
212
100
AcDbSymbolTableRecord
100
AcDbLayerTableRecord
  2
06___PRT_ALL_SURFS
 70
0
 62
7
  6
CONTINUOUS
370
-3
390
F
  0
LAYER
  5
213
100
AcDbSymbolTableRecord
100
AcDbLayerTableRecord
  2
07__ASM_ALL_SKELETONS
 70
0
 62
7
  6
CONTINUOUS
370
-3
390
F
  0
LAYER
  5
214
100
AcDbSymbolTableRecord
100
AcDbLayerTableRecord
  2
ANNOTATIONS
 70
0
 62
7
  6
CONTINUOUS
370
-3
390
F
  0
LAYER
  5
215
100
AcDbSymbolTableRecord
100
AcDbLayerTableRecord
  2
ASM_DATUMS
 70
0
 62
7
  6
CONTINUOUS
370
-3
390
F
  0
LAYER
  5
216
100
AcDbSymbolTableRecord
100
AcDbLayerTableRecord
  2
ASM_DEF_DATUMS
 70
0
 62
7
  6
CONTINUOUS
370
-3
390
F
  0
LAYER
  5
217
100
AcDbSymbolTableRecord
100
AcDbLayerTableRecord
  2
AXIS
 70
0
 62
7
  6
CONTINUOUS
370
-3
390
F
  0
LAYER
  5
218
100
AcDbSymbolTableRecord
100
AcDbLayerTableRecord
  2
CSYS
 70
0
 62
7
  6
CONTINUOUS
370
-3
390
F
  0
LAYER
  5
219
100
AcDbSymbolTableRecord
100
AcDbLayerTableRecord
  2
CURVES
 70
0
 62
7
  6
CONTINUOUS
370
-3
390
F
  0
LAYER
  5
21A
100
AcDbSymbolTableRecord
100
AcDbLayerTableRecord
  2
DATUMS
 70
0
 62
7
  6
CONTINUOUS
370
-3
390
F
  0
LAYER
  5
21B
100
AcDbSymbolTableRecord
100
AcDbLayerTableRecord
  2
DEF_CSYS
 70
0
 62
7
  6
CONTINUOUS
370
-3
390
F
  0
LAYER
  5
21C
100
AcDbSymbolTableRecord
100
AcDbLayerTableRecord
  2
DEF_DATUMS
 70
0
 62
7
  6
CONTINUOUS
370
-3
390
F
  0
LAYER
  5
21D
100
AcDbSymbolTableRecord
100
AcDbLayerTableRecord
  2
GTOL
 70
0
 62
7
  6
CONTINUOUS
370
-3
390
F
  0
LAYER
  5
21E
100
AcDbSymbolTableRecord
100
AcDbLayerTableRecord
  2
POINTS
 70
0
 62
7
  6
CONTINUOUS
370
-3
390
F
  0
LAYER
  5
21F
100
AcDbSymbolTableRecord
100
AcDbLayerTableRecord
  2
SKELETONS
 70
0
 62
7
  6
CONTINUOUS
370
-3
390
F
  0
LAYER
  5
220
100
AcDbSymbolTableRecord
100
AcDbLayerTableRecord
  2
SURFACES
 70
0
 62
7
  6
CONTINUOUS
370
-3
390
F
  0
LAYER
  5
221
100
AcDbSymbolTableRecord
100
AcDbLayerTableRecord
  2
XSEC_DATUMS
 70
0
 62
7
  6
CONTINUOUS
370
-3
390
F
  0
ENDTAB
  0
TABLE
  2
STYLE
  5
3
100
AcDbSymbolTable
 70
1
  0
STYLE
  5
11
100
AcDbSymbolTableRecord
100
AcDbTextStyleTableRecord
  2
STANDARD
 70
0
 40
0.0
 41
0.8
 50
0.0
 71
0
 42
0.2
  3
txt
  4

  0
STYLE
  5
222
100
AcDbSymbolTableRecord
100
AcDbTextStyleTableRecord
  2
TEXTSTYLE_1
 70
0
 40
0.0
 41
0.8
 50
0.0
 71
0
 42
0.2
  3
gdt
  4

  0
ENDTAB
  0
TABLE
  2
VIEW
  5
6
100
AcDbSymbolTable
 70
0
  0
ENDTAB
  0
TABLE
  2
UCS
  5
7
100
AcDbSymbolTable
 70
0
  0
ENDTAB
  0
TABLE
  2
APPID
  5
9
100
AcDbSymbolTable
 70
1
  0
APPID
  5
223
100
AcDbSymbolTableRecord
100
AcDbRegAppTableRecord
  2
ACAD
 70
0
  0
ENDTAB
  0
TABLE
  2
BLOCK_RECORD
  5
1
100
AcDbSymbolTable
 70
0
  0
BLOCK_RECORD
  5
224
100
AcDbSymbolTableRecord
100
AcDbBlockTableRecord
  2
*Model_Space
  0
BLOCK_RECORD
  5
225
100
AcDbSymbolTableRecord
100
AcDbBlockTableRecord
  2
*Paper_Space
  0
ENDTAB
  0
TABLE
  2
DIMSTYLE
  5
A
100
AcDbSymbolTable
 70
1
100
AcDbDimStyleTable
 71
0
  0
DIMSTYLE
105
226
100
AcDbSymbolTableRecord
100
AcDbDimStyleTableRecord
  2
STANDARD
 70
0
  3

  4

 40
1.0
 41
0.1875
 42
0.0625
 43
0.38
 44
0.125
 45
0.0
 46
0.0
 47
0.0001
 48
0.0001
140
0.15625
141
0.09
142
0.0
143
25.4
144
1.0
145
0.0
146
1.0
147
0.09
 71
0.0
 72
0.0
 73
1
 74
1
 75
0
 76
0
 77
0
 78
4
 79
1
170
0
171
3
172
0
173
0
174
0
175
0
176
0
177
0
178
0
270
2
179
4
271
4
272
4
273
2
274
2
275
0
280
0
281
0
282
0
283
1
284
4
285
0
286
0
287
3
288
0
340
11
278
46
  0
ENDTAB
  0
ENDSEC
  0
SECTION
  2
BLOCKS
  0
BLOCK
  5
20
100
AcDbEntity
  8
0
100
AcDbBlockBegin
  2
*Model_Space
 70
0
 10
0.0
 20
0.0
 30
0.0
  3
*Model_Space
  1

  0
ENDBLK
  5
21
100
AcDbEntity
  8
0
100
AcDbBlockEnd
  0
BLOCK
  5
1C
100
AcDbEntity
  8
0
100
AcDbBlockBegin
  2
*Paper_Space
 70
0
 10
0.0
 20
0.0
 30
0.0
  3
*Paper_Space
  1

  0
ENDBLK
  5
1D
100
AcDbEntity
  8
0
100
AcDbBlockEnd
  0
ENDSEC
  0
SECTION
  2
ENTITIES
  0
MTEXT
  5
227
100
AcDbEntity
  8
0
100
AcDbMText
 62
7
  6
CONTINUOUS
  7
STANDARD
 71
1
 72
1
 10
15.9560215477
 20
0.9479130325
 30
0.0
 11
1.0
 21
0.0
 31
0.0
 44
0.9
  1
SCALE: 1:1.000
 40
0.3
 41
3.36
  0
LINE
  5
228
100
AcDbEntity
  8
0
100
AcDbLine
 62
7
  6
CONTINUOUS
 10
0.0
 20
0.0
 11
0.0
 21
17.0
  0
LINE
  5
229
100
AcDbEntity
  8
0
100
AcDbLine
 62
7
  6
CONTINUOUS
 10
0.0
 20
0.0
 11
22.0
 21
0.0
  0
LINE
  5
22A
100
AcDbEntity
  8
0
100
AcDbLine
 62
7
  6
CONTINUOUS
 10
0.0
 20
17.0
 11
22.0
 21
17.0
  0
LINE
  5
22B
100
AcDbEntity
  8
0
100
AcDbLine
 62
7
  6
CONTINUOUS
 10
22.0
 20
0.0
 11
22.0
 21
17.0
  0
LINE
  5
22C
100
AcDbEntity
  8
02___PRT_ALL_AXES
100
AcDbLine
 62
7
  6
CONTINUOUS
 10
5.7764347042
 20
6.7996198968
 11
5.6903672762
 21
6.7733064433
  0
LINE
  5
22D
100
AcDbEntity
  8
02___PRT_ALL_AXES
100
AcDbLine
 62
7
  6
CONTINUOUS
 10
5.7764347042
 20
4.2406198968
 11
5.6903672762
 21
4.2669333502
  0
LINE
  5
22E
100
AcDbEntity
  8
0
100
AcDbLine
 62
7
  6
CONTINUOUS
 10
5.8153672762
 20
4.4508101033
 11
6.4453672762
 21
4.4508101033
  0
LINE
  5
22F
100
AcDbEntity
  8
0
100
AcDbLine
 62
7
  6
CONTINUOUS
 10
5.8153672762
 20
4.5291444518
 11
6.4453672762
 21
4.5291444518
  0
LINE
  5
230
100
AcDbEntity
  8
0
100
AcDbLine
 62
7
  6
CONTINUOUS
 10
5.8153672762
 20
4.6861067367
 11
6.4453672762
 21
4.6861067367
  0
LINE
  5
231
100
AcDbEntity
  8
0
100
AcDbLine
 62
7
  6
CONTINUOUS
 10
5.8153672762
 20
4.9089864198
 11
6.4453672762
 21
4.9089864198
  0
LINE
  5
232
100
AcDbEntity
  8
02___PRT_ALL_AXES
100
AcDbLine
 62
7
  6
CONTINUOUS
 10
5.6903672762
 20
6.7733064433
 11
5.6903672762
 21
4.2669333502
  0
LINE
  5
233
100
AcDbEntity
  8
02___PRT_ALL_AXES
100
AcDbLine
 62
7
  6
CONTINUOUS
 10
5.7764347042
 20
6.7996198968
 11
5.7764347042
 21
4.2406198968
  0
LINE
  5
234
100
AcDbEntity
  8
02___PRT_ALL_AXES
100
AcDbLine
 62
7
  6
CONTINUOUS
 10
5.8153672762
 20
6.6722771918
 11
5.8153672762
 21
4.3679626017
  0
LINE
  5
235
100
AcDbEntity
  8
0
100
AcDbLine
 62
7
  6
CONTINUOUS
 10
5.8153672762
 20
5.1794676077
 11
6.4453672762
 21
5.1794676077
  0
LINE
  5
236
100
AcDbEntity
  8
02___PRT_ALL_AXES
100
AcDbLine
 62
7
  6
CONTINUOUS
 10
6.4453672762
 20
6.6722771918
 11
6.4842998481
 21
6.7996198968
  0
LINE
  5
237
100
AcDbEntity
  8
02___PRT_ALL_AXES
100
AcDbLine
 62
7
  6
CONTINUOUS
 10
6.4453672762
 20
4.3679626017
 11
6.4842998481
 21
4.2406198968
  0
LINE
  5
238
100
AcDbEntity
  8
02___PRT_ALL_AXES
100
AcDbLine
 62
7
  6
CONTINUOUS
 10
5.8153672762
 20
4.3679626017
 11
5.7764347042
 21
4.2406198968
  0
LINE
  5
239
100
AcDbEntity
  8
02___PRT_ALL_AXES
100
AcDbLine
 62
7
  6
CONTINUOUS
 10
5.8153672762
 20
6.6722771918
 11
5.7764347042
 21
6.7996198968
  0
LINE
  5
23A
100
AcDbEntity
  8
02___PRT_ALL_AXES
100
AcDbLine
 62
7
  6
CONTINUOUS
 10
6.4453672762
 20
4.3679626017
 11
6.4453672762
 21
6.6722771918
  0
LINE
  5
23B
100
AcDbEntity
  8
02___PRT_ALL_AXES
100
AcDbLine
 62
7
  6
CONTINUOUS
 10
6.4842998481
 20
4.2406198968
 11
6.4842998481
 21
6.7996198968
  0
LINE
  5
23C
100
AcDbEntity
  8
0
100
AcDbLine
 62
7
  6
CONTINUOUS
 10
5.8153672762
 20
5.8586968316
 11
6.4453672762
 21
5.8586968316
  0
LINE
  5
23D
100
AcDbEntity
  8
02___PRT_ALL_AXES
100
AcDbLine
 62
7
  6
CONTINUOUS
 10
6.5703672762
 20
4.2669333502
 11
6.5703672762
 21
6.7733064433
  0
LINE
  5
23E
100
AcDbEntity
  8
0
100
AcDbLine
 62
7
  6
CONTINUOUS
 10
6.4453672762
 20
6.1294168694
 11
5.8153672762
 21
6.1294168694
  0
LINE
  5
23F
100
AcDbEntity
  8
0
100
AcDbLine
 62
7
  6
CONTINUOUS
 10
6.4453672762
 20
6.3527190979
 11
5.8153672762
 21
6.3527190979
  0
LINE
  5
240
100
AcDbEntity
  8
0
100
AcDbLine
 62
7
  6
CONTINUOUS
 10
6.4453672762
 20
6.5102184281
 11
5.8153672762
 21
6.5102184281
  0
LINE
  5
241
100
AcDbEntity
  8
0
100
AcDbLine
 62
7
  6
CONTINUOUS
 10
6.4453672762
 20
6.5893405824
 11
5.8153672762
 21
6.5893405824
  0
LINE
  5
242
100
AcDbEntity
  8
02___PRT_ALL_AXES
100
AcDbLine
 62
7
  6
CONTINUOUS
 10
6.4842998481
 20
4.2406198968
 11
6.5703672762
 21
4.2669333502
  0
LINE
  5
243
100
AcDbEntity
  8
02___PRT_ALL_AXES
100
AcDbLine
 62
7
  6
CONTINUOUS
 10
6.4842998481
 20
6.7996198968
 11
6.5703672762
 21
6.7733064433
  0
LINE
  5
244
100
AcDbEntity
  8
02___PRT_ALL_AXES
100
AcDbLine
 62
7
  6
CONTINUOUS
 10
5.6308720839
 20
13.8532343279
 11
5.7169395119
 21
13.8795477814
  0
LINE
  5
245
100
AcDbEntity
  8
02___PRT_ALL_AXES
100
AcDbLine
 62
7
  6
CONTINUOUS
 10
5.6308720839
 20
11.3468612348
 11
5.7169395119
 21
11.3205477814
  0
LINE
  5
246
100
AcDbEntity
  8
AXIS
100
AcDbLine
 62
7
  6
CONTINUOUS
 10
6.3858720839
 20
11.5230477814
 11
5.7558720839
 21
11.5230477814
  0
LINE
  5
247
100
AcDbEntity
  8
0
100
AcDbLine
 62
7
  6
CONTINUOUS
 10
5.7558720839
 20
11.5594262653
 11
6.3858720839
 21
11.5594262653
  0
LINE
  5
248
100
AcDbEntity
  8
0
100
AcDbLine
 62
7
  6
CONTINUOUS
 10
5.7558720839
 20
11.6781873873
 11
6.3858720839
 21
11.6781873873
  0
LINE
  5
249
100
AcDbEntity
  8
0
100
AcDbLine
 62
7
  6
CONTINUOUS
 10
5.7558720839
 20
11.8699796268
 11
6.3858720839
 21
11.8699796268
  0
LINE
  5
24A
100
AcDbEntity
  8
02___PRT_ALL_AXES
100
AcDbLine
 62
7
  6
CONTINUOUS
 10
5.6308720839
 20
11.3468612348
 11
5.6308720839
 21
13.8532343279
  0
LINE
  5
24B
100
AcDbEntity
  8
0
100
AcDbLine
 62
7
  6
CONTINUOUS
 10
5.7558720839
 20
12.1192719751
 11
6.3858720839
 21
12.1192719751
  0
LINE
  5
24C
100
AcDbEntity
  8
02___PRT_ALL_AXES
100
AcDbLine
 62
7
  6
CONTINUOUS
 10
5.7169395119
 20
11.3205477814
 11
5.7169395119
 21
13.8795477814
  0
LINE
  5
24D
100
AcDbEntity
  8
02___PRT_ALL_AXES
100
AcDbLine
 62
7
  6
CONTINUOUS
 10
5.7558720839
 20
11.4478904863
 11
5.7558720839
 21
13.7522050764
  0
LINE
  5
24E
100
AcDbEntity
  8
02___PRT_ALL_AXES
100
AcDbLine
 62
7
  6
CONTINUOUS
 10
6.4248046558
 20
13.8795477814
 11
6.3858720839
 21
13.7522050764
  0
LINE
  5
24F
100
AcDbEntity
  8
02___PRT_ALL_AXES
100
AcDbLine
 62
7
  6
CONTINUOUS
 10
6.4248046558
 20
11.3205477814
 11
6.3858720839
 21
11.4478904863
  0
LINE
  5
250
100
AcDbEntity
  8
02___PRT_ALL_AXES
100
AcDbLine
 62
7
  6
CONTINUOUS
 10
5.7169395119
 20
11.3205477814
 11
5.7558720839
 21
11.4478904863
  0
LINE
  5
251
100
AcDbEntity
  8
02___PRT_ALL_AXES
100
AcDbLine
 62
7
  6
CONTINUOUS
 10
5.7169395119
 20
13.8795477814
 11
5.7558720839
 21
13.7522050764
  0
LINE
  5
252
100
AcDbEntity
  8
02___PRT_ALL_AXES
100
AcDbLine
 62
7
  6
CONTINUOUS
 10
6.3858720839
 20
11.4478904863
 11
6.3858720839
 21
13.7522050764
  0
LINE
  5
253
100
AcDbEntity
  8
02___PRT_ALL_AXES
100
AcDbLine
 62
7
  6
CONTINUOUS
 10
6.4248046558
 20
11.3205477814
 11
6.4248046558
 21
13.8795477814
  0
LINE
  5
254
100
AcDbEntity
  8
02___PRT_ALL_AXES
100
AcDbLine
 62
7
  6
CONTINUOUS
 10
6.5108720839
 20
11.3468612348
 11
6.5108720839
 21
13.8532343279
  0
LINE
  5
255
100
AcDbEntity
  8
0
100
AcDbLine
 62
7
  6
CONTINUOUS
 10
6.3858720839
 20
13.0794949007
 11
5.7558720839
 21
13.0794949007
  0
LINE
  5
256
100
AcDbEntity
  8
0
100
AcDbLine
 62
7
  6
CONTINUOUS
 10
6.3858720839
 20
13.3290220027
 11
5.7558720839
 21
13.3290220027
  0
LINE
  5
257
100
AcDbEntity
  8
0
100
AcDbLine
 62
7
  6
CONTINUOUS
 10
6.3858720839
 20
13.5211375807
 11
5.7558720839
 21
13.5211375807
  0
LINE
  5
258
100
AcDbEntity
  8
0
100
AcDbLine
 62
7
  6
CONTINUOUS
 10
6.3858720839
 20
13.6402844427
 11
5.7558720839
 21
13.6402844427
  0
LINE
  5
259
100
AcDbEntity
  8
AXIS
100
AcDbLine
 62
7
  6
CONTINUOUS
 10
6.3858720839
 20
13.6770477814
 11
5.7558720839
 21
13.6770477814
  0
LINE
  5
25A
100
AcDbEntity
  8
02___PRT_ALL_AXES
100
AcDbLine
 62
7
  6
CONTINUOUS
 10
6.5108720839
 20
11.3468612348
 11
6.4248046558
 21
11.3205477814
  0
LINE
  5
25B
100
AcDbEntity
  8
02___PRT_ALL_AXES
100
AcDbLine
 62
7
  6
CONTINUOUS
 10
6.5108720839
 20
13.8532343279
 11
6.4248046558
 21
13.8795477814
  0
LINE
  5
25C
100
AcDbEntity
  8
02___PRT_ALL_AXES
100
AcDbLine
 62
7
  6
CONTINUOUS
 10
15.0027645446
 20
13.7534780868
 11
15.080713367
 21
13.7795707868
  0
LINE
  5
25D
100
AcDbEntity
  8
02___PRT_ALL_AXES
100
AcDbLine
 62
7
  6
CONTINUOUS
 10
15.0027645446
 20
11.268131899
 11
15.080713367
 21
11.242039199
  0
LINE
  5
25E
100
AcDbEntity
  8
0
100
AcDbLine
 62
7
  6
CONTINUOUS
 10
15.1491886305
 20
11.4369620474
 11
15.5265224597
 21
11.4369620474
  0
LINE
  5
25F
100
AcDbEntity
  8
0
100
AcDbLine
 62
7
  6
CONTINUOUS
 10
15.149188629
 20
11.4369674439
 11
15.1485871239
 21
11.4370217835
  0
LINE
  5
260
100
AcDbEntity
  8
0
100
AcDbLine
 62
7
  6
CONTINUOUS
 10
15.0348817232
 20
11.5026251244
 11
15.4905591535
 21
11.5026251244
  0
LINE
  5
261
100
AcDbEntity
  8
AXIS
100
AcDbLine
 62
7
  6
CONTINUOUS
 10
15.8740766534
 20
11.6310549929
 11
15.8256561186
 21
11.6310549929
  0
LINE
  5
262
100
AcDbEntity
  8
0
100
AcDbLine
 62
7
  6
CONTINUOUS
 10
14.932405464
 20
11.6483093228
 11
15.4294260667
 21
11.6483093228
  0
LINE
  5
263
100
AcDbEntity
  8
0
100
AcDbLine
 62
7
  6
CONTINUOUS
 10
14.8500582058
 20
11.8622173845
 11
15.3679792002
 21
11.8622173845
  0
LINE
  5
264
100
AcDbEntity
  8
0
100
AcDbLine
 62
7
  6
CONTINUOUS
 10
14.7945888926
 20
12.1270284704
 11
15.3220795902
 21
12.1270284704
  0
LINE
  5
265
100
AcDbEntity
  8
02___PRT_ALL_AXES
100
AcDbLine
 62
7
  6
CONTINUOUS
 10
15.4387058948
 20
13.0624219169
 11
15.43889265
 21
13.063423914
  0
LINE
  5
266
100
AcDbEntity
  8
02___PRT_ALL_AXES
100
AcDbLine
 62
7
  6
CONTINUOUS
 10
15.438286153
 20
13.0629509294
 11
15.4384770903
 21
13.0639488306
  0
LINE
  5
267
100
AcDbEntity
  8
0
100
AcDbLine
 62
7
  6
CONTINUOUS
 10
14.7984288085
 20
12.8065666298
 11
15.3123657084
 21
12.8065666298
  0
LINE
  5
268
100
AcDbEntity
  8
AXIS
100
AcDbLine
 62
7
  6
CONTINUOUS
 10
15.6988174355
 20
13.033166742
 11
15.6425186217
 21
13.0305922963
  0
LINE
  5
269
100
AcDbEntity
  8
0
100
AcDbLine
 62
7
  6
CONTINUOUS
 10
15.3518900772
 20
13.0827422703
 11
14.8299366286
 21
13.0827422703
  0
LINE
  5
26A
100
AcDbEntity
  8
0
100
AcDbLine
 62
7
  6
CONTINUOUS
 10
15.4095584109
 20
13.314308053
 11
14.9046909623
 21
13.314308053
  0
LINE
  5
26B
100
AcDbEntity
  8
AXIS
100
AcDbLine
 62
7
  6
CONTINUOUS
 10
15.8740766534
 20
13.3905549929
 11
15.8226443529
 21
13.3905549929
  0
LINE
  5
26C
100
AcDbEntity
  8
0
100
AcDbLine
 62
7
  6
CONTINUOUS
 10
15.4733844239
 20
13.4824270934
 11
15.0018185701
 21
13.4824270934
  0
LINE
  5
26D
100
AcDbEntity
  8
0
100
AcDbLine
 62
7
  6
CONTINUOUS
 10
15.1121765695
 20
13.5732144503
 11
15.1134542266
 21
13.5734816169
  0
LINE
  5
26E
100
AcDbEntity
  8
0
100
AcDbLine
 62
7
  6
CONTINUOUS
 10
15.5204377559
 20
13.5734853982
 11
15.1134542238
 21
13.5734853982
  0
LINE
  5
26F
100
AcDbEntity
  8
0
100
AcDbLine
 62
7
  6
CONTINUOUS
 10
15.2130543758
 20
13.5845906906
 11
15.5268332935
 21
13.5845906906
  0
LINE
  5
270
100
AcDbEntity
  8
02___PRT_ALL_AXES
100
AcDbLine
 62
7
  6
CONTINUOUS
 10
15.9394603923
 20
11.268131899
 11
15.86151157
 21
11.242039199
  0
LINE
  5
271
100
AcDbEntity
  8
02___PRT_ALL_AXES
100
AcDbLine
 62
7
  6
CONTINUOUS
 10
15.9394603923
 20
13.7534780868
 11
15.86151157
 21
13.7795707868
  0
CIRCLE
  5
272
100
AcDbEntity
  8
02___PRT_ALL_AXES
100
AcDbCircle
 62
7
  6
CONTINUOUS
 10
15.5603552569
 20
5.4606247044
 40
1.2795
  0
CIRCLE
  5
273
100
AcDbEntity
  8
02___PRT_ALL_AXES
100
AcDbCircle
 62
7
  6
CONTINUOUS
 10
15.5603552569
 20
5.4606247044
 40
1.2531865466
  0
CIRCLE
  5
274
100
AcDbEntity
  8
02___PRT_ALL_AXES
100
AcDbCircle
 62
7
  6
CONTINUOUS
 10
15.5603552569
 20
5.4606247044
 40
1.1387067049
  0
CIRCLE
  5
275
100
AcDbEntity
  8
02___PRT_ALL_AXES
100
AcDbCircle
 62
7
  6
CONTINUOUS
 10
15.5603552569
 20
5.4606247044
 40
0.8815
  0
CIRCLE
  5
276
100
AcDbEntity
  8
AXIS
100
AcDbCircle
 62
7
  6
CONTINUOUS
 10
15.5603552569
 20
5.4606247044
 40
0.87975
  0
ARC
  5
277
100
AcDbEntity
  8
AXIS
100
AcDbCircle
 62
7
  6
CONTINUOUS
 10
15.5603552569
 20
5.4606247044
 40
0.6895
100
AcDbArc
 50
100.8188358097
 51
176.7894076441
  0
ARC
  5
278
100
AcDbEntity
  8
AXIS
100
AcDbCircle
 62
7
  6
CONTINUOUS
 10
15.5603552569
 20
5.4606247044
 40
0.6895
100
AcDbArc
 50
3.2105923559
 51
79.1811641903
  0
ARC
  5
279
100
AcDbEntity
  8
AXIS
100
AcDbCircle
 62
7
  6
CONTINUOUS
 10
15.5603552569
 20
5.4606247044
 40
0.6895
100
AcDbArc
 50
193.2105923559
 51
346.7894076441
  0
ARC
  5
27A
100
AcDbEntity
  8
AXIS
100
AcDbCircle
 62
7
  6
CONTINUOUS
 10
15.5603552569
 20
5.4606247044
 40
0.6655182857
100
AcDbArc
 50
78.7858816571
 51
101.2141183429
  0
CIRCLE
  5
27B
100
AcDbEntity
  8
AXIS
100
AcDbCircle
 62
7
  6
CONTINUOUS
 10
15.5603552569
 20
5.4606247044
 40
0.6285
  0
ARC
  5
27C
100
AcDbEntity
  8
AXIS
100
AcDbCircle
 62
7
  6
CONTINUOUS
 10
15.5603552569
 20
6.1256247044
 40
0.13
100
AcDbArc
 50
354.6202760529
 51
185.3797239471
  0
ARC
  5
27D
100
AcDbEntity
  8
AXIS
100
AcDbCircle
 62
7
  6
CONTINUOUS
 10
16.2228247312
 20
5.4026661355
 40
0.1
100
AcDbArc
 50
249.7419048713
 51
100.2580951287
  0
ARC
  5
27E
100
AcDbEntity
  8
AXIS
100
AcDbCircle
 62
7
  6
CONTINUOUS
 10
14.8978857827
 20
5.4026661355
 40
0.1
100
AcDbArc
 50
79.7419048713
 51
290.2580951287
  0
ARC
  5
27F
100
AcDbEntity
  8
AXIS
100
AcDbCircle
 62
7
  6
CONTINUOUS
 10
17.3683640045
 20
-15.7647018204
 40
28.8698553956
100
AcDbArc
 50
92.6592065731
 51
93.2907970266
  0
ARC
  5
280
100
AcDbEntity
  8
AXIS
100
AcDbCircle
 62
7
  6
CONTINUOUS
 10
14.6574608398
 20
34.8677830519
 40
21.9755072206
100
AcDbArc
 50
272.5130659681
 51
273.723617959
  0
ARC
  5
281
100
AcDbEntity
  8
0
100
AcDbCircle
 62
7
  6
CONTINUOUS
 10
17.5188631355
 20
12.5107093464
 40
2.757287901
100
AcDbArc
 50
180.5142891433
 51
181.4698941934
  0
ARC
  5
282
100
AcDbEntity
  8
0
100
AcDbCircle
 62
7
  6
CONTINUOUS
 10
17.3348243032
 20
12.5226810423
 40
2.572837052
100
AcDbArc
 50
174.0306762644
 51
175.0305563994
  0
ARC
  5
283
100
AcDbEntity
  8
0
100
AcDbCircle
 62
7
  6
CONTINUOUS
 10
17.1600544829
 20
12.4787821485
 40
2.3969010069
100
AcDbArc
 50
187.0719420152
 51
188.122012463
  0
ARC
  5
284
100
AcDbEntity
  8
0
100
AcDbCircle
 62
7
  6
CONTINUOUS
 10
16.7045191536
 20
12.6249836343
 40
1.9338799571
100
AcDbArc
 50
166.599102193
 51
167.8468827697
  0
ARC
  5
285
100
AcDbEntity
  8
0
100
AcDbCircle
 62
7
  6
CONTINUOUS
 10
16.4481566683
 20
12.3323445327
 40
1.6695610911
100
AcDbArc
 50
194.727600704
 51
196.065255738
  0
ARC
  5
286
100
AcDbEntity
  8
02___PRT_ALL_AXES
100
AcDbCircle
 62
7
  6
CONTINUOUS
 10
16.9360019692
 20
12.7747202106
 40
1.5061194241
100
AcDbArc
 50
160.7272063575
 51
162.8579499184
  0
ARC
  5
287
100
AcDbEntity
  8
02___PRT_ALL_AXES
100
AcDbCircle
 62
7
  6
CONTINUOUS
 10
16.8613366348
 20
12.8005470932
 40
1.4271139438
100
AcDbArc
 50
160.5946269019
 51
160.7165664781
  0
ARC
  5
288
100
AcDbEntity
  8
0
100
AcDbCircle
 62
7
  6
CONTINUOUS
 10
16.3845052853
 20
13.4801062525
 40
1.2978224319
100
AcDbArc
 50
177.0107304825
 51
179.8975279386
  0
ARC
  5
289
100
AcDbEntity
  8
0
100
AcDbCircle
 62
7
  6
CONTINUOUS
 10
16.2850663993
 20
11.509110161
 40
1.274659793
100
AcDbArc
 50
175.5194458168
 51
178.573274046
  0
ARC
  5
28A
100
AcDbEntity
  8
02___PRT_ALL_AXES
100
AcDbCircle
 62
7
  6
CONTINUOUS
 10
16.7101073939
 20
12.164961492
 40
1.2658057318
100
AcDbArc
 50
200.9633642349
 51
201.7797087382
  0
ARC
  5
28B
100
AcDbEntity
  8
0
100
AcDbCircle
 62
7
  6
CONTINUOUS
 10
16.3820211697
 20
11.5668173701
 40
1.2627181525
100
AcDbArc
 50
182.914062232
 51
184.9879390134
  0
ARC
  5
28C
100
AcDbEntity
  8
0
100
AcDbCircle
 62
7
  6
CONTINUOUS
 10
16.2141754489
 20
13.5124334564
 40
1.23791234
100
AcDbArc
 50
183.4067416164
 51
186.5103100978
  0
ARC
  5
28D
100
AcDbEntity
  8
02___PRT_ALL_AXES
100
AcDbCircle
 62
7
  6
CONTINUOUS
 10
16.6806447929
 20
12.1532221018
 40
1.2340904801
100
AcDbArc
 50
201.7811188855
 51
201.9480314276
  0
ARC
  5
28E
100
AcDbEntity
  8
02___PRT_ALL_AXES
100
AcDbCircle
 62
7
  6
CONTINUOUS
 10
16.6682168064
 20
12.1482086319
 40
1.2206893718
100
AcDbArc
 50
201.9477987208
 51
202.1514188915
  0
ARC
  5
28F
100
AcDbEntity
  8
0
100
AcDbCircle
 62
7
  6
CONTINUOUS
 10
15.949865101
 20
12.8578796926
 40
1.1432295403
100
AcDbArc
 50
156.7516060138
 51
158.4653602097
  0
ARC
  5
290
100
AcDbEntity
  8
0
100
AcDbCircle
 62
7
  6
CONTINUOUS
 10
15.9327960365
 20
11.559085539
 40
1.0316142015
100
AcDbArc
 50
168.4423902452
 51
171.9690090492
  0
ARC
  5
291
100
AcDbEntity
  8
0
100
AcDbCircle
 62
7
  6
CONTINUOUS
 10
15.8087101698
 20
13.4222335983
 40
0.9389061285
100
AcDbArc
 50
190.272137698
 51
194.0117359214
  0
ARC
  5
292
100
AcDbEntity
  8
0
100
AcDbCircle
 62
7
  6
CONTINUOUS
 10
15.7345694004
 20
12.0669148261
 40
0.907129462
100
AcDbArc
 50
205.1816985536
 51
207.1928822942
  0
ARC
  5
293
100
AcDbEntity
  8
0
100
AcDbCircle
 62
7
  6
CONTINUOUS
 10
15.4056201563
 20
13.1530265664
 40
0.5224940725
100
AcDbArc
 50
141.1986148034
 51
144.0841956507
  0
ARC
  5
294
100
AcDbEntity
  8
0
100
AcDbCircle
 62
7
  6
CONTINUOUS
 10
15.301192224
 20
11.7797219271
 40
0.3853102082
100
AcDbArc
 50
222.1442545549
 51
225.7065810437
  0
ARC
  5
295
100
AcDbEntity
  8
0
100
AcDbCircle
 62
7
  6
CONTINUOUS
 10
15.196661196
 20
13.3760637837
 40
0.2144901804
100
AcDbArc
 50
113.1964995215
 51
118.4247014541
  0
ARC
  5
296
100
AcDbEntity
  8
AXIS
100
AcDbCircle
 62
7
  6
CONTINUOUS
 10
15.8481109291
 20
11.827187357
 40
0.2018599706
100
AcDbArc
 50
301.6172191778
 51
303.1112588994
  0
ARC
  5
297
100
AcDbEntity
  8
0
100
AcDbCircle
 62
7
  6
CONTINUOUS
 10
15.182959864
 20
11.6095755244
 40
0.1759439648
100
AcDbArc
 50
252.7384227629
 51
258.734136805
  0
ARC
  5
298
100
AcDbEntity
  8
AXIS
100
AcDbCircle
 62
7
  6
CONTINUOUS
 10
15.8759271896
 20
11.7754463832
 40
0.1445638527
100
AcDbArc
 50
254.1881451147
 51
257.6217829938
  0
ARC
  5
299
100
AcDbEntity
  8
AXIS
100
AcDbCircle
 62
7
  6
CONTINUOUS
 10
15.8741929061
 20
11.7668739238
 40
0.1358189781
100
AcDbArc
 50
257.5611800776
 51
269.9509583273
  0
ARC
  5
29A
100
AcDbEntity
  8
AXIS
100
AcDbCircle
 62
7
  6
CONTINUOUS
 10
15.8741915164
 20
13.2547539442
 40
0.1358010947
100
AcDbArc
 50
90.0484618288
 51
102.4159429056
  0
ARC
  5
29B
100
AcDbEntity
  8
02___PRT_ALL_AXES
100
AcDbCircle
 62
7
  6
CONTINUOUS
 10
15.8440979323
 20
11.7642852105
 40
0.1349799673
100
AcDbArc
 50
270.0187782925
 51
279.1835646621
  0
ARC
  5
29C
100
AcDbEntity
  8
02___PRT_ALL_AXES
100
AcDbCircle
 62
7
  6
CONTINUOUS
 10
15.8440980671
 20
13.2574255076
 40
0.1348792349
100
AcDbArc
 50
82.0993108228
 51
89.9812649253
  0
ARC
  5
29D
100
AcDbEntity
  8
0
100
AcDbCircle
 62
7
  6
CONTINUOUS
 10
14.7984793755
 20
12.7280591134
 40
0.0785075373
100
AcDbArc
 50
90.0369043911
 51
101.484315218
  0
ARC
  5
29E
100
AcDbEntity
  8
0
100
AcDbCircle
 62
7
  6
CONTINUOUS
 10
14.9380520834
 20
11.6146192369
 40
0.0764803786
100
AcDbArc
 50
355.5517571793
 51
2.9496681628
  0
SPLINE
  5
29F
100
AcDbEntity
  8
AXIS
100
AcDbSpline
 62
7
  6
CONTINUOUS
 70
0
 71
3
 72
17
 73
13
 74
0
 42
0.0000001
 43
0.0000001
 44
0.0000000001
 40
0.0
 40
0.0
 40
0.0
 40
0.0
 40
0.1205209443
 40
0.2419551097
 40
0.303460797
 40
0.3661370186
 40
0.5000031627
 40
0.6338639781
 40
0.6965396476
 40
0.7580451345
 40
0.8794791958
 40
1.0
 40
1.0
 40
1.0
 40
1.0
 10
16.1881997704
 20
5.308851893
 30
0.0
 10
16.189710062
 20
5.316466273
 30
0.0
 10
16.1924705235
 20
5.3318079406
 30
0.0
 10
16.1952525755
 20
5.3511588166
 30
0.0
 10
16.1971080459
 20
5.3668702433
 30
0.0
 10
16.198798932
 20
5.3834055549
 30
0.0
 10
16.2005375627
 20
5.4046162791
 30
0.0
 10
16.2025085621
 20
5.4258066382
 30
0.0
 10
16.2037146337
 20
5.442383972
 30
0.0
 10
16.2046156167
 20
5.4581788502
 30
0.0
 10
16.2052360672
 20
5.4777188129
 30
0.0
 10
16.2051815971
 20
5.4933067394
 30
0.0
 10
16.2050164736
 20
5.5010676902
 30
0.0
  0
SPLINE
  5
2A0
100
AcDbEntity
  8
AXIS
100
AcDbSpline
 62
7
  6
CONTINUOUS
 70
0
 71
3
 72
17
 73
13
 74
0
 42
0.0000001
 43
0.0000001
 44
0.0000000001
 40
0.0
 40
0.0
 40
0.0
 40
0.0
 40
0.1205188197
 40
0.2419508014
 40
0.3034553089
 40
0.3661300867
 40
0.499998691
 40
0.6338689854
 40
0.6965442055
 40
0.7580487322
 40
0.8794810055
 40
1.0
 40
1.0
 40
1.0
 40
1.0
 10
14.9156940403
 20
5.5010676902
 30
0.0
 10
14.9155289195
 20
5.4933068672
 30
0.0
 10
14.9154744455
 20
5.4777192027
 30
0.0
 10
14.9160948694
 20
5.4581795643
 30
0.0
 10
14.9169958188
 20
5.4423849391
 30
0.0
 10
14.9182018862
 20
5.4258072226
 30
0.0
 10
14.9201730526
 20
5.4046161637
 30
0.0
 10
14.9219116273
 20
5.383404727
 30
0.0
 10
14.9236025828
 20
5.3668692936
 30
0.0
 10
14.925458027
 20
5.351158127
 30
0.0
 10
14.9282400562
 20
5.3318075731
 30
0.0
 10
14.9310004763
 20
5.3164661498
 30
0.0
 10
14.9325107435
 20
5.308851893
 30
0.0
  0
SPLINE
  5
2A1
100
AcDbEntity
  8
02___PRT_ALL_AXES
100
AcDbSpline
 62
7
  6
CONTINUOUS
 70
0
 71
3
 72
41
 73
37
 74
0
 42
0.0000001
 43
0.0000001
 44
0.0000000001
 40
0.0
 40
0.0
 40
0.0
 40
0.0
 40
0.032027984
 40
0.06523626
 40
0.0995132372
 40
0.1347486352
 40
0.1708206164
 40
0.2076023662
 40
0.2449624806
 40
0.2827655305
 40
0.3208732439
 40
0.3591453853
 40
0.3974407022
 40
0.4356177718
 40
0.4735359112
 40
0.5110561355
 40
0.5480420174
 40
0.5843605871
 40
0.6198834288
 40
0.654487665
 40
0.688056953
 40
0.7204826993
 40
0.7516655555
 40
0.7815167724
 40
0.8099598848
 40
0.8369329594
 40
0.8623913221
 40
0.8863106089
 40
0.9086908683
 40
0.9295620004
 40
0.9489902115
 40
0.9581991841
 40
0.9670929312
 40
0.9840167973
 40
0.9921110624
 40
1.0
 40
1.0
 40
1.0
 40
1.0
 10
14.6835712677
 20
13.2897982424
 30
0.0
 10
14.6767662001
 20
13.2677770355
 30
0.0
 10
14.6637767557
 20
13.2226498944
 30
0.0
 10
14.6464055919
 20
13.1531613216
 30
0.0
 10
14.630852143
 20
13.0808807794
 30
0.0
 10
14.6171839742
 20
13.0061254991
 30
0.0
 10
14.6054610713
 20
12.9292174199
 30
0.0
 10
14.5957344391
 20
12.850491217
 30
0.0
 10
14.5880464914
 20
12.7702887596
 30
0.0
 10
14.582431086
 20
12.6889584168
 30
0.0
 10
14.5789127772
 20
12.6068536862
 30
0.0
 10
14.5775067506
 20
12.5243314475
 30
0.0
 10
14.5782191667
 20
12.4417504076
 30
0.0
 10
14.5810471291
 20
12.3594695485
 30
0.0
 10
14.5859781863
 20
12.2778465227
 30
0.0
 10
14.5929906234
 20
12.1972360526
 30
0.0
 10
14.6020538196
 20
12.1179884161
 30
0.0
 10
14.6131283917
 20
12.0404479049
 30
0.0
 10
14.6261657582
 20
11.9649511734
 30
0.0
 10
14.6411088677
 20
11.8918257851
 30
0.0
 10
14.6578925762
 20
11.8213888503
 30
0.0
 10
14.6764439085
 20
11.7539455208
 30
0.0
 10
14.6966818703
 20
11.6897873803
 30
0.0
 10
14.7185185411
 20
11.6291912722
 30
0.0
 10
14.7418596772
 20
11.5724181097
 30
0.0
 10
14.7666051082
 20
11.5197114824
 30
0.0
 10
14.7926493854
 20
11.4712961685
 30
0.0
 10
14.8198830761
 20
11.4273780018
 30
0.0
 10
14.8481956854
 20
11.3881419741
 30
0.0
 10
14.8774719138
 20
11.3537570983
 30
0.0
 10
14.9030236124
 20
11.3288339172
 30
0.0
 10
14.9238437655
 20
11.311607034
 30
0.0
 10
14.9441633571
 20
11.2966756322
 30
0.0
 10
14.9651338359
 20
11.2840273851
 30
0.0
 10
14.986612422
 20
11.2740148499
 30
0.0
 10
14.9973809586
 20
11.2699342332
 30
0.0
 10
15.0027645552
 20
11.2681321081
 30
0.0
  0
SPLINE
  5
2A2
100
AcDbEntity
  8
02___PRT_ALL_AXES
100
AcDbSpline
 62
7
  6
CONTINUOUS
 70
0
 71
3
 72
23
 73
19
 74
0
 42
0.0000001
 43
0.0000001
 44
0.0000000001
 40
0.0
 40
0.0
 40
0.0
 40
0.0
 40
0.053806964
 40
0.1065436262
 40
0.1587499907
 40
0.2109868616
 40
0.2638137874
 40
0.3177673824
 40
0.3733435844
 40
0.4309840408
 40
0.4910705323
 40
0.5539217368
 40
0.6197972432
 40
0.6888996784
 40
0.761382583
 40
0.8373533256
 40
0.9168813554
 40
1.0
 40
1.0
 40
1.0
 40
1.0
 10
15.0807133702
 20
13.7795707244
 30
0.0
 10
15.0878629496
 20
13.7819640816
 30
0.0
 10
15.1022752291
 20
13.7859830201
 30
0.0
 10
15.1242678196
 20
13.7896003175
 30
0.0
 10
15.1463114888
 20
13.7907170452
 30
0.0
 10
15.1683517468
 20
13.7893296339
 30
0.0
 10
15.1903379172
 20
13.7854419364
 30
0.0
 10
15.2122207407
 20
13.7790679661
 30
0.0
 10
15.2339538624
 20
13.7702258357
 30
0.0
 10
15.2554950391
 20
13.7589407563
 30
0.0
 10
15.2768035417
 20
13.7452392237
 30
0.0
 10
15.2978417047
 20
13.7291529185
 30
0.0
 10
15.3185712744
 20
13.7107145486
 30
0.0
 10
15.338956156
 20
13.6899619215
 30
0.0
 10
15.3589586882
 20
13.6669348001
 30
0.0
 10
15.3785434375
 20
13.641678076
 30
0.0
 10
15.3976729009
 20
13.6142401328
 30
0.0
 10
15.4098315291
 20
13.5949536612
 30
0.0
 10
15.4158363374
 20
13.5849742295
 30
0.0
  0
SPLINE
  5
2A3
100
AcDbEntity
  8
02___PRT_ALL_AXES
100
AcDbSpline
 62
7
  6
CONTINUOUS
 70
0
 71
3
 72
23
 73
19
 74
0
 42
0.0000001
 43
0.0000001
 44
0.0000000001
 40
0.0
 40
0.0
 40
0.0
 40
0.0
 40
0.0838346687
 40
0.1650436693
 40
0.2434895293
 40
0.3190804931
 40
0.3917410857
 40
0.4614081462
 40
0.528039855
 40
0.591620661
 40
0.6521628064
 40
0.7097098985
 40
0.7643437711
 40
0.8161881557
 40
0.8654171491
 40
0.9122586948
 40
0.95700246
 40
1.0
 40
1.0
 40
1.0
 40
1.0
 10
14.6835712677
 20
13.2897982424
 30
0.0
 10
14.688366069
 20
13.305314225
 30
0.0
 10
14.6982255265
 20
13.3357326745
 30
0.0
 10
14.7140921159
 20
13.3801587088
 30
0.0
 10
14.7307730664
 20
13.4225751845
 30
0.0
 10
14.7482277138
 20
13.4628816627
 30
0.0
 10
14.7664169024
 20
13.5009871761
 30
0.0
 10
14.7852988114
 20
13.536804914
 30
0.0
 10
14.8048308055
 20
13.5702522834
 30
0.0
 10
14.8249685665
 20
13.6012528906
 30
0.0
 10
14.8456668714
 20
13.6297362964
 30
0.0
 10
14.8668806071
 20
13.6556371225
 30
0.0
 10
14.8885628132
 20
13.6788965349
 30
0.0
 10
14.910668257
 20
13.6994596725
 30
0.0
 10
14.9331488326
 20
13.7172785322
 30
0.0
 10
14.9559599857
 20
13.7323073114
 30
0.0
 10
14.9790478155
 20
13.7445056004
 30
0.0
 10
14.9948661172
 20
13.7508339032
 30
0.0
 10
15.0027645547
 20
13.7534778876
 30
0.0
  0
SPLINE
  5
2A4
100
AcDbEntity
  8
02___PRT_ALL_AXES
100
AcDbSpline
 62
7
  6
CONTINUOUS
 70
0
 71
3
 72
24
 73
20
 74
0
 42
0.0000001
 43
0.0000001
 44
0.0000000001
 40
0.0
 40
0.0
 40
0.0
 40
0.0
 40
0.0538251547
 40
0.1065801045
 40
0.1588040921
 40
0.211056933
 40
0.2638973796
 40
0.3178613749
 40
0.3734442286
 40
0.4310874388
 40
0.4608104068
 40
0.4911859486
 40
0.5540316103
 40
0.6198972754
 40
0.6889862868
 40
0.7614518864
 40
0.8374024731
 40
0.9169070699
 40
1.0
 40
1.0
 40
1.0
 40
1.0
 10
15.080713371
 20
11.2420392785
 30
0.0
 10
15.0878563284
 20
11.2396483341
 30
0.0
 10
15.1022548456
 20
11.2356321309
 30
0.0
 10
15.1242263464
 20
11.2320150231
 30
0.0
 10
15.1462488312
 20
11.23089327
 30
0.0
 10
15.1682680782
 20
11.2322712414
 30
0.0
 10
15.1902335502
 20
11.2361443399
 30
0.0
 10
15.2120962023
 20
11.2424995504
 30
0.0
 10
15.2338091946
 20
11.2513175577
 30
0.0
 10
15.2515626439
 20
11.2606035778
 30
0.0
 10
15.2656317164
 20
11.2691880793
 30
0.0
 10
15.2799285446
 20
11.2787684257
 30
0.0
 10
15.2976432592
 20
11.2922941255
 30
0.0
 10
15.3183559676
 20
11.3106910132
 30
0.0
 10
15.3387254798
 20
11.3313992338
 30
0.0
 10
15.3587140032
 20
11.3543775947
 30
0.0
 10
15.378285589
 20
11.3795823189
 30
0.0
 10
15.3974036459
 20
11.406964501
 30
0.0
 10
15.4095556928
 20
11.4262127133
 30
0.0
 10
15.4155573611
 20
11.4361725403
 30
0.0
  0
SPLINE
  5
2A5
100
AcDbEntity
  8
02___PRT_ALL_AXES
100
AcDbSpline
 62
7
  6
CONTINUOUS
 70
0
 71
3
 72
36
 73
32
 74
0
 42
0.0000001
 43
0.0000001
 44
0.0000000001
 40
0.0
 40
0.0
 40
0.0
 40
0.0
 40
0.093942988
 40
0.1828276518
 40
0.2252768149
 40
0.266356191
 40
0.306041941
 40
0.3443158623
 40
0.3811692573
 40
0.4166008001
 40
0.4506191713
 40
0.483243099
 40
0.514503058
 40
0.5444435449
 40
0.5731230268
 40
0.6006176138
 40
0.6524041878
 40
0.6769833031
 40
0.7008695899
 40
0.724234021
 40
0.747262216
 40
0.7701504063
 40
0.7930991448
 40
0.8163070764
 40
0.8399647006
 40
0.8642493568
 40
0.8893209578
 40
0.9153208077
 40
0.9423693982
 40
0.9705683484
 40
1.0
 40
1.0
 40
1.0
 40
1.0
 10
14.8295220434
 20
13.2269974525
 30
0.0
 10
14.8367088575
 20
13.2502539915
 30
0.0
 10
14.8517079425
 20
13.2952108916
 30
0.0
 10
14.8729743054
 20
13.3496036429
 30
0.0
 10
14.8910375853
 20
13.3904696203
 30
0.0
 10
14.9048326268
 20
13.4192675896
 30
0.0
 10
14.919060598
 20
13.4466409008
 30
0.0
 10
14.9337007483
 20
13.4725460866
 30
0.0
 10
14.9487291169
 20
13.4969432096
 30
0.0
 10
14.9641235251
 20
13.5197939923
 30
0.0
 10
14.9798599125
 20
13.5410632222
 30
0.0
 10
14.9959143267
 20
13.5607178016
 30
0.0
 10
15.0122633718
 20
13.5787267471
 30
0.0
 10
15.0288807531
 20
13.5950620748
 30
0.0
 10
15.045746328
 20
13.6096985475
 30
0.0
 10
15.0680719704
 20
13.6265751649
 30
0.0
 10
15.0912822571
 20
13.640462822
 30
0.0
 10
15.1151458444
 20
13.6507987443
 30
0.0
 10
15.1328533822
 20
13.6566201769
 30
0.0
 10
15.1506459359
 20
13.660630782
 30
0.0
 10
15.1684941603
 20
13.6628196187
 30
0.0
 10
15.1863651978
 20
13.6631830463
 30
0.0
 10
15.2042263425
 20
13.6617183857
 30
0.0
 10
15.2220449099
 20
13.6584305107
 30
0.0
 10
15.2397895075
 20
13.6533273018
 30
0.0
 10
15.2574298865
 20
13.6464198763
 30
0.0
 10
15.274938426
 20
13.6377241147
 30
0.0
 10
15.2922872645
 20
13.6272553527
 30
0.0
 10
15.3094517116
 20
13.6150339916
 30
0.0
 10
15.3264048812
 20
13.6010803525
 30
0.0
 10
15.3373102225
 20
13.5908632922
 30
0.0
 10
15.3427230647
 20
13.585491324
 30
0.0
  0
SPLINE
  5
2A6
100
AcDbEntity
  8
02___PRT_ALL_AXES
100
AcDbSpline
 62
7
  6
CONTINUOUS
 70
0
 71
3
 72
23
 73
19
 74
0
 42
0.0000001
 43
0.0000001
 44
0.0000000001
 40
0.0
 40
0.0
 40
0.0
 40
0.0
 40
0.0838355116
 40
0.1650438588
 40
0.2434892108
 40
0.3190803759
 40
0.3917412439
 40
0.461408081
 40
0.5280398503
 40
0.5916205888
 40
0.6521628369
 40
0.7097098466
 40
0.7643437255
 40
0.8161881423
 40
0.8654170381
 40
0.912258705
 40
0.9570023237
 40
1.0
 40
1.0
 40
1.0
 40
1.0
 10
14.7548179136
 20
13.3061549473
 30
0.0
 10
14.759713442
 20
13.3219968831
 30
0.0
 10
14.7697798905
 20
13.3530540886
 30
0.0
 10
14.7859796844
 20
13.3984128655
 30
0.0
 10
14.8030107846
 20
13.4417198116
 30
0.0
 10
14.8208320072
 20
13.482872576
 30
0.0
 10
14.8394029861
 20
13.521778325
 30
0.0
 10
14.8586815494
 20
13.558348065
 30
0.0
 10
14.8786234754
 20
13.5924977971
 30
0.0
 10
14.8991842427
 20
13.6241492469
 30
0.0
 10
14.9203170008
 20
13.6532308281
 30
0.0
 10
14.9419762776
 20
13.6796754241
 30
0.0
 10
14.9641137182
 20
13.7034232305
 30
0.0
 10
14.9866832556
 20
13.7244182045
 30
0.0
 10
15.0096360154
 20
13.7426110147
 30
0.0
 10
15.0329259146
 20
13.7579556823
 30
0.0
 10
15.0564987847
 20
13.7704096518
 30
0.0
 10
15.0726490786
 20
13.7768711627
 30
0.0
 10
15.0807133702
 20
13.7795707244
 30
0.0
  0
SPLINE
  5
2A7
100
AcDbEntity
  8
02___PRT_ALL_AXES
100
AcDbSpline
 62
7
  6
CONTINUOUS
 70
0
 71
3
 72
42
 73
38
 74
0
 42
0.0000001
 43
0.0000001
 44
0.0000000001
 40
0.0
 40
0.0
 40
0.0
 40
0.0
 40
0.032027988
 40
0.0652357846
 40
0.0995126316
 40
0.134747838
 40
0.170819558
 40
0.2076011088
 40
0.2449610003
 40
0.2827638081
 40
0.3208712931
 40
0.3591432079
 40
0.3974382857
 40
0.4356151255
 40
0.473533048
 40
0.5110530333
 40
0.5480386696
 40
0.5843570468
 40
0.6198796949
 40
0.6544836836
 40
0.6880527387
 40
0.7204783451
 40
0.7516610362
 40
0.7815120076
 40
0.8099549229
 40
0.8369279088
 40
0.8623861361
 40
0.8863051984
 40
0.9086853121
 40
0.9295563885
 40
0.9394478891
 40
0.9489905497
 40
0.9581994309
 40
0.9670930949
 40
0.9840168605
 40
0.9921110945
 40
1.0
 40
1.0
 40
1.0
 40
1.0
 10
14.7548179136
 20
13.3061549473
 30
0.0
 10
14.7478699153
 20
13.2836712165
 30
0.0
 10
14.7346076997
 20
13.2375965985
 30
0.0
 10
14.716871856
 20
13.1666489411
 30
0.0
 10
14.7009918595
 20
13.0928508346
 30
0.0
 10
14.687036658
 20
13.0165258633
 30
0.0
 10
14.6750675854
 20
12.9380029265
 30
0.0
 10
14.6651367418
 20
12.8576236975
 30
0.0
 10
14.6572874339
 20
12.7757371923
 30
0.0
 10
14.6515540534
 20
12.6926991464
 30
0.0
 10
14.6479618181
 20
12.6088704472
 30
0.0
 10
14.6465263351
 20
12.5246154656
 30
0.0
 10
14.6472537905
 20
12.4403004527
 30
0.0
 10
14.6501410188
 20
12.3562919132
 30
0.0
 10
14.6551755639
 20
12.2729550217
 30
0.0
 10
14.6623353394
 20
12.1906519754
 30
0.0
 10
14.6715889278
 20
12.1097403724
 30
0.0
 10
14.682895882
 20
12.0305716822
 30
0.0
 10
14.696206949
 20
11.9534897076
 30
0.0
 10
14.7114639526
 20
11.8788289464
 30
0.0
 10
14.7286001566
 20
11.8069130606
 30
0.0
 10
14.747540835
 20
11.7380535189
 30
0.0
 10
14.7682036909
 20
11.6725482044
 30
0.0
 10
14.7904990441
 20
11.6106798494
 30
0.0
 10
14.8143303244
 20
11.5527146653
 30
0.0
 10
14.8395951961
 20
11.4989011378
 30
0.0
 10
14.8661861266
 20
11.4494694035
 30
0.0
 10
14.8939924029
 20
11.4046285405
 30
0.0
 10
14.922897669
 20
11.3645711467
 30
0.0
 10
14.9482458311
 20
11.3347986043
 30
0.0
 10
14.9689971047
 20
11.313655599
 30
0.0
 10
14.9844763325
 20
11.2993831635
 30
0.0
 10
15.0001356812
 20
11.2864270963
 30
0.0
 10
15.0208816801
 20
11.2711824846
 30
0.0
 10
15.0422925523
 20
11.2582685232
 30
0.0
 10
15.0642221185
 20
11.2480457453
 30
0.0
 10
15.0752166959
 20
11.2438791668
 30
0.0
 10
15.080713371
 20
11.2420392785
 30
0.0
  0
SPLINE
  5
2A8
100
AcDbEntity
  8
02___PRT_ALL_AXES
100
AcDbSpline
 62
7
  6
CONTINUOUS
 70
0
 71
3
 72
53
 73
49
 74
0
 42
0.0000001
 43
0.0000001
 44
0.0000000001
 40
0.0
 40
0.0
 40
0.0
 40
0.0
 40
0.03542403
 40
0.072418166
 40
0.1107970506
 40
0.1503637972
 40
0.1909061048
 40
0.2322025944
 40
0.2740239192
 40
0.3161356549
 40
0.3583005111
 40
0.4002806838
 40
0.4418401681
 40
0.4827470923
 40
0.5227760997
 40
0.5617108235
 40
0.5993465096
 40
0.6354928669
 40
0.6699772605
 40
0.6865493158
 40
0.7026512861
 40
0.7182681727
 40
0.733387266
 40
0.7479977977
 40
0.762091498
 40
0.7756628537
 40
0.7887091453
 40
0.801231385
 40
0.8132339829
 40
0.8247261053
 40
0.8357214034
 40
0.8462393101
 40
0.856305244
 40
0.8659514299
 40
0.8752175533
 40
0.8841508383
 40
0.8928065377
 40
0.9012470424
 40
0.909541266
 40
0.9177626719
 40
0.9259872215
 40
0.9342907373
 40
0.9427464484
 40
0.9514226625
 40
0.9603814041
 40
0.9793417585
 40
0.9894437098
 40
1.0
 40
1.0
 40
1.0
 40
1.0
 10
14.8295220434
 20
13.2269974525
 30
0.0
 10
14.8217549526
 20
13.2018631373
 30
0.0
 10
14.807113856
 20
13.1500917535
 30
0.0
 10
14.788129893
 20
13.0700079145
 30
0.0
 10
14.771739671
 20
12.9862165876
 30
0.0
 10
14.7580526029
 20
12.8992754322
 30
0.0
 10
14.7471604683
 20
12.8097581713
 30
0.0
 10
14.7391359047
 20
12.7182585536
 30
0.0
 10
14.7340327475
 20
12.6253829154
 30
0.0
 10
14.731885113
 20
12.5317472625
 30
0.0
 10
14.7327074229
 20
12.4379726807
 30
0.0
 10
14.7364941681
 20
12.3446812302
 30
0.0
 10
14.7432199761
 20
12.2524916751
 30
0.0
 10
14.7528398182
 20
12.1620152958
 30
0.0
 10
14.765289319
 20
12.0738516562
 30
0.0
 10
14.7804852182
 20
11.988584723
 30
0.0
 10
14.7983259875
 20
11.9067779947
 30
0.0
 10
14.8186926039
 20
11.8289734617
 30
0.0
 10
14.8379030339
 20
11.7671002959
 30
0.0
 10
14.8544880153
 20
11.7200594213
 30
0.0
 10
14.8673036692
 20
11.6865601743
 30
0.0
 10
14.8806402902
 20
11.6544298816
 30
0.0
 10
14.8944753177
 20
11.6237213597
 30
0.0
 10
14.9087862074
 20
11.5944854519
 30
0.0
 10
14.9235494864
 20
11.5667704532
 30
0.0
 10
14.9387404146
 20
11.5406217893
 30
0.0
 10
14.9543350974
 20
11.5160829537
 30
0.0
 10
14.9703070165
 20
11.4931936658
 30
0.0
 10
14.9866317532
 20
11.4719923363
 30
0.0
 10
15.0032819429
 20
11.4525130762
 30
0.0
 10
15.0202322583
 20
11.4347888108
 30
0.0
 10
15.037455477
 20
11.418848676
 30
0.0
 10
15.0549250423
 20
11.4047198578
 30
0.0
 10
15.072614163
 20
11.3924275035
 30
0.0
 10
15.0904947332
 20
11.3819932138
 30
0.0
 10
15.1085393121
 20
11.3734388605
 30
0.0
 10
15.1267174489
 20
11.3667807351
 30
0.0
 10
15.1449986882
 20
11.3620363022
 30
0.0
 10
15.1633492318
 20
11.3592157039
 30
0.0
 10
15.1817344369
 20
11.3583280245
 30
0.0
 10
15.2001180793
 20
11.3593749769
 30
0.0
 10
15.2184643887
 20
11.3623536665
 30
0.0
 10
15.2367379581
 20
11.3672566227
 30
0.0
 10
15.2549073265
 20
11.3740708653
 30
0.0
 10
15.2794065043
 20
11.385904968
 30
0.0
 10
15.3031458339
 20
11.4014499603
 30
0.0
 10
15.3259250689
 20
11.4200899983
 30
0.0
 10
15.3371402451
 20
11.4305785041
 30
0.0
 10
15.3427048028
 20
11.436100524
 30
0.0
  0
SPLINE
  5
2A9
100
AcDbEntity
  8
02___PRT_ALL_AXES
100
AcDbSpline
 62
7
  6
CONTINUOUS
 70
0
 71
3
 72
26
 73
22
 74
0
 42
0.0000001
 43
0.0000001
 44
0.0000000001
 40
0.0
 40
0.0
 40
0.0
 40
0.0
 40
0.0212796336
 40
0.042653011
 40
0.0642125278
 40
0.0860474988
 40
0.1308550889
 40
0.1777181548
 40
0.2020942809
 40
0.2271682584
 40
0.2795803543
 40
0.3352805039
 40
0.3944893653
 40
0.4573486701
 40
0.5239358827
 40
0.5942730385
 40
0.6683324703
 40
0.7460464504
 40
0.8273219664
 40
0.9120372304
 40
1.0
 40
1.0
 40
1.0
 40
1.0
 10
15.8441421711
 20
13.3923047353
 30
0.0
 10
15.8409223198
 20
13.3923046992
 30
0.0
 10
15.8344660158
 20
13.3920710798
 30
0.0
 10
15.8247989292
 20
13.3910211969
 30
0.0
 10
15.8151476497
 20
13.3892716416
 30
0.0
 10
15.8022039373
 20
13.385982355
 30
0.0
 10
15.7860272727
 20
13.3800564395
 30
0.0
 10
15.7703854718
 20
13.371984127
 30
0.0
 10
15.7580330074
 20
13.3642404294
 30
0.0
 10
15.7454248234
 20
13.3553636746
 30
0.0
 10
15.7298585094
 20
13.3425115612
 30
0.0
 10
15.7118299599
 20
13.3246960828
 30
0.0
 10
15.6942318096
 20
13.3043202794
 30
0.0
 10
15.6771153787
 20
13.2814498995
 30
0.0
 10
15.6605308692
 20
13.2561550586
 30
0.0
 10
15.6445284958
 20
13.2285141508
 30
0.0
 10
15.6291566834
 20
13.1986136008
 30
0.0
 10
15.6144632104
 20
13.1665457677
 30
0.0
 10
15.6004927296
 20
13.1324089118
 30
0.0
 10
15.5872917261
 20
13.0963129429
 30
0.0
 10
15.5791774403
 20
13.0714706118
 30
0.0
 10
15.5752477656
 20
13.0587541799
 30
0.0
  0
SPLINE
  5
2AA
100
AcDbEntity
  8
02___PRT_ALL_AXES
100
AcDbSpline
 62
7
  6
CONTINUOUS
 70
0
 71
3
 72
28
 73
24
 74
0
 42
0.0000001
 43
0.0000001
 44
0.0000000001
 40
0.0
 40
0.0
 40
0.0
 40
0.0
 40
0.022910253
 40
0.0454449955
 40
0.0677236623
 40
0.0898711362
 40
0.112014933
 40
0.1342827335
 40
0.1567994808
 40
0.1796851489
 40
0.2030525826
 40
0.2270056094
 40
0.2770098096
 40
0.3303593094
 40
0.3875243486
 40
0.4488308955
 40
0.5144813152
 40
0.5845749623
 40
0.6591273658
 40
0.7380837637
 40
0.8213278067
 40
0.9087067175
 40
1.0
 40
1.0
 40
1.0
 40
1.0
 10
15.8615115659
 20
13.7795707074
 30
0.0
 10
15.8562654083
 20
13.7813267406
 30
0.0
 10
15.8457237369
 20
13.7844217633
 30
0.0
 10
15.8297029792
 20
13.7877860677
 30
0.0
 10
15.813643892
 20
13.7898215867
 30
0.0
 10
15.7975660855
 20
13.7905258872
 30
0.0
 10
15.7814876304
 20
13.7898981057
 30
0.0
 10
15.7654272556
 20
13.787938103
 30
0.0
 10
15.7494030307
 20
13.7846500475
 30
0.0
 10
15.7334330061
 20
13.7800379006
 30
0.0
 10
15.7175341406
 20
13.7741073611
 30
0.0
 10
15.6961503969
 20
13.7643157975
 30
0.0
 10
15.6696049174
 20
13.7486223081
 30
0.0
 10
15.6388115778
 20
13.7249504531
 30
0.0
 10
15.6087225943
 20
13.6962840579
 30
0.0
 10
15.5794486623
 20
13.6627489981
 30
0.0
 10
15.5510940663
 20
13.6244822577
 30
0.0
 10
15.5237658842
 20
13.5816384566
 30
0.0
 10
15.4975703573
 20
13.5343896932
 30
0.0
 10
15.4726122917
 20
13.4829271973
 30
0.0
 10
15.4489908554
 20
13.4274583332
 30
0.0
 10
15.4268047935
 20
13.3682118393
 30
0.0
 10
15.4133136278
 20
13.3272172415
 30
0.0
 10
15.4068048867
 20
13.3061549473
 30
0.0
  0
SPLINE
  5
2AB
100
AcDbEntity
  8
02___PRT_ALL_AXES
100
AcDbSpline
 62
7
  6
CONTINUOUS
 70
0
 71
3
 72
23
 73
19
 74
0
 42
0.0000001
 43
0.0000001
 44
0.0000000001
 40
0.0
 40
0.0
 40
0.0
 40
0.0
 40
0.0838346687
 40
0.1650436693
 40
0.2434895293
 40
0.3190804931
 40
0.3917410857
 40
0.4614081462
 40
0.528039855
 40
0.591620661
 40
0.6521628064
 40
0.7097098985
 40
0.7643437711
 40
0.8161881557
 40
0.8654171491
 40
0.9122586948
 40
0.95700246
 40
1.0
 40
1.0
 40
1.0
 40
1.0
 10
16.2586536692
 20
11.7318117435
 30
0.0
 10
16.253858868
 20
11.7162957608
 30
0.0
 10
16.2439994105
 20
11.6858773113
 30
0.0
 10
16.228132821
 20
11.641451277
 30
0.0
 10
16.2114518705
 20
11.5990348013
 30
0.0
 10
16.1939972232
 20
11.5587283231
 30
0.0
 10
16.1758080346
 20
11.5206228097
 30
0.0
 10
16.1569261255
 20
11.4848050719
 30
0.0
 10
16.1373941315
 20
11.4513577025
 30
0.0
 10
16.1172563704
 20
11.4203570952
 30
0.0
 10
16.0965580655
 20
11.3918736894
 30
0.0
 10
16.0753443298
 20
11.3659728633
 30
0.0
 10
16.0536621237
 20
11.3427134509
 30
0.0
 10
16.0315566799
 20
11.3221503133
 30
0.0
 10
16.0090761043
 20
11.3043314537
 30
0.0
 10
15.9862649513
 20
11.2893026744
 30
0.0
 10
15.9631771215
 20
11.2771043854
 30
0.0
 10
15.9473588197
 20
11.2707760826
 30
0.0
 10
15.9394603822
 20
11.2681320982
 30
0.0
  0
SPLINE
  5
2AC
100
AcDbEntity
  8
02___PRT_ALL_AXES
100
AcDbSpline
 62
7
  6
CONTINUOUS
 70
0
 71
3
 72
41
 73
37
 74
0
 42
0.0000001
 43
0.0000001
 44
0.0000000001
 40
0.0
 40
0.0
 40
0.0
 40
0.0
 40
0.032027984
 40
0.06523626
 40
0.0995132372
 40
0.1347486352
 40
0.1708206164
 40
0.2076023662
 40
0.2449624806
 40
0.2827655305
 40
0.3208732439
 40
0.3591453853
 40
0.3974407022
 40
0.4356177718
 40
0.4735359112
 40
0.5110561355
 40
0.5480420174
 40
0.5843605871
 40
0.6198834288
 40
0.654487665
 40
0.688056953
 40
0.7204826993
 40
0.7516655555
 40
0.7815167724
 40
0.8099598848
 40
0.8369329594
 40
0.8623913221
 40
0.8863106089
 40
0.9086908683
 40
0.9295620004
 40
0.9489902115
 40
0.9581991841
 40
0.9670929312
 40
0.9840167973
 40
0.9921110624
 40
1.0
 40
1.0
 40
1.0
 40
1.0
 10
16.2586536692
 20
11.7318117435
 30
0.0
 10
16.2654587369
 20
11.7538329503
 30
0.0
 10
16.2784481812
 20
11.7989600914
 30
0.0
 10
16.2958193451
 20
11.8684486642
 30
0.0
 10
16.3113727939
 20
11.9407292064
 30
0.0
 10
16.3250409627
 20
12.0154844868
 30
0.0
 10
16.3367638657
 20
12.0923925659
 30
0.0
 10
16.3464904979
 20
12.1711187688
 30
0.0
 10
16.3541784455
 20
12.2513212262
 30
0.0
 10
16.3597938509
 20
12.332651569
 30
0.0
 10
16.3633121597
 20
12.4147562996
 30
0.0
 10
16.3647181864
 20
12.4972785383
 30
0.0
 10
16.3640057702
 20
12.5798595782
 30
0.0
 10
16.3611778078
 20
12.6621404373
 30
0.0
 10
16.3562467507
 20
12.7437634631
 30
0.0
 10
16.3492343136
 20
12.8243739332
 30
0.0
 10
16.3401711173
 20
12.9036215697
 30
0.0
 10
16.3290965453
 20
12.9811620809
 30
0.0
 10
16.3160591788
 20
13.0566588124
 30
0.0
 10
16.3011160693
 20
13.1297842007
 30
0.0
 10
16.2843323608
 20
13.2002211356
 30
0.0
 10
16.2657810285
 20
13.267664465
 30
0.0
 10
16.2455430667
 20
13.3318226055
 30
0.0
 10
16.2237063958
 20
13.3924187136
 30
0.0
 10
16.2003652598
 20
13.4491918761
 30
0.0
 10
16.1756198287
 20
13.5018985034
 30
0.0
 10
16.1495755515
 20
13.5503138173
 30
0.0
 10
16.1223418608
 20
13.5942319841
 30
0.0
 10
16.0940292515
 20
13.6334680117
 30
0.0
 10
16.0647530231
 20
13.6678528875
 30
0.0
 10
16.0392013245
 20
13.6927760686
 30
0.0
 10
16.0183811715
 20
13.7100029518
 30
0.0
 10
15.9980615799
 20
13.7249343536
 30
0.0
 10
15.977091101
 20
13.7375826008
 30
0.0
 10
15.955612515
 20
13.7475951359
 30
0.0
 10
15.9448439783
 20
13.7516757526
 30
0.0
 10
15.9394603817
 20
13.7534778777
 30
0.0
  0
SPLINE
  5
2AD
100
AcDbEntity
  8
02___PRT_ALL_AXES
100
AcDbSpline
 62
7
  6
CONTINUOUS
 70
0
 71
3
 72
51
 73
47
 74
0
 42
0.0000001
 43
0.0000001
 44
0.0000000001
 40
0.0
 40
0.0
 40
0.0
 40
0.0
 40
0.0081714454
 40
0.0161957385
 40
0.0241301345
 40
0.0320343358
 40
0.0399688934
 40
0.0479935344
 40
0.0561654719
 40
0.0645381762
 40
0.0731603068
 40
0.0820750813
 40
0.0913202393
 40
0.1009276876
 40
0.1109242538
 40
0.1213315067
 40
0.1321665922
 40
0.1434424753
 40
0.1551682523
 40
0.1673499345
 40
0.1799901888
 40
0.193089343
 40
0.2066450501
 40
0.2206529291
 40
0.2351066795
 40
0.2499980496
 40
0.2810512447
 40
0.3137205666
 40
0.3478916827
 40
0.3834338098
 40
0.4202023121
 40
0.4580409341
 40
0.4967837796
 40
0.5362571118
 40
0.5762810488
 40
0.616671197
 40
0.6572402064
 40
0.6977992945
 40
0.7381597508
 40
0.7781344514
 40
0.8175394108
 40
0.8561952607
 40
0.8939293
 40
0.9305756893
 40
0.9659813465
 40
1.0
 40
1.0
 40
1.0
 40
1.0
 10
15.8615115668
 20
11.2420392614
 30
0.0
 10
15.8554793299
 20
11.2400199401
 30
0.0
 10
15.8433433581
 20
11.2365307957
 30
0.0
 10
15.8248677162
 20
11.2329982038
 30
0.0
 10
15.8063471595
 20
11.2312306463
 30
0.0
 10
15.7878123713
 20
11.2312336226
 30
0.0
 10
15.7692921031
 20
11.2330052677
 30
0.0
 10
15.7508156007
 20
11.2365436975
 30
0.0
 10
15.7324106334
 20
11.241840067
 30
0.0
 10
15.714104254
 20
11.2488851387
 30
0.0
 10
15.6959221195
 20
11.2576660382
 30
0.0
 10
15.6778884207
 20
11.2681675798
 30
0.0
 10
15.660027632
 20
11.2803742613
 30
0.0
 10
15.642362007
 20
11.2942665883
 30
0.0
 10
15.6249153871
 20
11.3098257
 30
0.0
 10
15.6077095905
 20
11.3270288561
 30
0.0
 10
15.5907674448
 20
11.3458526934
 30
0.0
 10
15.5741112836
 20
11.3662714083
 30
0.0
 10
15.557762565
 20
11.3882568204
 30
0.0
 10
15.541743994
 20
11.4117795743
 30
0.0
 10
15.5260759552
 20
11.4368070843
 30
0.0
 10
15.5107805314
 20
11.463305828
 30
0.0
 10
15.4958777197
 20
11.4912394087
 30
0.0
 10
15.481388034
 20
11.5205698819
 30
0.0
 10
15.4673311956
 20
11.5512574291
 30
0.0
 10
15.4489342507
 20
11.5945327969
 30
0.0
 10
15.4272234938
 20
11.6517806616
 30
0.0
 10
15.4035386658
 20
11.7242393575
 30
0.0
 10
15.3819994016
 20
11.8009988148
 30
0.0
 10
15.3627239749
 20
11.8816396631
 30
0.0
 10
15.3458183058
 20
11.9657228279
 30
0.0
 10
15.3313755065
 20
12.0527891052
 30
0.0
 10
15.3194752093
 20
12.1423626657
 30
0.0
 10
15.3101830631
 20
12.233953521
 30
0.0
 10
15.3035502784
 20
12.3270603794
 30
0.0
 10
15.2996134315
 20
12.4211734792
 30
0.0
 10
15.2983942355
 20
12.515777456
 30
0.0
 10
15.2998994266
 20
12.6103542073
 30
0.0
 10
15.3041207181
 20
12.70438577
 30
0.0
 10
15.3110348542
 20
12.7973572251
 30
0.0
 10
15.3206037141
 20
12.8887595014
 30
0.0
 10
15.3327743649
 20
12.9780926278
 30
0.0
 10
15.3474799014
 20
13.0648672781
 30
0.0
 10
15.3646389776
 20
13.1486110504
 30
0.0
 10
15.3841573001
 20
13.2288631744
 30
0.0
 10
15.3989859634
 20
13.2808529023
 30
0.0
 10
15.4068048867
 20
13.3061549473
 30
0.0
  0
SPLINE
  5
2AE
100
AcDbEntity
  8
02___PRT_ALL_AXES
100
AcDbSpline
 62
7
  6
CONTINUOUS
 70
0
 71
3
 72
43
 73
39
 74
0
 42
0.0000001
 43
0.0000001
 44
0.0000000001
 40
0.0
 40
0.0
 40
0.0
 40
0.0
 40
0.0076947607
 40
0.015442019
 40
0.0232929451
 40
0.0312961753
 40
0.0394970876
 40
0.0479367613
 40
0.0656641521
 40
0.0750215336
 40
0.0847367001
 40
0.1053064141
 40
0.1274888481
 40
0.1513416513
 40
0.1768817904
 40
0.2040926672
 40
0.2329309701
 40
0.2633310319
 40
0.295208009
 40
0.3284615834
 40
0.3629780415
 40
0.3986319089
 40
0.4352883296
 40
0.4728043381
 40
0.5110300481
 40
0.5498104253
 40
0.5889863014
 40
0.6283955388
 40
0.6678744448
 40
0.7072587361
 40
0.7463848769
 40
0.7850911562
 40
0.8232187825
 40
0.860613841
 40
0.8971268375
 40
0.9326152595
 40
0.9669510056
 40
1.0
 40
1.0
 40
1.0
 40
1.0
 10
15.844142171
 20
11.6293052505
 30
0.0
 10
15.840131253
 20
11.6293052054
 30
0.0
 10
15.8320773893
 20
11.6296682698
 30
0.0
 10
15.8200308204
 20
11.631300946
 30
0.0
 10
15.808016473
 20
11.6340184524
 30
0.0
 10
15.7960514623
 20
11.6378155324
 30
0.0
 10
15.7841506346
 20
11.6426876699
 30
0.0
 10
15.7681295453
 20
11.6507352904
 30
0.0
 10
15.7525406177
 20
11.6608542117
 30
0.0
 10
15.7374818083
 20
11.6727476433
 30
0.0
 10
15.7220325986
 20
11.6864871057
 30
0.0
 10
15.7031313604
 20
11.7063236764
 30
0.0
 10
15.6815828576
 20
11.7335966307
 30
0.0
 10
15.6608410632
 20
11.7646502359
 30
0.0
 10
15.6410019764
 20
11.7993348749
 30
0.0
 10
15.6221564868
 20
11.8374859093
 30
0.0
 10
15.6043945738
 20
11.8789206734
 30
0.0
 10
15.5878021741
 20
11.9234399105
 30
0.0
 10
15.5724592378
 20
11.9708280135
 30
0.0
 10
15.5584409134
 20
12.0208550683
 30
0.0
 10
15.5458163502
 20
12.0732777483
 30
0.0
 10
15.534646951
 20
12.1278403393
 30
0.0
 10
15.5249878123
 20
12.1842765236
 30
0.0
 10
15.5168869201
 20
12.2423106084
 30
0.0
 10
15.5103836112
 20
12.3016587451
 30
0.0
 10
15.5055100406
 20
12.3620306042
 30
0.0
 10
15.5022906673
 20
12.4231307772
 30
0.0
 10
15.5007408253
 20
12.4846601593
 30
0.0
 10
15.5008682264
 20
12.5463175277
 30
0.0
 10
15.5026726976
 20
12.6078010431
 30
0.0
 10
15.5061448463
 20
12.668809721
 30
0.0
 10
15.5112675781
 20
12.7290449034
 30
0.0
 10
15.5180160935
 20
12.7882119394
 30
0.0
 10
15.5263568294
 20
12.8460212571
 30
0.0
 10
15.5362483681
 20
12.9021897412
 30
0.0
 10
15.5476427773
 20
12.9564454235
 30
0.0
 10
15.5604839378
 20
13.0085192582
 30
0.0
 10
15.5701615712
 20
13.0422952488
 30
0.0
 10
15.5752477656
 20
13.0587541799
 30
0.0
  0
SPLINE
  5
2AF
100
AcDbEntity
  8
02___PRT_ALL_AXES
100
AcDbSpline
 62
7
  6
CONTINUOUS
 70
0
 71
3
 72
28
 73
24
 74
0
 42
0.0000001
 43
0.0000001
 44
0.0000000001
 40
0.0
 40
0.0
 40
0.0
 40
0.0
 40
0.0229103438
 40
0.0454450179
 40
0.067723699
 40
0.089871177
 40
0.1120149863
 40
0.1342827661
 40
0.1567994896
 40
0.1796852356
 40
0.2030525804
 40
0.2270056371
 40
0.2770097821
 40
0.3303593849
 40
0.3875244532
 40
0.4488308738
 40
0.5144813164
 40
0.5845750017
 40
0.6591274967
 40
0.7380837007
 40
0.8213276188
 40
0.9087073739
 40
1.0
 40
1.0
 40
1.0
 40
1.0
 10
15.9394603817
 20
13.7534778777
 30
0.0
 10
15.9343221181
 20
13.7551978792
 30
0.0
 10
15.9239973308
 20
13.758229619
 30
0.0
 10
15.908305915
 20
13.7615242106
 30
0.0
 10
15.892577141
 20
13.7635179604
 30
0.0
 10
15.8768299703
 20
13.7642082132
 30
0.0
 10
15.8610822002
 20
13.7635926903
 30
0.0
 10
15.8453520948
 20
13.7616733927
 30
0.0
 10
15.8296573584
 20
13.758453061
 30
0.0
 10
15.8140159157
 20
13.7539353104
 30
0.0
 10
15.7984438441
 20
13.7481271961
 30
0.0
 10
15.777500018
 20
13.7385367038
 30
0.0
 10
15.7515002826
 20
13.7231662557
 30
0.0
 10
15.7213403598
 20
13.699980966
 30
0.0
 10
15.6918701997
 20
13.6719040998
 30
0.0
 10
15.6631981621
 20
13.6390588365
 30
0.0
 10
15.6354267476
 20
13.6015790365
 30
0.0
 10
15.6086606082
 20
13.5596162757
 30
0.0
 10
15.5830038205
 20
13.5133392099
 30
0.0
 10
15.5585589692
 20
13.4629351477
 30
0.0
 10
15.5354232954
 20
13.4086068933
 30
0.0
 10
15.513693558
 20
13.350578789
 30
0.0
 10
15.5004797831
 20
13.3104272342
 30
0.0
 10
15.4941049424
 20
13.2897982424
 30
0.0
  0
SPLINE
  5
2B0
100
AcDbEntity
  8
02___PRT_ALL_AXES
100
AcDbSpline
 62
7
  6
CONTINUOUS
 70
0
 71
3
 72
53
 73
49
 74
0
 42
0.0000001
 43
0.0000001
 44
0.0000000001
 40
0.0
 40
0.0
 40
0.0
 40
0.0
 40
0.0353674244
 40
0.0722960964
 40
0.1106026647
 40
0.1500926472
 40
0.1905562076
 40
0.2317745775
 40
0.2735210726
 40
0.3155639452
 40
0.3576685499
 40
0.3995996502
 40
0.4411236862
 40
0.4820110565
 40
0.5220384488
 40
0.5609912575
 40
0.5986661425
 40
0.6348738045
 40
0.6694420862
 40
0.6860645173
 40
0.7022223707
 40
0.717900563
 40
0.73308609
 40
0.7477680046
 40
0.7619375678
 40
0.7755889015
 40
0.7887186482
 40
0.8013271498
 40
0.8134179914
 40
0.8249992542
 40
0.8360834726
 40
0.8466885298
 40
0.8568382919
 40
0.8665629656
 40
0.8759001724
 40
0.8848947679
 40
0.8935995904
 40
0.9020746636
 40
0.9103866947
 40
0.918607395
 40
0.9268114986
 40
0.9350742769
 40
0.9434691034
 40
0.9520650152
 40
0.9609252384
 40
0.9796399141
 40
0.9895985577
 40
1.0
 40
1.0
 40
1.0
 40
1.0
 10
16.1914953899
 20
11.8029735542
 30
0.0
 10
16.1991346871
 20
11.827694329
 30
0.0
 10
16.2135394588
 20
11.8786075846
 30
0.0
 10
16.232231677
 20
11.9573556819
 30
0.0
 10
16.2483855518
 20
12.039738654
 30
0.0
 10
16.2618943011
 20
12.125213297
 30
0.0
 10
16.272668183
 20
12.2132209226
 30
0.0
 10
16.2806360377
 20
12.3031832652
 30
0.0
 10
16.2857449131
 20
12.3945097928
 30
0.0
 10
16.2879609755
 20
12.4866004712
 30
0.0
 10
16.2872694824
 20
12.5788502066
 30
0.0
 10
16.2836750399
 20
12.6706528071
 30
0.0
 10
16.2772015024
 20
12.7614051056
 30
0.0
 10
16.2678917991
 20
12.8505109997
 30
0.0
 10
16.2558076378
 20
12.9373855356
 30
0.0
 10
16.2410290715
 20
13.021458658
 30
0.0
 10
16.2236539032
 20
13.1021799017
 30
0.0
 10
16.2037969858
 20
13.1790194386
 30
0.0
 10
16.1850536897
 20
13.2401770023
 30
0.0
 10
16.1688630981
 20
13.2867169196
 30
0.0
 10
16.1563447215
 20
13.3198892473
 30
0.0
 10
16.1433129313
 20
13.3517304864
 30
0.0
 10
16.1297890883
 20
13.3821886243
 30
0.0
 10
16.1157955924
 20
13.4112138795
 30
0.0
 10
16.1013546277
 20
13.4387585443
 30
0.0
 10
16.086490679
 20
13.4647780612
 30
0.0
 10
16.0712265963
 20
13.4892294297
 30
0.0
 10
16.0555882336
 20
13.5120734401
 30
0.0
 10
16.0395994866
 20
13.5332722792
 30
0.0
 10
16.0232865375
 20
13.5527918397
 30
0.0
 10
16.0066746522
 20
13.5705999803
 30
0.0
 10
15.9897895902
 20
13.5866671452
 30
0.0
 10
15.9726579557
 20
13.6009670225
 30
0.0
 10
15.9553051264
 20
13.6134739397
 30
0.0
 10
15.9377588825
 20
13.6241669117
 30
0.0
 10
15.9200454834
 20
13.6330239334
 30
0.0
 10
15.902194314
 20
13.6400284344
 30
0.0
 10
15.8842347372
 20
13.6451634037
 30
0.0
 10
15.8661989708
 20
13.6484169956
 30
0.0
 10
15.8481205316
 20
13.6497806256
 30
0.0
 10
15.8300344012
 20
13.6492497556
 30
0.0
 10
15.8119754824
 20
13.646827291
 30
0.0
 10
15.7939787148
 20
13.6425180137
 30
0.0
 10
15.7760751078
 20
13.636334229
 30
0.0
 10
15.751938414
 20
13.6254124958
 30
0.0
 10
15.7285064823
 20
13.6108271155
 30
0.0
 10
15.7060037743
 20
13.5931778189
 30
0.0
 10
15.694920126
 20
13.5832060289
 30
0.0
 10
15.6894200119
 20
13.5779473597
 30
0.0
  0
SPLINE
  5
2B1
100
AcDbEntity
  8
02___PRT_ALL_AXES
100
AcDbSpline
 62
7
  6
CONTINUOUS
 70
0
 71
3
 72
15
 73
11
 74
0
 42
0.0000001
 43
0.0000001
 44
0.0000000001
 40
0.0
 40
0.0
 40
0.0
 40
0.0
 40
0.100846541
 40
0.2084269253
 40
0.3229668445
 40
0.4445638952
 40
0.5732065828
 40
0.7087884687
 40
0.8511287347
 40
1.0
 40
1.0
 40
1.0
 40
1.0
 10
15.6894200119
 20
13.5779473597
 30
0.0
 10
15.6808521143
 20
13.569755577
 30
0.0
 10
15.6639351301
 20
13.5519850007
 30
0.0
 10
15.6400207024
 20
13.5224595342
 30
0.0
 10
15.6168440984
 20
13.4893297224
 30
0.0
 10
15.5944868317
 20
13.4527138561
 30
0.0
 10
15.5730241392
 20
13.4127396436
 30
0.0
 10
15.5525305604
 20
13.3695479994
 30
0.0
 10
15.5330781431
 20
13.3232900629
 30
0.0
 10
15.5211088992
 20
13.2912098834
 30
0.0
 10
15.5152948873
 20
13.2747051076
 30
0.0
  0
SPLINE
  5
2B2
100
AcDbEntity
  8
02___PRT_ALL_AXES
100
AcDbSpline
 62
7
  6
CONTINUOUS
 70
0
 71
3
 72
38
 73
34
 74
0
 42
0.0000001
 43
0.0000001
 44
0.0000000001
 40
0.0
 40
0.0
 40
0.0
 40
0.0
 40
0.047347478
 40
0.0933517707
 40
0.1379446408
 40
0.181079192
 40
0.2227186622
 40
0.262831336
 40
0.301391685
 40
0.3383855392
 40
0.373809624
 40
0.4076733902
 40
0.4400000809
 40
0.4708293112
 40
0.5002193008
 40
0.5282489041
 40
0.5806140982
 40
0.6052799221
 40
0.6291514325
 40
0.652435304
 40
0.6753583662
 40
0.6981613017
 40
0.7210894116
 40
0.7443830079
 40
0.7682688935
 40
0.7929528184
 40
0.8186159746
 40
0.8454121307
 40
0.8734687278
 40
0.9028873816
 40
0.9337467695
 40
0.9661045578
 40
1.0
 40
1.0
 40
1.0
 40
1.0
 10
16.1914953899
 20
11.8029735542
 30
0.0
 10
16.1875155108
 20
11.7900946609
 30
0.0
 10
16.1793495971
 20
11.7647993054
 30
0.0
 10
16.1662842285
 20
11.7277584408
 30
0.0
 10
16.15259769
 20
11.6922241823
 30
0.0
 10
16.138318353
 20
11.6582676179
 30
0.0
 10
16.1234724704
 20
11.62595273
 30
0.0
 10
16.1080891156
 20
11.5953401156
 30
0.0
 10
16.0921966179
 20
11.5664888746
 30
0.0
 10
16.0758259045
 20
11.539454057
 30
0.0
 10
16.0590072842
 20
11.5142872823
 30
0.0
 10
16.041772584
 20
11.4910362734
 30
0.0
 10
16.024153159
 20
11.4697451664
 30
0.0
 10
16.0061823633
 20
11.4504555992
 30
0.0
 10
15.987888638
 20
11.433201847
 30
0.0
 10
15.9636740687
 20
11.4134150199
 30
0.0
 10
15.9383534832
 20
11.3971651252
 30
0.0
 10
15.9121878469
 20
11.3852127029
 30
0.0
 10
15.8927985613
 20
11.3786038026
 30
0.0
 10
15.8733009437
 20
11.3741931797
 30
0.0
 10
15.8537356094
 20
11.3719962852
 30
0.0
 10
15.8341480073
 20
11.3720183932
 30
0.0
 10
15.8145837993
 20
11.3742618447
 30
0.0
 10
15.795087534
 20
11.3787166131
 30
0.0
 10
15.7757020922
 20
11.3853707855
 30
0.0
 10
15.7564661864
 20
11.3942032602
 30
0.0
 10
15.7374172789
 20
11.4051929248
 30
0.0
 10
15.7185893311
 20
11.4183127896
 30
0.0
 10
15.7000166013
 20
11.433535583
 30
0.0
 10
15.6817314753
 20
11.4508295011
 30
0.0
 10
15.6637668665
 20
11.4701610854
 30
0.0
 10
15.6461555105
 20
11.4914921125
 30
0.0
 10
15.6349332551
 20
11.5066646688
 30
0.0
 10
15.6293810309
 20
11.5145574327
 30
0.0
  0
SPLINE
  5
2B3
100
AcDbEntity
  8
02___PRT_ALL_AXES
100
AcDbSpline
 62
7
  6
CONTINUOUS
 70
0
 71
3
 72
11
 73
7
 74
0
 42
0.0000001
 43
0.0000001
 44
0.0000000001
 40
0.0
 40
0.0
 40
0.0
 40
0.0
 40
0.2282185972
 40
0.4710940449
 40
0.7284711513
 40
1.0
 40
1.0
 40
1.0
 40
1.0
 10
15.6293810309
 20
11.5145574327
 30
0.0
 10
15.6207781821
 20
11.5267868119
 30
0.0
 10
15.6039442886
 20
11.5526895085
 30
0.0
 10
15.5804794585
 20
11.5942794336
 30
0.0
 10
15.5581040868
 20
11.639649479
 30
0.0
 10
15.5443334899
 20
11.6714642243
 30
0.0
 10
15.5376257564
 20
11.6879408621
 30
0.0
  0
SPLINE
  5
2B4
100
AcDbEntity
  8
02___PRT_ALL_AXES
100
AcDbSpline
 62
7
  6
CONTINUOUS
 70
0
 71
3
 72
23
 73
19
 74
0
 42
0.0000001
 43
0.0000001
 44
0.0000000001
 40
0.0
 40
0.0
 40
0.0
 40
0.0
 40
0.0523241763
 40
0.1073697283
 40
0.164907182
 40
0.2246776249
 40
0.2863977142
 40
0.3497640166
 40
0.41445688
 40
0.4801440133
 40
0.5464838714
 40
0.6131289209
 40
0.6797288588
 40
0.7459337966
 40
0.8113974877
 40
0.8757803515
 40
0.9387532242
 40
1.0
 40
1.0
 40
1.0
 40
1.0
 10
15.5280861266
 20
11.7120929965
 30
0.0
 10
15.5196931704
 20
11.7339938176
 30
0.0
 10
15.5036789023
 20
11.7794042999
 30
0.0
 10
15.4823924617
 20
11.8502154553
 30
0.0
 10
15.4633312556
 20
11.9251061495
 30
0.0
 10
15.4466145388
 20
12.0036133434
 30
0.0
 10
15.4323459356
 20
12.0852542371
 30
0.0
 10
15.4206143571
 20
12.1695250297
 30
0.0
 10
15.4114928794
 20
12.255905479
 30
0.0
 10
15.4050383854
 20
12.3438618811
 30
0.0
 10
15.40129115
 20
12.4328505611
 30
0.0
 10
15.400274585
 20
12.5223212957
 30
0.0
 10
15.4019949892
 20
12.6117207964
 30
0.0
 10
15.4064415956
 20
12.7004962979
 30
0.0
 10
15.4135866732
 20
12.7880987891
 30
0.0
 10
15.4233856972
 20
12.8739873514
 30
0.0
 10
15.4357773593
 20
12.9576297382
 30
0.0
 10
15.4458727041
 20
13.012402332
 30
0.0
 10
15.4513612497
 20
13.0393015384
 30
0.0
  0
SPLINE
  5
2B5
100
AcDbEntity
  8
02___PRT_ALL_AXES
100
AcDbSpline
 62
7
  6
CONTINUOUS
 70
0
 71
3
 72
10
 73
6
 74
0
 42
0.0000001
 43
0.0000001
 44
0.0000000001
 40
0.0
 40
0.0
 40
0.0
 40
0.0
 40
0.5121764002
 40
0.7593611362
 40
1.0
 40
1.0
 40
1.0
 40
1.0
 10
15.4513612497
 20
13.0393015384
 30
0.0
 10
15.4576777516
 20
13.0702585348
 30
0.0
 10
15.4680476093
 20
13.1159629354
 30
0.0
 10
15.4839180543
 20
13.175578497
 30
0.0
 10
15.4924061852
 20
13.2044537923
 30
0.0
 10
15.4967889522
 20
13.2186364316
 30
0.0
  0
SPLINE
  5
2B6
100
AcDbEntity
  8
02___PRT_ALL_AXES
100
AcDbSpline
 62
7
  6
CONTINUOUS
 70
0
 71
3
 72
28
 73
24
 74
0
 42
0.0000001
 43
0.0000001
 44
0.0000000001
 40
0.0
 40
0.0
 40
0.0
 40
0.0
 40
0.0238800569
 40
0.0473915352
 40
0.0706390263
 40
0.0937315309
 40
0.1167807323
 40
0.1398991836
 40
0.1631980828
 40
0.1867856271
 40
0.2107650058
 40
0.2352329741
 40
0.2859608013
 40
0.339616692
 40
0.3966876282
 40
0.4575351542
 40
0.522409347
 40
0.5914661885
 40
0.6647812498
 40
0.7423627312
 40
0.8241634453
 40
0.910087946
 40
1.0
 40
1.0
 40
1.0
 40
1.0
 10
15.9394603822
 20
11.2681320982
 30
0.0
 10
15.9347355474
 20
11.2665504703
 30
0.0
 10
15.9252470866
 20
11.2637331937
 30
0.0
 10
15.9108404161
 20
11.2605634107
 30
0.0
 10
15.8964003469
 20
11.2584904957
 30
0.0
 10
15.8819413595
 20
11.2575166154
 30
0.0
 10
15.8674769507
 20
11.2576438865
 30
0.0
 10
15.8530211401
 20
11.2588717024
 30
0.0
 10
15.8385875137
 20
11.2611980605
 30
0.0
 10
15.824189913
 20
11.2646211694
 30
0.0
 10
15.8098411395
 20
11.2691370817
 30
0.0
 10
15.7905638213
 20
11.2766966846
 30
0.0
 10
15.7665717105
 20
11.28900098
 30
0.0
 10
15.7385745754
 20
11.3078566481
 30
0.0
 10
15.7111018673
 20
11.33090029
 30
0.0
 10
15.6842403379
 20
11.3580424071
 30
0.0
 10
15.6580700952
 20
11.3891863569
 30
0.0
 10
15.6326745125
 20
11.4242250716
 30
0.0
 10
15.6081358256
 20
11.4630388559
 30
0.0
 10
15.5845351204
 20
11.5054949386
 30
0.0
 10
15.5619525654
 20
11.551448544
 30
0.0
 10
15.5404656124
 20
11.6007407641
 30
0.0
 10
15.5272114854
 20
11.6349630937
 30
0.0
 10
15.5207640449
 20
11.6525803474
 30
0.0
  0
SPLINE
  5
2B7
100
AcDbEntity
  8
02___PRT_ALL_AXES
100
AcDbSpline
 62
7
  6
CONTINUOUS
 70
0
 71
3
 72
11
 73
7
 74
0
 42
0.0000001
 43
0.0000001
 44
0.0000000001
 40
0.0
 40
0.0
 40
0.0
 40
0.0
 40
0.2370681488
 40
0.4831358851
 40
0.7376490716
 40
1.0
 40
1.0
 40
1.0
 40
1.0
 10
15.5207640449
 20
11.6525803474
 30
0.0
 10
15.5141617993
 20
11.6706205967
 30
0.0
 10
15.5014084919
 20
11.7076459544
 30
0.0
 10
15.4839092989
 20
11.7648122508
 30
0.0
 10
15.4677286982
 20
11.8244903636
 30
0.0
 10
15.4579969341
 20
11.8652345408
 30
0.0
 10
15.4533502543
 20
11.8859796747
 30
0.0
  0
SPLINE
  5
2B8
100
AcDbEntity
  8
02___PRT_ALL_AXES
100
AcDbSpline
 62
7
  6
CONTINUOUS
 70
0
 71
3
 72
23
 73
19
 74
0
 42
0.0000001
 43
0.0000001
 44
0.0000000001
 40
0.0
 40
0.0
 40
0.0
 40
0.0
 40
0.0582418363
 40
0.1179477171
 40
0.178941299
 40
0.2410382752
 40
0.3040480149
 40
0.3677748062
 40
0.4320187774
 40
0.4965772656
 40
0.5612459282
 40
0.6258197396
 40
0.6900942637
 40
0.7538666812
 40
0.8169368904
 40
0.8791087222
 40
0.9401912815
 40
1.0
 40
1.0
 40
1.0
 40
1.0
 10
15.4533502543
 20
11.8859796747
 30
0.0
 10
15.4483235352
 20
11.9084214966
 30
0.0
 10
15.4388374238
 20
11.9540272346
 30
0.0
 10
15.4264270827
 20
12.0235959551
 30
0.0
 10
15.4156920383
 20
12.0949826963
 30
0.0
 10
15.4066723826
 20
12.1679204574
 30
0.0
 10
15.3994017372
 20
12.2421374829
 30
0.0
 10
15.3939077314
 20
12.3173569286
 30
0.0
 10
15.3902108479
 20
12.3932981918
 30
0.0
 10
15.3883247055
 20
12.4696779096
 30
0.0
 10
15.3882566856
 20
12.5462110913
 30
0.0
 10
15.390007049
 20
12.6226121568
 30
0.0
 10
15.3935689151
 20
12.6985960296
 30
0.0
 10
15.3989291719
 20
12.7738792169
 30
0.0
 10
15.4060678472
 20
12.8481807635
 30
0.0
 10
15.4149578132
 20
12.9212238157
 30
0.0
 10
15.425565768
 20
12.9927353276
 30
0.0
 10
15.433852687
 20
13.0397541911
 30
0.0
 10
15.438286153
 20
13.0629509294
 30
0.0
  0
SPLINE
  5
2B9
100
AcDbEntity
  8
02___PRT_ALL_AXES
100
AcDbSpline
 62
7
  6
CONTINUOUS
 70
0
 71
3
 72
11
 73
7
 74
0
 42
0.0000001
 43
0.0000001
 44
0.0000000001
 40
0.0
 40
0.0
 40
0.0
 40
0.0
 40
0.2598606002
 40
0.5135024253
 40
0.7604062123
 40
1.0
 40
1.0
 40
1.0
 40
1.0
 10
15.4384770903
 20
13.0639488306
 30
0.0
 10
15.4422693446
 20
13.0837462162
 30
0.0
 10
15.4502449075
 20
13.1227769668
 30
0.0
 10
15.4635561453
 20
13.1802468892
 30
0.0
 10
15.4780414298
 20
13.2358093899
 30
0.0
 10
15.4886177017
 20
13.272041525
 30
0.0
 10
15.4941049424
 20
13.2897982424
 30
0.0
  0
SPLINE
  5
2BA
100
AcDbEntity
  8
0
100
AcDbSpline
 62
7
  6
CONTINUOUS
 70
0
 71
3
 72
15
 73
11
 74
0
 42
0.0000001
 43
0.0000001
 44
0.0000000001
 40
0.0
 40
0.0
 40
0.0
 40
0.0
 40
0.0845830166
 40
0.1751487125
 40
0.2763897453
 40
0.391271345
 40
0.5211921845
 40
0.6665859792
 40
0.826713278
 40
1.0
 40
1.0
 40
1.0
 40
1.0
 10
14.8500582058
 20
11.8622174569
 30
0.0
 10
14.8497522659
 20
11.8622171732
 30
0.0
 10
14.8491153577
 20
11.8623168506
 30
0.0
 10
14.8482013052
 20
11.8627469046
 30
0.0
 10
14.8473255157
 20
11.8634402294
 30
0.0
 10
14.8464948642
 20
11.864383193
 30
0.0
 10
14.8457139063
 20
11.8655629741
 30
0.0
 10
14.8449931696
 20
11.8669662797
 30
0.0
 10
14.8443406594
 20
11.8685724458
 30
0.0
 10
14.8439702041
 20
11.8697212846
 30
0.0
 10
14.8437967101
 20
11.8703235792
 30
0.0
  0
SPLINE
  5
2BB
100
AcDbEntity
  8
0
100
AcDbSpline
 62
7
  6
CONTINUOUS
 70
0
 71
3
 72
13
 73
9
 74
0
 42
0.0000001
 43
0.0000001
 44
0.0000000001
 40
0.0
 40
0.0
 40
0.0
 40
0.0
 40
0.0973397045
 40
0.1981595054
 40
0.3055051396
 40
0.4218043248
 40
0.687117276
 40
1.0
 40
1.0
 40
1.0
 40
1.0
 10
14.9324054636
 20
11.648309368
 30
0.0
 10
14.932194247
 20
11.6483093054
 30
0.0
 10
14.9317630027
 20
11.6483550624
 30
0.0
 10
14.9311278259
 20
11.6485580838
 30
0.0
 10
14.9305039793
 20
11.648891772
 30
0.0
 10
14.9296556801
 20
11.6495350773
 30
0.0
 10
14.928656665
 20
11.6506822101
 30
0.0
 10
14.9280124578
 20
11.6517642297
 30
0.0
 10
14.9277020999
 20
11.6523680613
 30
0.0
  0
SPLINE
  5
2BC
100
AcDbEntity
  8
0
100
AcDbSpline
 62
7
  6
CONTINUOUS
 70
0
 71
3
 72
11
 73
7
 74
0
 42
0.0000001
 43
0.0000001
 44
0.0000000001
 40
0.0
 40
0.0
 40
0.0
 40
0.0
 40
0.2271556104
 40
0.4645274834
 40
0.7201925328
 40
1.0
 40
1.0
 40
1.0
 40
1.0
 10
15.0348817221
 20
11.502625073
 30
0.0
 10
15.0346447614
 20
11.5026250105
 30
0.0
 10
15.0341584408
 20
11.5026833308
 30
0.0
 10
15.0334467884
 20
11.5029404298
 30
0.0
 10
15.0327527214
 20
11.5033589281
 30
0.0
 10
15.0323263589
 20
11.5037235458
 30
0.0
 10
15.0321173612
 20
11.5039273029
 30
0.0
  0
SPLINE
  5
2BD
100
AcDbEntity
  8
0
100
AcDbSpline
 62
7
  6
CONTINUOUS
 70
0
 71
3
 72
15
 73
11
 74
0
 42
0.0000001
 43
0.0000001
 44
0.0000000001
 40
0.0
 40
0.0
 40
0.0
 40
0.0
 40
0.1711408182
 40
0.3333913196
 40
0.4831925871
 40
0.6182360914
 40
0.7369716355
 40
0.8389841621
 40
0.9254210014
 40
1.0
 40
1.0
 40
1.0
 40
1.0
 10
14.7759379003
 20
12.7902457516
 30
0.0
 10
14.7760391703
 20
12.7912137096
 30
0.0
 10
14.776295501
 20
12.7930938109
 30
0.0
 10
14.7768510005
 20
12.7957872863
 30
0.0
 10
14.7775602431
 20
12.7982320847
 30
0.0
 10
14.7784034685
 20
12.8003710954
 30
0.0
 10
14.779363892
 20
12.8021584762
 30
0.0
 10
14.7804233633
 20
12.8035596792
 30
0.0
 10
14.7815705626
 20
12.8045421694
 30
0.0
 10
14.7824328385
 20
12.8049108656
 30
0.0
 10
14.7828485506
 20
12.8049948705
 30
0.0
  0
SPLINE
  5
2BE
100
AcDbEntity
  8
0
100
AcDbSpline
 62
7
  6
CONTINUOUS
 70
0
 71
3
 72
15
 73
11
 74
0
 42
0.0000001
 43
0.0000001
 44
0.0000000001
 40
0.0
 40
0.0
 40
0.0
 40
0.0
 40
0.0943254311
 40
0.2014297974
 40
0.3197016517
 40
0.4471548349
 40
0.5815562728
 40
0.7204036601
 40
0.8609737692
 40
1.0
 40
1.0
 40
1.0
 40
1.0
 10
14.7751177215
 20
12.7242549438
 30
0.0
 10
14.7747552357
 20
12.7248394702
 30
0.0
 10
14.7740819522
 20
12.7261506605
 30
0.0
 10
14.7732545095
 20
12.7283336312
 30
0.0
 10
14.7725663397
 20
12.7308159115
 30
0.0
 10
14.7720313032
 20
12.7335379143
 30
0.0
 10
14.771663413
 20
12.7364385459
 30
0.0
 10
14.7714700202
 20
12.7394517057
 30
0.0
 10
14.7714583238
 20
12.7425045697
 30
0.0
 10
14.7715706154
 20
12.7445417029
 30
0.0
 10
14.7716584493
 20
12.7455516369
 30
0.0
  0
SPLINE
  5
2BF
100
AcDbEntity
  8
0
100
AcDbSpline
 62
7
  6
CONTINUOUS
 70
0
 71
3
 72
9
 73
5
 74
0
 42
0.0000001
 43
0.0000001
 44
0.0000000001
 40
0.0
 40
0.0
 40
0.0
 40
0.0
 40
0.5173498015
 40
1.0
 40
1.0
 40
1.0
 40
1.0
 10
14.7751177215
 20
12.7242549438
 30
0.0
 10
14.7787580303
 20
12.7183847667
 30
0.0
 10
14.786161576
 20
12.7072598098
 30
0.0
 10
14.794392332
 20
12.6967251866
 30
0.0
 10
14.7985860617
 20
12.6918325404
 30
0.0
  0
SPLINE
  5
2C0
100
AcDbEntity
  8
0
100
AcDbSpline
 62
7
  6
CONTINUOUS
 70
0
 71
3
 72
9
 73
5
 74
0
 42
0.0000001
 43
0.0000001
 44
0.0000000001
 40
0.0
 40
0.0
 40
0.0
 40
0.0
 40
0.5389069232
 40
1.0
 40
1.0
 40
1.0
 40
1.0
 10
14.8017770301
 20
12.6863254231
 30
0.0
 10
14.8013400282
 20
12.687385701
 30
0.0
 10
14.8004238843
 20
12.689312555
 30
0.0
 10
14.7992246308
 20
12.691087549
 30
0.0
 10
14.7985860617
 20
12.6918325404
 30
0.0
  0
SPLINE
  5
2C1
100
AcDbEntity
  8
0
100
AcDbSpline
 62
7
  6
CONTINUOUS
 70
0
 71
3
 72
10
 73
6
 74
0
 42
0.0000001
 43
0.0000001
 44
0.0000000001
 40
0.0
 40
0.0
 40
0.0
 40
0.0
 40
0.4553003468
 40
0.7159097876
 40
1.0
 40
1.0
 40
1.0
 40
1.0
 10
14.7921823362
 20
12.5251328429
 30
0.0
 10
14.7928637818
 20
12.5255421697
 30
0.0
 10
14.7938228205
 20
12.5263762539
 30
0.0
 10
14.7949353431
 20
12.5277218507
 30
0.0
 10
14.7954692803
 20
12.5285112932
 30
0.0
 10
14.795730831
 20
12.5289327367
 30
0.0
  0
SPLINE
  5
2C2
100
AcDbEntity
  8
0
100
AcDbSpline
 62
7
  6
CONTINUOUS
 70
0
 71
3
 72
9
 73
5
 74
0
 42
0.0000001
 43
0.0000001
 44
0.0000000001
 40
0.0
 40
0.0
 40
0.0
 40
0.0
 40
0.2372250561
 40
1.0
 40
1.0
 40
1.0
 40
1.0
 10
14.7921823362
 20
12.5251328429
 30
0.0
 10
14.7899826299
 20
12.5238115358
 30
0.0
 10
14.7808995153
 20
12.5179267911
 30
0.0
 10
14.7725965976
 20
12.510881208
 30
0.0
 10
14.766699351
 20
12.5051106638
 30
0.0
  0
SPLINE
  5
2C3
100
AcDbEntity
  8
0
100
AcDbSpline
 62
7
  6
CONTINUOUS
 70
0
 71
3
 72
15
 73
11
 74
0
 42
0.0000001
 43
0.0000001
 44
0.0000000001
 40
0.0
 40
0.0
 40
0.0
 40
0.0
 40
0.1516938992
 40
0.3011921182
 40
0.4450264636
 40
0.5805047689
 40
0.7052973418
 40
0.8175535916
 40
0.9159392954
 40
1.0
 40
1.0
 40
1.0
 40
1.0
 10
14.7616863101
 20
12.4859601554
 30
0.0
 10
14.7616771335
 20
12.486981397
 30
0.0
 10
14.7617199186
 20
12.4890101394
 30
0.0
 10
14.7619613048
 20
12.4919983639
 30
0.0
 10
14.7623777823
 20
12.4948572983
 30
0.0
 10
14.7629565818
 20
12.4975182608
 30
0.0
 10
14.7636855384
 20
12.4999211914
 30
0.0
 10
14.7645466741
 20
12.5020139796
 30
0.0
 10
14.7655229764
 20
12.5037471975
 30
0.0
 10
14.7662948487
 20
12.5047148523
 30
0.0
 10
14.766699351
 20
12.5051106638
 30
0.0
  0
SPLINE
  5
2C4
100
AcDbEntity
  8
0
100
AcDbSpline
 62
7
  6
CONTINUOUS
 70
0
 71
3
 72
15
 73
11
 74
0
 42
0.0000001
 43
0.0000001
 44
0.0000000001
 40
0.0
 40
0.0
 40
0.0
 40
0.0
 40
0.0799680155
 40
0.1743849147
 40
0.2836560679
 40
0.406937356
 40
0.5426645356
 40
0.6886557115
 40
0.8422784594
 40
1.0
 40
1.0
 40
1.0
 40
1.0
 10
14.7681377467
 20
12.4220480126
 30
0.0
 10
14.7677216399
 20
12.4223497131
 30
0.0
 10
14.7669131353
 20
12.423144159
 30
0.0
 10
14.765879478
 20
12.4246540991
 30
0.0
 10
14.7649499857
 20
12.4265453735
 30
0.0
 10
14.7641421559
 20
12.4287740589
 30
0.0
 10
14.7634749784
 20
12.4312931203
 30
0.0
 10
14.7629625287
 20
12.4340461963
 30
0.0
 10
14.7626199461
 20
12.4369674958
 30
0.0
 10
14.7625085509
 20
12.4389669025
 30
0.0
 10
14.7624825434
 20
12.4399802814
 30
0.0
  0
SPLINE
  5
2C5
100
AcDbEntity
  8
0
100
AcDbSpline
 62
7
  6
CONTINUOUS
 70
0
 71
3
 72
9
 73
5
 74
0
 42
0.0000001
 43
0.0000001
 44
0.0000000001
 40
0.0
 40
0.0
 40
0.0
 40
0.0
 40
0.5152524121
 40
1.0
 40
1.0
 40
1.0
 40
1.0
 10
14.7681377467
 20
12.4220480126
 30
0.0
 10
14.7722717777
 20
12.4190506103
 30
0.0
 10
14.7806481609
 20
12.4136976423
 30
0.0
 10
14.7896983205
 20
12.4095574974
 30
0.0
 10
14.794212226
 20
12.407913339
 30
0.0
  0
SPLINE
  5
2C6
100
AcDbEntity
  8
0
100
AcDbSpline
 62
7
  6
CONTINUOUS
 70
0
 71
3
 72
9
 73
5
 74
0
 42
0.0000001
 43
0.0000001
 44
0.0000000001
 40
0.0
 40
0.0
 40
0.0
 40
0.0
 40
0.285176739
 40
1.0
 40
1.0
 40
1.0
 40
1.0
 10
14.7978780601
 20
12.4049372716
 30
0.0
 10
14.7976037493
 20
12.4052964201
 30
0.0
 10
14.7965889661
 20
12.4065061765
 30
0.0
 10
14.7952766053
 20
12.4075256463
 30
0.0
 10
14.794212226
 20
12.407913339
 30
0.0
  0
SPLINE
  5
2C7
100
AcDbEntity
  8
0
100
AcDbSpline
 62
7
  6
CONTINUOUS
 70
0
 71
3
 72
9
 73
5
 74
0
 42
0.0000001
 43
0.0000001
 44
0.0000000001
 40
0.0
 40
0.0
 40
0.0
 40
0.0
 40
0.4649086765
 40
1.0
 40
1.0
 40
1.0
 40
1.0
 10
14.8063527568
 20
12.2433312671
 30
0.0
 10
14.8069593834
 20
12.2442135315
 30
0.0
 10
14.8080843817
 20
12.2462353855
 30
0.0
 10
14.8089389467
 20
12.2483790078
 30
0.0
 10
14.8093407729
 20
12.2495439817
 30
0.0
  0
SPLINE
  5
2C8
100
AcDbEntity
  8
0
100
AcDbSpline
 62
7
  6
CONTINUOUS
 70
0
 71
3
 72
9
 73
5
 74
0
 42
0.0000001
 43
0.0000001
 44
0.0000000001
 40
0.0
 40
0.0
 40
0.0
 40
0.0
 40
0.4839908409
 40
1.0
 40
1.0
 40
1.0
 40
1.0
 10
14.8063527568
 20
12.2433312671
 30
0.0
 10
14.8023535266
 20
12.2375148739
 30
0.0
 10
14.7945409076
 20
12.2251841084
 30
0.0
 10
14.7875310524
 20
12.2123843643
 30
0.0
 10
14.784097751
 20
12.2056875742
 30
0.0
  0
SPLINE
  5
2C9
100
AcDbEntity
  8
0
100
AcDbSpline
 62
7
  6
CONTINUOUS
 70
0
 71
3
 72
15
 73
11
 74
0
 42
0.0000001
 43
0.0000001
 44
0.0000000001
 40
0.0
 40
0.0
 40
0.0
 40
0.0
 40
0.1336138419
 40
0.2702924997
 40
0.4068792846
 40
0.5406675689
 40
0.6691211287
 40
0.7899023835
 40
0.900843014
 40
1.0
 40
1.0
 40
1.0
 40
1.0
 10
14.7813882669
 20
12.1836864519
 30
0.0
 10
14.7812651367
 20
12.1846782909
 30
0.0
 10
14.7810825524
 20
12.1866934219
 30
0.0
 10
14.780989717
 20
12.189737224
 30
0.0
 10
14.7810792605
 20
12.1927825824
 30
0.0
 10
14.7813465679
 20
12.1957558097
 30
0.0
 10
14.7817866337
 20
12.1985890096
 30
0.0
 10
14.7823876537
 20
12.2012180924
 30
0.0
 10
14.7831376731
 20
12.2035797426
 30
0.0
 10
14.7837593705
 20
12.2050275497
 30
0.0
 10
14.784097751
 20
12.2056875742
 30
0.0
  0
SPLINE
  5
2CA
100
AcDbEntity
  8
0
100
AcDbSpline
 62
7
  6
CONTINUOUS
 70
0
 71
3
 72
17
 73
13
 74
0
 42
0.0000001
 43
0.0000001
 44
0.0000000001
 40
0.0
 40
0.0
 40
0.0
 40
0.0
 40
0.037275054
 40
0.0756836873
 40
0.1596182642
 40
0.2069033748
 40
0.258289916
 40
0.3741138422
 40
0.5077629035
 40
0.6582126745
 40
0.8234496902
 40
1.0
 40
1.0
 40
1.0
 40
1.0
 10
14.7945888926
 20
12.1270284704
 30
0.0
 10
14.7943895038
 20
12.1270231711
 30
0.0
 10
14.7939824684
 20
12.1270535177
 30
0.0
 10
14.7931547034
 20
12.1272813493
 30
0.0
 10
14.7923616662
 20
12.1277584888
 30
0.0
 10
14.7916369461
 20
12.1284151088
 30
0.0
 10
14.7908762355
 20
12.1292778091
 30
0.0
 10
14.7899942869
 20
12.1306341057
 30
0.0
 10
14.7890814706
 20
12.1325746134
 30
0.0
 10
14.7882917386
 20
12.1348496269
 30
0.0
 10
14.7876467089
 20
12.137406077
 30
0.0
 10
14.7873292057
 20
12.1392089478
 30
0.0
 10
14.787195707
 20
12.1401441903
 30
0.0
  0
SPLINE
  5
2CB
100
AcDbEntity
  8
0
100
AcDbSpline
 62
7
  6
CONTINUOUS
 70
0
 71
3
 72
9
 73
5
 74
0
 42
0.0000001
 43
0.0000001
 44
0.0000000001
 40
0.0
 40
0.0
 40
0.0
 40
0.0
 40
0.4774037921
 40
1.0
 40
1.0
 40
1.0
 40
1.0
 10
14.8508597117
 20
11.9831892577
 30
0.0
 10
14.8513329837
 20
11.9844427487
 30
0.0
 10
14.8521756048
 20
11.9871253249
 30
0.0
 10
14.8527812379
 20
11.9898689663
 30
0.0
 10
14.8530452847
 20
11.9913116981
 30
0.0
  0
SPLINE
  5
2CC
100
AcDbEntity
  8
0
100
AcDbSpline
 62
7
  6
CONTINUOUS
 70
0
 71
3
 72
9
 73
5
 74
0
 42
0.0000001
 43
0.0000001
 44
0.0000000001
 40
0.0
 40
0.0
 40
0.0
 40
0.0
 40
0.4891216078
 40
1.0
 40
1.0
 40
1.0
 40
1.0
 10
14.8508597117
 20
11.9831892577
 30
0.0
 10
14.8476925044
 20
11.9748007076
 30
0.0
 10
14.8416051283
 20
11.9575022873
 30
0.0
 10
14.8362210872
 20
11.9399735939
 30
0.0
 10
14.8336348577
 20
11.930972373
 30
0.0
  0
SPLINE
  5
2CD
100
AcDbEntity
  8
0
100
AcDbSpline
 62
7
  6
CONTINUOUS
 70
0
 71
3
 72
15
 73
11
 74
0
 42
0.0000001
 43
0.0000001
 44
0.0000000001
 40
0.0
 40
0.0
 40
0.0
 40
0.0
 40
0.1171737674
 40
0.2418078275
 40
0.3711775906
 40
0.5027236788
 40
0.6339135334
 40
0.7622271657
 40
0.8851387829
 40
1.0
 40
1.0
 40
1.0
 40
1.0
 10
14.8334483399
 20
11.9079022502
 30
0.0
 10
14.833216709
 20
11.9087827082
 30
0.0
 10
14.832815394
 20
11.9106203193
 30
0.0
 10
14.8323958643
 20
11.9134755712
 30
0.0
 10
14.832151164
 20
11.9164631769
 30
0.0
 10
14.8320848732
 20
11.9195108257
 30
0.0
 10
14.8321998755
 20
11.9225488246
 30
0.0
 10
14.8324921252
 20
11.925507732
 30
0.0
 10
14.8329568955
 20
11.9283159518
 30
0.0
 10
14.8333884102
 20
11.9301146267
 30
0.0
 10
14.8336348577
 20
11.930972373
 30
0.0
  0
SPLINE
  5
2CE
100
AcDbEntity
  8
0
100
AcDbSpline
 62
7
  6
CONTINUOUS
 70
0
 71
3
 72
9
 73
5
 74
0
 42
0.0000001
 43
0.0000001
 44
0.0000000001
 40
0.0
 40
0.0
 40
0.0
 40
0.0
 40
0.4885932943
 40
1.0
 40
1.0
 40
1.0
 40
1.0
 10
14.9220991036
 20
11.7657726712
 30
0.0
 10
14.9224083185
 20
11.7672816141
 30
0.0
 10
14.9229168653
 20
11.7703961925
 30
0.0
 10
14.9232080926
 20
11.773537807
 30
0.0
 10
14.9233052495
 20
11.775147096
 30
0.0
  0
SPLINE
  5
2CF
100
AcDbEntity
  8
0
100
AcDbSpline
 62
7
  6
CONTINUOUS
 70
0
 71
3
 72
15
 73
11
 74
0
 42
0.0000001
 43
0.0000001
 44
0.0000000001
 40
0.0
 40
0.0
 40
0.0
 40
0.0
 40
0.1014261446
 40
0.2141357298
 40
0.3360552273
 40
0.4649461406
 40
0.5984316743
 40
0.7339663774
 40
0.8688564081
 40
1.0
 40
1.0
 40
1.0
 40
1.0
 10
14.913650793
 20
11.680940085
 30
0.0
 10
14.9133245123
 20
11.6816331831
 30
0.0
 10
14.9127282711
 20
11.683140568
 30
0.0
 10
14.9120164484
 20
11.6855796805
 30
0.0
 10
14.9114578164
 20
11.6882705004
 30
0.0
 10
14.9110633713
 20
11.6911481533
 30
0.0
 10
14.910843837
 20
11.6941473712
 30
0.0
 10
14.9108030985
 20
11.6971996184
 30
0.0
 10
14.9109445615
 20
11.7002310168
 30
0.0
 10
14.9111597901
 20
11.7022303854
 30
0.0
 10
14.9112992407
 20
11.7032110291
 30
0.0
  0
SPLINE
  5
2D0
100
AcDbEntity
  8
0
100
AcDbSpline
 62
7
  6
CONTINUOUS
 70
0
 71
3
 72
15
 73
11
 74
0
 42
0.0000001
 43
0.0000001
 44
0.0000000001
 40
0.0
 40
0.0
 40
0.0
 40
0.0
 40
0.0861341576
 40
0.1863796273
 40
0.2999687048
 40
0.4253895845
 40
0.5606873635
 40
0.7034811836
 40
0.8510625082
 40
1.0
 40
1.0
 40
1.0
 40
1.0
 10
15.0155009684
 20
11.5211789655
 30
0.0
 10
15.0151037226
 20
11.5216169852
 30
0.0
 10
15.014350755
 20
11.5226617242
 30
0.0
 10
15.0134032723
 20
11.524495394
 30
0.0
 10
15.0125762066
 20
11.5266772321
 30
0.0
 10
15.0118860775
 20
11.5291554393
 30
0.0
 10
15.0113501832
 20
11.5318757388
 30
0.0
 10
15.0109797282
 20
11.5347765553
 30
0.0
 10
15.0107863348
 20
11.5377880744
 30
0.0
 10
15.0107760261
 20
11.5398251115
 30
0.0
 10
15.0108017706
 20
11.5408472678
 30
0.0
  0
SPLINE
  5
2D1
100
AcDbEntity
  8
0
100
AcDbSpline
 62
7
  6
CONTINUOUS
 70
0
 71
3
 72
15
 73
11
 74
0
 42
0.0000001
 43
0.0000001
 44
0.0000000001
 40
0.0
 40
0.0
 40
0.0
 40
0.0
 40
0.1616488848
 40
0.2115432793
 40
0.2655085365
 40
0.3855609182
 40
0.5211585706
 40
0.6705661546
 40
0.8313726214
 40
1.0
 40
1.0
 40
1.0
 40
1.0
 10
15.1307512124
 20
11.4415560748
 30
0.0
 10
15.1298497732
 20
11.441835305
 30
0.0
 10
15.1288351899
 20
11.4426901577
 30
0.0
 10
15.1278964976
 20
11.4439140786
 30
0.0
 10
15.1271891016
 20
11.445017284
 30
0.0
 10
15.126387906
 20
11.4466425056
 30
0.0
 10
15.1255791938
 20
11.4488686254
 30
0.0
 10
15.1249095268
 20
11.4513865979
 30
0.0
 10
15.1243974047
 20
11.4541369962
 30
0.0
 10
15.1241706828
 20
11.4560483382
 30
0.0
 10
15.1240849022
 20
11.4570290297
 30
0.0
  0
SPLINE
  5
2D2
100
AcDbEntity
  8
0
100
AcDbSpline
 62
7
  6
CONTINUOUS
 70
0
 71
3
 72
11
 73
7
 74
0
 42
0.0000001
 43
0.0000001
 44
0.0000000001
 40
0.0
 40
0.0
 40
0.0
 40
0.0
 40
0.2359572847
 40
0.4834972963
 40
0.7394947654
 40
1.0
 40
1.0
 40
1.0
 40
1.0
 10
14.9789163213
 20
13.3140607321
 30
0.0
 10
14.979813378
 20
13.3177805927
 30
0.0
 10
14.9813983369
 20
13.3254655078
 30
0.0
 10
14.9831416505
 20
13.3373362295
 30
0.0
 10
14.984285113
 20
13.3496791806
 30
0.0
 10
14.9846372778
 20
13.3580519224
 30
0.0
 10
14.9847101029
 20
13.3622758826
 30
0.0
  0
SPLINE
  5
2D3
100
AcDbEntity
  8
0
100
AcDbSpline
 62
7
  6
CONTINUOUS
 70
0
 71
3
 72
16
 73
12
 74
0
 42
0.0000001
 43
0.0000001
 44
0.0000000001
 40
0.0
 40
0.0
 40
0.0
 40
0.0
 40
0.0483441264
 40
0.0995722495
 40
0.2100657336
 40
0.3300612611
 40
0.4577089674
 40
0.5908615954
 40
0.7272257194
 40
0.8644880815
 40
1.0
 40
1.0
 40
1.0
 40
1.0
 10
14.8851472063
 20
13.0825944505
 30
0.0
 10
14.8859160309
 20
13.0841084934
 30
0.0
 10
14.8874025668
 20
13.0872768211
 30
0.0
 10
14.89017718
 20
13.0941165696
 30
0.0
 10
14.8932241526
 20
13.1035457843
 30
0.0
 10
14.89614532
 20
13.1157918627
 30
0.0
 10
14.8983559372
 20
13.1289928006
 30
0.0
 10
14.8998115124
 20
13.1428749675
 30
0.0
 10
14.9004792047
 20
13.1571550961
 30
0.0
 10
14.9003433364
 20
13.1715322983
 30
0.0
 10
14.899714651
 20
13.1810990082
 30
0.0
 10
14.8992605996
 20
13.185837089
 30
0.0
  0
SPLINE
  5
2D4
100
AcDbEntity
  8
AXIS
100
AcDbSpline
 62
7
  6
CONTINUOUS
 70
0
 71
3
 72
15
 73
11
 74
0
 42
0.0000001
 43
0.0000001
 44
0.0000000001
 40
0.0
 40
0.0
 40
0.0
 40
0.0
 40
0.0978834343
 40
0.1991199524
 40
0.3066922192
 40
0.4229620006
 40
0.5496367007
 40
0.6878408631
 40
0.8379727809
 40
1.0
 40
1.0
 40
1.0
 40
1.0
 10
16.0521179946
 20
13.093706878
 30
0.0
 10
16.0510792212
 20
13.0937065309
 30
0.0
 10
16.0489603074
 20
13.0934855098
 30
0.0
 10
16.045836445
 20
13.0925069338
 30
0.0
 10
16.0427688399
 20
13.0908926739
 30
0.0
 10
16.0397753035
 20
13.0886635502
 30
0.0
 10
16.0368684605
 20
13.0858367896
 30
0.0
 10
16.0340653784
 20
13.0824299696
 30
0.0
 10
16.0313795145
 20
13.0784699333
 30
0.0
 10
16.029740034
 20
13.075587338
 30
0.0
 10
16.0289398574
 20
13.0740653779
 30
0.0
  0
SPLINE
  5
2D5
100
AcDbEntity
  8
AXIS
100
AcDbSpline
 62
7
  6
CONTINUOUS
 70
0
 71
3
 72
13
 73
9
 74
0
 42
0.0000001
 43
0.0000001
 44
0.0000000001
 40
0.0
 40
0.0
 40
0.0
 40
0.0
 40
0.119292987
 40
0.239160849
 40
0.3601673502
 40
0.4828576757
 40
0.735184126
 40
1.0
 40
1.0
 40
1.0
 40
1.0
 10
15.8740766534
 20
11.6310549955
 30
0.0
 10
15.8774368616
 20
11.631054975
 30
0.0
 10
15.8841762315
 20
11.6313102806
 30
0.0
 10
15.8942653032
 20
11.6324568765
 30
0.0
 10
15.9043362856
 20
11.6343659797
 30
0.0
 10
15.9178495169
 20
11.6379577288
 30
0.0
 10
15.9347313888
 20
11.6444338645
 30
0.0
 10
15.9475821331
 20
11.6513794022
 30
0.0
 10
15.9539343741
 20
11.6552895786
 30
0.0
  0
SPLINE
  5
2D6
100
AcDbEntity
  8
AXIS
100
AcDbSpline
 62
7
  6
CONTINUOUS
 70
0
 71
3
 72
20
 73
16
 74
0
 42
0.0000001
 43
0.0000001
 44
0.0000000001
 40
0.0
 40
0.0
 40
0.0
 40
0.0
 40
0.0926141359
 40
0.1420680951
 40
0.1937628141
 40
0.2477841575
 40
0.3041950673
 40
0.3630332305
 40
0.4243187877
 40
0.4880543002
 40
0.5542226516
 40
0.622795936
 40
0.6937367328
 40
0.8425137278
 40
1.0
 40
1.0
 40
1.0
 40
1.0
 10
15.9583802821
 20
11.6581071467
 30
0.0
 10
15.9677741534
 20
11.6642318238
 30
0.0
 10
15.9814384864
 20
11.6748086586
 30
0.0
 10
15.9985275629
 20
11.6908937001
 30
0.0
 10
16.0114187075
 20
11.7045791766
 30
0.0
 10
16.0240778619
 20
11.7195944535
 30
0.0
 10
16.0364862338
 20
11.7359177841
 30
0.0
 10
16.0486246603
 20
11.7535209558
 30
0.0
 10
16.0604733225
 20
11.7723757784
 30
0.0
 10
16.0720123126
 20
11.7924514342
 30
0.0
 10
16.0832239891
 20
11.8137139327
 30
0.0
 10
16.0940892657
 20
11.8361288052
 30
0.0
 10
16.1083166773
 20
11.8680108116
 30
0.0
 10
16.1250448439
 20
11.9105380533
 30
0.0
 10
16.1368071284
 20
11.9457245898
 30
0.0
 10
16.1424372355
 20
11.9639436233
 30
0.0
  0
SPLINE
  5
2D7
100
AcDbEntity
  8
AXIS
100
AcDbSpline
 62
7
  6
CONTINUOUS
 70
0
 71
3
 72
43
 73
39
 74
0
 42
0.0000001
 43
0.0000001
 44
0.0000000001
 40
0.0
 40
0.0
 40
0.0
 40
0.0
 40
0.0076947844
 40
0.0154420531
 40
0.0232929421
 40
0.0312962562
 40
0.0394971824
 40
0.0479367772
 40
0.0656643127
 40
0.0847286927
 40
0.0948208827
 40
0.1053048864
 40
0.1274874388
 40
0.1513402144
 40
0.1768804277
 40
0.2040913371
 40
0.2329296958
 40
0.2633298263
 40
0.2952067849
 40
0.3284605097
 40
0.36297698
 40
0.3986308537
 40
0.4352874422
 40
0.4728034322
 40
0.5110292165
 40
0.5498096975
 40
0.5889855891
 40
0.6283949264
 40
0.6678738664
 40
0.7072582565
 40
0.7463844613
 40
0.7850907121
 40
0.8232185338
 40
0.8606137135
 40
0.8971263418
 40
0.9326150398
 40
0.9669518807
 40
1.0
 40
1.0
 40
1.0
 40
1.0
 10
15.8740766534
 20
13.3905549903
 30
0.0
 10
15.8780796142
 20
13.3905549659
 30
0.0
 10
15.886117463
 20
13.3901919567
 30
0.0
 10
15.8981400881
 20
13.3885628004
 30
0.0
 10
15.910130771
 20
13.3858513752
 30
0.0
 10
15.9220718205
 20
13.3820609728
 30
0.0
 10
15.9339489013
 20
13.3771987378
 30
0.0
 10
15.9499392381
 20
13.3691673256
 30
0.0
 10
15.9697420306
 20
13.3563113519
 30
0.0
 10
15.988414831
 20
13.3405345048
 30
0.0
 10
16.0030646202
 20
13.3260111259
 30
0.0
 10
16.0180616296
 20
13.3095716271
 30
0.0
 10
16.0363140144
 20
13.2864687678
 30
0.0
 10
16.0570136801
 20
13.2554788966
 30
0.0
 10
16.0768135898
 20
13.2208624774
 30
0.0
 10
16.0956216204
 20
13.182787374
 30
0.0
 10
16.1133483075
 20
13.1414348102
 30
0.0
 10
16.1299076401
 20
13.0970039572
 30
0.0
 10
16.145220374
 20
13.0497099875
 30
0.0
 10
16.1592105857
 20
12.9997821812
 30
0.0
 10
16.1718101609
 20
12.9474636027
 30
0.0
 10
16.1829576499
 20
12.8930093778
 30
0.0
 10
16.19259716
 20
12.8366851726
 30
0.0
 10
16.2006822669
 20
12.778766331
 30
0.0
 10
16.2071727596
 20
12.7195360363
 30
0.0
 10
16.2120362264
 20
12.6592840018
 30
0.0
 10
16.2152496541
 20
12.5983051446
 30
0.0
 10
16.2167962849
 20
12.53689793
 30
0.0
 10
16.2166688668
 20
12.4753629574
 30
0.0
 10
16.2148684395
 20
12.4140014903
 30
0.0
 10
16.211402877
 20
12.3531139766
 30
0.0
 10
16.206290284
 20
12.2929983681
 30
0.0
 10
16.1995554526
 20
12.2339487076
 30
0.0
 10
16.1912309286
 20
12.1762543332
 30
0.0
 10
16.1813592979
 20
12.1201973979
 30
0.0
 10
16.1699874425
 20
12.0660489974
 30
0.0
 10
16.1571714514
 20
12.0140784536
 30
0.0
 10
16.1475131895
 20
11.9803694164
 30
0.0
 10
16.1424372355
 20
11.9639436233
 30
0.0
  0
SPLINE
  5
2D8
100
AcDbEntity
  8
0
100
AcDbSpline
 62
7
  6
CONTINUOUS
 70
0
 71
3
 72
15
 73
11
 74
0
 42
0.0000001
 43
0.0000001
 44
0.0000000001
 40
0.0
 40
0.0
 40
0.0
 40
0.0
 40
0.1760022928
 40
0.33951981
 40
0.4879875607
 40
0.6201280157
 40
0.7354816569
 40
0.8349656825
 40
0.9213479729
 40
1.0
 40
1.0
 40
1.0
 40
1.0
 10
15.2060889733
 20
13.5735381674
 30
0.0
 10
15.2062447866
 20
13.5743371708
 30
0.0
 10
15.206593717
 20
13.5758697076
 30
0.0
 10
15.2072532466
 20
13.5780306521
 30
0.0
 10
15.2080228326
 20
13.5799385659
 30
0.0
 10
15.2088854694
 20
13.5815590369
 30
0.0
 10
15.2098295
 20
13.5828646927
 30
0.0
 10
15.2108432149
 20
13.5838355994
 30
0.0
 10
15.2119224303
 20
13.5844456444
 30
0.0
 10
15.2126905914
 20
13.5845897045
 30
0.0
 10
15.2130543763
 20
13.5845901482
 30
0.0
  0
SPLINE
  5
2D9
100
AcDbEntity
  8
0
100
AcDbSpline
 62
7
  6
CONTINUOUS
 70
0
 71
3
 72
15
 73
11
 74
0
 42
0.0000001
 43
0.0000001
 44
0.0000000001
 40
0.0
 40
0.0
 40
0.0
 40
0.0
 40
0.1623834038
 40
0.3191133914
 40
0.4666255
 40
0.6023622349
 40
0.724300549
 40
0.8311718128
 40
0.9226420668
 40
1.0
 40
1.0
 40
1.0
 40
1.0
 10
15.088448776
 20
13.5477863033
 30
0.0
 10
15.0885011681
 20
13.5487883561
 30
0.0
 10
15.0886636744
 20
13.55075502
 30
0.0
 10
15.0890814719
 20
13.5536100822
 30
0.0
 10
15.0896642701
 20
13.5562682432
 30
0.0
 10
15.0903952265
 20
13.5586663387
 30
0.0
 10
15.0912590087
 20
13.5607512636
 30
0.0
 10
15.0922363776
 20
13.5624801596
 30
0.0
 10
15.0933103807
 20
13.5638136003
 30
0.0
 10
15.094142652
 20
13.5644684048
 30
0.0
 10
15.0945631407
 20
13.5646957656
 30
0.0
  0
SPLINE
  5
2DA
100
AcDbEntity
  8
0
100
AcDbSpline
 62
7
  6
CONTINUOUS
 70
0
 71
3
 72
11
 73
7
 74
0
 42
0.0000001
 43
0.0000001
 44
0.0000000001
 40
0.0
 40
0.0
 40
0.0
 40
0.0
 40
0.2909711129
 40
0.549531777
 40
0.7821768304
 40
1.0
 40
1.0
 40
1.0
 40
1.0
 10
14.9984286044
 20
13.4804331881
 30
0.0
 10
14.9986755734
 20
13.4807397974
 30
0.0
 10
14.9991813949
 20
13.4812895139
 30
0.0
 10
15.000028736
 20
13.4819349304
 30
0.0
 10
15.0009111081
 20
13.4823357174
 30
0.0
 10
15.0015238398
 20
13.4824269708
 30
0.0
 10
15.0018185696
 20
13.4824268999
 30
0.0
  0
SPLINE
  5
2DB
100
AcDbEntity
  8
0
100
AcDbSpline
 62
7
  6
CONTINUOUS
 70
0
 71
3
 72
15
 73
11
 74
0
 42
0.0000001
 43
0.0000001
 44
0.0000000001
 40
0.0
 40
0.0
 40
0.0
 40
0.0
 40
0.14327263
 40
0.2868668043
 40
0.427439459
 40
0.5622659626
 40
0.6888854924
 40
0.8051682253
 40
0.9093047711
 40
1.0
 40
1.0
 40
1.0
 40
1.0
 10
14.9784506945
 20
13.4388719646
 30
0.0
 10
14.9783899227
 20
13.4398902647
 30
0.0
 10
14.9783312361
 20
13.4419333722
 30
0.0
 10
14.9784224764
 20
13.4449771201
 30
0.0
 10
14.9786939263
 20
13.4479499651
 30
0.0
 10
14.9791364376
 20
13.4507801596
 30
0.0
 10
14.9797409345
 20
13.4534033583
 30
0.0
 10
14.9804918569
 20
13.4557611897
 30
0.0
 10
14.9813740584
 20
13.4577972608
 30
0.0
 10
14.9820837825
 20
13.458996502
 30
0.0
 10
14.9824627269
 20
13.4595193816
 30
0.0
  0
SPLINE
  5
2DC
100
AcDbEntity
  8
0
100
AcDbSpline
 62
7
  6
CONTINUOUS
 70
0
 71
3
 72
9
 73
5
 74
0
 42
0.0000001
 43
0.0000001
 44
0.0000000001
 40
0.0
 40
0.0
 40
0.0
 40
0.0
 40
0.504260522
 40
1.0
 40
1.0
 40
1.0
 40
1.0
 10
14.9847101029
 20
13.3622758826
 30
0.0
 10
14.9847385477
 20
13.3639257157
 30
0.0
 10
14.9846901396
 20
13.3672001275
 30
0.0
 10
14.9844306191
 20
13.3704648438
 30
0.0
 10
14.9842458247
 20
13.372076479
 30
0.0
  0
SPLINE
  5
2DD
100
AcDbEntity
  8
0
100
AcDbSpline
 62
7
  6
CONTINUOUS
 70
0
 71
3
 72
14
 73
10
 74
0
 42
0.0000001
 43
0.0000001
 44
0.0000000001
 40
0.0
 40
0.0
 40
0.0
 40
0.0
 40
0.3205513023
 40
0.4614836107
 40
0.5892567733
 40
0.7047630467
 40
0.8097998793
 40
0.9070083125
 40
1.0
 40
1.0
 40
1.0
 40
1.0
 10
14.899463199
 20
13.3091330873
 30
0.0
 10
14.8997900867
 20
13.309893214
 30
0.0
 10
14.9003286735
 20
13.3109633146
 30
0.0
 10
14.901197445
 20
13.3122145531
 30
0.0
 10
14.9018522877
 20
13.3129628108
 30
0.0
 10
14.9025335386
 20
13.3135546518
 30
0.0
 10
14.9032369226
 20
13.3139854165
 30
0.0
 10
14.9039581461
 20
13.3142485585
 30
0.0
 10
14.9044509226
 20
13.3143078431
 30
0.0
 10
14.9046909608
 20
13.3143078282
 30
0.0
  0
SPLINE
  5
2DE
100
AcDbEntity
  8
0
100
AcDbSpline
 62
7
  6
CONTINUOUS
 70
0
 71
3
 72
15
 73
11
 74
0
 42
0.0000001
 43
0.0000001
 44
0.0000000001
 40
0.0
 40
0.0
 40
0.0
 40
0.0
 40
0.1260409855
 40
0.2572128441
 40
0.3905374357
 40
0.5233574886
 40
0.6531197731
 40
0.7773808185
 40
0.8937779449
 40
1.0
 40
1.0
 40
1.0
 40
1.0
 10
14.8848529497
 20
13.2548043444
 30
0.0
 10
14.8846796095
 20
13.2557557542
 30
0.0
 10
14.8843963089
 20
13.2577105841
 30
0.0
 10
14.884153287
 20
13.2606989421
 30
0.0
 10
14.8840910606
 20
13.2637486399
 30
0.0
 10
14.884208762
 20
13.2667858368
 30
0.0
 10
14.8845049066
 20
13.2697410687
 30
0.0
 10
14.8849711154
 20
13.2725470351
 30
0.0
 10
14.8855985294
 20
13.2751359664
 30
0.0
 10
14.8861385111
 20
13.2767596431
 30
0.0
 10
14.8864377621
 20
13.2775177234
 30
0.0
  0
SPLINE
  5
2DF
100
AcDbEntity
  8
0
100
AcDbSpline
 62
7
  6
CONTINUOUS
 70
0
 71
3
 72
9
 73
5
 74
0
 42
0.0000001
 43
0.0000001
 44
0.0000000001
 40
0.0
 40
0.0
 40
0.0
 40
0.0
 40
0.514696179
 40
1.0
 40
1.0
 40
1.0
 40
1.0
 10
14.8992605996
 20
13.185837089
 30
0.0
 10
14.8991100158
 20
13.1874084489
 30
0.0
 10
14.8987169663
 20
13.190452826
 30
0.0
 10
14.8981019792
 20
13.193461295
 30
0.0
 10
14.8977401106
 20
13.1949050487
 30
0.0
  0
SPLINE
  5
2E0
100
AcDbEntity
  8
0
100
AcDbSpline
 62
7
  6
CONTINUOUS
 70
0
 71
3
 72
23
 73
19
 74
0
 42
0.0000001
 43
0.0000001
 44
0.0000000001
 40
0.0
 40
0.0
 40
0.0
 40
0.0
 40
0.0364026154
 40
0.0776337962
 40
0.1239650861
 40
0.1753936
 40
0.2317184627
 40
0.292531838
 40
0.3573152871
 40
0.4254388937
 40
0.4962138644
 40
0.5688863694
 40
0.6426715915
 40
0.7167496052
 40
0.7903022223
 40
0.8625580815
 40
0.9327422664
 40
1.0
 40
1.0
 40
1.0
 40
1.0
 10
14.8133175689
 20
12.8068535378
 30
0.0
 10
14.8148291494
 20
12.8079480854
 30
0.0
 10
14.8177988435
 20
12.8106383133
 30
0.0
 10
14.8217833896
 20
12.8156129544
 30
0.0
 10
14.8255134637
 20
12.8217025695
 30
0.0
 10
14.8289489963
 20
12.828827509
 30
0.0
 10
14.8320476425
 20
12.8369037295
 30
0.0
 10
14.8347742887
 20
12.8458297076
 30
0.0
 10
14.8370891869
 20
12.8554932969
 30
0.0
 10
14.8389661723
 20
12.8657701948
 30
0.0
 10
14.840377196
 20
12.8765289277
 30
0.0
 10
14.8413070888
 20
12.8876308522
 30
0.0
 10
14.84174004
 20
12.8989325306
 30
0.0
 10
14.8416742358
 20
12.9102873818
 30
0.0
 10
14.8411073156
 20
12.9215498137
 30
0.0
 10
14.8400486474
 20
12.9325765105
 30
0.0
 10
14.8385093543
 20
12.9432204093
 30
0.0
 10
14.8371471325
 20
12.9501378415
 30
0.0
 10
14.836383069
 20
12.9535002293
 30
0.0
  0
SPLINE
  5
2E1
100
AcDbEntity
  8
0
100
AcDbSpline
 62
7
  6
CONTINUOUS
 70
0
 71
3
 72
15
 73
11
 74
0
 42
0.0000001
 43
0.0000001
 44
0.0000000001
 40
0.0
 40
0.0
 40
0.0
 40
0.0
 40
0.1749023818
 40
0.336956633
 40
0.4840287104
 40
0.6150566736
 40
0.7300790192
 40
0.830254624
 40
0.9185380424
 40
1.0
 40
1.0
 40
1.0
 40
1.0
 10
14.8232944029
 20
13.0731857382
 30
0.0
 10
14.82346137
 20
13.0738860103
 30
0.0
 10
14.8238255926
 20
13.0752255559
 30
0.0
 10
14.8244875709
 20
13.0771067616
 30
0.0
 10
14.8252373537
 20
13.0787591504
 30
0.0
 10
14.8260633255
 20
13.0801550664
 30
0.0
 10
14.8269531526
 20
13.0812755752
 30
0.0
 10
14.8279006206
 20
13.0821032773
 30
0.0
 10
14.8288981744
 20
13.0826219332
 30
0.0
 10
14.8296013282
 20
13.0827417061
 30
0.0
 10
14.8299366273
 20
13.0827414185
 30
0.0
  0
SPLINE
  5
2E2
100
AcDbEntity
  8
0
100
AcDbSpline
 62
7
  6
CONTINUOUS
 70
0
 71
3
 72
15
 73
11
 74
0
 42
0.0000001
 43
0.0000001
 44
0.0000000001
 40
0.0
 40
0.0
 40
0.0
 40
0.0
 40
0.1099442902
 40
0.2291653868
 40
0.3551951339
 40
0.4855924573
 40
0.6178747979
 40
0.7494926599
 40
0.8778258273
 40
1.0
 40
1.0
 40
1.0
 40
1.0
 10
14.8149635906
 20
13.0091770619
 30
0.0
 10
14.8146865219
 20
13.0099808922
 30
0.0
 10
14.8141922887
 20
13.0116855607
 30
0.0
 10
14.813633496
 20
13.0143772172
 30
0.0
 10
14.8132412938
 20
13.0172578349
 30
0.0
 10
14.8130227969
 20
13.0202577736
 30
0.0
 10
14.8129845258
 20
13.0233085744
 30
0.0
 10
14.813126084
 20
13.0263404473
 30
0.0
 10
14.8134463969
 20
13.0292799847
 30
0.0
 10
14.8137814162
 20
13.0311899755
 30
0.0
 10
14.8139803754
 20
13.0321136093
 30
0.0
  0
SPLINE
  5
2E3
100
AcDbEntity
  8
0
100
AcDbSpline
 62
7
  6
CONTINUOUS
 70
0
 71
3
 72
9
 73
5
 74
0
 42
0.0000001
 43
0.0000001
 44
0.0000000001
 40
0.0
 40
0.0
 40
0.0
 40
0.0
 40
0.5124775725
 40
1.0
 40
1.0
 40
1.0
 40
1.0
 10
14.8149635906
 20
13.0091770619
 30
0.0
 10
14.817841686
 20
13.0008271447
 30
0.0
 10
14.8237891414
 20
12.984645663
 30
0.0
 10
14.8304695166
 20
12.9687507518
 30
0.0
 10
14.8339253655
 20
12.9610924396
 30
0.0
  0
SPLINE
  5
2E4
100
AcDbEntity
  8
0
100
AcDbSpline
 62
7
  6
CONTINUOUS
 70
0
 71
3
 72
9
 73
5
 74
0
 42
0.0000001
 43
0.0000001
 44
0.0000000001
 40
0.0
 40
0.0
 40
0.0
 40
0.0
 40
0.5263751155
 40
1.0
 40
1.0
 40
1.0
 40
1.0
 10
14.836383069
 20
12.9535002293
 30
0.0
 10
14.8360724262
 20
12.9548672642
 30
0.0
 10
14.8353812763
 20
12.9574428951
 30
0.0
 10
14.8344441975
 20
12.9599426852
 30
0.0
 10
14.8339253655
 20
12.9610924396
 30
0.0
  0
SPLINE
  5
2E5
100
AcDbEntity
  8
AXIS
100
AcDbSpline
 62
7
  6
CONTINUOUS
 70
0
 71
3
 72
27
 73
23
 74
0
 42
0.0000001
 43
0.0000001
 44
0.0000000001
 40
0.0
 40
0.0
 40
0.0
 40
0.0
 40
0.0760465147
 40
0.1545336495
 40
0.2343199349
 40
0.3143974845
 40
0.393763866
 40
0.4713874598
 40
0.546280619
 40
0.6175291172
 40
0.6843132816
 40
0.7459311652
 40
0.8018584889
 40
0.8517861314
 40
0.8745079468
 40
0.8957732312
 40
0.9156521863
 40
0.9342620612
 40
0.9517669935
 40
0.9683769812
 40
0.9843524845
 40
1.0
 40
1.0
 40
1.0
 40
1.0
 10
15.6956543356
 20
11.9955530342
 30
0.0
 10
15.695004536
 20
11.9916959984
 30
0.0
 10
15.6939062937
 20
11.9838194111
 30
0.0
 10
15.6928519585
 20
11.9718088647
 30
0.0
 10
15.6923813117
 20
11.9595536263
 30
0.0
 10
15.6924985177
 20
11.9472448921
 30
0.0
 10
15.6932029135
 20
11.9350670302
 30
0.0
 10
15.6944820057
 20
11.9232039045
 30
0.0
 10
15.6963179115
 20
11.9118362814
 30
0.0
 10
15.6986810933
 20
11.9011358103
 30
0.0
 10
15.7015352628
 20
11.8912633307
 30
0.0
 10
15.7048379591
 20
11.8823651753
 30
0.0
 10
15.7085383031
 20
11.8745730645
 30
0.0
 10
15.7120147487
 20
11.8689246478
 30
0.0
 10
15.71497487
 20
11.8651021797
 30
0.0
 10
15.7171888791
 20
11.8626700918
 30
0.0
 10
15.7194602121
 20
11.8605923948
 30
0.0
 10
15.7217812365
 20
11.8588773116
 30
0.0
 10
15.7241437262
 20
11.8575314379
 30
0.0
 10
15.7265401423
 20
11.8565621729
 30
0.0
 10
15.7289607384
 20
11.8559783034
 30
0.0
 10
15.7305900765
 20
11.8558478775
 30
0.0
 10
15.7313948934
 20
11.8558478632
 30
0.0
  0
SPLINE
  5
2E6
100
AcDbEntity
  8
AXIS
100
AcDbSpline
 62
7
  6
CONTINUOUS
 70
0
 71
3
 72
15
 73
11
 74
0
 42
0.0000001
 43
0.0000001
 44
0.0000000001
 40
0.0
 40
0.0
 40
0.0
 40
0.0
 40
0.1482410438
 40
0.2885005239
 40
0.421173636
 40
0.5468866567
 40
0.6664905746
 40
0.7810280392
 40
0.8917312134
 40
1.0
 40
1.0
 40
1.0
 40
1.0
 10
15.7596548423
 20
11.8870456958
 30
0.0
 10
15.7636972547
 20
11.8821558002
 30
0.0
 10
15.7718702575
 20
11.8728854206
 30
0.0
 10
15.7847543928
 20
11.8602546663
 30
0.0
 10
15.7978865669
 20
11.8493294143
 30
0.0
 10
15.8112331752
 20
11.8401436884
 30
0.0
 10
15.8247621988
 20
11.8327241016
 30
0.0
 10
15.8384425543
 20
11.8270972106
 30
0.0
 10
15.8522334354
 20
11.8232831991
 30
0.0
 10
15.8615420788
 20
11.8219546099
 30
0.0
 10
15.8661625758
 20
11.8216048408
 30
0.0
  0
SPLINE
  5
2E7
100
AcDbEntity
  8
AXIS
100
AcDbSpline
 62
7
  6
CONTINUOUS
 70
0
 71
3
 72
23
 73
19
 74
0
 42
0.0000001
 43
0.0000001
 44
0.0000000001
 40
0.0
 40
0.0
 40
0.0
 40
0.0
 40
0.083671844
 40
0.1643545694
 40
0.2419779209
 40
0.3164986263
 40
0.3879216439
 40
0.4562746952
 40
0.5216094106
 40
0.5840057138
 40
0.6435735055
 40
0.7004652232
 40
0.7548789565
 40
0.8070564591
 40
0.8572917781
 40
0.9059282081
 40
0.9533542726
 40
1.0
 40
1.0
 40
1.0
 40
1.0
 10
15.6988174355
 20
13.033166742
 30
0.0
 10
15.7016547053
 20
13.0394441062
 30
0.0
 10
15.7074243379
 20
13.0516871597
 30
0.0
 10
15.7165378821
 20
13.0694073362
 30
0.0
 10
15.7259378182
 20
13.0861188133
 30
0.0
 10
15.7356071409
 20
13.101787382
 30
0.0
 10
15.7455271184
 20
13.1163852304
 30
0.0
 10
15.7556813121
 20
13.1298871232
 30
0.0
 10
15.7660527597
 20
13.1422692118
 30
0.0
 10
15.7766225089
 20
13.1535101328
 30
0.0
 10
15.7873734447
 20
13.1635883024
 30
0.0
 10
15.7982873559
 20
13.1724846535
 30
0.0
 10
15.8093449907
 20
13.1801834143
 30
0.0
 10
15.8205288984
 20
13.1866677039
 30
0.0
 10
15.8318191754
 20
13.1919239955
 30
0.0
 10
15.8431958324
 20
13.1959409191
 30
0.0
 10
15.8546361891
 20
13.1987056308
 30
0.0
 10
15.8623331564
 20
13.1997150543
 30
0.0
 10
15.8661625763
 20
13.2000051248
 30
0.0
  0
SPLINE
  5
2E8
100
AcDbEntity
  8
AXIS
100
AcDbSpline
 62
7
  6
CONTINUOUS
 70
0
 71
3
 72
23
 73
19
 74
0
 42
0.0000001
 43
0.0000001
 44
0.0000000001
 40
0.0
 40
0.0
 40
0.0
 40
0.0
 40
0.0619435608
 40
0.1257159649
 40
0.1909378449
 40
0.2572524235
 40
0.3242759849
 40
0.3916185931
 40
0.45888925
 40
0.525696398
 40
0.5916536427
 40
0.6563830425
 40
0.7195191239
 40
0.7807149209
 40
0.8396430752
 40
0.8960022339
 40
0.9495368051
 40
1.0
 40
1.0
 40
1.0
 40
1.0
 10
15.6361599884
 20
12.8304071689
 30
0.0
 10
15.6326648992
 20
12.8132501986
 30
0.0
 10
15.6262682482
 20
12.7782845781
 30
0.0
 10
15.6185173608
 20
12.7248613655
 30
0.0
 10
15.612509995
 20
12.6699708659
 30
0.0
 10
15.6082869568
 20
12.6139934748
 30
0.0
 10
15.6058772408
 20
12.557308999
 30
0.0
 10
15.605297491
 20
12.5003061824
 30
0.0
 10
15.6065520144
 20
12.4433753714
 30
0.0
 10
15.6096321045
 20
12.3869060747
 30
0.0
 10
15.6145160384
 20
12.3312847869
 30
0.0
 10
15.6211705007
 20
12.2768921117
 30
0.0
 10
15.6295496216
 20
12.2240997827
 30
0.0
 10
15.6395952558
 20
12.1732683773
 30
0.0
 10
15.6512380479
 20
12.1247453196
 30
0.0
 10
15.6643985672
 20
12.0788578635
 30
0.0
 10
15.6789864507
 20
12.0359229793
 30
0.0
 10
15.6899322608
 20
12.0086192627
 30
0.0
 10
15.6956543356
 20
11.9955530342
 30
0.0
  0
SPLINE
  5
2E9
100
AcDbEntity
  8
0
100
AcDbSpline
 62
7
  6
CONTINUOUS
 70
0
 71
3
 72
23
 73
19
 74
0
 42
0.0000001
 43
0.0000001
 44
0.0000000001
 40
0.0
 40
0.0
 40
0.0
 40
0.0
 40
0.0464965588
 40
0.097825635
 40
0.1536125964
 40
0.2134121234
 40
0.2767054024
 40
0.342854497
 40
0.4111689318
 40
0.4809105343
 40
0.5513208024
 40
0.6216259328
 40
0.6910522225
 40
0.7588398224
 40
0.8242586581
 40
0.8866647078
 40
0.9454486662
 40
1.0
 40
1.0
 40
1.0
 40
1.0
 10
14.795730831
 20
12.5289327367
 30
0.0
 10
14.7970524999
 20
12.5310623757
 30
0.0
 10
14.7995679749
 20
12.5357095614
 30
0.0
 10
14.8028409805
 20
12.543324922
 30
0.0
 10
14.8057564832
 20
12.5518452921
 30
0.0
 10
14.8082797228
 20
12.5611580136
 30
0.0
 10
14.8103760987
 20
12.5711466896
 30
0.0
 10
14.812021835
 20
12.5816835843
 30
0.0
 10
14.8131911858
 20
12.5926331884
 30
0.0
 10
14.8138724016
 20
12.6038538434
 30
0.0
 10
14.8140533168
 20
12.6152009242
 30
0.0
 10
14.8137347345
 20
12.6265279932
 30
0.0
 10
14.812917336
 20
12.6376884002
 30
0.0
 10
14.8116158235
 20
12.6485378094
 30
0.0
 10
14.809843884
 20
12.6589370841
 30
0.0
 10
14.8076266068
 20
12.6687545597
 30
0.0
 10
14.8049902599
 20
12.6778597443
 30
0.0
 10
14.802897586
 20
12.6836066693
 30
0.0
 10
14.8017770301
 20
12.6863254231
 30
0.0
  0
SPLINE
  5
2EA
100
AcDbEntity
  8
AXIS
100
AcDbSpline
 62
7
  6
CONTINUOUS
 70
0
 71
3
 72
30
 73
26
 74
0
 42
0.0000001
 43
0.0000001
 44
0.0000000001
 40
0.0
 40
0.0
 40
0.0
 40
0.0
 40
0.0303163727
 40
0.0622419233
 40
0.1303278281
 40
0.20310199
 40
0.2793465224
 40
0.3576729205
 40
0.4366233736
 40
0.514725153
 40
0.5905336414
 40
0.6626792736
 40
0.7299183678
 40
0.7613721233
 40
0.7912244492
 40
0.8193893458
 40
0.8458064603
 40
0.8704361207
 40
0.8932806913
 40
0.9143899128
 40
0.9338604676
 40
0.9518625211
 40
0.9686496948
 40
0.9845566375
 40
1.0
 40
1.0
 40
1.0
 40
1.0
 10
15.6361599884
 20
12.8304071689
 30
0.0
 10
15.6352320911
 20
12.8326952407
 30
0.0
 10
15.6334519885
 20
12.8374442342
 30
0.0
 10
15.6301881951
 20
12.8475473157
 30
0.0
 10
15.6267251038
 20
12.8612033168
 30
0.0
 10
15.6236127899
 20
12.8786216901
 30
0.0
 10
15.6215277324
 20
12.8970315793
 30
0.0
 10
15.6205143914
 20
12.9160340048
 30
0.0
 10
15.620597311
 20
12.935214414
 30
0.0
 10
15.6217751868
 20
12.9541535442
 30
0.0
 10
15.6240196598
 20
12.9724390909
 30
0.0
 10
15.6272814259
 20
12.9896720363
 30
0.0
 10
15.630863175
 20
13.0031338219
 30
0.0
 10
15.6342158431
 20
13.0130550519
 30
0.0
 10
15.6368777937
 20
13.0198416201
 30
0.0
 10
15.6397282774
 20
13.0261035893
 30
0.0
 10
15.6427504588
 20
13.0318081509
 30
0.0
 10
15.6459302206
 20
13.036923901
 30
0.0
 10
15.6492514193
 20
13.0414233797
 30
0.0
 10
15.6526959208
 20
13.0452843123
 30
0.0
 10
15.6562498786
 20
13.0484842603
 30
0.0
 10
15.6598980247
 20
13.0510029478
 30
0.0
 10
15.6636233257
 20
13.0528244795
 30
0.0
 10
15.6674063883
 20
13.0539278223
 30
0.0
 10
15.6699660551
 20
13.0541744558
 30
0.0
 10
15.6712238116
 20
13.0541743481
 30
0.0
  0
LINE
  5
2EB
100
AcDbEntity
  8
AXIS
100
AcDbLine
 62
7
  6
CONTINUOUS
 10
15.7021775095
 20
11.8904894179
 11
15.7596548423
 21
11.8870456958
  0
SPLINE
  5
2EC
100
AcDbEntity
  8
0
100
AcDbSpline
 62
7
  6
CONTINUOUS
 70
0
 71
3
 72
23
 73
19
 74
0
 42
0.0000001
 43
0.0000001
 44
0.0000000001
 40
0.0
 40
0.0
 40
0.0
 40
0.0
 40
0.0583811643
 40
0.120637698
 40
0.1860750795
 40
0.2540260238
 40
0.323801611
 40
0.3946394355
 40
0.465756145
 40
0.5363693076
 40
0.6057054081
 40
0.6730205022
 40
0.7376011275
 40
0.7987985096
 40
0.8560297425
 40
0.9088508105
 40
0.9569171389
 40
1.0
 40
1.0
 40
1.0
 40
1.0
 10
14.8093407729
 20
12.2495439817
 30
0.0
 10
14.8103573923
 20
12.2524913625
 30
0.0
 10
14.8122355459
 20
12.2586598517
 30
0.0
 10
14.8145495036
 20
12.2683289769
 30
0.0
 10
14.8164213643
 20
12.2786130968
 30
0.0
 10
14.8178293048
 20
12.2893753263
 30
0.0
 10
14.8187529782
 20
12.3004790443
 30
0.0
 10
14.8191835742
 20
12.3117818026
 30
0.0
 10
14.8191115258
 20
12.3231372252
 30
0.0
 10
14.818541284
 20
12.3343983251
 30
0.0
 10
14.8174771376
 20
12.3454197786
 30
0.0
 10
14.8159363315
 20
12.3560597209
 30
0.0
 10
14.8139353811
 20
12.3661806347
 30
0.0
 10
14.8115047525
 20
12.3756529452
 30
0.0
 10
14.8086723155
 20
12.3843558684
 30
0.0
 10
14.8054762077
 20
12.392181864
 30
0.0
 10
14.8019541216
 20
12.3990278588
 30
0.0
 10
14.7992746098
 20
12.4031088026
 30
0.0
 10
14.7978780601
 20
12.4049372716
 30
0.0
  0
SPLINE
  5
2ED
100
AcDbEntity
  8
0
100
AcDbSpline
 62
7
  6
CONTINUOUS
 70
0
 71
3
 72
21
 73
17
 74
0
 42
0.0000001
 43
0.0000001
 44
0.0000000001
 40
0.0
 40
0.0
 40
0.0
 40
0.0
 40
0.0681857911
 40
0.1385470287
 40
0.2103532107
 40
0.2829500795
 40
0.4279744878
 40
0.5684778074
 40
0.635491344
 40
0.6995709399
 40
0.7602150516
 40
0.8169731755
 40
0.869498954
 40
0.9175361309
 40
0.9610022235
 40
1.0
 40
1.0
 40
1.0
 40
1.0
 10
14.8530452847
 20
11.9913116981
 30
0.0
 10
14.8536251191
 20
11.99447987
 30
0.0
 10
14.8546473896
 20
12.0009466298
 30
0.0
 10
14.855768086
 20
12.0108222063
 30
0.0
 10
14.8564875155
 20
12.0209442448
 30
0.0
 10
14.8569019752
 20
12.0346123144
 30
0.0
 10
14.8564034937
 20
12.0515400781
 30
0.0
 10
14.8545629577
 20
12.0681128364
 30
0.0
 10
14.8522743554
 20
12.0807404244
 30
0.0
 10
14.8502204425
 20
12.0895654672
 30
0.0
 10
14.8478276338
 20
12.0978020241
 30
0.0
 10
14.8451173002
 20
12.1053633435
 30
0.0
 10
14.8421220797
 20
12.1121718239
 30
0.0
 10
14.8388689913
 20
12.1181580631
 30
0.0
 10
14.835392058
 20
12.1232617841
 30
0.0
 10
14.8328067164
 20
12.126195996
 30
0.0
 10
14.831479719
 20
12.1274736289
 30
0.0
  0
SPLINE
  5
2EE
100
AcDbEntity
  8
0
100
AcDbSpline
 62
7
  6
CONTINUOUS
 70
0
 71
3
 72
15
 73
11
 74
0
 42
0.0000001
 43
0.0000001
 44
0.0000000001
 40
0.0
 40
0.0
 40
0.0
 40
0.0
 40
0.1342857252
 40
0.2692105943
 40
0.4028856719
 40
0.5337380547
 40
0.6602700329
 40
0.7810142603
 40
0.8946330077
 40
1.0
 40
1.0
 40
1.0
 40
1.0
 10
14.9233052495
 20
11.775147096
 30
0.0
 10
14.9235447027
 20
11.7791133553
 30
0.0
 10
14.9238339617
 20
11.7870774263
 30
0.0
 10
14.9237161748
 20
11.7990021895
 30
0.0
 10
14.9230452365
 20
11.8108073099
 30
0.0
 10
14.92183421
 20
11.8223198202
 30
0.0
 10
14.9200990865
 20
11.8333783579
 30
0.0
 10
14.9178669686
 20
11.8438275162
 30
0.0
 10
14.9151675944
 20
11.8535175133
 30
0.0
 10
14.9129957454
 20
11.8596304797
 30
0.0
 10
14.9118260862
 20
11.8625205432
 30
0.0
  0
SPLINE
  5
2EF
100
AcDbEntity
  8
0
100
AcDbSpline
 62
7
  6
CONTINUOUS
 70
0
 71
3
 72
9
 73
5
 74
0
 42
0.0000001
 43
0.0000001
 44
0.0000000001
 40
0.0
 40
0.0
 40
0.0
 40
0.0
 40
0.5095851981
 40
1.0
 40
1.0
 40
1.0
 40
1.0
 10
15.014431135
 20
11.6185548165
 30
0.0
 10
15.0141664999
 20
11.6236838063
 30
0.0
 10
15.0133388376
 20
11.6337355041
 30
0.0
 10
15.0118612873
 20
11.6437142234
 30
0.0
 10
15.0109560523
 20
11.6485732248
 30
0.0
  0
SPLINE
  5
2F0
100
AcDbEntity
  8
AXIS
100
AcDbSpline
 62
7
  6
CONTINUOUS
 70
0
 71
3
 72
23
 73
19
 74
0
 42
0.0000001
 43
0.0000001
 44
0.0000000001
 40
0.0
 40
0.0
 40
0.0
 40
0.0
 40
0.0853063808
 40
0.1677885671
 40
0.2472821078
 40
0.3236765855
 40
0.3968936539
 40
0.4668725928
 40
0.5335729068
 40
0.596985957
 40
0.6571422641
 40
0.7141113788
 40
0.7680138091
 40
0.8190225777
 40
0.8673783624
 40
0.9133898768
 40
0.9574438189
 40
1.0
 40
1.0
 40
1.0
 40
1.0
 10
15.6057160712
 20
13.0576663625
 30
0.0
 10
15.6092734878
 20
13.0691781669
 30
0.0
 10
15.6165998819
 20
13.0917207561
 30
0.0
 10
15.6284344518
 20
13.1245878043
 30
0.0
 10
15.6409058813
 20
13.1558683872
 30
0.0
 10
15.6539794192
 20
13.1854778495
 30
0.0
 10
15.6676224876
 20
13.2133414775
 30
0.0
 10
15.6818000841
 20
13.2393895228
 30
0.0
 10
15.6964763889
 20
13.2635552888
 30
0.0
 10
15.7116152259
 20
13.2857761782
 30
0.0
 10
15.727177669
 20
13.3059964322
 30
0.0
 10
15.7431276358
 20
13.3241633115
 30
0.0
 10
15.7594248835
 20
13.3402316655
 30
0.0
 10
15.7760336106
 20
13.3541569072
 30
0.0
 10
15.792912859
 20
13.3659026805
 30
0.0
 10
15.810026255
 20
13.3754315897
 30
0.0
 10
15.8273270527
 20
13.3827124868
 30
0.0
 10
15.8391214134
 20
13.3860944533
 30
0.0
 10
15.844993319
 20
13.3873789893
 30
0.0
  0
SPLINE
  5
2F1
100
AcDbEntity
  8
AXIS
100
AcDbSpline
 62
7
  6
CONTINUOUS
 70
0
 71
3
 72
17
 73
13
 74
0
 42
0.0000001
 43
0.0000001
 44
0.0000000001
 40
0.0
 40
0.0
 40
0.0
 40
0.0
 40
0.0445216572
 40
0.08967574
 40
0.1360684724
 40
0.1842426038
 40
0.2875783498
 40
0.4026158419
 40
0.531003365
 40
0.6735086639
 40
0.8301191359
 40
1.0
 40
1.0
 40
1.0
 40
1.0
 10
15.7313948934
 20
11.8558478632
 30
0.0
 10
15.7320548121
 20
11.8558478514
 30
0.0
 10
15.7333856078
 20
11.8559349626
 30
0.0
 10
15.7353694949
 20
11.8563257538
 30
0.0
 10
15.7373410533
 20
11.8569764247
 30
0.0
 10
15.7400067355
 20
11.8582140827
 30
0.0
 10
15.7432968349
 20
11.8604509305
 30
0.0
 10
15.7470007813
 20
11.8640416755
 30
0.0
 10
15.7505327731
 20
11.8685601007
 30
0.0
 10
15.75386361
 20
11.8739630438
 30
0.0
 10
15.7569614045
 20
11.8801949141
 30
0.0
 10
15.7587827247
 20
11.8846835011
 30
0.0
 10
15.7596548423
 20
11.8870456958
 30
0.0
  0
SPLINE
  5
2F2
100
AcDbEntity
  8
AXIS
100
AcDbSpline
 62
7
  6
CONTINUOUS
 70
0
 71
3
 72
15
 73
11
 74
0
 42
0.0000001
 43
0.0000001
 44
0.0000000001
 40
0.0
 40
0.0
 40
0.0
 40
0.0
 40
0.101098983
 40
0.2050432794
 40
0.3144306917
 40
0.4313943504
 40
0.5575797879
 40
0.6941173758
 40
0.8415290996
 40
1.0
 40
1.0
 40
1.0
 40
1.0
 10
15.6712238116
 20
13.0541743481
 30
0.0
 10
15.6724439211
 20
13.0541742435
 30
0.0
 10
15.6749242308
 20
13.0539420815
 30
0.0
 10
15.6785939944
 20
13.0529060948
 30
0.0
 10
15.6822115451
 20
13.0511925794
 30
0.0
 10
15.6857590907
 20
13.0488201521
 30
0.0
 10
15.6892219372
 20
13.0458030721
 30
0.0
 10
15.6925835384
 20
13.0421587121
 30
0.0
 10
15.6958304022
 20
13.0379121834
 30
0.0
 10
15.6978346882
 20
13.0348074326
 30
0.0
 10
15.6988174355
 20
13.033166742
 30
0.0
  0
SPLINE
  5
2F3
100
AcDbEntity
  8
AXIS
100
AcDbSpline
 62
7
  6
CONTINUOUS
 70
0
 71
3
 72
23
 73
19
 74
0
 42
0.0000001
 43
0.0000001
 44
0.0000000001
 40
0.0
 40
0.0
 40
0.0
 40
0.0
 40
0.0429701961
 40
0.0863377508
 40
0.1308823624
 40
0.1773096601
 40
0.2262200084
 40
0.2780971747
 40
0.3333106403
 40
0.3921251836
 40
0.4547175823
 40
0.5211866642
 40
0.5915683299
 40
0.6658378478
 40
0.7439337121
 40
0.8257629927
 40
0.9111902801
 40
1.0
 40
1.0
 40
1.0
 40
1.0
 10
15.8661625758
 20
11.8216048408
 30
0.0
 10
15.8713463539
 20
11.8212124316
 30
0.0
 10
15.8818377809
 20
11.8211996742
 30
0.0
 10
15.8975517586
 20
11.8235522896
 30
0.0
 10
15.9131649099
 20
11.8282549686
 30
0.0
 10
15.9286122499
 20
11.835278838
 30
0.0
 10
15.9438439615
 20
11.844584905
 30
0.0
 10
15.9588136984
 20
11.8561323545
 30
0.0
 10
15.9734779915
 20
11.869876797
 30
0.0
 10
15.9877943723
 20
11.885769592
 30
0.0
 10
16.0017189333
 20
11.9037579691
 30
0.0
 10
16.0152095486
 20
11.9237818847
 30
0.0
 10
16.0282216905
 20
11.9457756976
 30
0.0
 10
16.0407151452
 20
11.9696655155
 30
0.0
 10
16.0526473285
 20
11.9953742308
 30
0.0
 10
16.0639806344
 20
12.022817706
 30
0.0
 10
16.0746737878
 20
12.0519005422
 30
0.0
 10
16.0812307778
 20
12.0719395389
 30
0.0
 10
16.0844030204
 20
12.0822049198
 30
0.0
  0
SPLINE
  5
2F4
100
AcDbEntity
  8
AXIS
100
AcDbSpline
 62
7
  6
CONTINUOUS
 70
0
 71
3
 72
22
 73
18
 74
0
 42
0.0000001
 43
0.0000001
 44
0.0000000001
 40
0.0
 40
0.0
 40
0.0
 40
0.0
 40
0.0498067419
 40
0.0997343429
 40
0.1502286291
 40
0.2017167789
 40
0.2545972002
 40
0.3092274652
 40
0.4248669157
 40
0.4864531369
 40
0.5507754698
 40
0.6179787974
 40
0.6881738171
 40
0.7614434563
 40
0.8378405557
 40
0.9173671298
 40
1.0
 40
1.0
 40
1.0
 40
1.0
 10
15.8661625763
 20
13.2000051248
 30
0.0
 10
15.8697566872
 20
13.2002773711
 30
0.0
 10
15.8769873913
 20
13.2004522295
 30
0.0
 10
15.8878429671
 20
13.1995853815
 30
0.0
 10
15.8986735953
 20
13.1975934423
 30
0.0
 10
15.9094580794
 20
13.1944815502
 30
0.0
 10
15.9201780606
 20
13.1902551063
 30
0.0
 10
15.9346318388
 20
13.1830137911
 30
0.0
 10
15.9486300666
 20
13.173619789
 30
0.0
 10
15.9620666414
 20
13.1624273991
 30
0.0
 10
15.9722126432
 20
13.1528020292
 30
0.0
 10
15.982194416
 20
13.1421396841
 30
0.0
 10
15.9919997457
 20
13.1304565688
 30
0.0
 10
16.0016132933
 20
13.1177708365
 30
0.0
 10
16.0110187841
 20
13.104102704
 30
0.0
 10
16.0202010827
 20
13.0894780488
 30
0.0
 10
16.0260517261
 20
13.0793016614
 30
0.0
 10
16.0289398574
 20
13.0740653779
 30
0.0
  0
SPLINE
  5
2F5
100
AcDbEntity
  8
AXIS
100
AcDbSpline
 62
7
  6
CONTINUOUS
 70
0
 71
3
 72
23
 73
19
 74
0
 42
0.0000001
 43
0.0000001
 44
0.0000000001
 40
0.0
 40
0.0
 40
0.0
 40
0.0
 40
0.0559907426
 40
0.1145244274
 40
0.1752726457
 40
0.237915328
 40
0.302096253
 40
0.3674433488
 40
0.4335743632
 40
0.5000975263
 40
0.5666174636
 40
0.6327388329
 40
0.6980699636
 40
0.7622287711
 40
0.8248434204
 40
0.8855580029
 40
0.9440528345
 40
1.0
 40
1.0
 40
1.0
 40
1.0
 10
16.0846305926
 20
12.9386676092
 30
0.0
 10
16.089397641
 20
12.9231981269
 30
0.0
 10
16.0983663726
 20
12.8913115922
 30
0.0
 10
16.109940923
 20
12.841964371
 30
0.0
 10
16.1198734239
 20
12.7903011363
 30
0.0
 10
16.1280942764
 20
12.7366872739
 30
0.0
 10
16.1345459131
 20
12.6814937608
 30
0.0
 10
16.1391827576
 20
12.6251069022
 30
0.0
 10
16.1419717509
 20
12.5679208881
 30
0.0
 10
16.1428932654
 20
12.5103353873
 30
0.0
 10
16.1419412409
 20
12.4527531701
 30
0.0
 10
16.1391219537
 20
12.3955769839
 30
0.0
 10
16.1344552438
 20
12.339206427
 30
0.0
 10
16.1279743814
 20
12.2840355721
 30
0.0
 10
16.1197251497
 20
12.2304505612
 30
0.0
 10
16.1097653128
 20
12.1788221635
 30
0.0
 10
16.0981646635
 20
12.1295155151
 30
0.0
 10
16.0891785672
 20
12.0976585949
 30
0.0
 10
16.0844030204
 20
12.0822049198
 30
0.0
  0
SPLINE
  5
2F6
100
AcDbEntity
  8
AXIS
100
AcDbSpline
 62
7
  6
CONTINUOUS
 70
0
 71
3
 72
28
 73
24
 74
0
 42
0.0000001
 43
0.0000001
 44
0.0000000001
 40
0.0
 40
0.0
 40
0.0
 40
0.0
 40
0.070465367
 40
0.1448533019
 40
0.2219604089
 40
0.3006625309
 40
0.3797781539
 40
0.4580790737
 40
0.5343759313
 40
0.6075310111
 40
0.6764999661
 40
0.7403642266
 40
0.7983835045
 40
0.8250486992
 40
0.8500969088
 40
0.8735172873
 40
0.8953396954
 40
0.9156306896
 40
0.9344969157
 40
0.9521043319
 40
0.9686860867
 40
0.9845349077
 40
1.0
 40
1.0
 40
1.0
 40
1.0
 10
16.0846305926
 20
12.9386676092
 30
0.0
 10
16.0856233329
 20
12.9425346315
 30
0.0
 10
16.0873759644
 20
12.9505596666
 30
0.0
 10
16.0893005481
 20
12.9629940946
 30
0.0
 10
16.0905616191
 20
12.9759822355
 30
0.0
 10
16.091137845
 20
12.9892861789
 30
0.0
 10
16.0910203203
 20
13.002669728
 30
0.0
 10
16.0902084167
 20
13.015892762
 30
0.0
 10
16.0887198385
 20
13.0287174115
 30
0.0
 10
16.0865792126
 20
13.0409137786
 30
0.0
 10
16.0838281572
 20
13.0522653098
 30
0.0
 10
16.0805151818
 20
13.062569538
 30
0.0
 10
16.0772493782
 20
13.0703429091
 30
0.0
 10
16.0743732899
 20
13.0758584659
 30
0.0
 10
16.0721769551
 20
13.0795085918
 30
0.0
 10
16.069888559
 20
13.0827725076
 30
0.0
 10
16.0675183107
 20
13.0856363977
 30
0.0
 10
16.0650763487
 20
13.0880884487
 30
0.0
 10
16.0625709697
 20
13.0901164131
 30
0.0
 10
16.0600110883
 20
13.0917087717
 30
0.0
 10
16.0574073988
 20
13.0928572392
 30
0.0
 10
16.0547721497
 20
13.0935523112
 30
0.0
 10
16.0529942137
 20
13.0937071708
 30
0.0
 10
16.0521179946
 20
13.093706878
 30
0.0
  0
SPLINE
  5
2F7
100
AcDbEntity
  8
AXIS
100
AcDbSpline
 62
7
  6
CONTINUOUS
 70
0
 71
3
 72
41
 73
37
 74
0
 42
0.0000001
 43
0.0000001
 44
0.0000000001
 40
0.0
 40
0.0
 40
0.0
 40
0.0
 40
0.0321821999
 40
0.0655655658
 40
0.1000282945
 40
0.1354582584
 40
0.1717330741
 40
0.2087215362
 40
0.246288566
 40
0.2842958216
 40
0.3226013983
 40
0.3610616566
 40
0.3995319298
 40
0.4378675182
 40
0.4759245416
 40
0.5135609473
 40
0.5506375695
 40
0.5870187178
 40
0.62257393
 40
0.6571780974
 40
0.6907135276
 40
0.7230706803
 40
0.7541494149
 40
0.7838615344
 40
0.8121311988
 40
0.8388988562
 40
0.8641228835
 40
0.8877835023
 40
0.9098880325
 40
0.9304751427
 40
0.9496237448
 40
0.9586995977
 40
0.967467742
 40
0.9841723417
 40
0.9921794819
 40
1.0
 40
1.0
 40
1.0
 40
1.0
 10
15.6057160712
 20
13.0576663625
 30
0.0
 10
15.6008935102
 20
13.0420605493
 30
0.0
 10
15.5916924122
 20
13.0100708211
 30
0.0
 10
15.5794009958
 20
12.960802525
 30
0.0
 10
15.5684111352
 20
12.9095406278
 30
0.0
 10
15.5587716649
 20
12.8565164285
 30
0.0
 10
15.5505238698
 20
12.8019616613
 30
0.0
 10
15.5437061951
 20
12.7461173695
 30
0.0
 10
15.5383476766
 20
12.6892313155
 30
0.0
 10
15.5344730551
 20
12.6315551759
 30
0.0
 10
15.5320992619
 20
12.5733442257
 30
0.0
 10
15.5312365394
 20
12.5148563268
 30
0.0
 10
15.5318896864
 20
12.4563504871
 30
0.0
 10
15.534054546
 20
12.3980857995
 30
0.0
 10
15.537722573
 20
12.340320323
 30
0.0
 10
15.5428768413
 20
12.2833097935
 30
0.0
 10
15.5494942341
 20
12.2273066027
 30
0.0
 10
15.5575461362
 20
12.1725586304
 30
0.0
 10
15.5669954182
 20
12.1193079437
 30
0.0
 10
15.5778012991
 20
12.0677900752
 30
0.0
 10
15.5899148922
 20
12.0182324463
 30
0.0
 10
15.603282455
 20
11.9708536787
 30
0.0
 10
15.6178455015
 20
11.9258625996
 30
0.0
 10
15.633538281
 20
11.8834566028
 30
0.0
 10
15.6502933192
 20
11.843821904
 30
0.0
 10
15.6680362148
 20
11.8071311505
 30
0.0
 10
15.6866907472
 20
11.773543698
 30
0.0
 10
15.7061781143
 20
11.7432052376
 30
0.0
 10
15.7264167984
 20
11.7162447232
 30
0.0
 10
15.747325511
 20
11.6927820495
 30
0.0
 10
15.7655581737
 20
11.6759351
 30
0.0
 10
15.7803977906
 20
11.6644150823
 30
0.0
 10
15.7948773447
 20
11.6545122415
 30
0.0
 10
15.8098107545
 20
11.6462691014
 30
0.0
 10
15.8250732324
 20
11.639936794
 30
0.0
 10
15.8327173374
 20
11.6374337702
 30
0.0
 10
15.8365365278
 20
11.6363525901
 30
0.0
  0
ENDSEC
  0
SECTION
  2
OBJECTS
  0
DICTIONARY
  5
C
100
AcDbDictionary
280
0
281
1
  3
ACAD_GROUP
350
D
  3
ACAD_MLINESTYLE
350
17
  3
ACAD_LAYOUT
350
1A
  3
ACAD_PLOTSETTINGS
350
19
  3
ACAD_PLOTSTYLENAME
350
E
  0
DICTIONARY
  5
D
102
{ACAD_REACTORS
330
C
102
}
100
AcDbDictionary
280
0
281
1
  0
ACDBDICTIONARYWDFLT
  5
E
102
{ACAD_REACTORS
330
C
102
}
100
AcDbDictionary
281
1
  3
Normal
350
F
100
AcDbDictionaryWithDefault
340
F
  0
DICTIONARY
  5
17
102
{ACAD_REACTORS
330
C
102
}
100
AcDbDictionary
280
0
281
1
  3
Standard
350
18
  0
DICTIONARY
  5
19
102
{ACAD_REACTORS
330
C
102
}
100
AcDbDictionary
281
1
  0
DICTIONARY
  5
1A
102
{ACAD_REACTORS
330
C
102
}
100
AcDbDictionary
281
1
  3
Model
350
2F8
  3
Layout1
350
2F9
  0
ACDBPLACEHOLDER
  5
F
102
{ACAD_REACTORS
330
E
102
}
  0
MLINESTYLE
  5
18
102
{ACAD_REACTORS
330
17
102
}
100
AcDbMlineStyle
  2
STANDARD
 70
0
  3

 62
256
 51
90.0
 52
90.0
 71
2
 49
0.5
 62
256
  6
BYLAYER
 49
-0.5
 62
256
  6
BYLAYER
  0
LAYOUT
  5
2F8
102
{ACAD_REACTORS
330
1A
102
}
100
AcDbPlotSettings
  1

  2
none_device
  4
ANSI_C_(22.00_x_17.00_Inches)
  6

 40
0.0
 41
0.0
 42
0.0
 43
0.0
 44
558.8
 45
431.8
 46
0.0
 47
0.0
 48
0.0
 49
0.0
140
0.0
141
0.0
142
1.0
143
1.0
 70
1024
 72
0
 73
0
 74
0
  7

 75
0
147
1.0
148
0.0
149
0.0
100
AcDbLayout
  1
Model
 70
0
 71
0
 10
0.0
 20
0.0
 11
22.0
 21
17.0
 12
0.0
 22
0.0
 32
0.0
 14
0.0
 24
0.0
 34
0.0
 15
0.0
 25
0.0
 35
0.0
146
0.0
 13
0.0
 23
0.0
 33
0.0
 16
1.0
 26
0.0
 36
0.0
 17
0.0
 27
1.0
 37
0.0
 76
0
330
224
345
0
346
0
  0
LAYOUT
  5
2F9
102
{ACAD_REACTORS
330
1A
102
}
100
AcDbPlotSettings
  1

  2
none_device
  4
ANSI_C_(22.00_x_17.00_Inches)
  6

 40
0.0
 41
0.0
 42
0.0
 43
0.0
 44
558.8
 45
431.8
 46
0.0
 47
0.0
 48
0.0
 49
0.0
140
0.0
141
0.0
142
1.0
143
1.0
 70
0
 72
0
 73
0
 74
0
  7

 75
0
147
1.0
148
0.0
149
0.0
100
AcDbLayout
  1
Layout1
 70
0
 71
1
 10
0.0
 20
0.0
 11
22.0
 21
17.0
 12
0.0
 22
0.0
 32
0.0
 14
0.0
 24
0.0
 34
0.0
 15
0.0
 25
0.0
 35
0.0
146
0.0
 13
0.0
 23
0.0
 33
0.0
 16
1.0
 26
0.0
 36
0.0
 17
0.0
 27
1.0
 37
0.0
 76
0
330
225
345
0
346
0
  0
ENDSEC
  0
EOF