999
DXF file: _cgs_temp_output.dxf
999
Pro/ENGINEER 2016360 by Parametric Technology Corporation
  0
SECTION
  2
HEADER
  9
$ACADVER
  1
AC1021
  9
$DWGCODEPAGE
  3
ANSI_1252
  9
$EXTMAX
 10
22.0
 20
17.0
 30
0.0
  9
$EXTMIN
 10
0.0
 20
0.0
 30
0.0
  9
$LIMMIN
 10
0.0
 20
0.0
  9
$LIMMAX
 10
22.0
 20
17.0
  9
$VIEWCTR
 10
11.0
 20
8.5
  9
$VIEWSIZE
 40
17.0
  9
$CLAYER
  8
0
  9
$LTSCALE
 40
1.21
  9
$CELTYPE
  6
BYLAYER
  9
$DIMSCALE
 40
1.0
  9
$DIMASZ
 40
0.1875
  9
$DIMEXO
 40
0.0625
  9
$DIMDLI
 40
0.836
  9
$DIMEXE
 40
0.125
  9
$DIMCEN
 40
0.198
  9
$DIMLFAC
 40
1.0
  9
$DIMBLK
  1
_CLOSED
  9
$DIMALT
 70
0
  9
$DIMALTF
 40
25.4
  9
$DIMTXT
 40
0.15625
  9
$DIMTOL
 70
0
  9
$DIMLIM
 70
0
  9
$DIMTFAC
 40
1.0
  9
$DIMGAP
 40
0.09
  9
$DIMDSEP
 70
46
  9
$AUNITS
 70
0
  9
$PDMODE
 70
3
  9
$PDSIZE
 40
0.3125
  9
$HANDSEED
  5
325
  9
$TILEMODE
 70
1
  9
$MEASUREMENT
 70
0
  9
$INSUNITS
 70
1
  0
ENDSEC
  0
SECTION
  2
CLASSES
  0
CLASS
  1
ACDBDICTIONARYWDFLT
  2
AcDbDictionaryWithDefault
  3
AutoCAD 2000
 90
0
 91
1
280
0
281
0
  0
CLASS
  1
ACDBPLACEHOLDER
  2
AcDbPlaceHolder
  3
AutoCAD 2000
 90
0
 91
1
280
0
281
0
  0
CLASS
  1
LAYOUT
  2
AcDbLayout
  3
AutoCAD 2000
 90
0
 91
0
280
0
281
0
  0
ENDSEC
  0
SECTION
  2
TABLES
  0
TABLE
  2
VPORT
  5
8
100
AcDbSymbolTable
 70
2
  0
VPORT
  5
1F4
100
AcDbSymbolTableRecord
100
AcDbViewportTableRecord
  2
*ACTIVE
 70
0
 10
0.0
 20
0.0
 11
1.0
 21
1.0
 12
11.0
 22
8.5
 13
0.0
 23
0.0
 14
1.0
 24
1.0
 15
0.0
 25
0.0
 16
0.0
 26
0.0
 36
1.0
 17
0.0
 27
0.0
 37
0.0
 40
17.0
 41
1.2941176471
 42
50.0
 43
0.0
 44
0.0
 50
0.0
 51
0.0
 71
0
 72
100
 73
1
 74
1
 75
0
 76
0
 77
0
 78
0
  0
ENDTAB
  0
TABLE
  2
LTYPE
  5
5
100
AcDbSymbolTable
 70
6
  0
LTYPE
  5
14
100
AcDbSymbolTableRecord
100
AcDbLinetypeTableRecord
  2
BYBLOCK
 70
0
  3

 72
65
 73
0
 40
0.0
  0
LTYPE
  5
15
100
AcDbSymbolTableRecord
100
AcDbLinetypeTableRecord
  2
BYLAYER
 70
0
  3

 72
65
 73
0
 40
0.0
  0
LTYPE
  5
16
100
AcDbSymbolTableRecord
100
AcDbLinetypeTableRecord
  2
CONTINUOUS
 70
64
  3
Solid line
 72
65
 73
0
 40
0.0
  0
LTYPE
  5
1F5
100
AcDbSymbolTableRecord
100
AcDbLinetypeTableRecord
  2
CENTER
 70
64
  3
____ _ ____ _ ____ _ ____ _ ____ _ ____ _ ____
 72
65
 73
4
 40
0.6
 49
0.375
 74
0
 49
-0.075
 74
0
 49
0.075
 74
0
 49
-0.075
 74
0
  0
LTYPE
  5
1F6
100
AcDbSymbolTableRecord
100
AcDbLinetypeTableRecord
  2
HIDDEN
 70
64
  3
- - - - - - - - - - - - - - - - - - - -
 72
65
 73
2
 40
0.2
 49
0.1
 74
0
 49
-0.1
 74
0
  0
LTYPE
  5
1F7
100
AcDbSymbolTableRecord
100
AcDbLinetypeTableRecord
  2
PHANTOM
 70
64
  3
_____ _ _ _____ _ _ _____ _ _ _____
 72
65
 73
6
 40
0.8
 49
0.45
 74
0
 49
-0.05
 74
0
 49
0.1
 74
0
 49
-0.05
 74
0
 49
0.1
 74
0
 49
-0.05
 74
0
  0
LTYPE
  5
1F8
100
AcDbSymbolTableRecord
100
AcDbLinetypeTableRecord
  2
DOT
 70
64
  3
. . . . . . . . . . . . . . . . . . . .
 72
65
 73
2
 40
0.2
 49
0.1
 74
0
 49
-0.1
 74
0
  0
LTYPE
  5
1F9
100
AcDbSymbolTableRecord
100
AcDbLinetypeTableRecord
  2
DASHED
 70
64
  3
- - - - - - - - - - - - - - - - - - - -
 72
65
 73
2
 40
0.2
 49
0.1
 74
0
 49
-0.1
 74
0
  0
ENDTAB
  0
TABLE
  2
LAYER
  5
2
100
AcDbSymbolTable
 70
36
  0
LAYER
  5
10
100
AcDbSymbolTableRecord
100
AcDbLayerTableRecord
  2
0
 70
0
 62
7
  6
CONTINUOUS
370
-3
390
F
  0
LAYER
  5
1FA
100
AcDbSymbolTableRecord
100
AcDbLayerTableRecord
  2
DEFAULT_1
 70
0
 62
7
  6
CENTER
370
-3
390
F
  0
LAYER
  5
1FB
100
AcDbSymbolTableRecord
100
AcDbLayerTableRecord
  2
DEFAULT_2
 70
0
 62
8
  6
HIDDEN
370
-3
390
F
  0
LAYER
  5
1FC
100
AcDbSymbolTableRecord
100
AcDbLayerTableRecord
  2
DEFAULT_3
 70
0
 62
7
  6
PHANTOM
370
-3
390
F
  0
LAYER
  5
1FD
100
AcDbSymbolTableRecord
100
AcDbLayerTableRecord
  2
01_ALL_DTM_PLN
 70
0
 62
7
  6
CONTINUOUS
370
-3
390
F
  0
LAYER
  5
1FE
100
AcDbSymbolTableRecord
100
AcDbLayerTableRecord
  2
01__ASM_ALL_DTM_PLN
 70
0
 62
7
  6
CONTINUOUS
370
-3
390
F
  0
LAYER
  5
1FF
100
AcDbSymbolTableRecord
100
AcDbLayerTableRecord
  2
01__ASM_DEF_DTM_PLN
 70
0
 62
7
  6
CONTINUOUS
370
-3
390
F
  0
LAYER
  5
200
100
AcDbSymbolTableRecord
100
AcDbLayerTableRecord
  2
01___PRT_ALL_DTM_PLN
 70
0
 62
7
  6
CONTINUOUS
370
-3
390
F
  0
LAYER
  5
201
100
AcDbSymbolTableRecord
100
AcDbLayerTableRecord
  2
01___PRT_DEF_DTM_PLN
 70
0
 62
7
  6
CONTINUOUS
370
-3
390
F
  0
LAYER
  5
202
100
AcDbSymbolTableRecord
100
AcDbLayerTableRecord
  2
02_ALL_AXES
 70
0
 62
7
  6
CONTINUOUS
370
-3
390
F
  0
LAYER
  5
203
100
AcDbSymbolTableRecord
100
AcDbLayerTableRecord
  2
02__ASM_ALL_AXES
 70
0
 62
7
  6
CONTINUOUS
370
-3
390
F
  0
LAYER
  5
204
100
AcDbSymbolTableRecord
100
AcDbLayerTableRecord
  2
02___PRT_ALL_AXES
 70
0
 62
7
  6
CONTINUOUS
370
-3
390
F
  0
LAYER
  5
205
100
AcDbSymbolTableRecord
100
AcDbLayerTableRecord
  2
03_ALL_CURVES
 70
0
 62
7
  6
CONTINUOUS
370
-3
390
F
  0
LAYER
  5
206
100
AcDbSymbolTableRecord
100
AcDbLayerTableRecord
  2
03__ASM_ALL_CURVES
 70
0
 62
7
  6
CONTINUOUS
370
-3
390
F
  0
LAYER
  5
207
100
AcDbSymbolTableRecord
100
AcDbLayerTableRecord
  2
03___PRT_ALL_CURVES
 70
0
 62
7
  6
CONTINUOUS
370
-3
390
F
  0
LAYER
  5
208
100
AcDbSymbolTableRecord
100
AcDbLayerTableRecord
  2
04_ALL_DTM_PNT
 70
0
 62
7
  6
CONTINUOUS
370
-3
390
F
  0
LAYER
  5
209
100
AcDbSymbolTableRecord
100
AcDbLayerTableRecord
  2
04__ASM_ALL_DTM_PNT
 70
0
 62
7
  6
CONTINUOUS
370
-3
390
F
  0
LAYER
  5
20A
100
AcDbSymbolTableRecord
100
AcDbLayerTableRecord
  2
04___PRT_ALL_DTM_PNT
 70
0
 62
7
  6
CONTINUOUS
370
-3
390
F
  0
LAYER
  5
20B
100
AcDbSymbolTableRecord
100
AcDbLayerTableRecord
  2
05_ALL_DTM_CSYS
 70
0
 62
7
  6
CONTINUOUS
370
-3
390
F
  0
LAYER
  5
20C
100
AcDbSymbolTableRecord
100
AcDbLayerTableRecord
  2
05__ASM_ALL_DTM_CSYS
 70
0
 62
7
  6
CONTINUOUS
370
-3
390
F
  0
LAYER
  5
20D
100
AcDbSymbolTableRecord
100
AcDbLayerTableRecord
  2
05__ASM_DEF_DTM_CSYS
 70
0
 62
7
  6
CONTINUOUS
370
-3
390
F
  0
LAYER
  5
20E
100
AcDbSymbolTableRecord
100
AcDbLayerTableRecord
  2
05___PRT_ALL_DTM_CSYS
 70
0
 62
7
  6
CONTINUOUS
370
-3
390
F
  0
LAYER
  5
20F
100
AcDbSymbolTableRecord
100
AcDbLayerTableRecord
  2
05___PRT_DEF_DTM_CSYS
 70
0
 62
7
  6
CONTINUOUS
370
-3
390
F
  0
LAYER
  5
210
100
AcDbSymbolTableRecord
100
AcDbLayerTableRecord
  2
06_ALL_SURFS
 70
0
 62
7
  6
CONTINUOUS
370
-3
390
F
  0
LAYER
  5
211
100
AcDbSymbolTableRecord
100
AcDbLayerTableRecord
  2
06__ASM_ALL_SURFS
 70
0
 62
7
  6
CONTINUOUS
370
-3
390
F
  0
LAYER
  5
212
100
AcDbSymbolTableRecord
100
AcDbLayerTableRecord
  2
06___PRT_ALL_SURFS
 70
0
 62
7
  6
CONTINUOUS
370
-3
390
F
  0
LAYER
  5
213
100
AcDbSymbolTableRecord
100
AcDbLayerTableRecord
  2
07__ASM_ALL_SKELETONS
 70
0
 62
7
  6
CONTINUOUS
370
-3
390
F
  0
LAYER
  5
214
100
AcDbSymbolTableRecord
100
AcDbLayerTableRecord
  2
LAYER_AXIS
 70
0
 62
7
  6
CONTINUOUS
370
-3
390
F
  0
LAYER
  5
215
100
AcDbSymbolTableRecord
100
AcDbLayerTableRecord
  2
LAYER_CHAMFER_FEAT
 70
0
 62
7
  6
CONTINUOUS
370
-3
390
F
  0
LAYER
  5
216
100
AcDbSymbolTableRecord
100
AcDbLayerTableRecord
  2
LAYER_CUT_FEAT
 70
0
 62
7
  6
CONTINUOUS
370
-3
390
F
  0
LAYER
  5
217
100
AcDbSymbolTableRecord
100
AcDbLayerTableRecord
  2
LAYER_DATUM
 70
0
 62
7
  6
CONTINUOUS
370
-3
390
F
  0
LAYER
  5
218
100
AcDbSymbolTableRecord
100
AcDbLayerTableRecord
  2
LAYER_DIM
 70
0
 62
7
  6
CONTINUOUS
370
-3
390
F
  0
LAYER
  5
219
100
AcDbSymbolTableRecord
100
AcDbLayerTableRecord
  2
LAYER_FEATURE
 70
0
 62
7
  6
CONTINUOUS
370
-3
390
F
  0
LAYER
  5
21A
100
AcDbSymbolTableRecord
100
AcDbLayerTableRecord
  2
LAYER_GEOM_FEAT
 70
0
 62
7
  6
CONTINUOUS
370
-3
390
F
  0
LAYER
  5
21B
100
AcDbSymbolTableRecord
100
AcDbLayerTableRecord
  2
LAYER_NOGEOM_FEAT
 70
0
 62
7
  6
CONTINUOUS
370
-3
390
F
  0
LAYER
  5
21C
100
AcDbSymbolTableRecord
100
AcDbLayerTableRecord
  2
LAYER_PARAMETER_DIM
 70
0
 62
7
  6
CONTINUOUS
370
-3
390
F
  0
LAYER
  5
21D
100
AcDbSymbolTableRecord
100
AcDbLayerTableRecord
  2
LAYER_PROTRUSION_FEAT
 70
0
 62
7
  6
CONTINUOUS
370
-3
390
F
  0
LAYER
  5
21E
100
AcDbSymbolTableRecord
100
AcDbLayerTableRecord
  2
LAYER_QUILT
 70
0
 62
7
  6
CONTINUOUS
370
-3
390
F
  0
LAYER
  5
21F
100
AcDbSymbolTableRecord
100
AcDbLayerTableRecord
  2
LAYER_ROUND_FEAT
 70
0
 62
7
  6
CONTINUOUS
370
-3
390
F
  0
ENDTAB
  0
TABLE
  2
STYLE
  5
3
100
AcDbSymbolTable
 70
1
  0
STYLE
  5
11
100
AcDbSymbolTableRecord
100
AcDbTextStyleTableRecord
  2
STANDARD
 70
0
 40
0.0
 41
0.8
 50
0.0
 71
0
 42
0.2
  3
txt
  4

  0
STYLE
  5
220
100
AcDbSymbolTableRecord
100
AcDbTextStyleTableRecord
  2
TEXTSTYLE_1
 70
0
 40
0.0
 41
0.8
 50
0.0
 71
0
 42
0.2
  3
gdt
  4

  0
ENDTAB
  0
TABLE
  2
VIEW
  5
6
100
AcDbSymbolTable
 70
0
  0
ENDTAB
  0
TABLE
  2
UCS
  5
7
100
AcDbSymbolTable
 70
0
  0
ENDTAB
  0
TABLE
  2
APPID
  5
9
100
AcDbSymbolTable
 70
1
  0
APPID
  5
221
100
AcDbSymbolTableRecord
100
AcDbRegAppTableRecord
  2
ACAD
 70
0
  0
ENDTAB
  0
TABLE
  2
BLOCK_RECORD
  5
1
100
AcDbSymbolTable
 70
0
  0
BLOCK_RECORD
  5
222
100
AcDbSymbolTableRecord
100
AcDbBlockTableRecord
  2
*Model_Space
  0
BLOCK_RECORD
  5
223
100
AcDbSymbolTableRecord
100
AcDbBlockTableRecord
  2
*Paper_Space
  0
ENDTAB
  0
TABLE
  2
DIMSTYLE
  5
A
100
AcDbSymbolTable
 70
1
100
AcDbDimStyleTable
 71
0
  0
DIMSTYLE
105
224
100
AcDbSymbolTableRecord
100
AcDbDimStyleTableRecord
  2
STANDARD
 70
0
  3

  4

 40
1.0
 41
0.1875
 42
0.0625
 43
0.38
 44
0.125
 45
0.0
 46
0.0
 47
0.0001
 48
0.0001
140
0.15625
141
0.09
142
0.0
143
25.4
144
1.0
145
0.0
146
1.0
147
0.09
 71
0.0
 72
0.0
 73
1
 74
1
 75
0
 76
0
 77
0
 78
4
 79
1
170
0
171
3
172
0
173
0
174
0
175
0
176
0
177
0
178
0
270
2
179
4
271
4
272
4
273
2
274
2
275
0
280
0
281
0
282
0
283
1
284
4
285
0
286
0
287
3
288
0
340
11
278
46
  0
ENDTAB
  0
ENDSEC
  0
SECTION
  2
BLOCKS
  0
BLOCK
  5
20
100
AcDbEntity
  8
0
100
AcDbBlockBegin
  2
*Model_Space
 70
0
 10
0.0
 20
0.0
 30
0.0
  3
*Model_Space
  1

  0
ENDBLK
  5
21
100
AcDbEntity
  8
0
100
AcDbBlockEnd
  0
BLOCK
  5
1C
100
AcDbEntity
  8
0
100
AcDbBlockBegin
  2
*Paper_Space
 70
0
 10
0.0
 20
0.0
 30
0.0
  3
*Paper_Space
  1

  0
ENDBLK
  5
1D
100
AcDbEntity
  8
0
100
AcDbBlockEnd
  0
ENDSEC
  0
SECTION
  2
ENTITIES
  0
MTEXT
  5
225
100
AcDbEntity
  8
0
100
AcDbMText
 62
7
  6
CONTINUOUS
  7
STANDARD
 71
1
 72
1
 10
15.9560215477
 20
0.9479130325
 30
0.0
 11
1.0
 21
0.0
 31
0.0
 44
0.9
  1
SCALE: 1:2.000
 40
0.3
 41
3.36
  0
LINE
  5
226
100
AcDbEntity
  8
0
100
AcDbLine
 62
7
  6
CONTINUOUS
 10
0.0
 20
0.0
 11
0.0
 21
17.0
  0
LINE
  5
227
100
AcDbEntity
  8
0
100
AcDbLine
 62
7
  6
CONTINUOUS
 10
0.0
 20
0.0
 11
22.0
 21
0.0
  0
LINE
  5
228
100
AcDbEntity
  8
0
100
AcDbLine
 62
7
  6
CONTINUOUS
 10
0.0
 20
17.0
 11
22.0
 21
17.0
  0
LINE
  5
229
100
AcDbEntity
  8
0
100
AcDbLine
 62
7
  6
CONTINUOUS
 10
22.0
 20
0.0
 11
22.0
 21
17.0
  0
LINE
  5
22A
100
AcDbEntity
  8
LAYER_FEATURE
100
AcDbLine
 62
7
  6
CONTINUOUS
 10
5.9991672762
 20
6.1451198968
 11
5.9809992942
 21
6.1269519148
  0
LINE
  5
22B
100
AcDbEntity
  8
LAYER_FEATURE
100
AcDbLine
 62
7
  6
CONTINUOUS
 10
6.7553672762
 20
5.3889198968
 11
6.7371954856
 21
5.3707481062
  0
LINE
  5
22C
100
AcDbEntity
  8
LAYER_FEATURE
100
AcDbLine
 62
7
  6
CONTINUOUS
 10
6.2615672762
 20
6.1451198968
 11
6.2797352582
 21
6.1269519148
  0
LINE
  5
22D
100
AcDbEntity
  8
LAYER_FEATURE
100
AcDbLine
 62
7
  6
CONTINUOUS
 10
6.7553672762
 20
5.6513198968
 11
6.7371954856
 21
5.6694916874
  0
LINE
  5
22E
100
AcDbEntity
  8
LAYER_FEATURE
100
AcDbLine
 62
7
  6
CONTINUOUS
 10
6.7553672762
 20
5.6513198968
 11
6.7553672762
 21
5.3889198968
  0
LINE
  5
22F
100
AcDbEntity
  8
LAYER_FEATURE
100
AcDbLine
 62
7
  6
CONTINUOUS
 10
5.9991672762
 20
6.1451198968
 11
6.2615672762
 21
6.1451198968
  0
LINE
  5
230
100
AcDbEntity
  8
LAYER_FEATURE
100
AcDbLine
 62
7
  6
CONTINUOUS
 10
5.0468720839
 20
12.4000477814
 11
5.0468720839
 21
12.4640477814
  0
LINE
  5
231
100
AcDbEntity
  8
LAYER_FEATURE
100
AcDbLine
 62
7
  6
CONTINUOUS
 10
5.0468720839
 20
13.3480477814
 11
5.0468720839
 21
13.4120477814
  0
LINE
  5
232
100
AcDbEntity
  8
LAYER_CUT_FEAT
100
AcDbLine
 62
7
  6
CONTINUOUS
 10
5.2031036354
 20
13.3060477814
 11
5.2031036354
 21
12.5060477814
  0
LINE
  5
233
100
AcDbEntity
  8
LAYER_CUT_FEAT
100
AcDbLine
 62
7
  6
CONTINUOUS
 10
5.2036045499
 20
13.3060477814
 11
5.2036045499
 21
12.5060477814
  0
LINE
  5
234
100
AcDbEntity
  8
LAYER_CUT_FEAT
100
AcDbLine
 62
7
  6
CONTINUOUS
 10
5.2556842625
 20
13.3060477814
 11
5.2556842625
 21
12.5060477814
  0
LINE
  5
235
100
AcDbEntity
  8
02___PRT_ALL_AXES
100
AcDbLine
 62
7
  6
CONTINUOUS
 10
5.4458720976
 20
11.7880477814
 11
6.6958720701
 21
11.7880477814
  0
LINE
  5
236
100
AcDbEntity
  8
LAYER_CUT_FEAT
100
AcDbLine
 62
7
  6
CONTINUOUS
 10
5.3619547109
 20
13.3060477814
 11
5.3619547109
 21
12.5060477814
  0
LINE
  5
237
100
AcDbEntity
  8
02___PRT_ALL_AXES
100
AcDbLine
 62
7
  6
CONTINUOUS
 10
5.4458720839
 20
11.7880477814
 11
5.4458720839
 21
12.4000477814
  0
LINE
  5
238
100
AcDbEntity
  8
LAYER_CUT_FEAT
100
AcDbLine
 62
7
  6
CONTINUOUS
 10
5.5151737399
 20
13.3060477814
 11
5.5151737399
 21
12.5060477814
  0
LINE
  5
239
100
AcDbEntity
  8
LAYER_CUT_FEAT
100
AcDbLine
 62
7
  6
CONTINUOUS
 10
6.0235293618
 20
12.0120477814
 11
6.1182148059
 21
12.0120477814
  0
LINE
  5
23A
100
AcDbEntity
  8
LAYER_CUT_FEAT
100
AcDbLine
 62
7
  6
CONTINUOUS
 10
6.1182148059
 20
12.1760477814
 11
6.0235293618
 21
12.1760477814
  0
LINE
  5
23B
100
AcDbEntity
  8
LAYER_CUT_FEAT
100
AcDbLine
 62
7
  6
CONTINUOUS
 10
5.7048997257
 20
13.3060477814
 11
5.7048997257
 21
12.5060477814
  0
LINE
  5
23C
100
AcDbEntity
  8
LAYER_FEATURE
100
AcDbLine
 62
7
  6
CONTINUOUS
 10
5.0468720839
 20
12.4640477814
 11
5.1208720839
 21
12.5060477814
  0
LINE
  5
23D
100
AcDbEntity
  8
LAYER_CUT_FEAT
100
AcDbLine
 62
7
  6
CONTINUOUS
 10
5.9761866397
 20
12.0940477814
 11
6.0235293618
 21
12.0120477814
  0
LINE
  5
23E
100
AcDbEntity
  8
LAYER_FEATURE
100
AcDbLine
 62
7
  6
CONTINUOUS
 10
5.0468720839
 20
12.4000477814
 11
7.0948720839
 21
12.4000477814
  0
LINE
  5
23F
100
AcDbEntity
  8
LAYER_CUT_FEAT
100
AcDbLine
 62
7
  6
CONTINUOUS
 10
6.165557528
 20
12.0940477814
 11
6.1182148059
 21
12.1760477814
  0
LINE
  5
240
100
AcDbEntity
  8
0
100
AcDbLine
 62
7
  6
CONTINUOUS
 10
5.918203156
 20
13.3060477814
 11
5.918203156
 21
12.5060477814
  0
LINE
  5
241
100
AcDbEntity
  8
LAYER_FEATURE
100
AcDbLine
 62
7
  6
CONTINUOUS
 10
7.0208720839
 20
13.3060477814
 11
7.0948720839
 21
13.3480477814
  0
LINE
  5
242
100
AcDbEntity
  8
LAYER_FEATURE
100
AcDbLine
 62
7
  6
CONTINUOUS
 10
5.0468720839
 20
12.4640477814
 11
7.0948720839
 21
12.4640477814
  0
LINE
  5
243
100
AcDbEntity
  8
LAYER_FEATURE
100
AcDbLine
 62
7
  6
CONTINUOUS
 10
5.1208721455
 20
12.5060477814
 11
7.0208720222
 21
12.5060477814
  0
LINE
  5
244
100
AcDbEntity
  8
0
100
AcDbLine
 62
7
  6
CONTINUOUS
 10
6.0060625453
 20
13.3060477814
 11
6.0060625453
 21
12.5060477814
  0
LINE
  5
245
100
AcDbEntity
  8
0
100
AcDbLine
 62
7
  6
CONTINUOUS
 10
6.1405477545
 20
13.3060477814
 11
6.1405477545
 21
12.5060477814
  0
LINE
  5
246
100
AcDbEntity
  8
LAYER_CUT_FEAT
100
AcDbLine
 62
7
  6
CONTINUOUS
 10
6.2283709805
 20
13.3060477814
 11
6.2283709805
 21
12.5060477814
  0
LINE
  5
247
100
AcDbEntity
  8
LAYER_CUT_FEAT
100
AcDbLine
 62
7
  6
CONTINUOUS
 10
6.0235293618
 20
12.1760477814
 11
5.9761866397
 21
12.0940477814
  0
LINE
  5
248
100
AcDbEntity
  8
LAYER_FEATURE
100
AcDbLine
 62
7
  6
CONTINUOUS
 10
5.1208720839
 20
13.3060477814
 11
5.0468720839
 21
13.3480477814
  0
LINE
  5
249
100
AcDbEntity
  8
LAYER_FEATURE
100
AcDbLine
 62
7
  6
CONTINUOUS
 10
6.6894702445
 20
12.2316496207
 11
6.6958720839
 21
12.2252477814
  0
LINE
  5
24A
100
AcDbEntity
  8
LAYER_CUT_FEAT
100
AcDbLine
 62
7
  6
CONTINUOUS
 10
6.1182148059
 20
12.0120477814
 11
6.165557528
 21
12.0940477814
  0
LINE
  5
24B
100
AcDbEntity
  8
LAYER_CUT_FEAT
100
AcDbLine
 62
7
  6
CONTINUOUS
 10
6.4413090932
 20
13.3060477814
 11
6.4413090932
 21
12.5060477814
  0
LINE
  5
24C
100
AcDbEntity
  8
LAYER_FEATURE
100
AcDbLine
 62
7
  6
CONTINUOUS
 10
7.0948720839
 20
12.4640477814
 11
7.0208720839
 21
12.5060477814
  0
LINE
  5
24D
100
AcDbEntity
  8
LAYER_CUT_FEAT
100
AcDbLine
 62
7
  6
CONTINUOUS
 10
6.6303655028
 20
13.3060477814
 11
6.6303655028
 21
12.5060477814
  0
LINE
  5
24E
100
AcDbEntity
  8
02___PRT_ALL_AXES
100
AcDbLine
 62
7
  6
CONTINUOUS
 10
6.6958720839
 20
11.7880477814
 11
6.6958720839
 21
11.9300477814
  0
LINE
  5
24F
100
AcDbEntity
  8
LAYER_FEATURE
100
AcDbLine
 62
7
  6
CONTINUOUS
 10
6.6958720839
 20
11.9628478544
 11
6.6958720839
 21
12.2252477084
  0
LINE
  5
250
100
AcDbEntity
  8
02___PRT_ALL_AXES
100
AcDbLine
 62
7
  6
CONTINUOUS
 10
6.6958720839
 20
12.2580477814
 11
6.6958720839
 21
12.4000477814
  0
LINE
  5
251
100
AcDbEntity
  8
LAYER_FEATURE
100
AcDbLine
 62
7
  6
CONTINUOUS
 10
5.1208721455
 20
13.3060477814
 11
7.0208720222
 21
13.3060477814
  0
LINE
  5
252
100
AcDbEntity
  8
LAYER_CUT_FEAT
100
AcDbLine
 62
7
  6
CONTINUOUS
 10
6.7826563274
 20
13.3060477814
 11
6.7826563274
 21
12.5060477814
  0
LINE
  5
253
100
AcDbEntity
  8
LAYER_FEATURE
100
AcDbLine
 62
7
  6
CONTINUOUS
 10
5.0468720839
 20
13.3480477814
 11
7.0948720839
 21
13.3480477814
  0
LINE
  5
254
100
AcDbEntity
  8
LAYER_CUT_FEAT
100
AcDbLine
 62
7
  6
CONTINUOUS
 10
6.8878031991
 20
13.3060477814
 11
6.8878031991
 21
12.5060477814
  0
LINE
  5
255
100
AcDbEntity
  8
LAYER_CUT_FEAT
100
AcDbLine
 62
7
  6
CONTINUOUS
 10
6.9386405323
 20
13.3060477814
 11
6.9386405323
 21
12.5060477814
  0
LINE
  5
256
100
AcDbEntity
  8
LAYER_FEATURE
100
AcDbLine
 62
7
  6
CONTINUOUS
 10
5.0468720839
 20
13.4120477814
 11
7.0948720839
 21
13.4120477814
  0
LINE
  5
257
100
AcDbEntity
  8
LAYER_FEATURE
100
AcDbLine
 62
7
  6
CONTINUOUS
 10
6.6894702439
 20
11.9564459414
 11
6.6958720839
 21
11.9628477814
  0
LINE
  5
258
100
AcDbEntity
  8
LAYER_FEATURE
100
AcDbLine
 62
7
  6
CONTINUOUS
 10
7.0948720839
 20
12.4000477814
 11
7.0948720839
 21
12.4640477814
  0
LINE
  5
259
100
AcDbEntity
  8
LAYER_FEATURE
100
AcDbLine
 62
7
  6
CONTINUOUS
 10
7.0948720839
 20
13.3480477814
 11
7.0948720839
 21
13.4120477814
  0
LINE
  5
25A
100
AcDbEntity
  8
LAYER_FEATURE
100
AcDbLine
 62
7
  6
CONTINUOUS
 10
16.3723552569
 20
4.4366247044
 11
16.3083552569
 21
4.4366247044
  0
LINE
  5
25B
100
AcDbEntity
  8
LAYER_FEATURE
100
AcDbLine
 62
7
  6
CONTINUOUS
 10
15.4243552569
 20
4.4366247044
 11
15.3603552569
 21
4.4366247044
  0
LINE
  5
25C
100
AcDbEntity
  8
LAYER_FEATURE
100
AcDbLine
 62
7
  6
CONTINUOUS
 10
14.9167577591
 20
6.0792272066
 11
14.9231552569
 21
6.0856247044
  0
LINE
  5
25D
100
AcDbEntity
  8
LAYER_CUT_FEAT
100
AcDbLine
 62
7
  6
CONTINUOUS
 10
16.2663552569
 20
4.592856256
 11
15.4663552569
 21
4.592856256
  0
LINE
  5
25E
100
AcDbEntity
  8
02___PRT_ALL_AXES
100
AcDbLine
 62
7
  6
CONTINUOUS
 10
14.7483552569
 20
6.0856247044
 11
14.7483552569
 21
4.8356247044
  0
LINE
  5
25F
100
AcDbEntity
  8
LAYER_CUT_FEAT
100
AcDbLine
 62
7
  6
CONTINUOUS
 10
16.2663552569
 20
4.6436935892
 11
15.4663552569
 21
4.6436935892
  0
LINE
  5
260
100
AcDbEntity
  8
LAYER_CUT_FEAT
100
AcDbLine
 62
7
  6
CONTINUOUS
 10
16.2663552569
 20
4.7488404609
 11
15.4663552569
 21
4.7488404609
  0
LINE
  5
261
100
AcDbEntity
  8
02___PRT_ALL_AXES
100
AcDbLine
 62
7
  6
CONTINUOUS
 10
15.3603552569
 20
4.8356247044
 11
14.7483552569
 21
4.8356247044
  0
LINE
  5
262
100
AcDbEntity
  8
LAYER_CUT_FEAT
100
AcDbLine
 62
7
  6
CONTINUOUS
 10
14.9723552569
 20
5.5079674265
 11
14.9723552569
 21
5.4132819824
  0
LINE
  5
263
100
AcDbEntity
  8
LAYER_CUT_FEAT
100
AcDbLine
 62
7
  6
CONTINUOUS
 10
16.2663552569
 20
4.9011312855
 11
15.4663552569
 21
4.9011312855
  0
LINE
  5
264
100
AcDbEntity
  8
LAYER_CUT_FEAT
100
AcDbLine
 62
7
  6
CONTINUOUS
 10
15.1363552569
 20
5.4132819824
 11
15.1363552569
 21
5.5079674265
  0
LINE
  5
265
100
AcDbEntity
  8
LAYER_CUT_FEAT
100
AcDbLine
 62
7
  6
CONTINUOUS
 10
16.2663552569
 20
5.0901876951
 11
15.4663552569
 21
5.0901876951
  0
LINE
  5
266
100
AcDbEntity
  8
LAYER_CUT_FEAT
100
AcDbLine
 62
7
  6
CONTINUOUS
 10
15.0543552569
 20
5.5553101486
 11
14.9723552569
 21
5.5079674265
  0
LINE
  5
267
100
AcDbEntity
  8
LAYER_CUT_FEAT
100
AcDbLine
 62
7
  6
CONTINUOUS
 10
14.9723552569
 20
5.4132819824
 11
15.0543552569
 21
5.3659392603
  0
LINE
  5
268
100
AcDbEntity
  8
LAYER_FEATURE
100
AcDbLine
 62
7
  6
CONTINUOUS
 10
15.3603552569
 20
6.4846247044
 11
15.3603552569
 21
4.4366247044
  0
LINE
  5
269
100
AcDbEntity
  8
LAYER_CUT_FEAT
100
AcDbLine
 62
7
  6
CONTINUOUS
 10
15.0543552569
 20
5.3659392603
 11
15.1363552569
 21
5.4132819824
  0
LINE
  5
26A
100
AcDbEntity
  8
LAYER_CUT_FEAT
100
AcDbLine
 62
7
  6
CONTINUOUS
 10
15.1363552569
 20
5.5079674265
 11
15.0543552569
 21
5.5553101486
  0
LINE
  5
26B
100
AcDbEntity
  8
LAYER_FEATURE
100
AcDbLine
 62
7
  6
CONTINUOUS
 10
15.4243552569
 20
6.4846247044
 11
15.4243552569
 21
4.4366247044
  0
LINE
  5
26C
100
AcDbEntity
  8
LAYER_FEATURE
100
AcDbLine
 62
7
  6
CONTINUOUS
 10
15.4663552569
 20
6.4106247044
 11
15.4663552569
 21
4.5106247044
  0
LINE
  5
26D
100
AcDbEntity
  8
LAYER_CUT_FEAT
100
AcDbLine
 62
7
  6
CONTINUOUS
 10
16.2663552569
 20
5.3031258078
 11
15.4663552569
 21
5.3031258078
  0
LINE
  5
26E
100
AcDbEntity
  8
LAYER_CUT_FEAT
100
AcDbLine
 62
7
  6
CONTINUOUS
 10
16.2663552569
 20
5.3909490338
 11
15.4663552569
 21
5.3909490338
  0
LINE
  5
26F
100
AcDbEntity
  8
LAYER_CUT_FEAT
100
AcDbLine
 62
7
  6
CONTINUOUS
 10
16.2663552569
 20
5.525434243
 11
15.4663552569
 21
5.525434243
  0
LINE
  5
270
100
AcDbEntity
  8
LAYER_FEATURE
100
AcDbLine
 62
7
  6
CONTINUOUS
 10
16.3083552569
 20
6.4846247044
 11
16.2663552569
 21
6.4106247044
  0
LINE
  5
271
100
AcDbEntity
  8
LAYER_CUT_FEAT
100
AcDbLine
 62
7
  6
CONTINUOUS
 10
16.2663552569
 20
5.6132936323
 11
15.4663552569
 21
5.6132936323
  0
LINE
  5
272
100
AcDbEntity
  8
LAYER_FEATURE
100
AcDbLine
 62
7
  6
CONTINUOUS
 10
15.191952755
 20
6.0792272064
 11
15.1855552569
 21
6.0856247044
  0
LINE
  5
273
100
AcDbEntity
  8
LAYER_FEATURE
100
AcDbLine
 62
7
  6
CONTINUOUS
 10
16.3083552569
 20
4.4366247044
 11
16.2663552569
 21
4.5106247044
  0
LINE
  5
274
100
AcDbEntity
  8
LAYER_FEATURE
100
AcDbLine
 62
7
  6
CONTINUOUS
 10
15.4663552569
 20
4.5106247044
 11
15.4243552569
 21
4.4366247044
  0
LINE
  5
275
100
AcDbEntity
  8
LAYER_CUT_FEAT
100
AcDbLine
 62
7
  6
CONTINUOUS
 10
16.2663552569
 20
5.8265970626
 11
15.4663552569
 21
5.8265970626
  0
LINE
  5
276
100
AcDbEntity
  8
LAYER_FEATURE
100
AcDbLine
 62
7
  6
CONTINUOUS
 10
15.4663552569
 20
6.4106247044
 11
15.4243552569
 21
6.4846247044
  0
LINE
  5
277
100
AcDbEntity
  8
LAYER_CUT_FEAT
100
AcDbLine
 62
7
  6
CONTINUOUS
 10
16.2663552569
 20
6.0163230484
 11
15.4663552569
 21
6.0163230484
  0
LINE
  5
278
100
AcDbEntity
  8
LAYER_FEATURE
100
AcDbLine
 62
7
  6
CONTINUOUS
 10
16.2663552569
 20
6.4106247044
 11
16.2663552569
 21
4.5106247044
  0
LINE
  5
279
100
AcDbEntity
  8
02___PRT_ALL_AXES
100
AcDbLine
 62
7
  6
CONTINUOUS
 10
15.3603552569
 20
6.0856247044
 11
15.2183552569
 21
6.0856247044
  0
LINE
  5
27A
100
AcDbEntity
  8
02___PRT_ALL_AXES
100
AcDbLine
 62
7
  6
CONTINUOUS
 10
14.8903552569
 20
6.0856247044
 11
14.7483552569
 21
6.0856247044
  0
LINE
  5
27B
100
AcDbEntity
  8
LAYER_FEATURE
100
AcDbLine
 62
7
  6
CONTINUOUS
 10
14.9231552569
 20
6.0856247044
 11
15.1855552569
 21
6.0856247044
  0
LINE
  5
27C
100
AcDbEntity
  8
LAYER_FEATURE
100
AcDbLine
 62
7
  6
CONTINUOUS
 10
16.3083552569
 20
6.4846247044
 11
16.3083552569
 21
4.4366247044
  0
LINE
  5
27D
100
AcDbEntity
  8
LAYER_CUT_FEAT
100
AcDbLine
 62
7
  6
CONTINUOUS
 10
16.2663552569
 20
6.1695420774
 11
15.4663552569
 21
6.1695420774
  0
LINE
  5
27E
100
AcDbEntity
  8
LAYER_FEATURE
100
AcDbLine
 62
7
  6
CONTINUOUS
 10
16.3723552569
 20
6.4846247044
 11
16.3723552569
 21
4.4366247044
  0
LINE
  5
27F
100
AcDbEntity
  8
LAYER_CUT_FEAT
100
AcDbLine
 62
7
  6
CONTINUOUS
 10
16.2663552569
 20
6.2758125258
 11
15.4663552569
 21
6.2758125258
  0
LINE
  5
280
100
AcDbEntity
  8
0
100
AcDbLine
 62
7
  6
CONTINUOUS
 10
16.2663552569
 20
6.3278922384
 11
15.4663552569
 21
6.3278922384
  0
LINE
  5
281
100
AcDbEntity
  8
0
100
AcDbLine
 62
7
  6
CONTINUOUS
 10
16.2663552569
 20
6.3283931529
 11
15.4663552569
 21
6.3283931529
  0
LINE
  5
282
100
AcDbEntity
  8
LAYER_FEATURE
100
AcDbLine
 62
7
  6
CONTINUOUS
 10
16.3723552569
 20
6.4846247044
 11
16.3083552569
 21
6.4846247044
  0
LINE
  5
283
100
AcDbEntity
  8
LAYER_FEATURE
100
AcDbLine
 62
7
  6
CONTINUOUS
 10
15.4243552569
 20
6.4846247044
 11
15.3603552569
 21
6.4846247044
  0
LINE
  5
284
100
AcDbEntity
  8
LAYER_FEATURE
100
AcDbLine
 62
7
  6
CONTINUOUS
 10
14.3702759643
 20
12.5324617307
 11
14.385768209
 21
12.5825946529
  0
LINE
  5
285
100
AcDbEntity
  8
LAYER_FEATURE
100
AcDbLine
 62
7
  6
CONTINUOUS
 10
14.5997548389
 20
13.275055641
 11
14.6152470836
 21
13.3251885632
  0
LINE
  5
286
100
AcDbEntity
  8
LAYER_CUT_FEAT
100
AcDbLine
 62
7
  6
CONTINUOUS
 10
14.7266423806
 20
13.1635626881
 11
14.6243591512
 21
12.8325740365
  0
LINE
  5
287
100
AcDbEntity
  8
LAYER_CUT_FEAT
100
AcDbLine
 62
7
  6
CONTINUOUS
 10
14.7613796445
 20
13.2573376282
 11
14.6310591379
 21
12.8356203143
  0
LINE
  5
288
100
AcDbEntity
  8
LAYER_CUT_FEAT
100
AcDbLine
 62
7
  6
CONTINUOUS
 10
14.8533237318
 20
13.3575558982
 11
14.700671651
 21
12.8635735837
  0
LINE
  5
289
100
AcDbEntity
  8
LAYER_CUT_FEAT
100
AcDbLine
 62
7
  6
CONTINUOUS
 10
14.6760106345
 20
12.4379825718
 11
14.6861774201
 21
12.470882302
  0
LINE
  5
28A
100
AcDbEntity
  8
LAYER_CUT_FEAT
100
AcDbLine
 62
7
  6
CONTINUOUS
 10
14.9926654615
 20
13.4297087469
 11
14.8280098251
 21
12.8968829122
  0
LINE
  5
28B
100
AcDbEntity
  8
02___PRT_ALL_AXES
100
AcDbLine
 62
7
  6
CONTINUOUS
 10
14.6033442912
 20
11.9352619608
 11
14.7514888812
 21
12.4146580295
  0
LINE
  5
28C
100
AcDbEntity
  8
0
100
AcDbLine
 62
7
  6
CONTINUOUS
 10
15.169908925
 20
13.4688790769
 11
14.9989467597
 21
12.9156453071
  0
LINE
  5
28D
100
AcDbEntity
  8
LAYER_CUT_FEAT
100
AcDbLine
 62
7
  6
CONTINUOUS
 10
15.8791007597
 20
11.931572972
 11
15.827730438
 21
11.931572972
  0
LINE
  5
28E
100
AcDbEntity
  8
LAYER_CUT_FEAT
100
AcDbLine
 62
7
  6
CONTINUOUS
 10
15.884508686
 20
12.0252344866
 11
15.819945895
 21
12.0252344866
  0
LINE
  5
28F
100
AcDbEntity
  8
LAYER_CUT_FEAT
100
AcDbLine
 62
7
  6
CONTINUOUS
 10
14.9966923779
 20
12.3789366181
 11
15.0282132611
 21
12.3147038115
  0
LINE
  5
290
100
AcDbEntity
  8
LAYER_CUT_FEAT
100
AcDbLine
 62
7
  6
CONTINUOUS
 10
14.9966923779
 20
12.3789366181
 11
15.0204484741
 21
12.3147038115
  0
LINE
  5
291
100
AcDbEntity
  8
0
100
AcDbLine
 62
7
  6
CONTINUOUS
 10
15.3729752732
 20
13.4723974948
 11
15.1989622317
 21
12.9092910862
  0
LINE
  5
292
100
AcDbEntity
  8
LAYER_CUT_FEAT
100
AcDbLine
 62
7
  6
CONTINUOUS
 10
15.0601473511
 20
12.4431694247
 11
15.1101742172
 21
12.3412253899
  0
LINE
  5
293
100
AcDbEntity
  8
LAYER_CUT_FEAT
100
AcDbLine
 62
7
  6
CONTINUOUS
 10
15.1711145165
 20
12.3789366181
 11
15.1473584204
 21
12.4431694247
  0
LINE
  5
294
100
AcDbEntity
  8
LAYER_CUT_FEAT
100
AcDbLine
 62
7
  6
CONTINUOUS
 10
15.0601473511
 20
12.4431694247
 11
14.9966923779
 21
12.3789366181
  0
LINE
  5
295
100
AcDbEntity
  8
LAYER_CUT_FEAT
100
AcDbLine
 62
7
  6
CONTINUOUS
 10
15.5880258699
 20
13.4400242263
 11
15.4130659599
 21
12.8738537498
  0
LINE
  5
296
100
AcDbEntity
  8
LAYER_CUT_FEAT
100
AcDbLine
 62
7
  6
CONTINUOUS
 10
15.1101742172
 20
12.3412253899
 11
15.0839738045
 21
12.3147038115
  0
LINE
  5
297
100
AcDbEntity
  8
LAYER_CUT_FEAT
100
AcDbLine
 62
7
  6
CONTINUOUS
 10
15.1076595434
 20
12.3147038115
 11
15.1711145165
 21
12.3789366181
  0
LINE
  5
298
100
AcDbEntity
  8
LAYER_CUT_FEAT
100
AcDbLine
 62
7
  6
CONTINUOUS
 10
15.0204484741
 20
12.3147038115
 11
15.1076595434
 21
12.3147038115
  0
LINE
  5
299
100
AcDbEntity
  8
LAYER_CUT_FEAT
100
AcDbLine
 62
7
  6
CONTINUOUS
 10
15.1338599561
 20
12.3412253899
 11
15.1101742172
 21
12.3412253899
  0
LINE
  5
29A
100
AcDbEntity
  8
LAYER_CUT_FEAT
100
AcDbLine
 62
7
  6
CONTINUOUS
 10
15.6729276579
 20
13.4166560913
 11
15.4983810199
 21
12.8518229637
  0
LINE
  5
29B
100
AcDbEntity
  8
LAYER_CUT_FEAT
100
AcDbLine
 62
7
  6
CONTINUOUS
 10
15.1473584204
 20
12.4431694247
 11
15.0601473511
 21
12.4431694247
  0
LINE
  5
29C
100
AcDbEntity
  8
LAYER_CUT_FEAT
100
AcDbLine
 62
7
  6
CONTINUOUS
 10
15.8004053725
 20
13.3739654562
 11
15.6261896745
 21
12.8102032508
  0
LINE
  5
29D
100
AcDbEntity
  8
LAYER_FEATURE
100
AcDbLine
 62
7
  6
CONTINUOUS
 10
15.8470084578
 20
12.1390514819
 11
15.8718189537
 21
12.1093272631
  0
LINE
  5
29E
100
AcDbEntity
  8
LAYER_CUT_FEAT
100
AcDbLine
 62
7
  6
CONTINUOUS
 10
15.8159267843
 20
11.9556262893
 11
15.8448098089
 21
11.8967688734
  0
LINE
  5
29F
100
AcDbEntity
  8
LAYER_CUT_FEAT
100
AcDbLine
 62
7
  6
CONTINUOUS
 10
15.8827993245
 20
13.3438272955
 11
15.7078958814
 21
12.7778395462
  0
LINE
  5
2A0
100
AcDbEntity
  8
LAYER_CUT_FEAT
100
AcDbLine
 62
7
  6
CONTINUOUS
 10
15.884508686
 20
12.0252344866
 11
15.8556256613
 21
12.0840919025
  0
LINE
  5
2A1
100
AcDbEntity
  8
LAYER_CUT_FEAT
100
AcDbLine
 62
7
  6
CONTINUOUS
 10
15.8213347105
 20
12.0492878039
 11
15.8159267843
 21
11.9556262893
  0
LINE
  5
2A2
100
AcDbEntity
  8
LAYER_CUT_FEAT
100
AcDbLine
 62
7
  6
CONTINUOUS
 10
15.8791007597
 20
11.931572972
 11
15.884508686
 21
12.0252344866
  0
LINE
  5
2A3
100
AcDbEntity
  8
LAYER_CUT_FEAT
100
AcDbLine
 62
7
  6
CONTINUOUS
 10
16.0725159872
 20
13.2430638351
 11
15.8990374216
 21
12.6816869912
  0
LINE
  5
2A4
100
AcDbEntity
  8
LAYER_CUT_FEAT
100
AcDbLine
 62
7
  6
CONTINUOUS
 10
16.229148769
 20
13.1212325734
 11
16.0593581414
 21
12.5717899013
  0
LINE
  5
2A5
100
AcDbEntity
  8
02___PRT_ALL_AXES
100
AcDbLine
 62
7
  6
CONTINUOUS
 10
15.7976203466
 20
11.5662027464
 11
15.9457649365
 21
12.0455988151
  0
LINE
  5
2A6
100
AcDbEntity
  8
LAYER_CUT_FEAT
100
AcDbLine
 62
7
  6
CONTINUOUS
 10
15.8556256613
 20
12.0840919025
 11
15.8213347105
 21
12.0492878039
  0
LINE
  5
2A7
100
AcDbEntity
  8
LAYER_CUT_FEAT
100
AcDbLine
 62
7
  6
CONTINUOUS
 10
16.0212431832
 20
12.0222742728
 11
16.0314099688
 21
12.055174003
  0
LINE
  5
2A8
100
AcDbEntity
  8
LAYER_CUT_FEAT
100
AcDbLine
 62
7
  6
CONTINUOUS
 10
16.3420234046
 20
12.9866361096
 11
16.1796094729
 21
12.4610644342
  0
LINE
  5
2A9
100
AcDbEntity
  8
LAYER_FEATURE
100
AcDbLine
 62
7
  6
CONTINUOUS
 10
15.8470084578
 20
11.841809294
 11
15.8718189537
 21
11.8715335128
  0
LINE
  5
2AA
100
AcDbEntity
  8
LAYER_CUT_FEAT
100
AcDbLine
 62
7
  6
CONTINUOUS
 10
15.8448098089
 20
11.8967688734
 11
15.8791007597
 21
11.931572972
  0
LINE
  5
2AB
100
AcDbEntity
  8
LAYER_FEATURE
100
AcDbLine
 62
7
  6
CONTINUOUS
 10
16.4092355855
 20
12.7160825259
 11
16.4094273907
 21
12.7168739633
  0
LINE
  5
2AC
100
AcDbEntity
  8
LAYER_CUT_FEAT
100
AcDbLine
 62
7
  6
CONTINUOUS
 10
16.4034476741
 20
12.8484469702
 11
16.254996318
 21
12.3680582058
  0
LINE
  5
2AD
100
AcDbEntity
  8
LAYER_CUT_FEAT
100
AcDbLine
 62
7
  6
CONTINUOUS
 10
16.4092356151
 20
12.7160825168
 11
16.2864610632
 21
12.3187839212
  0
LINE
  5
2AE
100
AcDbEntity
  8
LAYER_FEATURE
100
AcDbLine
 62
7
  6
CONTINUOUS
 10
16.3269778533
 20
11.9277951139
 11
16.342470098
 21
11.9779280361
  0
LINE
  5
2AF
100
AcDbEntity
  8
LAYER_FEATURE
100
AcDbLine
 62
7
  6
CONTINUOUS
 10
16.5564567279
 20
12.6703890242
 11
16.5719489726
 21
12.7205219465
  0
CIRCLE
  5
2B0
100
AcDbEntity
  8
LAYER_FEATURE
100
AcDbCircle
 62
7
  6
CONTINUOUS
 10
6.1303672762
 20
5.5201198968
 40
1.024
  0
CIRCLE
  5
2B1
100
AcDbEntity
  8
LAYER_FEATURE
100
AcDbCircle
 62
7
  6
CONTINUOUS
 10
6.1303672762
 20
5.5201198968
 40
0.95
  0
CIRCLE
  5
2B2
100
AcDbEntity
  8
LAYER_CUT_FEAT
100
AcDbCircle
 62
7
  6
CONTINUOUS
 10
6.1303672762
 20
5.5201198968
 40
0.704
  0
CIRCLE
  5
2B3
100
AcDbEntity
  8
02___PRT_ALL_AXES
100
AcDbCircle
 62
7
  6
CONTINUOUS
 10
6.1303672762
 20
5.5201198968
 40
0.625
  0
CIRCLE
  5
2B4
100
AcDbEntity
  8
LAYER_CHAMFER_FEAT
100
AcDbCircle
 62
7
  6
CONTINUOUS
 10
6.1303672762
 20
5.5201198968
 40
0.2875
  0
CIRCLE
  5
2B5
100
AcDbEntity
  8
LAYER_CHAMFER_FEAT
100
AcDbCircle
 62
7
  6
CONTINUOUS
 10
6.1303672762
 20
5.5201198968
 40
0.25
  0
CIRCLE
  5
2B6
100
AcDbEntity
  8
02___PRT_ALL_AXES
100
AcDbCircle
 62
7
  6
CONTINUOUS
 10
6.0708720839
 20
12.0940477814
 40
0.164
  0
CIRCLE
  5
2B7
100
AcDbEntity
  8
LAYER_FEATURE
100
AcDbCircle
 62
7
  6
CONTINUOUS
 10
6.0708720839
 20
12.0940477814
 40
0.1312
  0
CIRCLE
  5
2B8
100
AcDbEntity
  8
02___PRT_ALL_AXES
100
AcDbCircle
 62
7
  6
CONTINUOUS
 10
15.0543552569
 20
5.4606247044
 40
0.164
  0
CIRCLE
  5
2B9
100
AcDbEntity
  8
LAYER_FEATURE
100
AcDbCircle
 62
7
  6
CONTINUOUS
 10
15.0543552569
 20
5.4606247044
 40
0.1312
  0
ARC
  5
2BA
100
AcDbEntity
  8
LAYER_FEATURE
100
AcDbCircle
 62
7
  6
CONTINUOUS
 10
15.2699977996
 20
11.9778655485
 40
1.5062822555
100
AcDbArc
 50
75.1581349544
 51
77.0305736837
  0
ARC
  5
2BB
100
AcDbEntity
  8
LAYER_FEATURE
100
AcDbCircle
 62
7
  6
CONTINUOUS
 10
15.2789965541
 20
11.9971857247
 40
1.4851054081
100
AcDbArc
 50
66.5230315611
 51
68.4116601007
  0
ARC
  5
2BC
100
AcDbEntity
  8
LAYER_FEATURE
100
AcDbCircle
 62
7
  6
CONTINUOUS
 10
15.296264804
 20
12.1514421664
 40
1.3305765196
100
AcDbArc
 50
84.0130293892
 51
86.0485818712
  0
ARC
  5
2BD
100
AcDbEntity
  8
LAYER_FEATURE
100
AcDbCircle
 62
7
  6
CONTINUOUS
 10
15.3755310322
 20
12.1832145919
 40
1.2753232971
100
AcDbArc
 50
57.2844388893
 51
59.3731694975
  0
ARC
  5
2BE
100
AcDbEntity
  8
LAYER_FEATURE
100
AcDbCircle
 62
7
  6
CONTINUOUS
 10
15.2949057499
 20
12.4503497485
 40
1.0313124279
100
AcDbArc
 50
93.9805013096
 51
96.3901601881
  0
ARC
  5
2BF
100
AcDbEntity
  8
LAYER_FEATURE
100
AcDbCircle
 62
7
  6
CONTINUOUS
 10
15.5702485752
 20
12.4428697226
 40
0.9503193719
100
AcDbArc
 50
46.4411334158
 51
48.9858464485
  0
ARC
  5
2C0
100
AcDbEntity
  8
LAYER_FEATURE
100
AcDbCircle
 62
7
  6
CONTINUOUS
 10
15.2317882068
 20
12.771441573
 40
0.7034558666
100
AcDbArc
 50
106.2391400862
 51
109.3489870801
  0
ARC
  5
2C1
100
AcDbEntity
  8
LAYER_FEATURE
100
AcDbCircle
 62
7
  6
CONTINUOUS
 10
15.8036024323
 20
12.6500959869
 40
0.6375925907
100
AcDbArc
 50
32.6177440383
 51
35.9293091072
  0
ARC
  5
2C2
100
AcDbEntity
  8
LAYER_FEATURE
100
AcDbCircle
 62
7
  6
CONTINUOUS
 10
15.1230802783
 20
13.0026489644
 40
0.4471231455
100
AcDbArc
 50
122.4550997287
 51
126.662058453
  0
ARC
  5
2C3
100
AcDbEntity
  8
LAYER_FEATURE
100
AcDbCircle
 62
7
  6
CONTINUOUS
 10
16.0129992874
 20
12.755085411
 40
0.4024340217
100
AcDbArc
 50
13.985701619
 51
18.4986764127
  0
ARC
  5
2C4
100
AcDbEntity
  8
LAYER_FEATURE
100
AcDbCircle
 62
7
  6
CONTINUOUS
 10
15.0285820106
 20
13.1019988255
 40
0.3092480367
100
AcDbArc
 50
144.1649453624
 51
149.5444139139
  0
ARC
  5
2C5
100
AcDbEntity
  8
LAYER_FEATURE
100
AcDbCircle
 62
7
  6
CONTINUOUS
 10
16.119317809
 20
12.7684089724
 40
0.2946513644
100
AcDbArc
 50
349.9270653411
 51
355.4828067752
  0
ARC
  5
2C6
100
AcDbEntity
  8
LAYER_FEATURE
100
AcDbCircle
 62
7
  6
CONTINUOUS
 10
16.3997440617
 20
12.8720766785
 40
0.1105123149
100
AcDbArc
 50
258.2919179375
 51
264.9801537701
  0
ARC
  5
2C7
100
AcDbEntity
  8
LAYER_FEATURE
100
AcDbCircle
 62
7
  6
CONTINUOUS
 10
14.7677447083
 20
13.2553648541
 40
0.0066637749
100
AcDbArc
 50
149.4950519544
 51
162.7798133083
  0
SPLINE
  5
2C8
100
AcDbEntity
  8
02___PRT_ALL_AXES
100
AcDbSpline
 62
7
  6
CONTINUOUS
 70
0
 71
3
 72
29
 73
25
 74
0
 42
0.0000001
 43
0.0000001
 44
0.0000000001
 40
0.0
 40
0.0
 40
0.0
 40
0.0
 40
0.0390264852
 40
0.0859247925
 40
0.1484525227
 40
0.1848017315
 40
0.2240905306
 40
0.2659599957
 40
0.3100317098
 40
0.355905316
 40
0.4031574282
 40
0.4513429925
 40
0.5000000002
 40
0.5486570078
 40
0.5968425721
 40
0.6440946843
 40
0.6899682905
 40
0.7340400046
 40
0.7759094697
 40
0.8151982687
 40
0.8515474775
 40
0.9140752077
 40
0.9609735148
 40
1.0
 40
1.0
 40
1.0
 40
1.0
 10
6.6958720839
 20
11.9300477814
 30
0.0
 10
6.6947764565
 20
11.9342231252
 30
0.0
 10
6.692444522
 20
11.9434370944
 30
0.0
 10
6.688731169
 20
11.9594329975
 30
0.0
 10
6.6854944556
 20
11.9752315645
 30
0.0
 10
6.6827939916
 20
11.9902740575
 30
0.0
 10
6.6807417505
 20
12.003109204
 30
0.0
 10
6.6788407103
 20
12.0168306777
 30
0.0
 10
6.6771654966
 20
12.0313152351
 30
0.0
 10
6.6757835969
 20
12.0464288755
 30
0.0
 10
6.6747522271
 20
12.062026709
 30
0.0
 10
6.6741150203
 20
12.0779538637
 30
0.0
 10
6.6738995205
 20
12.0940477814
 30
0.0
 10
6.6741150203
 20
12.1101416991
 30
0.0
 10
6.6747522271
 20
12.1260688539
 30
0.0
 10
6.6757835969
 20
12.1416666874
 30
0.0
 10
6.6771654966
 20
12.1567803277
 30
0.0
 10
6.6788407103
 20
12.1712648852
 30
0.0
 10
6.6807417506
 20
12.1849863588
 30
0.0
 10
6.6827939916
 20
12.1978215054
 30
0.0
 10
6.6854944556
 20
12.2128639984
 30
0.0
 10
6.688731169
 20
12.2286625653
 30
0.0
 10
6.692444522
 20
12.2446584684
 30
0.0
 10
6.6947764565
 20
12.2538724375
 30
0.0
 10
6.6958720839
 20
12.2580477814
 30
0.0
  0
SPLINE
  5
2C9
100
AcDbEntity
  8
02___PRT_ALL_AXES
100
AcDbSpline
 62
7
  6
CONTINUOUS
 70
0
 71
3
 72
29
 73
25
 74
0
 42
0.0000001
 43
0.0000001
 44
0.0000000001
 40
0.0
 40
0.0
 40
0.0
 40
0.0
 40
0.0390264844
 40
0.0859247813
 40
0.1484525112
 40
0.1848017281
 40
0.2240905258
 40
0.2659600277
 40
0.3100317283
 40
0.3559053485
 40
0.4031574456
 40
0.4513430053
 40
0.5000000005
 40
0.5486569958
 40
0.5968425554
 40
0.6440946526
 40
0.6899682727
 40
0.734039973
 40
0.7759094747
 40
0.8151982722
 40
0.851547489
 40
0.9140752189
 40
0.9609735158
 40
1.0
 40
1.0
 40
1.0
 40
1.0
 10
15.2183552569
 20
6.0856247044
 30
0.0
 10
15.2141799135
 20
6.0845290758
 30
0.0
 10
15.2049659457
 20
6.0821971409
 30
0.0
 10
15.1889700433
 20
6.0784837901
 30
0.0
 10
15.173171477
 20
6.0752470749
 30
0.0
 10
15.1581289826
 20
6.0725466147
 30
0.0
 10
15.1452938323
 20
6.0704943662
 30
0.0
 10
15.1315723549
 20
6.0685933364
 30
0.0
 10
15.1170877951
 20
6.0669181068
 30
0.0
 10
15.1019741546
 20
6.0655362254
 30
0.0
 10
15.0863763229
 20
6.0645048395
 30
0.0
 10
15.0704491711
 20
6.0638676451
 30
0.0
 10
15.0543552568
 20
6.0636521371
 30
0.0
 10
15.0382613425
 20
6.0638676451
 30
0.0
 10
15.0223341907
 20
6.0645048396
 30
0.0
 10
15.0067363589
 20
6.0655362254
 30
0.0
 10
14.9916227185
 20
6.0669181068
 30
0.0
 10
14.9771381588
 20
6.0685933364
 30
0.0
 10
14.9634166814
 20
6.0704943662
 30
0.0
 10
14.9505815311
 20
6.0725466147
 30
0.0
 10
14.9355390368
 20
6.0752470749
 30
0.0
 10
14.9197404705
 20
6.0784837901
 30
0.0
 10
14.9037445681
 20
6.0821971409
 30
0.0
 10
14.8945306003
 20
6.0845290758
 30
0.0
 10
14.8903552569
 20
6.0856247044
 30
0.0
  0
SPLINE
  5
2CA
100
AcDbEntity
  8
02___PRT_ALL_AXES
100
AcDbSpline
 62
7
  6
CONTINUOUS
 70
0
 71
3
 72
59
 73
55
 74
0
 42
0.0000001
 43
0.0000001
 44
0.0000000001
 40
0.0
 40
0.0
 40
0.0
 40
0.0
 40
0.013564982
 40
0.0276376585
 40
0.0421971286
 40
0.0572236196
 40
0.0726954385
 40
0.0885895357
 40
0.1048820691
 40
0.1215485191
 40
0.1385637373
 40
0.1559021257
 40
0.1735378398
 40
0.1914448412
 40
0.227967666
 40
0.2652636389
 40
0.3031281653
 40
0.3413613965
 40
0.3797693308
 40
0.418164417
 40
0.4563660285
 40
0.4942009263
 40
0.531503981
 40
0.568119313
 40
0.603901861
 40
0.6387195014
 40
0.6557310366
 40
0.6724590147
 40
0.6888916623
 40
0.7050185061
 40
0.7208303899
 40
0.7363196061
 40
0.7514799139
 40
0.7663065499
 40
0.7807963661
 40
0.7949477513
 40
0.8087607163
 40
0.8222369121
 40
0.8353795853
 40
0.8481936916
 40
0.8606858116
 40
0.872864227
 40
0.8847389563
 40
0.8963217292
 40
0.9076260999
 40
0.918667423
 40
0.9294629422
 40
0.9400318198
 40
0.9503951269
 40
0.9605759176
 40
0.9705991402
 40
0.9804916025
 40
0.9902818572
 40
1.0
 40
1.0
 40
1.0
 40
1.0
 10
15.8105188581
 20
11.8619647748
 30
0.0
 10
15.8098595073
 20
11.8633083903
 30
0.0
 10
15.8085430433
 20
11.8660591861
 30
0.0
 10
15.8066086414
 20
11.8702943216
 30
0.0
 10
15.8046809587
 20
11.8747090592
 30
0.0
 10
15.8027637308
 20
11.8792961095
 30
0.0
 10
15.8008608336
 20
11.8840481122
 30
0.0
 10
15.7989763606
 20
11.8889573683
 30
0.0
 10
15.7971145889
 20
11.8940159625
 30
0.0
 10
15.7952799325
 20
11.899215808
 30
0.0
 10
15.793476941
 20
11.9045486714
 30
0.0
 10
15.7917102983
 20
11.910006201
 30
0.0
 10
15.789984757
 20
11.9155799616
 30
0.0
 10
15.7877305992
 20
11.9232052099
 30
0.0
 10
15.7850491905
 20
11.9329652672
 30
0.0
 10
15.7820944838
 20
11.944929684
 30
0.0
 10
15.7794223255
 20
11.9571537956
 30
0.0
 10
15.7770729505
 20
11.9695690948
 30
0.0
 10
15.7750860149
 20
11.9821070484
 30
0.0
 10
15.7735000284
 20
11.9946987817
 30
0.0
 10
15.7723516945
 20
12.0072748116
 30
0.0
 10
15.7716751263
 20
12.0197647839
 30
0.0
 10
15.7715009208
 20
12.0320972861
 30
0.0
 10
15.7718551391
 20
12.0442000125
 30
0.0
 10
15.7727581268
 20
12.0559996054
 30
0.0
 10
15.773988672
 20
12.0655926642
 30
0.0
 10
15.7752659969
 20
12.073049117
 30
0.0
 10
15.7763588946
 20
12.078476709
 30
0.0
 10
15.7775934101
 20
12.0837736931
 30
0.0
 10
15.7789682583
 20
12.0889315298
 30
0.0
 10
15.7804817279
 20
12.0939418244
 30
0.0
 10
15.7821314014
 20
12.098796504
 30
0.0
 10
15.7839143522
 20
12.1034877879
 30
0.0
 10
15.785827171
 20
12.1080082077
 30
0.0
 10
15.7878657848
 20
12.1123507152
 30
0.0
 10
15.7900257772
 20
12.1165085846
 30
0.0
 10
15.7923021724
 20
12.1204755285
 30
0.0
 10
15.7946895685
 20
12.1242456739
 30
0.0
 10
15.7971822583
 20
12.127813504
 30
0.0
 10
15.7997740527
 20
12.1311739956
 30
0.0
 10
15.8024585639
 20
12.1343224497
 30
0.0
 10
15.8052290708
 20
12.1372545953
 30
0.0
 10
15.8080786051
 20
12.1399665527
 30
0.0
 10
15.8110000577
 20
12.1424547338
 30
0.0
 10
15.8139860627
 20
12.1447159798
 30
0.0
 10
15.8170291839
 20
12.14674737
 30
0.0
 10
15.820121828
 20
12.1485463274
 30
0.0
 10
15.8232563067
 20
12.1501105676
 30
0.0
 10
15.8264248787
 20
12.1514380209
 30
0.0
 10
15.8296197084
 20
12.1525269609
 30
0.0
 10
15.8328329233
 20
12.1533758375
 30
0.0
 10
15.8360566794
 20
12.1539834072
 30
0.0
 10
15.8392828077
 20
12.1543486854
 30
0.0
 10
15.8414361046
 20
12.1544303819
 30
0.0
 10
15.8425083459
 20
12.1544303823
 30
0.0
  0
SPLINE
  5
2CB
100
AcDbEntity
  8
02___PRT_ALL_AXES
100
AcDbSpline
 62
7
  6
CONTINUOUS
 70
0
 71
3
 72
28
 73
24
 74
0
 42
0.0000001
 43
0.0000001
 44
0.0000000001
 40
0.0
 40
0.0
 40
0.0
 40
0.0
 40
0.0766512031
 40
0.1514788786
 40
0.2243418811
 40
0.2951295678
 40
0.363766523
 40
0.4302167922
 40
0.4944876054
 40
0.5566327293
 40
0.6167550611
 40
0.6750083007
 40
0.7315973836
 40
0.7593518961
 40
0.7867898438
 40
0.8139501173
 40
0.8408741299
 40
0.8676054052
 40
0.8941893104
 40
0.9206726609
 40
0.9471032701
 40
0.9735295587
 40
1.0
 40
1.0
 40
1.0
 40
1.0
 10
15.0442045702
 20
12.250471005
 30
0.0
 10
15.0411594024
 20
12.250471005
 30
0.0
 10
15.0351406688
 20
12.2505934126
 30
0.0
 10
15.0262432432
 20
12.2511582932
 30
0.0
 10
15.0176117977
 20
12.2521013698
 30
0.0
 10
15.0092784867
 20
12.2534210047
 30
0.0
 10
15.0012729657
 20
12.2551149782
 30
0.0
 10
14.9936225863
 20
12.2571805772
 30
0.0
 10
14.9863522816
 20
12.2596146867
 30
0.0
 10
14.9794846836
 20
12.2624138322
 30
0.0
 10
14.9730401298
 20
12.2655743334
 30
0.0
 10
14.9670373098
 20
12.2690918978
 30
0.0
 10
14.9623863795
 20
12.2723385462
 30
0.0
 10
14.9589132377
 20
12.2751077317
 30
0.0
 10
14.9564450331
 20
12.2772569051
 30
0.0
 10
14.9540985897
 20
12.2794907924
 30
0.0
 10
14.9518752904
 20
12.2818085876
 30
0.0
 10
14.9497765425
 20
12.2842094422
 30
0.0
 10
14.9478036045
 20
12.2866924216
 30
0.0
 10
14.9459577
 20
12.2892565528
 30
0.0
 10
14.9442399167
 20
12.2919007959
 30
0.0
 10
14.9426513426
 20
12.2946239486
 30
0.0
 10
14.9416803586
 20
12.2964887062
 30
0.0
 10
14.9412170786
 20
12.2974327659
 30
0.0
  0
SPLINE
  5
2CC
100
AcDbEntity
  8
LAYER_CUT_FEAT
100
AcDbSpline
 62
7
  6
CONTINUOUS
 70
0
 71
3
 72
22
 73
18
 74
0
 42
0.0000001
 43
0.0000001
 44
0.0000000001
 40
0.0
 40
0.0
 40
0.0
 40
0.0
 40
0.1374317645
 40
0.2044185506
 40
0.2703042506
 40
0.3351402424
 40
0.398984939
 40
0.4619030628
 40
0.523965508
 40
0.5852493064
 40
0.6458373004
 40
0.7058177075
 40
0.7652836504
 40
0.8243325606
 40
0.8830654313
 40
0.9415860238
 40
1.0
 40
1.0
 40
1.0
 40
1.0
 10
14.6966264584
 20
12.2376032682
 30
0.0
 10
14.6926422073
 20
12.2461639236
 30
0.0
 10
14.6871675817
 20
12.2591170405
 30
0.0
 10
14.6809569175
 20
12.2766231247
 30
0.0
 10
14.676933467
 20
12.2896016208
 30
0.0
 10
14.6735093383
 20
12.3025276136
 30
0.0
 10
14.6706875336
 20
12.315389935
 30
0.0
 10
14.6684707094
 20
12.328177021
 30
0.0
 10
14.666860983
 20
12.3408774778
 30
0.0
 10
14.6658599284
 20
12.3534799257
 30
0.0
 10
14.6654685413
 20
12.3659730582
 30
0.0
 10
14.6656873056
 20
12.3783456381
 30
0.0
 10
14.6665161515
 20
12.3905865178
 30
0.0
 10
14.667954389
 20
12.4026846099
 30
0.0
 10
14.670000837
 20
12.4146290772
 30
0.0
 10
14.6726536022
 20
12.426408675
 30
0.0
 10
14.6748256906
 20
12.4341480854
 30
0.0
 10
14.6760106396
 20
12.4379825702
 30
0.0
  0
SPLINE
  5
2CD
100
AcDbEntity
  8
LAYER_CHAMFER_FEAT
100
AcDbSpline
 62
7
  6
CONTINUOUS
 70
0
 71
3
 72
23
 73
19
 74
0
 42
0.0000001
 43
0.0000001
 44
0.0000000001
 40
0.0
 40
0.0
 40
0.0
 40
0.0
 40
0.0739612981
 40
0.1461250465
 40
0.2164953925
 40
0.2850911133
 40
0.3519465706
 40
0.4171127203
 40
0.4806581208
 40
0.5426695974
 40
0.6032527133
 40
0.662531985
 40
0.7206506833
 40
0.777769938
 40
0.8340672775
 40
0.8897345256
 40
0.9449749919
 40
1.0
 40
1.0
 40
1.0
 40
1.0
 10
15.054239315
 20
11.924704289
 30
0.0
 10
15.051552051
 20
11.9238830994
 30
0.0
 10
15.0462751496
 20
11.9221522239
 30
0.0
 10
15.038575672
 20
11.9192517602
 30
0.0
 10
15.0312031359
 20
11.9160842365
 30
0.0
 10
15.0241718141
 20
11.9126556463
 30
0.0
 10
15.0174951339
 20
11.9089723889
 30
0.0
 10
15.0111859376
 20
11.9050413355
 30
0.0
 10
15.0052563694
 20
11.9008698404
 30
0.0
 10
14.9997178978
 20
11.8964657048
 30
0.0
 10
14.9945813074
 20
11.89183717
 30
0.0
 10
14.9898566822
 20
11.8869929224
 30
0.0
 10
14.9855533511
 20
11.8819421334
 30
0.0
 10
14.9816798915
 20
11.8766944115
 30
0.0
 10
14.978244119
 20
11.8712598639
 30
0.0
 10
14.9752529664
 20
11.8656489012
 30
0.0
 10
14.9727126452
 20
11.8598729784
 30
0.0
 10
14.9713218088
 20
11.8559162724
 30
0.0
 10
14.970704597
 20
11.853918955
 30
0.0
  0
SPLINE
  5
2CE
100
AcDbEntity
  8
LAYER_CHAMFER_FEAT
100
AcDbSpline
 62
7
  6
CONTINUOUS
 70
0
 71
3
 72
23
 73
19
 74
0
 42
0.0000001
 43
0.0000001
 44
0.0000000001
 40
0.0
 40
0.0
 40
0.0
 40
0.0
 40
0.0738831365
 40
0.1459770552
 40
0.2162870787
 40
0.284832931
 40
0.3516497536
 40
0.4167891855
 40
0.4803201551
 40
0.5423295487
 40
0.6029227375
 40
0.6622238089
 40
0.7203751922
 40
0.7775368278
 40
0.8338847773
 40
0.8896091259
 40
0.9449111567
 40
1.0
 40
1.0
 40
1.0
 40
1.0
 10
15.4198803185
 20
11.8112384515
 30
0.0
 10
15.4216130444
 20
11.8090553524
 30
0.0
 10
15.4249492108
 20
11.8046717151
 30
0.0
 10
15.4296066443
 20
11.797969292
 30
0.0
 10
15.433847711
 20
11.791232304
 30
0.0
 10
15.437664207
 20
11.7844735248
 30
0.0
 10
15.4410488321
 20
11.7777055843
 30
0.0
 10
15.4439950614
 20
11.7709411893
 30
0.0
 10
15.4464971684
 20
11.7641930323
 30
0.0
 10
15.4485502071
 20
11.7574737948
 30
0.0
 10
15.4501500311
 20
11.7507961373
 30
0.0
 10
15.451293352
 20
11.7441727005
 30
0.0
 10
15.4519777091
 20
11.7376160866
 30
0.0
 10
15.4522014834
 20
11.7311388403
 30
0.0
 10
15.4519639684
 20
11.7247534892
 30
0.0
 10
15.4512653629
 20
11.7184723118
 30
0.0
 10
15.4501069867
 20
11.7123080306
 30
0.0
 10
15.4490285828
 20
11.7082807952
 30
0.0
 10
15.4484150151
 20
11.7062952705
 30
0.0
  0
SPLINE
  5
2CF
100
AcDbEntity
  8
LAYER_FEATURE
100
AcDbSpline
 62
7
  6
CONTINUOUS
 70
0
 71
3
 72
42
 73
38
 74
0
 42
0.0000001
 43
0.0000001
 44
0.0000000001
 40
0.0
 40
0.0
 40
0.0
 40
0.0
 40
0.0099900408
 40
0.0202818331
 40
0.0308785611
 40
0.0417820724
 40
0.0529932134
 40
0.0645118227
 40
0.0884642597
 40
0.1136226847
 40
0.1399566027
 40
0.167425426
 40
0.1959797868
 40
0.2255626889
 40
0.256110462
 40
0.2875535765
 40
0.3198173557
 40
0.3528226037
 40
0.3864862206
 40
0.4207217603
 40
0.4554399436
 40
0.4905491459
 40
0.5259558654
 40
0.5615652001
 40
0.5972813089
 40
0.6330078561
 40
0.6686484524
 40
0.7041071035
 40
0.7392886711
 40
0.7740993194
 40
0.808446984
 40
0.8422418159
 40
0.8753966828
 40
0.9078278826
 40
0.9394547602
 40
0.9702031246
 40
1.0
 40
1.0
 40
1.0
 40
1.0
 10
15.8718189534
 20
12.1093272613
 30
0.0
 10
15.8722608336
 20
12.1087978632
 30
0.0
 10
15.8731382695
 20
12.107706517
 30
0.0
 10
15.8744166871
 20
12.106000566
 30
0.0
 10
15.8756758142
 20
12.1042027829
 30
0.0
 10
15.8769146696
 20
12.1023146417
 30
0.0
 10
15.8781322843
 20
12.1003376103
 30
0.0
 10
15.8797471729
 20
12.0975487748
 30
0.0
 10
15.8817023517
 20
12.0938464117
 30
0.0
 10
15.8839189851
 20
12.0891322174
 30
0.0
 10
15.8860288027
 20
12.0841050732
 30
0.0
 10
15.8880251223
 20
12.078780896
 30
0.0
 10
15.8899016486
 20
12.0731764395
 30
0.0
 10
15.8916524303
 20
12.0673094141
 30
0.0
 10
15.8932719059
 20
12.0611983725
 30
0.0
 10
15.8947549215
 20
12.0548626629
 30
0.0
 10
15.8960967499
 20
12.0483223619
 30
0.0
 10
15.8972931177
 20
12.0415982119
 30
0.0
 10
15.8983402128
 20
12.0347115493
 30
0.0
 10
15.8992346958
 20
12.0276842333
 30
0.0
 10
15.8999737124
 20
12.0205385753
 30
0.0
 10
15.9005549011
 20
12.0132972679
 30
0.0
 10
15.9009764084
 20
12.0059833129
 30
0.0
 10
15.9012368925
 20
11.9986199456
 30
0.0
 10
15.9013355227
 20
11.9912305592
 30
0.0
 10
15.9012719836
 20
11.9838386303
 30
0.0
 10
15.9010464748
 20
11.9764676443
 30
0.0
 10
15.9006597152
 20
11.9691410195
 30
0.0
 10
15.9001129424
 20
11.9618820312
 30
0.0
 10
15.8994079023
 20
11.9547137362
 30
0.0
 10
15.8985468437
 20
11.9476589009
 30
0.0
 10
15.8975325108
 20
11.9407399294
 30
0.0
 10
15.8963681387
 20
11.9339787749
 30
0.0
 10
15.8950574379
 20
11.9273969309
 30
0.0
 10
15.8936045955
 20
11.9210151657
 30
0.0
 10
15.8920142353
 20
11.9148538964
 30
0.0
 10
15.8908464873
 20
11.9108402518
 30
0.0
 10
15.890239228
 20
11.9088751601
 30
0.0
  0
SPLINE
  5
2D0
100
AcDbEntity
  8
LAYER_FEATURE
100
AcDbSpline
 62
7
  6
CONTINUOUS
 70
0
 71
3
 72
19
 73
15
 74
0
 42
0.0000001
 43
0.0000001
 44
0.0000000001
 40
0.0
 40
0.0
 40
0.0
 40
0.0
 40
0.0507390002
 40
0.1030521433
 40
0.1569558458
 40
0.2124597058
 40
0.2695679913
 40
0.32827863
 40
0.3885852422
 40
0.4504765242
 40
0.5789393712
 40
0.7135035062
 40
0.8539509321
 40
1.0
 40
1.0
 40
1.0
 40
1.0
 10
15.8718189526
 20
11.8715335191
 30
0.0
 10
15.8722729694
 20
11.8720774567
 30
0.0
 10
15.8731743227
 20
11.8731996909
 30
0.0
 10
15.8744865005
 20
11.8749557095
 30
0.0
 10
15.8757782836
 20
11.876808499
 30
0.0
 10
15.8770486026
 20
11.87875647
 30
0.0
 10
15.8782963744
 20
11.8807980267
 30
0.0
 10
15.8795206001
 20
11.8829314388
 30
0.0
 10
15.8807202412
 20
11.8851549498
 30
0.0
 10
15.8823053188
 20
11.8882760416
 30
0.0
 10
15.884214408
 20
11.8923938798
 30
0.0
 10
15.8863640952
 20
11.897603408
 30
0.0
 10
15.8883929438
 20
11.9031234
 30
0.0
 10
15.8896370921
 20
11.9069266476
 30
0.0
 10
15.890239228
 20
11.9088751601
 30
0.0
  0
SPLINE
  5
2D1
100
AcDbEntity
  8
02___PRT_ALL_AXES
100
AcDbSpline
 62
7
  6
CONTINUOUS
 70
0
 71
3
 72
34
 73
30
 74
0
 42
0.0000001
 43
0.0000001
 44
0.0000000001
 40
0.0
 40
0.0
 40
0.0
 40
0.0
 40
0.0186496168
 40
0.0375008545
 40
0.0566626416
 40
0.0762382559
 40
0.0963244355
 40
0.1170100496
 40
0.1383754069
 40
0.160492914
 40
0.1834267916
 40
0.2072330041
 40
0.2319607787
 40
0.2576527286
 40
0.2843447211
 40
0.3120676422
 40
0.3408475478
 40
0.3707052036
 40
0.4016578558
 40
0.4337193265
 40
0.4668992189
 40
0.5012046332
 40
0.5366402499
 40
0.5732073494
 40
0.6497292829
 40
0.7307423629
 40
0.8161861
 40
0.905979335
 40
1.0
 40
1.0
 40
1.0
 40
1.0
 10
15.8425083457
 20
11.8264303937
 30
0.0
 10
15.8421992553
 20
11.8264303935
 30
0.0
 10
15.841577476
 20
11.8264545268
 30
0.0
 10
15.8406437469
 20
11.8265624363
 30
0.0
 10
15.8397054928
 20
11.8267421153
 30
0.0
 10
15.8387627172
 20
11.8269934444
 30
0.0
 10
15.8378153226
 20
11.8273163106
 30
0.0
 10
15.8368632271
 20
11.8277105631
 30
0.0
 10
15.8359063267
 20
11.8281760146
 30
0.0
 10
15.8349445339
 20
11.8287124939
 30
0.0
 10
15.8339777703
 20
11.8293198073
 30
0.0
 10
15.8330059597
 20
11.8299977248
 30
0.0
 10
15.8320290571
 20
11.8307460203
 30
0.0
 10
15.83104704
 20
11.8315644416
 30
0.0
 10
15.8300598958
 20
11.832452695
 30
0.0
 10
15.8290676475
 20
11.8334104748
 30
0.0
 10
15.8280703443
 20
11.8344374435
 30
0.0
 10
15.8270680494
 20
11.8355332197
 30
0.0
 10
15.8260608603
 20
11.8366973988
 30
0.0
 10
15.8250489008
 20
11.8379295399
 30
0.0
 10
15.8240323118
 20
11.8392291587
 30
0.0
 10
15.8230112681
 20
11.8405957401
 30
0.0
 10
15.8219859591
 20
11.8420287322
 30
0.0
 10
15.820592348
 20
11.8440579823
 30
0.0
 10
15.8188440814
 20
11.8467592455
 30
0.0
 10
15.8167638132
 20
11.850208005
 30
0.0
 10
15.814673236
 20
11.8539053873
 30
0.0
 10
15.8125754887
 20
11.8578446155
 30
0.0
 10
15.8112053366
 20
11.8605658786
 30
0.0
 10
15.8105188581
 20
11.8619647748
 30
0.0
  0
SPLINE
  5
2D2
100
AcDbEntity
  8
LAYER_FEATURE
100
AcDbSpline
 62
7
  6
CONTINUOUS
 70
0
 71
3
 72
39
 73
35
 74
0
 42
0.0000001
 43
0.0000001
 44
0.0000000001
 40
0.0
 40
0.0
 40
0.0
 40
0.0
 40
0.0258986441
 40
0.0518405441
 40
0.0778686008
 40
0.1040250108
 40
0.1303509363
 40
0.1568862072
 40
0.1836690466
 40
0.2107358261
 40
0.2381208784
 40
0.2658563412
 40
0.2939720218
 40
0.3224953186
 40
0.3514511807
 40
0.380862077
 40
0.4107479885
 40
0.441126454
 40
0.4720126129
 40
0.5034192414
 40
0.5353568349
 40
0.5678336962
 40
0.6008560003
 40
0.6344278741
 40
0.6685515055
 40
0.7032272272
 40
0.7384535809
 40
0.7742274239
 40
0.8105440208
 40
0.847397105
 40
0.8847789585
 40
0.9226805077
 40
0.9610913888
 40
1.0
 40
1.0
 40
1.0
 40
1.0
 10
14.3702759688
 20
12.5324617293
 30
0.0
 10
14.3686273832
 20
12.5271269198
 30
0.0
 10
14.3655935588
 20
12.516364064
 30
0.0
 10
14.3618480816
 20
12.4999920353
 30
0.0
 10
14.3589091003
 20
12.4833993758
 30
0.0
 10
14.3567791344
 20
12.4666003557
 30
0.0
 10
14.3554597947
 20
12.4496087324
 30
0.0
 10
14.3549520829
 20
12.4324385765
 30
0.0
 10
14.3552563095
 20
12.4151040343
 30
0.0
 10
14.3563720657
 20
12.3976193724
 30
0.0
 10
14.3582982911
 20
12.3799989448
 30
0.0
 10
14.361033284
 20
12.362257193
 30
0.0
 10
14.3645746516
 20
12.3444086282
 30
0.0
 10
14.3689193442
 20
12.3264678217
 30
0.0
 10
14.3740636924
 20
12.3084494032
 30
0.0
 10
14.3800033853
 20
12.2903680514
 30
0.0
 10
14.3867334432
 20
12.2722384718
 30
0.0
 10
14.3942482782
 20
12.2540754042
 30
0.0
 10
14.4025416941
 20
12.2358936167
 30
0.0
 10
14.4116068405
 20
12.2177078754
 30
0.0
 10
14.4214362544
 20
12.1995329478
 30
0.0
 10
14.4320218825
 20
12.1813836017
 30
0.0
 10
14.4433550567
 20
12.163274583
 30
0.0
 10
14.4554264873
 20
12.1452205941
 30
0.0
 10
14.4682263102
 20
12.1272363056
 30
0.0
 10
14.4817440849
 20
12.1093363434
 30
0.0
 10
14.4959687629
 20
12.09153525
 30
0.0
 10
14.5108887324
 20
12.0738474955
 30
0.0
 10
14.5264918341
 20
12.0562874745
 30
0.0
 10
14.5427653452
 20
12.0388694712
 30
0.0
 10
14.559695977
 20
12.0216076559
 30
0.0
 10
14.5772699605
 20
12.004516054
 30
0.0
 10
14.5954728642
 20
11.9876086917
 30
0.0
 10
14.6079389265
 20
11.9765388965
 30
0.0
 10
14.61427149
 20
11.9710372247
 30
0.0
  0
SPLINE
  5
2D3
100
AcDbEntity
  8
LAYER_FEATURE
100
AcDbSpline
 62
7
  6
CONTINUOUS
 70
0
 71
3
 72
30
 73
26
 74
0
 42
0.0000001
 43
0.0000001
 44
0.0000000001
 40
0.0
 40
0.0
 40
0.0
 40
0.0
 40
0.0286235407
 40
0.0572647576
 40
0.0859412695
 40
0.1146705945
 40
0.1434700819
 40
0.1723568797
 40
0.2013478691
 40
0.2304596274
 40
0.2597083873
 40
0.2891099768
 40
0.3186798178
 40
0.3484328423
 40
0.4085400866
 40
0.4695468897
 40
0.5315535327
 40
0.5946508332
 40
0.658919871
 40
0.7244318873
 40
0.7576757
 40
0.7912524664
 40
0.8594251553
 40
0.9289965337
 40
1.0
 40
1.0
 40
1.0
 40
1.0
 10
14.5997548434
 20
13.2750556396
 30
0.0
 10
14.5987531484
 20
13.2718141629
 30
0.0
 10
14.5968473576
 20
13.265298385
 30
0.0
 10
14.5942849707
 20
13.2554378601
 30
0.0
 10
14.5920191797
 20
13.2454920331
 30
0.0
 10
14.5900507702
 20
13.2354640216
 30
0.0
 10
14.5883802559
 20
13.225356846
 30
0.0
 10
14.5870081957
 20
13.2151735675
 30
0.0
 10
14.5859349632
 20
13.2049172735
 30
0.0
 10
14.5851608808
 20
13.1945910699
 30
0.0
 10
14.5846861982
 20
13.1841980755
 30
0.0
 10
14.5845109972
 20
13.1737414607
 30
0.0
 10
14.5846353985
 20
13.1632242926
 30
0.0
 10
14.5852024047
 20
13.149078155
 30
0.0
 10
14.5866684427
 20
13.1312462789
 30
0.0
 10
14.5896182534
 20
13.109732404
 30
0.0
 10
14.5937606071
 20
13.0880552166
 30
0.0
 10
14.5990901394
 20
13.0662412826
 30
0.0
 10
14.6055999771
 20
13.0443169874
 30
0.0
 10
14.611970406
 20
13.0260662083
 30
0.0
 10
14.6176385157
 20
13.0114397172
 30
0.0
 10
14.6237511026
 20
12.9966514315
 30
0.0
 10
14.6321235713
 20
12.9781437596
 30
0.0
 10
14.6432594475
 20
12.9560414968
 30
0.0
 10
14.6513511906
 20
12.9414701743
 30
0.0
 10
14.6555768288
 20
12.9341919438
 30
0.0
  0
SPLINE
  5
2D4
100
AcDbEntity
  8
LAYER_FEATURE
100
AcDbSpline
 62
7
  6
CONTINUOUS
 70
0
 71
3
 72
39
 73
35
 74
0
 42
0.0000001
 43
0.0000001
 44
0.0000000001
 40
0.0
 40
0.0
 40
0.0
 40
0.0
 40
0.0258976161
 40
0.0518385007
 40
0.0778655645
 40
0.1040210147
 40
0.1303460287
 40
0.1568804445
 40
0.1836624881
 40
0.2107285455
 40
0.2381129608
 40
0.2658478662
 40
0.2939630756
 40
0.3224860018
 40
0.3514415893
 40
0.380852299
 40
0.4107381252
 40
0.4411166093
 40
0.4720028726
 40
0.5034096948
 40
0.5353475816
 40
0.5678248186
 40
0.6008475693
 40
0.6344199713
 40
0.6685442068
 40
0.7032205844
 40
0.7384476492
 40
0.7742222631
 40
0.8105396671
 40
0.847393584
 40
0.8847763033
 40
0.922678738
 40
0.9610905059
 40
1.0
 40
1.0
 40
1.0
 40
1.0
 10
16.3269778488
 20
11.9277951153
 30
0.0
 10
16.3253290038
 20
11.9224594665
 30
0.0
 10
16.3217612352
 20
11.9118597667
 30
0.0
 10
16.3156159154
 20
11.8962265896
 30
0.0
 10
16.3086800098
 20
11.880866331
 30
0.0
 10
16.300959481
 20
11.8657922001
 30
0.0
 10
16.2924607304
 20
11.8510164883
 30
0.0
 10
16.283190886
 20
11.8365513799
 30
0.0
 10
16.2731577076
 20
11.8224087141
 30
0.0
 10
16.2623695564
 20
11.8086000624
 30
0.0
 10
16.250835397
 20
11.7951366974
 30
0.0
 10
16.2385648232
 20
11.7820295583
 30
0.0
 10
16.2255679955
 20
11.7692892844
 30
0.0
 10
16.2118556328
 20
11.7569262163
 30
0.0
 10
16.197439042
 20
11.7449503524
 30
0.0
 10
16.1823300864
 20
11.7333713632
 30
0.0
 10
16.1665411582
 20
11.7221986109
 30
0.0
 10
16.1500851896
 20
11.7114411259
 30
0.0
 10
16.1329756602
 20
11.7011075745
 30
0.0
 10
16.1152265549
 20
11.6912062985
 30
0.0
 10
16.0968523603
 20
11.6817453091
 30
0.0
 10
16.0778680805
 20
11.6727322349
 30
0.0
 10
16.0582892063
 20
11.6641743493
 30
0.0
 10
16.0381316967
 20
11.6560785812
 30
0.0
 10
16.0174119828
 20
11.6484514824
 30
0.0
 10
15.9961469598
 20
11.6412992072
 30
0.0
 10
15.9743539559
 20
11.6346275482
 30
0.0
 10
15.9520507249
 20
11.6284419251
 30
0.0
 10
15.9292554475
 20
11.6227473353
 30
0.0
 10
15.9059866985
 20
11.6175483893
 30
0.0
 10
15.882263447
 20
11.6128493182
 30
0.0
 10
15.8581049865
 20
11.6086539294
 30
0.0
 10
15.8335311636
 20
11.6049656318
 30
0.0
 10
15.8169893347
 20
11.6028601048
 30
0.0
 10
15.8086549824
 20
11.601890954
 30
0.0
  0
SPLINE
  5
2D5
100
AcDbEntity
  8
LAYER_FEATURE
100
AcDbSpline
 62
7
  6
CONTINUOUS
 70
0
 71
3
 72
32
 73
28
 74
0
 42
0.0000001
 43
0.0000001
 44
0.0000000001
 40
0.0
 40
0.0
 40
0.0
 40
0.0
 40
0.0286215363
 40
0.0572607603
 40
0.0859353082
 40
0.1146627033
 40
0.1434603175
 40
0.1723453003
 40
0.2013345534
 40
0.2304446619
 40
0.2596918649
 40
0.2890920144
 40
0.3186605192
 40
0.348412349
 40
0.3783619498
 40
0.4085232777
 40
0.4695286754
 40
0.5315345561
 40
0.5629439444
 40
0.5946366869
 40
0.6589063421
 40
0.724419683
 40
0.7576644091
 40
0.7912422924
 40
0.8594177026
 40
0.9289924803
 40
1.0
 40
1.0
 40
1.0
 40
1.0
 10
16.5564567234
 20
12.6703890256
 30
0.0
 10
16.5554546244
 20
12.6671462415
 30
0.0
 10
16.553351254
 20
12.6606886532
 30
0.0
 10
16.5499023367
 20
12.6510977898
 30
0.0
 10
16.5461601247
 20
12.6416039265
 30
0.0
 10
16.542125839
 20
12.6322100386
 30
0.0
 10
16.537800636
 20
12.6229189683
 30
0.0
 10
16.5331858981
 20
12.613733508
 30
0.0
 10
16.5282829767
 20
12.6046564622
 30
0.0
 10
16.5230933982
 20
12.5956905604
 30
0.0
 10
16.5176187328
 20
12.5868385171
 30
0.0
 10
16.511860632
 20
12.5781030198
 30
0.0
 10
16.5058208796
 20
12.5694866761
 30
0.0
 10
16.4995012778
 20
12.5609921398
 30
0.0
 10
16.4929037406
 20
12.5526218719
 30
0.0
 10
16.4837049385
 20
12.541589641
 30
0.0
 10
16.4715067417
 20
12.5281184387
 30
0.0
 10
16.4585129728
 20
12.5152031289
 30
0.0
 10
16.4476004629
 20
12.5051501574
 30
0.0
 10
16.4362385361
 20
12.4951956693
 30
0.0
 10
16.4213734607
 20
12.4831124599
 30
0.0
 10
16.4058071425
 20
12.4716354313
 30
0.0
 10
16.3928669532
 20
12.4627551392
 30
0.0
 10
16.3794681178
 20
12.4539922259
 30
0.0
 10
16.3621024267
 20
12.4434333054
 30
0.0
 10
16.3404243564
 20
12.4314658953
 30
0.0
 10
16.3255129438
 20
12.4239998297
 30
0.0
 10
16.3179129113
 20
12.4203744562
 30
0.0
  0
SPLINE
  5
2D6
100
AcDbEntity
  8
LAYER_CUT_FEAT
100
AcDbSpline
 62
7
  6
CONTINUOUS
 70
0
 71
3
 72
22
 73
18
 74
0
 42
0.0000001
 43
0.0000001
 44
0.0000000001
 40
0.0
 40
0.0
 40
0.0
 40
0.0
 40
0.0584132546
 40
0.1169331513
 40
0.1756653678
 40
0.234713691
 40
0.2941791467
 40
0.3541591681
 40
0.4147468948
 40
0.4760305853
 40
0.5380930735
 40
0.6010113825
 40
0.6648564807
 40
0.72969305
 40
0.7955793711
 40
0.8625673669
 40
1.0
 40
1.0
 40
1.0
 40
1.0
 10
16.021243178
 20
12.0222742744
 30
0.0
 10
16.0200580911
 20
12.0184393433
 30
0.0
 10
16.0174848395
 20
12.0108229201
 30
0.0
 10
16.0130287625
 20
11.9995991236
 30
0.0
 10
16.0079789529
 20
11.9885813077
 30
0.0
 10
16.0023401673
 20
11.9777798347
 30
0.0
 10
15.996117518
 20
11.9672043402
 30
0.0
 10
15.9893167315
 20
11.9568643501
 30
0.0
 10
15.981944039
 20
11.9467691089
 30
0.0
 10
15.9740061506
 20
11.9369276489
 30
0.0
 10
15.965510296
 20
11.9273487294
 30
0.0
 10
15.9564642075
 20
11.9180408474
 30
0.0
 10
15.946876034
 20
11.909012248
 30
0.0
 10
15.9367545145
 20
11.9002709796
 30
0.0
 10
15.9261084401
 20
11.8918245205
 30
0.0
 10
15.9111013506
 20
11.8808737971
 30
0.0
 10
15.8992712869
 20
11.8732672641
 30
0.0
 10
15.8911505564
 20
11.8684467975
 30
0.0
  0
SPLINE
  5
2D7
100
AcDbEntity
  8
02___PRT_ALL_AXES
100
AcDbSpline
 62
7
  6
CONTINUOUS
 70
0
 71
3
 72
52
 73
48
 74
0
 42
0.0000001
 43
0.0000001
 44
0.0000000001
 40
0.0
 40
0.0
 40
0.0
 40
0.0
 40
0.0138985879
 40
0.0277687564
 40
0.0416149337
 40
0.0554418518
 40
0.0692545499
 40
0.0830584046
 40
0.0968591157
 40
0.1106627069
 40
0.1244755206
 40
0.1383042041
 40
0.1521556874
 40
0.166037127
 40
0.1799558991
 40
0.1939195039
 40
0.2079355645
 40
0.2220117001
 40
0.2361555072
 40
0.2503744497
 40
0.264675815
 40
0.2790666264
 40
0.2935535447
 40
0.3081428597
 40
0.3376458471
 40
0.3676211298
 40
0.3827980122
 40
0.3981031886
 40
0.4291012797
 40
0.4606271434
 40
0.4765887858
 40
0.4926795115
 40
0.5252343508
 40
0.5582668239
 40
0.5917371687
 40
0.6255946654
 40
0.6597780521
 40
0.6942160447
 40
0.7288278541
 40
0.7635239774
 40
0.7982071142
 40
0.8327734641
 40
0.8671143248
 40
0.901118072
 40
0.9346727071
 40
0.9676680478
 40
1.0
 40
1.0
 40
1.0
 40
1.0
 10
15.2356730565
 20
12.4419307721
 30
0.0
 10
15.2363291108
 20
12.4405938802
 30
0.0
 10
15.2375842971
 20
12.4378951304
 30
0.0
 10
15.2392936984
 20
12.4337755393
 30
0.0
 10
15.2408248972
 20
12.4295945228
 30
0.0
 10
15.2421752279
 20
12.4253581088
 30
0.0
 10
15.2433421641
 20
12.4210722356
 30
0.0
 10
15.2443234859
 20
12.4167429618
 30
0.0
 10
15.2451170592
 20
12.4123763517
 30
0.0
 10
15.2457211172
 20
12.4079785388
 30
0.0
 10
15.246134022
 20
12.4035556612
 30
0.0
 10
15.2463544955
 20
12.3991138834
 30
0.0
 10
15.2463814974
 20
12.3946593621
 30
0.0
 10
15.2462142808
 20
12.390198239
 30
0.0
 10
15.2458524808
 20
12.3857366172
 30
0.0
 10
15.245295938
 20
12.3812805522
 30
0.0
 10
15.2445449988
 20
12.3768360071
 30
0.0
 10
15.2436001633
 20
12.3724088752
 30
0.0
 10
15.2424624737
 20
12.3680048994
 30
0.0
 10
15.2411331613
 20
12.3636297194
 30
0.0
 10
15.2396139141
 20
12.3592887854
 30
0.0
 10
15.2379067338
 20
12.3549874022
 30
0.0
 10
15.2360138789
 20
12.3507306144
 30
0.0
 10
15.2332361691
 20
12.3451005719
 30
0.0
 10
15.2293064494
 20
12.3381959539
 30
0.0
 10
15.224832599
 20
12.331555814
 30
0.0
 10
15.220928315
 20
12.3263853607
 30
0.0
 10
15.2167753784
 20
12.3212703866
 30
0.0
 10
15.2111868968
 20
12.3150718141
 30
0.0
 10
15.2051567571
 20
12.3092018892
 30
0.0
 10
15.200060964
 20
12.3046795996
 30
0.0
 10
15.1947470164
 20
12.3002416892
 30
0.0
 10
15.1877856568
 20
12.2949294762
 30
0.0
 10
15.179001056
 20
12.2889639708
 30
0.0
 10
15.1697968734
 20
12.2833946141
 30
0.0
 10
15.160218686
 20
12.2782320644
 30
0.0
 10
15.15031294
 20
12.273485503
 30
0.0
 10
15.1401273046
 20
12.2691631927
 30
0.0
 10
15.1297106417
 20
12.2652726259
 30
0.0
 10
15.1191130719
 20
12.2618206884
 30
0.0
 10
15.1083859475
 20
12.2588137197
 30
0.0
 10
15.0975817606
 20
12.2562575123
 30
0.0
 10
15.0867539279
 20
12.2541572589
 30
0.0
 10
15.0759564945
 20
12.2525174444
 30
0.0
 10
15.0652436034
 20
12.2513417637
 30
0.0
 10
15.0546693602
 20
12.2506329445
 30
0.0
 10
15.0476688376
 20
12.250471005
 30
0.0
 10
15.0442045702
 20
12.250471005
 30
0.0
  0
SPLINE
  5
2D8
100
AcDbEntity
  8
LAYER_FEATURE
100
AcDbSpline
 62
7
  6
CONTINUOUS
 70
0
 71
3
 72
80
 73
76
 74
0
 42
0.0000001
 43
0.0000001
 44
0.0000000001
 40
0.0
 40
0.0
 40
0.0
 40
0.0
 40
0.0171786082
 40
0.034530198
 40
0.0520439838
 40
0.0697095606
 40
0.0875157518
 40
0.105451206
 40
0.1235042506
 40
0.1416629551
 40
0.1599151638
 40
0.1782485183
 40
0.196650488
 40
0.215108397
 40
0.2336094524
 40
0.252140772
 40
0.2706894107
 40
0.289242387
 40
0.3077867108
 40
0.3263094098
 40
0.3447975567
 40
0.363238296
 40
0.3816188704
 40
0.3999266494
 40
0.4181491568
 40
0.4362740982
 40
0.4542893888
 40
0.4721831827
 40
0.4899439032
 40
0.5075602729
 40
0.5250213434
 40
0.5423165268
 40
0.5594356282
 40
0.5763688815
 40
0.5931069834
 40
0.6096411284
 40
0.625963046
 40
0.6420650398
 40
0.6579400312
 40
0.6735816004
 40
0.68898403
 40
0.7041423511
 40
0.719052392
 40
0.733710832
 40
0.7481152528
 40
0.7622641919
 40
0.7761571985
 40
0.789794892
 40
0.8031790231
 40
0.8163125314
 40
0.8291996013
 40
0.8418457169
 40
0.8542577138
 40
0.8603787795
 40
0.8664445246
 40
0.8784144197
 40
0.8901792225
 40
0.8959889946
 40
0.9017523407
 40
0.913146193
 40
0.9243770775
 40
0.929937084
 40
0.9354627808
 40
0.9409564793
 40
0.9464205594
 40
0.9518574751
 40
0.9572697446
 40
0.962659945
 40
0.9680307113
 40
0.9733847243
 40
0.97872471
 40
0.9840534296
 40
0.9893736732
 40
0.9946882543
 40
1.0
 40
1.0
 40
1.0
 40
1.0
 10
15.2812351567
 20
13.6593838624
 30
0.0
 10
15.2914357006
 20
13.6593838624
 30
0.0
 10
15.3119401585
 20
13.6591594105
 30
0.0
 10
15.3428296142
 20
13.6581621227
 30
0.0
 10
15.3739802849
 20
13.6565034486
 30
0.0
 10
15.4053594055
 20
13.654185187
 30
0.0
 10
15.4369345018
 20
13.6512097044
 30
0.0
 10
15.468672646
 20
13.6475801141
 30
0.0
 10
15.5005408236
 20
13.6433001941
 30
0.0
 10
15.5325058625
 20
13.6383744027
 30
0.0
 10
15.5645344911
 20
13.6328078683
 30
0.0
 10
15.5965933718
 20
13.6266063825
 30
0.0
 10
15.6286491323
 20
13.6197763959
 30
0.0
 10
15.6606684048
 20
13.6123250225
 30
0.0
 10
15.6926178588
 20
13.6042600218
 30
0.0
 10
15.7244642358
 20
13.5955897893
 30
0.0
 10
15.7561743837
 20
13.5863233486
 30
0.0
 10
15.7877152907
 20
13.5764703409
 30
0.0
 10
15.8190541238
 20
13.5660410274
 30
0.0
 10
15.8501582605
 20
13.5550462676
 30
0.0
 10
15.8809953221
 20
13.543497507
 30
0.0
 10
15.9115332073
 20
13.531406766
 30
0.0
 10
15.941740125
 20
13.5187866257
 30
0.0
 10
15.9715846328
 20
13.5056502264
 30
0.0
 10
16.0010356667
 20
13.4920112448
 30
0.0
 10
16.0300625718
 20
13.4778838771
 30
0.0
 10
16.0586351339
 20
13.4632828261
 30
0.0
 10
16.0867236109
 20
13.4482232832
 30
0.0
 10
16.1142987703
 20
13.4327209241
 30
0.0
 10
16.1413319156
 20
13.4167918835
 30
0.0
 10
16.1677949139
 20
13.400452736
 30
0.0
 10
16.1936602249
 20
13.3837204801
 30
0.0
 10
16.2189009293
 20
13.366612518
 30
0.0
 10
16.2434907646
 20
13.3491466477
 30
0.0
 10
16.2674041479
 20
13.3313410365
 30
0.0
 10
16.2906161991
 20
13.3132141995
 30
0.0
 10
16.3131027661
 20
13.2947849815
 30
0.0
 10
16.3348404496
 20
13.2760725343
 30
0.0
 10
16.355806636
 20
13.2570963062
 30
0.0
 10
16.3759795161
 20
13.2378760148
 30
0.0
 10
16.3953381022
 20
13.218431623
 30
0.0
 10
16.4138622495
 20
13.19878332
 30
0.0
 10
16.4315326746
 20
13.1789514969
 30
0.0
 10
16.4483309859
 20
13.1589567341
 30
0.0
 10
16.4642396961
 20
13.1388197739
 30
0.0
 10
16.4792422327
 20
13.1185614959
 30
0.0
 10
16.4933229537
 20
13.098202898
 30
0.0
 10
16.5064671588
 20
13.0777650737
 30
0.0
 10
16.5186611189
 20
13.0572691908
 30
0.0
 10
16.5298920705
 20
13.0367364971
 30
0.0
 10
16.5401482611
 20
13.0161881857
 30
0.0
 10
16.5494188052
 20
12.9956457891
 30
0.0
 10
16.5563466331
 20
12.9784706213
 30
0.0
 10
16.5613790702
 20
12.964757264
 30
0.0
 10
16.5660315362
 20
12.9511876385
 30
0.0
 10
16.5712243587
 20
12.9342650344
 30
0.0
 10
16.5756096625
 20
12.9172718115
 30
0.0
 10
16.578598325
 20
12.9037388377
 30
0.0
 10
16.5812224083
 20
12.8903549105
 30
0.0
 10
16.5838682966
 20
12.8737000225
 30
0.0
 10
16.5856697389
 20
12.8570536584
 30
0.0
 10
16.586587795
 20
12.8438328111
 30
0.0
 10
16.5870153644
 20
12.8339962035
 30
0.0
 10
16.5871841247
 20
12.8242087585
 30
0.0
 10
16.5870939839
 20
12.8144729602
 30
0.0
 10
16.586744983
 20
12.8047913718
 30
0.0
 10
16.5861372143
 20
12.7951665169
 30
0.0
 10
16.5852707894
 20
12.7856009159
 30
0.0
 10
16.5841459867
 20
12.7760970651
 30
0.0
 10
16.5827630416
 20
12.7666574561
 30
0.0
 10
16.5811223406
 20
12.757284554
 30
0.0
 10
16.5792243165
 20
12.7479808157
 30
0.0
 10
16.5770694166
 20
12.7387486599
 30
0.0
 10
16.5746582875
 20
12.7295905843
 30
0.0
 10
16.5728802043
 20
12.7235354204
 30
0.0
 10
16.5719489681
 20
12.7205219479
 30
0.0
  0
SPLINE
  5
2D9
100
AcDbEntity
  8
02___PRT_ALL_AXES
100
AcDbSpline
 62
7
  6
CONTINUOUS
 70
0
 71
3
 72
71
 73
67
 74
0
 42
0.0000001
 43
0.0000001
 44
0.0000000001
 40
0.0
 40
0.0
 40
0.0
 40
0.0
 40
0.0106253634
 40
0.0212733702
 40
0.0319664263
 40
0.0427264699
 40
0.053574757
 40
0.0645316675
 40
0.0756165373
 40
0.0868475183
 40
0.0982414681
 40
0.1098138685
 40
0.1215787714
 40
0.1335487692
 40
0.1457349862
 40
0.1581470894
 40
0.1707933123
 40
0.1836804918
 40
0.1968141128
 40
0.2101983593
 40
0.2238361696
 40
0.2377292941
 40
0.2518783535
 40
0.2662828978
 40
0.280941464
 40
0.2958516326
 40
0.3110100823
 40
0.326412643
 40
0.3420543461
 40
0.3579294739
 40
0.3740316056
 40
0.3903536618
 40
0.4068879475
 40
0.4236261927
 40
0.4405595914
 40
0.4576788393
 40
0.4749741698
 40
0.4924353891
 40
0.5100519096
 40
0.5278127824
 40
0.5457067294
 40
0.5637221736
 40
0.5818472696
 40
0.600069933
 40
0.6183778687
 40
0.6367586002
 40
0.6551994969
 40
0.6736878018
 40
0.6922106592
 40
0.7107551415
 40
0.7293082763
 40
0.7478570734
 40
0.7663885515
 40
0.7848897652
 40
0.8033478317
 40
0.8217499584
 40
0.8400834697
 40
0.8583358346
 40
0.8764946948
 40
0.8945478927
 40
0.9124835
 40
0.9302898482
 40
0.9479555536
 40
0.9654695626
 40
0.9828211444
 40
1.0
 40
1.0
 40
1.0
 40
1.0
 10
14.6033442926
 20
11.9352619604
 30
0.0
 10
14.6022073415
 20
11.9315827876
 30
0.0
 10
14.6001384008
 20
11.9241506709
 30
0.0
 10
14.5976632699
 20
11.9128269712
 30
0.0
 10
14.5958173659
 20
11.9013341026
 30
0.0
 10
14.594602705
 20
11.8896847227
 30
0.0
 10
14.5940204239
 20
11.877891045
 30
0.0
 10
14.5940710156
 20
11.8659655638
 30
0.0
 10
14.5947542751
 20
11.8539208343
 30
0.0
 10
14.596069327
 20
11.8417695111
 30
0.0
 10
14.59801463
 20
11.8295243206
 30
0.0
 10
14.6005879881
 20
11.8171980541
 30
0.0
 10
14.603786559
 20
11.8048035567
 30
0.0
 10
14.6076068619
 20
11.7923537196
 30
0.0
 10
14.612044784
 20
11.7798614711
 30
0.0
 10
14.6170955866
 20
11.7673397684
 30
0.0
 10
14.6227539107
 20
11.754801589
 30
0.0
 10
14.6290137815
 20
11.7422599208
 30
0.0
 10
14.6358686141
 20
11.7297277521
 30
0.0
 10
14.6433112186
 20
11.7172180607
 30
0.0
 10
14.6513338058
 20
11.7047438025
 30
0.0
 10
14.6599279935
 20
11.6923178996
 30
0.0
 10
14.669084814
 20
11.6799532274
 30
0.0
 10
14.6787947209
 20
11.6676626025
 30
0.0
 10
14.6890475986
 20
11.6554587688
 30
0.0
 10
14.6998327709
 20
11.6433543851
 30
0.0
 10
14.7111390112
 20
11.6313620114
 30
0.0
 10
14.7229545532
 20
11.6194940958
 30
0.0
 10
14.7352671026
 20
11.6077629611
 30
0.0
 10
14.7480638489
 20
11.5961807918
 30
0.0
 10
14.7613314786
 20
11.584759621
 30
0.0
 10
14.7750561882
 20
11.5735113175
 30
0.0
 10
14.7892236987
 20
11.5624475734
 30
0.0
 10
14.8038192699
 20
11.5515798909
 30
0.0
 10
14.8188277157
 20
11.5409195709
 30
0.0
 10
14.8342334196
 20
11.5304777001
 30
0.0
 10
14.8500203513
 20
11.5202651401
 30
0.0
 10
14.8661720827
 20
11.5102925148
 30
0.0
 10
14.8826718055
 20
11.5005702002
 30
0.0
 10
14.8995023483
 20
11.4911083125
 30
0.0
 10
14.9166461948
 20
11.4819166979
 30
0.0
 10
14.9340855018
 20
11.473004922
 30
0.0
 10
14.9518021181
 20
11.4643822601
 30
0.0
 10
14.9697776029
 20
11.4560576866
 30
0.0
 10
14.9879932459
 20
11.4480398663
 30
0.0
 10
15.0064300858
 20
11.440337145
 30
0.0
 10
15.0250689311
 20
11.4329575409
 30
0.0
 10
15.0438903794
 20
11.4259087357
 30
0.0
 10
15.062874838
 20
11.4191980671
 30
0.0
 10
15.0820025444
 20
11.4128325208
 30
0.0
 10
15.1012535866
 20
11.4068187235
 30
0.0
 10
15.1206079245
 20
11.4011629353
 30
0.0
 10
15.1400454102
 20
11.395871044
 30
0.0
 10
15.1595458094
 20
11.3909485583
 30
0.0
 10
15.1790888228
 20
11.3864006025
 30
0.0
 10
15.1986541065
 20
11.3822319107
 30
0.0
 10
15.2182212941
 20
11.3784468225
 30
0.0
 10
15.2377700178
 20
11.3750492779
 30
0.0
 10
15.2572799291
 20
11.3720428135
 30
0.0
 10
15.2767307211
 20
11.3694305591
 30
0.0
 10
15.2961021485
 20
11.3672152338
 30
0.0
 10
15.3153740515
 20
11.3653991444
 30
0.0
 10
15.3345263666
 20
11.3639841809
 30
0.0
 10
15.3535391897
 20
11.3629718191
 30
0.0
 10
15.3723926233
 20
11.3623631117
 30
0.0
 10
15.3849075312
 20
11.3622261235
 30
0.0
 10
15.3911334856
 20
11.3622261235
 30
0.0
  0
SPLINE
  5
2DA
100
AcDbEntity
  8
02___PRT_ALL_AXES
100
AcDbSpline
 62
7
  6
CONTINUOUS
 70
0
 71
3
 72
39
 73
35
 74
0
 42
0.0000001
 43
0.0000001
 44
0.0000000001
 40
0.0
 40
0.0
 40
0.0
 40
0.0
 40
0.0248034971
 40
0.049664333
 40
0.0746391942
 40
0.0997834849
 40
0.125150743
 40
0.1507921173
 40
0.1767559197
 40
0.2030872596
 40
0.2298277622
 40
0.2570153685
 40
0.2846842112
 40
0.3128645577
 40
0.3415828103
 40
0.3708615541
 40
0.4007196424
 40
0.4311723101
 40
0.4622313082
 40
0.4939050521
 40
0.5261987782
 40
0.5591147042
 40
0.5926521905
 40
0.6268078997
 40
0.6615759521
 40
0.6969480774
 40
0.7329137595
 40
0.7694603768
 40
0.8065733348
 40
0.8442361973
 40
0.8824307936
 40
0.9211373856
 40
0.9603346296
 40
1.0
 40
1.0
 40
1.0
 40
1.0
 10
15.7976203452
 20
11.5662027469
 30
0.0
 10
15.7964360385
 20
11.5623703317
 30
0.0
 10
15.7938384794
 20
11.5547644619
 30
0.0
 10
15.7892720193
 20
11.5435838172
 30
0.0
 10
15.7840386683
 20
11.5326378695
 30
0.0
 10
15.7781447095
 20
11.5219397
 30
0.0
 10
15.7715969958
 20
11.511501395
 30
0.0
 10
15.7644031874
 20
11.5013348718
 30
0.0
 10
15.7565716594
 20
11.4914516395
 30
0.0
 10
15.7481114992
 20
11.4818628521
 30
0.0
 10
15.7390324825
 20
11.4725792867
 30
0.0
 10
15.7293450569
 20
11.4636113443
 30
0.0
 10
15.7190603267
 20
11.4549690465
 30
0.0
 10
15.7081900396
 20
11.4466620324
 30
0.0
 10
15.6967465742
 20
11.4386995553
 30
0.0
 10
15.6847429293
 20
11.4310904784
 30
0.0
 10
15.6721927117
 20
11.4238432693
 30
0.0
 10
15.6591101251
 20
11.4169659942
 30
0.0
 10
15.6455099575
 20
11.4104663103
 30
0.0
 10
15.6314075682
 20
11.4043514593
 30
0.0
 10
15.6168188735
 20
11.3986282587
 30
0.0
 10
15.6017603316
 20
11.3933030948
 30
0.0
 10
15.5862489261
 20
11.3883819147
 30
0.0
 10
15.5703021491
 20
11.3838702185
 30
0.0
 10
15.5539379827
 20
11.3797730527
 30
0.0
 10
15.5371748799
 20
11.3760950037
 30
0.0
 10
15.5200317446
 20
11.3728401913
 30
0.0
 10
15.5025279106
 20
11.3700122634
 30
0.0
 10
15.4846831213
 20
11.3676143909
 30
0.0
 10
15.4665175051
 20
11.3656492642
 30
0.0
 10
15.4480515614
 20
11.3641190862
 30
0.0
 10
15.4293061013
 20
11.3630255774
 30
0.0
 10
15.4103023934
 20
11.3623699584
 30
0.0
 10
15.3975481872
 20
11.3622261235
 30
0.0
 10
15.3911334856
 20
11.3622261235
 30
0.0
  0
SPLINE
  5
2DB
100
AcDbEntity
  8
LAYER_CHAMFER_FEAT
100
AcDbSpline
 62
7
  6
CONTINUOUS
 70
0
 71
3
 72
15
 73
11
 74
0
 42
0.0000001
 43
0.0000001
 44
0.0000000001
 40
0.0
 40
0.0
 40
0.0
 40
0.0
 40
0.1317638601
 40
0.2617725488
 40
0.3899186996
 40
0.5161210406
 40
0.6402989362
 40
0.7623789528
 40
0.8822975205
 40
1.0
 40
1.0
 40
1.0
 40
1.0
 10
15.1127827822
 20
11.9294452195
 30
0.0
 10
15.1094632751
 20
11.9294452195
 30
0.0
 10
15.1028681428
 20
11.9293615353
 30
0.0
 10
15.0930513037
 20
11.9289795923
 30
0.0
 10
15.0833880101
 20
11.9283424963
 30
0.0
 10
15.0738923299
 20
11.9274511919
 30
0.0
 10
15.064577692
 20
11.9263069549
 30
0.0
 10
15.055457401
 20
11.9249113878
 30
0.0
 10
15.0465446335
 20
11.9232664836
 30
0.0
 10
15.0406940008
 20
11.9219931288
 30
0.0
 10
15.037807491
 20
11.9213142815
 30
0.0
  0
SPLINE
  5
2DC
100
AcDbEntity
  8
LAYER_CHAMFER_FEAT
100
AcDbSpline
 62
7
  6
CONTINUOUS
 70
0
 71
3
 72
39
 73
35
 74
0
 42
0.0000001
 43
0.0000001
 44
0.0000000001
 40
0.0
 40
0.0
 40
0.0
 40
0.0
 40
0.0305398276
 40
0.0614592177
 40
0.09272646
 40
0.1243126296
 40
0.1561858779
 40
0.1883135656
 40
0.220662363
 40
0.2531980732
 40
0.2858858946
 40
0.318690537
 40
0.351576321
 40
0.3845072986
 40
0.4174473805
 40
0.4503604477
 40
0.4832104638
 40
0.5159616034
 40
0.5485783636
 40
0.5810256747
 40
0.6132690389
 40
0.6452746463
 40
0.6770094844
 40
0.7084414828
 40
0.7395396546
 40
0.7702742047
 40
0.8006166747
 40
0.8305401226
 40
0.8600192444
 40
0.8890305203
 40
0.9175524224
 40
0.9455655835
 40
0.9730529495
 40
1.0
 40
1.0
 40
1.0
 40
1.0
 10
15.1127827822
 20
11.9294452195
 30
0.0
 10
15.116371613
 20
11.9294452195
 30
0.0
 10
15.1235942328
 20
11.9293461459
 30
0.0
 10
15.1344831588
 20
11.9289074279
 30
0.0
 10
15.1454797741
 20
11.9281782731
 30
0.0
 10
15.1565658957
 20
11.9271599325
 30
0.0
 10
15.1677236178
 20
11.925854036
 30
0.0
 10
15.1789347183
 20
11.9242627262
 30
0.0
 10
15.1901809291
 20
11.9223885968
 30
0.0
 10
15.2014439271
 20
11.9202346857
 30
0.0
 10
15.2127053575
 20
11.9178045209
 30
0.0
 10
15.2239468679
 20
11.9151020638
 30
0.0
 10
15.2351501333
 20
11.9121317026
 30
0.0
 10
15.2462968962
 20
11.9088982874
 30
0.0
 10
15.2573689916
 20
11.9054070969
 30
0.0
 10
15.2683483707
 20
11.9016638109
 30
0.0
 10
15.2792171364
 20
11.8976745246
 30
0.0
 10
15.2899575801
 20
11.8934457547
 30
0.0
 10
15.3005521969
 20
11.8889843908
 30
0.0
 10
15.3109837138
 20
11.8842976888
 30
0.0
 10
15.3212351368
 20
11.8793932987
 30
0.0
 10
15.3312897636
 20
11.874279217
 30
0.0
 10
15.3411312041
 20
11.8689637637
 30
0.0
 10
15.3507434228
 20
11.8634555983
 30
0.0
 10
15.3601107672
 20
11.8577637046
 30
0.0
 10
15.3692179745
 20
11.8518973474
 30
0.0
 10
15.3780502011
 20
11.845866066
 30
0.0
 10
15.3865930718
 20
11.839679692
 30
0.0
 10
15.3948326752
 20
11.833348295
 30
0.0
 10
15.4027555841
 20
11.8268821581
 30
0.0
 10
15.410348893
 20
11.8202918107
 30
0.0
 10
15.4176002759
 20
11.8135879393
 30
0.0
 10
15.4244978106
 20
11.806781549
 30
0.0
 10
15.4288973338
 20
11.8021358959
 30
0.0
 10
15.4310334618
 20
11.7997982652
 30
0.0
  0
SPLINE
  5
2DD
100
AcDbEntity
  8
LAYER_FEATURE
100
AcDbSpline
 62
7
  6
CONTINUOUS
 70
0
 71
3
 72
47
 73
43
 74
0
 42
0.0000001
 43
0.0000001
 44
0.0000000001
 40
0.0
 40
0.0
 40
0.0
 40
0.0
 40
0.0396643969
 40
0.0788611884
 40
0.1175668757
 40
0.1557607819
 40
0.1934228993
 40
0.2305351391
 40
0.2670810446
 40
0.3030460247
 40
0.3384174606
 40
0.3731848366
 40
0.4073398826
 40
0.4408767177
 40
0.4737920025
 40
0.5060850986
 40
0.5377582254
 40
0.56881662
 40
0.599268697
 40
0.6291262059
 40
0.6584043795
 40
0.6728328097
 40
0.6871237917
 40
0.7153035886
 40
0.742971893
 40
0.7701589713
 40
0.7968989545
 40
0.8232297817
 40
0.8362557822
 40
0.8491954055
 40
0.8620543963
 40
0.874838697
 40
0.8875544482
 40
0.9002079575
 40
0.9128057072
 40
0.9253543221
 40
0.9378605641
 40
0.9503313127
 40
0.9627735433
 40
0.975194316
 40
0.987600748
 40
1.0
 40
1.0
 40
1.0
 40
1.0
 10
15.0517562821
 20
12.916789952
 30
0.0
 10
15.0412464884
 20
12.916789952
 30
0.0
 10
15.0203499685
 20
12.9165542834
 30
0.0
 10
14.9892143042
 20
12.9154801356
 30
0.0
 10
14.9585016876
 20
12.9136885094
 30
0.0
 10
14.9282471139
 20
12.9111814799
 30
0.0
 10
14.8984845568
 20
12.9079618132
 30
0.0
 10
14.8692476559
 20
12.904033143
 30
0.0
 10
14.8405693744
 20
12.8993998638
 30
0.0
 10
14.8124820631
 20
12.8940671764
 30
0.0
 10
14.7850173968
 20
12.8880410595
 30
0.0
 10
14.7582063465
 20
12.8813282636
 30
0.0
 10
14.7320791458
 20
12.8739363025
 30
0.0
 10
14.706665258
 20
12.865873443
 30
0.0
 10
14.6819933435
 20
12.8571486928
 30
0.0
 10
14.6580912288
 20
12.8477717993
 30
0.0
 10
14.634985872
 20
12.8377532244
 30
0.0
 10
14.612703368
 20
12.8271041512
 30
0.0
 10
14.5912688138
 20
12.8158363984
 30
0.0
 10
14.5707066863
 20
12.8039626739
 30
0.0
 10
14.5542382365
 20
12.7935233542
 30
0.0
 10
14.5415308892
 20
12.7848794744
 30
0.0
 10
14.5292528146
 20
12.7761285146
 30
0.0
 10
14.5144808451
 20
12.7648398658
 30
0.0
 10
14.4976304837
 20
12.7506804351
 30
0.0
 10
14.4817585272
 20
12.7359872796
 30
0.0
 10
14.4668836279
 20
12.7207772972
 30
0.0
 10
14.4552909902
 20
12.7076380606
 30
0.0
 10
14.4465429059
 20
12.6968899371
 30
0.0
 10
14.4402641952
 20
12.6887393171
 30
0.0
 10
14.434246623
 20
12.6804731781
 30
0.0
 10
14.4284918718
 20
12.6720937757
 30
0.0
 10
14.4230015498
 20
12.6636035286
 30
0.0
 10
14.4177772707
 20
12.655004799
 30
0.0
 10
14.4128204778
 20
12.646300053
 30
0.0
 10
14.40813261
 20
12.6374917394
 30
0.0
 10
14.4037150056
 20
12.6285823563
 30
0.0
 10
14.3995688932
 20
12.6195744421
 30
0.0
 10
14.3956955091
 20
12.6104705364
 30
0.0
 10
14.3920958879
 20
12.6012732208
 30
0.0
 10
14.3887711393
 20
12.5919851917
 30
0.0
 10
14.3867382231
 20
12.5857335945
 30
0.0
 10
14.3857682135
 20
12.5825946515
 30
0.0
  0
SPLINE
  5
2DE
100
AcDbEntity
  8
LAYER_FEATURE
100
AcDbSpline
 62
7
  6
CONTINUOUS
 70
0
 71
3
 72
47
 73
43
 74
0
 42
0.0000001
 43
0.0000001
 44
0.0000000001
 40
0.0
 40
0.0
 40
0.0
 40
0.0
 40
0.0396643969
 40
0.0788611884
 40
0.1175668757
 40
0.1557607819
 40
0.1934228993
 40
0.2305351391
 40
0.2670810446
 40
0.3030460247
 40
0.3384174606
 40
0.3731848366
 40
0.4073398826
 40
0.4408767177
 40
0.4737920025
 40
0.5060850986
 40
0.5377582254
 40
0.56881662
 40
0.599268697
 40
0.6291262059
 40
0.6584043795
 40
0.6728328097
 40
0.6871237917
 40
0.7153035886
 40
0.742971893
 40
0.7701589713
 40
0.7968989545
 40
0.8232297817
 40
0.8362557822
 40
0.8491954055
 40
0.8620543963
 40
0.874838697
 40
0.8875544482
 40
0.9002079575
 40
0.9128057072
 40
0.9253543221
 40
0.9378605641
 40
0.9503313127
 40
0.9627735433
 40
0.975194316
 40
0.987600748
 40
1.0
 40
1.0
 40
1.0
 40
1.0
 10
15.2812351567
 20
13.6593838624
 30
0.0
 10
15.270725363
 20
13.6593838624
 30
0.0
 10
15.2498288431
 20
13.6591481937
 30
0.0
 10
15.2186931788
 20
13.658074046
 30
0.0
 10
15.1879805622
 20
13.6562824197
 30
0.0
 10
15.1577259885
 20
13.6537753903
 30
0.0
 10
15.1279634314
 20
13.6505557235
 30
0.0
 10
15.0987265305
 20
13.6466270533
 30
0.0
 10
15.070048249
 20
13.6419937741
 30
0.0
 10
15.0419609377
 20
13.6366610867
 30
0.0
 10
15.0144962713
 20
13.6306349698
 30
0.0
 10
14.9876852211
 20
13.6239221739
 30
0.0
 10
14.9615580204
 20
13.6165302128
 30
0.0
 10
14.9361441326
 20
13.6084673533
 30
0.0
 10
14.9114722181
 20
13.5997426031
 30
0.0
 10
14.8875701034
 20
13.5903657097
 30
0.0
 10
14.8644647466
 20
13.5803471348
 30
0.0
 10
14.8421822425
 20
13.5696980616
 30
0.0
 10
14.8207476884
 20
13.5584303087
 30
0.0
 10
14.8001855609
 20
13.5465565842
 30
0.0
 10
14.783717111
 20
13.5361172645
 30
0.0
 10
14.7710097638
 20
13.5274733847
 30
0.0
 10
14.7587316892
 20
13.5187224249
 30
0.0
 10
14.7439597197
 20
13.5074337762
 30
0.0
 10
14.7271093583
 20
13.4932743454
 30
0.0
 10
14.7112374018
 20
13.47858119
 30
0.0
 10
14.6963625025
 20
13.4633712076
 30
0.0
 10
14.6847698648
 20
13.4502319709
 30
0.0
 10
14.6760217805
 20
13.4394838474
 30
0.0
 10
14.6697430698
 20
13.4313332275
 30
0.0
 10
14.6637254976
 20
13.4230670884
 30
0.0
 10
14.6579707464
 20
13.4146876861
 30
0.0
 10
14.6524804243
 20
13.4061974389
 30
0.0
 10
14.6472561453
 20
13.3975987093
 30
0.0
 10
14.6422993524
 20
13.3888939634
 30
0.0
 10
14.6376114846
 20
13.3800856497
 30
0.0
 10
14.6331938802
 20
13.3711762667
 30
0.0
 10
14.6290477677
 20
13.3621683524
 30
0.0
 10
14.6251743837
 20
13.3530644467
 30
0.0
 10
14.6215747625
 20
13.3438671311
 30
0.0
 10
14.6182500139
 20
13.334579102
 30
0.0
 10
14.6162170977
 20
13.3283275048
 30
0.0
 10
14.6152470881
 20
13.3251885619
 30
0.0
  0
SPLINE
  5
2DF
100
AcDbEntity
  8
LAYER_FEATURE
100
AcDbSpline
 62
7
  6
CONTINUOUS
 70
0
 71
3
 72
80
 73
76
 74
0
 42
0.0000001
 43
0.0000001
 44
0.0000000001
 40
0.0
 40
0.0
 40
0.0
 40
0.0
 40
0.0171786082
 40
0.034530198
 40
0.0520439838
 40
0.0697095606
 40
0.0875157518
 40
0.105451206
 40
0.1235042506
 40
0.1416629551
 40
0.1599151638
 40
0.1782485183
 40
0.196650488
 40
0.215108397
 40
0.2336094524
 40
0.252140772
 40
0.2706894107
 40
0.289242387
 40
0.3077867108
 40
0.3263094098
 40
0.3447975567
 40
0.363238296
 40
0.3816188704
 40
0.3999266494
 40
0.4181491568
 40
0.4362740982
 40
0.4542893888
 40
0.4721831827
 40
0.4899439032
 40
0.5075602729
 40
0.5250213434
 40
0.5423165268
 40
0.5594356282
 40
0.5763688815
 40
0.5931069834
 40
0.6096411284
 40
0.625963046
 40
0.6420650398
 40
0.6579400312
 40
0.6735816004
 40
0.68898403
 40
0.7041423511
 40
0.719052392
 40
0.733710832
 40
0.7481152528
 40
0.7622641919
 40
0.7761571985
 40
0.789794892
 40
0.8031790231
 40
0.8163125314
 40
0.8291996013
 40
0.8418457169
 40
0.8542577138
 40
0.8603787795
 40
0.8664445246
 40
0.8784144197
 40
0.8901792225
 40
0.8959889946
 40
0.9017523407
 40
0.913146193
 40
0.9243770775
 40
0.929937084
 40
0.9354627808
 40
0.9409564793
 40
0.9464205594
 40
0.9518574751
 40
0.9572697446
 40
0.962659945
 40
0.9680307113
 40
0.9733847243
 40
0.97872471
 40
0.9840534296
 40
0.9893736732
 40
0.9946882543
 40
1.0
 40
1.0
 40
1.0
 40
1.0
 10
15.0517562821
 20
12.916789952
 30
0.0
 10
15.061956826
 20
12.916789952
 30
0.0
 10
15.0824612839
 20
12.9165655002
 30
0.0
 10
15.1133507396
 20
12.9155682123
 30
0.0
 10
15.1445014103
 20
12.9139095383
 30
0.0
 10
15.1758805309
 20
12.9115912767
 30
0.0
 10
15.2074556272
 20
12.908615794
 30
0.0
 10
15.2391937714
 20
12.9049862038
 30
0.0
 10
15.271061949
 20
12.9007062838
 30
0.0
 10
15.3030269879
 20
12.8957804924
 30
0.0
 10
15.3350556165
 20
12.890213958
 30
0.0
 10
15.3671144972
 20
12.8840124722
 30
0.0
 10
15.3991702577
 20
12.8771824856
 30
0.0
 10
15.4311895302
 20
12.8697311122
 30
0.0
 10
15.4631389843
 20
12.8616661115
 30
0.0
 10
15.4949853612
 20
12.852995879
 30
0.0
 10
15.5266955091
 20
12.8437294382
 30
0.0
 10
15.5582364161
 20
12.8338764306
 30
0.0
 10
15.5895752492
 20
12.8234471171
 30
0.0
 10
15.6206793859
 20
12.8124523573
 30
0.0
 10
15.6515164475
 20
12.8009035967
 30
0.0
 10
15.6820543327
 20
12.7888128557
 30
0.0
 10
15.7122612504
 20
12.7761927154
 30
0.0
 10
15.7421057582
 20
12.7630563161
 30
0.0
 10
15.7715567921
 20
12.7494173345
 30
0.0
 10
15.8005836972
 20
12.7352899668
 30
0.0
 10
15.8291562593
 20
12.7206889158
 30
0.0
 10
15.8572447364
 20
12.7056293729
 30
0.0
 10
15.8848198957
 20
12.6901270138
 30
0.0
 10
15.911853041
 20
12.6741979732
 30
0.0
 10
15.9383160393
 20
12.6578588257
 30
0.0
 10
15.9641813503
 20
12.6411265698
 30
0.0
 10
15.9894220547
 20
12.6240186077
 30
0.0
 10
16.01401189
 20
12.6065527374
 30
0.0
 10
16.0379252733
 20
12.5887471262
 30
0.0
 10
16.0611373245
 20
12.5706202892
 30
0.0
 10
16.0836238915
 20
12.5521910712
 30
0.0
 10
16.105361575
 20
12.533478624
 30
0.0
 10
16.1263277614
 20
12.5145023959
 30
0.0
 10
16.1465006415
 20
12.4952821045
 30
0.0
 10
16.1658592276
 20
12.4758377126
 30
0.0
 10
16.1843833749
 20
12.4561894096
 30
0.0
 10
16.2020538
 20
12.4363575866
 30
0.0
 10
16.2188521113
 20
12.4163628238
 30
0.0
 10
16.2347608215
 20
12.3962258635
 30
0.0
 10
16.2497633581
 20
12.3759675856
 30
0.0
 10
16.2638440791
 20
12.3556089877
 30
0.0
 10
16.2769882842
 20
12.3351711634
 30
0.0
 10
16.2891822443
 20
12.3146752804
 30
0.0
 10
16.300413196
 20
12.2941425868
 30
0.0
 10
16.3106693865
 20
12.2735942754
 30
0.0
 10
16.3199399306
 20
12.2530518787
 30
0.0
 10
16.3268677586
 20
12.235876711
 30
0.0
 10
16.3319001956
 20
12.2221633537
 30
0.0
 10
16.3365526616
 20
12.2085937281
 30
0.0
 10
16.3417454841
 20
12.1916711241
 30
0.0
 10
16.3461307879
 20
12.1746779011
 30
0.0
 10
16.3491194504
 20
12.1611449273
 30
0.0
 10
16.3517435337
 20
12.1477610001
 30
0.0
 10
16.354389422
 20
12.1311061122
 30
0.0
 10
16.3561908643
 20
12.114459748
 30
0.0
 10
16.3571089204
 20
12.1012389007
 30
0.0
 10
16.3575364898
 20
12.0914022932
 30
0.0
 10
16.3577052502
 20
12.0816148482
 30
0.0
 10
16.3576151093
 20
12.0718790499
 30
0.0
 10
16.3572661084
 20
12.0621974615
 30
0.0
 10
16.3566583397
 20
12.0525726065
 30
0.0
 10
16.3557919148
 20
12.0430070056
 30
0.0
 10
16.3546671122
 20
12.0335031548
 30
0.0
 10
16.353284167
 20
12.0240635458
 30
0.0
 10
16.351643466
 20
12.0146906436
 30
0.0
 10
16.3497454419
 20
12.0053869054
 30
0.0
 10
16.347590542
 20
11.9961547496
 30
0.0
 10
16.3451794129
 20
11.986996674
 30
0.0
 10
16.3434013297
 20
11.98094151
 30
0.0
 10
16.3424700935
 20
11.9779280375
 30
0.0
  0
SPLINE
  5
2E0
100
AcDbEntity
  8
LAYER_FEATURE
100
AcDbSpline
 62
7
  6
CONTINUOUS
 70
0
 71
3
 72
21
 73
17
 74
0
 42
0.0000001
 43
0.0000001
 44
0.0000000001
 40
0.0
 40
0.0
 40
0.0
 40
0.0
 40
0.0594538305
 40
0.1190697881
 40
0.1789084163
 40
0.2390286147
 40
0.2994870974
 40
0.3603381854
 40
0.421633277
 40
0.4834207247
 40
0.5457453467
 40
0.6086485822
 40
0.6721682116
 40
0.7363375155
 40
0.866715377
 40
1.0
 40
1.0
 40
1.0
 40
1.0
 10
14.9440684779
 20
12.2921710237
 30
0.0
 10
14.9435696211
 20
12.2934163796
 30
0.0
 10
14.9426289615
 20
12.2959343412
 30
0.0
 10
14.9413939736
 20
12.2997792636
 30
0.0
 10
14.9403347415
 20
12.3036919269
 30
0.0
 10
14.939452595
 20
12.3076677091
 30
0.0
 10
14.9387484552
 20
12.3117020209
 30
0.0
 10
14.9382231937
 20
12.3157901981
 30
0.0
 10
14.9378773358
 20
12.3199275083
 30
0.0
 10
14.9377113142
 20
12.3241091719
 30
0.0
 10
14.9377252606
 20
12.3283303634
 30
0.0
 10
14.9379191593
 20
12.3325862018
 30
0.0
 10
14.9382927804
 20
12.336871837
 30
0.0
 10
14.9390337532
 20
12.3426490697
 30
0.0
 10
14.9404143368
 20
12.3499245553
 30
0.0
 10
14.9419668548
 20
12.355674363
 30
0.0
 10
14.9428548174
 20
12.3585478112
 30
0.0
  0
SPLINE
  5
2E1
100
AcDbEntity
  8
02___PRT_ALL_AXES
100
AcDbSpline
 62
7
  6
CONTINUOUS
 70
0
 71
3
 72
46
 73
42
 74
0
 42
0.0000001
 43
0.0000001
 44
0.0000000001
 40
0.0
 40
0.0
 40
0.0
 40
0.0
 40
0.0111278256
 40
0.0223230839
 40
0.0336094725
 40
0.0450095812
 40
0.0565447922
 40
0.0682348894
 40
0.0800981082
 40
0.092150745
 40
0.1044073127
 40
0.1168802714
 40
0.1295801376
 40
0.1425154234
 40
0.1556926207
 40
0.1691163903
 40
0.1967086644
 40
0.2252978547
 40
0.2548599064
 40
0.2853493665
 40
0.3167034763
 40
0.3488462526
 40
0.3816924321
 40
0.4151510527
 40
0.4491285436
 40
0.4835313044
 40
0.5182676447
 40
0.5532493211
 40
0.5883925889
 40
0.6236188505
 40
0.6588550649
 40
0.6940340328
 40
0.7290944758
 40
0.7639811929
 40
0.7986451034
 40
0.8330433869
 40
0.8671395741
 40
0.9009036199
 40
0.934312107
 40
0.9673476511
 40
1.0
 40
1.0
 40
1.0
 40
1.0
 10
14.9412170786
 20
12.2974327659
 30
0.0
 10
14.9406998231
 20
12.2984868155
 30
0.0
 10
14.9397183666
 20
12.3006293963
 30
0.0
 10
14.9384129337
 20
12.3039282599
 30
0.0
 10
14.9372716397
 20
12.3073178396
 30
0.0
 10
14.9362953019
 20
12.3107957549
 30
0.0
 10
14.9354846169
 20
12.3143596212
 30
0.0
 10
14.9348400571
 20
12.3180068139
 30
0.0
 10
14.9343620545
 20
12.321734535
 30
0.0
 10
14.9340507902
 20
12.3255397726
 30
0.0
 10
14.9339063825
 20
12.3294193026
 30
0.0
 10
14.9339287271
 20
12.3333696803
 30
0.0
 10
14.9341175916
 20
12.3373872368
 30
0.0
 10
14.9344725722
 20
12.3414680532
 30
0.0
 10
14.9349930692
 20
12.3456080521
 30
0.0
 10
14.9359151758
 20
12.3512523806
 30
0.0
 10
14.9374877807
 20
12.3584327622
 30
0.0
 10
14.9400019784
 20
12.3671295224
 30
0.0
 10
14.9431475183
 20
12.3759433143
 30
0.0
 10
14.9469088545
 20
12.384829518
 30
0.0
 10
14.9512681275
 20
12.3937419518
 30
0.0
 10
14.9562053108
 20
12.4026329218
 30
0.0
 10
14.9616985581
 20
12.4114539865
 30
0.0
 10
14.9677245138
 20
12.4201564613
 30
0.0
 10
14.9742586062
 20
12.4286918911
 30
0.0
 10
14.9812752669
 20
12.4370124016
 30
0.0
 10
14.9887480718
 20
12.445070962
 30
0.0
 10
14.9966497815
 20
12.4528215668
 30
0.0
 10
15.0049522902
 20
12.4602193665
 30
0.0
 10
15.0136264825
 20
12.4672207728
 30
0.0
 10
15.0226420227
 20
12.473783578
 30
0.0
 10
15.031967097
 20
12.4798671117
 30
0.0
 10
15.0415681419
 20
12.4854324675
 30
0.0
 10
15.0514095773
 20
12.4904428034
 30
0.0
 10
15.0614535953
 20
12.494863731
 30
0.0
 10
15.0716600082
 20
12.498663784
 30
0.0
 10
15.0819862329
 20
12.5018149418
 30
0.0
 10
15.0923873016
 20
12.5042932109
 30
0.0
 10
15.1028163459
 20
12.5060791292
 30
0.0
 10
15.1132239278
 20
12.5071583738
 30
0.0
 10
15.1201570872
 20
12.5074022313
 30
0.0
 10
15.1236023243
 20
12.5074022313
 30
0.0
  0
SPLINE
  5
2E2
100
AcDbEntity
  8
LAYER_FEATURE
100
AcDbSpline
 62
7
  6
CONTINUOUS
 70
0
 71
3
 72
61
 73
57
 74
0
 42
0.0000001
 43
0.0000001
 44
0.0000000001
 40
0.0
 40
0.0
 40
0.0
 40
0.0
 40
0.0146671111
 40
0.0291012389
 40
0.0433100378
 40
0.0573065294
 40
0.0711051526
 40
0.0847231408
 40
0.09818027
 40
0.1114985295
 40
0.1247019914
 40
0.1378164768
 40
0.1508691909
 40
0.163888326
 40
0.1769026187
 40
0.189940884
 40
0.2030315497
 40
0.2162021998
 40
0.2294791585
 40
0.2428871198
 40
0.25644882
 40
0.2701847689
 40
0.2841130695
 40
0.2982492819
 40
0.3126063205
 40
0.3271944341
 40
0.3420212334
 40
0.3570917247
 40
0.3879621865
 40
0.4037689431
 40
0.4198151488
 40
0.4360942666
 40
0.452597853
 40
0.4693156868
 40
0.4862358929
 40
0.5206221113
 40
0.5380640113
 40
0.5556472786
 40
0.5911594342
 40
0.6270122704
 40
0.6630446682
 40
0.6990910305
 40
0.734985417
 40
0.7705656706
 40
0.7881924004
 40
0.8056836828
 40
0.8401851457
 40
0.8571703372
 40
0.8739574804
 40
0.8905341924
 40
0.9068896726
 40
0.9388944946
 40
0.9545395735
 40
0.9699387316
 40
0.9850922314
 40
1.0
 40
1.0
 40
1.0
 40
1.0
 10
14.9630602448
 20
12.3789366181
 30
0.0
 10
14.9625448578
 20
12.377268825
 30
0.0
 10
14.9616085438
 20
12.3739322692
 30
0.0
 10
14.960487258
 20
12.368898575
 30
0.0
 10
14.959663335
 20
12.3638883405
 30
0.0
 10
14.9591388521
 20
12.3589139302
 30
0.0
 10
14.9589151893
 20
12.3539871991
 30
0.0
 10
14.958992976
 20
12.3491200886
 30
0.0
 10
14.9593721182
 20
12.3443243751
 30
0.0
 10
14.9600518248
 20
12.3396116936
 30
0.0
 10
14.9610305134
 20
12.3349935019
 30
0.0
 10
14.9623058692
 20
12.3304810445
 30
0.0
 10
14.9638748593
 20
12.3260853315
 30
0.0
 10
14.9657337028
 20
12.3218170986
 30
0.0
 10
14.9678778581
 20
12.3176867555
 30
0.0
 10
14.9703020896
 20
12.3137043736
 30
0.0
 10
14.9730004786
 20
12.3098796617
 30
0.0
 10
14.9759663936
 20
12.3062219014
 30
0.0
 10
14.9791925528
 20
12.3027399401
 30
0.0
 10
14.9826710649
 20
12.2994421874
 30
0.0
 10
14.9863934343
 20
12.2963365846
 30
0.0
 10
14.9903505652
 20
12.2934305574
 30
0.0
 10
14.9945328312
 20
12.2907310472
 30
0.0
 10
14.9989300886
 20
12.2882445051
 30
0.0
 10
15.0035316929
 20
12.2859768325
 30
0.0
 10
15.0083264655
 20
12.2839334091
 30
0.0
 10
15.0133030216
 20
12.2821190398
 30
0.0
 10
15.0202188004
 20
12.279994387
 30
0.0
 10
15.0273996977
 20
12.2783684424
 30
0.0
 10
15.0347792586
 20
12.2772301359
 30
0.0
 10
15.0404766203
 20
12.2766143827
 30
0.0
 10
15.0462780498
 20
12.2762450287
 30
0.0
 10
15.0521698503
 20
12.2761228709
 30
0.0
 10
15.0581379323
 20
12.276248219
 30
0.0
 10
15.0662201727
 20
12.2767474967
 30
0.0
 10
15.0743516807
 20
12.2777413225
 30
0.0
 10
15.0824827646
 20
12.2792090269
 30
0.0
 10
15.0906842272
 20
12.2810096094
 30
0.0
 10
15.1008919062
 20
12.2838535415
 30
0.0
 10
15.1129356852
 20
12.2881659799
 30
0.0
 10
15.1247011316
 20
12.2933485475
 30
0.0
 10
15.1360754501
 20
12.2993515844
 30
0.0
 10
15.1469496149
 20
12.3061175285
 30
0.0
 10
15.1555359658
 20
12.3123580745
 30
0.0
 10
15.1620596709
 20
12.3176749463
 30
0.0
 10
15.1682837217
 20
12.3231466563
 30
0.0
 10
15.1741396349
 20
12.3289141639
 30
0.0
 10
15.1795808453
 20
12.3349512853
 30
0.0
 10
15.1834108423
 20
12.3395620818
 30
0.0
 10
15.1870014756
 20
12.3442678879
 30
0.0
 10
15.1914255285
 20
12.3506068719
 30
0.0
 10
15.1953768712
 20
12.3571339861
 30
0.0
 10
15.1988056338
 20
12.3638110933
 30
0.0
 10
15.2010816776
 20
12.3688186449
 30
0.0
 10
15.2030754788
 20
12.3738506469
 30
0.0
 10
15.2042228061
 20
12.3772414599
 30
0.0
 10
15.2047466496
 20
12.3789366181
 30
0.0
  0
SPLINE
  5
2E3
100
AcDbEntity
  8
LAYER_FEATURE
100
AcDbSpline
 62
7
  6
CONTINUOUS
 70
0
 71
3
 72
33
 73
29
 74
0
 42
0.0000001
 43
0.0000001
 44
0.0000000001
 40
0.0
 40
0.0
 40
0.0
 40
0.0
 40
0.0272330945
 40
0.0549144123
 40
0.0830449785
 40
0.1116247105
 40
0.1700895964
 40
0.1999670283
 40
0.2302485789
 40
0.2609145439
 40
0.2919423063
 40
0.3233065963
 40
0.3549797598
 40
0.3869320163
 40
0.4191317063
 40
0.484128049
 40
0.5168649386
 40
0.5497087126
 40
0.6155565237
 40
0.6484950376
 40
0.6813891775
 40
0.746883466
 40
0.7794204582
 40
0.8117662307
 40
0.8757372741
 40
0.9073100918
 40
0.9385640918
 40
1.0
 40
1.0
 40
1.0
 40
1.0
 10
14.9428548174
 20
12.3585478112
 30
0.0
 10
14.9435096285
 20
12.3606667807
 30
0.0
 10
14.9449437754
 20
12.3649052921
 30
0.0
 10
14.9474360407
 20
12.3711952889
 30
0.0
 10
14.9502810875
 20
12.3774547095
 30
0.0
 10
14.9545670371
 20
12.3858011049
 30
0.0
 10
14.959506217
 20
12.3939600033
 30
0.0
 10
14.9650362883
 20
12.4018837147
 30
0.0
 10
14.9695245913
 20
12.4077659994
 30
0.0
 10
14.9743120039
 20
12.413529417
 30
0.0
 10
14.9793871773
 20
12.4191603947
 30
0.0
 10
14.9847378537
 20
12.4246453529
 30
0.0
 10
14.990351132
 20
12.4299711154
 30
0.0
 10
14.9962136409
 20
12.4351249959
 30
0.0
 10
15.0043680206
 20
12.4417708689
 30
0.0
 10
15.0129367153
 20
12.4479985877
 30
0.0
 10
15.0218642528
 20
12.4537796457
 30
0.0
 10
15.0310521638
 20
12.4592737711
 30
0.0
 10
15.0405420801
 20
12.4642822635
 30
0.0
 10
15.0502799484
 20
12.4687784763
 30
0.0
 10
15.0601444912
 20
12.4729155607
 30
0.0
 10
15.0701930404
 20
12.4765135594
 30
0.0
 10
15.0803705854
 20
12.4795461279
 30
0.0
 10
15.0905318014
 20
12.4821742017
 30
0.0
 10
15.1007551465
 20
12.4842240185
 30
0.0
 10
15.1109820872
 20
12.4856692776
 30
0.0
 10
15.1210516119
 20
12.4866945414
 30
0.0
 10
15.128604412
 20
12.4870134244
 30
0.0
 10
15.1336076975
 20
12.4870134244
 30
0.0
  0
SPLINE
  5
2E4
100
AcDbEntity
  8
LAYER_FEATURE
100
AcDbSpline
 62
7
  6
CONTINUOUS
 70
0
 71
3
 72
24
 73
20
 74
0
 42
0.0000001
 43
0.0000001
 44
0.0000000001
 40
0.0
 40
0.0
 40
0.0
 40
0.0
 40
0.1406694977
 40
0.2092639715
 40
0.276634523
 40
0.3427620206
 40
0.4076439546
 40
0.4712944696
 40
0.5337454933
 40
0.5950472194
 40
0.6552684373
 40
0.7144964503
 40
0.7728365521
 40
0.8304109727
 40
0.8873572439
 40
0.9156468716
 40
0.9438368753
 40
0.9719476385
 40
1.0
 40
1.0
 40
1.0
 40
1.0
 10
15.1336076975
 20
12.4870134244
 30
0.0
 10
15.1393250398
 20
12.4870134244
 30
0.0
 10
15.1478398175
 20
12.4866027317
 30
0.0
 10
15.1589961716
 20
12.4851748902
 30
0.0
 10
15.167079438
 20
12.4836914571
 30
0.0
 10
15.1749197598
 20
12.4817914567
 30
0.0
 10
15.1824915141
 20
12.4794810205
 30
0.0
 10
15.1897693982
 20
12.4767676394
 30
0.0
 10
15.1967291876
 20
12.4736601279
 30
0.0
 10
15.2033476279
 20
12.4701686016
 30
0.0
 10
15.2096025568
 20
12.4663044519
 30
0.0
 10
15.2154729399
 20
12.4620803523
 30
0.0
 10
15.2209390195
 20
12.4575101307
 30
0.0
 10
15.2259821147
 20
12.4526091333
 30
0.0
 10
15.2298270309
 20
12.4482524303
 30
0.0
 10
15.2326700949
 20
12.4446221917
 30
0.0
 10
15.2346824571
 20
12.4418334204
 30
0.0
 10
15.2365775013
 20
12.438975319
 30
0.0
 10
15.2377626466
 20
12.4370235648
 30
0.0
 10
15.2383348453
 20
12.43603739
 30
0.0
  0
SPLINE
  5
2E5
100
AcDbEntity
  8
LAYER_FEATURE
100
AcDbSpline
 62
7
  6
CONTINUOUS
 70
0
 71
3
 72
61
 73
57
 74
0
 42
0.0000001
 43
0.0000001
 44
0.0000000001
 40
0.0
 40
0.0
 40
0.0
 40
0.0
 40
0.0149077686
 40
0.0300612684
 40
0.0454604265
 40
0.0611055054
 40
0.0931103274
 40
0.1094658076
 40
0.1260425196
 40
0.1428296628
 40
0.1598148543
 40
0.1943163172
 40
0.2118075996
 40
0.2294343294
 40
0.265014583
 40
0.3009089695
 40
0.3369553318
 40
0.3729877296
 40
0.4088405658
 40
0.4443527214
 40
0.4619359887
 40
0.4793778887
 40
0.5137641071
 40
0.5306843132
 40
0.547402147
 40
0.5639057334
 40
0.5801848512
 40
0.5962310569
 40
0.6120378135
 40
0.6429082753
 40
0.6579787666
 40
0.6728055659
 40
0.6873936795
 40
0.7017507181
 40
0.7158869305
 40
0.7298152311
 40
0.74355118
 40
0.7571128802
 40
0.7705208415
 40
0.7837978002
 40
0.7969684503
 40
0.810059116
 40
0.8230973813
 40
0.836111674
 40
0.8491308091
 40
0.8621835232
 40
0.8752980086
 40
0.8885014705
 40
0.90181973
 40
0.9152768592
 40
0.9288948474
 40
0.9426934706
 40
0.9566899622
 40
0.9708987611
 40
0.9853328889
 40
1.0
 40
1.0
 40
1.0
 40
1.0
 10
14.9630602448
 20
12.3789366181
 30
0.0
 10
14.9635840883
 20
12.3806317763
 30
0.0
 10
14.9647314156
 20
12.3840225893
 30
0.0
 10
14.9667252168
 20
12.3890545913
 30
0.0
 10
14.9690012606
 20
12.394062143
 30
0.0
 10
14.9724300233
 20
12.4007392502
 30
0.0
 10
14.9763813659
 20
12.4072663644
 30
0.0
 10
14.9808054189
 20
12.4136053483
 30
0.0
 10
14.9843960521
 20
12.4183111544
 30
0.0
 10
14.9882260491
 20
12.422921951
 30
0.0
 10
14.9936672595
 20
12.4289590724
 30
0.0
 10
14.9995231728
 20
12.43472658
 30
0.0
 10
15.0057472235
 20
12.44019829
 30
0.0
 10
15.0122709286
 20
12.4455151618
 30
0.0
 10
15.0208572796
 20
12.4517557078
 30
0.0
 10
15.0317314444
 20
12.4585216518
 30
0.0
 10
15.0431057629
 20
12.4645246888
 30
0.0
 10
15.0548712092
 20
12.4697072564
 30
0.0
 10
15.0669149882
 20
12.4740196948
 30
0.0
 10
15.0771226673
 20
12.4768636269
 30
0.0
 10
15.0853241298
 20
12.4786642094
 30
0.0
 10
15.0934552138
 20
12.4801319138
 30
0.0
 10
15.1015867218
 20
12.4811257396
 30
0.0
 10
15.1096689621
 20
12.4816250172
 30
0.0
 10
15.1156370441
 20
12.4817503654
 30
0.0
 10
15.1215288447
 20
12.4816282076
 30
0.0
 10
15.1273302742
 20
12.4812588535
 30
0.0
 10
15.1330276359
 20
12.4806431003
 30
0.0
 10
15.1404071968
 20
12.4795047939
 30
0.0
 10
15.147588094
 20
12.4778788492
 30
0.0
 10
15.1545038729
 20
12.4757541965
 30
0.0
 10
15.1594804289
 20
12.4739398271
 30
0.0
 10
15.1642752016
 20
12.4718964038
 30
0.0
 10
15.1688768058
 20
12.4696287312
 30
0.0
 10
15.1732740632
 20
12.4671421891
 30
0.0
 10
15.1774563293
 20
12.4644426788
 30
0.0
 10
15.1814134602
 20
12.4615366517
 30
0.0
 10
15.1851358295
 20
12.4584310489
 30
0.0
 10
15.1886143416
 20
12.4551332962
 30
0.0
 10
15.1918405008
 20
12.4516513348
 30
0.0
 10
15.1948064159
 20
12.4479935746
 30
0.0
 10
15.1975048048
 20
12.4441688627
 30
0.0
 10
15.1999290363
 20
12.4401864808
 30
0.0
 10
15.2020731917
 20
12.4360561377
 30
0.0
 10
15.2039320351
 20
12.4317879047
 30
0.0
 10
15.2055010252
 20
12.4273921918
 30
0.0
 10
15.206776381
 20
12.4228797343
 30
0.0
 10
15.2077550696
 20
12.4182615427
 30
0.0
 10
15.2084347763
 20
12.4135488611
 30
0.0
 10
15.2088139185
 20
12.4087531477
 30
0.0
 10
15.2088917052
 20
12.4038860371
 30
0.0
 10
15.2086680424
 20
12.3989593061
 30
0.0
 10
15.2081435595
 20
12.3939848958
 30
0.0
 10
15.2073196365
 20
12.3889746613
 30
0.0
 10
15.2061983506
 20
12.3839409671
 30
0.0
 10
15.2052620367
 20
12.3806044112
 30
0.0
 10
15.2047466496
 20
12.3789366181
 30
0.0
  0
SPLINE
  5
2E6
100
AcDbEntity
  8
LAYER_FEATURE
100
AcDbSpline
 62
7
  6
CONTINUOUS
 70
0
 71
3
 72
22
 73
18
 74
0
 42
0.0000001
 43
0.0000001
 44
0.0000000001
 40
0.0
 40
0.0
 40
0.0
 40
0.0
 40
0.1381198151
 40
0.2053664481
 40
0.2714548915
 40
0.3364371429
 40
0.4003725815
 40
0.4633278457
 40
0.525376406
 40
0.5865986112
 40
0.6470813144
 40
0.7069174435
 40
0.7662054991
 40
0.8250488584
 40
0.8835549618
 40
0.9418344166
 40
1.0
 40
1.0
 40
1.0
 40
1.0
 10
16.0072206342
 20
12.2630281525
 30
0.0
 10
16.0115692461
 20
12.2541666131
 30
0.0
 10
16.0175612891
 20
12.2407475613
 30
0.0
 10
16.0243954054
 20
12.2225868982
 30
0.0
 10
16.0288392748
 20
12.2091237673
 30
0.0
 10
16.0326418463
 20
12.1957115791
 30
0.0
 10
16.0357995241
 20
12.1823627693
 30
0.0
 10
16.0383091038
 20
12.1690902066
 30
0.0
 10
16.0401680238
 20
12.1559065693
 30
0.0
 10
16.041374369
 20
12.1428245269
 30
0.0
 10
16.0419268344
 20
12.1298566648
 30
0.0
 10
16.0418247222
 20
12.1170154976
 30
0.0
 10
16.0410680059
 20
12.1043134398
 30
0.0
 10
16.0396573261
 20
12.0917628407
 30
0.0
 10
16.0375939056
 20
12.0793757733
 30
0.0
 10
16.0348798029
 20
12.0671647569
 30
0.0
 10
16.0326372897
 20
12.0591456213
 30
0.0
 10
16.0314099636
 20
12.0551740046
 30
0.0
  0
SPLINE
  5
2E7
100
AcDbEntity
  8
LAYER_FEATURE
100
AcDbSpline
 62
7
  6
CONTINUOUS
 70
0
 71
3
 72
80
 73
76
 74
0
 42
0.0000001
 43
0.0000001
 44
0.0000000001
 40
0.0
 40
0.0
 40
0.0
 40
0.0
 40
0.0171786082
 40
0.034530198
 40
0.0520439838
 40
0.0697095606
 40
0.0875157518
 40
0.105451206
 40
0.1235042506
 40
0.1416629551
 40
0.1599151638
 40
0.1782485183
 40
0.196650488
 40
0.215108397
 40
0.2336094524
 40
0.252140772
 40
0.2706894107
 40
0.289242387
 40
0.3077867108
 40
0.3263094098
 40
0.3447975567
 40
0.363238296
 40
0.3816188704
 40
0.3999266494
 40
0.4181491568
 40
0.4362740982
 40
0.4542893888
 40
0.4721831827
 40
0.4899439032
 40
0.5075602729
 40
0.5250213434
 40
0.5423165268
 40
0.5594356282
 40
0.5763688815
 40
0.5931069834
 40
0.6096411284
 40
0.625963046
 40
0.6420650398
 40
0.6579400312
 40
0.6735816004
 40
0.68898403
 40
0.7041423511
 40
0.719052392
 40
0.733710832
 40
0.7481152528
 40
0.7622641919
 40
0.7761571985
 40
0.789794892
 40
0.8031790231
 40
0.8163125314
 40
0.8291996013
 40
0.8418457169
 40
0.8542577138
 40
0.8603787795
 40
0.8664445246
 40
0.8784144197
 40
0.8901792225
 40
0.8959889946
 40
0.9017523407
 40
0.913146193
 40
0.9243770775
 40
0.929937084
 40
0.9354627808
 40
0.9409564793
 40
0.9464205594
 40
0.9518574751
 40
0.9572697446
 40
0.962659945
 40
0.9680307113
 40
0.9733847243
 40
0.97872471
 40
0.9840534296
 40
0.9893736732
 40
0.9946882543
 40
1.0
 40
1.0
 40
1.0
 40
1.0
 10
15.265742912
 20
13.6092509401
 30
0.0
 10
15.2759434559
 20
13.6092509401
 30
0.0
 10
15.2964479138
 20
13.6090264883
 30
0.0
 10
15.3273373695
 20
13.6080292005
 30
0.0
 10
15.3584880402
 20
13.6063705264
 30
0.0
 10
15.3898671608
 20
13.6040522648
 30
0.0
 10
15.4214422571
 20
13.6010767821
 30
0.0
 10
15.4531804013
 20
13.5974471919
 30
0.0
 10
15.4850485789
 20
13.5931672719
 30
0.0
 10
15.5170136178
 20
13.5882414805
 30
0.0
 10
15.5490422464
 20
13.5826749461
 30
0.0
 10
15.5811011271
 20
13.5764734603
 30
0.0
 10
15.6131568876
 20
13.5696434737
 30
0.0
 10
15.6451761601
 20
13.5621921003
 30
0.0
 10
15.6771256141
 20
13.5541270996
 30
0.0
 10
15.7089719911
 20
13.5454568671
 30
0.0
 10
15.740682139
 20
13.5361904264
 30
0.0
 10
15.772223046
 20
13.5263374187
 30
0.0
 10
15.8035618791
 20
13.5159081052
 30
0.0
 10
15.8346660158
 20
13.5049133454
 30
0.0
 10
15.8655030774
 20
13.4933645848
 30
0.0
 10
15.8960409626
 20
13.4812738438
 30
0.0
 10
15.9262478803
 20
13.4686537035
 30
0.0
 10
15.9560923881
 20
13.4555173042
 30
0.0
 10
15.985543422
 20
13.4418783226
 30
0.0
 10
16.0145703271
 20
13.4277509549
 30
0.0
 10
16.0431428892
 20
13.4131499039
 30
0.0
 10
16.0712313663
 20
13.398090361
 30
0.0
 10
16.0988065256
 20
13.3825880019
 30
0.0
 10
16.1258396709
 20
13.3666589613
 30
0.0
 10
16.1523026692
 20
13.3503198138
 30
0.0
 10
16.1781679802
 20
13.3335875579
 30
0.0
 10
16.2034086846
 20
13.3164795958
 30
0.0
 10
16.2279985199
 20
13.2990137255
 30
0.0
 10
16.2519119032
 20
13.2812081143
 30
0.0
 10
16.2751239544
 20
13.2630812773
 30
0.0
 10
16.2976105214
 20
13.2446520593
 30
0.0
 10
16.3193482049
 20
13.2259396121
 30
0.0
 10
16.3403143913
 20
13.206963384
 30
0.0
 10
16.3604872714
 20
13.1877430926
 30
0.0
 10
16.3798458575
 20
13.1682987008
 30
0.0
 10
16.3983700048
 20
13.1486503978
 30
0.0
 10
16.4160404299
 20
13.1288185747
 30
0.0
 10
16.4328387412
 20
13.1088238119
 30
0.0
 10
16.4487474514
 20
13.0886868516
 30
0.0
 10
16.463749988
 20
13.0684285737
 30
0.0
 10
16.477830709
 20
13.0480699758
 30
0.0
 10
16.4909749141
 20
13.0276321515
 30
0.0
 10
16.5031688742
 20
13.0071362685
 30
0.0
 10
16.5143998259
 20
12.9866035749
 30
0.0
 10
16.5246560164
 20
12.9660552635
 30
0.0
 10
16.5339265605
 20
12.9455128668
 30
0.0
 10
16.5408543884
 20
12.9283376991
 30
0.0
 10
16.5458868255
 20
12.9146243418
 30
0.0
 10
16.5505392915
 20
12.9010547162
 30
0.0
 10
16.555732114
 20
12.8841321122
 30
0.0
 10
16.5601174178
 20
12.8671388893
 30
0.0
 10
16.5631060803
 20
12.8536059155
 30
0.0
 10
16.5657301636
 20
12.8402219883
 30
0.0
 10
16.5683760519
 20
12.8235671003
 30
0.0
 10
16.5701774942
 20
12.8069207361
 30
0.0
 10
16.5710955503
 20
12.7936998889
 30
0.0
 10
16.5715231197
 20
12.7838632813
 30
0.0
 10
16.57169188
 20
12.7740758363
 30
0.0
 10
16.5716017392
 20
12.764340038
 30
0.0
 10
16.5712527383
 20
12.7546584496
 30
0.0
 10
16.5706449696
 20
12.7450335947
 30
0.0
 10
16.5697785447
 20
12.7354679937
 30
0.0
 10
16.568653742
 20
12.7259641429
 30
0.0
 10
16.5672707969
 20
12.7165245339
 30
0.0
 10
16.5656300959
 20
12.7071516317
 30
0.0
 10
16.5637320718
 20
12.6978478935
 30
0.0
 10
16.5615771719
 20
12.6886157377
 30
0.0
 10
16.5591660428
 20
12.6794576621
 30
0.0
 10
16.5573879596
 20
12.6734024981
 30
0.0
 10
16.5564567234
 20
12.6703890256
 30
0.0
  0
SPLINE
  5
2E8
100
AcDbEntity
  8
LAYER_FEATURE
100
AcDbSpline
 62
7
  6
CONTINUOUS
 70
0
 71
3
 72
63
 73
59
 74
0
 42
0.0000001
 43
0.0000001
 44
0.0000000001
 40
0.0
 40
0.0
 40
0.0
 40
0.0
 40
0.0414597938
 40
0.0822279854
 40
0.1222610292
 40
0.1615189596
 40
0.1808468887
 40
0.1999682247
 40
0.2188793467
 40
0.2375769696
 40
0.2560581583
 40
0.2743203636
 40
0.2923614079
 40
0.3101795416
 40
0.3277734204
 40
0.3451421575
 40
0.3622853219
 40
0.3792029604
 40
0.3958956318
 40
0.4123643961
 40
0.4446344264
 40
0.4604433987
 40
0.4760383322
 40
0.5065992249
 40
0.5215782783
 40
0.5363629306
 40
0.5509597155
 40
0.5653758499
 40
0.579619217
 40
0.5936983704
 40
0.607622535
 40
0.621401576
 40
0.6350460065
 40
0.6485669361
 40
0.6619760619
 40
0.6752856158
 40
0.6885083238
 40
0.7016573574
 40
0.7147462658
 40
0.727788922
 40
0.7407994434
 40
0.7537921241
 40
0.7667813553
 40
0.7797815467
 40
0.7928070479
 40
0.8058720721
 40
0.8189906155
 40
0.832176394
 40
0.8454427647
 40
0.858802675
 40
0.8722686007
 40
0.8858524962
 40
0.8995657626
 40
0.9134191947
 40
0.9274229777
 40
0.9415866393
 40
0.9704245206
 40
1.0
 40
1.0
 40
1.0
 40
1.0
 10
15.2781492245
 20
13.5303520723
 30
0.0
 10
15.2646842658
 20
13.5303520723
 30
0.0
 10
15.2379768807
 20
13.5299362427
 30
0.0
 10
15.1983087475
 20
13.528031588
 30
0.0
 10
15.1594390765
 20
13.5248551627
 30
0.0
 10
15.1276198007
 20
13.5211348591
 30
0.0
 10
15.102641855
 20
13.517519196
 30
0.0
 10
15.0842565449
 20
13.5145087246
 30
0.0
 10
15.0661329623
 20
13.5111872504
 30
0.0
 10
15.0482808408
 20
13.5075565455
 30
0.0
 10
15.0307098547
 20
13.503618554
 30
0.0
 10
15.0134294952
 20
13.4993754321
 30
0.0
 10
14.9964491165
 20
13.4948294205
 30
0.0
 10
14.9797778906
 20
13.4899830168
 30
0.0
 10
14.9634248401
 20
13.4848387898
 30
0.0
 10
14.9473988065
 20
13.4793995375
 30
0.0
 10
14.9317084411
 20
13.4736681753
 30
0.0
 10
14.916362293
 20
13.4676477978
 30
0.0
 10
14.9013684382
 20
13.4613415836
 30
0.0
 10
14.8819902413
 20
13.4526165462
 30
0.0
 10
14.8632070262
 20
13.443281983
 30
0.0
 10
14.8450775813
 20
13.4333291808
 30
0.0
 10
14.8277110721
 20
13.4231569262
 30
0.0
 10
14.8110098524
 20
13.4123946159
 30
0.0
 10
14.7950393345
 20
13.4010423929
 30
0.0
 10
14.7835586574
 20
13.3923344729
 30
0.0
 10
14.7725025328
 20
13.3833813182
 30
0.0
 10
14.7618767926
 20
13.3741876655
 30
0.0
 10
14.7516872699
 20
13.3647584791
 30
0.0
 10
14.7419395171
 20
13.3550988185
 30
0.0
 10
14.7326388293
 20
13.3452139184
 30
0.0
 10
14.7237903294
 20
13.3351090698
 30
0.0
 10
14.7153988119
 20
13.3247897732
 30
0.0
 10
14.7074689199
 20
13.3142615684
 30
0.0
 10
14.7000049719
 20
13.3035301826
 30
0.0
 10
14.6930110815
 20
13.2926014224
 30
0.0
 10
14.6864911053
 20
13.2814812165
 30
0.0
 10
14.6804485978
 20
13.2701756302
 30
0.0
 10
14.6748869378
 20
13.2586907914
 30
0.0
 10
14.6698091258
 20
13.2470329918
 30
0.0
 10
14.6652180132
 20
13.2352085676
 30
0.0
 10
14.6611160781
 20
13.2232239971
 30
0.0
 10
14.6575055889
 20
13.211085823
 30
0.0
 10
14.6543885258
 20
13.1988006829
 30
0.0
 10
14.651766549
 20
13.1863753033
 30
0.0
 10
14.6496411318
 20
13.1738164686
 30
0.0
 10
14.6480133454
 20
13.1611310548
 30
0.0
 10
14.6468841137
 20
13.1483259838
 30
0.0
 10
14.6462539686
 20
13.1354082503
 30
0.0
 10
14.6461232392
 20
13.1223848968
 30
0.0
 10
14.6464919576
 20
13.1092630189
 30
0.0
 10
14.6473598459
 20
13.0960497566
 30
0.0
 10
14.6487264404
 20
13.0827522881
 30
0.0
 10
14.650590877
 20
13.0693778605
 30
0.0
 10
14.6529521963
 20
13.0559336034
 30
0.0
 10
14.6567838768
 20
13.0378175213
 30
0.0
 10
14.6628346316
 20
13.0150176974
 30
0.0
 10
14.6688741349
 20
12.9970188343
 30
0.0
 10
14.6722026322
 20
12.9880087087
 30
0.0
  0
SPLINE
  5
2E9
100
AcDbEntity
  8
LAYER_FEATURE
100
AcDbSpline
 62
7
  6
CONTINUOUS
 70
0
 71
3
 72
86
 73
82
 74
0
 42
0.0000001
 43
0.0000001
 44
0.0000000001
 40
0.0
 40
0.0
 40
0.0
 40
0.0
 40
0.0180496266
 40
0.0363143234
 40
0.0547782048
 40
0.0734248767
 40
0.0922372456
 40
0.1111977253
 40
0.1302882447
 40
0.1494903321
 40
0.1687851704
 40
0.1881536605
 40
0.2075764806
 40
0.2270341458
 40
0.2465070674
 40
0.265975611
 40
0.2854201553
 40
0.3048211505
 40
0.3241591773
 40
0.3434150057
 40
0.3625696549
 40
0.3816044538
 40
0.4005011026
 40
0.4192417355
 40
0.437808985
 40
0.4561860478
 40
0.4743567528
 40
0.4923056315
 40
0.5100179911
 40
0.5274799906
 40
0.5446787202
 40
0.5616022852
 40
0.5782398933
 40
0.5945819473
 40
0.6106201423
 40
0.6263475685
 40
0.6417588195
 40
0.656850106
 40
0.6716193747
 40
0.6860664312
 40
0.7001930671
 40
0.7140031871
 40
0.7275029355
 40
0.7407008168
 40
0.7536078052
 40
0.7662374369
 40
0.7786058767
 40
0.7846985398
 40
0.7907331891
 40
0.7967125923
 40
0.8026396749
 40
0.8085175246
 40
0.8143493769
 40
0.8201386196
 40
0.8258887749
 40
0.831603502
 40
0.8372865768
 40
0.8429418915
 40
0.8485734334
 40
0.8541852798
 40
0.859781578
 40
0.8653665355
 40
0.8709444011
 40
0.8765194511
 40
0.8820959724
 40
0.8876782462
 40
0.893270532
 40
0.8988770515
 40
0.9045019727
 40
0.9101493965
 40
0.9158233397
 40
0.921527726
 40
0.9272663681
 40
0.9330429643
 40
0.9388610788
 40
0.9447241448
 40
0.9506354437
 40
0.9626138399
 40
0.9748207959
 40
0.987276879
 40
1.0
 40
1.0
 40
1.0
 40
1.0
 10
15.2781492245
 20
13.5303520723
 30
0.0
 10
15.2895179041
 20
13.5303520723
 30
0.0
 10
15.3123917642
 20
13.5300513151
 30
0.0
 10
15.3468718892
 20
13.5287183507
 30
0.0
 10
15.3816835174
 20
13.526502746
 30
0.0
 10
15.4167741496
 20
13.5234078465
 30
0.0
 10
15.4520913277
 20
13.519438278
 30
0.0
 10
15.4875820976
 20
13.5145999999
 30
0.0
 10
15.5231932896
 20
13.5089002593
 30
0.0
 10
15.5588715352
 20
13.5023476006
 30
0.0
 10
15.5945633673
 20
13.4949518434
 30
0.0
 10
15.6302152947
 20
13.4867240721
 30
0.0
 10
15.6657738847
 20
13.4776766177
 30
0.0
 10
15.7011858433
 20
13.4678230403
 30
0.0
 10
15.7363980954
 20
13.4571781082
 30
0.0
 10
15.7713578648
 20
13.4457577761
 30
0.0
 10
15.8060127541
 20
13.4335791605
 30
0.0
 10
15.840310823
 20
13.4206605148
 30
0.0
 10
15.8742006673
 20
13.4070212006
 30
0.0
 10
15.9076314955
 20
13.3926816595
 30
0.0
 10
15.9405532061
 20
13.3776633812
 30
0.0
 10
15.9729164625
 20
13.3619888714
 30
0.0
 10
16.0046727672
 20
13.3456816173
 30
0.0
 10
16.0357745354
 20
13.3287660523
 30
0.0
 10
16.066175166
 20
13.3112675181
 30
0.0
 10
16.0958291117
 20
13.2932122261
 30
0.0
 10
16.1246919472
 20
13.2746272174
 30
0.0
 10
16.1527204363
 20
13.2555403209
 30
0.0
 10
16.1798725958
 20
13.2359801107
 30
0.0
 10
16.2061077585
 20
13.2159758618
 30
0.0
 10
16.2313866335
 20
13.1955575049
 30
0.0
 10
16.2556713642
 20
13.1747555796
 30
0.0
 10
16.2789255837
 20
13.1536011872
 30
0.0
 10
16.3011144677
 20
13.1321259421
 30
0.0
 10
16.3222047843
 20
13.1103619226
 30
0.0
 10
16.3421649406
 20
13.0883416207
 30
0.0
 10
16.3609650267
 20
13.066097892
 30
0.0
 10
16.3785768552
 20
13.0436639053
 30
0.0
 10
16.3949739977
 20
13.0210730921
 30
0.0
 10
16.4101318175
 20
12.9983590975
 30
0.0
 10
16.4240274982
 20
12.9755557305
 30
0.0
 10
16.4366400684
 20
12.9526969226
 30
0.0
 10
16.4479504266
 20
12.9298166661
 30
0.0
 10
16.4579413481
 20
12.9069490401
 30
0.0
 10
16.4665975491
 20
12.8841279353
 30
0.0
 10
16.4739055358
 20
12.8613878848
 30
0.0
 10
16.478887453
 20
12.8424382506
 30
0.0
 10
16.4821765496
 20
12.8273623098
 30
0.0
 10
16.4842881831
 20
12.8161531913
 30
0.0
 10
16.4860559848
 20
12.8049903453
 30
0.0
 10
16.4874792616
 20
12.7938778594
 30
0.0
 10
16.4885575002
 20
12.7828199413
 30
0.0
 10
16.4892902206
 20
12.7718207345
 30
0.0
 10
16.4896771929
 20
12.7608843838
 30
0.0
 10
16.4897181816
 20
12.7500150013
 30
0.0
 10
16.4894132297
 20
12.7392166827
 30
0.0
 10
16.4887623573
 20
12.7284934986
 30
0.0
 10
16.4877658728
 20
12.7178494894
 30
0.0
 10
16.4864240627
 20
12.7072886769
 30
0.0
 10
16.4847374927
 20
12.69681504
 30
0.0
 10
16.4827067251
 20
12.686432543
 30
0.0
 10
16.4803325757
 20
12.6761450976
 30
0.0
 10
16.4776158887
 20
12.6659566003
 30
0.0
 10
16.4745577244
 20
12.6558708914
 30
0.0
 10
16.4711592118
 20
12.6458917877
 30
0.0
 10
16.4674216509
 20
12.636023054
 30
0.0
 10
16.463346455
 20
12.6262684161
 30
0.0
 10
16.4589351608
 20
12.6166315594
 30
0.0
 10
16.454189461
 20
12.6071161083
 30
0.0
 10
16.449111128
 20
12.5977256644
 30
0.0
 10
16.4437021266
 20
12.5884637423
 30
0.0
 10
16.4379644639
 20
12.5793338545
 30
0.0
 10
16.4319003683
 20
12.5703394011
 30
0.0
 10
16.4255120779
 20
12.5614837945
 30
0.0
 10
16.4188020916
 20
12.5527703352
 30
0.0
 10
16.4117728107
 20
12.5442022604
 30
0.0
 10
16.4019359222
 20
12.5329275418
 30
0.0
 10
16.3888357759
 20
12.5192093051
 30
0.0
 10
16.3719542422
 20
12.5034548523
 30
0.0
 10
16.3538678502
 20
12.4883581039
 30
0.0
 10
16.3411638258
 20
12.47885072
 30
0.0
 10
16.3346291997
 20
12.4742118888
 30
0.0
  0
SPLINE
  5
2EA
100
AcDbEntity
  8
LAYER_FEATURE
100
AcDbSpline
 62
7
  6
CONTINUOUS
 70
0
 71
3
 72
14
 73
10
 74
0
 42
0.0000001
 43
0.0000001
 44
0.0000000001
 40
0.0
 40
0.0
 40
0.0
 40
0.0
 40
0.120752951
 40
0.2419325864
 40
0.363955143
 40
0.4872263885
 40
0.6121390338
 40
0.7390619968
 40
1.0
 40
1.0
 40
1.0
 40
1.0
 10
16.4034476733
 20
12.8484469705
 30
0.0
 10
16.4034945793
 20
12.8485987518
 30
0.0
 10
16.4035775086
 20
12.8489063914
 30
0.0
 10
16.4036683872
 20
12.8493769134
 30
0.0
 10
16.4037257214
 20
12.8498560463
 30
0.0
 10
16.4037493706
 20
12.8503429073
 30
0.0
 10
16.4037393403
 20
12.8508367041
 30
0.0
 10
16.4036805524
 20
12.8515091112
 30
0.0
 10
16.4035863493
 20
12.8520123973
 30
0.0
 10
16.4035035825
 20
12.8523455635
 30
0.0
  0
SPLINE
  5
2EB
100
AcDbEntity
  8
LAYER_FEATURE
100
AcDbSpline
 62
7
  6
CONTINUOUS
 70
0
 71
3
 72
14
 73
10
 74
0
 42
0.0000001
 43
0.0000001
 44
0.0000000001
 40
0.0
 40
0.0
 40
0.0
 40
0.0
 40
0.1388522446
 40
0.2734665085
 40
0.4039518056
 40
0.5304415518
 40
0.6530959181
 40
0.7721041105
 40
1.0
 40
1.0
 40
1.0
 40
1.0
 10
15.8470084568
 20
11.8418092993
 30
0.0
 10
15.8464648306
 20
11.84115801
 30
0.0
 10
15.8453708663
 20
11.8398945059
 30
0.0
 10
15.8436833151
 20
11.8380926725
 30
0.0
 10
15.8419761702
 20
11.8364153533
 30
0.0
 10
15.8402508601
 20
11.8348639962
 30
0.0
 10
15.8385085577
 20
11.8334397782
 30
0.0
 10
15.8361988261
 20
11.8317369727
 30
0.0
 10
15.8343944293
 20
11.8306138841
 30
0.0
 10
15.8331697036
 20
11.8299514626
 30
0.0
  0
SPLINE
  5
2EC
100
AcDbEntity
  8
LAYER_FEATURE
100
AcDbSpline
 62
7
  6
CONTINUOUS
 70
0
 71
3
 72
15
 73
11
 74
0
 42
0.0000001
 43
0.0000001
 44
0.0000000001
 40
0.0
 40
0.0
 40
0.0
 40
0.0
 40
0.1134694208
 40
0.2282078965
 40
0.3454154607
 40
0.4661677873
 40
0.5913728432
 40
0.7217498402
 40
0.8578560752
 40
1.0
 40
1.0
 40
1.0
 40
1.0
 10
16.3420233988
 20
12.9866361114
 30
0.0
 10
16.3421072611
 20
12.9869074979
 30
0.0
 10
16.3422404665
 20
12.9874649759
 30
0.0
 10
16.3423317668
 20
12.98832705
 30
0.0
 10
16.3423148415
 20
12.989212008
 30
0.0
 10
16.3421900457
 20
12.9901145112
 30
0.0
 10
16.3419584344
 20
12.9910295057
 30
0.0
 10
16.3416215837
 20
12.9919520252
 30
0.0
 10
16.3411816055
 20
12.9928769521
 30
0.0
 10
16.3408290185
 20
12.9934787329
 30
0.0
 10
16.3406374288
 20
12.9937785794
 30
0.0
  0
SPLINE
  5
2ED
100
AcDbEntity
  8
LAYER_FEATURE
100
AcDbSpline
 62
7
  6
CONTINUOUS
 70
0
 71
3
 72
17
 73
13
 74
0
 42
0.0000001
 43
0.0000001
 44
0.0000000001
 40
0.0
 40
0.0
 40
0.0
 40
0.0
 40
0.1287619287
 40
0.2580799015
 40
0.3871144638
 40
0.515031627
 40
0.641019118
 40
0.7643035292
 40
0.8247123872
 40
0.8841816532
 40
0.9426384203
 40
1.0
 40
1.0
 40
1.0
 40
1.0
 10
16.3167596262
 20
12.9048983655
 30
0.0
 10
16.3188084561
 20
12.9040468088
 30
0.0
 10
16.3229649629
 20
12.9024577301
 30
0.0
 10
16.3293230626
 20
12.9004291834
 30
0.0
 10
16.3357712048
 20
12.8987645462
 30
0.0
 10
16.3422472494
 20
12.897479905
 30
0.0
 10
16.3486889179
 20
12.8965875969
 30
0.0
 10
16.354012975
 20
12.8961752756
 30
0.0
 10
16.3582018207
 20
12.8960522962
 30
0.0
 10
16.3612753631
 20
12.8960627714
 30
0.0
 10
16.3642942781
 20
12.8961753124
 30
0.0
 10
16.3662852797
 20
12.8963195844
 30
0.0
 10
16.3672696316
 20
12.8964091814
 30
0.0
  0
SPLINE
  5
2EE
100
AcDbEntity
  8
LAYER_FEATURE
100
AcDbSpline
 62
7
  6
CONTINUOUS
 70
0
 71
3
 72
19
 73
15
 74
0
 42
0.0000001
 43
0.0000001
 44
0.0000000001
 40
0.0
 40
0.0
 40
0.0
 40
0.0
 40
0.0526798877
 40
0.105667155
 40
0.1592606306
 40
0.2137419322
 40
0.2693700058
 40
0.3263746279
 40
0.4451974028
 40
0.5073943619
 40
0.57156689
 40
0.7060363721
 40
0.8489007043
 40
1.0
 40
1.0
 40
1.0
 40
1.0
 10
16.2291487686
 20
13.1212325735
 30
0.0
 10
16.2292091297
 20
13.1214278957
 30
0.0
 10
16.2293118823
 20
13.1218256086
 30
0.0
 10
16.2294103041
 20
13.122436617
 30
0.0
 10
16.2294529044
 20
13.123061068
 30
0.0
 10
16.2294396623
 20
13.1236970153
 30
0.0
 10
16.2293705989
 20
13.1243426433
 30
0.0
 10
16.2292022943
 20
13.1252257713
 30
0.0
 10
16.2289224523
 20
13.1261102429
 30
0.0
 10
16.2285443358
 20
13.1269839034
 30
0.0
 10
16.2280826579
 20
13.127885482
 30
0.0
 10
16.2273703165
 20
13.1290068769
 30
0.0
 10
16.2263321485
 20
13.1303088776
 30
0.0
 10
16.2255379641
 20
13.1311303913
 30
0.0
 10
16.2251131538
 20
13.1315345847
 30
0.0
  0
SPLINE
  5
2EF
100
AcDbEntity
  8
02___PRT_ALL_AXES
100
AcDbSpline
 62
7
  6
CONTINUOUS
 70
0
 71
3
 72
39
 73
35
 74
0
 42
0.0000001
 43
0.0000001
 44
0.0000000001
 40
0.0
 40
0.0
 40
0.0
 40
0.0
 40
0.0396653704
 40
0.0788626144
 40
0.1175692064
 40
0.1557638027
 40
0.1934266652
 40
0.2305396232
 40
0.2670862405
 40
0.3030519226
 40
0.3384240479
 40
0.3731921003
 40
0.4073478095
 40
0.4408852958
 40
0.4738012218
 40
0.5060949479
 40
0.5377686918
 40
0.5688276899
 40
0.5992803576
 40
0.6291384459
 40
0.6584171897
 40
0.6871354423
 40
0.7153157888
 40
0.7429846315
 40
0.7701722378
 40
0.7969127404
 40
0.8232440803
 40
0.8492078827
 40
0.874849257
 40
0.9002165151
 40
0.9253608058
 40
0.950335667
 40
0.9751965029
 40
1.0
 40
1.0
 40
1.0
 40
1.0
 10
15.0098311523
 20
12.1392385838
 30
0.0
 10
15.0034164506
 20
12.1392385838
 30
0.0
 10
14.9906622444
 20
12.1390947488
 30
0.0
 10
14.9716585365
 20
12.1384391298
 30
0.0
 10
14.9529130764
 20
12.137345621
 30
0.0
 10
14.9344471327
 20
12.1358154431
 30
0.0
 10
14.9162815166
 20
12.1338503164
 30
0.0
 10
14.8984367272
 20
12.1314524438
 30
0.0
 10
14.8809328933
 20
12.128624516
 30
0.0
 10
14.8637897579
 20
12.1253697035
 30
0.0
 10
14.8470266551
 20
12.1216916545
 30
0.0
 10
14.8306624887
 20
12.1175944888
 30
0.0
 10
14.8147157118
 20
12.1130827925
 30
0.0
 10
14.7992043063
 20
12.1081616124
 30
0.0
 10
14.7841457643
 20
12.1028364485
 30
0.0
 10
14.7695570696
 20
12.097113248
 30
0.0
 10
14.7554546803
 20
12.0909983969
 30
0.0
 10
14.7418545127
 20
12.0844987131
 30
0.0
 10
14.7287719261
 20
12.0776214379
 30
0.0
 10
14.7162217085
 20
12.0703742289
 30
0.0
 10
14.7042180636
 20
12.0627651519
 30
0.0
 10
14.6927745982
 20
12.0548026748
 30
0.0
 10
14.6819043111
 20
12.0464956607
 30
0.0
 10
14.6716195809
 20
12.0378533629
 30
0.0
 10
14.6619321553
 20
12.0288854206
 30
0.0
 10
14.6528531386
 20
12.0196018551
 30
0.0
 10
14.6443929784
 20
12.0100130677
 30
0.0
 10
14.6365614504
 20
12.0001298354
 30
0.0
 10
14.629367642
 20
11.9899633123
 30
0.0
 10
14.6228199283
 20
11.9795250072
 30
0.0
 10
14.6169259695
 20
11.9688268377
 30
0.0
 10
14.6116926185
 20
11.9578808901
 30
0.0
 10
14.6071261584
 20
11.9467002453
 30
0.0
 10
14.6045285993
 20
11.9390943756
 30
0.0
 10
14.6033442926
 20
11.9352619604
 30
0.0
  0
SPLINE
  5
2F0
100
AcDbEntity
  8
LAYER_FEATURE
100
AcDbSpline
 62
7
  6
CONTINUOUS
 70
0
 71
3
 72
25
 73
21
 74
0
 42
0.0000001
 43
0.0000001
 44
0.0000000001
 40
0.0
 40
0.0
 40
0.0
 40
0.0
 40
0.0624353631
 40
0.1262933389
 40
0.1912897898
 40
0.257123007
 40
0.3234787709
 40
0.3900352111
 40
0.4564675498
 40
0.5224528034
 40
0.5876745125
 40
0.6518275682
 40
0.7146232111
 40
0.7757943377
 40
0.8351010518
 40
0.8923372658
 40
0.9201288879
 40
0.9473450417
 40
0.9739737735
 40
1.0
 40
1.0
 40
1.0
 40
1.0
 10
16.206842174
 20
13.0491223049
 30
0.0
 10
16.2083493035
 20
13.0481160113
 30
0.0
 10
16.211457113
 20
13.0461678842
 30
0.0
 10
16.2163160399
 20
13.0434762029
 30
0.0
 10
16.2213967793
 20
13.0409970048
 30
0.0
 10
16.2266624333
 20
13.0387483263
 30
0.0
 10
16.2320750073
 20
13.0367463783
 30
0.0
 10
16.2375953623
 20
13.0350056422
 30
0.0
 10
16.2431835946
 20
13.0335387003
 30
0.0
 10
16.2487993075
 20
13.0323561569
 30
0.0
 10
16.254401917
 20
13.0314665576
 30
0.0
 10
16.2599509586
 20
13.0308763324
 30
0.0
 10
16.2654063672
 20
13.0305897505
 30
0.0
 10
16.2707288605
 20
13.0306089115
 30
0.0
 10
16.27587993
 20
13.0309337082
 30
0.0
 10
16.2800391829
 20
13.0314623215
 30
0.0
 10
16.2832460182
 20
13.0320401506
 30
0.0
 10
16.2855620258
 20
13.0325434711
 30
0.0
 10
16.287807999
 20
13.0331200446
 30
0.0
 10
16.2892728583
 20
13.0335575731
 30
0.0
 10
16.289992056
 20
13.0337886766
 30
0.0
  0
SPLINE
  5
2F1
100
AcDbEntity
  8
LAYER_FEATURE
100
AcDbSpline
 62
7
  6
CONTINUOUS
 70
0
 71
3
 72
23
 73
19
 74
0
 42
0.0000001
 43
0.0000001
 44
0.0000000001
 40
0.0
 40
0.0
 40
0.0
 40
0.0
 40
0.0491262846
 40
0.0987390538
 40
0.1493013958
 40
0.201233081
 40
0.2548966506
 40
0.3105884005
 40
0.3685362275
 40
0.4289016577
 40
0.4917826172
 40
0.557219532
 40
0.6252019015
 40
0.695673508
 40
0.7685352016
 40
0.8436545636
 40
0.9208816879
 40
1.0
 40
1.0
 40
1.0
 40
1.0
 10
16.0725159809
 20
13.243063837
 30
0.0
 10
16.0725948243
 20
13.2433189771
 30
0.0
 10
16.0727219802
 20
13.2438420535
 30
0.0
 10
16.0728169793
 20
13.2446499187
 30
0.0
 10
16.0728164022
 20
13.2454786082
 30
0.0
 10
16.0727204478
 20
13.2463237098
 30
0.0
 10
16.0725298236
 20
13.2471810343
 30
0.0
 10
16.0722457162
 20
13.2480463865
 30
0.0
 10
16.0718697167
 20
13.2489156235
 30
0.0
 10
16.0714037659
 20
13.249784595
 30
0.0
 10
16.0708502372
 20
13.2506491821
 30
0.0
 10
16.0702118796
 20
13.2515052805
 30
0.0
 10
16.0694917976
 20
13.2523487947
 30
0.0
 10
16.0686935124
 20
13.2531756886
 30
0.0
 10
16.0678209227
 20
13.2539819953
 30
0.0
 10
16.0668781982
 20
13.2547638583
 30
0.0
 10
16.0658699914
 20
13.2555174127
 30
0.0
 10
16.0651653459
 20
13.2559932107
 30
0.0
 10
16.0648035462
 20
13.2562257351
 30
0.0
  0
SPLINE
  5
2F2
100
AcDbEntity
  8
LAYER_FEATURE
100
AcDbSpline
 62
7
  6
CONTINUOUS
 70
0
 71
3
 72
38
 73
34
 74
0
 42
0.0000001
 43
0.0000001
 44
0.0000000001
 40
0.0
 40
0.0
 40
0.0
 40
0.0
 40
0.0287703431
 40
0.058375024
 40
0.0887735747
 40
0.1199175052
 40
0.1517512499
 40
0.1842130229
 40
0.21723564
 40
0.2507473273
 40
0.284672441
 40
0.3189321458
 40
0.353445068
 40
0.3881279671
 40
0.4228963701
 40
0.4576651794
 40
0.492349284
 40
0.5268641946
 40
0.5611266675
 40
0.595055322
 40
0.6285712763
 40
0.6615988394
 40
0.6940662115
 40
0.7259061882
 40
0.7570569181
 40
0.7874627356
 40
0.817075086
 40
0.8458534609
 40
0.8737663773
 40
0.9007925619
 40
0.9269222794
 40
0.9521578359
 40
1.0
 40
1.0
 40
1.0
 40
1.0
 10
16.0549554559
 20
13.1862503203
 30
0.0
 10
16.0557280897
 20
13.1854230389
 30
0.0
 10
16.0573403183
 20
13.1837855985
 30
0.0
 10
16.0599107402
 20
13.1814188991
 30
0.0
 10
16.0626596553
 20
13.1791138764
 30
0.0
 10
16.0655770033
 20
13.1768789582
 30
0.0
 10
16.0686522256
 20
13.1747222125
 30
0.0
 10
16.0718741536
 20
13.1726514652
 30
0.0
 10
16.0752310857
 20
13.1706742208
 30
0.0
 10
16.078710828
 20
13.1687976565
 30
0.0
 10
16.0823007395
 20
13.1670285885
 30
0.0
 10
16.0859877774
 20
13.1653734505
 30
0.0
 10
16.0897585381
 20
13.1638382546
 30
0.0
 10
16.0935993126
 20
13.1624285782
 30
0.0
 10
16.0974961377
 20
13.161149546
 30
0.0
 10
16.1014348471
 20
13.160005812
 30
0.0
 10
16.105401121
 20
13.1590015382
 30
0.0
 10
16.1093805381
 20
13.1581403695
 30
0.0
 10
16.1133586325
 20
13.1574254352
 30
0.0
 10
16.1173209456
 20
13.1568593348
 30
0.0
 10
16.1212530791
 20
13.1564441329
 30
0.0
 10
16.1251407474
 20
13.156181338
 30
0.0
 10
16.1289698327
 20
13.1560719029
 30
0.0
 10
16.132726436
 20
13.1561162309
 30
0.0
 10
16.1363969275
 20
13.1563141746
 30
0.0
 10
16.1399679961
 20
13.1566650369
 30
0.0
 10
16.1434267056
 20
13.1571675637
 30
0.0
 10
16.1467605229
 20
13.1578199626
 30
0.0
 10
16.1499574185
 20
13.1586199396
 30
0.0
 10
16.1530057038
 20
13.1595646074
 30
0.0
 10
16.1558947757
 20
13.1606508938
 30
0.0
 10
16.159455447
 20
13.1622534371
 30
0.0
 10
16.1619580563
 20
13.1636960465
 30
0.0
 10
16.1635077577
 20
13.164764539
 30
0.0
  0
SPLINE
  5
2F3
100
AcDbEntity
  8
LAYER_FEATURE
100
AcDbSpline
 62
7
  6
CONTINUOUS
 70
0
 71
3
 72
27
 73
23
 74
0
 42
0.0000001
 43
0.0000001
 44
0.0000000001
 40
0.0
 40
0.0
 40
0.0
 40
0.0
 40
0.0231337581
 40
0.0463553809
 40
0.0697510474
 40
0.0934038155
 40
0.1173920468
 40
0.1417887866
 40
0.1920395871
 40
0.2180301418
 40
0.2446500425
 40
0.2998978577
 40
0.3580100887
 40
0.4190838293
 40
0.4831210084
 40
0.5500412333
 40
0.6196936524
 40
0.6918676464
 40
0.7663037058
 40
0.8426965605
 40
0.9207203876
 40
1.0
 40
1.0
 40
1.0
 40
1.0
 10
15.8827993245
 20
13.3438272955
 30
0.0
 10
15.8828479442
 20
13.3439846299
 30
0.0
 10
15.8829334972
 20
13.3443037048
 30
0.0
 10
15.8830258155
 20
13.3447920104
 30
0.0
 10
15.8830820384
 20
13.3452895146
 30
0.0
 10
15.8831020703
 20
13.3457952169
 30
0.0
 10
15.8830859107
 20
13.3463081941
 30
0.0
 10
15.8830154765
 20
13.3470072261
 30
0.0
 10
15.8828719139
 20
13.3477114513
 30
0.0
 10
15.8826612418
 20
13.3484130048
 30
0.0
 10
15.882397925
 20
13.3491346472
 30
0.0
 10
15.8819780343
 20
13.3500405394
 30
0.0
 10
15.881344972
 20
13.3511108207
 30
0.0
 10
15.8805813568
 20
13.3521701712
 30
0.0
 10
15.8796929581
 20
13.3532108981
 30
0.0
 10
15.8786863431
 20
13.3542255248
 30
0.0
 10
15.8775689372
 20
13.3552066723
 30
0.0
 10
15.8763489684
 20
13.3561471864
 30
0.0
 10
15.8750354422
 20
13.3570401483
 30
0.0
 10
15.8736380131
 20
13.3578790517
 30
0.0
 10
15.8721670684
 20
13.3586576134
 30
0.0
 10
15.8711510511
 20
13.3591296706
 30
0.0
 10
15.8706334407
 20
13.359354535
 30
0.0
  0
SPLINE
  5
2F4
100
AcDbEntity
  8
LAYER_FEATURE
100
AcDbSpline
 62
7
  6
CONTINUOUS
 70
0
 71
3
 72
15
 73
11
 74
0
 42
0.0000001
 43
0.0000001
 44
0.0000000001
 40
0.0
 40
0.0
 40
0.0
 40
0.0
 40
0.110265958
 40
0.2239428415
 40
0.3415082159
 40
0.4633747243
 40
0.5898933423
 40
0.7213546703
 40
0.8579951861
 40
1.0
 40
1.0
 40
1.0
 40
1.0
 10
15.8297125889
 20
12.1525254825
 30
0.0
 10
15.8304697491
 20
12.1522265286
 30
0.0
 10
15.8319832037
 20
12.1515561178
 30
0.0
 10
15.8342057188
 20
12.15036123
 30
0.0
 10
15.8364094838
 20
12.1489647988
 30
0.0
 10
15.8385916702
 20
12.147368891
 30
0.0
 10
15.8407496897
 20
12.1455755813
 30
0.0
 10
15.8428810001
 20
12.1435872381
 30
0.0
 10
15.8449829694
 20
12.1414064342
 30
0.0
 10
15.8463366739
 20
12.1398563123
 30
0.0
 10
15.8470084572
 20
12.1390514788
 30
0.0
  0
SPLINE
  5
2F5
100
AcDbEntity
  8
LAYER_FEATURE
100
AcDbSpline
 62
7
  6
CONTINUOUS
 70
0
 71
3
 72
41
 73
37
 74
0
 42
0.0000001
 43
0.0000001
 44
0.0000000001
 40
0.0
 40
0.0
 40
0.0
 40
0.0
 40
0.025813559
 40
0.0528300284
 40
0.0810687065
 40
0.1105186463
 40
0.1411424912
 40
0.1728800443
 40
0.2056515058
 40
0.2393603856
 40
0.273896132
 40
0.3091365241
 40
0.3449498783
 40
0.3811971116
 40
0.4177337006
 40
0.4544115671
 40
0.4910809174
 40
0.5275920609
 40
0.5637972296
 40
0.5995524218
 40
0.6347192942
 40
0.6691671312
 40
0.7027749224
 40
0.7354335879
 40
0.7670483952
 40
0.7975416173
 40
0.8268554807
 40
0.8549554414
 40
0.8818337884
 40
0.9075135037
 40
0.9320521425
 40
0.9555453307
 40
0.9669452902
 40
0.978138781
 40
0.9891492441
 40
1.0
 40
1.0
 40
1.0
 40
1.0
 10
15.8712988013
 20
13.3067315756
 30
0.0
 10
15.8718306366
 20
13.3056072705
 30
0.0
 10
15.873030719
 20
13.3033577805
 30
0.0
 10
15.8751609481
 20
13.3000788428
 30
0.0
 10
15.8776486017
 20
13.2968384228
 30
0.0
 10
15.880478305
 20
13.2936561199
 30
0.0
 10
15.8836329756
 20
13.2905507236
 30
0.0
 10
15.8870935363
 20
13.2875408143
 30
0.0
 10
15.8908390968
 20
13.2846444274
 30
0.0
 10
15.8948470337
 20
13.2818789851
 30
0.0
 10
15.8990931262
 20
13.279261158
 30
0.0
 10
15.9035516965
 20
13.2768067562
 30
0.0
 10
15.9081957653
 20
13.2745306215
 30
0.0
 10
15.9129972163
 20
13.2724465303
 30
0.0
 10
15.9179269692
 20
13.2705671042
 30
0.0
 10
15.922955159
 20
13.2689037288
 30
0.0
 10
15.9280513204
 20
13.2674664824
 30
0.0
 10
15.9331845766
 20
13.2662640732
 30
0.0
 10
15.9383238303
 20
13.2653037851
 30
0.0
 10
15.9434379573
 20
13.2645914352
 30
0.0
 10
15.9484959994
 20
13.2641313394
 30
0.0
 10
15.953467358
 20
13.2639262907
 30
0.0
 10
15.9583219847
 20
13.263977548
 30
0.0
 10
15.9630305683
 20
13.2642848377
 30
0.0
 10
15.9675647166
 20
13.264846369
 30
0.0
 10
15.9718971291
 20
13.2656588648
 30
0.0
 10
15.976001754
 20
13.2667176039
 30
0.0
 10
15.9798539367
 20
13.2680164932
 30
0.0
 10
15.983430498
 20
13.2695481029
 30
0.0
 10
15.9867099201
 20
13.2713038675
 30
0.0
 10
15.9896719683
 20
13.2732736999
 30
0.0
 10
15.9918830172
 20
13.2751032461
 30
0.0
 10
15.9934666807
 20
13.2766613265
 30
0.0
 10
15.9945526094
 20
13.2778636387
 30
0.0
 10
15.9955465335
 20
13.2791093043
 30
0.0
 10
15.9961508421
 20
13.2799730653
 30
0.0
 10
15.9964364326
 20
13.2804109803
 30
0.0
  0
SPLINE
  5
2F6
100
AcDbEntity
  8
LAYER_FEATURE
100
AcDbSpline
 62
7
  6
CONTINUOUS
 70
0
 71
3
 72
26
 73
22
 74
0
 42
0.0000001
 43
0.0000001
 44
0.0000000001
 40
0.0
 40
0.0
 40
0.0
 40
0.0
 40
0.0221219102
 40
0.0443631959
 40
0.0668390884
 40
0.0896587579
 40
0.11292327
 40
0.1367240027
 40
0.1862082038
 40
0.2386390884
 40
0.2943168294
 40
0.353367572
 40
0.4157670451
 40
0.4813647061
 40
0.5499058195
 40
0.6210508818
 40
0.6943924143
 40
0.7694702758
 40
0.8457841535
 40
0.9228085566
 40
1.0
 40
1.0
 40
1.0
 40
1.0
 10
15.6729276579
 20
13.4166560913
 30
0.0
 10
15.6729855084
 20
13.4168432967
 30
0.0
 10
15.6730847178
 20
13.4172241472
 30
0.0
 10
15.6731823344
 20
13.4178088048
 30
0.0
 10
15.6732287818
 20
13.418405958
 30
0.0
 10
15.6732238692
 20
13.4190139056
 30
0.0
 10
15.6731677265
 20
13.419631043
 30
0.0
 10
15.6730229461
 20
13.4204746335
 30
0.0
 10
15.6727091258
 20
13.4215474111
 30
0.0
 10
15.6721388961
 20
13.4228254113
 30
0.0
 10
15.6713770388
 20
13.4240986155
 30
0.0
 10
15.670431964
 20
13.4253541434
 30
0.0
 10
15.6693136742
 20
13.4265795163
 30
0.0
 10
15.6680338369
 20
13.427762313
 30
0.0
 10
15.666605747
 20
13.4288904495
 30
0.0
 10
15.6650442401
 20
13.4299522995
 30
0.0
 10
15.6633655574
 20
13.4309368657
 30
0.0
 10
15.6615871943
 20
13.4318339023
 30
0.0
 10
15.6597276733
 20
13.4326340746
 30
0.0
 10
15.6578065034
 20
13.4333289922
 30
0.0
 10
15.6564961129
 20
13.4337178234
 30
0.0
 10
15.6558352092
 20
13.4338929269
 30
0.0
  0
SPLINE
  5
2F7
100
AcDbEntity
  8
02___PRT_ALL_AXES
100
AcDbSpline
 62
7
  6
CONTINUOUS
 70
0
 71
3
 72
23
 73
19
 74
0
 42
0.0000001
 43
0.0000001
 44
0.0000000001
 40
0.0
 40
0.0
 40
0.0
 40
0.0
 40
0.0555683898
 40
0.111102974
 40
0.1668279735
 40
0.2229691697
 40
0.2797503992
 40
0.3373902244
 40
0.3960987377
 40
0.4560745971
 40
0.5175024415
 40
0.5805508667
 40
0.6453709775
 40
0.7120954037
 40
0.7808365025
 40
0.8516874903
 40
0.9247270119
 40
1.0
 40
1.0
 40
1.0
 40
1.0
 10
15.8425083459
 20
12.1544303823
 30
0.0
 10
15.8436665622
 20
12.1544303826
 30
0.0
 10
15.8459834441
 20
12.1543354012
 30
0.0
 10
15.849437832
 20
12.153905823
 30
0.0
 10
15.8528567931
 20
12.1531896591
 30
0.0
 10
15.856230176
 20
12.1521877154
 30
0.0
 10
15.8595483904
 20
12.1509012258
 30
0.0
 10
15.8628019974
 20
12.1493319985
 30
0.0
 10
15.8659818888
 20
12.1474823697
 30
0.0
 10
15.8690792421
 20
12.1453551458
 30
0.0
 10
15.8720856523
 20
12.1429537526
 30
0.0
 10
15.8749931202
 20
12.1402821479
 30
0.0
 10
15.8777940452
 20
12.1373447983
 30
0.0
 10
15.8804813571
 20
12.1341468116
 30
0.0
 10
15.8830484872
 20
12.1306938684
 30
0.0
 10
15.8854894289
 20
12.1269920647
 30
0.0
 10
15.8877986003
 20
12.1230483913
 30
0.0
 10
15.8892254355
 20
12.120304471
 30
0.0
 10
15.8899166122
 20
12.1188960011
 30
0.0
  0
SPLINE
  5
2F8
100
AcDbEntity
  8
LAYER_FEATURE
100
AcDbSpline
 62
7
  6
CONTINUOUS
 70
0
 71
3
 72
55
 73
51
 74
0
 42
0.0000001
 43
0.0000001
 44
0.0000000001
 40
0.0
 40
0.0
 40
0.0
 40
0.0
 40
0.0113099951
 40
0.0228262256
 40
0.0345810325
 40
0.0466030635
 40
0.0589170071
 40
0.0715436117
 40
0.0844997752
 40
0.0977985403
 40
0.111449458
 40
0.1254585616
 40
0.1398287783
 40
0.1545600197
 40
0.1696494249
 40
0.18509165
 40
0.2169961418
 40
0.2501925652
 40
0.284565076
 40
0.319973803
 40
0.3562592643
 40
0.3932463822
 40
0.4307481788
 40
0.4685692434
 40
0.5065090507
 40
0.5443651925
 40
0.581936582
 40
0.6190266842
 40
0.6554468168
 40
0.6910195862
 40
0.7255825324
 40
0.7424417886
 40
0.7589965964
 40
0.7752326369
 40
0.7911374483
 40
0.8067003808
 40
0.8219129602
 40
0.8367689544
 40
0.8512645935
 40
0.8653988601
 40
0.8791735306
 40
0.9056582818
 40
0.9183975343
 40
0.9308178356
 40
0.9429385531
 40
0.9547830646
 40
0.9663785942
 40
0.9777562611
 40
0.9889507432
 40
1.0
 40
1.0
 40
1.0
 40
1.0
 10
15.6683970592
 20
13.4021626389
 30
0.0
 10
15.6684031389
 20
13.4015605068
 30
0.0
 10
15.6684601603
 20
13.4003452948
 30
0.0
 10
15.6686762957
 20
13.3985154688
 30
0.0
 10
15.6690231361
 20
13.3966672634
 30
0.0
 10
15.6694999401
 20
13.3948044963
 30
0.0
 10
15.6701056645
 20
13.3929308196
 30
0.0
 10
15.6708390265
 20
13.3910499341
 30
0.0
 10
15.6716985435
 20
13.3891655533
 30
0.0
 10
15.6726824229
 20
13.3872813591
 30
0.0
 10
15.6737887231
 20
13.3854010772
 30
0.0
 10
15.6750151897
 20
13.3835283797
 30
0.0
 10
15.6763593956
 20
13.381666959
 30
0.0
 10
15.6778186577
 20
13.3798204833
 30
0.0
 10
15.6793900805
 20
13.3779925477
 30
0.0
 10
15.6816552298
 20
13.3755585833
 30
0.0
 10
15.6847537209
 20
13.3725880837
 30
0.0
 10
15.6888234563
 20
13.3691930923
 30
0.0
 10
15.6932528014
 20
13.3659558283
 30
0.0
 10
15.6980067178
 20
13.3629018236
 30
0.0
 10
15.7030478031
 20
13.3600550381
 30
0.0
 10
15.7083362899
 20
13.3574379081
 30
0.0
 10
15.7138304458
 20
13.3550710752
 30
0.0
 10
15.7194868858
 20
13.352973228
 30
0.0
 10
15.7252609293
 20
13.3511609381
 30
0.0
 10
15.7311069589
 20
13.3496485251
 30
0.0
 10
15.736978797
 20
13.3484479375
 30
0.0
 10
15.7428300602
 20
13.3475686557
 30
0.0
 10
15.7486146183
 20
13.3470176218
 30
0.0
 10
15.7542866859
 20
13.3467992069
 30
0.0
 10
15.7589206434
 20
13.3468966079
 30
0.0
 10
15.7625317857
 20
13.3471460799
 30
0.0
 10
15.7651620462
 20
13.3474149319
 30
0.0
 10
15.7677312531
 20
13.3477665547
 30
0.0
 10
15.77023435
 20
13.3482002254
 30
0.0
 10
15.7726663726
 20
13.3487151313
 30
0.0
 10
15.775022511
 20
13.3493102382
 30
0.0
 10
15.7772981129
 20
13.3499843966
 30
0.0
 10
15.7794886353
 20
13.3507362876
 30
0.0
 10
15.7815898854
 20
13.3515644808
 30
0.0
 10
15.7842317551
 20
13.3527525385
 30
0.0
 10
15.7867188349
 20
13.3540985354
 30
0.0
 10
15.7890201612
 20
13.3556055517
 30
0.0
 10
15.790615747
 20
13.3567881882
 30
0.0
 10
15.7920997422
 20
13.358035364
 30
0.0
 10
15.7934692351
 20
13.3593446664
 30
0.0
 10
15.7947213717
 20
13.3607135648
 30
0.0
 10
15.7958536361
 20
13.3621393673
 30
0.0
 10
15.796863579
 20
13.3636191595
 30
0.0
 10
15.7974572365
 20
13.3646454489
 30
0.0
 10
15.7977321007
 20
13.3651655679
 30
0.0
  0
SPLINE
  5
2F9
100
AcDbEntity
  8
02___PRT_ALL_AXES
100
AcDbSpline
 62
7
  6
CONTINUOUS
 70
0
 71
3
 72
40
 73
36
 74
0
 42
0.0000001
 43
0.0000001
 44
0.0000000001
 40
0.0
 40
0.0
 40
0.0
 40
0.0
 40
0.0248034544
 40
0.0496642477
 40
0.0746390664
 40
0.0997833144
 40
0.1251505291
 40
0.1507918588
 40
0.1767556157
 40
0.20308691
 40
0.2298273675
 40
0.257014928
 40
0.2846837232
 40
0.31286402
 40
0.3271552555
 40
0.3415839415
 40
0.3708626345
 40
0.400720673
 40
0.4311732903
 40
0.4622322357
 40
0.4939059244
 40
0.5261995933
 40
0.5591154619
 40
0.5926528919
 40
0.6268085437
 40
0.6615765365
 40
0.6969485998
 40
0.7329142179
 40
0.7694607717
 40
0.8065736697
 40
0.8442364551
 40
0.8824310389
 40
0.9211374127
 40
0.9603348996
 40
1.0
 40
1.0
 40
1.0
 40
1.0
 10
14.7514888839
 20
12.4146580286
 30
0.0
 10
14.752673193
 20
12.418490443
 30
0.0
 10
14.7552707459
 20
12.4260963148
 30
0.0
 10
14.7598372071
 20
12.4372769594
 30
0.0
 10
14.7650705599
 20
12.4482229063
 30
0.0
 10
14.7709645211
 20
12.4589210747
 30
0.0
 10
14.7775122355
 20
12.4693593793
 30
0.0
 10
14.784706043
 20
12.4795259029
 30
0.0
 10
14.7925375687
 20
12.489409136
 30
0.0
 10
14.8009977294
 20
12.4989979251
 30
0.0
 10
14.8100767423
 20
12.5082814856
 30
0.0
 10
14.8197641897
 20
12.5172494419
 30
0.0
 10
14.8300488413
 20
12.525891682
 30
0.0
 10
14.8390649342
 20
12.5327817241
 30
0.0
 10
14.8465588765
 20
12.5381228864
 30
0.0
 10
14.8543148256
 20
12.5433986919
 30
0.0
 10
14.8643663698
 20
12.549770347
 30
0.0
 10
14.8769164964
 20
12.5570174933
 30
0.0
 10
14.88999911
 20
12.5638947838
 30
0.0
 10
14.9035992712
 20
12.5703944623
 30
0.0
 10
14.9177016618
 20
12.5765093151
 30
0.0
 10
14.9322903549
 20
12.5822325167
 30
0.0
 10
14.9473488964
 20
12.5875576816
 30
0.0
 10
14.9628603026
 20
12.5924788605
 30
0.0
 10
14.9788070803
 20
12.5969905555
 30
0.0
 10
14.9951712467
 20
12.601087721
 30
0.0
 10
15.0119343488
 20
12.6047657709
 30
0.0
 10
15.0290774831
 20
12.6080205849
 30
0.0
 10
15.046581317
 20
12.6108485141
 30
0.0
 10
15.0644261052
 20
12.6132463841
 30
0.0
 10
15.0825917284
 20
12.6152115128
 30
0.0
 10
15.1010576547
 20
12.6167416821
 30
0.0
 10
15.1198031483
 20
12.617835204
 30
0.0
 10
15.1388068496
 20
12.6184908117
 30
0.0
 10
15.1515610732
 20
12.6186346525
 30
0.0
 10
15.1579757422
 20
12.6186346525
 30
0.0
  0
SPLINE
  5
2FA
100
AcDbEntity
  8
02___PRT_ALL_AXES
100
AcDbSpline
 62
7
  6
CONTINUOUS
 70
0
 71
3
 72
71
 73
67
 74
0
 42
0.0000001
 43
0.0000001
 44
0.0000000001
 40
0.0
 40
0.0
 40
0.0
 40
0.0
 40
0.017178755
 40
0.0345304931
 40
0.0520444286
 40
0.0697101563
 40
0.0875164998
 40
0.1054521072
 40
0.1235053061
 40
0.1416641658
 40
0.1599165305
 40
0.1782500416
 40
0.1966521686
 40
0.2151102353
 40
0.2336114489
 40
0.2521429268
 40
0.270691724
 40
0.2892448589
 40
0.3077893411
 40
0.3263121984
 40
0.3448005034
 40
0.3632414003
 40
0.3816221318
 40
0.3999300672
 40
0.4181527303
 40
0.4362778266
 40
0.4542932712
 40
0.472187218
 40
0.4899480903
 40
0.5075646105
 40
0.5250258302
 40
0.5423211614
 40
0.5594404091
 40
0.5763738072
 40
0.5931120521
 40
0.6096463384
 40
0.6259683955
 40
0.6420705269
 40
0.6579456539
 40
0.6735873568
 40
0.688989918
 40
0.7041483687
 40
0.7190585371
 40
0.7337171023
 40
0.7481216463
 40
0.7622707062
 40
0.7761638315
 40
0.7898016416
 40
0.8031858871
 40
0.8163195076
 40
0.8292066876
 40
0.8418529114
 40
0.8542650143
 40
0.8664512305
 40
0.8784212278
 40
0.8901861312
 40
0.9017585323
 40
0.9131524821
 40
0.9243834625
 40
0.9354683321
 40
0.9464252429
 40
0.9572735304
 40
0.968033574
 40
0.9787266299
 40
0.9893746366
 40
1.0
 40
1.0
 40
1.0
 40
1.0
 10
15.1579757422
 20
12.6186346525
 30
0.0
 10
15.1642016601
 20
12.6186346525
 30
0.0
 10
15.176716588
 20
12.618497658
 30
0.0
 10
15.1955700155
 20
12.6178889618
 30
0.0
 10
15.2145828761
 20
12.6168765874
 30
0.0
 10
15.2337351714
 20
12.6154616329
 30
0.0
 10
15.2530070807
 20
12.6136455424
 30
0.0
 10
15.2723785066
 20
12.6114302163
 30
0.0
 10
15.2918292987
 20
12.6088179604
 30
0.0
 10
15.3113392101
 20
12.605811496
 30
0.0
 10
15.3308879336
 20
12.602413953
 30
0.0
 10
15.3504551215
 20
12.5986288664
 30
0.0
 10
15.370020405
 20
12.5944601734
 30
0.0
 10
15.3895634181
 20
12.5899122161
 30
0.0
 10
15.4090638172
 20
12.5849897303
 30
0.0
 10
15.4285013032
 20
12.5796978403
 30
0.0
 10
15.4478556415
 20
12.5740420537
 30
0.0
 10
15.4671066834
 20
12.5680282551
 30
0.0
 10
15.4862343891
 20
12.5616627073
 30
0.0
 10
15.5052188475
 20
12.5549520385
 30
0.0
 10
15.5240402963
 20
12.5479032344
 30
0.0
 10
15.5426791422
 20
12.5405236318
 30
0.0
 10
15.5611159816
 20
12.5328209094
 30
0.0
 10
15.5793316236
 20
12.5248030876
 30
0.0
 10
15.5973071082
 20
12.5164785138
 30
0.0
 10
15.615023725
 20
12.5078558529
 30
0.0
 10
15.632463033
 20
12.4989440786
 30
0.0
 10
15.6496068788
 20
12.4897524631
 30
0.0
 10
15.6664374204
 20
12.480290574
 30
0.0
 10
15.6829371429
 20
12.4705682591
 30
0.0
 10
15.6990888752
 20
12.4605956349
 30
0.0
 10
15.7148758082
 20
12.4503830764
 30
0.0
 10
15.7302815116
 20
12.439941205
 30
0.0
 10
15.745289956
 20
12.4292808838
 30
0.0
 10
15.7598855269
 20
12.4184132011
 30
0.0
 10
15.7740530386
 20
12.4073494579
 30
0.0
 10
15.7877777499
 20
12.3961011559
 30
0.0
 10
15.801045379
 20
12.3846799845
 30
0.0
 10
15.8138421236
 20
12.373097814
 30
0.0
 10
15.8261546725
 20
12.3613666791
 30
0.0
 10
15.8379702158
 20
12.3494987642
 30
0.0
 10
15.849276458
 20
12.3375063917
 30
0.0
 10
15.8600616296
 20
12.3254020075
 30
0.0
 10
15.8703145051
 20
12.3131981728
 30
0.0
 10
15.8800244113
 20
12.3009075477
 30
0.0
 10
15.8891812329
 20
12.2885428761
 30
0.0
 10
15.8977754229
 20
12.2761169742
 30
0.0
 10
15.9057980092
 20
12.2636427156
 30
0.0
 10
15.9132406111
 20
12.2511330234
 30
0.0
 10
15.9200954427
 20
12.2386008546
 30
0.0
 10
15.9263553148
 20
12.2260591867
 30
0.0
 10
15.9320136414
 20
12.2135210081
 30
0.0
 10
15.9370644433
 20
12.2009993052
 30
0.0
 10
15.9415023625
 20
12.1885070562
 30
0.0
 10
15.9453226643
 20
12.1760572191
 30
0.0
 10
15.9485212368
 20
12.163662722
 30
0.0
 10
15.951094598
 20
12.1513364557
 30
0.0
 10
15.9530399006
 20
12.1390912651
 30
0.0
 10
15.9543549495
 20
12.1269399419
 30
0.0
 10
15.9550382081
 20
12.1148952126
 30
0.0
 10
15.9550888015
 20
12.1029697314
 30
0.0
 10
15.9545065239
 20
12.0911760532
 30
0.0
 10
15.9532918626
 20
12.0795266732
 30
0.0
 10
15.951445956
 20
12.0680338051
 30
0.0
 10
15.9489708222
 20
12.0567101064
 30
0.0
 10
15.9469018872
 20
12.049277988
 30
0.0
 10
15.9457649337
 20
12.045598816
 30
0.0
  0
SPLINE
  5
2FB
100
AcDbEntity
  8
LAYER_CUT_FEAT
100
AcDbSpline
 62
7
  6
CONTINUOUS
 70
0
 71
3
 72
22
 73
18
 74
0
 42
0.0000001
 43
0.0000001
 44
0.0000000001
 40
0.0
 40
0.0
 40
0.0
 40
0.0
 40
0.1381198151
 40
0.2053664481
 40
0.2714548915
 40
0.3364371429
 40
0.4003725815
 40
0.4633278457
 40
0.525376406
 40
0.5865986112
 40
0.6470813144
 40
0.7069174435
 40
0.7662054991
 40
0.8250488584
 40
0.8835549618
 40
0.9418344166
 40
1.0
 40
1.0
 40
1.0
 40
1.0
 10
15.9970538486
 20
12.2301284223
 30
0.0
 10
16.0014024605
 20
12.2212668829
 30
0.0
 10
16.0073945035
 20
12.2078478311
 30
0.0
 10
16.0142286198
 20
12.189687168
 30
0.0
 10
16.0186724892
 20
12.1762240371
 30
0.0
 10
16.0224750607
 20
12.1628118489
 30
0.0
 10
16.0256327385
 20
12.1494630391
 30
0.0
 10
16.0281423183
 20
12.1361904764
 30
0.0
 10
16.0300012382
 20
12.1230068391
 30
0.0
 10
16.0312075834
 20
12.1099247967
 30
0.0
 10
16.0317600488
 20
12.0969569346
 30
0.0
 10
16.0316579366
 20
12.0841157674
 30
0.0
 10
16.0309012203
 20
12.0714137096
 30
0.0
 10
16.0294905406
 20
12.0588631105
 30
0.0
 10
16.02742712
 20
12.0464760431
 30
0.0
 10
16.0247130173
 20
12.0342650267
 30
0.0
 10
16.0224705041
 20
12.0262458911
 30
0.0
 10
16.021243178
 20
12.0222742744
 30
0.0
  0
SPLINE
  5
2FC
100
AcDbEntity
  8
LAYER_CHAMFER_FEAT
100
AcDbSpline
 62
7
  6
CONTINUOUS
 70
0
 71
3
 72
51
 73
47
 74
0
 42
0.0000001
 43
0.0000001
 44
0.0000000001
 40
0.0
 40
0.0
 40
0.0
 40
0.0
 40
0.0106257871
 40
0.0212742175
 40
0.0319676998
 40
0.0427281724
 40
0.0535768902
 40
0.0645342397
 40
0.0756195473
 40
0.0868509803
 40
0.0982453788
 40
0.1098182455
 40
0.1215836125
 40
0.1335540907
 40
0.145740791
 40
0.1581533889
 40
0.1836829435
 40
0.1968170926
 40
0.2102018654
 40
0.2238402264
 40
0.2377338964
 40
0.2518835269
 40
0.2662886387
 40
0.2809477938
 40
0.2958585534
 40
0.3110176079
 40
0.326420783
 40
0.3579362856
 40
0.3903593914
 40
0.4236310502
 40
0.4576830028
 40
0.4924390085
 40
0.5278159823
 40
0.5637250557
 40
0.600072578
 40
0.6367610689
 40
0.6736901354
 40
0.710757363
 40
0.7478591882
 40
0.7848917617
 40
0.821751806
 40
0.8583374922
 40
0.8945492714
 40
0.9302909346
 40
0.9654700553
 40
1.0
 40
1.0
 40
1.0
 40
1.0
 10
14.970704597
 20
11.853918955
 30
0.0
 10
14.9702498208
 20
11.8524472845
 30
0.0
 10
14.9694222439
 20
11.8494744382
 30
0.0
 10
14.9684321902
 20
11.8449449587
 30
0.0
 10
14.9676938263
 20
11.8403478115
 30
0.0
 10
14.9672079696
 20
11.8356880592
 30
0.0
 10
14.9669750443
 20
11.8309705883
 30
0.0
 10
14.966995298
 20
11.8262003966
 30
0.0
 10
14.9672685817
 20
11.8213825031
 30
0.0
 10
14.9677946238
 20
11.8165219769
 30
0.0
 10
14.9685727246
 20
11.8116238966
 30
0.0
 10
14.9696020857
 20
11.8066933956
 30
0.0
 10
14.9708815016
 20
11.8017355879
 30
0.0
 10
14.9724096254
 20
11.7967556744
 30
0.0
 10
14.9741848174
 20
11.7917587042
 30
0.0
 10
14.9769037908
 20
11.7850179542
 30
0.0
 10
14.9800929834
 20
11.7783258619
 30
0.0
 10
14.98371429
 20
11.7717053602
 30
0.0
 10
14.9866913743
 20
11.7667013676
 30
0.0
 10
14.9899004078
 20
11.7617117042
 30
0.0
 10
14.9933380733
 20
11.7567413243
 30
0.0
 10
14.9970008126
 20
11.7517954678
 30
0.0
 10
15.0008847656
 20
11.746879209
 30
0.0
 10
15.0049859248
 20
11.7419976807
 30
0.0
 10
15.0092999851
 20
11.7371559298
 30
0.0
 10
15.0138225
 20
11.732358957
 30
0.0
 10
15.0201722778
 20
11.7259810697
 30
0.0
 10
15.0286094882
 20
11.7181563055
 30
0.0
 10
15.0394089725
 20
11.7090954331
 30
0.0
 10
15.050915065
 20
11.7003298801
 30
0.0
 10
15.0630798432
 20
11.6918960791
 30
0.0
 10
15.0758529243
 20
11.6838288908
 30
0.0
 10
15.0891813028
 20
11.6761617619
 30
0.0
 10
15.1030096716
 20
11.6689264878
 30
0.0
 10
15.1172806239
 20
11.6621530964
 30
0.0
 10
15.1319349015
 20
11.6558697097
 30
0.0
 10
15.1469116409
 20
11.6501024225
 30
0.0
 10
15.1621486307
 20
11.6448751912
 30
0.0
 10
15.1775825732
 20
11.6402097305
 30
0.0
 10
15.1931493519
 20
11.6361254221
 30
0.0
 10
15.2087842991
 20
11.6326392311
 30
0.0
 10
15.2244224777
 20
11.6297656418
 30
0.0
 10
15.2399989241
 20
11.6275165808
 30
0.0
 10
15.2554490475
 20
11.6259014094
 30
0.0
 10
15.270708367
 20
11.6249268152
 30
0.0
 10
15.2808147403
 20
11.6247046207
 30
0.0
 10
15.2858202727
 20
11.6247046207
 30
0.0
  0
SPLINE
  5
2FD
100
AcDbEntity
  8
02___PRT_ALL_AXES
100
AcDbSpline
 62
7
  6
CONTINUOUS
 70
0
 71
3
 72
25
 73
21
 74
0
 42
0.0000001
 43
0.0000001
 44
0.0000000001
 40
0.0
 40
0.0
 40
0.0
 40
0.0
 40
0.0671685777
 40
0.1336114939
 40
0.1993369766
 40
0.2643596373
 40
0.3286995147
 40
0.3923810097
 40
0.4554317999
 40
0.4867347497
 40
0.5178915085
 40
0.5797730675
 40
0.6411191446
 40
0.7019641073
 40
0.7623435234
 40
0.7923751307
 40
0.8223045137
 40
0.8818668675
 40
0.9410830888
 40
1.0
 40
1.0
 40
1.0
 40
1.0
 10
15.1236023243
 20
12.5074022313
 30
0.0
 10
15.1266647059
 20
12.5074022313
 30
0.0
 10
15.1327582396
 20
12.5072117388
 30
0.0
 10
15.1418112113
 20
12.5063454301
 30
0.0
 10
15.1506922737
 20
12.5049056692
 30
0.0
 10
15.1593648933
 20
12.5029016823
 30
0.0
 10
15.1677941365
 20
12.5003460921
 30
0.0
 10
15.1759457817
 20
12.4972548425
 30
0.0
 10
15.1824969394
 20
12.4942402755
 30
0.0
 10
15.1875643244
 20
12.4915797774
 30
0.0
 10
15.1924896381
 20
12.4887708093
 30
0.0
 10
15.1984182629
 20
12.4849650222
 30
0.0
 10
15.2051490705
 20
12.4799407511
 30
0.0
 10
15.2114543021
 20
12.4744959503
 30
0.0
 10
15.2163422707
 20
12.4696221791
 30
0.0
 10
15.2200123795
 20
12.4655423778
 30
0.0
 10
15.2235082697
 20
12.4613608276
 30
0.0
 10
15.227570754
 20
12.4559244197
 30
0.0
 10
15.2319338604
 20
12.4490899608
 30
0.0
 10
15.2344896804
 20
12.4443422278
 30
0.0
 10
15.2356730565
 20
12.4419307721
 30
0.0
  0
SPLINE
  5
2FE
100
AcDbEntity
  8
02___PRT_ALL_AXES
100
AcDbSpline
 62
7
  6
CONTINUOUS
 70
0
 71
3
 72
23
 73
19
 74
0
 42
0.0000001
 43
0.0000001
 44
0.0000000001
 40
0.0
 40
0.0
 40
0.0
 40
0.0
 40
0.0499616394
 40
0.1019524187
 40
0.1559608406
 40
0.2119515331
 40
0.2698644354
 40
0.329619098
 40
0.391116383
 40
0.4542410098
 40
0.5188635449
 40
0.5848421453
 40
0.6520241216
 40
0.7202470302
 40
0.7893395444
 40
0.8591221047
 40
0.9294072567
 40
1.0
 40
1.0
 40
1.0
 40
1.0
 10
15.8899166122
 20
12.1188960011
 30
0.0
 10
15.890904627
 20
12.1168826386
 30
0.0
 10
15.8927843813
 20
12.1127060408
 30
0.0
 10
15.8952705392
 20
12.1061575748
 30
0.0
 10
15.8974731943
 20
12.0992240229
 30
0.0
 10
15.8993881749
 20
12.0919309002
 30
0.0
 10
15.9010138769
 20
12.0843043027
 30
0.0
 10
15.9023509514
 20
12.076371402
 30
0.0
 10
15.903402229
 20
12.0681599694
 30
0.0
 10
15.9041725633
 20
12.059698248
 30
0.0
 10
15.9046686528
 20
12.0510147547
 30
0.0
 10
15.904898849
 20
12.0421381516
 30
0.0
 10
15.9048729599
 20
12.0330971551
 30
0.0
 10
15.9046020528
 20
12.0239204874
 30
0.0
 10
15.9040982653
 20
12.0146368756
 30
0.0
 10
15.9033746183
 20
12.0052750622
 30
0.0
 10
15.9024448558
 20
11.9958639255
 30
0.0
 10
15.9016980366
 20
11.9895838674
 30
0.0
 10
15.9012946091
 20
11.9864408236
 30
0.0
  0
SPLINE
  5
2FF
100
AcDbEntity
  8
02___PRT_ALL_AXES
100
AcDbSpline
 62
7
  6
CONTINUOUS
 70
0
 71
3
 72
37
 73
33
 74
0
 42
0.0000001
 43
0.0000001
 44
0.0000000001
 40
0.0
 40
0.0
 40
0.0
 40
0.0
 40
0.0977086898
 40
0.1909213301
 40
0.2357783161
 40
0.2794382483
 40
0.3218810803
 40
0.363089156
 40
0.4030465012
 40
0.4417405541
 40
0.4791605763
 40
0.5152990744
 40
0.5501517063
 40
0.5837168224
 40
0.6159972074
 40
0.6469988888
 40
0.676732603
 40
0.7052141301
 40
0.7324642471
 40
0.7585106662
 40
0.7833877182
 40
0.807138002
 40
0.8298135291
 40
0.8514763505
 40
0.872200634
 40
0.8920731539
 40
0.911194467
 40
0.9296794535
 40
0.9476566916
 40
0.9652673601
 40
0.9826626181
 40
1.0
 40
1.0
 40
1.0
 40
1.0
 10
15.8768205678
 20
11.8783945938
 30
0.0
 10
15.8761444712
 20
11.876385643
 30
0.0
 10
15.8747910095
 20
11.8724709741
 30
0.0
 10
15.8730294983
 20
11.867668563
 30
0.0
 10
15.8716128049
 20
11.8639894309
 30
0.0
 10
15.8705620851
 20
11.861349794
 30
0.0
 10
15.8695098069
 20
11.8587961862
 30
0.0
 10
15.8684561534
 20
11.8563302531
 30
0.0
 10
15.8674012778
 20
11.8539535428
 30
0.0
 10
15.8663452653
 20
11.8516675427
 30
0.0
 10
15.8652881635
 20
11.8494736427
 30
0.0
 10
15.8642299688
 20
11.8473731622
 30
0.0
 10
15.8631706344
 20
11.845367344
 30
0.0
 10
15.8621100677
 20
11.843457347
 30
0.0
 10
15.8610481421
 20
11.8416442637
 30
0.0
 10
15.8599846827
 20
11.839929108
 30
0.0
 10
15.8589194835
 20
11.8383128267
 30
0.0
 10
15.8578523086
 20
11.8367962968
 30
0.0
 10
15.8567828686
 20
11.8353803371
 30
0.0
 10
15.8557108696
 20
11.8340656945
 30
0.0
 10
15.85463596
 20
11.83285307
 30
0.0
 10
15.8535577679
 20
11.8317431127
 30
0.0
 10
15.8524759065
 20
11.8307364152
 30
0.0
 10
15.8513899295
 20
11.8298335686
 30
0.0
 10
15.8502994156
 20
11.8290351014
 30
0.0
 10
15.849203907
 20
11.82834156
 30
0.0
 10
15.8481029692
 20
11.8277534894
 30
0.0
 10
15.8469962231
 20
11.8272713939
 30
0.0
 10
15.8458833411
 20
11.8268958325
 30
0.0
 10
15.8447640767
 20
11.8266272492
 30
0.0
 10
15.8436384349
 20
11.8264660438
 30
0.0
 10
15.8428844585
 20
11.8264303939
 30
0.0
 10
15.8425083457
 20
11.8264303937
 30
0.0
  0
SPLINE
  5
300
100
AcDbEntity
  8
LAYER_CHAMFER_FEAT
100
AcDbSpline
 62
7
  6
CONTINUOUS
 70
0
 71
3
 72
39
 73
35
 74
0
 42
0.0000001
 43
0.0000001
 44
0.0000000001
 40
0.0
 40
0.0
 40
0.0
 40
0.0
 40
0.0248034972
 40
0.0496643314
 40
0.0746391968
 40
0.0997834827
 40
0.125150746
 40
0.1507921182
 40
0.1767559196
 40
0.203087265
 40
0.2298277574
 40
0.2570153763
 40
0.284684206
 40
0.3128645638
 40
0.3415828103
 40
0.3708615548
 40
0.4007196492
 40
0.4311723049
 40
0.4622313194
 40
0.4939050469
 40
0.5261987885
 40
0.5591147055
 40
0.5926521959
 40
0.6268079059
 40
0.6615759486
 40
0.6969480967
 40
0.7329137532
 40
0.7694603547
 40
0.8065733747
 40
0.8442363191
 40
0.8824305252
 40
0.9211370866
 40
0.9603361466
 40
1.0
 40
1.0
 40
1.0
 40
1.0
 10
15.4484150151
 20
11.7062952705
 30
0.0
 10
15.4479412969
 20
11.7047623031
 30
0.0
 10
15.4469022556
 20
11.7017199615
 30
0.0
 10
15.4450756936
 20
11.6972476946
 30
0.0
 10
15.4429823332
 20
11.6928693252
 30
0.0
 10
15.4406247655
 20
11.6885900488
 30
0.0
 10
15.4380056694
 20
11.6844147332
 30
0.0
 10
15.4351281495
 20
11.680348122
 30
0.0
 10
15.4319955414
 20
11.6763948261
 30
0.0
 10
15.4286114691
 20
11.6725593194
 30
0.0
 10
15.4249798746
 20
11.6688458806
 30
0.0
 10
15.4211048918
 20
11.6652587183
 30
0.0
 10
15.4169910111
 20
11.6618017851
 30
0.0
 10
15.4126428882
 20
11.6584789906
 30
0.0
 10
15.4080655061
 20
11.655293994
 30
0.0
 10
15.4032640481
 20
11.6522503628
 30
0.0
 10
15.398243958
 20
11.649351486
 30
0.0
 10
15.3930109289
 20
11.6466005638
 30
0.0
 10
15.3875708556
 20
11.6440007055
 30
0.0
 10
15.3819299057
 20
11.6415547497
 30
0.0
 10
15.3760944233
 20
11.6392654828
 30
0.0
 10
15.370071009
 20
11.637135409
 30
0.0
 10
15.3638664463
 20
11.6351669394
 30
0.0
 10
15.3574877351
 20
11.6333622646
 30
0.0
 10
15.3509420701
 20
11.6317233885
 30
0.0
 10
15.344236827
 20
11.6302521826
 30
0.0
 10
15.3373795771
 20
11.628950243
 30
0.0
 10
15.3303780404
 20
11.6278190832
 30
0.0
 10
15.3232401176
 20
11.6268599259
 30
0.0
 10
15.3159738862
 20
11.6260738857
 30
0.0
 10
15.3085875316
 20
11.6254618075
 30
0.0
 10
15.3010892579
 20
11.6250243902
 30
0.0
 10
15.2934877565
 20
11.6247621747
 30
0.0
 10
15.2883860552
 20
11.6247046207
 30
0.0
 10
15.2858202727
 20
11.6247046207
 30
0.0
  0
SPLINE
  5
301
100
AcDbEntity
  8
LAYER_FEATURE
100
AcDbSpline
 62
7
  6
CONTINUOUS
 70
0
 71
3
 72
27
 73
23
 74
0
 42
0.0000001
 43
0.0000001
 44
0.0000000001
 40
0.0
 40
0.0
 40
0.0
 40
0.0
 40
0.0214673108
 40
0.0433618947
 40
0.0657839022
 40
0.0888293291
 40
0.1125799499
 40
0.1370992116
 40
0.1885974514
 40
0.2156596005
 40
0.2436034521
 40
0.3020951118
 40
0.3639512068
 40
0.4288925028
 40
0.4965315396
 40
0.5663960933
 40
0.6379496624
 40
0.7106099494
 40
0.7837656004
 40
0.8567933287
 40
0.9290712049
 40
1.0
 40
1.0
 40
1.0
 40
1.0
 10
16.4130539112
 20
12.7452027479
 30
0.0
 10
16.4130713373
 20
12.7454225112
 30
0.0
 10
16.4130851558
 20
12.7458683687
 30
0.0
 10
16.4130437471
 20
12.7465435212
 30
0.0
 10
16.4129404738
 20
12.7472284074
 30
0.0
 10
16.4127758252
 20
12.7479206907
 30
0.0
 10
16.4125503677
 20
12.7486182579
 30
0.0
 10
16.4121635156
 20
12.749567776
 30
0.0
 10
16.4116609758
 20
12.7505035302
 30
0.0
 10
16.4110589857
 20
12.7514171362
 30
0.0
 10
16.4103627947
 20
12.7523526525
 30
0.0
 10
16.4093553479
 20
12.7534984325
 30
0.0
 10
16.4079673614
 20
12.754803583
 30
0.0
 10
16.4063995014
 20
12.7560436041
 30
0.0
 10
16.4046715079
 20
12.7572030114
 30
0.0
 10
16.4028050109
 20
12.7582673709
 30
0.0
 10
16.4008234677
 20
12.7592233279
 30
0.0
 10
16.3987518044
 20
12.760058862
 30
0.0
 10
16.3966161225
 20
12.7607634549
 30
0.0
 10
16.3944432998
 20
12.7613282198
 30
0.0
 10
16.3922608516
 20
12.7617460447
 30
0.0
 10
16.3907998076
 20
12.7619253113
 30
0.0
 10
16.3900741456
 20
12.7619882392
 30
0.0
  0
SPLINE
  5
302
100
AcDbEntity
  8
LAYER_FEATURE
100
AcDbSpline
 62
7
  6
CONTINUOUS
 70
0
 71
3
 72
80
 73
76
 74
0
 42
0.0000001
 43
0.0000001
 44
0.0000000001
 40
0.0
 40
0.0
 40
0.0
 40
0.0
 40
0.0053540951
 40
0.0107128794
 40
0.016081022
 40
0.0214631515
 40
0.0268638371
 40
0.0322875688
 40
0.0377387418
 40
0.0432216367
 40
0.0487404097
 40
0.0542990715
 40
0.0599014853
 40
0.0655513439
 40
0.0712521754
 40
0.07700732
 40
0.0828199416
 40
0.0886930052
 40
0.1006301234
 40
0.1128399033
 40
0.119052965
 40
0.1253402259
 40
0.1381426334
 40
0.151259008
 40
0.164697309
 40
0.1784628146
 40
0.1925582771
 40
0.2069840819
 40
0.2217384055
 40
0.2368173707
 40
0.2522151956
 40
0.2679243357
 40
0.2839356192
 40
0.3002383748
 40
0.3168205523
 40
0.3336688366
 40
0.3507687562
 40
0.3681047851
 40
0.3856604406
 40
0.4034183764
 40
0.4213604721
 40
0.439467919
 40
0.4577213032
 40
0.4761006864
 40
0.4945856844
 40
0.5131555442
 40
0.5317892195
 40
0.5504654449
 40
0.5691628103
 40
0.5878598337
 40
0.606535034
 40
0.6251670045
 40
0.6437344859
 40
0.6622164399
 40
0.6805921239
 40
0.6988411669
 40
0.7169436459
 40
0.734880165
 40
0.7526319362
 40
0.7701808623
 40
0.7875096234
 40
0.8046017656
 40
0.8214417953
 40
0.838015276
 40
0.8543089312
 40
0.8703107528
 40
0.8860101153
 40
0.9013978968
 40
0.9164666065
 40
0.9312105218
 40
0.9456258252
 40
0.959710771
 40
0.9734657916
 40
0.9868937745
 40
1.0
 40
1.0
 40
1.0
 40
1.0
 10
14.6861774252
 20
12.4708823004
 30
0.0
 10
14.686997726
 20
12.4735367866
 30
0.0
 10
14.6887351454
 20
12.4788189336
 30
0.0
 10
14.6916274983
 20
12.4866482299
 30
0.0
 10
14.6948053325
 20
12.4943819049
 30
0.0
 10
14.6982672443
 20
12.502016488
 30
0.0
 10
14.7020117444
 20
12.5095487315
 30
0.0
 10
14.7060371978
 20
12.5169753938
 30
0.0
 10
14.7103418809
 20
12.5242932766
 30
0.0
 10
14.7149239005
 20
12.5314992581
 30
0.0
 10
14.7197813094
 20
12.5385902253
 30
0.0
 10
14.7249119633
 20
12.5455631739
 30
0.0
 10
14.7303136926
 20
12.5524150843
 30
0.0
 10
14.7359841125
 20
12.5591430708
 30
0.0
 10
14.7419208332
 20
12.5657442178
 30
0.0
 10
14.7481212274
 20
12.572215746
 30
0.0
 10
14.7545827378
 20
12.5785548985
 30
0.0
 10
14.7635905225
 20
12.5868714573
 30
0.0
 10
14.7755049915
 20
12.5969219904
 30
0.0
 10
14.7881113392
 20
12.6063849034
 30
0.0
 10
14.798670158
 20
12.6136624171
 30
0.0
 10
14.8096758565
 20
12.6208254421
 30
0.0
 10
14.8240345516
 20
12.6293922841
 30
0.0
 10
14.8420742631
 20
12.6389832146
 30
0.0
 10
14.8609957544
 20
12.6479305407
 30
0.0
 10
14.8807663933
 20
12.6562190905
 30
0.0
 10
14.9013525446
 20
12.6638350321
 30
0.0
 10
14.9227190905
 20
12.6707655696
 30
0.0
 10
14.9448296272
 20
12.6769990589
 30
0.0
 10
14.9676464783
 20
12.6825250065
 30
0.0
 10
14.9911307649
 20
12.6873340987
 30
0.0
 10
15.0152424653
 20
12.6914182203
 30
0.0
 10
15.0399404808
 20
12.6947704724
 30
0.0
 10
15.0651827049
 20
12.6973851885
 30
0.0
 10
15.0909260936
 20
12.6992579474
 30
0.0
 10
15.1171267391
 20
12.7003855832
 30
0.0
 10
15.1437399445
 20
12.7007661937
 30
0.0
 10
15.1707203003
 20
12.7003991453
 30
0.0
 10
15.1980217628
 20
12.6992850761
 30
0.0
 10
15.2255977332
 20
12.697425896
 30
0.0
 10
15.2534011378
 20
12.6948247847
 30
0.0
 10
15.2813845089
 20
12.6914861866
 30
0.0
 10
15.309500067
 20
12.6874158048
 30
0.0
 10
15.3376998027
 20
12.6826205912
 30
0.0
 10
15.3659355593
 20
12.6771087353
 30
0.0
 10
15.3941591161
 20
12.6708896506
 30
0.0
 10
15.4223222709
 20
12.6639739584
 30
0.0
 10
15.450376923
 20
12.6563734703
 30
0.0
 10
15.4782751564
 20
12.6481011674
 30
0.0
 10
15.5059693213
 20
12.6391711786
 30
0.0
 10
15.5334121167
 20
12.6295987562
 30
0.0
 10
15.5605566714
 20
12.6194002495
 30
0.0
 10
15.5873566246
 20
12.6085930767
 30
0.0
 10
15.6137662054
 20
12.5971956951
 30
0.0
 10
15.6397403114
 20
12.5852275686
 30
0.0
 10
15.6652345863
 20
12.5727091344
 30
0.0
 10
15.690205496
 20
12.5596617675
 30
0.0
 10
15.7146104032
 20
12.5461077433
 30
0.0
 10
15.7384076403
 20
12.5320701988
 30
0.0
 10
15.7615565813
 20
12.517573092
 30
0.0
 10
15.7840177103
 20
12.5026411599
 30
0.0
 10
15.8057526898
 20
12.4872998751
 30
0.0
 10
15.8267244252
 20
12.4715754004
 30
0.0
 10
15.8468971279
 20
12.455494543
 30
0.0
 10
15.8662363752
 20
12.4390847064
 30
0.0
 10
15.8847091683
 20
12.4223738418
 30
0.0
 10
15.9022839863
 20
12.4053903983
 30
0.0
 10
15.9189308367
 20
12.3881632719
 30
0.0
 10
15.934621306
 20
12.3707217531
 30
0.0
 10
15.9493285957
 20
12.3530954803
 30
0.0
 10
15.9630275849
 20
12.3353143664
 30
0.0
 10
15.9756948001
 20
12.3174086281
 30
0.0
 10
15.9873086414
 20
12.2994084406
 30
0.0
 10
15.997848821
 20
12.2813449289
 30
0.0
 10
16.0042244712
 20
12.2691336908
 30
0.0
 10
16.0072206342
 20
12.2630281525
 30
0.0
  0
SPLINE
  5
303
100
AcDbEntity
  8
LAYER_FEATURE
100
AcDbSpline
 62
7
  6
CONTINUOUS
 70
0
 71
3
 72
25
 73
21
 74
0
 42
0.0000001
 43
0.0000001
 44
0.0000000001
 40
0.0
 40
0.0
 40
0.0
 40
0.0
 40
0.0467945821
 40
0.0713875632
 40
0.0968031383
 40
0.1230558886
 40
0.1501459131
 40
0.2067737783
 40
0.2665261632
 40
0.3291019751
 40
0.3941049258
 40
0.4610646682
 40
0.5294556001
 40
0.598713854
 40
0.668253154
 40
0.737480142
 40
0.8058092042
 40
0.8726785388
 40
0.9375638304
 40
1.0
 40
1.0
 40
1.0
 40
1.0
 10
16.3946399396
 20
12.8827707837
 30
0.0
 10
16.3944797713
 20
12.8832504726
 30
0.0
 10
16.3941776422
 20
12.8839640804
 30
0.0
 10
16.3936769356
 20
12.884883074
 30
0.0
 10
16.3932379613
 20
12.8855812991
 30
0.0
 10
16.3927433257
 20
12.8862745331
 30
0.0
 10
16.3920007196
 20
12.8872030977
 30
0.0
 10
16.3909386735
 20
12.8883365223
 30
0.0
 10
16.3894909563
 20
12.8896224476
 30
0.0
 10
16.3878694205
 20
12.890838226
 30
0.0
 10
16.3860944999
 20
12.891968636
 30
0.0
 10
16.384188424
 20
12.8929995798
 30
0.0
 10
16.3821751611
 20
12.893918107
 30
0.0
 10
16.3800800484
 20
12.8947126628
 30
0.0
 10
16.3779294808
 20
12.8953732383
 30
0.0
 10
16.3757505537
 20
12.8958915068
 30
0.0
 10
16.373570728
 20
12.8962609463
 30
0.0
 10
16.3714173879
 20
12.8964768877
 30
0.0
 10
16.3693177795
 20
12.8965366346
 30
0.0
 10
16.3679416194
 20
12.8964703466
 30
0.0
 10
16.3672696316
 20
12.8964091814
 30
0.0
  0
SPLINE
  5
304
100
AcDbEntity
  8
LAYER_CUT_FEAT
100
AcDbSpline
 62
7
  6
CONTINUOUS
 70
0
 71
3
 72
80
 73
76
 74
0
 42
0.0000001
 43
0.0000001
 44
0.0000000001
 40
0.0
 40
0.0
 40
0.0
 40
0.0
 40
0.0053540951
 40
0.0107128794
 40
0.016081022
 40
0.0214631515
 40
0.0268638371
 40
0.0322875688
 40
0.0377387418
 40
0.0432216367
 40
0.0487404097
 40
0.0542990715
 40
0.0599014853
 40
0.0655513439
 40
0.0712521754
 40
0.07700732
 40
0.0828199416
 40
0.0886930052
 40
0.1006301234
 40
0.1128399033
 40
0.119052965
 40
0.1253402259
 40
0.1381426334
 40
0.151259008
 40
0.164697309
 40
0.1784628146
 40
0.1925582771
 40
0.2069840819
 40
0.2217384055
 40
0.2368173707
 40
0.2522151956
 40
0.2679243357
 40
0.2839356192
 40
0.3002383748
 40
0.3168205523
 40
0.3336688366
 40
0.3507687562
 40
0.3681047851
 40
0.3856604406
 40
0.4034183764
 40
0.4213604721
 40
0.439467919
 40
0.4577213032
 40
0.4761006864
 40
0.4945856844
 40
0.5131555442
 40
0.5317892195
 40
0.5504654449
 40
0.5691628103
 40
0.5878598337
 40
0.606535034
 40
0.6251670045
 40
0.6437344859
 40
0.6622164399
 40
0.6805921239
 40
0.6988411669
 40
0.7169436459
 40
0.734880165
 40
0.7526319362
 40
0.7701808623
 40
0.7875096234
 40
0.8046017656
 40
0.8214417953
 40
0.838015276
 40
0.8543089312
 40
0.8703107528
 40
0.8860101153
 40
0.9013978968
 40
0.9164666065
 40
0.9312105218
 40
0.9456258252
 40
0.959710771
 40
0.9734657916
 40
0.9868937745
 40
1.0
 40
1.0
 40
1.0
 40
1.0
 10
14.6760106396
 20
12.4379825702
 30
0.0
 10
14.6768309404
 20
12.4406370563
 30
0.0
 10
14.6785683598
 20
12.4459192034
 30
0.0
 10
14.6814607127
 20
12.4537484997
 30
0.0
 10
14.6846385469
 20
12.4614821747
 30
0.0
 10
14.6881004588
 20
12.4691167578
 30
0.0
 10
14.6918449588
 20
12.4766490013
 30
0.0
 10
14.6958704122
 20
12.4840756636
 30
0.0
 10
14.7001750953
 20
12.4913935464
 30
0.0
 10
14.7047571149
 20
12.4985995279
 30
0.0
 10
14.7096145238
 20
12.5056904951
 30
0.0
 10
14.7147451777
 20
12.5126634437
 30
0.0
 10
14.7201469071
 20
12.5195153541
 30
0.0
 10
14.7258173269
 20
12.5262433406
 30
0.0
 10
14.7317540477
 20
12.5328444876
 30
0.0
 10
14.7379544418
 20
12.5393160158
 30
0.0
 10
14.7444159522
 20
12.5456551683
 30
0.0
 10
14.753423737
 20
12.5539717271
 30
0.0
 10
14.7653382059
 20
12.5640222602
 30
0.0
 10
14.7779445536
 20
12.5734851732
 30
0.0
 10
14.7885033725
 20
12.5807626869
 30
0.0
 10
14.7995090709
 20
12.5879257119
 30
0.0
 10
14.813867766
 20
12.5964925539
 30
0.0
 10
14.8319074775
 20
12.6060834844
 30
0.0
 10
14.8508289688
 20
12.6150308105
 30
0.0
 10
14.8705996078
 20
12.6233193603
 30
0.0
 10
14.891185759
 20
12.6309353019
 30
0.0
 10
14.9125523049
 20
12.6378658394
 30
0.0
 10
14.9346628417
 20
12.6440993287
 30
0.0
 10
14.9574796927
 20
12.6496252763
 30
0.0
 10
14.9809639794
 20
12.6544343685
 30
0.0
 10
15.0050756797
 20
12.6585184901
 30
0.0
 10
15.0297736952
 20
12.6618707421
 30
0.0
 10
15.0550159193
 20
12.6644854583
 30
0.0
 10
15.080759308
 20
12.6663582172
 30
0.0
 10
15.1069599535
 20
12.667485853
 30
0.0
 10
15.1335731589
 20
12.6678664635
 30
0.0
 10
15.1605535147
 20
12.6674994151
 30
0.0
 10
15.1878549772
 20
12.6663853459
 30
0.0
 10
15.2154309477
 20
12.6645261658
 30
0.0
 10
15.2432343522
 20
12.6619250545
 30
0.0
 10
15.2712177234
 20
12.6585864564
 30
0.0
 10
15.2993332815
 20
12.6545160746
 30
0.0
 10
15.3275330171
 20
12.649720861
 30
0.0
 10
15.3557687737
 20
12.6442090051
 30
0.0
 10
15.3839923305
 20
12.6379899204
 30
0.0
 10
15.4121554853
 20
12.6310742282
 30
0.0
 10
15.4402101375
 20
12.6234737401
 30
0.0
 10
15.4681083708
 20
12.6152014372
 30
0.0
 10
15.4958025357
 20
12.6062714484
 30
0.0
 10
15.5232453311
 20
12.596699026
 30
0.0
 10
15.5503898858
 20
12.5865005193
 30
0.0
 10
15.577189839
 20
12.5756933465
 30
0.0
 10
15.6035994198
 20
12.5642959649
 30
0.0
 10
15.6295735258
 20
12.5523278384
 30
0.0
 10
15.6550678007
 20
12.5398094042
 30
0.0
 10
15.6800387104
 20
12.5267620373
 30
0.0
 10
15.7044436176
 20
12.5132080131
 30
0.0
 10
15.7282408548
 20
12.4991704686
 30
0.0
 10
15.7513897957
 20
12.4846733618
 30
0.0
 10
15.7738509248
 20
12.4697414297
 30
0.0
 10
15.7955859042
 20
12.4544001449
 30
0.0
 10
15.8165576396
 20
12.4386756702
 30
0.0
 10
15.8367303423
 20
12.4225948128
 30
0.0
 10
15.8560695897
 20
12.4061849762
 30
0.0
 10
15.8745423828
 20
12.3894741116
 30
0.0
 10
15.8921172007
 20
12.3724906681
 30
0.0
 10
15.9087640511
 20
12.3552635416
 30
0.0
 10
15.9244545204
 20
12.3378220229
 30
0.0
 10
15.9391618101
 20
12.3201957501
 30
0.0
 10
15.9528607994
 20
12.3024146362
 30
0.0
 10
15.9655280145
 20
12.2845088978
 30
0.0
 10
15.9771418559
 20
12.2665087104
 30
0.0
 10
15.9876820354
 20
12.2484451987
 30
0.0
 10
15.9940576856
 20
12.2362339606
 30
0.0
 10
15.9970538486
 20
12.2301284223
 30
0.0
  0
SPLINE
  5
305
100
AcDbEntity
  8
LAYER_FEATURE
100
AcDbSpline
 62
7
  6
CONTINUOUS
 70
0
 71
3
 72
23
 73
19
 74
0
 42
0.0000001
 43
0.0000001
 44
0.0000000001
 40
0.0
 40
0.0
 40
0.0
 40
0.0
 40
0.0533341636
 40
0.1098659022
 40
0.1693786528
 40
0.2315438185
 40
0.2959477447
 40
0.3621098387
 40
0.4295009853
 40
0.4975595976
 40
0.5657069924
 40
0.6333622361
 40
0.6999569318
 40
0.764950409
 40
0.8278454306
 40
0.8882060931
 40
0.9456751392
 40
1.0
 40
1.0
 40
1.0
 40
1.0
 10
16.319887665
 20
13.0242268067
 30
0.0
 10
16.3195428219
 20
13.0247029083
 30
0.0
 10
16.3187754352
 20
13.0256431885
 30
0.0
 10
16.3174561487
 20
13.0269677179
 30
0.0
 10
16.3159504558
 20
13.0282329038
 30
0.0
 10
16.3142773714
 20
13.0294228457
 30
0.0
 10
16.3124578134
 20
13.0305228097
 30
0.0
 10
16.3105146338
 20
13.0315189987
 30
0.0
 10
16.3084722666
 20
13.0323989043
 30
0.0
 10
16.3063564279
 20
13.0331514475
 30
0.0
 10
16.3041937758
 20
13.0337671474
 30
0.0
 10
16.3020115604
 20
13.0342382452
 30
0.0
 10
16.2998372663
 20
13.0345588088
 30
0.0
 10
16.2976982381
 20
13.034724794
 30
0.0
 10
16.29562135
 20
13.0347341078
 30
0.0
 10
16.2936325206
 20
13.034586537
 30
0.0
 10
16.291756835
 20
13.0342839063
 30
0.0
 10
16.2905621352
 20
13.033971863
 30
0.0
 10
16.289992056
 20
13.0337886766
 30
0.0
  0
SPLINE
  5
306
100
AcDbEntity
  8
LAYER_FEATURE
100
AcDbSpline
 62
7
  6
CONTINUOUS
 70
0
 71
3
 72
25
 73
21
 74
0
 42
0.0000001
 43
0.0000001
 44
0.0000000001
 40
0.0
 40
0.0
 40
0.0
 40
0.0
 40
0.0613288926
 40
0.1252236342
 40
0.1912419139
 40
0.258876992
 40
0.3275797536
 40
0.3967726459
 40
0.465865807
 40
0.5342718507
 40
0.6014210223
 40
0.666776749
 40
0.7298521507
 40
0.7902281485
 40
0.8475736417
 40
0.875045538
 40
0.9016884369
 40
0.9274960859
 40
0.9524760902
 40
1.0
 40
1.0
 40
1.0
 40
1.0
 10
16.1938913314
 20
13.1599308227
 30
0.0
 10
16.1933890707
 20
13.1603678956
 30
0.0
 10
16.1923238866
 20
13.1612155519
 30
0.0
 10
16.190601478
 20
13.1623780888
 30
0.0
 10
16.1887396281
 20
13.1634461956
 30
0.0
 10
16.1867618695
 20
13.1644063344
 30
0.0
 10
16.1846930521
 20
13.1652464765
 30
0.0
 10
16.182559239
 20
13.1659560276
 30
0.0
 10
16.1803873155
 20
13.1665260517
 30
0.0
 10
16.1782046477
 20
13.1669493655
 30
0.0
 10
16.1760387121
 20
13.1672206375
 30
0.0
 10
16.1739167522
 20
13.1673364477
 30
0.0
 10
16.1718653375
 20
13.1672953076
 30
0.0
 10
16.1699102803
 20
13.1670976725
 30
0.0
 10
16.1683596815
 20
13.1668003072
 30
0.0
 10
16.167191404
 20
13.1664832883
 30
0.0
 10
16.1663667824
 20
13.1662120515
 30
0.0
 10
16.1655837777
 20
13.1659047366
 30
0.0
 10
16.1646150881
 20
13.1654558421
 30
0.0
 10
16.1639325163
 20
13.1650574029
 30
0.0
 10
16.1635077577
 20
13.164764539
 30
0.0
  0
SPLINE
  5
307
100
AcDbEntity
  8
LAYER_FEATURE
100
AcDbSpline
 62
7
  6
CONTINUOUS
 70
0
 71
3
 72
27
 73
23
 74
0
 42
0.0000001
 43
0.0000001
 44
0.0000000001
 40
0.0
 40
0.0
 40
0.0
 40
0.0
 40
0.0698279219
 40
0.1411695058
 40
0.2134394213
 40
0.2860249448
 40
0.3583071909
 40
0.4296742987
 40
0.4995382596
 40
0.5673512249
 40
0.6326233481
 40
0.6949423839
 40
0.7539959688
 40
0.7822442402
 40
0.8096185296
 40
0.8617367502
 40
0.886545545
 40
0.9105605416
 40
0.9338354354
 40
0.9564420573
 40
0.9784665786
 40
1.0
 40
1.0
 40
1.0
 40
1.0
 10
16.0252373807
 20
13.2806348272
 30
0.0
 10
16.0246152795
 20
13.2810031901
 30
0.0
 10
16.0233301855
 20
13.2817024962
 30
0.0
 10
16.0213204872
 20
13.2826253014
 30
0.0
 10
16.0192278948
 20
13.2834245981
 30
0.0
 10
16.0170788854
 20
13.2840902311
 30
0.0
 10
16.014900515
 20
13.2846138396
 30
0.0
 10
16.0127202304
 20
13.2849888182
 30
0.0
 10
16.0105654674
 20
13.2852104468
 30
0.0
 10
16.0084633114
 20
13.2852759261
 30
0.0
 10
16.0064400606
 20
13.2851843861
 30
0.0
 10
16.0045211352
 20
13.2849368981
 30
0.0
 10
16.0030067118
 20
13.2845981712
 30
0.0
 10
16.0018713502
 20
13.2842488234
 30
0.0
 10
16.0008244556
 20
13.2838625395
 30
0.0
 10
15.9998442122
 20
13.2834013721
 30
0.0
 10
15.9989479856
 20
13.2828623381
 30
0.0
 10
15.9983367898
 20
13.2824325294
 30
0.0
 10
15.997777649
 20
13.2819719283
 30
0.0
 10
15.9972723134
 20
13.2814819007
 30
0.0
 10
15.9968226013
 20
13.2809640253
 30
0.0
 10
15.996558222
 20
13.2805977281
 30
0.0
 10
15.9964364326
 20
13.2804109803
 30
0.0
  0
SPLINE
  5
308
100
AcDbEntity
  8
LAYER_FEATURE
100
AcDbSpline
 62
7
  6
CONTINUOUS
 70
0
 71
3
 72
27
 73
23
 74
0
 42
0.0000001
 43
0.0000001
 44
0.0000000001
 40
0.0
 40
0.0
 40
0.0
 40
0.0
 40
0.0763761356
 40
0.1529030916
 40
0.228998308
 40
0.3040887386
 40
0.3776247565
 40
0.4490939406
 40
0.5180361744
 40
0.5840601139
 40
0.6468618066
 40
0.7062460593
 40
0.7621510161
 40
0.7888356421
 40
0.8147030999
 40
0.8641344553
 40
0.8878556499
 40
0.9110085082
 40
0.933688071
 40
0.9560007108
 40
0.9780627354
 40
1.0
 40
1.0
 40
1.0
 40
1.0
 10
15.8254193009
 20
13.3781130418
 30
0.0
 10
15.8247605205
 20
13.3783737343
 30
0.0
 10
15.8234251671
 20
13.3788549675
 30
0.0
 10
15.8213854339
 20
13.3794526467
 30
0.0
 10
15.8193245529
 20
13.3799221094
 30
0.0
 10
15.8172658165
 20
13.3802580318
 30
0.0
 10
15.8152323479
 20
13.380456644
 30
0.0
 10
15.8132469855
 20
13.3805157011
 30
0.0
 10
15.8113319642
 20
13.3804345081
 30
0.0
 10
15.8095086876
 20
13.3802139069
 30
0.0
 10
15.8077973941
 20
13.3798561878
 30
0.0
 10
15.80621724
 20
13.3793651213
 30
0.0
 10
15.8050056557
 20
13.3788408269
 30
0.0
 10
15.804122591
 20
13.37835738
 30
0.0
 10
15.8033235
 20
13.3778501701
 30
0.0
 10
15.8025989423
 20
13.3772792334
 30
0.0
 10
15.8019664907
 20
13.3766471637
 30
0.0
 10
15.8015482552
 20
13.3761548587
 30
0.0
 10
15.8011811193
 20
13.3756393011
 30
0.0
 10
15.8008660975
 20
13.3751019717
 30
0.0
 10
15.8006042455
 20
13.3745444483
 30
0.0
 10
15.8004654498
 20
13.3741598819
 30
0.0
 10
15.8004053745
 20
13.3739654556
 30
0.0
  0
SPLINE
  5
309
100
AcDbEntity
  8
LAYER_FEATURE
100
AcDbSpline
 62
7
  6
CONTINUOUS
 70
0
 71
3
 72
25
 73
21
 74
0
 42
0.0000001
 43
0.0000001
 44
0.0000000001
 40
0.0
 40
0.0
 40
0.0
 40
0.0
 40
0.0789778928
 40
0.1569246934
 40
0.233424696
 40
0.308104717
 40
0.3806142994
 40
0.4506486658
 40
0.5179531191
 40
0.5823354321
 40
0.6436777736
 40
0.701950349
 40
0.7572262624
 40
0.8096964658
 40
0.8596823439
 40
0.9076415382
 40
0.9310564967
 40
0.9541945222
 40
0.9771446929
 40
1.0
 40
1.0
 40
1.0
 40
1.0
 10
15.608054364
 20
13.4457224872
 30
0.0
 10
15.6074744666
 20
13.4458560307
 30
0.0
 10
15.6063151156
 20
13.4460915212
 30
0.0
 10
15.6045745471
 20
13.4463496334
 30
0.0
 10
15.6028545834
 20
13.4465088482
 30
0.0
 10
15.6011692142
 20
13.4465679047
 30
0.0
 10
15.5995319636
 20
13.4465262882
 30
0.0
 10
15.5979560238
 20
13.446384322
 30
0.0
 10
15.5964540392
 20
13.4461430895
 30
0.0
 10
15.5950380422
 20
13.44580444
 30
0.0
 10
15.5937193545
 20
13.4453709425
 30
0.0
 10
15.592508523
 20
13.4448458281
 30
0.0
 10
15.5914152998
 20
13.444232963
 30
0.0
 10
15.590448613
 20
13.4435367385
 30
0.0
 10
15.5896167448
 20
13.4427623807
 30
0.0
 10
15.5890372081
 20
13.4420506066
 30
0.0
 10
15.5886518198
 20
13.4414510939
 30
0.0
 10
15.5884026324
 20
13.44098988
 30
0.0
 10
15.5881916772
 20
13.4405146275
 30
0.0
 10
15.58807672
 20
13.4401887556
 30
0.0
 10
15.5880258747
 20
13.4400242248
 30
0.0
  0
SPLINE
  5
30A
100
AcDbEntity
  8
LAYER_FEATURE
100
AcDbSpline
 62
7
  6
CONTINUOUS
 70
0
 71
3
 72
43
 73
39
 74
0
 42
0.0000001
 43
0.0000001
 44
0.0000000001
 40
0.0
 40
0.0
 40
0.0
 40
0.0
 40
0.0108002307
 40
0.0217236546
 40
0.0328002993
 40
0.0440605349
 40
0.0555322676
 40
0.06723979
 40
0.0914355486
 40
0.1167941093
 40
0.1434040899
 40
0.17131082
 40
0.2005209713
 40
0.2310074478
 40
0.262714031
 40
0.295559621
 40
0.329442038
 40
0.3642414283
 40
0.3998233368
 40
0.4360415182
 40
0.4727405462
 40
0.5097582783
 40
0.5469282184
 40
0.5840818185
 40
0.6210507503
 40
0.6576691802
 40
0.6937760796
 40
0.7292176037
 40
0.7638495804
 40
0.7975401545
 40
0.830172644
 40
0.8616486718
 40
0.8918916436
 40
0.9208506327
 40
0.9485047053
 40
0.9618486776
 40
0.9748748566
 40
1.0
 40
1.0
 40
1.0
 40
1.0
 10
15.4574439834
 20
13.4576972847
 30
0.0
 10
15.457374943
 20
13.4571606253
 30
0.0
 10
15.4572742644
 20
13.4560759039
 30
0.0
 10
15.4572356618
 20
13.4544318806
 30
0.0
 10
15.4573088823
 20
13.4527659321
 30
0.0
 10
15.4574936828
 20
13.4510811042
 30
0.0
 10
15.4577897271
 20
13.4493801519
 30
0.0
 10
15.4583378794
 20
13.4470696147
 30
0.0
 10
15.4593086572
 20
13.4441506132
 30
0.0
 10
15.4608919675
 20
13.4406719847
 30
0.0
 10
15.4628948692
 20
13.437201074
 30
0.0
 10
15.4653032645
 20
13.4337608424
 30
0.0
 10
15.468100745
 20
13.4303736207
 30
0.0
 10
15.4712684397
 20
13.4270616715
 30
0.0
 10
15.4747850962
 20
13.4238468482
 30
0.0
 10
15.4786271549
 20
13.4207504826
 30
0.0
 10
15.4827688767
 20
13.4177931997
 30
0.0
 10
15.4871824979
 20
13.4149947598
 30
0.0
 10
15.4918384088
 20
13.4123739039
 30
0.0
 10
15.4967053512
 20
13.4099482127
 30
0.0
 10
15.5017506293
 20
13.407733976
 30
0.0
 10
15.5069403336
 20
13.4057460743
 30
0.0
 10
15.5122395728
 20
13.4039978726
 30
0.0
 10
15.5176127139
 20
13.4025011259
 30
0.0
 10
15.5230236276
 20
13.4012658983
 30
0.0
 10
15.5284359374
 20
13.4003004939
 30
0.0
 10
15.533813271
 20
13.3996114025
 30
0.0
 10
15.539119512
 20
13.3992032586
 30
0.0
 10
15.5443190511
 20
13.399078817
 30
0.0
 10
15.5493770314
 20
13.3992389427
 30
0.0
 10
15.5542595978
 20
13.3996826243
 30
0.0
 10
15.5589340983
 20
13.4004069913
 30
0.0
 10
15.5633694098
 20
13.4014074065
 30
0.0
 10
15.5675357451
 20
13.402677396
 30
0.0
 10
15.5707988929
 20
13.4039688948
 30
0.0
 10
15.5732433201
 20
13.4051330993
 30
0.0
 10
15.5755185992
 20
13.4063503886
 30
0.0
 10
15.5771376502
 20
13.407374543
 30
0.0
 10
15.5781626746
 20
13.4081051393
 30
0.0
  0
SPLINE
  5
30B
100
AcDbEntity
  8
LAYER_FEATURE
100
AcDbSpline
 62
7
  6
CONTINUOUS
 70
0
 71
3
 72
27
 73
23
 74
0
 42
0.0000001
 43
0.0000001
 44
0.0000000001
 40
0.0
 40
0.0
 40
0.0
 40
0.0
 40
0.02145066
 40
0.0432711678
 40
0.0655688692
 40
0.088447803
 40
0.1119981016
 40
0.1362915669
 40
0.1872918642
 40
0.2140980334
 40
0.2417893692
 40
0.2998076345
 40
0.3612652937
 40
0.4259130549
 40
0.493386036
 40
0.5632282936
 40
0.6349141287
 40
0.7078671641
 40
0.7814774951
 40
0.8551191008
 40
0.9281632557
 40
1.0
 40
1.0
 40
1.0
 40
1.0
 10
15.4574439834
 20
13.4576972847
 30
0.0
 10
15.4574718914
 20
13.4579142176
 30
0.0
 10
15.4575068782
 20
13.458354838
 30
0.0
 10
15.4574970059
 20
13.4590242347
 30
0.0
 10
15.4574251358
 20
13.4597044876
 30
0.0
 10
15.4572916522
 20
13.4603932545
 30
0.0
 10
15.4570970291
 20
13.4610884237
 30
0.0
 10
15.4567514633
 20
13.4620360346
 30
0.0
 10
15.4562883093
 20
13.4629726275
 30
0.0
 10
15.455723904
 20
13.4638888493
 30
0.0
 10
15.4550652196
 20
13.4648289524
 30
0.0
 10
15.4541019958
 20
13.465983486
 30
0.0
 10
15.4527625983
 20
13.4673026857
 30
0.0
 10
15.4512386872
 20
13.4685607837
 30
0.0
 10
15.4495494499
 20
13.4697420976
 30
0.0
 10
15.447716019
 20
13.4708319465
 30
0.0
 10
15.4457614254
 20
13.4718166686
 30
0.0
 10
15.4437102479
 20
13.4726838895
 30
0.0
 10
15.4415883239
 20
13.4734226947
 30
0.0
 10
15.4394223575
 20
13.4740237675
 30
0.0
 10
15.4372397761
 20
13.4744795356
 30
0.0
 10
15.4357754949
 20
13.4746849746
 30
0.0
 10
15.4350469961
 20
13.4747612427
 30
0.0
  0
SPLINE
  5
30C
100
AcDbEntity
  8
LAYER_FEATURE
100
AcDbSpline
 62
7
  6
CONTINUOUS
 70
0
 71
3
 72
24
 73
20
 74
0
 42
0.0000001
 43
0.0000001
 44
0.0000000001
 40
0.0
 40
0.0
 40
0.0
 40
0.0
 40
0.0793758499
 40
0.1569668975
 40
0.2325202576
 40
0.3058477206
 40
0.3767775384
 40
0.4451766038
 40
0.5109562974
 40
0.5740765693
 40
0.6345544805
 40
0.6638319556
 40
0.6924849833
 40
0.7479897702
 40
0.8013111752
 40
0.8527559755
 40
0.9027081755
 40
0.9516210163
 40
1.0
 40
1.0
 40
1.0
 40
1.0
 10
15.3879556312
 20
13.4788556916
 30
0.0
 10
15.3874938174
 20
13.478887562
 30
0.0
 10
15.3865789519
 20
13.4789294506
 30
0.0
 10
15.3852223839
 20
13.4789254456
 30
0.0
 10
15.3839029446
 20
13.4788539057
 30
0.0
 10
15.3826278839
 20
13.4787152429
 30
0.0
 10
15.3814040176
 20
13.478510173
 30
0.0
 10
15.3802379674
 20
13.4782397784
 30
0.0
 10
15.3791360043
 20
13.4779054553
 30
0.0
 10
15.3781041223
 20
13.4775089463
 30
0.0
 10
15.3772985924
 20
13.4771242728
 30
0.0
 10
15.3766959444
 20
13.4767866969
 30
0.0
 10
15.3761336936
 20
13.4764377656
 30
0.0
 10
15.375482346
 20
13.4759679135
 30
0.0
 10
15.3747824963
 20
13.4753457688
 30
0.0
 10
15.3741766966
 20
13.4746744427
 30
0.0
 10
15.3736686263
 20
13.4739574472
 30
0.0
 10
15.3732614953
 20
13.4731989196
 30
0.0
 10
15.3730585721
 20
13.4726670594
 30
0.0
 10
15.3729752744
 20
13.4723974944
 30
0.0
  0
SPLINE
  5
30D
100
AcDbEntity
  8
LAYER_FEATURE
100
AcDbSpline
 62
7
  6
CONTINUOUS
 70
0
 71
3
 72
39
 73
35
 74
0
 42
0.0000001
 43
0.0000001
 44
0.0000000001
 40
0.0
 40
0.0
 40
0.0
 40
0.0
 40
0.0229924188
 40
0.0468497726
 40
0.0716257816
 40
0.0973566686
 40
0.1240581586
 40
0.1517295611
 40
0.180354715
 40
0.2099038738
 40
0.2403352572
 40
0.2715964981
 40
0.3036259657
 40
0.3363539707
 40
0.3697038789
 40
0.4035931406
 40
0.4379342827
 40
0.472635839
 40
0.5076032349
 40
0.5427396409
 40
0.5779468081
 40
0.6131258963
 40
0.6481783031
 40
0.6830064867
 40
0.7175147936
 40
0.7516103038
 40
0.7852037023
 40
0.8182101999
 40
0.8505504902
 40
0.8821517509
 40
0.9129487226
 40
0.9428848747
 40
0.9719136757
 40
1.0
 40
1.0
 40
1.0
 40
1.0
 10
15.2502910003
 20
13.4651413333
 30
0.0
 10
15.2505581424
 20
13.4642226145
 30
0.0
 10
15.2511884538
 20
13.4623746997
 30
0.0
 10
15.2523842099
 20
13.4596412572
 30
0.0
 10
15.2538417414
 20
13.4569082165
 30
0.0
 10
15.2555546023
 20
13.454187052
 30
0.0
 10
15.2575156194
 20
13.4514887761
 30
0.0
 10
15.2597165335
 20
13.4488244608
 30
0.0
 10
15.2621481735
 20
13.4462050386
 30
0.0
 10
15.2648004108
 20
13.443641293
 30
0.0
 10
15.2676622161
 20
13.441143804
 30
0.0
 10
15.270721693
 20
13.4387229023
 30
0.0
 10
15.2739661232
 20
13.4363886198
 30
0.0
 10
15.277382016
 20
13.4341506447
 30
0.0
 10
15.2809551624
 20
13.4320182781
 30
0.0
 10
15.2846706904
 20
13.4300003861
 30
0.0
 10
15.2885131303
 20
13.4281053645
 30
0.0
 10
15.2924664808
 20
13.4263411026
 30
0.0
 10
15.2965142754
 20
13.4247149486
 30
0.0
 10
15.3006396518
 20
13.4232336782
 30
0.0
 10
15.3048254225
 20
13.4219034657
 30
0.0
 10
15.309054146
 20
13.4207298525
 30
0.0
 10
15.3133082024
 20
13.4197177263
 30
0.0
 10
15.3175698685
 20
13.4188713032
 30
0.0
 10
15.3218213923
 20
13.4181941093
 30
0.0
 10
15.3260450678
 20
13.417688967
 30
0.0
 10
15.33022331
 20
13.4173579845
 30
0.0
 10
15.3343387302
 20
13.417202543
 30
0.0
 10
15.3383742093
 20
13.4172232941
 30
0.0
 10
15.3423129764
 20
13.4174201648
 30
0.0
 10
15.3461386566
 20
13.4177923541
 30
0.0
 10
15.3498354182
 20
13.4183383658
 30
0.0
 10
15.3533877574
 20
13.4190559319
 30
0.0
 10
15.3556888606
 20
13.4196569479
 30
0.0
 10
15.3568101103
 20
13.4199867236
 30
0.0
  0
SPLINE
  5
30E
100
AcDbEntity
  8
LAYER_FEATURE
100
AcDbSpline
 62
7
  6
CONTINUOUS
 70
0
 71
3
 72
25
 73
21
 74
0
 42
0.0000001
 43
0.0000001
 44
0.0000000001
 40
0.0
 40
0.0
 40
0.0
 40
0.0
 40
0.0462251498
 40
0.0705093441
 40
0.0956087199
 40
0.1215440253
 40
0.1483209951
 40
0.2043548487
 40
0.263585092
 40
0.3257375146
 40
0.3904363571
 40
0.4572263256
 40
0.5255920437
 40
0.5949754974
 40
0.664792193
 40
0.7344466623
 40
0.8033473591
 40
0.8709227119
 40
0.9366346195
 40
1.0
 40
1.0
 40
1.0
 40
1.0
 10
15.2502910003
 20
13.4651413333
 30
0.0
 10
15.2501520993
 20
13.465619023
 30
0.0
 10
15.2498808778
 20
13.4663315678
 30
0.0
 10
15.24941884
 20
13.4672513698
 30
0.0
 10
15.2490087488
 20
13.4679512598
 30
0.0
 10
15.2485422545
 20
13.4686472612
 30
0.0
 10
15.2478363615
 20
13.4695814016
 30
0.0
 10
15.2468174188
 20
13.47072475
 30
0.0
 10
15.2454168648
 20
13.4720260314
 30
0.0
 10
15.243837668
 20
13.473261141
 30
0.0
 10
15.2420997274
 20
13.474414638
 30
0.0
 10
15.2402247962
 20
13.4754721588
 30
0.0
 10
15.2382364412
 20
13.4764204302
 30
0.0
 10
15.2361596783
 20
13.4772475288
 30
0.0
 10
15.234020667
 20
13.4779430379
 30
0.0
 10
15.2318463569
 20
13.4784981907
 30
0.0
 10
15.2296641537
 20
13.4789059996
 30
0.0
 10
15.2275014824
 20
13.4791613137
 30
0.0
 10
15.2253857128
 20
13.4792609399
 30
0.0
 10
15.2239954344
 20
13.4792218769
 30
0.0
 10
15.2233151533
 20
13.4791743742
 30
0.0
  0
SPLINE
  5
30F
100
AcDbEntity
  8
LAYER_FEATURE
100
AcDbSpline
 62
7
  6
CONTINUOUS
 70
0
 71
3
 72
22
 73
18
 74
0
 42
0.0000001
 43
0.0000001
 44
0.0000000001
 40
0.0
 40
0.0
 40
0.0
 40
0.0
 40
0.0773895349
 40
0.1527629981
 40
0.2260073435
 40
0.2970714525
 40
0.365928082
 40
0.4325686509
 40
0.4970155284
 40
0.559325899
 40
0.6778590992
 40
0.7344687328
 40
0.7895448025
 40
0.8433371152
 40
0.8961301536
 40
0.9482390062
 40
1.0
 40
1.0
 40
1.0
 40
1.0
 10
15.1801224673
 20
13.4752546817
 30
0.0
 10
15.1797963144
 20
13.4752180719
 30
0.0
 10
15.1791539622
 20
13.4751319
 30
0.0
 10
15.1782105082
 20
13.47496096
 30
0.0
 10
15.1773025518
 20
13.4747504476
 30
0.0
 10
15.1764331682
 20
13.4745011056
 30
0.0
 10
15.1756051492
 20
13.4742137071
 30
0.0
 10
15.174821225
 20
13.4738891941
 30
0.0
 10
15.1740838922
 20
13.4735285157
 30
0.0
 10
15.1731815901
 20
13.47300987
 30
0.0
 10
15.1723623526
 20
13.4724162047
 30
0.0
 10
15.1716478472
 20
13.4717494053
 30
0.0
 10
15.1711773054
 20
13.4712274737
 30
0.0
 10
15.1707657169
 20
13.4706779591
 30
0.0
 10
15.1704145615
 20
13.4701025835
 30
0.0
 10
15.1701250909
 20
13.469503419
 30
0.0
 10
15.1699737434
 20
13.4690888019
 30
0.0
 10
15.1699089301
 20
13.4688790753
 30
0.0
  0
SPLINE
  5
310
100
AcDbEntity
  8
LAYER_FEATURE
100
AcDbSpline
 62
7
  6
CONTINUOUS
 70
0
 71
3
 72
28
 73
24
 74
0
 42
0.0000001
 43
0.0000001
 44
0.0000000001
 40
0.0
 40
0.0
 40
0.0
 40
0.0
 40
0.0253981006
 40
0.0514724245
 40
0.0782124651
 40
0.1056094094
 40
0.1336481125
 40
0.1623081632
 40
0.1915655382
 40
0.221392696
 40
0.2517586231
 40
0.2826292715
 40
0.3457284245
 40
0.4103771318
 40
0.4762242375
 40
0.5428963294
 40
0.6100051472
 40
0.6771547115
 40
0.7439483358
 40
0.809995606
 40
0.8749194623
 40
0.938363545
 40
1.0
 40
1.0
 40
1.0
 40
1.0
 10
15.0647852034
 20
13.4367857785
 30
0.0
 10
15.06523772
 20
13.436121221
 30
0.0
 10
15.066187881
 20
13.434796662
 30
0.0
 10
15.0677219667
 20
13.4328523516
 30
0.0
 10
15.0693804105
 20
13.4309286162
 30
0.0
 10
15.0711594413
 20
13.4290297684
 30
0.0
 10
15.0730551786
 20
13.4271598693
 30
0.0
 10
15.0750634905
 20
13.4253230526
 30
0.0
 10
15.0771799368
 20
13.423523318
 30
0.0
 10
15.0793998735
 20
13.4217646205
 30
0.0
 10
15.0817184538
 20
13.4200508018
 30
0.0
 10
15.0849580026
 20
13.4178144244
 30
0.0
 10
15.0892232455
 20
13.415158419
 30
0.0
 10
15.0946108789
 20
13.4122307741
 30
0.0
 10
15.1002580958
 20
13.4095650692
 30
0.0
 10
15.1061153606
 20
13.4071846888
 30
0.0
 10
15.1121314789
 20
13.4051104383
 30
0.0
 10
15.1182537885
 20
13.4033604749
 30
0.0
 10
15.1244287207
 20
13.4019501069
 30
0.0
 10
15.1306022229
 20
13.4008916733
 30
0.0
 10
15.1367204134
 20
13.4001944384
 30
0.0
 10
15.1427294866
 20
13.3998645064
 30
0.0
 10
15.1466921094
 20
13.3998918233
 30
0.0
 10
15.1486416671
 20
13.3999705359
 30
0.0
  0
SPLINE
  5
311
100
AcDbEntity
  8
LAYER_FEATURE
100
AcDbSpline
 62
7
  6
CONTINUOUS
 70
0
 71
3
 72
25
 73
21
 74
0
 42
0.0000001
 43
0.0000001
 44
0.0000000001
 40
0.0
 40
0.0
 40
0.0
 40
0.0
 40
0.025858122
 40
0.0525437477
 40
0.0800363889
 40
0.1083181911
 40
0.1671255142
 40
0.2286788117
 40
0.2925842325
 40
0.3583761236
 40
0.4255359358
 40
0.4935086094
 40
0.5617181432
 40
0.629582526
 40
0.6965285067
 40
0.7620066684
 40
0.8255068933
 40
0.8865758885
 40
0.9448338916
 40
1.0
 40
1.0
 40
1.0
 40
1.0
 10
15.0647852034
 20
13.4367857785
 30
0.0
 10
15.0646248548
 20
13.4370212636
 30
0.0
 10
15.0642848509
 20
13.4374902527
 30
0.0
 10
15.0637290298
 20
13.4381753234
 30
0.0
 10
15.0631210109
 20
13.4388509111
 30
0.0
 10
15.0622319319
 20
13.4397477154
 30
0.0
 10
15.0609995179
 20
13.4408296911
 30
0.0
 10
15.0593671671
 20
13.4420401557
 30
0.0
 10
15.0575827468
 20
13.443164371
 30
0.0
 10
15.0556687538
 20
13.4441881884
 30
0.0
 10
15.0536492182
 20
13.44509878
 30
0.0
 10
15.0515495694
 20
13.4458846796
 30
0.0
 10
15.0493962566
 20
13.4465359889
 30
0.0
 10
15.0472164136
 20
13.4470444997
 30
0.0
 10
15.0450375001
 20
13.447403808
 30
0.0
 10
15.0428869294
 20
13.4476093831
 30
0.0
 10
15.0407917357
 20
13.4476586377
 30
0.0
 10
15.0387780925
 20
13.4475508735
 30
0.0
 10
15.0368714091
 20
13.4472874295
 30
0.0
 10
15.0356523338
 20
13.447001787
 30
0.0
 10
15.035068856
 20
13.4468315738
 30
0.0
  0
SPLINE
  5
312
100
AcDbEntity
  8
LAYER_FEATURE
100
AcDbSpline
 62
7
  6
CONTINUOUS
 70
0
 71
3
 72
19
 73
15
 74
0
 42
0.0000001
 43
0.0000001
 44
0.0000000001
 40
0.0
 40
0.0
 40
0.0
 40
0.0
 40
0.1445394292
 40
0.282345134
 40
0.3488089196
 40
0.4137106949
 40
0.4771231525
 40
0.5391316313
 40
0.6593045241
 40
0.7752921711
 40
0.8321308187
 40
0.8884053881
 40
0.9442988522
 40
1.0
 40
1.0
 40
1.0
 40
1.0
 10
14.9987183592
 20
13.4351648605
 30
0.0
 10
14.998334125
 20
13.4350297494
 30
0.0
 10
14.9975935958
 20
13.4347359205
 30
0.0
 10
14.9967144891
 20
13.4342928404
 30
0.0
 10
14.9960642216
 20
13.4339018031
 30
0.0
 10
14.9956088605
 20
13.433594916
 30
0.0
 10
14.9951807356
 20
13.4332714227
 30
0.0
 10
14.9946528317
 20
13.4328234515
 30
0.0
 10
14.9940607843
 20
13.4322241524
 30
0.0
 10
14.9935589288
 20
13.431565236
 30
0.0
 10
14.9932223941
 20
13.4310137894
 30
0.0
 10
14.9930030426
 20
13.4305906055
 30
0.0
 10
14.9928154923
 20
13.4301559249
 30
0.0
 10
14.9927118036
 20
13.4298587098
 30
0.0
 10
14.9926654641
 20
13.4297087462
 30
0.0
  0
SPLINE
  5
313
100
AcDbEntity
  8
LAYER_FEATURE
100
AcDbSpline
 62
7
  6
CONTINUOUS
 70
0
 71
3
 72
23
 73
19
 74
0
 42
0.0000001
 43
0.0000001
 44
0.0000000001
 40
0.0
 40
0.0
 40
0.0
 40
0.0
 40
0.0562721356
 40
0.1139220221
 40
0.1728516913
 40
0.2329641394
 40
0.2941469576
 40
0.356280831
 40
0.4192394575
 40
0.4828903924
 40
0.5470964121
 40
0.6117164029
 40
0.6766064759
 40
0.7416209424
 40
0.8066132539
 40
0.8714370142
 40
0.935946979
 40
1.0
 40
1.0
 40
1.0
 40
1.0
 10
14.9135685061
 20
13.3745630046
 30
0.0
 10
14.9144088254
 20
13.3737982964
 30
0.0
 10
14.9161458462
 20
13.3722890796
 30
0.0
 10
14.9188773951
 20
13.3701152026
 30
0.0
 10
14.9217588029
 20
13.3680099577
 30
0.0
 10
14.9247802679
 20
13.3659804368
 30
0.0
 10
14.9279317861
 20
13.3640333922
 30
0.0
 10
14.9312027847
 20
13.3621753338
 30
0.0
 10
14.9345823251
 20
13.3604124671
 30
0.0
 10
14.9380591056
 20
13.3587506926
 30
0.0
 10
14.941621494
 20
13.3571955768
 30
0.0
 10
14.9452575649
 20
13.3557523162
 30
0.0
 10
14.948955147
 20
13.3544257394
 30
0.0
 10
14.9527018663
 20
13.3532202895
 30
0.0
 10
14.9564851784
 20
13.3521400098
 30
0.0
 10
14.9602924329
 20
13.3511885056
 30
0.0
 10
14.9641108253
 20
13.3503689686
 30
0.0
 10
14.9666664152
 20
13.349910434
 30
0.0
 10
14.9679431362
 20
13.3497040941
 30
0.0
  0
SPLINE
  5
314
100
AcDbEntity
  8
LAYER_FEATURE
100
AcDbSpline
 62
7
  6
CONTINUOUS
 70
0
 71
3
 72
25
 73
21
 74
0
 42
0.0000001
 43
0.0000001
 44
0.0000000001
 40
0.0
 40
0.0
 40
0.0
 40
0.0
 40
0.0604121327
 40
0.1234820953
 40
0.1887876085
 40
0.2558375
 40
0.3240940647
 40
0.3929872655
 40
0.4619309501
 40
0.5303376355
 40
0.5976335585
 40
0.6632740117
 40
0.7267595068
 40
0.7876533689
 40
0.8456011857
 40
0.8733964198
 40
0.9003718898
 40
0.9265163664
 40
0.9518319737
 40
1.0
 40
1.0
 40
1.0
 40
1.0
 10
14.9135685061
 20
13.3745630046
 30
0.0
 10
14.9130818135
 20
13.3750059051
 30
0.0
 10
14.9120457384
 20
13.3758666181
 30
0.0
 10
14.9103622874
 20
13.3770509198
 30
0.0
 10
14.9085337191
 20
13.3781443915
 30
0.0
 10
14.906583141
 20
13.379133181
 30
0.0
 10
14.9045350511
 20
13.3800049098
 30
0.0
 10
14.9024152461
 20
13.3807485882
 30
0.0
 10
14.900250433
 20
13.381354851
 30
0.0
 10
14.8980678905
 20
13.3818160577
 30
0.0
 10
14.8958951005
 20
13.3821263994
 30
0.0
 10
14.893759404
 20
13.3822819658
 30
0.0
 10
14.8916875633
 20
13.382280777
 30
0.0
 10
14.889705662
 20
13.3821227973
 30
0.0
 10
14.8881279087
 20
13.3818584218
 30
0.0
 10
14.8869346515
 20
13.3815672783
 30
0.0
 10
14.8860898163
 20
13.381314697
 30
0.0
 10
14.8852852902
 20
13.3810256049
 30
0.0
 10
14.8842866926
 20
13.3805999214
 30
0.0
 10
14.8835793426
 20
13.3802187747
 30
0.0
 10
14.8831367783
 20
13.3799369499
 30
0.0
  0
SPLINE
  5
315
100
AcDbEntity
  8
LAYER_FEATURE
100
AcDbSpline
 62
7
  6
CONTINUOUS
 70
0
 71
3
 72
14
 73
10
 74
0
 42
0.0000001
 43
0.0000001
 44
0.0000000001
 40
0.0
 40
0.0
 40
0.0
 40
0.0
 40
0.264811024
 40
0.3924556242
 40
0.5173810531
 40
0.6400658773
 40
0.7610265672
 40
0.8808113403
 40
1.0
 40
1.0
 40
1.0
 40
1.0
 10
14.8561056968
 20
13.3613182829
 30
0.0
 10
14.8557690074
 20
13.3610673573
 30
0.0
 10
14.8552929448
 20
13.360662358
 30
0.0
 10
14.8547308302
 20
13.3600639716
 30
0.0
 10
14.8543575803
 20
13.3595997207
 30
0.0
 10
14.8540287048
 20
13.3591158239
 30
0.0
 10
14.8537449653
 20
13.3586134354
 30
0.0
 10
14.8535071694
 20
13.3580938581
 30
0.0
 10
14.8533795383
 20
13.3577364677
 30
0.0
 10
14.8533237351
 20
13.3575558972
 30
0.0
  0
SPLINE
  5
316
100
AcDbEntity
  8
LAYER_FEATURE
100
AcDbSpline
 62
7
  6
CONTINUOUS
 70
0
 71
3
 72
11
 73
7
 74
0
 42
0.0000001
 43
0.0000001
 44
0.0000000001
 40
0.0
 40
0.0
 40
0.0
 40
0.0
 40
0.2439888452
 40
0.4927430372
 40
0.7451414593
 40
1.0
 40
1.0
 40
1.0
 40
1.0
 10
14.8069460764
 20
13.2827133907
 30
0.0
 10
14.80850265
 20
13.2817526068
 30
0.0
 10
14.8117004651
 20
13.2798988998
 30
0.0
 10
14.8166756261
 20
13.277352899
 30
0.0
 10
14.8218474495
 20
13.2750283879
 30
0.0
 10
14.8253905852
 20
13.2736418847
 30
0.0
 10
14.8271862871
 20
13.2729890037
 30
0.0
  0
SPLINE
  5
317
100
AcDbEntity
  8
LAYER_FEATURE
100
AcDbSpline
 62
7
  6
CONTINUOUS
 70
0
 71
3
 72
26
 73
22
 74
0
 42
0.0000001
 43
0.0000001
 44
0.0000000001
 40
0.0
 40
0.0
 40
0.0
 40
0.0
 40
0.0689038787
 40
0.1394542902
 40
0.2110783317
 40
0.2831717986
 40
0.3551203578
 40
0.4263126833
 40
0.4961570768
 40
0.5640974609
 40
0.6296307502
 40
0.6923257835
 40
0.7518447027
 40
0.8079676716
 40
0.8347375982
 40
0.8606455236
 40
0.8857106698
 40
0.909965268
 40
0.9562083775
 40
0.9783741828
 40
1.0
 40
1.0
 40
1.0
 40
1.0
 10
14.8069460764
 20
13.2827133907
 30
0.0
 10
14.806335035
 20
13.2830905516
 30
0.0
 10
14.8050698008
 20
13.2838084934
 30
0.0
 10
14.8030852463
 20
13.2847609302
 30
0.0
 10
14.8010112481
 20
13.285592675
 30
0.0
 10
14.798874047
 20
13.2862931615
 30
0.0
 10
14.7967005491
 20
13.2868535909
 30
0.0
 10
14.7945181426
 20
13.287266893
 30
0.0
 10
14.792354303
 20
13.2875278661
 30
0.0
 10
14.7902362264
 20
13.2876332155
 30
0.0
 10
14.7881904917
 20
13.2875815918
 30
0.0
 10
14.7862426113
 20
13.2873735435
 30
0.0
 10
14.784417029
 20
13.2870115479
 30
0.0
 10
14.7829942786
 20
13.2865783023
 30
0.0
 10
14.781941519
 20
13.2861556514
 30
0.0
 10
14.7812088204
 20
13.2858086732
 30
0.0
 10
14.7805228817
 20
13.2854277276
 30
0.0
 10
14.7796872176
 20
13.2848850797
 30
0.0
 10
14.778935562
 20
13.2842712065
 30
0.0
 10
14.778289099
 20
13.283589909
 30
0.0
 10
14.7780047055
 20
13.2832320248
 30
0.0
 10
14.7778728401
 20
13.2830492605
 30
0.0
  0
SPLINE
  5
318
100
AcDbEntity
  8
LAYER_FEATURE
100
AcDbSpline
 62
7
  6
CONTINUOUS
 70
0
 71
3
 72
18
 73
14
 74
0
 42
0.0000001
 43
0.0000001
 44
0.0000000001
 40
0.0
 40
0.0
 40
0.0
 40
0.0
 40
0.1481309675
 40
0.2886131894
 40
0.4215430282
 40
0.5473293791
 40
0.6667325387
 40
0.7244193537
 40
0.7809675583
 40
0.8365743769
 40
0.891455776
 40
0.9458487014
 40
1.0
 40
1.0
 40
1.0
 40
1.0
 10
14.7342141678
 20
13.16947111
 30
0.0
 10
14.7337331427
 20
13.1693516936
 30
0.0
 10
14.732804799
 20
13.1690805749
 30
0.0
 10
14.731491396
 20
13.1685605997
 30
0.0
 10
14.7303045625
 20
13.1679419851
 30
0.0
 10
14.7292552334
 20
13.1672298331
 30
0.0
 10
14.7284945494
 20
13.1665550151
 30
0.0
 10
14.7279688523
 20
13.1659756291
 30
0.0
 10
14.7276190417
 20
13.1655270757
 30
0.0
 10
14.7273100729
 20
13.1650606824
 30
0.0
 10
14.727042709
 20
13.1645774359
 30
0.0
 10
14.7268175633
 20
13.1640784972
 30
0.0
 10
14.726695883
 20
13.1637357914
 30
0.0
 10
14.7266423931
 20
13.1635626842
 30
0.0
  0
SPLINE
  5
319
100
AcDbEntity
  8
LAYER_FEATURE
100
AcDbSpline
 62
7
  6
CONTINUOUS
 70
0
 71
3
 72
39
 73
35
 74
0
 42
0.0000001
 43
0.0000001
 44
0.0000000001
 40
0.0
 40
0.0
 40
0.0
 40
0.0
 40
0.0475541037
 40
0.093823212
 40
0.1387503374
 40
0.182294825
 40
0.2244199762
 40
0.2650935667
 40
0.3042918272
 40
0.3419989001
 40
0.3782079062
 40
0.4129223347
 40
0.4461570225
 40
0.4779402622
 40
0.5083149268
 40
0.5373408024
 40
0.5650965168
 40
0.5916812141
 40
0.6172166643
 40
0.6418477184
 40
0.6657424174
 40
0.6890900571
 40
0.7120972824
 40
0.7349824428
 40
0.7579681852
 40
0.7812735818
 40
0.8051067121
 40
0.8296587938
 40
0.8550999193
 40
0.8815773811
 40
0.9092150023
 40
0.9381141223
 40
0.9683553441
 40
1.0
 40
1.0
 40
1.0
 40
1.0
 10
15.8101962422
 20
12.0719856158
 30
0.0
 10
15.810632607
 20
12.0733976926
 30
0.0
 10
15.8115268324
 20
12.0761735535
 30
0.0
 10
15.8129533633
 20
12.0802435751
 30
0.0
 10
15.8144448038
 20
12.084157257
 30
0.0
 10
15.8159984857
 20
12.0879076576
 30
0.0
 10
15.8176117153
 20
12.0914883815
 30
0.0
 10
15.8192817516
 20
12.0948932101
 30
0.0
 10
15.8210056667
 20
12.0981162518
 30
0.0
 10
15.8227805189
 20
12.1011519377
 30
0.0
 10
15.8246032747
 20
12.1039950315
 30
0.0
 10
15.8264708145
 20
12.1066406445
 30
0.0
 10
15.8283800263
 20
12.1090841937
 30
0.0
 10
15.8303276817
 20
12.1113214859
 30
0.0
 10
15.8323105881
 20
12.1133486187
 30
0.0
 10
15.8343254976
 20
12.1151620312
 30
0.0
 10
15.8363691249
 20
12.1167584919
 30
0.0
 10
15.8384381992
 20
12.1181349899
 30
0.0
 10
15.840529313
 20
12.1192888714
 30
0.0
 10
15.8426390005
 20
12.1202176634
 30
0.0
 10
15.8447635801
 20
12.1209192241
 30
0.0
 10
15.8468991356
 20
12.121391797
 30
0.0
 10
15.8490415104
 20
12.1216340096
 30
0.0
 10
15.8511863243
 20
12.1216452155
 30
0.0
 10
15.8533291273
 20
12.1214253285
 30
0.0
 10
15.8554655294
 20
12.1209750188
 30
0.0
 10
15.8575913512
 20
12.1202955676
 30
0.0
 10
15.8597026353
 20
12.1193886692
 30
0.0
 10
15.8617957146
 20
12.1182565006
 30
0.0
 10
15.8638670616
 20
12.1169014265
 30
0.0
 10
15.8659132997
 20
12.115326148
 30
0.0
 10
15.8679311493
 20
12.1135335963
 30
0.0
 10
15.8699172396
 20
12.1115270451
 30
0.0
 10
15.8711887279
 20
12.110082308
 30
0.0
 10
15.8718189534
 20
12.1093272613
 30
0.0
  0
SPLINE
  5
31A
100
AcDbEntity
  8
LAYER_CHAMFER_FEAT
100
AcDbSpline
 62
7
  6
CONTINUOUS
 70
0
 71
3
 72
85
 73
81
 74
0
 42
0.0000001
 43
0.0000001
 44
0.0000000001
 40
0.0
 40
0.0
 40
0.0
 40
0.0
 40
0.0157578112
 40
0.0311471368
 40
0.0461642943
 40
0.0608083644
 40
0.0750814002
 40
0.0889886476
 40
0.1025387703
 40
0.1091842536
 40
0.1157453794
 40
0.1286219447
 40
0.1411898224
 40
0.1534730768
 40
0.1654998013
 40
0.171427731
 40
0.1773038425
 40
0.1831327152
 40
0.1889191198
 40
0.1946680228
 40
0.2003845665
 40
0.206074036
 40
0.2117418551
 40
0.2173935469
 40
0.2230347153
 40
0.2286710172
 40
0.2343081323
 40
0.2399517375
 40
0.2456074755
 40
0.2512809332
 40
0.2569776042
 40
0.2627028763
 40
0.2684619988
 40
0.2742600585
 40
0.2801019768
 40
0.2859924647
 40
0.2919360341
 40
0.2979369743
 40
0.3039993294
 40
0.3163216959
 40
0.3289323739
 40
0.3353540393
 40
0.3418562556
 40
0.3551100092
 40
0.3687105849
 40
0.3826697398
 40
0.3969956348
 40
0.4116930496
 40
0.4267636021
 40
0.442205961
 40
0.4580160598
 40
0.4741873195
 40
0.4907108486
 40
0.507575629
 40
0.5247686838
 40
0.5422752557
 40
0.5600789689
 40
0.5781619762
 40
0.5965050928
 40
0.6150879304
 40
0.6338890333
 40
0.6528859988
 40
0.6720555918
 40
0.6913738542
 40
0.7108162222
 40
0.7303576341
 40
0.7499726338
 40
0.7696354724
 40
0.7893202137
 40
0.8090008377
 40
0.82865134
 40
0.8482458321
 40
0.8677586457
 40
0.8871644428
 40
0.906438298
 40
0.9255558341
 40
0.944493355
 40
0.9632276247
 40
0.9817372587
 40
1.0
 40
1.0
 40
1.0
 40
1.0
 10
15.037807491
 20
11.9213142815
 30
0.0
 10
15.0344955992
 20
11.9205353932
 30
0.0
 10
15.0279779028
 20
11.9188703898
 30
0.0
 10
15.0184260708
 20
11.9160131755
 30
0.0
 10
15.0092312879
 20
11.9128308281
 30
0.0
 10
15.0004117706
 20
11.9093295343
 30
0.0
 10
14.9919847192
 20
11.9055159892
 30
0.0
 10
14.9839668521
 20
11.9013976128
 30
0.0
 10
14.9775983696
 20
11.8976942756
 30
0.0
 10
14.9727285835
 20
11.8945851128
 30
0.0
 10
14.9680688293
 20
11.8914214942
 30
0.0
 10
14.9625208721
 20
11.8872944656
 30
0.0
 10
14.9562888413
 20
11.8820409061
 30
0.0
 10
14.9505366256
 20
11.8765275414
 30
0.0
 10
14.9461312223
 20
11.8717017977
 30
0.0
 10
14.9428650596
 20
11.8677249737
 30
0.0
 10
14.9405537179
 20
11.8646987404
 30
0.0
 10
14.9383702644
 20
11.8616163744
 30
0.0
 10
14.9363157735
 20
11.8584793376
 30
0.0
 10
14.9343912888
 20
11.855289183
 30
0.0
 10
14.9325977288
 20
11.8520475053
 30
0.0
 10
14.9309360441
 20
11.8487558767
 30
0.0
 10
14.9294070212
 20
11.8454159497
 30
0.0
 10
14.9280114331
 20
11.8420293714
 30
0.0
 10
14.9267500054
 20
11.8385978106
 30
0.0
 10
14.9256233114
 20
11.8351229893
 30
0.0
 10
14.9246319667
 20
11.8316066128
 30
0.0
 10
14.9237764316
 20
11.828050438
 30
0.0
 10
14.9230571173
 20
11.8244562301
 30
0.0
 10
14.9224744246
 20
11.8208257655
 30
0.0
 10
14.9220285745
 20
11.8171608551
 30
0.0
 10
14.9217198275
 20
11.8134633094
 30
0.0
 10
14.9215483174
 20
11.809734964
 30
0.0
 10
14.9215140891
 20
11.8059776634
 30
0.0
 10
14.9216172077
 20
11.802193268
 30
0.0
 10
14.9218575542
 20
11.7983836435
 30
0.0
 10
14.9222350254
 20
11.7945506824
 30
0.0
 10
14.9227494445
 20
11.790696236
 30
0.0
 10
14.9236221642
 20
11.7855031357
 30
0.0
 10
14.9250606192
 20
11.7789621859
 30
0.0
 10
14.9269317631
 20
11.7724514624
 30
0.0
 10
14.9286917234
 20
11.7672260678
 30
0.0
 10
14.9306530779
 20
11.761924549
 30
0.0
 10
14.9334440719
 20
11.7552808826
 30
0.0
 10
14.9372969721
 20
11.7473513636
 30
0.0
 10
14.9416670893
 20
11.7394294636
 30
0.0
 10
14.9465456441
 20
11.7315307815
 30
0.0
 10
14.9519229908
 20
11.7236706339
 30
0.0
 10
14.957788516
 20
11.7158643442
 30
0.0
 10
14.9641306724
 20
11.708127125
 30
0.0
 10
14.9709369799
 20
11.7004740653
 30
0.0
 10
14.9781940674
 20
11.6929201072
 30
0.0
 10
14.9858876906
 20
11.6854800141
 30
0.0
 10
14.9940027567
 20
11.6781683445
 30
0.0
 10
15.002523335
 20
11.6709994048
 30
0.0
 10
15.0114327009
 20
11.6639872328
 30
0.0
 10
15.0207133705
 20
11.6571455697
 30
0.0
 10
15.0303471341
 20
11.6504878342
 30
0.0
 10
15.0403150821
 20
11.644027087
 30
0.0
 10
15.0505976402
 20
11.6377759977
 30
0.0
 10
15.061174619
 20
11.6317468344
 30
0.0
 10
15.0720252512
 20
11.6259514349
 30
0.0
 10
15.0831282321
 20
11.6204011857
 30
0.0
 10
15.0944617513
 20
11.6151069808
 30
0.0
 10
15.1060035458
 20
11.6100792151
 30
0.0
 10
15.1177309445
 20
11.6053277646
 30
0.0
 10
15.1296209127
 20
11.6008619692
 30
0.0
 10
15.1416500927
 20
11.5966906036
 30
0.0
 10
15.1537948499
 20
11.5928218553
 30
0.0
 10
15.166031325
 20
11.5892633239
 30
0.0
 10
15.1783354797
 20
11.5860220027
 30
0.0
 10
15.1906831435
 20
11.5831042677
 30
0.0
 10
15.2030500583
 20
11.5805158429
 30
0.0
 10
15.2154119296
 20
11.578261811
 30
0.0
 10
15.2277444752
 20
11.5763465986
 30
0.0
 10
15.2400234851
 20
11.5747739723
 30
0.0
 10
15.2522247919
 20
11.5735470416
 30
0.0
 10
15.2643245845
 20
11.5726681598
 30
0.0
 10
15.2762988292
 20
11.5721391361
 30
0.0
 10
15.2842387709
 20
11.5720194877
 30
0.0
 10
15.2881818556
 20
11.5720194877
 30
0.0
  0
SPLINE
  5
31B
100
AcDbEntity
  8
02___PRT_ALL_AXES
100
AcDbSpline
 62
7
  6
CONTINUOUS
 70
0
 71
3
 72
71
 73
67
 74
0
 42
0.0000001
 43
0.0000001
 44
0.0000000001
 40
0.0
 40
0.0
 40
0.0
 40
0.0
 40
0.0171788556
 40
0.0345304374
 40
0.0520444464
 40
0.0697101518
 40
0.0875165
 40
0.1054521073
 40
0.1235053052
 40
0.1416641654
 40
0.1599165303
 40
0.1782500416
 40
0.1966521683
 40
0.2151102348
 40
0.2336114485
 40
0.2521429266
 40
0.2706917237
 40
0.2892448585
 40
0.3077893408
 40
0.3263121982
 40
0.3448005031
 40
0.3632413998
 40
0.3816221313
 40
0.399930067
 40
0.4181527304
 40
0.4362778264
 40
0.4542932706
 40
0.4721872176
 40
0.4899480904
 40
0.5075646109
 40
0.5250258302
 40
0.5423211607
 40
0.5594404086
 40
0.5763738073
 40
0.5931120525
 40
0.6096463382
 40
0.6259683944
 40
0.6420705261
 40
0.6579456539
 40
0.673587357
 40
0.6889899177
 40
0.7041483674
 40
0.719058536
 40
0.7337171022
 40
0.7481216465
 40
0.7622707059
 40
0.7761638304
 40
0.7898016407
 40
0.8031858872
 40
0.8163195082
 40
0.8292066877
 40
0.8418529106
 40
0.8542650138
 40
0.8664512308
 40
0.8784212286
 40
0.8901861315
 40
0.9017585319
 40
0.9131524817
 40
0.9243834627
 40
0.9354683325
 40
0.946425243
 40
0.9572735301
 40
0.9680335737
 40
0.9787266298
 40
0.9893746366
 40
1.0
 40
1.0
 40
1.0
 40
1.0
 10
15.0098311523
 20
12.1392385838
 30
0.0
 10
15.0160571066
 20
12.1392385838
 30
0.0
 10
15.0285720145
 20
12.1391015956
 30
0.0
 10
15.0474254481
 20
12.1384928881
 30
0.0
 10
15.0664382712
 20
12.1374805263
 30
0.0
 10
15.0855905863
 20
12.1360655629
 30
0.0
 10
15.1048624893
 20
12.1342494735
 30
0.0
 10
15.1242339167
 20
12.1320341481
 30
0.0
 10
15.1436847087
 20
12.1294218937
 30
0.0
 10
15.16319462
 20
12.1264154293
 30
0.0
 10
15.1827433437
 20
12.1230178847
 30
0.0
 10
15.2023105313
 20
12.1192327965
 30
0.0
 10
15.2218758151
 20
12.1150641048
 30
0.0
 10
15.2414188284
 20
12.1105161489
 30
0.0
 10
15.2609192276
 20
12.1055936633
 30
0.0
 10
15.2803567133
 20
12.1003017719
 30
0.0
 10
15.2997110512
 20
12.0946459838
 30
0.0
 10
15.3189620934
 20
12.0886321864
 30
0.0
 10
15.3380897998
 20
12.0822666402
 30
0.0
 10
15.3570742584
 20
12.0755559716
 30
0.0
 10
15.3758957067
 20
12.0685071664
 30
0.0
 10
15.394534552
 20
12.0611275622
 30
0.0
 10
15.4129713919
 20
12.0534248409
 30
0.0
 10
15.4311870349
 20
12.0454070207
 30
0.0
 10
15.4491625198
 20
12.0370824472
 30
0.0
 10
15.466879136
 20
12.0284597852
 30
0.0
 10
15.484318443
 20
12.0195480094
 30
0.0
 10
15.5014622895
 20
12.0103563948
 30
0.0
 10
15.5182928323
 20
12.000894507
 30
0.0
 10
15.5347925551
 20
11.9911721924
 30
0.0
 10
15.5509442865
 20
11.9811995672
 30
0.0
 10
15.5667312182
 20
11.9709870071
 30
0.0
 10
15.5821369221
 20
11.9605451364
 30
0.0
 10
15.5971453679
 20
11.9498848163
 30
0.0
 10
15.6117409391
 20
11.9390171339
 30
0.0
 10
15.6259084496
 20
11.9279533897
 30
0.0
 10
15.6396331592
 20
11.9167050863
 30
0.0
 10
15.6529007889
 20
11.9052839155
 30
0.0
 10
15.6656975352
 20
11.8937017462
 30
0.0
 10
15.6780100846
 20
11.8819706115
 30
0.0
 10
15.6898256267
 20
11.8701026958
 30
0.0
 10
15.7011318669
 20
11.8581103222
 30
0.0
 10
15.7119170392
 20
11.8460059385
 30
0.0
 10
15.7221699169
 20
11.8338021048
 30
0.0
 10
15.7318798239
 20
11.8215114798
 30
0.0
 10
15.7410366443
 20
11.8091468077
 30
0.0
 10
15.749630832
 20
11.7967209047
 30
0.0
 10
15.7576534192
 20
11.7842466466
 30
0.0
 10
15.7650960237
 20
11.7717369552
 30
0.0
 10
15.7719508563
 20
11.7592047864
 30
0.0
 10
15.7782107271
 20
11.7466631182
 30
0.0
 10
15.7838690512
 20
11.7341249388
 30
0.0
 10
15.7889198538
 20
11.7216032362
 30
0.0
 10
15.7933577759
 20
11.7091109876
 30
0.0
 10
15.7971780788
 20
11.6966611505
 30
0.0
 10
15.8003766497
 20
11.6842666532
 30
0.0
 10
15.8029500078
 20
11.6719403866
 30
0.0
 10
15.8048953108
 20
11.6596951962
 30
0.0
 10
15.8062103627
 20
11.647543873
 30
0.0
 10
15.8068936223
 20
11.6354991434
 30
0.0
 10
15.8069442139
 20
11.6235736623
 30
0.0
 10
15.8063619328
 20
11.6117799846
 30
0.0
 10
15.805147272
 20
11.6001306046
 30
0.0
 10
15.803301368
 20
11.5886377361
 30
0.0
 10
15.800826237
 20
11.5773140364
 30
0.0
 10
15.7987572963
 20
11.5698819196
 30
0.0
 10
15.7976203452
 20
11.5662027469
 30
0.0
  0
SPLINE
  5
31C
100
AcDbEntity
  8
LAYER_FEATURE
100
AcDbSpline
 62
7
  6
CONTINUOUS
 70
0
 71
3
 72
71
 73
67
 74
0
 42
0.0000001
 43
0.0000001
 44
0.0000000001
 40
0.0
 40
0.0
 40
0.0
 40
0.0
 40
0.0176368375
 40
0.0357022354
 40
0.054170857
 40
0.0730199998
 40
0.092225037
 40
0.1117597156
 40
0.1315970728
 40
0.1517093884
 40
0.1720680716
 40
0.1926438722
 40
0.2343256365
 40
0.2765122722
 40
0.3189545619
 40
0.361400671
 40
0.4035987242
 40
0.4452993829
 40
0.4862584702
 40
0.5063865273
 40
0.5262413462
 40
0.5457951088
 40
0.5650207958
 40
0.5838923581
 40
0.6023848314
 40
0.6204743486
 40
0.6381384276
 40
0.6553559291
 40
0.672107313
 40
0.6883747957
 40
0.7041424127
 40
0.7193964261
 40
0.734125342
 40
0.748320322
 40
0.7619754764
 40
0.7750881042
 40
0.7876593314
 40
0.7996943651
 40
0.8112032098
 40
0.8222012705
 40
0.8327099405
 40
0.8427575278
 40
0.8476201748
 40
0.852381655
 40
0.8616224119
 40
0.8705340513
 40
0.8791772823
 40
0.8834207759
 40
0.8876234312
 40
0.891794791
 40
0.89594467
 40
0.9000830632
 40
0.9042200759
 40
0.9083658235
 40
0.9125303406
 40
0.916723505
 40
0.9209549313
 40
0.9252339075
 40
0.9295693557
 40
0.9384406267
 40
0.9476332342
 40
0.9572006618
 40
0.967187966
 40
0.9776319318
 40
0.9885618374
 40
1.0
 40
1.0
 40
1.0
 40
1.0
 10
15.8101962422
 20
12.0719856158
 30
0.0
 10
15.8097476714
 20
12.0705340401
 30
0.0
 10
15.8088756423
 20
12.0675843733
 30
0.0
 10
15.8076559724
 20
12.0630797134
 30
0.0
 10
15.8065106746
 20
12.0584479168
 30
0.0
 10
15.8054417747
 20
12.0536972467
 30
0.0
 10
15.8044510954
 20
12.0488359094
 30
0.0
 10
15.8035404146
 20
12.0438723955
 30
0.0
 10
15.8027113003
 20
12.0388154036
 30
0.0
 10
15.801965223
 20
12.0336737748
 30
0.0
 10
15.8013034816
 20
12.0284564805
 30
0.0
 10
15.800531886
 20
12.0213812481
 30
0.0
 10
15.7997880208
 20
12.0124129351
 30
0.0
 10
15.7992500071
 20
12.0015434403
 30
0.0
 10
15.7990666511
 20
11.9905962907
 30
0.0
 10
15.799239237
 20
11.9796480085
 30
0.0
 10
15.7997665515
 20
11.9687749711
 30
0.0
 10
15.8006448847
 20
11.95805318
 30
0.0
 10
15.8016700286
 20
11.9492561801
 30
0.0
 10
15.8026637441
 20
11.9423543742
 30
0.0
 10
15.8034878807
 20
11.937291995
 30
0.0
 10
15.8043936665
 20
11.932322581
 30
0.0
 10
15.8053795419
 20
11.9274548049
 30
0.0
 10
15.8064437744
 20
11.9226971792
 30
0.0
 10
15.8075844841
 20
11.918058014
 30
0.0
 10
15.8087997014
 20
11.9135454186
 30
0.0
 10
15.8100872681
 20
11.9091672672
 30
0.0
 10
15.8114449517
 20
11.9049312054
 30
0.0
 10
15.8128703756
 20
11.9008446222
 30
0.0
 10
15.8143610328
 20
11.8969146369
 30
0.0
 10
15.8159143547
 20
11.8931481044
 30
0.0
 10
15.817527602
 20
11.8895515684
 30
0.0
 10
15.8191979951
 20
11.8861312877
 30
0.0
 10
15.8209226372
 20
11.8828932001
 30
0.0
 10
15.8226985333
 20
11.8798429104
 30
0.0
 10
15.8245226695
 20
11.876985718
 30
0.0
 10
15.8263918948
 20
11.8743265461
 30
0.0
 10
15.8283030732
 20
11.8718700071
 30
0.0
 10
15.830252987
 20
11.8696203638
 30
0.0
 10
15.8322384077
 20
11.8675814977
 30
0.0
 10
15.8342560192
 20
11.865757108
 30
0.0
 10
15.8359800101
 20
11.8644036207
 30
0.0
 10
15.8373713404
 20
11.863435518
 30
0.0
 10
15.8387413572
 20
11.8625608134
 30
0.0
 10
15.8404694879
 20
11.861601532
 30
0.0
 10
15.8425825747
 20
11.8606647477
 30
0.0
 10
15.8443673898
 20
11.8600704413
 30
0.0
 10
15.8457960507
 20
11.8597130294
 30
0.0
 10
15.8468631794
 20
11.8595038814
 30
0.0
 10
15.8479318206
 20
11.8593521852
 30
0.0
 10
15.8490015127
 20
11.8592579795
 30
0.0
 10
15.8500717623
 20
11.8592213325
 30
0.0
 10
15.851142079
 20
11.8592422809
 30
0.0
 10
15.8522119712
 20
11.8593207829
 30
0.0
 10
15.8532809512
 20
11.8594568003
 30
0.0
 10
15.8543485284
 20
11.8596502943
 30
0.0
 10
15.8554142152
 20
11.8599011387
 30
0.0
 10
15.8564775598
 20
11.8602092106
 30
0.0
 10
15.8579022745
 20
11.8606997639
 30
0.0
 10
15.8596789503
 20
11.861460457
 30
0.0
 10
15.8617761154
 20
11.8625924501
 30
0.0
 10
15.8638516397
 20
11.8639482156
 30
0.0
 10
15.8659019259
 20
11.8655250587
 30
0.0
 10
15.8679237468
 20
11.8673200073
 30
0.0
 10
15.8699137035
 20
11.86932977
 30
0.0
 10
15.8711875579
 20
11.870777073
 30
0.0
 10
15.8718189526
 20
11.8715335191
 30
0.0
  0
SPLINE
  5
31D
100
AcDbEntity
  8
LAYER_CHAMFER_FEAT
100
AcDbSpline
 62
7
  6
CONTINUOUS
 70
0
 71
3
 72
51
 73
47
 74
0
 42
0.0000001
 43
0.0000001
 44
0.0000000001
 40
0.0
 40
0.0
 40
0.0
 40
0.0
 40
0.0357329107
 40
0.070369635
 40
0.1039007318
 40
0.1363312974
 40
0.1676824114
 40
0.19799256
 40
0.2273189309
 40
0.2416393761
 40
0.2557444273
 40
0.2696468665
 40
0.2833607279
 40
0.2969012767
 40
0.3102849592
 40
0.3235293375
 40
0.336653007
 40
0.3496754843
 40
0.36261709
 40
0.3754987937
 40
0.3883420652
 40
0.4011686907
 40
0.4140006009
 40
0.4268596791
 40
0.4397675813
 40
0.4527455582
 40
0.465814284
 40
0.478993712
 40
0.4923029252
 40
0.5057600393
 40
0.5193820807
 40
0.5331849432
 40
0.5471832926
 40
0.5758130749
 40
0.6053700937
 40
0.6359264328
 40
0.6675346699
 40
0.7002289737
 40
0.7340264424
 40
0.7689285399
 40
0.804922536
 40
0.8419829004
 40
0.8800725978
 40
0.9191443478
 40
0.9591416425
 40
1.0
 40
1.0
 40
1.0
 40
1.0
 10
15.4310334618
 20
11.7997982652
 30
0.0
 10
15.4340123658
 20
11.796538359
 30
0.0
 10
15.439720679
 20
11.7899714823
 30
0.0
 10
15.4476176349
 20
11.7798386789
 30
0.0
 10
15.4546922556
 20
11.7696068008
 30
0.0
 10
15.4609205064
 20
11.7593097692
 30
0.0
 10
15.4662814248
 20
11.7489810898
 30
0.0
 10
15.4707564746
 20
11.738655127
 30
0.0
 10
15.4737582268
 20
11.7300116634
 30
0.0
 10
15.475690001
 20
11.7231391808
 30
0.0
 10
15.4768977675
 20
11.7180478943
 30
0.0
 10
15.4778747348
 20
11.7129836511
 30
0.0
 10
15.4786200607
 20
11.7079505988
 30
0.0
 10
15.4791330799
 20
11.7029529713
 30
0.0
 10
15.4794133146
 20
11.6979949523
 30
0.0
 10
15.4794604904
 20
11.6930807088
 30
0.0
 10
15.4792745277
 20
11.6882143779
 30
0.0
 10
15.4788555445
 20
11.6834000655
 30
0.0
 10
15.4782038696
 20
11.6786418404
 30
0.0
 10
15.47732002
 20
11.6739437317
 30
0.0
 10
15.4762047385
 20
11.6693097183
 30
0.0
 10
15.4748589444
 20
11.6647437329
 30
0.0
 10
15.4732837948
 20
11.6602496405
 30
0.0
 10
15.4714806093
 20
11.6558312553
 30
0.0
 10
15.4694509519
 20
11.6514923047
 30
0.0
 10
15.4671965344
 20
11.6472364639
 30
0.0
 10
15.4647193151
 20
11.643067302
 30
0.0
 10
15.4620213844
 20
11.6389883386
 30
0.0
 10
15.4591050793
 20
11.6350029703
 30
0.0
 10
15.45597285
 20
11.6311145462
 30
0.0
 10
15.4526274116
 20
11.6273262937
 30
0.0
 10
15.4490714976
 20
11.6236413338
 30
0.0
 10
15.4440164715
 20
11.6188343521
 30
0.0
 10
15.4371688517
 20
11.6130998668
 30
0.0
 10
15.4282260944
 20
11.6067336322
 30
0.0
 10
15.4185258558
 20
11.6008505247
 30
0.0
 10
15.4081011216
 20
11.5954696933
 30
0.0
 10
15.3969865631
 20
11.5906081995
 30
0.0
 10
15.385219157
 20
11.5862816474
 30
0.0
 10
15.3728379317
 20
11.5825039455
 30
0.0
 10
15.3598839333
 20
11.5792872991
 30
0.0
 10
15.3464000964
 20
11.5766421397
 30
0.0
 10
15.3324311499
 20
11.5745770714
 30
0.0
 10
15.3180233677
 20
11.5730988326
 30
0.0
 10
15.3032248647
 20
11.5722122433
 30
0.0
 10
15.2932312508
 20
11.5720194877
 30
0.0
 10
15.2881818556
 20
11.5720194877
 30
0.0
  0
SPLINE
  5
31E
100
AcDbEntity
  8
LAYER_FEATURE
100
AcDbSpline
 62
7
  6
CONTINUOUS
 70
0
 71
3
 72
47
 73
43
 74
0
 42
0.0000001
 43
0.0000001
 44
0.0000000001
 40
0.0
 40
0.0
 40
0.0
 40
0.0
 40
0.0396643969
 40
0.0788611884
 40
0.1175668757
 40
0.1557607819
 40
0.1934228993
 40
0.2305351391
 40
0.2670810446
 40
0.3030460247
 40
0.3384174606
 40
0.3731848366
 40
0.4073398826
 40
0.4408767177
 40
0.4737920025
 40
0.5060850986
 40
0.5377582254
 40
0.56881662
 40
0.599268697
 40
0.6291262059
 40
0.6584043795
 40
0.6728328097
 40
0.6871237917
 40
0.7153035886
 40
0.742971893
 40
0.7701589713
 40
0.7968989545
 40
0.8232297817
 40
0.8362557822
 40
0.8491954055
 40
0.8620543963
 40
0.874838697
 40
0.8875544482
 40
0.9002079575
 40
0.9128057072
 40
0.9253543221
 40
0.9378605641
 40
0.9503313127
 40
0.9627735433
 40
0.975194316
 40
0.987600748
 40
1.0
 40
1.0
 40
1.0
 40
1.0
 10
15.0362640374
 20
12.8666570298
 30
0.0
 10
15.0257542437
 20
12.8666570298
 30
0.0
 10
15.0048577238
 20
12.8664213612
 30
0.0
 10
14.9737220595
 20
12.8653472134
 30
0.0
 10
14.9430094429
 20
12.8635555872
 30
0.0
 10
14.9127548692
 20
12.8610485577
 30
0.0
 10
14.8829923121
 20
12.857828891
 30
0.0
 10
14.8537554112
 20
12.8539002208
 30
0.0
 10
14.8250771297
 20
12.8492669415
 30
0.0
 10
14.7969898184
 20
12.8439342542
 30
0.0
 10
14.7695251521
 20
12.8379081373
 30
0.0
 10
14.7427141018
 20
12.8311953414
 30
0.0
 10
14.7165869011
 20
12.8238033803
 30
0.0
 10
14.6911730133
 20
12.8157405207
 30
0.0
 10
14.6665010988
 20
12.8070157706
 30
0.0
 10
14.6425989841
 20
12.7976388771
 30
0.0
 10
14.6194936273
 20
12.7876203022
 30
0.0
 10
14.5972111233
 20
12.776971229
 30
0.0
 10
14.5757765691
 20
12.7657034761
 30
0.0
 10
14.5552144416
 20
12.7538297517
 30
0.0
 10
14.5387459918
 20
12.743390432
 30
0.0
 10
14.5260386445
 20
12.7347465522
 30
0.0
 10
14.5137605699
 20
12.7259955924
 30
0.0
 10
14.4989886004
 20
12.7147069436
 30
0.0
 10
14.482138239
 20
12.7005475129
 30
0.0
 10
14.4662662825
 20
12.6858543574
 30
0.0
 10
14.4513913832
 20
12.670644375
 30
0.0
 10
14.4397987455
 20
12.6575051384
 30
0.0
 10
14.4310506612
 20
12.6467570149
 30
0.0
 10
14.4247719505
 20
12.6386063949
 30
0.0
 10
14.4187543783
 20
12.6303402559
 30
0.0
 10
14.4129996271
 20
12.6219608535
 30
0.0
 10
14.4075093051
 20
12.6134706064
 30
0.0
 10
14.402285026
 20
12.6048718767
 30
0.0
 10
14.3973282331
 20
12.5961671308
 30
0.0
 10
14.3926403654
 20
12.5873588172
 30
0.0
 10
14.3882227609
 20
12.5784494341
 30
0.0
 10
14.3840766485
 20
12.5694415199
 30
0.0
 10
14.3802032644
 20
12.5603376142
 30
0.0
 10
14.3766036432
 20
12.5511402985
 30
0.0
 10
14.3732788946
 20
12.5418522695
 30
0.0
 10
14.3712459784
 20
12.5356006723
 30
0.0
 10
14.3702759688
 20
12.5324617293
 30
0.0
  0
SPLINE
  5
31F
100
AcDbEntity
  8
LAYER_FEATURE
100
AcDbSpline
 62
7
  6
CONTINUOUS
 70
0
 71
3
 72
47
 73
43
 74
0
 42
0.0000001
 43
0.0000001
 44
0.0000000001
 40
0.0
 40
0.0
 40
0.0
 40
0.0
 40
0.0396643969
 40
0.0788611884
 40
0.1175668757
 40
0.1557607819
 40
0.1934228993
 40
0.2305351391
 40
0.2670810446
 40
0.3030460247
 40
0.3384174606
 40
0.3731848366
 40
0.4073398826
 40
0.4408767177
 40
0.4737920025
 40
0.5060850986
 40
0.5377582254
 40
0.56881662
 40
0.599268697
 40
0.6291262059
 40
0.6584043795
 40
0.6728328097
 40
0.6871237917
 40
0.7153035886
 40
0.742971893
 40
0.7701589713
 40
0.7968989545
 40
0.8232297817
 40
0.8362557822
 40
0.8491954055
 40
0.8620543963
 40
0.874838697
 40
0.8875544482
 40
0.9002079575
 40
0.9128057072
 40
0.9253543221
 40
0.9378605641
 40
0.9503313127
 40
0.9627735433
 40
0.975194316
 40
0.987600748
 40
1.0
 40
1.0
 40
1.0
 40
1.0
 10
15.265742912
 20
13.6092509401
 30
0.0
 10
15.2552331183
 20
13.6092509401
 30
0.0
 10
15.2343365984
 20
13.6090152715
 30
0.0
 10
15.2032009341
 20
13.6079411237
 30
0.0
 10
15.1724883175
 20
13.6061494975
 30
0.0
 10
15.1422337438
 20
13.6036424681
 30
0.0
 10
15.1124711867
 20
13.6004228013
 30
0.0
 10
15.0832342858
 20
13.5964941311
 30
0.0
 10
15.0545560043
 20
13.5918608519
 30
0.0
 10
15.026468693
 20
13.5865281645
 30
0.0
 10
14.9990040266
 20
13.5805020476
 30
0.0
 10
14.9721929764
 20
13.5737892517
 30
0.0
 10
14.9460657757
 20
13.5663972906
 30
0.0
 10
14.9206518879
 20
13.5583344311
 30
0.0
 10
14.8959799734
 20
13.5496096809
 30
0.0
 10
14.8720778587
 20
13.5402327874
 30
0.0
 10
14.8489725019
 20
13.5302142125
 30
0.0
 10
14.8266899979
 20
13.5195651393
 30
0.0
 10
14.8052554437
 20
13.5082973865
 30
0.0
 10
14.7846933162
 20
13.496423662
 30
0.0
 10
14.7682248663
 20
13.4859843423
 30
0.0
 10
14.7555175191
 20
13.4773404625
 30
0.0
 10
14.7432394445
 20
13.4685895027
 30
0.0
 10
14.728467475
 20
13.4573008539
 30
0.0
 10
14.7116171136
 20
13.4431414232
 30
0.0
 10
14.6957451571
 20
13.4284482678
 30
0.0
 10
14.6808702578
 20
13.4132382853
 30
0.0
 10
14.6692776201
 20
13.4000990487
 30
0.0
 10
14.6605295358
 20
13.3893509252
 30
0.0
 10
14.6542508251
 20
13.3812003053
 30
0.0
 10
14.6482332529
 20
13.3729341662
 30
0.0
 10
14.6424785017
 20
13.3645547639
 30
0.0
 10
14.6369881797
 20
13.3560645167
 30
0.0
 10
14.6317639006
 20
13.3474657871
 30
0.0
 10
14.6268071077
 20
13.3387610411
 30
0.0
 10
14.6221192399
 20
13.3299527275
 30
0.0
 10
14.6177016355
 20
13.3210433445
 30
0.0
 10
14.613555523
 20
13.3120354302
 30
0.0
 10
14.609682139
 20
13.3029315245
 30
0.0
 10
14.6060825178
 20
13.2937342089
 30
0.0
 10
14.6027577692
 20
13.2844461798
 30
0.0
 10
14.600724853
 20
13.2781945826
 30
0.0
 10
14.5997548434
 20
13.2750556396
 30
0.0
  0
SPLINE
  5
320
100
AcDbEntity
  8
LAYER_FEATURE
100
AcDbSpline
 62
7
  6
CONTINUOUS
 70
0
 71
3
 72
97
 73
93
 74
0
 42
0.0000001
 43
0.0000001
 44
0.0000000001
 40
0.0
 40
0.0
 40
0.0
 40
0.0
 40
0.0182460724
 40
0.03674439
 40
0.0554727262
 40
0.0744075889
 40
0.093524656
 40
0.1127987683
 40
0.1322040949
 40
0.151714243
 40
0.1713023785
 40
0.1909413417
 40
0.210603762
 40
0.230262172
 40
0.249889121
 40
0.2694572883
 40
0.2889395973
 40
0.3083093307
 40
0.327540247
 40
0.3466066993
 40
0.3654837572
 40
0.3841473317
 40
0.4025743038
 40
0.4207426585
 40
0.4386316246
 40
0.4562218209
 40
0.4734954109
 40
0.4904362656
 40
0.5070301369
 40
0.5232648424
 40
0.5391304606
 40
0.5546195396
 40
0.5697273178
 40
0.5771380133
 40
0.5844529544
 40
0.5916724089
 40
0.5987968593
 40
0.6058270041
 40
0.612763778
 40
0.626360846
 40
0.633025478
 40
0.6396028908
 40
0.6525035543
 40
0.6588334521
 40
0.665086459
 40
0.6712658427
 40
0.6773751375
 40
0.6834181556
 40
0.6893989706
 40
0.6953219191
 40
0.7011915866
 40
0.707012796
 40
0.7127905959
 40
0.7185302372
 40
0.7242371598
 40
0.729916963
 40
0.7355753857
 40
0.7412182752
 40
0.7468515603
 40
0.7524812199
 40
0.758113252
 40
0.7637536419
 40
0.7694083319
 40
0.7750831881
 40
0.780783975
 40
0.7865163229
 40
0.7922857069
 40
0.7980974198
 40
0.8039565528
 40
0.809867979
 40
0.8158363327
 40
0.8218660053
 40
0.8279611244
 40
0.8341255582
 40
0.8403628993
 40
0.8530677655
 40
0.8661006752
 40
0.8794805764
 40
0.8932222108
 40
0.9002327571
 40
0.9073374316
 40
0.9145369843
 40
0.9218319389
 40
0.9292226109
 40
0.9367090999
 40
0.9442913158
 40
0.9519689674
 40
0.9597415871
 40
0.9676085254
 40
0.9755689648
 40
0.9836219275
 40
1.0
 40
1.0
 40
1.0
 40
1.0
 10
15.0690039211
 20
12.8535576224
 30
0.0
 10
15.0824010765
 20
12.8535576224
 30
0.0
 10
15.1093822687
 20
12.8531396212
 30
0.0
 10
15.1500767109
 20
12.851292066
 30
0.0
 10
15.1912046748
 20
12.8482232903
 30
0.0
 10
15.2326803686
 20
12.8439396439
 30
0.0
 10
15.2744178271
 20
12.8384500416
 30
0.0
 10
15.3163304079
 20
12.8317658717
 30
0.0
 10
15.3583311263
 20
12.8239010124
 30
0.0
 10
15.4003327991
 20
12.8148717882
 30
0.0
 10
15.4422482374
 20
12.8046969418
 30
0.0
 10
15.4839904267
 20
12.7933975953
 30
0.0
 10
15.5254727105
 20
12.7809972074
 30
0.0
 10
15.5666089702
 20
12.7675215221
 30
0.0
 10
15.6073138062
 20
12.7529985156
 30
0.0
 10
15.647502716
 20
12.7374583379
 30
0.0
 10
15.6870922705
 20
12.7209332487
 30
0.0
 10
15.726000289
 20
12.7034575505
 30
0.0
 10
15.76414601
 20
12.6850675152
 30
0.0
 10
15.8014502606
 20
12.665801308
 30
0.0
 10
15.8378356228
 20
12.6456989079
 30
0.0
 10
15.8732265938
 20
12.6248020207
 30
0.0
 10
15.907549743
 20
12.6031539899
 30
0.0
 10
15.9407338645
 20
12.5807997033
 30
0.0
 10
15.9727101245
 20
12.5577854968
 30
0.0
 10
16.0034122031
 20
12.5341590543
 30
0.0
 10
16.0327764304
 20
12.5099693031
 30
0.0
 10
16.0607419132
 20
12.4852663107
 30
0.0
 10
16.0872506691
 20
12.4601011621
 30
0.0
 10
16.1122477015
 20
12.4345258996
 30
0.0
 10
16.1356812463
 20
12.4085932218
 30
0.0
 10
16.157502351
 20
12.382357037
 30
0.0
 10
16.1744126976
 20
12.3601444095
 30
0.0
 10
16.1870782007
 20
12.3422700586
 30
0.0
 10
16.1960864298
 20
12.3289083441
 30
0.0
 10
16.2046595803
 20
12.3155122572
 30
0.0
 10
16.2127932182
 20
12.302088731
 30
0.0
 10
16.220483178
 20
12.2886445149
 30
0.0
 10
16.2300747977
 20
12.2708210486
 30
0.0
 10
16.238840219
 20
12.2528639139
 30
0.0
 10
16.2467285824
 20
12.2348024974
 30
0.0
 10
16.2539026555
 20
12.2169961057
 30
0.0
 10
16.2602080255
 20
12.1991117012
 30
0.0
 10
16.2655952187
 20
12.1811901434
 30
0.0
 10
16.2691390205
 20
12.1678749608
 30
0.0
 10
16.2722095192
 20
12.1546090142
 30
0.0
 10
16.2748050801
 20
12.1413989943
 30
0.0
 10
16.276924353
 20
12.1282518337
 30
0.0
 10
16.2785661476
 20
12.1151743522
 30
0.0
 10
16.2797295925
 20
12.1021733716
 30
0.0
 10
16.2804140323
 20
12.0892556685
 30
0.0
 10
16.2806190482
 20
12.0764279865
 30
0.0
 10
16.2803445344
 20
12.0636970291
 30
0.0
 10
16.2795905369
 20
12.051069457
 30
0.0
 10
16.2783574855
 20
12.038551879
 30
0.0
 10
16.276645926
 20
12.0261508609
 30
0.0
 10
16.274456791
 20
12.0138728994
 30
0.0
 10
16.2717911663
 20
12.0017244434
 30
0.0
 10
16.2686504567
 20
11.989711867
 30
0.0
 10
16.2650363088
 20
11.9778414732
 30
0.0
 10
16.2609505894
 20
11.966119503
 30
0.0
 10
16.2563954974
 20
11.9545520877
 30
0.0
 10
16.2513733726
 20
11.9431453178
 30
0.0
 10
16.2458869317
 20
11.9319051391
 30
0.0
 10
16.2399390128
 20
11.9208374629
 30
0.0
 10
16.2335328048
 20
11.9099480491
 30
0.0
 10
16.2266716625
 20
11.899242597
 30
0.0
 10
16.2193592135
 20
11.8887266841
 30
0.0
 10
16.2115993267
 20
11.8784057727
 30
0.0
 10
16.2033960567
 20
11.8682852537
 30
0.0
 10
16.1947537635
 20
11.8583703449
 30
0.0
 10
16.1856769289
 20
11.8486662272
 30
0.0
 10
16.1761703935
 20
11.8391779047
 30
0.0
 10
16.1662389786
 20
11.8299102375
 30
0.0
 10
16.1523536231
 20
11.8177805249
 30
0.0
 10
16.1339329017
 20
11.8031972718
 30
0.0
 10
16.1103554309
 20
11.7867653808
 30
0.0
 10
16.0852191241
 20
11.7713269366
 30
0.0
 10
16.0631653325
 20
11.759395915
 30
0.0
 10
16.0448102092
 20
11.7503669941
 30
0.0
 10
16.0305948683
 20
11.7438162977
 30
0.0
 10
16.0160306918
 20
11.7375356228
 30
0.0
 10
16.0011251054
 20
11.7315281115
 30
0.0
 10
15.9858858768
 20
11.7257969316
 30
0.0
 10
15.970320925
 20
11.7203449882
 30
0.0
 10
15.95443832
 20
11.7151751529
 30
0.0
 10
15.9382463226
 20
11.7102900543
 30
0.0
 10
15.9217533233
 20
11.7056922487
 30
0.0
 10
15.9049679245
 20
11.7013841081
 30
0.0
 10
15.8878987089
 20
11.6973678268
 30
0.0
 10
15.8646437716
 20
11.6923769795
 30
0.0
 10
15.8469973597
 20
11.689122075
 30
0.0
 10
15.8351335384
 20
11.6871562953
 30
0.0
  0
SPLINE
  5
321
100
AcDbEntity
  8
LAYER_FEATURE
100
AcDbSpline
 62
7
  6
CONTINUOUS
 70
0
 71
3
 72
71
 73
67
 74
0
 42
0.0000001
 43
0.0000001
 44
0.0000000001
 40
0.0
 40
0.0
 40
0.0
 40
0.0
 40
0.0203726499
 40
0.0405315015
 40
0.0604663487
 40
0.080168747
 40
0.0996301804
 40
0.1188428483
 40
0.1377995802
 40
0.1564938269
 40
0.1749197468
 40
0.1930722379
 40
0.2109469764
 40
0.2285404628
 40
0.2458500765
 40
0.2628741262
 40
0.2796118933
 40
0.2960636851
 40
0.3122308961
 40
0.3281160582
 40
0.3437228882
 40
0.3590563407
 40
0.3741226652
 40
0.3889294447
 40
0.4034856313
 40
0.4178015794
 40
0.4318890723
 40
0.4457613231
 40
0.4594329654
 40
0.4729200299
 40
0.4862399006
 40
0.4994112398
 40
0.5124538927
 40
0.5253887719
 40
0.5382377133
 40
0.5510233064
 40
0.5637687083
 40
0.5764974426
 40
0.5892331855
 40
0.6019995491
 40
0.6148198661
 40
0.6277169811
 40
0.6407130574
 40
0.6538294036
 40
0.6670863189
 40
0.6805029603
 40
0.6940972407
 40
0.7078857515
 40
0.7218837044
 40
0.7361048917
 40
0.7505616774
 40
0.7652650001
 40
0.7802243844
 40
0.7954479641
 40
0.8109425253
 40
0.8267135497
 40
0.8427652556
 40
0.8591006475
 40
0.875721576
 40
0.8926287912
 40
0.9098219872
 40
0.9272998587
 40
0.9450601581
 40
0.9630997442
 40
0.9814146229
 40
1.0
 40
1.0
 40
1.0
 40
1.0
 10
15.0690039211
 20
12.8535576224
 30
0.0
 10
15.060259911
 20
12.8535576224
 30
0.0
 10
15.0428631007
 20
12.8533816558
 30
0.0
 10
15.0169212856
 20
12.8525807157
 30
0.0
 10
14.9912893989
 20
12.8512447813
 30
0.0
 10
14.9659910081
 20
12.849375125
 30
0.0
 10
14.9410488688
 20
12.8469733865
 30
0.0
 10
14.9164856505
 20
12.8440417543
 30
0.0
 10
14.8923236123
 20
12.84058288
 30
0.0
 10
14.8685846549
 20
12.836599872
 30
0.0
 10
14.8452902993
 20
12.832096321
 30
0.0
 10
14.8224616537
 20
12.8270762994
 30
0.0
 10
14.8001194064
 20
12.8215443328
 30
0.0
 10
14.7782838085
 20
12.8155053946
 30
0.0
 10
14.7569746485
 20
12.8089649231
 30
0.0
 10
14.736211233
 20
12.8019288151
 30
0.0
 10
14.7160123802
 20
12.7944033986
 30
0.0
 10
14.6963964053
 20
12.7863954255
 30
0.0
 10
14.6773810916
 20
12.777912096
 30
0.0
 10
14.6589836804
 20
12.7689610347
 30
0.0
 10
14.6412208674
 20
12.7595502724
 30
0.0
 10
14.6241087904
 20
12.7496882379
 30
0.0
 10
14.6076629965
 20
12.7393837853
 30
0.0
 10
14.5918984443
 20
12.7286461594
 30
0.0
 10
14.5768295013
 20
12.7174849855
 30
0.0
 10
14.5624699315
 20
12.705910266
 30
0.0
 10
14.5488328588
 20
12.6939324054
 30
0.0
 10
14.5359307812
 20
12.6815621727
 30
0.0
 10
14.5237755653
 20
12.6688106982
 30
0.0
 10
14.5123784257
 20
12.6556894784
 30
0.0
 10
14.5017498878
 20
12.6422103897
 30
0.0
 10
14.4918998059
 20
12.628385655
 30
0.0
 10
14.4828373512
 20
12.614227841
 30
0.0
 10
14.474570975
 20
12.5997498643
 30
0.0
 10
14.4671083785
 20
12.5849649845
 30
0.0
 10
14.4604565288
 20
12.5698867721
 30
0.0
 10
14.4546216453
 20
12.5545290963
 30
0.0
 10
14.449609151
 20
12.53890612
 30
0.0
 10
14.4454236671
 20
12.5230322703
 30
0.0
 10
14.4420690322
 20
12.5069222073
 30
0.0
 10
14.4395482984
 20
12.4905908039
 30
0.0
 10
14.4378636864
 20
12.4740531289
 30
0.0
 10
14.4370166164
 20
12.4573244159
 30
0.0
 10
14.4370077287
 20
12.4404200407
 30
0.0
 10
14.4378368901
 20
12.4233555071
 30
0.0
 10
14.4395031567
 20
12.4061464283
 30
0.0
 10
14.4420048258
 20
12.3888085106
 30
0.0
 10
14.4453394494
 20
12.3713575427
 30
0.0
 10
14.4495038352
 20
12.3538093879
 30
0.0
 10
14.4544940185
 20
12.3361799644
 30
0.0
 10
14.4603053138
 20
12.3184852431
 30
0.0
 10
14.4669323198
 20
12.3007412391
 30
0.0
 10
14.4743689093
 20
12.2829640003
 30
0.0
 10
14.4826082161
 20
12.2651695874
 30
0.0
 10
14.491642677
 20
12.2473740752
 30
0.0
 10
14.501464035
 20
12.2295935421
 30
0.0
 10
14.5120633225
 20
12.2118440495
 30
0.0
 10
14.5234308662
 20
12.1941416252
 30
0.0
 10
14.5355563195
 20
12.1765022632
 30
0.0
 10
14.5484286679
 20
12.1589419106
 30
0.0
 10
14.5620362106
 20
12.1414764392
 30
0.0
 10
14.576366585
 20
12.1241216342
 30
0.0
 10
14.5914067771
 20
12.1068932014
 30
0.0
 10
14.6071431834
 20
12.0898067026
 30
0.0
 10
14.6235613926
 20
12.0728777235
 30
0.0
 10
14.6348700296
 20
12.0617868292
 30
0.0
 10
14.6406321554
 20
12.0562705853
 30
0.0
  0
SPLINE
  5
322
100
AcDbEntity
  8
LAYER_FEATURE
100
AcDbSpline
 62
7
  6
CONTINUOUS
 70
0
 71
3
 72
80
 73
76
 74
0
 42
0.0000001
 43
0.0000001
 44
0.0000000001
 40
0.0
 40
0.0
 40
0.0
 40
0.0
 40
0.0171786082
 40
0.034530198
 40
0.0520439838
 40
0.0697095606
 40
0.0875157518
 40
0.105451206
 40
0.1235042506
 40
0.1416629551
 40
0.1599151638
 40
0.1782485183
 40
0.196650488
 40
0.215108397
 40
0.2336094524
 40
0.252140772
 40
0.2706894107
 40
0.289242387
 40
0.3077867108
 40
0.3263094098
 40
0.3447975567
 40
0.363238296
 40
0.3816188704
 40
0.3999266494
 40
0.4181491568
 40
0.4362740982
 40
0.4542893888
 40
0.4721831827
 40
0.4899439032
 40
0.5075602729
 40
0.5250213434
 40
0.5423165268
 40
0.5594356282
 40
0.5763688815
 40
0.5931069834
 40
0.6096411284
 40
0.625963046
 40
0.6420650398
 40
0.6579400312
 40
0.6735816004
 40
0.68898403
 40
0.7041423511
 40
0.719052392
 40
0.733710832
 40
0.7481152528
 40
0.7622641919
 40
0.7761571985
 40
0.789794892
 40
0.8031790231
 40
0.8163125314
 40
0.8291996013
 40
0.8418457169
 40
0.8542577138
 40
0.8603787795
 40
0.8664445246
 40
0.8784144197
 40
0.8901792225
 40
0.8959889946
 40
0.9017523407
 40
0.913146193
 40
0.9243770775
 40
0.929937084
 40
0.9354627808
 40
0.9409564793
 40
0.9464205594
 40
0.9518574751
 40
0.9572697446
 40
0.962659945
 40
0.9680307113
 40
0.9733847243
 40
0.97872471
 40
0.9840534296
 40
0.9893736732
 40
0.9946882543
 40
1.0
 40
1.0
 40
1.0
 40
1.0
 10
15.0362640374
 20
12.8666570298
 30
0.0
 10
15.0464645813
 20
12.8666570298
 30
0.0
 10
15.0669690392
 20
12.866432578
 30
0.0
 10
15.0978584949
 20
12.8654352901
 30
0.0
 10
15.1290091656
 20
12.863776616
 30
0.0
 10
15.1603882862
 20
12.8614583545
 30
0.0
 10
15.1919633825
 20
12.8584828718
 30
0.0
 10
15.2237015267
 20
12.8548532816
 30
0.0
 10
15.2555697043
 20
12.8505733616
 30
0.0
 10
15.2875347432
 20
12.8456475702
 30
0.0
 10
15.3195633718
 20
12.8400810358
 30
0.0
 10
15.3516222525
 20
12.83387955
 30
0.0
 10
15.383678013
 20
12.8270495633
 30
0.0
 10
15.4156972855
 20
12.81959819
 30
0.0
 10
15.4476467396
 20
12.8115331893
 30
0.0
 10
15.4794931165
 20
12.8028629568
 30
0.0
 10
15.5112032644
 20
12.793596516
 30
0.0
 10
15.5427441714
 20
12.7837435084
 30
0.0
 10
15.5740830045
 20
12.7733141948
 30
0.0
 10
15.6051871412
 20
12.762319435
 30
0.0
 10
15.6360242028
 20
12.7507706745
 30
0.0
 10
15.666562088
 20
12.7386799335
 30
0.0
 10
15.6967690057
 20
12.7260597931
 30
0.0
 10
15.7266135135
 20
12.7129233939
 30
0.0
 10
15.7560645474
 20
12.6992844122
 30
0.0
 10
15.7850914525
 20
12.6851570446
 30
0.0
 10
15.8136640146
 20
12.6705559936
 30
0.0
 10
15.8417524917
 20
12.6554964507
 30
0.0
 10
15.869327651
 20
12.6399940916
 30
0.0
 10
15.8963607963
 20
12.624065051
 30
0.0
 10
15.9228237946
 20
12.6077259035
 30
0.0
 10
15.9486891056
 20
12.5909936476
 30
0.0
 10
15.97392981
 20
12.5738856855
 30
0.0
 10
15.9985196453
 20
12.5564198151
 30
0.0
 10
16.0224330286
 20
12.538614204
 30
0.0
 10
16.0456450798
 20
12.520487367
 30
0.0
 10
16.0681316468
 20
12.502058149
 30
0.0
 10
16.0898693303
 20
12.4833457017
 30
0.0
 10
16.1108355167
 20
12.4643694737
 30
0.0
 10
16.1310083968
 20
12.4451491823
 30
0.0
 10
16.1503669829
 20
12.4257047904
 30
0.0
 10
16.1688911302
 20
12.4060564874
 30
0.0
 10
16.1865615553
 20
12.3862246643
 30
0.0
 10
16.2033598666
 20
12.3662299016
 30
0.0
 10
16.2192685768
 20
12.3460929413
 30
0.0
 10
16.2342711134
 20
12.3258346634
 30
0.0
 10
16.2483518344
 20
12.3054760655
 30
0.0
 10
16.2614960395
 20
12.2850382412
 30
0.0
 10
16.2736899996
 20
12.2645423582
 30
0.0
 10
16.2849209513
 20
12.2440096646
 30
0.0
 10
16.2951771418
 20
12.2234613532
 30
0.0
 10
16.3044476859
 20
12.2029189565
 30
0.0
 10
16.3113755139
 20
12.1857437888
 30
0.0
 10
16.3164079509
 20
12.1720304315
 30
0.0
 10
16.3210604169
 20
12.1584608059
 30
0.0
 10
16.3262532394
 20
12.1415382019
 30
0.0
 10
16.3306385432
 20
12.1245449789
 30
0.0
 10
16.3336272057
 20
12.1110120051
 30
0.0
 10
16.336251289
 20
12.0976280779
 30
0.0
 10
16.3388971773
 20
12.0809731899
 30
0.0
 10
16.3406986196
 20
12.0643268258
 30
0.0
 10
16.3416166757
 20
12.0511059785
 30
0.0
 10
16.3420442451
 20
12.041269371
 30
0.0
 10
16.3422130055
 20
12.031481926
 30
0.0
 10
16.3421228646
 20
12.0217461277
 30
0.0
 10
16.3417738637
 20
12.0120645393
 30
0.0
 10
16.341166095
 20
12.0024396843
 30
0.0
 10
16.3402996701
 20
11.9928740834
 30
0.0
 10
16.3391748675
 20
11.9833702326
 30
0.0
 10
16.3377919223
 20
11.9739306236
 30
0.0
 10
16.3361512213
 20
11.9645577214
 30
0.0
 10
16.3342531972
 20
11.9552539832
 30
0.0
 10
16.3320982973
 20
11.9460218274
 30
0.0
 10
16.3296871682
 20
11.9368637518
 30
0.0
 10
16.327909085
 20
11.9308085878
 30
0.0
 10
16.3269778488
 20
11.9277951153
 30
0.0
  0
ENDSEC
  0
SECTION
  2
OBJECTS
  0
DICTIONARY
  5
C
100
AcDbDictionary
280
0
281
1
  3
ACAD_GROUP
350
D
  3
ACAD_MLINESTYLE
350
17
  3
ACAD_LAYOUT
350
1A
  3
ACAD_PLOTSETTINGS
350
19
  3
ACAD_PLOTSTYLENAME
350
E
  0
DICTIONARY
  5
D
102
{ACAD_REACTORS
330
C
102
}
100
AcDbDictionary
280
0
281
1
  0
ACDBDICTIONARYWDFLT
  5
E
102
{ACAD_REACTORS
330
C
102
}
100
AcDbDictionary
281
1
  3
Normal
350
F
100
AcDbDictionaryWithDefault
340
F
  0
DICTIONARY
  5
17
102
{ACAD_REACTORS
330
C
102
}
100
AcDbDictionary
280
0
281
1
  3
Standard
350
18
  0
DICTIONARY
  5
19
102
{ACAD_REACTORS
330
C
102
}
100
AcDbDictionary
281
1
  0
DICTIONARY
  5
1A
102
{ACAD_REACTORS
330
C
102
}
100
AcDbDictionary
281
1
  3
Model
350
323
  3
Layout1
350
324
  0
ACDBPLACEHOLDER
  5
F
102
{ACAD_REACTORS
330
E
102
}
  0
MLINESTYLE
  5
18
102
{ACAD_REACTORS
330
17
102
}
100
AcDbMlineStyle
  2
STANDARD
 70
0
  3

 62
256
 51
90.0
 52
90.0
 71
2
 49
0.5
 62
256
  6
BYLAYER
 49
-0.5
 62
256
  6
BYLAYER
  0
LAYOUT
  5
323
102
{ACAD_REACTORS
330
1A
102
}
100
AcDbPlotSettings
  1

  2
none_device
  4
ANSI_C_(22.00_x_17.00_Inches)
  6

 40
0.0
 41
0.0
 42
0.0
 43
0.0
 44
558.8
 45
431.8
 46
0.0
 47
0.0
 48
0.0
 49
0.0
140
0.0
141
0.0
142
1.0
143
1.0
 70
1024
 72
0
 73
0
 74
0
  7

 75
0
147
1.0
148
0.0
149
0.0
100
AcDbLayout
  1
Model
 70
0
 71
0
 10
0.0
 20
0.0
 11
22.0
 21
17.0
 12
0.0
 22
0.0
 32
0.0
 14
0.0
 24
0.0
 34
0.0
 15
0.0
 25
0.0
 35
0.0
146
0.0
 13
0.0
 23
0.0
 33
0.0
 16
1.0
 26
0.0
 36
0.0
 17
0.0
 27
1.0
 37
0.0
 76
0
330
222
345
0
346
0
  0
LAYOUT
  5
324
102
{ACAD_REACTORS
330
1A
102
}
100
AcDbPlotSettings
  1

  2
none_device
  4
ANSI_C_(22.00_x_17.00_Inches)
  6

 40
0.0
 41
0.0
 42
0.0
 43
0.0
 44
558.8
 45
431.8
 46
0.0
 47
0.0
 48
0.0
 49
0.0
140
0.0
141
0.0
142
1.0
143
1.0
 70
0
 72
0
 73
0
 74
0
  7

 75
0
147
1.0
148
0.0
149
0.0
100
AcDbLayout
  1
Layout1
 70
0
 71
1
 10
0.0
 20
0.0
 11
22.0
 21
17.0
 12
0.0
 22
0.0
 32
0.0
 14
0.0
 24
0.0
 34
0.0
 15
0.0
 25
0.0
 35
0.0
146
0.0
 13
0.0
 23
0.0
 33
0.0
 16
1.0
 26
0.0
 36
0.0
 17
0.0
 27
1.0
 37
0.0
 76
0
330
223
345
0
346
0
  0
ENDSEC
  0
EOF