999
DXF file: _cgs_temp_output.dxf
999
Pro/ENGINEER 2016360 by Parametric Technology Corporation
  0
SECTION
  2
HEADER
  9
$ACADVER
  1
AC1021
  9
$DWGCODEPAGE
  3
ANSI_1252
  9
$EXTMAX
 10
22.0
 20
17.0
 30
0.0
  9
$EXTMIN
 10
0.0
 20
0.0
 30
0.0
  9
$LIMMIN
 10
0.0
 20
0.0
  9
$LIMMAX
 10
22.0
 20
17.0
  9
$VIEWCTR
 10
11.0
 20
8.5
  9
$VIEWSIZE
 40
17.0
  9
$CLAYER
  8
0
  9
$LTSCALE
 40
1.21
  9
$CELTYPE
  6
BYLAYER
  9
$DIMSCALE
 40
1.0
  9
$DIMASZ
 40
0.1875
  9
$DIMEXO
 40
0.0625
  9
$DIMDLI
 40
0.836
  9
$DIMEXE
 40
0.125
  9
$DIMCEN
 40
0.198
  9
$DIMLFAC
 40
1.0
  9
$DIMBLK
  1
_CLOSED
  9
$DIMALT
 70
0
  9
$DIMALTF
 40
25.4
  9
$DIMTXT
 40
0.15625
  9
$DIMTOL
 70
0
  9
$DIMLIM
 70
0
  9
$DIMTFAC
 40
1.0
  9
$DIMGAP
 40
0.09
  9
$DIMDSEP
 70
46
  9
$AUNITS
 70
0
  9
$PDMODE
 70
3
  9
$PDSIZE
 40
0.3125
  9
$HANDSEED
  5
335
  9
$TILEMODE
 70
1
  9
$MEASUREMENT
 70
0
  9
$INSUNITS
 70
1
  0
ENDSEC
  0
SECTION
  2
CLASSES
  0
CLASS
  1
ACDBDICTIONARYWDFLT
  2
AcDbDictionaryWithDefault
  3
AutoCAD 2000
 90
0
 91
1
280
0
281
0
  0
CLASS
  1
ACDBPLACEHOLDER
  2
AcDbPlaceHolder
  3
AutoCAD 2000
 90
0
 91
1
280
0
281
0
  0
CLASS
  1
LAYOUT
  2
AcDbLayout
  3
AutoCAD 2000
 90
0
 91
0
280
0
281
0
  0
ENDSEC
  0
SECTION
  2
TABLES
  0
TABLE
  2
VPORT
  5
8
100
AcDbSymbolTable
 70
2
  0
VPORT
  5
1F4
100
AcDbSymbolTableRecord
100
AcDbViewportTableRecord
  2
*ACTIVE
 70
0
 10
0.0
 20
0.0
 11
1.0
 21
1.0
 12
11.0
 22
8.5
 13
0.0
 23
0.0
 14
1.0
 24
1.0
 15
0.0
 25
0.0
 16
0.0
 26
0.0
 36
1.0
 17
0.0
 27
0.0
 37
0.0
 40
17.0
 41
1.2941176471
 42
50.0
 43
0.0
 44
0.0
 50
0.0
 51
0.0
 71
0
 72
100
 73
1
 74
1
 75
0
 76
0
 77
0
 78
0
  0
ENDTAB
  0
TABLE
  2
LTYPE
  5
5
100
AcDbSymbolTable
 70
6
  0
LTYPE
  5
14
100
AcDbSymbolTableRecord
100
AcDbLinetypeTableRecord
  2
BYBLOCK
 70
0
  3

 72
65
 73
0
 40
0.0
  0
LTYPE
  5
15
100
AcDbSymbolTableRecord
100
AcDbLinetypeTableRecord
  2
BYLAYER
 70
0
  3

 72
65
 73
0
 40
0.0
  0
LTYPE
  5
16
100
AcDbSymbolTableRecord
100
AcDbLinetypeTableRecord
  2
CONTINUOUS
 70
64
  3
Solid line
 72
65
 73
0
 40
0.0
  0
LTYPE
  5
1F5
100
AcDbSymbolTableRecord
100
AcDbLinetypeTableRecord
  2
CENTER
 70
64
  3
____ _ ____ _ ____ _ ____ _ ____ _ ____ _ ____
 72
65
 73
4
 40
0.6
 49
0.375
 74
0
 49
-0.075
 74
0
 49
0.075
 74
0
 49
-0.075
 74
0
  0
LTYPE
  5
1F6
100
AcDbSymbolTableRecord
100
AcDbLinetypeTableRecord
  2
HIDDEN
 70
64
  3
- - - - - - - - - - - - - - - - - - - -
 72
65
 73
2
 40
0.2
 49
0.1
 74
0
 49
-0.1
 74
0
  0
LTYPE
  5
1F7
100
AcDbSymbolTableRecord
100
AcDbLinetypeTableRecord
  2
PHANTOM
 70
64
  3
_____ _ _ _____ _ _ _____ _ _ _____
 72
65
 73
6
 40
0.8
 49
0.45
 74
0
 49
-0.05
 74
0
 49
0.1
 74
0
 49
-0.05
 74
0
 49
0.1
 74
0
 49
-0.05
 74
0
  0
LTYPE
  5
1F8
100
AcDbSymbolTableRecord
100
AcDbLinetypeTableRecord
  2
DOT
 70
64
  3
. . . . . . . . . . . . . . . . . . . .
 72
65
 73
2
 40
0.2
 49
0.1
 74
0
 49
-0.1
 74
0
  0
LTYPE
  5
1F9
100
AcDbSymbolTableRecord
100
AcDbLinetypeTableRecord
  2
DASHED
 70
64
  3
- - - - - - - - - - - - - - - - - - - -
 72
65
 73
2
 40
0.2
 49
0.1
 74
0
 49
-0.1
 74
0
  0
ENDTAB
  0
TABLE
  2
LAYER
  5
2
100
AcDbSymbolTable
 70
36
  0
LAYER
  5
10
100
AcDbSymbolTableRecord
100
AcDbLayerTableRecord
  2
0
 70
0
 62
7
  6
CONTINUOUS
370
-3
390
F
  0
LAYER
  5
1FA
100
AcDbSymbolTableRecord
100
AcDbLayerTableRecord
  2
DEFAULT_1
 70
0
 62
7
  6
CENTER
370
-3
390
F
  0
LAYER
  5
1FB
100
AcDbSymbolTableRecord
100
AcDbLayerTableRecord
  2
DEFAULT_2
 70
0
 62
8
  6
HIDDEN
370
-3
390
F
  0
LAYER
  5
1FC
100
AcDbSymbolTableRecord
100
AcDbLayerTableRecord
  2
DEFAULT_3
 70
0
 62
7
  6
PHANTOM
370
-3
390
F
  0
LAYER
  5
1FD
100
AcDbSymbolTableRecord
100
AcDbLayerTableRecord
  2
01_ALL_DTM_PLN
 70
0
 62
7
  6
CONTINUOUS
370
-3
390
F
  0
LAYER
  5
1FE
100
AcDbSymbolTableRecord
100
AcDbLayerTableRecord
  2
01__ASM_ALL_DTM_PLN
 70
0
 62
7
  6
CONTINUOUS
370
-3
390
F
  0
LAYER
  5
1FF
100
AcDbSymbolTableRecord
100
AcDbLayerTableRecord
  2
01__ASM_DEF_DTM_PLN
 70
0
 62
7
  6
CONTINUOUS
370
-3
390
F
  0
LAYER
  5
200
100
AcDbSymbolTableRecord
100
AcDbLayerTableRecord
  2
01___PRT_ALL_DTM_PLN
 70
0
 62
7
  6
CONTINUOUS
370
-3
390
F
  0
LAYER
  5
201
100
AcDbSymbolTableRecord
100
AcDbLayerTableRecord
  2
01___PRT_DEF_DTM_PLN
 70
0
 62
7
  6
CONTINUOUS
370
-3
390
F
  0
LAYER
  5
202
100
AcDbSymbolTableRecord
100
AcDbLayerTableRecord
  2
02_ALL_AXES
 70
0
 62
7
  6
CONTINUOUS
370
-3
390
F
  0
LAYER
  5
203
100
AcDbSymbolTableRecord
100
AcDbLayerTableRecord
  2
02__ASM_ALL_AXES
 70
0
 62
7
  6
CONTINUOUS
370
-3
390
F
  0
LAYER
  5
204
100
AcDbSymbolTableRecord
100
AcDbLayerTableRecord
  2
02___PRT_ALL_AXES
 70
0
 62
7
  6
CONTINUOUS
370
-3
390
F
  0
LAYER
  5
205
100
AcDbSymbolTableRecord
100
AcDbLayerTableRecord
  2
03_ALL_CURVES
 70
0
 62
7
  6
CONTINUOUS
370
-3
390
F
  0
LAYER
  5
206
100
AcDbSymbolTableRecord
100
AcDbLayerTableRecord
  2
03__ASM_ALL_CURVES
 70
0
 62
7
  6
CONTINUOUS
370
-3
390
F
  0
LAYER
  5
207
100
AcDbSymbolTableRecord
100
AcDbLayerTableRecord
  2
03___PRT_ALL_CURVES
 70
0
 62
7
  6
CONTINUOUS
370
-3
390
F
  0
LAYER
  5
208
100
AcDbSymbolTableRecord
100
AcDbLayerTableRecord
  2
04_ALL_DTM_PNT
 70
0
 62
7
  6
CONTINUOUS
370
-3
390
F
  0
LAYER
  5
209
100
AcDbSymbolTableRecord
100
AcDbLayerTableRecord
  2
04__ASM_ALL_DTM_PNT
 70
0
 62
7
  6
CONTINUOUS
370
-3
390
F
  0
LAYER
  5
20A
100
AcDbSymbolTableRecord
100
AcDbLayerTableRecord
  2
04___PRT_ALL_DTM_PNT
 70
0
 62
7
  6
CONTINUOUS
370
-3
390
F
  0
LAYER
  5
20B
100
AcDbSymbolTableRecord
100
AcDbLayerTableRecord
  2
05_ALL_DTM_CSYS
 70
0
 62
7
  6
CONTINUOUS
370
-3
390
F
  0
LAYER
  5
20C
100
AcDbSymbolTableRecord
100
AcDbLayerTableRecord
  2
05__ASM_ALL_DTM_CSYS
 70
0
 62
7
  6
CONTINUOUS
370
-3
390
F
  0
LAYER
  5
20D
100
AcDbSymbolTableRecord
100
AcDbLayerTableRecord
  2
05__ASM_DEF_DTM_CSYS
 70
0
 62
7
  6
CONTINUOUS
370
-3
390
F
  0
LAYER
  5
20E
100
AcDbSymbolTableRecord
100
AcDbLayerTableRecord
  2
05___PRT_ALL_DTM_CSYS
 70
0
 62
7
  6
CONTINUOUS
370
-3
390
F
  0
LAYER
  5
20F
100
AcDbSymbolTableRecord
100
AcDbLayerTableRecord
  2
05___PRT_DEF_DTM_CSYS
 70
0
 62
7
  6
CONTINUOUS
370
-3
390
F
  0
LAYER
  5
210
100
AcDbSymbolTableRecord
100
AcDbLayerTableRecord
  2
06_ALL_SURFS
 70
0
 62
7
  6
CONTINUOUS
370
-3
390
F
  0
LAYER
  5
211
100
AcDbSymbolTableRecord
100
AcDbLayerTableRecord
  2
06__ASM_ALL_SURFS
 70
0
 62
7
  6
CONTINUOUS
370
-3
390
F
  0
LAYER
  5
212
100
AcDbSymbolTableRecord
100
AcDbLayerTableRecord
  2
06___PRT_ALL_SURFS
 70
0
 62
7
  6
CONTINUOUS
370
-3
390
F
  0
LAYER
  5
213
100
AcDbSymbolTableRecord
100
AcDbLayerTableRecord
  2
07__ASM_ALL_SKELETONS
 70
0
 62
7
  6
CONTINUOUS
370
-3
390
F
  0
LAYER
  5
214
100
AcDbSymbolTableRecord
100
AcDbLayerTableRecord
  2
LAYER_AXIS
 70
0
 62
7
  6
CONTINUOUS
370
-3
390
F
  0
LAYER
  5
215
100
AcDbSymbolTableRecord
100
AcDbLayerTableRecord
  2
LAYER_CHAMFER_FEAT
 70
0
 62
7
  6
CONTINUOUS
370
-3
390
F
  0
LAYER
  5
216
100
AcDbSymbolTableRecord
100
AcDbLayerTableRecord
  2
LAYER_CUT_FEAT
 70
0
 62
7
  6
CONTINUOUS
370
-3
390
F
  0
LAYER
  5
217
100
AcDbSymbolTableRecord
100
AcDbLayerTableRecord
  2
LAYER_DIM
 70
0
 62
7
  6
CONTINUOUS
370
-3
390
F
  0
LAYER
  5
218
100
AcDbSymbolTableRecord
100
AcDbLayerTableRecord
  2
LAYER_FEATURE
 70
0
 62
7
  6
CONTINUOUS
370
-3
390
F
  0
LAYER
  5
219
100
AcDbSymbolTableRecord
100
AcDbLayerTableRecord
  2
LAYER_GEOM_FEAT
 70
0
 62
7
  6
CONTINUOUS
370
-3
390
F
  0
LAYER
  5
21A
100
AcDbSymbolTableRecord
100
AcDbLayerTableRecord
  2
LAYER_NOGEOM_FEAT
 70
0
 62
7
  6
CONTINUOUS
370
-3
390
F
  0
LAYER
  5
21B
100
AcDbSymbolTableRecord
100
AcDbLayerTableRecord
  2
LAYER_PARAMETER_DIM
 70
0
 62
7
  6
CONTINUOUS
370
-3
390
F
  0
LAYER
  5
21C
100
AcDbSymbolTableRecord
100
AcDbLayerTableRecord
  2
LAYER_PROTRUSION_FEAT
 70
0
 62
7
  6
CONTINUOUS
370
-3
390
F
  0
ENDTAB
  0
TABLE
  2
STYLE
  5
3
100
AcDbSymbolTable
 70
1
  0
STYLE
  5
11
100
AcDbSymbolTableRecord
100
AcDbTextStyleTableRecord
  2
STANDARD
 70
0
 40
0.0
 41
0.8
 50
0.0
 71
0
 42
0.2
  3
txt
  4

  0
STYLE
  5
21D
100
AcDbSymbolTableRecord
100
AcDbTextStyleTableRecord
  2
TEXTSTYLE_1
 70
0
 40
0.0
 41
0.8
 50
0.0
 71
0
 42
0.2
  3
gdt
  4

  0
ENDTAB
  0
TABLE
  2
VIEW
  5
6
100
AcDbSymbolTable
 70
0
  0
ENDTAB
  0
TABLE
  2
UCS
  5
7
100
AcDbSymbolTable
 70
0
  0
ENDTAB
  0
TABLE
  2
APPID
  5
9
100
AcDbSymbolTable
 70
1
  0
APPID
  5
21E
100
AcDbSymbolTableRecord
100
AcDbRegAppTableRecord
  2
ACAD
 70
0
  0
ENDTAB
  0
TABLE
  2
BLOCK_RECORD
  5
1
100
AcDbSymbolTable
 70
0
  0
BLOCK_RECORD
  5
21F
100
AcDbSymbolTableRecord
100
AcDbBlockTableRecord
  2
*Model_Space
  0
BLOCK_RECORD
  5
220
100
AcDbSymbolTableRecord
100
AcDbBlockTableRecord
  2
*Paper_Space
  0
ENDTAB
  0
TABLE
  2
DIMSTYLE
  5
A
100
AcDbSymbolTable
 70
1
100
AcDbDimStyleTable
 71
0
  0
DIMSTYLE
105
221
100
AcDbSymbolTableRecord
100
AcDbDimStyleTableRecord
  2
STANDARD
 70
0
  3

  4

 40
1.0
 41
0.1875
 42
0.0625
 43
0.38
 44
0.125
 45
0.0
 46
0.0
 47
0.0001
 48
0.0001
140
0.15625
141
0.09
142
0.0
143
25.4
144
1.0
145
0.0
146
1.0
147
0.09
 71
0.0
 72
0.0
 73
1
 74
1
 75
0
 76
0
 77
0
 78
4
 79
1
170
0
171
3
172
0
173
0
174
0
175
0
176
0
177
0
178
0
270
2
179
4
271
4
272
4
273
2
274
2
275
0
280
0
281
0
282
0
283
1
284
4
285
0
286
0
287
3
288
0
340
11
278
46
  0
ENDTAB
  0
ENDSEC
  0
SECTION
  2
BLOCKS
  0
BLOCK
  5
20
100
AcDbEntity
  8
0
100
AcDbBlockBegin
  2
*Model_Space
 70
0
 10
0.0
 20
0.0
 30
0.0
  3
*Model_Space
  1

  0
ENDBLK
  5
21
100
AcDbEntity
  8
0
100
AcDbBlockEnd
  0
BLOCK
  5
1C
100
AcDbEntity
  8
0
100
AcDbBlockBegin
  2
*Paper_Space
 70
0
 10
0.0
 20
0.0
 30
0.0
  3
*Paper_Space
  1

  0
ENDBLK
  5
1D
100
AcDbEntity
  8
0
100
AcDbBlockEnd
  0
ENDSEC
  0
SECTION
  2
ENTITIES
  0
MTEXT
  5
222
100
AcDbEntity
  8
0
100
AcDbMText
 62
7
  6
CONTINUOUS
  7
STANDARD
 71
1
 72
1
 10
15.9560215477
 20
0.9479130325
 30
0.0
 11
1.0
 21
0.0
 31
0.0
 44
0.9
  1
SCALE: 1:1.000
 40
0.3
 41
3.36
  0
LINE
  5
223
100
AcDbEntity
  8
0
100
AcDbLine
 62
7
  6
CONTINUOUS
 10
0.0
 20
0.0
 11
0.0
 21
17.0
  0
LINE
  5
224
100
AcDbEntity
  8
0
100
AcDbLine
 62
7
  6
CONTINUOUS
 10
0.0
 20
0.0
 11
22.0
 21
0.0
  0
LINE
  5
225
100
AcDbEntity
  8
0
100
AcDbLine
 62
7
  6
CONTINUOUS
 10
0.0
 20
17.0
 11
22.0
 21
17.0
  0
LINE
  5
226
100
AcDbEntity
  8
0
100
AcDbLine
 62
7
  6
CONTINUOUS
 10
22.0
 20
0.0
 11
22.0
 21
17.0
  0
LINE
  5
227
100
AcDbEntity
  8
0
100
AcDbLine
 62
7
  6
CONTINUOUS
 10
5.5903672762
 20
4.7953744533
 11
6.2803672762
 21
4.7953744533
  0
LINE
  5
228
100
AcDbEntity
  8
LAYER_FEATURE
100
AcDbLine
 62
7
  6
CONTINUOUS
 10
5.5903672762
 20
4.7954722237
 11
6.2803672762
 21
4.7954722237
  0
LINE
  5
229
100
AcDbEntity
  8
LAYER_FEATURE
100
AcDbLine
 62
7
  6
CONTINUOUS
 10
5.5903672762
 20
4.7984231946
 11
6.2803672762
 21
4.7984231946
  0
LINE
  5
22A
100
AcDbEntity
  8
0
100
AcDbLine
 62
7
  6
CONTINUOUS
 10
5.5903672762
 20
4.8405245029
 11
6.2803672762
 21
4.8405245029
  0
LINE
  5
22B
100
AcDbEntity
  8
LAYER_FEATURE
100
AcDbLine
 62
7
  6
CONTINUOUS
 10
5.5903672762
 20
4.8419047942
 11
6.2803672762
 21
4.8419047942
  0
LINE
  5
22C
100
AcDbEntity
  8
LAYER_FEATURE
100
AcDbLine
 62
7
  6
CONTINUOUS
 10
5.5903672762
 20
4.8505566031
 11
6.2803672762
 21
4.8505566031
  0
LINE
  5
22D
100
AcDbEntity
  8
LAYER_FEATURE
100
AcDbLine
 62
7
  6
CONTINUOUS
 10
5.4903672762
 20
6.4101198968
 11
5.4903672762
 21
4.6301198968
  0
LINE
  5
22E
100
AcDbEntity
  8
02___PRT_ALL_AXES
100
AcDbLine
 62
7
  6
CONTINUOUS
 10
6.3803672762
 20
4.9301198968
 11
6.7703672762
 21
4.9301198968
  0
LINE
  5
22F
100
AcDbEntity
  8
0
100
AcDbLine
 62
7
  6
CONTINUOUS
 10
5.5903672762
 20
4.9304885919
 11
6.2803672762
 21
4.9304885919
  0
LINE
  5
230
100
AcDbEntity
  8
LAYER_FEATURE
100
AcDbLine
 62
7
  6
CONTINUOUS
 10
5.5903672762
 20
4.9345566031
 11
6.2803672762
 21
4.9345566031
  0
LINE
  5
231
100
AcDbEntity
  8
LAYER_FEATURE
100
AcDbLine
 62
7
  6
CONTINUOUS
 10
5.5903672762
 20
6.3101198968
 11
5.5903672762
 21
4.7301198968
  0
LINE
  5
232
100
AcDbEntity
  8
LAYER_FEATURE
100
AcDbLine
 62
7
  6
CONTINUOUS
 10
5.5903672762
 20
4.9483196436
 11
6.2803672762
 21
4.9483196436
  0
LINE
  5
233
100
AcDbEntity
  8
LAYER_FEATURE
100
AcDbLine
 62
7
  6
CONTINUOUS
 10
6.3803672762
 20
6.4101198968
 11
6.2803672762
 21
6.3101198968
  0
LINE
  5
234
100
AcDbEntity
  8
0
100
AcDbLine
 62
7
  6
CONTINUOUS
 10
5.5903672762
 20
5.0591358163
 11
6.2803672762
 21
5.0591358163
  0
LINE
  5
235
100
AcDbEntity
  8
LAYER_FEATURE
100
AcDbLine
 62
7
  6
CONTINUOUS
 10
5.5903672762
 20
5.0671135828
 11
6.2803672762
 21
5.0671135828
  0
LINE
  5
236
100
AcDbEntity
  8
LAYER_FEATURE
100
AcDbLine
 62
7
  6
CONTINUOUS
 10
5.5903672762
 20
5.0850499263
 11
6.2803672762
 21
5.0850499263
  0
LINE
  5
237
100
AcDbEntity
  8
LAYER_FEATURE
100
AcDbLine
 62
7
  6
CONTINUOUS
 10
6.3803672762
 20
4.6301198968
 11
6.2803672762
 21
4.7301198968
  0
LINE
  5
238
100
AcDbEntity
  8
LAYER_FEATURE
100
AcDbLine
 62
7
  6
CONTINUOUS
 10
6.2803672762
 20
5.2176990803
 11
5.5903672762
 21
5.2176990803
  0
LINE
  5
239
100
AcDbEntity
  8
LAYER_FEATURE
100
AcDbLine
 62
7
  6
CONTINUOUS
 10
5.5903672762
 20
5.2305421942
 11
6.2803672762
 21
5.2305421942
  0
LINE
  5
23A
100
AcDbEntity
  8
LAYER_FEATURE
100
AcDbLine
 62
7
  6
CONTINUOUS
 10
5.5903672762
 20
5.2514295086
 11
6.2803672762
 21
5.2514295086
  0
LINE
  5
23B
100
AcDbEntity
  8
LAYER_FEATURE
100
AcDbLine
 62
7
  6
CONTINUOUS
 10
6.2803672762
 20
5.3956451634
 11
5.5903672762
 21
5.3956451634
  0
LINE
  5
23C
100
AcDbEntity
  8
LAYER_FEATURE
100
AcDbLine
 62
7
  6
CONTINUOUS
 10
5.5903672762
 20
5.4137050474
 11
6.2803672762
 21
5.4137050474
  0
LINE
  5
23D
100
AcDbEntity
  8
LAYER_FEATURE
100
AcDbLine
 62
7
  6
CONTINUOUS
 10
5.5903672762
 20
5.4361198968
 11
6.2803672762
 21
5.4361198968
  0
LINE
  5
23E
100
AcDbEntity
  8
LAYER_FEATURE
100
AcDbLine
 62
7
  6
CONTINUOUS
 10
6.2803672762
 20
6.3101198968
 11
6.2803672762
 21
4.7301198968
  0
LINE
  5
23F
100
AcDbEntity
  8
LAYER_FEATURE
100
AcDbLine
 62
7
  6
CONTINUOUS
 10
5.5903672762
 20
5.6041198968
 11
6.2803672762
 21
5.6041198968
  0
LINE
  5
240
100
AcDbEntity
  8
LAYER_FEATURE
100
AcDbLine
 62
7
  6
CONTINUOUS
 10
5.5903672762
 20
5.6265347461
 11
6.2803672762
 21
5.6265347461
  0
LINE
  5
241
100
AcDbEntity
  8
LAYER_FEATURE
100
AcDbLine
 62
7
  6
CONTINUOUS
 10
5.4903672762
 20
4.6301198968
 11
5.5903672762
 21
4.7301198968
  0
LINE
  5
242
100
AcDbEntity
  8
LAYER_FEATURE
100
AcDbLine
 62
7
  6
CONTINUOUS
 10
5.4903672762
 20
6.4101198968
 11
5.5903672762
 21
6.3101198968
  0
LINE
  5
243
100
AcDbEntity
  8
LAYER_FEATURE
100
AcDbLine
 62
7
  6
CONTINUOUS
 10
6.3803672762
 20
6.4101198968
 11
6.3803672762
 21
4.6301198968
  0
LINE
  5
244
100
AcDbEntity
  8
LAYER_FEATURE
100
AcDbLine
 62
7
  6
CONTINUOUS
 10
5.5903672762
 20
5.7888102849
 11
6.2803672762
 21
5.7888102849
  0
LINE
  5
245
100
AcDbEntity
  8
LAYER_FEATURE
100
AcDbLine
 62
7
  6
CONTINUOUS
 10
5.5903672762
 20
5.8096975993
 11
6.2803672762
 21
5.8096975993
  0
LINE
  5
246
100
AcDbEntity
  8
LAYER_FEATURE
100
AcDbLine
 62
7
  6
CONTINUOUS
 10
6.2803672762
 20
5.8225407132
 11
5.5903672762
 21
5.8225407132
  0
LINE
  5
247
100
AcDbEntity
  8
LAYER_FEATURE
100
AcDbLine
 62
7
  6
CONTINUOUS
 10
5.5903672762
 20
5.9551898672
 11
6.2803672762
 21
5.9551898672
  0
LINE
  5
248
100
AcDbEntity
  8
LAYER_FEATURE
100
AcDbLine
 62
7
  6
CONTINUOUS
 10
5.5903672762
 20
5.9731262107
 11
6.2803672762
 21
5.9731262107
  0
LINE
  5
249
100
AcDbEntity
  8
0
100
AcDbLine
 62
7
  6
CONTINUOUS
 10
5.5903672762
 20
5.9811039772
 11
6.2803672762
 21
5.9811039772
  0
LINE
  5
24A
100
AcDbEntity
  8
LAYER_FEATURE
100
AcDbLine
 62
7
  6
CONTINUOUS
 10
5.5903672762
 20
6.0919201499
 11
6.2803672762
 21
6.0919201499
  0
LINE
  5
24B
100
AcDbEntity
  8
LAYER_FEATURE
100
AcDbLine
 62
7
  6
CONTINUOUS
 10
5.5903672762
 20
6.1056831904
 11
6.2803672762
 21
6.1056831904
  0
LINE
  5
24C
100
AcDbEntity
  8
0
100
AcDbLine
 62
7
  6
CONTINUOUS
 10
5.5903672762
 20
6.1097512016
 11
6.2803672762
 21
6.1097512016
  0
LINE
  5
24D
100
AcDbEntity
  8
02___PRT_ALL_AXES
100
AcDbLine
 62
7
  6
CONTINUOUS
 10
6.3803672762
 20
6.1101198968
 11
6.7703672762
 21
6.1101198968
  0
LINE
  5
24E
100
AcDbEntity
  8
02___PRT_ALL_AXES
100
AcDbLine
 62
7
  6
CONTINUOUS
 10
6.7703672762
 20
6.1101198968
 11
6.7703672762
 21
4.9301198968
  0
LINE
  5
24F
100
AcDbEntity
  8
LAYER_FEATURE
100
AcDbLine
 62
7
  6
CONTINUOUS
 10
5.5903672762
 20
6.1896831904
 11
6.2803672762
 21
6.1896831904
  0
LINE
  5
250
100
AcDbEntity
  8
LAYER_FEATURE
100
AcDbLine
 62
7
  6
CONTINUOUS
 10
5.5903672762
 20
6.1983349993
 11
6.2803672762
 21
6.1983349993
  0
LINE
  5
251
100
AcDbEntity
  8
LAYER_CUT_FEAT
100
AcDbLine
 62
7
  6
CONTINUOUS
 10
5.5903672762
 20
6.1997152906
 11
6.2803672762
 21
6.1997152906
  0
LINE
  5
252
100
AcDbEntity
  8
LAYER_FEATURE
100
AcDbLine
 62
7
  6
CONTINUOUS
 10
5.5903672762
 20
6.2418165989
 11
6.2803672762
 21
6.2418165989
  0
LINE
  5
253
100
AcDbEntity
  8
LAYER_FEATURE
100
AcDbLine
 62
7
  6
CONTINUOUS
 10
6.2803672762
 20
6.2447675698
 11
5.5903672762
 21
6.2447675698
  0
LINE
  5
254
100
AcDbEntity
  8
0
100
AcDbLine
 62
7
  6
CONTINUOUS
 10
5.5903672762
 20
6.2448653402
 11
6.2803672762
 21
6.2448653402
  0
LINE
  5
255
100
AcDbEntity
  8
0
100
AcDbLine
 62
7
  6
CONTINUOUS
 10
5.5308720839
 20
11.8753023379
 11
6.2208720839
 21
11.8753023379
  0
LINE
  5
256
100
AcDbEntity
  8
LAYER_FEATURE
100
AcDbLine
 62
7
  6
CONTINUOUS
 10
5.5308720839
 20
11.8754001084
 11
6.2208720839
 21
11.8754001084
  0
LINE
  5
257
100
AcDbEntity
  8
LAYER_FEATURE
100
AcDbLine
 62
7
  6
CONTINUOUS
 10
5.5308720839
 20
11.8783510793
 11
6.2208720839
 21
11.8783510793
  0
LINE
  5
258
100
AcDbEntity
  8
0
100
AcDbLine
 62
7
  6
CONTINUOUS
 10
5.5308720839
 20
11.9204523875
 11
6.2208720839
 21
11.9204523875
  0
LINE
  5
259
100
AcDbEntity
  8
LAYER_FEATURE
100
AcDbLine
 62
7
  6
CONTINUOUS
 10
5.5308720839
 20
11.9218326788
 11
6.2208720839
 21
11.9218326788
  0
LINE
  5
25A
100
AcDbEntity
  8
LAYER_FEATURE
100
AcDbLine
 62
7
  6
CONTINUOUS
 10
5.5308720839
 20
11.9304844877
 11
6.2208720839
 21
11.9304844877
  0
LINE
  5
25B
100
AcDbEntity
  8
LAYER_FEATURE
100
AcDbLine
 62
7
  6
CONTINUOUS
 10
5.4308720839
 20
11.7100478392
 11
5.4308720839
 21
13.4900477236
  0
LINE
  5
25C
100
AcDbEntity
  8
02___PRT_ALL_AXES
100
AcDbLine
 62
7
  6
CONTINUOUS
 10
6.3208720839
 20
12.0100477814
 11
6.7108720839
 21
12.0100477814
  0
LINE
  5
25D
100
AcDbEntity
  8
0
100
AcDbLine
 62
7
  6
CONTINUOUS
 10
5.5308720839
 20
12.0104164765
 11
6.2208720839
 21
12.0104164765
  0
LINE
  5
25E
100
AcDbEntity
  8
LAYER_FEATURE
100
AcDbLine
 62
7
  6
CONTINUOUS
 10
5.5308720839
 20
12.0144844877
 11
6.2208720839
 21
12.0144844877
  0
LINE
  5
25F
100
AcDbEntity
  8
LAYER_FEATURE
100
AcDbLine
 62
7
  6
CONTINUOUS
 10
5.5308720839
 20
11.8100478384
 11
5.5308720839
 21
13.3900477244
  0
LINE
  5
260
100
AcDbEntity
  8
LAYER_FEATURE
100
AcDbLine
 62
7
  6
CONTINUOUS
 10
5.5308720839
 20
12.0282475282
 11
6.2208720839
 21
12.0282475282
  0
LINE
  5
261
100
AcDbEntity
  8
LAYER_FEATURE
100
AcDbLine
 62
7
  6
CONTINUOUS
 10
6.2208720839
 20
13.3900477814
 11
6.3208720839
 21
13.4900477814
  0
LINE
  5
262
100
AcDbEntity
  8
0
100
AcDbLine
 62
7
  6
CONTINUOUS
 10
5.5308720839
 20
12.1390637009
 11
6.2208720839
 21
12.1390637009
  0
LINE
  5
263
100
AcDbEntity
  8
LAYER_FEATURE
100
AcDbLine
 62
7
  6
CONTINUOUS
 10
5.5308720839
 20
12.1470414674
 11
6.2208720839
 21
12.1470414674
  0
LINE
  5
264
100
AcDbEntity
  8
LAYER_FEATURE
100
AcDbLine
 62
7
  6
CONTINUOUS
 10
5.5308720839
 20
12.1649778109
 11
6.2208720839
 21
12.1649778109
  0
LINE
  5
265
100
AcDbEntity
  8
LAYER_FEATURE
100
AcDbLine
 62
7
  6
CONTINUOUS
 10
6.2208720839
 20
11.8100477814
 11
6.3208720839
 21
11.7100477814
  0
LINE
  5
266
100
AcDbEntity
  8
LAYER_FEATURE
100
AcDbLine
 62
7
  6
CONTINUOUS
 10
6.2208720839
 20
12.2976269649
 11
5.5308720839
 21
12.2976269649
  0
LINE
  5
267
100
AcDbEntity
  8
LAYER_FEATURE
100
AcDbLine
 62
7
  6
CONTINUOUS
 10
5.5308720839
 20
12.3104700788
 11
6.2208720839
 21
12.3104700788
  0
LINE
  5
268
100
AcDbEntity
  8
LAYER_FEATURE
100
AcDbLine
 62
7
  6
CONTINUOUS
 10
5.5308720839
 20
12.3313573932
 11
6.2208720839
 21
12.3313573932
  0
LINE
  5
269
100
AcDbEntity
  8
LAYER_FEATURE
100
AcDbLine
 62
7
  6
CONTINUOUS
 10
6.2208720839
 20
12.475573048
 11
5.5308720839
 21
12.475573048
  0
LINE
  5
26A
100
AcDbEntity
  8
LAYER_FEATURE
100
AcDbLine
 62
7
  6
CONTINUOUS
 10
5.5308720839
 20
12.493632932
 11
6.2208720839
 21
12.493632932
  0
LINE
  5
26B
100
AcDbEntity
  8
LAYER_FEATURE
100
AcDbLine
 62
7
  6
CONTINUOUS
 10
6.2208720839
 20
12.5160477814
 11
5.5308720839
 21
12.5160477814
  0
LINE
  5
26C
100
AcDbEntity
  8
LAYER_FEATURE
100
AcDbLine
 62
7
  6
CONTINUOUS
 10
6.2208720839
 20
11.8100477814
 11
6.2208720839
 21
13.3900477814
  0
LINE
  5
26D
100
AcDbEntity
  8
LAYER_FEATURE
100
AcDbLine
 62
7
  6
CONTINUOUS
 10
6.2208720839
 20
12.6840477814
 11
5.5308720839
 21
12.6840477814
  0
LINE
  5
26E
100
AcDbEntity
  8
LAYER_FEATURE
100
AcDbLine
 62
7
  6
CONTINUOUS
 10
5.5308720839
 20
12.7064626307
 11
6.2208720839
 21
12.7064626307
  0
LINE
  5
26F
100
AcDbEntity
  8
LAYER_FEATURE
100
AcDbLine
 62
7
  6
CONTINUOUS
 10
5.4308720839
 20
11.7100477814
 11
5.5308720839
 21
11.8100477814
  0
LINE
  5
270
100
AcDbEntity
  8
LAYER_FEATURE
100
AcDbLine
 62
7
  6
CONTINUOUS
 10
5.4308720839
 20
13.4900477814
 11
5.5308720839
 21
13.3900477814
  0
LINE
  5
271
100
AcDbEntity
  8
LAYER_FEATURE
100
AcDbLine
 62
7
  6
CONTINUOUS
 10
6.3208720839
 20
11.7100478286
 11
6.3208720839
 21
13.4900477342
  0
LINE
  5
272
100
AcDbEntity
  8
LAYER_FEATURE
100
AcDbLine
 62
7
  6
CONTINUOUS
 10
5.5308720839
 20
12.8687381695
 11
6.2208720839
 21
12.8687381695
  0
LINE
  5
273
100
AcDbEntity
  8
LAYER_FEATURE
100
AcDbLine
 62
7
  6
CONTINUOUS
 10
5.5308720839
 20
12.889625484
 11
6.2208720839
 21
12.889625484
  0
LINE
  5
274
100
AcDbEntity
  8
LAYER_FEATURE
100
AcDbLine
 62
7
  6
CONTINUOUS
 10
6.2208720839
 20
12.9024685978
 11
5.5308720839
 21
12.9024685978
  0
LINE
  5
275
100
AcDbEntity
  8
LAYER_FEATURE
100
AcDbLine
 62
7
  6
CONTINUOUS
 10
5.5308720839
 20
13.0351177518
 11
6.2208720839
 21
13.0351177518
  0
LINE
  5
276
100
AcDbEntity
  8
LAYER_FEATURE
100
AcDbLine
 62
7
  6
CONTINUOUS
 10
5.5308720839
 20
13.0530540953
 11
6.2208720839
 21
13.0530540953
  0
LINE
  5
277
100
AcDbEntity
  8
0
100
AcDbLine
 62
7
  6
CONTINUOUS
 10
5.5308720839
 20
13.0610318618
 11
6.2208720839
 21
13.0610318618
  0
LINE
  5
278
100
AcDbEntity
  8
LAYER_FEATURE
100
AcDbLine
 62
7
  6
CONTINUOUS
 10
5.5308720839
 20
13.1718480345
 11
6.2208720839
 21
13.1718480345
  0
LINE
  5
279
100
AcDbEntity
  8
LAYER_FEATURE
100
AcDbLine
 62
7
  6
CONTINUOUS
 10
5.5308720839
 20
13.185611075
 11
6.2208720839
 21
13.185611075
  0
LINE
  5
27A
100
AcDbEntity
  8
0
100
AcDbLine
 62
7
  6
CONTINUOUS
 10
5.5308720839
 20
13.1896790862
 11
6.2208720839
 21
13.1896790862
  0
LINE
  5
27B
100
AcDbEntity
  8
02___PRT_ALL_AXES
100
AcDbLine
 62
7
  6
CONTINUOUS
 10
6.3208720839
 20
13.1900477814
 11
6.7108720839
 21
13.1900477814
  0
LINE
  5
27C
100
AcDbEntity
  8
02___PRT_ALL_AXES
100
AcDbLine
 62
7
  6
CONTINUOUS
 10
6.7108720839
 20
13.1900477814
 11
6.7108720839
 21
12.0100477814
  0
LINE
  5
27D
100
AcDbEntity
  8
LAYER_FEATURE
100
AcDbLine
 62
7
  6
CONTINUOUS
 10
5.5308720839
 20
13.269611075
 11
6.2208720839
 21
13.269611075
  0
LINE
  5
27E
100
AcDbEntity
  8
LAYER_FEATURE
100
AcDbLine
 62
7
  6
CONTINUOUS
 10
5.5308720839
 20
13.2782628839
 11
6.2208720839
 21
13.2782628839
  0
LINE
  5
27F
100
AcDbEntity
  8
0
100
AcDbLine
 62
7
  6
CONTINUOUS
 10
5.5308720839
 20
13.2796431752
 11
6.2208720839
 21
13.2796431752
  0
LINE
  5
280
100
AcDbEntity
  8
LAYER_FEATURE
100
AcDbLine
 62
7
  6
CONTINUOUS
 10
5.5308720839
 20
13.3217444835
 11
6.2208720839
 21
13.3217444835
  0
LINE
  5
281
100
AcDbEntity
  8
LAYER_FEATURE
100
AcDbLine
 62
7
  6
CONTINUOUS
 10
5.5308720839
 20
13.3246954544
 11
6.2208720839
 21
13.3246954544
  0
LINE
  5
282
100
AcDbEntity
  8
0
100
AcDbLine
 62
7
  6
CONTINUOUS
 10
5.5308720839
 20
13.3247932249
 11
6.2208720839
 21
13.3247932249
  0
LINE
  5
283
100
AcDbEntity
  8
LAYER_FEATURE
100
AcDbLine
 62
7
  6
CONTINUOUS
 10
15.0318968554
 20
11.7813052272
 11
15.5489243087
 21
11.7813052272
  0
LINE
  5
284
100
AcDbEntity
  8
LAYER_FEATURE
100
AcDbLine
 62
7
  6
CONTINUOUS
 10
15.0230939511
 20
11.7816736772
 11
15.5486167673
 21
11.7816736772
  0
LINE
  5
285
100
AcDbEntity
  8
0
100
AcDbLine
 62
7
  6
CONTINUOUS
 10
14.9604281561
 20
11.805675176
 11
15.5289563225
 21
11.805675176
  0
LINE
  5
286
100
AcDbEntity
  8
LAYER_FEATURE
100
AcDbLine
 62
7
  6
CONTINUOUS
 10
14.9583791469
 20
11.8063136608
 11
15.5284494808
 21
11.8063136608
  0
LINE
  5
287
100
AcDbEntity
  8
LAYER_FEATURE
100
AcDbLine
 62
7
  6
CONTINUOUS
 10
14.94991333
 20
11.8125202289
 11
15.5239132544
 21
11.8125202289
  0
LINE
  5
288
100
AcDbEntity
  8
0
100
AcDbLine
 62
7
  6
CONTINUOUS
 10
14.8940192599
 20
11.876603821
 11
15.484288343
 21
11.876603821
  0
LINE
  5
289
100
AcDbEntity
  8
LAYER_FEATURE
100
AcDbLine
 62
7
  6
CONTINUOUS
 10
14.8898870658
 20
11.8793320144
 11
15.4828927197
 21
11.8793320144
  0
LINE
  5
28A
100
AcDbEntity
  8
LAYER_FEATURE
100
AcDbLine
 62
7
  6
CONTINUOUS
 10
14.8823352676
 20
11.8909537333
 11
15.4769475613
 21
11.8909537333
  0
LINE
  5
28B
100
AcDbEntity
  8
02___PRT_ALL_AXES
100
AcDbLine
 62
7
  6
CONTINUOUS
 10
15.759762734
 20
11.9208049929
 11
16.1189765217
 21
11.9208049929
  0
LINE
  5
28C
100
AcDbEntity
  8
02___PRT_ALL_AXES
100
AcDbLine
 62
7
  6
CONTINUOUS
 10
15.7281496796
 20
13.1456355034
 11
15.6834999761
 21
13.130973462
  0
LINE
  5
28D
100
AcDbEntity
  8
0
100
AcDbLine
 62
7
  6
CONTINUOUS
 10
14.8370220109
 20
11.9892529642
 11
15.4366707246
 21
11.9892529642
  0
LINE
  5
28E
100
AcDbEntity
  8
LAYER_FEATURE
100
AcDbLine
 62
7
  6
CONTINUOUS
 10
14.831088234
 20
11.995384208
 11
15.4345818774
 21
11.995384208
  0
LINE
  5
28F
100
AcDbEntity
  8
LAYER_FEATURE
100
AcDbLine
 62
7
  6
CONTINUOUS
 10
14.8249650972
 20
12.0116290767
 11
15.4292861158
 21
12.0116290767
  0
LINE
  5
290
100
AcDbEntity
  8
02___PRT_ALL_AXES
100
AcDbLine
 62
7
  6
CONTINUOUS
 10
15.7281496796
 20
11.8759744825
 11
15.6835225926
 21
11.890629097
  0
LINE
  5
291
100
AcDbEntity
  8
LAYER_FEATURE
100
AcDbLine
 62
7
  6
CONTINUOUS
 10
15.5375883215
 20
13.2267236772
 11
15.6132300774
 21
13.3173462955
  0
LINE
  5
292
100
AcDbEntity
  8
LAYER_FEATURE
100
AcDbLine
 62
7
  6
CONTINUOUS
 10
15.5375883215
 20
11.7948863086
 11
15.6132300774
 21
11.7042636903
  0
LINE
  5
293
100
AcDbEntity
  8
0
100
AcDbLine
 62
7
  6
CONTINUOUS
 10
14.7933206775
 20
12.1359457526
 11
15.3968736374
 21
12.1359457526
  0
LINE
  5
294
100
AcDbEntity
  8
LAYER_FEATURE
100
AcDbLine
 62
7
  6
CONTINUOUS
 10
14.7859896949
 20
12.1465614762
 11
15.3947367042
 21
12.1465614762
  0
LINE
  5
295
100
AcDbEntity
  8
LAYER_FEATURE
100
AcDbLine
 62
7
  6
CONTINUOUS
 10
14.7817125011
 20
12.1663224338
 11
15.3908383116
 21
12.1663224338
  0
LINE
  5
296
100
AcDbEntity
  8
0
100
AcDbLine
 62
7
  6
CONTINUOUS
 10
14.765436516
 20
12.3067718272
 11
15.3704848383
 21
12.3067718272
  0
LINE
  5
297
100
AcDbEntity
  8
LAYER_FEATURE
100
AcDbLine
 62
7
  6
CONTINUOUS
 10
14.7576648393
 20
12.3225613382
 11
15.3689374314
 21
12.3225613382
  0
LINE
  5
298
100
AcDbEntity
  8
LAYER_FEATURE
100
AcDbLine
 62
7
  6
CONTINUOUS
 10
14.7555250722
 20
12.3444917081
 11
15.3669292305
 21
12.3444917081
  0
LINE
  5
299
100
AcDbEntity
  8
LAYER_FEATURE
100
AcDbLine
 62
7
  6
CONTINUOUS
 10
14.7480439593
 20
12.5113896942
 11
15.3600739765
 21
12.5113896942
  0
LINE
  5
29A
100
AcDbEntity
  8
LAYER_FEATURE
100
AcDbLine
 62
7
  6
CONTINUOUS
 10
14.7481874405
 20
12.5339949579
 11
15.3601658913
 21
12.5339949579
  0
LINE
  5
29B
100
AcDbEntity
  8
LAYER_FEATURE
100
AcDbLine
 62
7
  6
CONTINUOUS
 10
15.086551106
 20
11.7042636903
 11
15.1508568747
 21
11.7813052272
  0
LINE
  5
29C
100
AcDbEntity
  8
LAYER_FEATURE
100
AcDbLine
 62
7
  6
CONTINUOUS
 10
14.7577827021
 20
12.7001782037
 11
15.3690447412
 21
12.7001782037
  0
LINE
  5
29D
100
AcDbEntity
  8
LAYER_FEATURE
100
AcDbLine
 62
7
  6
CONTINUOUS
 10
14.7601996535
 20
12.7219178499
 11
15.3712193988
 21
12.7219178499
  0
LINE
  5
29E
100
AcDbEntity
  8
LAYER_CUT_FEAT
100
AcDbLine
 62
7
  6
CONTINUOUS
 10
14.7679899129
 20
12.7370560082
 11
15.3729668
 21
12.7370560082
  0
LINE
  5
29F
100
AcDbEntity
  8
LAYER_FEATURE
100
AcDbLine
 62
7
  6
CONTINUOUS
 10
15.086551106
 20
13.3173462955
 11
15.1508568747
 21
13.2403047586
  0
LINE
  5
2A0
100
AcDbEntity
  8
LAYER_FEATURE
100
AcDbLine
 62
7
  6
CONTINUOUS
 10
14.7862173883
 20
12.8760612419
 11
15.3949293807
 21
12.8760612419
  0
LINE
  5
2A1
100
AcDbEntity
  8
LAYER_FEATURE
100
AcDbLine
 62
7
  6
CONTINUOUS
 10
15.398953062
 20
12.8954537495
 11
14.7907430988
 21
12.8954537495
  0
LINE
  5
2A2
100
AcDbEntity
  8
0
100
AcDbLine
 62
7
  6
CONTINUOUS
 10
14.797925708
 20
12.9054619995
 11
15.4012193024
 21
12.9054619995
  0
LINE
  5
2A3
100
AcDbEntity
  8
LAYER_FEATURE
100
AcDbLine
 62
7
  6
CONTINUOUS
 10
15.4347984483
 20
13.0270526703
 11
14.8314102411
 21
13.0270526703
  0
LINE
  5
2A4
100
AcDbEntity
  8
LAYER_FEATURE
100
AcDbLine
 62
7
  6
CONTINUOUS
 10
14.837736291
 20
13.0427764721
 11
15.4402915252
 21
13.0427764721
  0
LINE
  5
2A5
100
AcDbEntity
  8
0
100
AcDbLine
 62
7
  6
CONTINUOUS
 10
14.8434655236
 20
13.0484195547
 11
15.4422629243
 21
13.0484195547
  0
LINE
  5
2A6
100
AcDbEntity
  8
02___PRT_ALL_AXES
100
AcDbLine
 62
7
  6
CONTINUOUS
 10
15.759762734
 20
13.1008049929
 11
16.1189765217
 21
13.1008049929
  0
LINE
  5
2A7
100
AcDbEntity
  8
LAYER_FEATURE
100
AcDbLine
 62
7
  6
CONTINUOUS
 10
14.8902814423
 20
13.1428626727
 11
15.4832000773
 21
13.1428626727
  0
LINE
  5
2A8
100
AcDbEntity
  8
LAYER_FEATURE
100
AcDbLine
 62
7
  6
CONTINUOUS
 10
14.8979767217
 20
13.1538462175
 11
15.4889664269
 21
13.1538462175
  0
LINE
  5
2A9
100
AcDbEntity
  8
0
100
AcDbLine
 62
7
  6
CONTINUOUS
 10
14.90186214
 20
13.1562388297
 11
15.4902964939
 21
13.1562388297
  0
LINE
  5
2AA
100
AcDbEntity
  8
LAYER_FEATURE
100
AcDbLine
 62
7
  6
CONTINUOUS
 10
14.9588190168
 20
13.2155989887
 11
15.5287922743
 21
13.2155989887
  0
LINE
  5
2AB
100
AcDbEntity
  8
LAYER_FEATURE
100
AcDbLine
 62
7
  6
CONTINUOUS
 10
14.9673591051
 20
13.2210937661
 11
15.533011704
 21
13.2210937661
  0
LINE
  5
2AC
100
AcDbEntity
  8
0
100
AcDbLine
 62
7
  6
CONTINUOUS
 10
14.9691359243
 20
13.2215721189
 11
15.5334005661
 21
13.2215721189
  0
LINE
  5
2AD
100
AcDbEntity
  8
LAYER_FEATURE
100
AcDbLine
 62
7
  6
CONTINUOUS
 10
15.0323522422
 20
13.2403047586
 11
15.5489243087
 21
13.2403047586
  0
CIRCLE
  5
2AE
100
AcDbEntity
  8
LAYER_FEATURE
100
AcDbCircle
 62
7
  6
CONTINUOUS
 10
15.5603552569
 20
5.4606247044
 40
0.89
  0
CIRCLE
  5
2AF
100
AcDbEntity
  8
LAYER_FEATURE
100
AcDbCircle
 62
7
  6
CONTINUOUS
 10
15.5603552569
 20
5.4606247044
 40
0.6504403478
  0
CIRCLE
  5
2B0
100
AcDbEntity
  8
02___PRT_ALL_AXES
100
AcDbCircle
 62
7
  6
CONTINUOUS
 10
15.5603552569
 20
5.4606247044
 40
0.64
  0
CIRCLE
  5
2B1
100
AcDbEntity
  8
02___PRT_ALL_AXES
100
AcDbCircle
 62
7
  6
CONTINUOUS
 10
15.5603552569
 20
5.4606247044
 40
0.59
  0
CIRCLE
  5
2B2
100
AcDbEntity
  8
02___PRT_ALL_AXES
100
AcDbCircle
 62
7
  6
CONTINUOUS
 10
15.5603552569
 20
5.4606247044
 40
0.1875
  0
ARC
  5
2B3
100
AcDbEntity
  8
LAYER_FEATURE
100
AcDbCircle
 62
7
  6
CONTINUOUS
 10
16.6204023359
 20
12.5108084611
 40
1.8723584668
100
AcDbArc
 50
179.2904551204
 51
179.9822137673
  0
ARC
  5
2B4
100
AcDbEntity
  8
LAYER_FEATURE
100
AcDbCircle
 62
7
  6
CONTINUOUS
 10
16.4853453312
 20
12.5022023464
 40
1.7369947536
100
AcDbArc
 50
185.2093511086
 51
185.9361771466
  0
ARC
  5
2B5
100
AcDbEntity
  8
LAYER_FEATURE
100
AcDbCircle
 62
7
  6
CONTINUOUS
 10
16.4418891513
 20
12.5239482597
 40
1.6933019594
100
AcDbArc
 50
173.2860040126
 51
174.0261395817
  0
ARC
  5
2B6
100
AcDbEntity
  8
LAYER_FEATURE
100
AcDbCircle
 62
7
  6
CONTINUOUS
 10
16.0978296054
 20
12.4408482499
 40
1.3444436233
100
AcDbArc
 50
191.7822551261
 51
192.6439116322
  0
ARC
  5
2B7
100
AcDbEntity
  8
LAYER_FEATURE
100
AcDbCircle
 62
7
  6
CONTINUOUS
 10
16.0303441314
 20
12.595938533
 40
1.2752725532
100
AcDbArc
 50
166.4164121442
 51
167.3111046086
  0
ARC
  5
2B8
100
AcDbEntity
  8
LAYER_FEATURE
100
AcDbCircle
 62
7
  6
CONTINUOUS
 10
15.6260450473
 20
12.3043016697
 40
0.8528694702
100
AcDbArc
 50
200.0696520238
 51
201.2359538259
  0
ARC
  5
2B9
100
AcDbEntity
  8
LAYER_FEATURE
100
AcDbCircle
 62
7
  6
CONTINUOUS
 10
15.7408474856
 20
11.8141926453
 40
0.7970500407
100
AcDbArc
 50
177.3582002594
 51
178.6198083744
  0
ARC
  5
2BA
100
AcDbEntity
  8
LAYER_FEATURE
100
AcDbCircle
 62
7
  6
CONTINUOUS
 10
15.7423371483
 20
13.2290686939
 40
0.7904076265
100
AcDbArc
 50
182.538721663
 51
183.1673859334
  0
ARC
  5
2BB
100
AcDbEntity
  8
LAYER_FEATURE
100
AcDbCircle
 62
7
  6
CONTINUOUS
 10
15.8077313543
 20
13.1779439479
 40
0.7847825285
100
AcDbArc
 50
176.6676853066
 51
176.8131007378
  0
ARC
  5
2BC
100
AcDbEntity
  8
LAYER_FEATURE
100
AcDbCircle
 62
7
  6
CONTINUOUS
 10
15.5624148821
 20
12.7420870212
 40
0.7845847349
100
AcDbArc
 50
157.4650684127
 51
158.7027998402
  0
ARC
  5
2BD
100
AcDbEntity
  8
LAYER_FEATURE
100
AcDbCircle
 62
7
  6
CONTINUOUS
 10
15.7846557161
 20
11.8586170924
 40
0.7717398645
100
AcDbArc
 50
183.9337818522
 51
184.5108023835
  0
ARC
  5
2BE
100
AcDbEntity
  8
LAYER_FEATURE
100
AcDbCircle
 62
7
  6
CONTINUOUS
 10
15.5575759685
 20
11.8264489232
 40
0.6845757518
100
AcDbArc
 50
171.1680452734
 51
172.5658142859
  0
ARC
  5
2BF
100
AcDbEntity
  8
LAYER_FEATURE
100
AcDbCircle
 62
7
  6
CONTINUOUS
 10
15.5436754938
 20
13.2187635668
 40
0.6648101471
100
AcDbArc
 50
188.7184476902
 51
189.4236112011
  0
ARC
  5
2C0
100
AcDbEntity
  8
LAYER_FEATURE
100
AcDbCircle
 62
7
  6
CONTINUOUS
 10
15.2959311149
 20
11.9155689396
 40
0.4874332539
100
AcDbArc
 50
163.787825518
 51
165.5428842749
  0
ARC
  5
2C1
100
AcDbEntity
  8
LAYER_FEATURE
100
AcDbCircle
 62
7
  6
CONTINUOUS
 10
15.2748260034
 20
13.1286036137
 40
0.4625936856
100
AcDbArc
 50
196.0705895994
 51
196.9680902945
  0
ARC
  5
2C2
100
AcDbEntity
  8
LAYER_FEATURE
100
AcDbCircle
 62
7
  6
CONTINUOUS
 10
15.2507445075
 20
12.122081783
 40
0.434908661
100
AcDbArc
 50
212.1028312394
 51
213.9288274052
  0
ARC
  5
2C3
100
AcDbEntity
  8
LAYER_FEATURE
100
AcDbCircle
 62
7
  6
CONTINUOUS
 10
15.2117713597
 20
12.9258082538
 40
0.3879025493
100
AcDbArc
 50
143.9936888663
 51
145.9746848239
  0
ARC
  5
2C4
100
AcDbEntity
  8
LAYER_FEATURE
100
AcDbCircle
 62
7
  6
CONTINUOUS
 10
15.0410949494
 20
12.0783469495
 40
0.2816431281
100
AcDbArc
 50
153.7194048092
 51
156.2527239764
  0
ARC
  5
2C5
100
AcDbEntity
  8
LAYER_FEATURE
100
AcDbCircle
 62
7
  6
CONTINUOUS
 10
15.0218522215
 20
12.9642635235
 40
0.2605507381
100
AcDbArc
 50
206.077703553
 51
207.3928132667
  0
ARC
  5
2C6
100
AcDbEntity
  8
LAYER_FEATURE
100
AcDbCircle
 62
7
  6
CONTINUOUS
 10
14.7490978239
 20
11.8599342525
 40
0.1957539114
100
AcDbArc
 50
357.3636156308
 51
0.5252398327
  0
ARC
  5
2C7
100
AcDbEntity
  8
LAYER_FEATURE
100
AcDbCircle
 62
7
  6
CONTINUOUS
 10
14.7604832737
 20
13.1747140585
 40
0.1929492248
100
AcDbArc
 50
354.5028588339
 51
3.1736432078
  0
ARC
  5
2C8
100
AcDbEntity
  8
LAYER_FEATURE
100
AcDbCircle
 62
7
  6
CONTINUOUS
 10
15.0658770525
 20
11.9618188202
 40
0.1890440539
100
AcDbArc
 50
232.1626733971
 51
235.3445955946
  0
ARC
  5
2C9
100
AcDbEntity
  8
LAYER_FEATURE
100
AcDbCircle
 62
7
  6
CONTINUOUS
 10
14.7095138797
 20
11.9581236596
 40
0.1736477497
100
AcDbArc
 50
351.1995296329
 51
354.6242238698
  0
ARC
  5
2CA
100
AcDbEntity
  8
LAYER_FEATURE
100
AcDbCircle
 62
7
  6
CONTINUOUS
 10
15.0542168762
 20
13.0767137816
 40
0.1684928851
100
AcDbArc
 50
121.0307580576
 51
124.4845028723
  0
ARC
  5
2CB
100
AcDbEntity
  8
LAYER_FEATURE
100
AcDbCircle
 62
7
  6
CONTINUOUS
 10
14.6806716319
 20
12.9493830582
 40
0.157901508
100
AcDbArc
 50
358.3819233726
 51
4.2931978496
  0
ARC
  5
2CC
100
AcDbEntity
  8
LAYER_FEATURE
100
AcDbCircle
 62
7
  6
CONTINUOUS
 10
14.7897878306
 20
11.8604024976
 40
0.1550613513
100
AcDbArc
 50
0.4900561795
 51
6.000982566
  0
ARC
  5
2CD
100
AcDbEntity
  8
LAYER_FEATURE
100
AcDbCircle
 62
7
  6
CONTINUOUS
 10
14.8647932951
 20
12.2858872024
 40
0.1334388854
100
AcDbArc
 50
137.8619764354
 51
142.014463079
  0
ARC
  5
2CE
100
AcDbEntity
  8
LAYER_FEATURE
100
AcDbCircle
 62
7
  6
CONTINUOUS
 10
14.8507472807
 20
12.7552642028
 40
0.1191239563
100
AcDbArc
 50
221.8340827457
 51
224.0489877455
  0
ARC
  5
2CF
100
AcDbEntity
  8
LAYER_FEATURE
100
AcDbCircle
 62
7
  6
CONTINUOUS
 10
15.0321298728
 20
11.8922149084
 40
0.110909926
100
AcDbArc
 50
265.3268869103
 51
269.8796236902
  0
ARC
  5
2D0
100
AcDbEntity
  8
LAYER_FEATURE
100
AcDbCircle
 62
7
  6
CONTINUOUS
 10
14.7743775059
 20
12.5422285468
 40
0.0552533528
100
AcDbArc
 50
248.9864323084
 51
252.6864828836
  0
ARC
  5
2D1
100
AcDbEntity
  8
LAYER_FEATURE
100
AcDbCircle
 62
7
  6
CONTINUOUS
 10
14.9798995696
 20
11.8325256995
 40
0.0358813132
100
AcDbArc
 50
178.6184013361
 51
182.5581900919
  0
ARC
  5
2D2
100
AcDbEntity
  8
LAYER_FEATURE
100
AcDbCircle
 62
7
  6
CONTINUOUS
 10
14.9884784176
 20
13.1956410583
 40
0.0358081351
100
AcDbArc
 50
176.7114417861
 51
182.5339372348
  0
ARC
  5
2D3
100
AcDbEntity
  8
LAYER_FEATURE
100
AcDbCircle
 62
7
  6
CONTINUOUS
 10
14.9116008095
 20
11.9107457439
 40
0.0331236362
100
AcDbArc
 50
172.5784055582
 51
176.7478552278
  0
ARC
  5
2D4
100
AcDbEntity
  8
LAYER_FEATURE
100
AcDbCircle
 62
7
  6
CONTINUOUS
 10
15.0478128212
 20
11.8004755372
 40
0.0326066631
100
AcDbArc
 50
184.4915738445
 51
188.6772113932
  0
SPLINE
  5
2D5
100
AcDbEntity
  8
02___PRT_ALL_AXES
100
AcDbSpline
 62
7
  6
CONTINUOUS
 70
0
 71
3
 72
76
 73
72
 74
0
 42
0.0000001
 43
0.0000001
 44
0.0000000001
 40
0.0
 40
0.0
 40
0.0
 40
0.0
 40
0.0038601513
 40
0.0077283337
 40
0.0116125173
 40
0.0155205503
 40
0.0194601018
 40
0.0234386165
 40
0.0274632586
 40
0.0315408912
 40
0.0356780262
 40
0.0398808208
 40
0.0485043939
 40
0.0574550146
 40
0.0667679955
 40
0.0764726621
 40
0.0865927437
 40
0.0971468441
 40
0.108148937
 40
0.1196088478
 40
0.1315327018
 40
0.143923328
 40
0.1567806156
 40
0.1701018307
 40
0.1838818905
 40
0.1981136008
 40
0.2127878638
 40
0.2278938586
 40
0.2434191997
 40
0.2593500759
 40
0.2756713768
 40
0.2923668054
 40
0.3094189796
 40
0.3268095248
 40
0.3445191594
 40
0.3625277733
 40
0.3808145022
 40
0.3993577984
 40
0.4181354985
 40
0.4371248878
 40
0.4563027617
 40
0.4756454861
 40
0.4951290558
 40
0.5147291508
 40
0.5344211942
 40
0.5541804076
 40
0.5739818662
 40
0.5938005533
 40
0.613611415
 40
0.6333894137
 40
0.6531095835
 40
0.6727470846
 40
0.6922772582
 40
0.7116756821
 40
0.7309182263
 40
0.7499811101
 40
0.7688409599
 40
0.7874748694
 40
0.8058604614
 40
0.8239759503
 40
0.8418002084
 40
0.8593128338
 40
0.8764942241
 40
0.893325653
 40
0.9097893544
 40
0.9258686153
 40
0.9415478606
 40
0.9568128087
 40
0.971650435
 40
0.986049519
 40
1.0
 40
1.0
 40
1.0
 40
1.0
 10
16.1189765217
 20
11.9208049932
 30
0.0
 10
16.1204552232
 20
11.9208049919
 30
0.0
 10
16.1234162256
 20
11.9208784631
 30
0.0
 10
16.1278540492
 20
11.921208864
 30
0.0
 10
16.1322885454
 20
11.921759392
 30
0.0
 10
16.1367178584
 20
11.9225298019
 30
0.0
 10
16.1411403314
 20
11.9235197504
 30
0.0
 10
16.1455542523
 20
11.9247288602
 30
0.0
 10
16.1499579695
 20
11.9261565792
 30
0.0
 10
16.1543497832
 20
11.927802368
 30
0.0
 10
16.1587281342
 20
11.9296655521
 30
0.0
 10
16.1645954648
 20
11.9324623424
 30
0.0
 10
16.1718965793
 20
11.9365177251
 30
0.0
 10
16.180498942
 20
11.9421981243
 30
0.0
 10
16.1890057531
 20
11.9487248046
 30
0.0
 10
16.1974046364
 20
11.9560872313
 30
0.0
 10
16.2056839786
 20
11.9642741661
 30
0.0
 10
16.2138320853
 20
11.9732732686
 30
0.0
 10
16.2218374043
 20
11.9830711489
 30
0.0
 10
16.2296884753
 20
11.9936533082
 30
0.0
 10
16.2373739742
 20
12.0050041294
 30
0.0
 10
16.2448827382
 20
12.0171068718
 30
0.0
 10
16.2522038018
 20
12.0299436771
 30
0.0
 10
16.2593264227
 20
12.0434955882
 30
0.0
 10
16.266240111
 20
12.0577425727
 30
0.0
 10
16.272934654
 20
12.0726635492
 30
0.0
 10
16.2794001397
 20
12.0882364183
 30
0.0
 10
16.2856269775
 20
12.1044380952
 30
0.0
 10
16.2916059172
 20
12.1212445439
 30
0.0
 10
16.2973280693
 20
12.1386308135
 30
0.0
 10
16.3027849185
 20
12.1565710776
 30
0.0
 10
16.3079683387
 20
12.1750386748
 30
0.0
 10
16.3128706067
 20
12.19400615
 30
0.0
 10
16.3174844152
 20
12.2134452962
 30
0.0
 10
16.3218028842
 20
12.2333271969
 30
0.0
 10
16.3258195721
 20
12.2536222701
 30
0.0
 10
16.3295284881
 20
12.2743003121
 30
0.0
 10
16.3329240999
 20
12.2953305442
 30
0.0
 10
16.3360013416
 20
12.3166816594
 30
0.0
 10
16.3387556216
 20
12.3383218701
 30
0.0
 10
16.3411828297
 20
12.3602189555
 30
0.0
 10
16.3432793432
 20
12.3823403098
 30
0.0
 10
16.3450420322
 20
12.4046529911
 30
0.0
 10
16.3464682663
 20
12.4271237703
 30
0.0
 10
16.3475559181
 20
12.4497191817
 30
0.0
 10
16.3483033647
 20
12.472405573
 30
0.0
 10
16.3487094909
 20
12.4951491558
 30
0.0
 10
16.3487736901
 20
12.5179160565
 30
0.0
 10
16.3484958663
 20
12.5406723662
 30
0.0
 10
16.3478764328
 20
12.5633841916
 30
0.0
 10
16.3469163141
 20
12.5860177061
 30
0.0
 10
16.3456169442
 20
12.6085392005
 30
0.0
 10
16.343980263
 20
12.6309151335
 30
0.0
 10
16.3420087132
 20
12.653112182
 30
0.0
 10
16.3397052369
 20
12.6750972905
 30
0.0
 10
16.3370732712
 20
12.6968377208
 30
0.0
 10
16.3341167429
 20
12.7183011009
 30
0.0
 10
16.3308400629
 20
12.7394554743
 30
0.0
 10
16.3272481216
 20
12.7602693488
 30
0.0
 10
16.3233462784
 20
12.780711743
 30
0.0
 10
16.3191403541
 20
12.8007522331
 30
0.0
 10
16.3146366216
 20
12.8203609982
 30
0.0
 10
16.3098417965
 20
12.8395088658
 30
0.0
 10
16.3047630257
 20
12.8581673557
 30
0.0
 10
16.2994078771
 20
12.8763087257
 30
0.0
 10
16.2937843281
 20
12.8939060082
 30
0.0
 10
16.287900751
 20
12.9109330754
 30
0.0
 10
16.2817659016
 20
12.9273646004
 30
0.0
 10
16.2753888727
 20
12.9431763176
 30
0.0
 10
16.2687792145
 20
12.9583445019
 30
0.0
 10
16.264149907
 20
12.9681704034
 30
0.0
 10
16.2617956525
 20
12.9729678696
 30
0.0
  0
SPLINE
  5
2D6
100
AcDbEntity
  8
02___PRT_ALL_AXES
100
AcDbSpline
 62
7
  6
CONTINUOUS
 70
0
 71
3
 72
23
 73
19
 74
0
 42
0.0000001
 43
0.0000001
 44
0.0000000001
 40
0.0
 40
0.0
 40
0.0
 40
0.0
 40
0.0756380295
 40
0.1486216038
 40
0.2190619982
 40
0.2870944972
 40
0.3528801458
 40
0.4166072051
 40
0.4784920226
 40
0.5387790359
 40
0.5977396797
 40
0.6556699169
 40
0.71288625
 40
0.7697202215
 40
0.8265117192
 40
0.8836015738
 40
0.9413240682
 40
1.0
 40
1.0
 40
1.0
 40
1.0
 10
15.856329316
 20
11.9207984885
 30
0.0
 10
15.8538605784
 20
11.9181340096
 30
0.0
 10
15.8488911753
 20
11.9130065983
 30
0.0
 10
15.8412042422
 20
11.905818142
 30
0.0
 10
15.8334277648
 20
11.899279812
 30
0.0
 10
15.8255699338
 20
11.8933990505
 30
0.0
 10
15.8176387809
 20
11.8881824555
 30
0.0
 10
15.8096425163
 20
11.8836361092
 30
0.0
 10
15.8015894957
 20
11.8797654918
 30
0.0
 10
15.7934882868
 20
11.8765754947
 30
0.0
 10
15.785347722
 20
11.8740703635
 30
0.0
 10
15.7771769352
 20
11.8722536197
 30
0.0
 10
15.7689853728
 20
11.8711279303
 30
0.0
 10
15.7607827208
 20
11.8706950132
 30
0.0
 10
15.7525788735
 20
11.8709555304
 30
0.0
 10
15.7443835388
 20
11.8719091309
 30
0.0
 10
15.7362070786
 20
11.8735541591
 30
0.0
 10
15.7308268302
 20
11.8750953671
 30
0.0
 10
15.7281496799
 20
11.8759744875
 30
0.0
  0
SPLINE
  5
2D7
100
AcDbEntity
  8
LAYER_FEATURE
100
AcDbSpline
 62
7
  6
CONTINUOUS
 70
0
 71
3
 72
62
 73
58
 74
0
 42
0.0000001
 43
0.0000001
 44
0.0000000001
 40
0.0
 40
0.0
 40
0.0
 40
0.0
 40
0.0163626996
 40
0.0323749511
 40
0.0480423774
 40
0.0633715946
 40
0.078370187
 40
0.0930468396
 40
0.1074113181
 40
0.1214745915
 40
0.1487425465
 40
0.1749676713
 40
0.1877330887
 40
0.20028973
 40
0.2126575706
 40
0.2248578318
 40
0.2369128888
 40
0.2488461735
 40
0.2606820383
 40
0.2724455983
 40
0.284162552
 40
0.2958589784
 40
0.3075611283
 40
0.3192952043
 40
0.3310871441
 40
0.3429624177
 40
0.3549458253
 40
0.3670613412
 40
0.3793319449
 40
0.3917795283
 40
0.4044247679
 40
0.4172870987
 40
0.4437287963
 40
0.4712396408
 40
0.4999278004
 40
0.5147436112
 40
0.5298852893
 40
0.5453610165
 40
0.5611779644
 40
0.5773422948
 40
0.593859263
 40
0.6107332266
 40
0.6279677335
 40
0.6455655394
 40
0.6635286758
 40
0.6818584791
 40
0.7005556357
 40
0.7196202231
 40
0.739051733
 40
0.7588491244
 40
0.7790108253
 40
0.7995347974
 40
0.8204185184
 40
0.8632517797
 40
0.9074835935
 40
0.9530795873
 40
1.0
 40
1.0
 40
1.0
 40
1.0
 10
15.6132300775
 20
13.3173462953
 30
0.0
 10
15.6153057057
 20
13.3198330035
 30
0.0
 10
15.6194753363
 20
13.3247011726
 30
0.0
 10
15.6258544288
 20
13.3317563927
 30
0.0
 10
15.6322875633
 20
13.3384821978
 30
0.0
 10
15.6387721003
 20
13.3448758494
 30
0.0
 10
15.6453055346
 20
13.3509347661
 30
0.0
 10
15.6518852078
 20
13.3566565
 30
0.0
 10
15.6585086911
 20
13.3620388115
 30
0.0
 10
15.6673036574
 20
13.3686907549
 30
0.0
 10
15.6784000001
 20
13.3761787917
 30
0.0
 10
15.6898302907
 20
13.3826447375
 30
0.0
 10
15.6990187215
 20
13.3870893736
 30
0.0
 10
15.7058737831
 20
13.3900411651
 30
0.0
 10
15.7127510154
 20
13.392639516
 30
0.0
 10
15.7196477351
 20
13.3948833673
 30
0.0
 10
15.7265611133
 20
13.3967716908
 30
0.0
 10
15.733488321
 20
13.3983036472
 30
0.0
 10
15.740426499
 20
13.399478533
 30
0.0
 10
15.7473727674
 20
13.4002958025
 30
0.0
 10
15.7543242267
 20
13.4007550843
 30
0.0
 10
15.761277967
 20
13.4008561473
 30
0.0
 10
15.768231072
 20
13.4005989658
 30
0.0
 10
15.7751806256
 20
13.3999836333
 30
0.0
 10
15.7821237251
 20
13.39901047
 30
0.0
 10
15.7890574731
 20
13.3976798907
 30
0.0
 10
15.7959790075
 20
13.3959925482
 30
0.0
 10
15.8028854667
 20
13.3939491658
 30
0.0
 10
15.8097740517
 20
13.391550702
 30
0.0
 10
15.81664192
 20
13.3887981871
 30
0.0
 10
15.8234864347
 20
13.3856928011
 30
0.0
 10
15.8326610975
 20
13.3810412607
 30
0.0
 10
15.8440699585
 20
13.3743181212
 30
0.0
 10
15.8574908552
 20
13.3649385385
 30
0.0
 10
15.8684197829
 20
13.3560774837
 30
0.0
 10
15.8770729282
 20
13.3483357206
 30
0.0
 10
15.8835854383
 20
13.3421305407
 30
0.0
 10
15.8900478728
 20
13.3355918451
 30
0.0
 10
15.8964577772
 20
13.3287221218
 30
0.0
 10
15.9028125983
 20
13.3215241819
 30
0.0
 10
15.9091098062
 20
13.31400089
 30
0.0
 10
15.9153469132
 20
13.3061552764
 30
0.0
 10
15.9215214282
 20
13.2979904763
 30
0.0
 10
15.9276309022
 20
13.289509766
 30
0.0
 10
15.9336728962
 20
13.2807165394
 30
0.0
 10
15.9396450026
 20
13.2716143188
 30
0.0
 10
15.9455448399
 20
13.2622067509
 30
0.0
 10
15.9513700465
 20
13.2524976009
 30
0.0
 10
15.9571183024
 20
13.2424907622
 30
0.0
 10
15.9627872986
 20
13.2321902371
 30
0.0
 10
15.9683747754
 20
13.2216001647
 30
0.0
 10
15.9738785023
 20
13.2107247594
 30
0.0
 10
15.9811634996
 20
13.195723279
 30
0.0
 10
15.9900364314
 20
13.1762790594
 30
0.0
 10
16.0002268439
 20
13.1520716697
 30
0.0
 10
16.0100317272
 20
13.126835893
 30
0.0
 10
16.0162144555
 20
13.1095942187
 30
0.0
 10
16.0192422573
 20
13.1008133057
 30
0.0
  0
SPLINE
  5
2D8
100
AcDbEntity
  8
LAYER_FEATURE
100
AcDbSpline
 62
7
  6
CONTINUOUS
 70
0
 71
3
 72
61
 73
57
 74
0
 42
0.0000001
 43
0.0000001
 44
0.0000000001
 40
0.0
 40
0.0
 40
0.0
 40
0.0
 40
0.0163637322
 40
0.0323770148
 40
0.048045508
 40
0.0633757895
 40
0.0783754768
 40
0.0930532207
 40
0.1214788819
 40
0.1487490754
 40
0.1749764235
 40
0.1877429365
 40
0.2003006532
 40
0.2126695475
 40
0.2248708338
 40
0.2369268809
 40
0.248861117
 40
0.2606978858
 40
0.2724623002
 40
0.28418005
 40
0.2958772117
 40
0.3075800305
 40
0.3193147041
 40
0.3311071703
 40
0.3429828901
 40
0.3549666711
 40
0.3670824741
 40
0.3793532933
 40
0.3918010024
 40
0.4044462996
 40
0.4173085979
 40
0.4437500165
 40
0.4712602958
 40
0.4854530271
 40
0.4999518237
 40
0.5147671348
 40
0.5299082459
 40
0.5453833633
 40
0.5611996438
 40
0.5773632678
 40
0.5938794823
 40
0.6107526566
 40
0.6279863378
 40
0.6455832853
 40
0.6635455381
 40
0.6818744277
 40
0.7005706561
 40
0.719634288
 40
0.7390648385
 40
0.7588612463
 40
0.7790219696
 40
0.8204262838
 40
0.8632575708
 40
0.9074874255
 40
0.9530815722
 40
1.0
 40
1.0
 40
1.0
 40
1.0
 10
15.6132300783
 20
11.704263695
 30
0.0
 10
15.6153054736
 20
11.7017772666
 30
0.0
 10
15.6194746202
 20
11.6969096254
 30
0.0
 10
15.6258529906
 20
11.6898551707
 30
0.0
 10
15.6322853642
 20
11.6831300212
 30
0.0
 10
15.6387691359
 20
11.6767370009
 30
0.0
 10
15.6453018597
 20
11.6706785204
 30
0.0
 10
15.6539806234
 20
11.663131145
 30
0.0
 10
15.6649398025
 20
11.6545147942
 30
0.0
 10
15.6783921105
 20
11.6454361591
 30
0.0
 10
15.6898212763
 20
11.6389700504
 30
0.0
 10
15.6990085684
 20
11.634525266
 30
0.0
 10
15.7058628175
 20
11.6315732683
 30
0.0
 10
15.712739226
 20
11.6289746284
 30
0.0
 10
15.7196351249
 20
11.6267304048
 30
0.0
 10
15.726547684
 20
11.6248416307
 30
0.0
 10
15.7334740727
 20
11.6233091305
 30
0.0
 10
15.740411438
 20
11.6221336337
 30
0.0
 10
15.7473568949
 20
11.6213156488
 30
0.0
 10
15.7543075506
 20
11.6208555963
 30
0.0
 10
15.7612604925
 20
11.6207536475
 30
0.0
 10
15.768212806
 20
11.6210098989
 30
0.0
 10
15.7751615796
 20
11.621624178
 30
0.0
 10
15.7821039027
 20
11.6225962526
 30
0.0
 10
15.7890368937
 20
11.6239256143
 30
0.0
 10
15.7959576704
 20
11.6256117103
 30
0.0
 10
15.8028633995
 20
11.6276537156
 30
0.0
 10
15.8097512489
 20
11.6300507759
 30
0.0
 10
15.8166184186
 20
11.6328017605
 30
0.0
 10
15.8234622194
 20
11.6359055827
 30
0.0
 10
15.8326359825
 20
11.6405548763
 30
0.0
 10
15.8440434619
 20
11.6472748512
 30
0.0
 10
15.8551102579
 20
11.6550067471
 30
0.0
 10
15.8638803735
 20
11.6618521748
 30
0.0
 10
15.8704845631
 20
11.667380627
 30
0.0
 10
15.8770438432
 20
11.6732474314
 30
0.0
 10
15.8835557664
 20
11.6794503124
 30
0.0
 10
15.8900177119
 20
11.6859867492
 30
0.0
 10
15.8964271403
 20
11.692854114
 30
0.0
 10
15.9027815058
 20
11.7000496499
 30
0.0
 10
15.9090782898
 20
11.70757047
 30
0.0
 10
15.9153149952
 20
11.7154135576
 30
0.0
 10
15.9214891364
 20
11.7235757744
 30
0.0
 10
15.9275982668
 20
11.7320538454
 30
0.0
 10
15.9336399399
 20
11.7408443833
 30
0.0
 10
15.9396117637
 20
11.7499438593
 30
0.0
 10
15.9455113354
 20
11.7593486397
 30
0.0
 10
15.9513363236
 20
11.7690549492
 30
0.0
 10
15.9570843689
 20
11.7790589057
 30
0.0
 10
15.9627532264
 20
11.7893565153
 30
0.0
 10
15.9702695589
 20
11.8035988538
 30
0.0
 10
15.9794423644
 20
11.8221182253
 30
0.0
 10
15.990001961
 20
11.8452523277
 30
0.0
 10
16.000192538
 20
11.8694535836
 30
0.0
 10
16.009997646
 20
11.8946828967
 30
0.0
 10
16.0161806266
 20
11.9119202716
 30
0.0
 10
16.0192085696
 20
11.9206989962
 30
0.0
  0
SPLINE
  5
2D9
100
AcDbEntity
  8
02___PRT_ALL_AXES
100
AcDbSpline
 62
7
  6
CONTINUOUS
 70
0
 71
3
 72
23
 73
19
 74
0
 42
0.0000001
 43
0.0000001
 44
0.0000000001
 40
0.0
 40
0.0
 40
0.0
 40
0.0
 40
0.0586760882
 40
0.1163987427
 40
0.1734887553
 40
0.2302804027
 40
0.2871145085
 40
0.3443309542
 40
0.4022612772
 40
0.4612219741
 40
0.521509003
 40
0.5833937969
 40
0.647120793
 40
0.7129063383
 40
0.7809386895
 40
0.8513788932
 40
0.924362237
 40
1.0
 40
1.0
 40
1.0
 40
1.0
 10
15.7281496799
 20
13.1456354984
 30
0.0
 10
15.7308268012
 20
13.1465146087
 30
0.0
 10
15.73620699
 20
13.1480558035
 30
0.0
 10
15.7443833595
 20
13.1497008241
 30
0.0
 10
15.7525786031
 20
13.1506544322
 30
0.0
 10
15.7607823593
 20
13.1509149736
 30
0.0
 10
15.7689849207
 20
13.1504820962
 30
0.0
 10
15.7771763934
 20
13.1493564616
 30
0.0
 10
15.7853470915
 20
13.1475397865
 30
0.0
 10
15.793487569
 20
13.1450347397
 30
0.0
 10
15.8015886926
 20
13.1418448425
 30
0.0
 10
15.8096416298
 20
13.1379743394
 30
0.0
 10
15.8176378133
 20
13.1334281213
 30
0.0
 10
15.825568887
 20
13.1282116677
 30
0.0
 10
15.8334266421
 20
13.1223310626
 30
0.0
 10
15.8412030466
 20
13.1157929025
 30
0.0
 10
15.8488899106
 20
13.1086046295
 30
0.0
 10
15.8538592699
 20
13.103477344
 30
0.0
 10
15.8563279875
 20
13.1008129311
 30
0.0
  0
SPLINE
  5
2DA
100
AcDbEntity
  8
02___PRT_ALL_AXES
100
AcDbSpline
 62
7
  6
CONTINUOUS
 70
0
 71
3
 72
24
 73
20
 74
0
 42
0.0000001
 43
0.0000001
 44
0.0000000001
 40
0.0
 40
0.0
 40
0.0
 40
0.0
 40
0.0478952917
 40
0.0962574104
 40
0.1455367247
 40
0.1961529582
 40
0.2484846146
 40
0.3028630291
 40
0.3309152477
 40
0.3595806569
 40
0.4188500353
 40
0.4808691877
 40
0.5457839904
 40
0.6137024867
 40
0.6846995377
 40
0.7588199428
 40
0.836082018
 40
0.9164862998
 40
1.0
 40
1.0
 40
1.0
 40
1.0
 10
16.1189765217
 20
12.3233049938
 30
0.0
 10
16.1179549511
 20
12.3233049903
 30
0.0
 10
16.115900166
 20
12.3234161387
 30
0.0
 10
16.1128307443
 20
12.3239149294
 30
0.0
 10
16.1097735802
 20
12.3247446255
 30
0.0
 10
16.1067349873
 20
12.3259030154
 30
0.0
 10
16.1037204127
 20
12.3273871694
 30
0.0
 10
16.1012582223
 20
12.328877177
 30
0.0
 10
16.0993068612
 20
12.3302223207
 30
0.0
 10
16.0973248057
 20
12.3317036763
 30
0.0
 10
16.0948709491
 20
12.3337596205
 30
0.0
 10
16.0920021956
 20
12.3365099621
 30
0.0
 10
16.0891817119
 20
12.3395656913
 30
0.0
 10
16.0864142826
 20
12.3429213297
 30
0.0
 10
16.0837045019
 20
12.3465710504
 30
0.0
 10
16.0810569769
 20
12.350508487
 30
0.0
 10
16.0784761656
 20
12.3547268834
 30
0.0
 10
16.0759666154
 20
12.3592187747
 30
0.0
 10
16.074373818
 20
12.3623320818
 30
0.0
 10
16.0735890861
 20
12.3639311974
 30
0.0
  0
SPLINE
  5
2DB
100
AcDbEntity
  8
02___PRT_ALL_AXES
100
AcDbSpline
 62
7
  6
CONTINUOUS
 70
0
 71
3
 72
58
 73
54
 74
0
 42
0.0000001
 43
0.0000001
 44
0.0000000001
 40
0.0
 40
0.0
 40
0.0
 40
0.0
 40
0.0139505261
 40
0.0283504425
 40
0.0431883946
 40
0.0584536912
 40
0.074133404
 40
0.090213095
 40
0.1066772429
 40
0.1235091231
 40
0.1406909814
 40
0.1582040819
 40
0.1941433005
 40
0.2311624272
 40
0.2690849108
 40
0.3077257187
 40
0.3468932933
 40
0.3863913996
 40
0.4260209017
 40
0.4655815193
 40
0.5048735739
 40
0.5436997279
 40
0.581866769
 40
0.6191874363
 40
0.6554823069
 40
0.6731924159
 40
0.690583434
 40
0.7076360759
 40
0.7243319492
 40
0.7406536959
 40
0.7565850041
 40
0.7721107579
 40
0.7872171706
 40
0.801891829
 40
0.8161239215
 40
0.8299043642
 40
0.8432259315
 40
0.8560835659
 40
0.8684745347
 40
0.8803987025
 40
0.8918589295
 40
0.9028613249
 40
0.9134157031
 40
0.9235360654
 40
0.9332409921
 40
0.9425542197
 40
0.9515050903
 40
0.9601288935
 40
0.9684671686
 40
0.9765676165
 40
0.9844836967
 40
0.9922738192
 40
1.0
 40
1.0
 40
1.0
 40
1.0
 10
16.0735890861
 20
12.3639311974
 30
0.0
 10
16.0728409298
 20
12.3654557795
 30
0.0
 10
16.0713697558
 20
12.3685784342
 30
0.0
 10
16.069269212
 20
12.3733988287
 30
0.0
 10
16.0672426007
 20
12.3784237733
 30
0.0
 10
16.0652929803
 20
12.3836456484
 30
0.0
 10
16.0634231924
 20
12.3890567866
 30
0.0
 10
16.0616360479
 20
12.394649148
 30
0.0
 10
16.0599342044
 20
12.400414415
 30
0.0
 10
16.058320185
 20
12.4063440147
 30
0.0
 10
16.0567963981
 20
12.4124291549
 30
0.0
 10
16.0548715243
 20
12.4208100211
 30
0.0
 10
16.0527130293
 20
12.4316126933
 30
0.0
 10
16.0505370822
 20
12.4449367728
 30
0.0
 10
16.0487666102
 20
12.4586523722
 30
0.0
 10
16.0474122115
 20
12.4726779001
 30
0.0
 10
16.0464819981
 20
12.4869300714
 30
0.0
 10
16.0459815491
 20
12.5013241703
 30
0.0
 10
16.0459138688
 20
12.5157746341
 30
0.0
 10
16.0462793552
 20
12.5301955524
 30
0.0
 10
16.0470758167
 20
12.5445011991
 30
0.0
 10
16.0482984874
 20
12.5586065329
 30
0.0
 10
16.049940038
 20
12.5724277825
 30
0.0
 10
16.0519906314
 20
12.5858827209
 30
0.0
 10
16.0540465186
 20
12.5968111337
 30
0.0
 10
16.0558913809
 20
12.6053048851
 30
0.0
 10
16.0573576423
 20
12.6114825925
 30
0.0
 10
16.0589155599
 20
12.6175103896
 30
0.0
 10
16.0605628397
 20
12.6233793288
 30
0.0
 10
16.0622970042
 20
12.6290806842
 30
0.0
 10
16.0641154841
 20
12.6346059815
 30
0.0
 10
16.0660155761
 20
12.6399470122
 30
0.0
 10
16.0679944381
 20
12.6450958522
 30
0.0
 10
16.0700491495
 20
12.6500448569
 30
0.0
 10
16.0721766554
 20
12.6547866917
 30
0.0
 10
16.0743737954
 20
12.659314338
 30
0.0
 10
16.0766373458
 20
12.6636210865
 30
0.0
 10
16.0789639552
 20
12.6677005788
 30
0.0
 10
16.0813502096
 20
12.6715467922
 30
0.0
 10
16.0837926419
 20
12.6751540406
 30
0.0
 10
16.086287682
 20
12.6785170175
 30
0.0
 10
16.0888317424
 20
12.6816307534
 30
0.0
 10
16.0914211901
 20
12.6844906324
 30
0.0
 10
16.0940523289
 20
12.6870924166
 30
0.0
 10
16.0967214749
 20
12.6894321723
 30
0.0
 10
16.0994248878
 20
12.6915063117
 30
0.0
 10
16.1021587776
 20
12.693311573
 30
0.0
 10
16.1049193153
 20
12.694844941
 30
0.0
 10
16.1077025353
 20
12.6961037438
 30
0.0
 10
16.1105042886
 20
12.6970856135
 30
0.0
 10
16.1133203545
 20
12.6977885072
 30
0.0
 10
16.1161457893
 20
12.6982109182
 30
0.0
 10
16.1180359789
 20
12.6983049888
 30
0.0
 10
16.1189765217
 20
12.698304992
 30
0.0
  0
SPLINE
  5
2DC
100
AcDbEntity
  8
02___PRT_ALL_AXES
100
AcDbSpline
 62
7
  6
CONTINUOUS
 70
0
 71
3
 72
28
 73
24
 74
0
 42
0.0000001
 43
0.0000001
 44
0.0000000001
 40
0.0
 40
0.0
 40
0.0
 40
0.0
 40
0.0835099152
 40
0.1639062348
 40
0.2411638705
 40
0.3152793562
 40
0.386271481
 40
0.4541854331
 40
0.5190958474
 40
0.5811108569
 40
0.6403762273
 40
0.6970796105
 40
0.751454399
 40
0.7778611762
 40
0.8037957655
 40
0.8293011223
 40
0.8544231919
 40
0.8792107113
 40
0.9037150479
 40
0.927989834
 40
0.9520906791
 40
0.9760746805
 40
1.0
 40
1.0
 40
1.0
 40
1.0
 10
16.2617956525
 20
12.9729678696
 30
0.0
 10
16.2593263083
 20
12.9779998641
 30
0.0
 10
16.2543143589
 20
12.9877963783
 30
0.0
 10
16.2464175902
 20
13.0019308397
 30
0.0
 10
16.2382967112
 20
13.0152046367
 30
0.0
 10
16.2299658097
 20
13.0275944806
 30
0.0
 10
16.2214390402
 20
13.0390789293
 30
0.0
 10
16.212730844
 20
13.0496380075
 30
0.0
 10
16.2038557735
 20
13.0592533145
 30
0.0
 10
16.1948285743
 20
13.0679079197
 30
0.0
 10
16.1856638681
 20
13.0755864398
 30
0.0
 10
16.1763771857
 20
13.0822744645
 30
0.0
 10
16.1684720111
 20
13.0870582209
 30
0.0
 10
16.1621120236
 20
13.0903576117
 30
0.0
 10
16.1573686633
 20
13.0925535318
 30
0.0
 10
16.1526080095
 20
13.09449361
 30
0.0
 10
16.1478320899
 20
13.0961769869
 30
0.0
 10
16.1430430353
 20
13.0976027953
 30
0.0
 10
16.1382429941
 20
13.0987703778
 30
0.0
 10
16.1334341328
 20
13.0996790912
 30
0.0
 10
16.1286185999
 20
13.1003285363
 30
0.0
 10
16.1237987721
 20
13.1007183106
 30
0.0
 10
16.1205824026
 20
13.1008049912
 30
0.0
 10
16.1189765217
 20
13.1008049927
 30
0.0
  0
SPLINE
  5
2DD
100
AcDbEntity
  8
LAYER_FEATURE
100
AcDbSpline
 62
7
  6
CONTINUOUS
 70
0
 71
3
 72
66
 73
62
 74
0
 42
0.0000001
 43
0.0000001
 44
0.0000000001
 40
0.0
 40
0.0
 40
0.0
 40
0.0
 40
0.0475504311
 40
0.0938109099
 40
0.1387327279
 40
0.1606783745
 40
0.1822734872
 40
0.2035135488
 40
0.224394454
 40
0.2449124887
 40
0.2650644304
 40
0.284847502
 40
0.3042594568
 40
0.3232985571
 40
0.3419636547
 40
0.3602541829
 40
0.3781702304
 40
0.3957125518
 40
0.4128826342
 40
0.4296827281
 40
0.4461159056
 40
0.4621861117
 40
0.4778982155
 40
0.4932580807
 40
0.5082726083
 40
0.5229498237
 40
0.5372989104
 40
0.5513303073
 40
0.5650557297
 40
0.591637143
 40
0.604528781
 40
0.6171753035
 40
0.6295955735
 40
0.641809882
 40
0.653839954
 40
0.6657088321
 40
0.6774408155
 40
0.689061287
 40
0.7005965769
 40
0.7120737406
 40
0.7235203552
 40
0.7349642679
 40
0.7464333508
 40
0.7579552529
 40
0.7695571475
 40
0.7812655232
 40
0.7931059583
 40
0.8051029758
 40
0.8172798679
 40
0.8296586245
 40
0.8422598151
 40
0.8551025844
 40
0.8815767253
 40
0.8952443659
 40
0.9092155545
 40
0.9235022663
 40
0.9381151845
 40
0.9530637297
 40
0.9683561473
 40
0.983999551
 40
1.0
 40
1.0
 40
1.0
 40
1.0
 10
14.6685311881
 20
13.0640378647
 30
0.0
 10
14.6714914256
 20
13.0736171968
 30
0.0
 10
14.6775573078
 20
13.0924472923
 30
0.0
 10
14.687234344
 20
13.1200562116
 30
0.0
 10
14.6957298629
 20
13.1423494737
 30
0.0
 10
14.7027484199
 20
13.1596321342
 30
0.0
 10
14.7080749576
 20
13.1722107894
 30
0.0
 10
14.7135025923
 20
13.1845011227
 30
0.0
 10
14.7190289541
 20
13.196497819
 30
0.0
 10
14.7246516617
 20
13.2081956383
 30
0.0
 10
14.7303682421
 20
13.2195895006
 30
0.0
 10
14.7361762354
 20
13.2306744387
 30
0.0
 10
14.7420730934
 20
13.2414456393
 30
0.0
 10
14.7480562764
 20
13.251898408
 30
0.0
 10
14.7541231677
 20
13.262028207
 30
0.0
 10
14.7602711518
 20
13.2718306235
 30
0.0
 10
14.7664975502
 20
13.2813014022
 30
0.0
 10
14.7727996769
 20
13.2904364197
 30
0.0
 10
14.7791747972
 20
13.2992317085
 30
0.0
 10
14.7856201604
 20
13.3076834414
 30
0.0
 10
14.7921329822
 20
13.3157879436
 30
0.0
 10
14.7987104527
 20
13.3235416898
 30
0.0
 10
14.8053497434
 20
13.3309413004
 30
0.0
 10
14.8120479926
 20
13.3379835575
 30
0.0
 10
14.8188023284
 20
13.3446653746
 30
0.0
 10
14.8256098593
 20
13.3509838554
 30
0.0
 10
14.8324676115
 20
13.3569361641
 30
0.0
 10
14.8393728916
 20
13.3625198789
 30
0.0
 10
14.8485401225
 20
13.3693956857
 30
0.0
 10
14.8578912596
 20
13.3756166902
 30
0.0
 10
14.8674070933
 20
13.381119592
 30
0.0
 10
14.8745042352
 20
13.3848255047
 30
0.0
 10
14.8816305203
 20
13.3881500719
 30
0.0
 10
14.8887830306
 20
13.3910917816
 30
0.0
 10
14.8959585732
 20
13.3936492667
 30
0.0
 10
14.9031540216
 20
13.3958212377
 30
0.0
 10
14.9103661576
 20
13.397606693
 30
0.0
 10
14.9175917734
 20
13.3990046754
 30
0.0
 10
14.9248275969
 20
13.4000145514
 30
0.0
 10
14.9320703571
 20
13.4006357317
 30
0.0
 10
14.9393167464
 20
13.4008679724
 30
0.0
 10
14.9465634567
 20
13.4007110775
 30
0.0
 10
14.953807178
 20
13.4001652038
 30
0.0
 10
14.9610446011
 20
13.3992305578
 30
0.0
 10
14.9682724497
 20
13.3979076896
 30
0.0
 10
14.9754874477
 20
13.3961971986
 30
0.0
 10
14.9826863797
 20
13.3941000044
 30
0.0
 10
14.9898660228
 20
13.3916170781
 30
0.0
 10
14.997023242
 20
13.388749673
 30
0.0
 10
15.00415484
 20
13.3854991295
 30
0.0
 10
15.0112578926
 20
13.3818669236
 30
0.0
 10
15.0207816751
 20
13.3764633066
 30
0.0
 10
15.0301429837
 20
13.3703393177
 30
0.0
 10
15.0393216036
 20
13.3635583148
 30
0.0
 10
15.0462357127
 20
13.3580462991
 30
0.0
 10
15.0531028587
 20
13.352165197
 30
0.0
 10
15.0599203546
 20
13.3459174051
 30
0.0
 10
15.0666852132
 20
13.3393057301
 30
0.0
 10
15.0733945592
 20
13.3323330248
 30
0.0
 10
15.0800454543
 20
13.325002414
 30
0.0
 10
15.0843891825
 20
13.3199363808
 30
0.0
 10
15.0865511054
 20
13.3173462924
 30
0.0
  0
SPLINE
  5
2DE
100
AcDbEntity
  8
LAYER_FEATURE
100
AcDbSpline
 62
7
  6
CONTINUOUS
 70
0
 71
3
 72
38
 73
34
 74
0
 42
0.0000001
 43
0.0000001
 44
0.0000000001
 40
0.0
 40
0.0
 40
0.0
 40
0.0
 40
0.0839157284
 40
0.1248866986
 40
0.1651792971
 40
0.2047802982
 40
0.2436767058
 40
0.2818567955
 40
0.3193099172
 40
0.3560265286
 40
0.3919982145
 40
0.4272178615
 40
0.4616797087
 40
0.4953793878
 40
0.5283141358
 40
0.5604827643
 40
0.5918859186
 40
0.6225261002
 40
0.6524078603
 40
0.6815379682
 40
0.7099254985
 40
0.73758213
 40
0.7645221939
 40
0.7907629899
 40
0.8163249064
 40
0.8412316412
 40
0.8655104332
 40
0.8891921553
 40
0.9123115777
 40
0.9349073735
 40
0.9570222579
 40
0.9787029361
 40
1.0
 40
1.0
 40
1.0
 40
1.0
 10
15.5613511962
 20
12.9151251969
 30
0.0
 10
15.5638478367
 20
12.9232043285
 30
0.0
 10
15.5677291791
 20
12.9351779803
 30
0.0
 10
15.5732165029
 20
12.9508928962
 30
0.0
 10
15.5774080408
 20
12.9623288705
 30
0.0
 10
15.5817058227
 20
12.9735016239
 30
0.0
 10
15.5861074006
 20
12.9844047024
 30
0.0
 10
15.5906101736
 20
12.9950317317
 30
0.0
 10
15.5952115468
 20
13.0053765261
 30
0.0
 10
15.599908822
 20
13.0154330769
 30
0.0
 10
15.6046992827
 20
13.0251955278
 30
0.0
 10
15.6095801411
 20
13.0346582017
 30
0.0
 10
15.6145485535
 20
13.0438156013
 30
0.0
 10
15.6196016575
 20
13.0526623946
 30
0.0
 10
15.6247364969
 20
13.0611934527
 30
0.0
 10
15.6299501255
 20
13.0694038059
 30
0.0
 10
15.6352395065
 20
13.0772886956
 30
0.0
 10
15.6406015954
 20
13.0848435367
 30
0.0
 10
15.6460333031
 20
13.0920639379
 30
0.0
 10
15.6515314868
 20
13.0989457145
 30
0.0
 10
15.657093013
 20
13.1054848474
 30
0.0
 10
15.662714663
 20
13.1116775523
 30
0.0
 10
15.668393246
 20
13.1175201988
 30
0.0
 10
15.674125501
 20
13.1230093865
 30
0.0
 10
15.6799081646
 20
13.1281418933
 30
0.0
 10
15.6857379531
 20
13.1329146841
 30
0.0
 10
15.6916115303
 20
13.1373249501
 30
0.0
 10
15.6975255784
 20
13.1413700193
 30
0.0
 10
15.7034767068
 20
13.1450474788
 30
0.0
 10
15.7094615124
 20
13.148355037
 30
0.0
 10
15.7154766204
 20
13.1512906677
 30
0.0
 10
15.7215182795
 20
13.1538524183
 30
0.0
 10
15.7255950122
 20
13.1553219636
 30
0.0
 10
15.7276339747
 20
13.155991516
 30
0.0
  0
SPLINE
  5
2DF
100
AcDbEntity
  8
LAYER_FEATURE
100
AcDbSpline
 62
7
  6
CONTINUOUS
 70
0
 71
3
 72
64
 73
60
 74
0
 42
0.0000001
 43
0.0000001
 44
0.0000000001
 40
0.0
 40
0.0
 40
0.0
 40
0.0
 40
0.0158703652
 40
0.0320482297
 40
0.0485207216
 40
0.0652751843
 40
0.0822979659
 40
0.0995750415
 40
0.1170918846
 40
0.1348335286
 40
0.1527846124
 40
0.1709294059
 40
0.1892518441
 40
0.2077355596
 40
0.2263639159
 40
0.2451200374
 40
0.2829462296
 40
0.3210763059
 40
0.3593696318
 40
0.3976845288
 40
0.4358791833
 40
0.4738125448
 40
0.5113452423
 40
0.5299189071
 40
0.548341379
 40
0.566596125
 40
0.5846668936
 40
0.6025377467
 40
0.6201930916
 40
0.6376177185
 40
0.6547968333
 40
0.6717160925
 40
0.6883616409
 40
0.704720153
 40
0.7207788798
 40
0.7365256902
 40
0.751949119
 40
0.7670384198
 40
0.7817836259
 40
0.7961756158
 40
0.8102061782
 40
0.8238680885
 40
0.8371551962
 40
0.8500625261
 40
0.8625863856
 40
0.8747244833
 40
0.8864760665
 40
0.897842078
 40
0.9088253358
 40
0.9194307231
 40
0.9296654012
 40
0.9395390437
 40
0.949064089
 40
0.9582560003
 40
0.9671335135
 40
0.9757188655
 40
0.984037974
 40
0.992120536
 40
1.0
 40
1.0
 40
1.0
 40
1.0
 10
15.5613511962
 20
12.9151251969
 30
0.0
 10
15.5595999246
 20
12.9094580799
 30
0.0
 10
15.5561739174
 20
12.8979796151
 30
0.0
 10
15.5513073966
 20
12.8805092374
 30
0.0
 10
15.5466680754
 20
12.8626355486
 30
0.0
 10
15.5422610367
 20
12.8443782223
 30
0.0
 10
15.538091086
 20
12.8257570431
 30
0.0
 10
15.5341627801
 20
12.8067923507
 30
0.0
 10
15.5304804048
 20
12.7875048117
 30
0.0
 10
15.5270479822
 20
12.7679154577
 30
0.0
 10
15.523869261
 20
12.7480456495
 30
0.0
 10
15.520947717
 20
12.7279170549
 30
0.0
 10
15.5182865403
 20
12.7075516236
 30
0.0
 10
15.5158886394
 20
12.6869715801
 30
0.0
 10
15.5137566182
 20
12.6661993278
 30
0.0
 10
15.51126469
 20
12.6381993489
 30
0.0
 10
15.508834213
 20
12.6028796658
 30
0.0
 10
15.5070166911
 20
12.5602129758
 30
0.0
 10
15.5062981498
 20
12.5173308484
 30
0.0
 10
15.5066817276
 20
12.4744203455
 30
0.0
 10
15.5081657362
 20
12.4316683097
 30
0.0
 10
15.5107436931
 20
12.3892612364
 30
0.0
 10
15.5138046392
 20
12.3542428446
 30
0.0
 10
15.51679691
 20
12.3265481889
 30
0.0
 10
15.5192983414
 20
12.3060495676
 30
0.0
 10
15.5220619264
 20
12.2857743374
 30
0.0
 10
15.5250846628
 20
12.2657445672
 30
0.0
 10
15.5283632452
 20
12.2459821133
 30
0.0
 10
15.5318940968
 20
12.2265085247
 30
0.0
 10
15.5356733583
 20
12.2073450356
 30
0.0
 10
15.5396969006
 20
12.1885125382
 30
0.0
 10
15.5439603299
 20
12.1700315628
 30
0.0
 10
15.5484589928
 20
12.1519222552
 30
0.0
 10
15.5531879807
 20
12.1342043528
 30
0.0
 10
15.5581421289
 20
12.1168971599
 30
0.0
 10
15.5633160307
 20
12.1000195296
 30
0.0
 10
15.5687040425
 20
12.0835898437
 30
0.0
 10
15.5743002924
 20
12.067625993
 30
0.0
 10
15.5800986826
 20
12.0521453536
 30
0.0
 10
15.5860928947
 20
12.0371647658
 30
0.0
 10
15.5922764056
 20
12.0227005198
 30
0.0
 10
15.5986424932
 20
12.0087683387
 30
0.0
 10
15.6051842485
 20
11.9953833603
 30
0.0
 10
15.6118945779
 20
11.9825601155
 30
0.0
 10
15.618766217
 20
11.9703125139
 30
0.0
 10
15.625791746
 20
11.9586538342
 30
0.0
 10
15.6329636004
 20
11.9475967119
 30
0.0
 10
15.6402740866
 20
11.9371531282
 30
0.0
 10
15.6477153851
 20
11.9273343932
 30
0.0
 10
15.6552795737
 20
11.9181511474
 30
0.0
 10
15.6629586404
 20
11.9096133637
 30
0.0
 10
15.6707444955
 20
11.9017303514
 30
0.0
 10
15.6786289806
 20
11.8945107616
 30
0.0
 10
15.686603857
 20
11.8879625935
 30
0.0
 10
15.6946608347
 20
11.882093215
 30
0.0
 10
15.7027914584
 20
11.876909408
 30
0.0
 10
15.7109873986
 20
11.8724172806
 30
0.0
 10
15.7192392435
 20
11.8686226179
 30
0.0
 10
15.7248360238
 20
11.8665372588
 30
0.0
 10
15.7276339747
 20
11.8656184699
 30
0.0
  0
SPLINE
  5
2E0
100
AcDbEntity
  8
LAYER_FEATURE
100
AcDbSpline
 62
7
  6
CONTINUOUS
 70
0
 71
3
 72
23
 73
19
 74
0
 42
0.0000001
 43
0.0000001
 44
0.0000000001
 40
0.0
 40
0.0
 40
0.0
 40
0.0
 40
0.0737077669
 40
0.1460529945
 40
0.2169947594
 40
0.2864994308
 40
0.3545339512
 40
0.4210685773
 40
0.4860768457
 40
0.5495355372
 40
0.6114251694
 40
0.6717302059
 40
0.7304393479
 40
0.7875459411
 40
0.8430484004
 40
0.8969505948
 40
0.9492623402
 40
1.0
 40
1.0
 40
1.0
 40
1.0
 10
15.42667356
 20
13.0018768678
 30
0.0
 10
15.4285034037
 20
13.0077982444
 30
0.0
 10
15.4322268698
 20
13.0195016662
 30
0.0
 10
15.4380604433
 20
13.0367907834
 30
0.0
 10
15.4440865108
 20
13.0536389938
 30
0.0
 10
15.4502999273
 20
13.0700320063
 30
0.0
 10
15.4566955465
 20
13.0859562131
 30
0.0
 10
15.4632679947
 20
13.1013982595
 30
0.0
 10
15.4700117704
 20
13.116345231
 30
0.0
 10
15.4769212494
 20
13.1307846287
 30
0.0
 10
15.4839906534
 20
13.1447043856
 30
0.0
 10
15.4912140823
 20
13.1580928769
 30
0.0
 10
15.4985855232
 20
13.1709389175
 30
0.0
 10
15.5060988529
 20
13.183231786
 30
0.0
 10
15.5137478141
 20
13.1949612165
 30
0.0
 10
15.5215261165
 20
13.2061174784
 30
0.0
 10
15.5294271844
 20
13.2166910665
 30
0.0
 10
15.5348545224
 20
13.2234484426
 30
0.0
 10
15.5375883224
 20
13.2267236723
 30
0.0
  0
SPLINE
  5
2E1
100
AcDbEntity
  8
LAYER_FEATURE
100
AcDbSpline
 62
7
  6
CONTINUOUS
 70
0
 71
3
 72
56
 73
52
 74
0
 42
0.0000001
 43
0.0000001
 44
0.0000000001
 40
0.0
 40
0.0
 40
0.0
 40
0.0
 40
0.0147757968
 40
0.0297979056
 40
0.0450573708
 40
0.0605458769
 40
0.0762543475
 40
0.0921734331
 40
0.1082935455
 40
0.1246047935
 40
0.1577592154
 40
0.1915535645
 40
0.2259007324
 40
0.2607108881
 40
0.2958919596
 40
0.3313501084
 40
0.3669901967
 40
0.4027162358
 40
0.4384318392
 40
0.4740406688
 40
0.5094468829
 40
0.5445555833
 40
0.5792732779
 40
0.6135083364
 40
0.6471714744
 40
0.663761771
 40
0.6801769317
 40
0.696406677
 40
0.7124409775
 40
0.7282700643
 40
0.7438844442
 40
0.7592749293
 40
0.7744326551
 40
0.7893490945
 40
0.8040160868
 40
0.8184258691
 40
0.8325710904
 40
0.8464448415
 40
0.8600406979
 40
0.8733527424
 40
0.8863755969
 40
0.8991044747
 40
0.9115352211
 40
0.9236643509
 40
0.9354891095
 40
0.9470075391
 40
0.9582185294
 40
0.9691218907
 40
0.9797184487
 40
0.9900101191
 40
1.0
 40
1.0
 40
1.0
 40
1.0
 10
15.42667356
 20
13.0018768678
 30
0.0
 10
15.4248603263
 20
12.9960092416
 30
0.0
 10
15.4213010332
 20
12.9841458543
 30
0.0
 10
15.4162029252
 20
12.9661247603
 30
0.0
 10
15.4113046274
 20
12.9477415764
 30
0.0
 10
15.4066100695
 20
12.9290111166
 30
0.0
 10
15.4021229595
 20
12.9099481352
 30
0.0
 10
15.3978468771
 20
12.8905678244
 30
0.0
 10
15.3937852078
 20
12.8708855528
 30
0.0
 10
15.3886321067
 20
12.8441163201
 30
0.0
 10
15.3827582094
 20
12.8100081222
 30
0.0
 10
15.3766505698
 20
12.7683467522
 30
0.0
 10
15.3714658247
 20
12.7258671496
 30
0.0
 10
15.3672205339
 20
12.6827044079
 30
0.0
 10
15.3639282392
 20
12.6389955532
 30
0.0
 10
15.3615994363
 20
12.5948794415
 30
0.0
 10
15.3602415735
 20
12.5504962169
 30
0.0
 10
15.3598589661
 20
12.5059868882
 30
0.0
 10
15.3604528464
 20
12.4614928671
 30
0.0
 10
15.3620213183
 20
12.4171555179
 30
0.0
 10
15.364559367
 20
12.3731156962
 30
0.0
 10
15.3680589105
 20
12.329513321
 30
0.0
 10
15.3725087659
 20
12.2864868354
 30
0.0
 10
15.3778947434
 20
12.2441730816
 30
0.0
 10
15.3831740148
 20
12.2094514363
 30
0.0
 10
15.3878589465
 20
12.1821396043
 30
0.0
 10
15.3915781302
 20
12.1620157018
 30
0.0
 10
15.3955167231
 20
12.1421691466
 30
0.0
 10
15.3996716
 20
12.122615677
 30
0.0
 10
15.4040394477
 20
12.103370842
 30
0.0
 10
15.4086168002
 20
12.0844499357
 30
0.0
 10
15.4134000129
 20
12.0658679934
 30
0.0
 10
15.4183852744
 20
12.0476397768
 30
0.0
 10
15.4235686246
 20
12.0297797694
 30
0.0
 10
15.4289459458
 20
12.0123021597
 30
0.0
 10
15.4345129537
 20
11.995220825
 30
0.0
 10
15.440265224
 20
11.9785493295
 30
0.0
 10
15.446198195
 20
11.9623009126
 30
0.0
 10
15.4523071456
 20
11.9464884675
 30
0.0
 10
15.4585872225
 20
11.9311245396
 30
0.0
 10
15.4650334509
 20
11.9162213213
 30
0.0
 10
15.4716407163
 20
11.9017906302
 30
0.0
 10
15.4784037757
 20
11.8878439015
 30
0.0
 10
15.4853172801
 20
11.8743921904
 30
0.0
 10
15.4923757674
 20
11.8614461551
 30
0.0
 10
15.499573652
 20
11.8490160408
 30
0.0
 10
15.5069052618
 20
11.8371116821
 30
0.0
 10
15.5143648244
 20
11.8257425192
 30
0.0
 10
15.5219465129
 20
11.8149174912
 30
0.0
 10
15.5296442336
 20
11.8046453316
 30
0.0
 10
15.5349276066
 20
11.798073985
 30
0.0
 10
15.5375883218
 20
11.7948863103
 30
0.0
  0
SPLINE
  5
2E2
100
AcDbEntity
  8
LAYER_FEATURE
100
AcDbSpline
 62
7
  6
CONTINUOUS
 70
0
 71
3
 72
99
 73
95
 74
0
 42
0.0000001
 43
0.0000001
 44
0.0000000001
 40
0.0
 40
0.0
 40
0.0
 40
0.0
 40
0.0176369488
 40
0.0357006419
 40
0.0541686684
 40
0.0730172581
 40
0.092221499
 40
0.1117554019
 40
0.1315920243
 40
0.151703565
 40
0.1720614613
 40
0.1926364802
 40
0.213398808
 40
0.2343181359
 40
0.2553637456
 40
0.2765045915
 40
0.2977093833
 40
0.3189466671
 40
0.340184906
 40
0.3613925609
 40
0.3825381705
 40
0.4035904322
 40
0.4245182835
 40
0.4452909836
 40
0.4658781969
 40
0.4862500769
 40
0.5063773533
 40
0.52623142
 40
0.5457844272
 40
0.5650093769
 40
0.5838802222
 40
0.6023719736
 40
0.6204608108
 40
0.6381242042
 40
0.6553410462
 40
0.6720917959
 40
0.688358639
 40
0.6963057533
 40
0.7041260993
 40
0.7118180134
 40
0.7193799934
 40
0.7268106754
 40
0.734108875
 40
0.741273563
 40
0.7483039099
 40
0.7551992618
 40
0.7619591871
 40
0.7685834541
 40
0.7750720794
 40
0.7814253083
 40
0.7876436637
 40
0.7937279311
 40
0.7996792073
 40
0.8054988902
 40
0.8111887269
 40
0.8167508094
 40
0.8221876202
 40
0.8275020339
 40
0.832697359
 40
0.8377773449
 40
0.8427462172
 40
0.847608687
 40
0.8523699776
 40
0.8570358322
 40
0.8616125266
 40
0.8661068707
 40
0.8705262022
 40
0.8748783741
 40
0.8791717262
 40
0.8834150524
 40
0.8876175471
 40
0.8917887495
 40
0.8959384678
 40
0.9000767024
 40
0.904213556
 40
0.9083591443
 40
0.9125235046
 40
0.9167165052
 40
0.9209477674
 40
0.9252265842
 40
0.9295618666
 40
0.9339620792
 40
0.9384352149
 40
0.9429887489
 40
0.9476296415
 40
0.9571967136
 40
0.9621360738
 40
0.9671853162
 40
0.9723487886
 40
0.9776303766
 40
0.983033498
 40
0.9885611524
 40
0.994215918
 40
1.0
 40
1.0
 40
1.0
 40
1.0
 10
14.6685311881
 20
13.0640378647
 30
0.0
 10
14.6654881554
 20
13.0541906074
 30
0.0
 10
14.6595726589
 20
13.0341815869
 30
0.0
 10
14.65129915
 20
13.0036240818
 30
0.0
 10
14.6435300477
 20
12.9722045433
 30
0.0
 10
14.636279034
 20
12.9399780837
 30
0.0
 10
14.6295587932
 20
12.9070009596
 30
0.0
 10
14.6233811095
 20
12.8733308238
 30
0.0
 10
14.61775681
 20
12.839026536
 30
0.0
 10
14.612695756
 20
12.8041480797
 30
0.0
 10
14.6082068211
 20
12.7687564497
 30
0.0
 10
14.6042978771
 20
12.7329135461
 30
0.0
 10
14.6009757787
 20
12.6966820644
 30
0.0
 10
14.5982463519
 20
12.6601253844
 30
0.0
 10
14.5961143835
 20
12.623307459
 30
0.0
 10
14.5945836126
 20
12.5862927008
 30
0.0
 10
14.5936567238
 20
12.5491458691
 30
0.0
 10
14.5933353428
 20
12.5119319559
 30
0.0
 10
14.5936200333
 20
12.4747160709
 30
0.0
 10
14.5945102958
 20
12.4375633275
 30
0.0
 10
14.5960045691
 20
12.400538728
 30
0.0
 10
14.5981002325
 20
12.363707049
 30
0.0
 10
14.6007936105
 20
12.3271327273
 30
0.0
 10
14.6040799795
 20
12.290879747
 30
0.0
 10
14.6079535763
 20
12.2550115257
 30
0.0
 10
14.6124076079
 20
12.2195908034
 30
0.0
 10
14.6174342641
 20
12.1846795314
 30
0.0
 10
14.623024731
 20
12.1503387628
 30
0.0
 10
14.6291692074
 20
12.1166285445
 30
0.0
 10
14.6358569222
 20
12.0836078103
 30
0.0
 10
14.6430761544
 20
12.0513342762
 30
0.0
 10
14.6508142541
 20
12.0198643388
 30
0.0
 10
14.6590576681
 20
11.9892529683
 30
0.0
 10
14.6677919603
 20
11.9595536326
 30
0.0
 10
14.6770018578
 20
11.9308181186
 30
0.0
 10
14.6866712184
 20
11.9030967336
 30
0.0
 10
14.6951623795
 20
11.8807105456
 30
0.0
 10
14.7021787882
 20
11.863354273
 30
0.0
 10
14.7075044278
 20
11.8507211574
 30
0.0
 10
14.7129318002
 20
11.838376879
 30
0.0
 10
14.71845852
 20
11.8263267988
 30
0.0
 10
14.7240822044
 20
11.8145761997
 30
0.0
 10
14.7298003603
 20
11.8031302004
 30
0.0
 10
14.7356105316
 20
11.7919938152
 30
0.0
 10
14.7415101422
 20
11.7811718916
 30
0.0
 10
14.7474966615
 20
11.7706691723
 30
0.0
 10
14.7535674382
 20
11.7604902239
 30
0.0
 10
14.7597198712
 20
11.7506395094
 30
0.0
 10
14.765951241
 20
11.7411213076
 30
0.0
 10
14.7722588801
 20
11.731939794
 30
0.0
 10
14.778640008
 20
11.7230989533
 30
0.0
 10
14.7850918953
 20
11.7146026673
 30
0.0
 10
14.791611708
 20
11.7064546217
 30
0.0
 10
14.7981966598
 20
11.6986583986
 30
0.0
 10
14.8048438701
 20
11.6912173814
 30
0.0
 10
14.8115505003
 20
11.6841348488
 30
0.0
 10
14.8183136298
 20
11.6774138804
 30
0.0
 10
14.8251303718
 20
11.6710574482
 30
0.0
 10
14.831997771
 20
11.6650683289
 30
0.0
 10
14.8389128947
 20
11.6594491867
 30
0.0
 10
14.8458727557
 20
11.6542024973
 30
0.0
 10
14.8528743755
 20
11.6493306166
 30
0.0
 10
14.8599147334
 20
11.6448357225
 30
0.0
 10
14.8669908018
 20
11.6407198612
 30
0.0
 10
14.8740995203
 20
11.6369849139
 30
0.0
 10
14.8812378055
 20
11.6336326122
 30
0.0
 10
14.8884025468
 20
11.6306645366
 30
0.0
 10
14.8955905962
 20
11.6280820928
 30
0.0
 10
14.9027987825
 20
11.6258865472
 30
0.0
 10
14.9100238881
 20
11.6240789592
 30
0.0
 10
14.9172626759
 20
11.6226602587
 30
0.0
 10
14.9245118647
 20
11.6216311314
 30
0.0
 10
14.9317681597
 20
11.6209921427
 30
0.0
 10
14.9390282377
 20
11.6207435787
 30
0.0
 10
14.9462887702
 20
11.6208856172
 30
0.0
 10
14.9535464274
 20
11.6214181312
 30
0.0
 10
14.9607978813
 20
11.6223409024
 30
0.0
 10
14.9680398343
 20
11.6236533967
 30
0.0
 10
14.9752689914
 20
11.6253550099
 30
0.0
 10
14.9824821172
 20
11.6274448249
 30
0.0
 10
14.9896759682
 20
11.6299218721
 30
0.0
 10
14.9968473934
 20
11.6327848882
 30
0.0
 10
15.0039931713
 20
11.6360325399
 30
0.0
 10
15.0111103676
 20
11.6396633323
 30
0.0
 10
15.0206532161
 20
11.6450671042
 30
0.0
 10
15.0300331897
 20
11.6511942371
 30
0.0
 10
15.0392298734
 20
11.6579810055
 30
0.0
 10
15.0461576485
 20
11.6634989229
 30
0.0
 10
15.0530383243
 20
11.6693873436
 30
0.0
 10
15.059869176
 20
11.6756438818
 30
0.0
 10
15.0666472244
 20
11.6822656924
 30
0.0
 10
15.073369551
 20
11.6892499309
 30
0.0
 10
15.0800332287
 20
11.6965934326
 30
0.0
 10
15.0843851302
 20
11.7016687512
 30
0.0
 10
15.0865511051
 20
11.7042636953
 30
0.0
  0
SPLINE
  5
2E3
100
AcDbEntity
  8
02___PRT_ALL_AXES
100
AcDbSpline
 62
7
  6
CONTINUOUS
 70
0
 71
3
 72
76
 73
72
 74
0
 42
0.0000001
 43
0.0000001
 44
0.0000000001
 40
0.0
 40
0.0
 40
0.0
 40
0.0
 40
0.0038601513
 40
0.0077283336
 40
0.0116125177
 40
0.0155205498
 40
0.0194601026
 40
0.0234386159
 40
0.0274632593
 40
0.0315408911
 40
0.0356780258
 40
0.0398808217
 40
0.0485043955
 40
0.0574550157
 40
0.0667679947
 40
0.0764726596
 40
0.086592741
 40
0.0971468428
 40
0.1081489378
 40
0.1196088503
 40
0.1315327044
 40
0.1439233285
 40
0.1567806136
 40
0.1701018275
 40
0.1838818881
 40
0.1981136006
 40
0.2127878657
 40
0.2278938613
 40
0.2434192012
 40
0.2593500752
 40
0.2756713745
 40
0.2923668029
 40
0.3094189785
 40
0.3268095256
 40
0.3445191612
 40
0.3625277748
 40
0.3808145024
 40
0.3993577974
 40
0.4181354971
 40
0.4371248868
 40
0.4563027617
 40
0.4756454868
 40
0.4951290564
 40
0.5147291509
 40
0.534421194
 40
0.5541804073
 40
0.5739818661
 40
0.5938005535
 40
0.613611415
 40
0.6333894135
 40
0.6531095832
 40
0.6727470844
 40
0.6922772584
 40
0.7116756827
 40
0.730918227
 40
0.7499811102
 40
0.7688409593
 40
0.7874748687
 40
0.805860461
 40
0.8239759505
 40
0.841800209
 40
0.8593128346
 40
0.8764942245
 40
0.8933256527
 40
0.9097893538
 40
0.925868615
 40
0.941547861
 40
0.9568128074
 40
0.9716504398
 40
0.9860495111
 40
1.0
 40
1.0
 40
1.0
 40
1.0
 10
15.759762734
 20
13.1008049912
 30
0.0
 10
15.7582840325
 20
13.1008049887
 30
0.0
 10
15.7553230303
 20
13.1007315235
 30
0.0
 10
15.7508852058
 20
13.100401127
 30
0.0
 10
15.7464507118
 20
13.0998505861
 30
0.0
 10
15.7420213949
 20
13.0990801945
 30
0.0
 10
15.7375989271
 20
13.0980902249
 30
0.0
 10
15.7331850006
 20
13.0968811344
 30
0.0
 10
15.7287812883
 20
13.0954534005
 30
0.0
 10
15.7243894719
 20
13.0938076198
 30
0.0
 10
15.7200111204
 20
13.0919444359
 30
0.0
 10
15.7141437924
 20
13.0891476389
 30
0.0
 10
15.7068426771
 20
13.0850922567
 30
0.0
 10
15.698240315
 20
13.0794118578
 30
0.0
 10
15.6897335024
 20
13.072885182
 30
0.0
 10
15.6813346179
 20
13.0655227589
 30
0.0
 10
15.6730552756
 20
13.0573358243
 30
0.0
 10
15.6649071696
 20
13.0483367194
 30
0.0
 10
15.6569018517
 20
13.0385388357
 30
0.0
 10
15.6490507818
 20
13.0279566738
 30
0.0
 10
15.6413652834
 20
13.0166058524
 30
0.0
 10
15.633856518
 20
13.0045031128
 30
0.0
 10
15.6265354528
 20
12.9916663111
 30
0.0
 10
15.6194128308
 20
12.9781144018
 30
0.0
 10
15.6124991431
 20
12.9638674163
 30
0.0
 10
15.6058046015
 20
12.948946437
 30
0.0
 10
15.5993391174
 20
12.9333735651
 30
0.0
 10
15.5931122805
 20
12.9171718872
 30
0.0
 10
15.5871333399
 20
12.9003654398
 30
0.0
 10
15.581411186
 20
12.8829791728
 30
0.0
 10
15.5759543352
 20
12.8650389108
 30
0.0
 10
15.5707709146
 20
12.8465713139
 30
0.0
 10
15.5658686479
 20
12.8276038371
 30
0.0
 10
15.5612548413
 20
12.8081646888
 30
0.0
 10
15.5569363738
 20
12.7882827868
 30
0.0
 10
15.5529196856
 20
12.7679877139
 30
0.0
 10
15.5492107681
 20
12.7473096732
 30
0.0
 10
15.5458151546
 20
12.7262794425
 30
0.0
 10
15.5427379117
 20
12.7049283279
 30
0.0
 10
15.5399836321
 20
12.6832881168
 30
0.0
 10
15.5375564258
 20
12.6613910304
 30
0.0
 10
15.5354599143
 20
12.6392696753
 30
0.0
 10
15.5336972257
 20
12.616956994
 30
0.0
 10
15.5322709905
 20
12.5944862151
 30
0.0
 10
15.5311833372
 20
12.5718908042
 30
0.0
 10
15.5304358893
 20
12.549204413
 30
0.0
 10
15.5300297627
 20
12.52646083
 30
0.0
 10
15.5299655645
 20
12.5036939292
 30
0.0
 10
15.5302433903
 20
12.4809376196
 30
0.0
 10
15.5308628248
 20
12.4582257945
 30
0.0
 10
15.5318229429
 20
12.4355922801
 30
0.0
 10
15.5331223117
 20
12.4130707854
 30
0.0
 10
15.5347589918
 20
12.3906948519
 30
0.0
 10
15.5367305411
 20
12.368497803
 30
0.0
 10
15.5390340175
 20
12.3465126945
 30
0.0
 10
15.5416659844
 20
12.3247722649
 30
0.0
 10
15.5446225141
 20
12.3033088856
 30
0.0
 10
15.5478991939
 20
12.2821545123
 30
0.0
 10
15.5514911346
 20
12.2613406374
 30
0.0
 10
15.555392977
 20
12.2408982425
 30
0.0
 10
15.5595989009
 20
12.2208577519
 30
0.0
 10
15.5641026332
 20
12.2012489866
 30
0.0
 10
15.5688974588
 20
12.1821011194
 30
0.0
 10
15.5739762305
 20
12.1634426304
 30
0.0
 10
15.5793313791
 20
12.1453012607
 30
0.0
 10
15.5849549279
 20
12.1277039779
 30
0.0
 10
15.5908385047
 20
12.1106769108
 30
0.0
 10
15.5969733539
 20
12.0942453837
 30
0.0
 10
15.6033503828
 20
12.0784336699
 30
0.0
 10
15.60996004
 20
12.0632654847
 30
0.0
 10
15.6145893474
 20
12.0534395851
 30
0.0
 10
15.6169436032
 20
12.0486421162
 30
0.0
  0
SPLINE
  5
2E4
100
AcDbEntity
  8
LAYER_FEATURE
100
AcDbSpline
 62
7
  6
CONTINUOUS
 70
0
 71
3
 72
11
 73
7
 74
0
 42
0.0000001
 43
0.0000001
 44
0.0000000001
 40
0.0
 40
0.0
 40
0.0
 40
0.0
 40
0.2411984124
 40
0.4860365326
 40
0.7379717236
 40
1.0
 40
1.0
 40
1.0
 40
1.0
 10
14.9691359243
 20
13.2215721154
 30
0.0
 10
14.9689865103
 20
13.2215721191
 30
0.0
 10
14.9686850503
 20
13.2215517525
 30
0.0
 10
14.9682358336
 20
13.2214605088
 30
0.0
 10
14.9677896583
 20
13.22130897
 30
0.0
 10
14.9675016646
 20
13.2211713785
 30
0.0
 10
14.9673591051
 20
13.2210937661
 30
0.0
  0
SPLINE
  5
2E5
100
AcDbEntity
  8
02___PRT_ALL_AXES
100
AcDbSpline
 62
7
  6
CONTINUOUS
 70
0
 71
3
 72
76
 73
72
 74
0
 42
0.0000001
 43
0.0000001
 44
0.0000000001
 40
0.0
 40
0.0
 40
0.0
 40
0.0
 40
0.0038601513
 40
0.0077283337
 40
0.0116125173
 40
0.0155205503
 40
0.0194601018
 40
0.0234386165
 40
0.0274632586
 40
0.0315408912
 40
0.0356780262
 40
0.0398808208
 40
0.0485043939
 40
0.0574550146
 40
0.0667679955
 40
0.0764726621
 40
0.0865927437
 40
0.0971468441
 40
0.108148937
 40
0.1196088478
 40
0.1315327018
 40
0.143923328
 40
0.1567806156
 40
0.1701018307
 40
0.1838818905
 40
0.1981136008
 40
0.2127878638
 40
0.2278938586
 40
0.2434191997
 40
0.2593500759
 40
0.2756713768
 40
0.2923668054
 40
0.3094189796
 40
0.3268095248
 40
0.3445191594
 40
0.3625277733
 40
0.3808145022
 40
0.3993577984
 40
0.4181354985
 40
0.4371248878
 40
0.4563027617
 40
0.4756454861
 40
0.4951290558
 40
0.5147291508
 40
0.5344211942
 40
0.5541804076
 40
0.5739818662
 40
0.5938005533
 40
0.613611415
 40
0.6333894137
 40
0.6531095835
 40
0.6727470846
 40
0.6922772582
 40
0.7116756821
 40
0.7309182263
 40
0.7499811101
 40
0.7688409599
 40
0.7874748694
 40
0.8058604614
 40
0.8239759503
 40
0.8418002084
 40
0.8593128338
 40
0.8764942241
 40
0.893325653
 40
0.9097893544
 40
0.9258686153
 40
0.9415478606
 40
0.9568128087
 40
0.971650435
 40
0.986049519
 40
1.0
 40
1.0
 40
1.0
 40
1.0
 10
16.1189765217
 20
13.1008049927
 30
0.0
 10
16.1174978201
 20
13.1008049939
 30
0.0
 10
16.1145368177
 20
13.1007315227
 30
0.0
 10
16.1100989942
 20
13.1004011218
 30
0.0
 10
16.105664498
 20
13.0998505938
 30
0.0
 10
16.101235185
 20
13.0990801839
 30
0.0
 10
16.096812712
 20
13.0980902354
 30
0.0
 10
16.0923987911
 20
13.0968811256
 30
0.0
 10
16.0879950739
 20
13.0954534066
 30
0.0
 10
16.0836032602
 20
13.0938076178
 30
0.0
 10
16.0792249092
 20
13.0919444337
 30
0.0
 10
16.0733575786
 20
13.0891476434
 30
0.0
 10
16.0660564641
 20
13.0850922607
 30
0.0
 10
16.0574541014
 20
13.0794118615
 30
0.0
 10
16.0489472903
 20
13.0728851812
 30
0.0
 10
16.040548407
 20
13.0655227545
 30
0.0
 10
16.0322690647
 20
13.0573358197
 30
0.0
 10
16.0241209581
 20
13.0483367172
 30
0.0
 10
16.0161156391
 20
13.0385388369
 30
0.0
 10
16.0082645681
 20
13.0279566777
 30
0.0
 10
16.0005790692
 20
13.0166058564
 30
0.0
 10
15.9930703052
 20
13.004503114
 30
0.0
 10
15.9857492416
 20
12.9916663087
 30
0.0
 10
15.9786266207
 20
12.9781143976
 30
0.0
 10
15.9717129324
 20
12.9638674131
 30
0.0
 10
15.9650183894
 20
12.9489464366
 30
0.0
 10
15.9585529037
 20
12.9333735675
 30
0.0
 10
15.9523260659
 20
12.9171718907
 30
0.0
 10
15.9463471262
 20
12.9003654419
 30
0.0
 10
15.9406249741
 20
12.8829791723
 30
0.0
 10
15.9351681249
 20
12.8650389082
 30
0.0
 10
15.9299847047
 20
12.846571311
 30
0.0
 10
15.9250824367
 20
12.8276038358
 30
0.0
 10
15.9204686282
 20
12.8081646897
 30
0.0
 10
15.9161501592
 20
12.7882827889
 30
0.0
 10
15.9121334713
 20
12.7679877157
 30
0.0
 10
15.9084245553
 20
12.7473096737
 30
0.0
 10
15.9050289435
 20
12.7262794416
 30
0.0
 10
15.9019517018
 20
12.7049283264
 30
0.0
 10
15.8991974218
 20
12.6832881157
 30
0.0
 10
15.8967702137
 20
12.6613910303
 30
0.0
 10
15.8946737002
 20
12.639269676
 30
0.0
 10
15.8929110112
 20
12.6169569948
 30
0.0
 10
15.891484777
 20
12.5944862155
 30
0.0
 10
15.8903971253
 20
12.5718908041
 30
0.0
 10
15.8896496787
 20
12.5492044128
 30
0.0
 10
15.8892435525
 20
12.52646083
 30
0.0
 10
15.8891793532
 20
12.5036939293
 30
0.0
 10
15.8894571771
 20
12.4809376196
 30
0.0
 10
15.8900766106
 20
12.4582257942
 30
0.0
 10
15.8910367293
 20
12.4355922797
 30
0.0
 10
15.8923360991
 20
12.4130707854
 30
0.0
 10
15.8939727804
 20
12.3906948523
 30
0.0
 10
15.8959443302
 20
12.3684978038
 30
0.0
 10
15.8982478065
 20
12.3465126953
 30
0.0
 10
15.9008797722
 20
12.324772265
 30
0.0
 10
15.9038363005
 20
12.3033088849
 30
0.0
 10
15.9071129805
 20
12.2821545115
 30
0.0
 10
15.9107049218
 20
12.261340637
 30
0.0
 10
15.914606765
 20
12.2408982428
 30
0.0
 10
15.9188126893
 20
12.2208577527
 30
0.0
 10
15.9233164218
 20
12.2012489876
 30
0.0
 10
15.9281112469
 20
12.18210112
 30
0.0
 10
15.9331900177
 20
12.1634426301
 30
0.0
 10
15.9385451663
 20
12.1453012601
 30
0.0
 10
15.9441687153
 20
12.1277039776
 30
0.0
 10
15.9500522924
 20
12.1106769104
 30
0.0
 10
15.9561871418
 20
12.0942453854
 30
0.0
 10
15.9625641707
 20
12.0784336683
 30
0.0
 10
15.9691738289
 20
12.0632654839
 30
0.0
 10
15.9738031364
 20
12.0534395824
 30
0.0
 10
15.9761573909
 20
12.0486421162
 30
0.0
  0
SPLINE
  5
2E6
100
AcDbEntity
  8
02___PRT_ALL_AXES
100
AcDbSpline
 62
7
  6
CONTINUOUS
 70
0
 71
3
 72
28
 73
24
 74
0
 42
0.0000001
 43
0.0000001
 44
0.0000000001
 40
0.0
 40
0.0
 40
0.0
 40
0.0
 40
0.0835099525
 40
0.1639062145
 40
0.2411638821
 40
0.3152793565
 40
0.3862714862
 40
0.4541854371
 40
0.5190958512
 40
0.5811108595
 40
0.6403762281
 40
0.6970796095
 40
0.751454396
 40
0.7778611816
 40
0.8037957619
 40
0.8293011273
 40
0.8544231885
 40
0.8792107151
 40
0.9037150454
 40
0.9279898362
 40
0.9520906781
 40
0.9760746812
 40
1.0
 40
1.0
 40
1.0
 40
1.0
 10
15.6169436032
 20
12.0486421162
 30
0.0
 10
15.6194129486
 20
12.0436101195
 30
0.0
 10
15.6244248968
 20
12.0338136062
 30
0.0
 10
15.632321667
 20
12.0196791447
 30
0.0
 10
15.6404425433
 20
12.0064053489
 30
0.0
 10
15.6487734464
 20
11.994015504
 30
0.0
 10
15.657300215
 20
11.9825310553
 30
0.0
 10
15.6660084116
 20
11.9719719771
 30
0.0
 10
15.674883482
 20
11.9623566703
 30
0.0
 10
15.6839106813
 20
11.9537020654
 30
0.0
 10
15.6930753879
 20
11.9460235465
 30
0.0
 10
15.7023620693
 20
11.9393355204
 30
0.0
 10
15.7102672476
 20
11.9345517705
 30
0.0
 10
15.7166272293
 20
11.9312523683
 30
0.0
 10
15.7213705956
 20
11.9290564603
 30
0.0
 10
15.7261312432
 20
11.9271163681
 30
0.0
 10
15.7309071687
 20
11.9254330068
 30
0.0
 10
15.735696218
 20
11.9240071822
 30
0.0
 10
15.7404962637
 20
11.9228396164
 30
0.0
 10
15.7453051215
 20
11.921930887
 30
0.0
 10
15.7501206567
 20
11.9212814563
 30
0.0
 10
15.7549404832
 20
11.9208916713
 30
0.0
 10
15.7581568532
 20
11.9208049919
 30
0.0
 10
15.759762734
 20
11.9208049946
 30
0.0
  0
SPLINE
  5
2E7
100
AcDbEntity
  8
LAYER_FEATURE
100
AcDbSpline
 62
7
  6
CONTINUOUS
 70
0
 71
3
 72
31
 73
27
 74
0
 42
0.0000001
 43
0.0000001
 44
0.0000000001
 40
0.0
 40
0.0
 40
0.0
 40
0.0
 40
0.0289875279
 40
0.0576865741
 40
0.0861404736
 40
0.1143939789
 40
0.1424930448
 40
0.1704845936
 40
0.1984162054
 40
0.2263358526
 40
0.2542915785
 40
0.2823311996
 40
0.3105019948
 40
0.3388504455
 40
0.3674219185
 40
0.3962604951
 40
0.4254086868
 40
0.4549073086
 40
0.5150983913
 40
0.5771335686
 40
0.641266972
 40
0.7077188602
 40
0.7766764775
 40
0.8482957635
 40
0.9227035549
 40
1.0
 40
1.0
 40
1.0
 40
1.0
 10
15.7276339747
 20
13.155991516
 30
0.0
 10
15.7290953141
 20
13.1564713891
 30
0.0
 10
15.7320234696
 20
13.1573666908
 30
0.0
 10
15.736448268
 20
13.1585176477
 30
0.0
 10
15.7408805248
 20
13.1594689983
 30
0.0
 10
15.7453187507
 20
13.1602203885
 30
0.0
 10
15.7497615726
 20
13.160771544
 30
0.0
 10
15.754207571
 20
13.1611223142
 30
0.0
 10
15.7586553392
 20
13.1612725286
 30
0.0
 10
15.763103459
 20
13.1612221787
 30
0.0
 10
15.7675505161
 20
13.1609712554
 30
0.0
 10
15.7719950944
 20
13.1605198492
 30
0.0
 10
15.7764357877
 20
13.1598681368
 30
0.0
 10
15.7808711826
 20
13.1590163041
 30
0.0
 10
15.7852998957
 20
13.1579646872
 30
0.0
 10
15.7897205088
 20
13.1567136095
 30
0.0
 10
15.7941317174
 20
13.1552634828
 30
0.0
 10
15.8000379459
 20
13.153050669
 30
0.0
 10
15.8074014425
 20
13.1497740225
 30
0.0
 10
15.8161149481
 20
13.1450809596
 30
0.0
 10
15.824755588
 20
13.1396069004
 30
0.0
 10
15.8333127447
 20
13.1333594164
 30
0.0
 10
15.8417765261
 20
13.1263466586
 30
0.0
 10
15.8501370626
 20
13.1185775074
 30
0.0
 10
15.8583843722
 20
13.1100619141
 30
0.0
 10
15.8636981812
 20
13.1040108464
 30
0.0
 10
15.8663355106
 20
13.100869777
 30
0.0
  0
LINE
  5
2E8
100
AcDbEntity
  8
LAYER_FEATURE
100
AcDbLine
 62
7
  6
CONTINUOUS
 10
14.7679899129
 20
12.7370560084
 11
14.7673664868
 21
12.7369641738
  0
SPLINE
  5
2E9
100
AcDbEntity
  8
LAYER_FEATURE
100
AcDbSpline
 62
7
  6
CONTINUOUS
 70
0
 71
3
 72
23
 73
19
 74
0
 42
0.0000001
 43
0.0000001
 44
0.0000000001
 40
0.0
 40
0.0
 40
0.0
 40
0.0
 40
0.0408177029
 40
0.0825018107
 40
0.1258518345
 40
0.171556728
 40
0.2201731459
 40
0.2721229864
 40
0.3277055418
 40
0.3871154437
 40
0.4504578706
 40
0.5177639846
 40
0.5890047068
 40
0.6640994532
 40
0.7429217289
 40
0.8253107019
 40
0.9110852015
 40
1.0
 40
1.0
 40
1.0
 40
1.0
 10
14.797925708
 20
12.9054619995
 30
0.0
 10
14.7977477946
 20
12.9054619993
 30
0.0
 10
14.7973875581
 20
12.9054329461
 30
0.0
 10
14.79685249
 20
12.9053031203
 30
0.0
 10
14.7963227266
 20
12.905087992
 30
0.0
 10
14.7958005635
 20
12.9047890839
 30
0.0
 10
14.7952877609
 20
12.9044080317
 30
0.0
 10
14.7947860024
 20
12.9039465819
 30
0.0
 10
14.7942969138
 20
12.9034066245
 30
0.0
 10
14.7938221644
 20
12.9027902269
 30
0.0
 10
14.7933634141
 20
12.9020997212
 30
0.0
 10
14.7929223144
 20
12.9013377065
 30
0.0
 10
14.7925005085
 20
12.9005070436
 30
0.0
 10
14.7920995782
 20
12.8996108831
 30
0.0
 10
14.7917210369
 20
12.8986526411
 30
0.0
 10
14.791366328
 20
12.8976359226
 30
0.0
 10
14.7910368468
 20
12.8965646822
 30
0.0
 10
14.7908382196
 20
12.8958294507
 30
0.0
 10
14.7907430988
 20
12.8954537495
 30
0.0
  0
SPLINE
  5
2EA
100
AcDbEntity
  8
02___PRT_ALL_AXES
100
AcDbSpline
 62
7
  6
CONTINUOUS
 70
0
 71
3
 72
63
 73
59
 74
0
 42
0.0000001
 43
0.0000001
 44
0.0000000001
 40
0.0
 40
0.0
 40
0.0
 40
0.0
 40
0.0078794708
 40
0.0159620397
 40
0.0242811552
 40
0.0328665146
 40
0.0417440354
 40
0.0509359545
 40
0.060461008
 40
0.0703346589
 40
0.0805693458
 40
0.0911747421
 40
0.1021580093
 40
0.1135240305
 40
0.1252756237
 40
0.1374137318
 40
0.149937602
 40
0.1628449429
 40
0.1761320619
 40
0.189793984
 40
0.2038245583
 40
0.2182165605
 40
0.2329617793
 40
0.2480510929
 40
0.263474535
 40
0.2792213588
 40
0.2952800993
 40
0.3116386254
 40
0.328284188
 40
0.3452034617
 40
0.3623825911
 40
0.3798072329
 40
0.3974625928
 40
0.4153334612
 40
0.4334042453
 40
0.4516590069
 40
0.4700814946
 40
0.4886551752
 40
0.5261879047
 40
0.5641212987
 40
0.6023159858
 40
0.6406309156
 40
0.6789242742
 40
0.7170543831
 40
0.7548806076
 40
0.7922642629
 40
0.8107479942
 40
0.8290704481
 40
0.8472152571
 40
0.8651663562
 40
0.8829080154
 40
0.9004248734
 40
0.9177019638
 40
0.9347247599
 40
0.951479237
 40
0.967951743
 40
0.9841296213
 40
1.0
 40
1.0
 40
1.0
 40
1.0
 10
15.7281496799
 20
11.8759744875
 30
0.0
 10
15.7253966394
 20
11.8768785287
 30
0.0
 10
15.7198896942
 20
11.8789304153
 30
0.0
 10
15.7117703012
 20
11.8826641692
 30
0.0
 10
15.7037059157
 20
11.8870841925
 30
0.0
 10
15.6957057983
 20
11.8921847932
 30
0.0
 10
15.6877781447
 20
11.8979599612
 30
0.0
 10
15.6799312746
 20
11.9044030233
 30
0.0
 10
15.672173345
 20
11.91150673
 30
0.0
 10
15.6645124622
 20
11.9192632105
 30
0.0
 10
15.6569566537
 20
11.9276639526
 30
0.0
 10
15.6495138795
 20
11.9366997962
 30
0.0
 10
15.6421920228
 20
11.9463609288
 30
0.0
 10
15.6349988786
 20
11.9566368804
 30
0.0
 10
15.627942141
 20
11.9675165226
 30
0.0
 10
15.6210293802
 20
11.9789880665
 30
0.0
 10
15.6142680392
 20
11.9910390794
 30
0.0
 10
15.6076654187
 20
12.0036564958
 30
0.0
 10
15.6012286663
 20
12.0168266292
 30
0.0
 10
15.5949647621
 20
12.0305351821
 30
0.0
 10
15.588880504
 20
12.0447672596
 30
0.0
 10
15.5829825061
 20
12.059507391
 30
0.0
 10
15.5772771871
 20
12.0747395476
 30
0.0
 10
15.5717707637
 20
12.0904471594
 30
0.0
 10
15.5664692359
 20
12.106613129
 30
0.0
 10
15.5613783814
 20
12.1232198532
 30
0.0
 10
15.5565037533
 20
12.1402492448
 30
0.0
 10
15.5518506713
 20
12.1576827536
 30
0.0
 10
15.5474242174
 20
12.1755013851
 30
0.0
 10
15.5432292212
 20
12.1936857187
 30
0.0
 10
15.5392702616
 20
12.212215932
 30
0.0
 10
15.5355516618
 20
12.2310718241
 30
0.0
 10
15.5320774846
 20
12.2502328382
 30
0.0
 10
15.5288515274
 20
12.269678081
 30
0.0
 10
15.5258773095
 20
12.2893863493
 30
0.0
 10
15.5231580834
 20
12.3093361378
 30
0.0
 10
15.5206968029
 20
12.3295057317
 30
0.0
 10
15.5177525616
 20
12.3567558549
 30
0.0
 10
15.5147407474
 20
12.3912121593
 30
0.0
 10
15.5122041698
 20
12.4329385491
 30
0.0
 10
15.5107439814
 20
12.4750043602
 30
0.0
 10
15.51036656
 20
12.5172261101
 30
0.0
 10
15.5110735698
 20
12.5594198829
 30
0.0
 10
15.5128619112
 20
12.6014018884
 30
0.0
 10
15.5157237421
 20
12.6429890102
 30
0.0
 10
15.5190048912
 20
12.6772928779
 30
0.0
 10
15.5221625147
 20
12.7043935844
 30
0.0
 10
15.5247809867
 20
12.7244321511
 30
0.0
 10
15.5276556336
 20
12.744237651
 30
0.0
 10
15.5307833332
 20
12.7637885267
 30
0.0
 10
15.5341606612
 20
12.7830634476
 30
0.0
 10
15.53778393
 20
12.8020413986
 30
0.0
 10
15.5416491819
 20
12.8207016849
 30
0.0
 10
15.5457521999
 20
12.8390239718
 30
0.0
 10
15.5500885003
 20
12.8569882461
 30
0.0
 10
15.5546533548
 20
12.8745750408
 30
0.0
 10
15.5594417621
 20
12.891764998
 30
0.0
 10
15.5628127778
 20
12.9030592196
 30
0.0
 10
15.5645359394
 20
12.9086353726
 30
0.0
  0
SPLINE
  5
2EB
100
AcDbEntity
  8
LAYER_FEATURE
100
AcDbSpline
 62
7
  6
CONTINUOUS
 70
0
 71
3
 72
31
 73
27
 74
0
 42
0.0000001
 43
0.0000001
 44
0.0000000001
 40
0.0
 40
0.0
 40
0.0
 40
0.0
 40
0.0289869728
 40
0.0576854498
 40
0.0861387753
 40
0.1143917041
 40
0.1424901998
 40
0.1704811893
 40
0.1984122594
 40
0.2263313886
 40
0.2542866263
 40
0.2823257941
 40
0.3104961775
 40
0.338844262
 40
0.3674154192
 40
0.3962537364
 40
0.4254017251
 40
0.4549002087
 40
0.5150912064
 40
0.5771265731
 40
0.6412604504
 40
0.7077130987
 40
0.7766717583
 40
0.8482923602
 40
0.9227017291
 40
1.0
 40
1.0
 40
1.0
 40
1.0
 10
15.7276339747
 20
11.8656184699
 30
0.0
 10
15.7290954191
 20
11.865138562
 30
0.0
 10
15.7320237852
 20
11.8642432
 30
0.0
 10
15.7364489051
 20
11.8630921831
 30
0.0
 10
15.7408814832
 20
11.8621407976
 30
0.0
 10
15.7453200319
 20
11.8613894055
 30
0.0
 10
15.7497631763
 20
11.8608382739
 30
0.0
 10
15.7542094974
 20
11.8604875581
 30
0.0
 10
15.7586575879
 20
11.8603374278
 30
0.0
 10
15.7631060295
 20
11.8603878882
 30
0.0
 10
15.767553407
 20
11.8606389552
 30
0.0
 10
15.771998305
 20
11.8610905295
 30
0.0
 10
15.7764393159
 20
11.8617424425
 30
0.0
 10
15.7808750266
 20
11.8625945025
 30
0.0
 10
15.7853040537
 20
11.8636463751
 30
0.0
 10
15.7897249774
 20
11.8648977393
 30
0.0
 10
15.7941364951
 20
11.8663481773
 30
0.0
 10
15.8000431392
 20
11.8685614541
 30
0.0
 10
15.8074071489
 20
11.8718387489
 30
0.0
 10
15.8161212391
 20
11.8765326919
 30
0.0
 10
15.824762445
 20
11.8820077389
 30
0.0
 10
15.833320147
 20
11.8882563165
 30
0.0
 10
15.8417844513
 20
11.8952702708
 30
0.0
 10
15.8501454862
 20
11.9030407186
 30
0.0
 10
15.8583932677
 20
11.9115577055
 30
0.0
 10
15.8637073614
 20
11.9176097389
 30
0.0
 10
15.8663448285
 20
11.9207513066
 30
0.0
  0
SPLINE
  5
2EC
100
AcDbEntity
  8
02___PRT_ALL_AXES
100
AcDbSpline
 62
7
  6
CONTINUOUS
 70
0
 71
3
 72
24
 73
20
 74
0
 42
0.0000001
 43
0.0000001
 44
0.0000000001
 40
0.0
 40
0.0
 40
0.0
 40
0.0
 40
0.0478952917
 40
0.0962574104
 40
0.1455367247
 40
0.1961529582
 40
0.2484846146
 40
0.3028630291
 40
0.3309152477
 40
0.3595806569
 40
0.4188500353
 40
0.4808691877
 40
0.5457839904
 40
0.6137024867
 40
0.6846995377
 40
0.7588199428
 40
0.836082018
 40
0.9164862998
 40
1.0
 40
1.0
 40
1.0
 40
1.0
 10
16.1189765217
 20
12.698304992
 30
0.0
 10
16.1199980923
 20
12.6983049956
 30
0.0
 10
16.1220528774
 20
12.6981938471
 30
0.0
 10
16.1251222991
 20
12.6976950564
 30
0.0
 10
16.1281794632
 20
12.6968653603
 30
0.0
 10
16.1312180561
 20
12.6957069704
 30
0.0
 10
16.1342326307
 20
12.6942228164
 30
0.0
 10
16.1366948211
 20
12.6927328089
 30
0.0
 10
16.1386461822
 20
12.6913876651
 30
0.0
 10
16.1406282377
 20
12.6899063095
 30
0.0
 10
16.1430820943
 20
12.6878503653
 30
0.0
 10
16.1459508477
 20
12.6851000238
 30
0.0
 10
16.1487713315
 20
12.6820442945
 30
0.0
 10
16.1515387608
 20
12.6786886561
 30
0.0
 10
16.1542485415
 20
12.6750389354
 30
0.0
 10
16.1568960665
 20
12.6711014989
 30
0.0
 10
16.1594768778
 20
12.6668831025
 30
0.0
 10
16.161986428
 20
12.6623912111
 30
0.0
 10
16.1635792254
 20
12.659277904
 30
0.0
 10
16.1643639573
 20
12.6576787885
 30
0.0
  0
SPLINE
  5
2ED
100
AcDbEntity
  8
LAYER_FEATURE
100
AcDbSpline
 62
7
  6
CONTINUOUS
 70
0
 71
3
 72
20
 73
16
 74
0
 42
0.0000001
 43
0.0000001
 44
0.0000000001
 40
0.0
 40
0.0
 40
0.0
 40
0.0
 40
0.0463661028
 40
0.0932702144
 40
0.1412278619
 40
0.1907131579
 40
0.2957758059
 40
0.3521184129
 40
0.4113011687
 40
0.4735076496
 40
0.5388715194
 40
0.6074843379
 40
0.6793961215
 40
0.8331459047
 40
1.0
 40
1.0
 40
1.0
 40
1.0
 10
14.8434655236
 20
13.0484195511
 30
0.0
 10
14.8433346021
 20
13.0484195491
 30
0.0
 10
14.8430709817
 20
13.048403969
 30
0.0
 10
14.842677535
 20
13.0483340658
 30
0.0
 10
14.8422859836
 20
13.0482178373
 30
0.0
 10
14.84175743
 20
13.047997354
 30
0.0
 10
14.8412454617
 20
13.0476855069
 30
0.0
 10
14.8407566441
 20
13.0472989385
 30
0.0
 10
14.8403871943
 20
13.046958552
 30
0.0
 10
14.8400244542
 20
13.0465753269
 30
0.0
 10
14.8396690133
 20
13.046150024
 30
0.0
 10
14.8393216153
 20
13.0456835334
 30
0.0
 10
14.8388597284
 20
13.0449924426
 30
0.0
 10
14.8383099697
 20
13.0440283831
 30
0.0
 10
14.837923479
 20
13.0432088268
 30
0.0
 10
14.837736291
 20
13.0427764721
 30
0.0
  0
SPLINE
  5
2EE
100
AcDbEntity
  8
02___PRT_ALL_AXES
100
AcDbSpline
 62
7
  6
CONTINUOUS
 70
0
 71
3
 72
58
 73
54
 74
0
 42
0.0000001
 43
0.0000001
 44
0.0000000001
 40
0.0
 40
0.0
 40
0.0
 40
0.0
 40
0.0139505261
 40
0.0283504425
 40
0.0431883946
 40
0.0584536912
 40
0.074133404
 40
0.090213095
 40
0.1066772429
 40
0.1235091231
 40
0.1406909814
 40
0.1582040819
 40
0.1941433005
 40
0.2311624272
 40
0.2690849108
 40
0.3077257187
 40
0.3468932933
 40
0.3863913996
 40
0.4260209017
 40
0.4655815193
 40
0.5048735739
 40
0.5436997279
 40
0.581866769
 40
0.6191874363
 40
0.6554823069
 40
0.6731924159
 40
0.690583434
 40
0.7076360759
 40
0.7243319492
 40
0.7406536959
 40
0.7565850041
 40
0.7721107579
 40
0.7872171706
 40
0.801891829
 40
0.8161239215
 40
0.8299043642
 40
0.8432259315
 40
0.8560835659
 40
0.8684745347
 40
0.8803987025
 40
0.8918589295
 40
0.9028613249
 40
0.9134157031
 40
0.9235360654
 40
0.9332409921
 40
0.9425542197
 40
0.9515050903
 40
0.9601288935
 40
0.9684671686
 40
0.9765676165
 40
0.9844836967
 40
0.9922738192
 40
1.0
 40
1.0
 40
1.0
 40
1.0
 10
16.1643639573
 20
12.6576787885
 30
0.0
 10
16.1651121136
 20
12.6561542064
 30
0.0
 10
16.1665832876
 20
12.6530315516
 30
0.0
 10
16.1686838314
 20
12.6482111571
 30
0.0
 10
16.1707104427
 20
12.6431862125
 30
0.0
 10
16.1726600631
 20
12.6379643374
 30
0.0
 10
16.174529851
 20
12.6325531992
 30
0.0
 10
16.1763169955
 20
12.6269608378
 30
0.0
 10
16.1780188389
 20
12.6211955709
 30
0.0
 10
16.1796328584
 20
12.6152659711
 30
0.0
 10
16.1811566453
 20
12.609180831
 30
0.0
 10
16.1830815191
 20
12.6007999647
 30
0.0
 10
16.1852400141
 20
12.5899972926
 30
0.0
 10
16.1874159612
 20
12.576673213
 30
0.0
 10
16.1891864332
 20
12.5629576136
 30
0.0
 10
16.1905408319
 20
12.5489320857
 30
0.0
 10
16.1914710453
 20
12.5346799144
 30
0.0
 10
16.1919714943
 20
12.5202858155
 30
0.0
 10
16.1920391746
 20
12.5058353517
 30
0.0
 10
16.1916736882
 20
12.4914144334
 30
0.0
 10
16.1908772267
 20
12.4771087867
 30
0.0
 10
16.189654556
 20
12.4630034529
 30
0.0
 10
16.1880130054
 20
12.4491822033
 30
0.0
 10
16.185962412
 20
12.4357272649
 30
0.0
 10
16.1839065248
 20
12.4247988521
 30
0.0
 10
16.1820616625
 20
12.4163051007
 30
0.0
 10
16.1805954011
 20
12.4101273933
 30
0.0
 10
16.1790374835
 20
12.4040995962
 30
0.0
 10
16.1773902037
 20
12.398230657
 30
0.0
 10
16.1756560392
 20
12.3925293016
 30
0.0
 10
16.1738375592
 20
12.3870040043
 30
0.0
 10
16.1719374673
 20
12.3816629737
 30
0.0
 10
16.1699586053
 20
12.3765141336
 30
0.0
 10
16.1679038939
 20
12.371565129
 30
0.0
 10
16.165776388
 20
12.3668232941
 30
0.0
 10
16.163579248
 20
12.3622956478
 30
0.0
 10
16.1613156976
 20
12.3579888994
 30
0.0
 10
16.1589890882
 20
12.353909407
 30
0.0
 10
16.1566028338
 20
12.3500631936
 30
0.0
 10
16.1541604015
 20
12.3464559452
 30
0.0
 10
16.1516653614
 20
12.3430929683
 30
0.0
 10
16.149121301
 20
12.3399792324
 30
0.0
 10
16.1465318533
 20
12.3371193534
 30
0.0
 10
16.1439007145
 20
12.3345175692
 30
0.0
 10
16.1412315685
 20
12.3321778135
 30
0.0
 10
16.1385281556
 20
12.3301036742
 30
0.0
 10
16.1357942658
 20
12.3282984128
 30
0.0
 10
16.1330337281
 20
12.3267650448
 30
0.0
 10
16.1302505081
 20
12.3255062421
 30
0.0
 10
16.1274487548
 20
12.3245243723
 30
0.0
 10
16.1246326889
 20
12.3238214786
 30
0.0
 10
16.1218072541
 20
12.3233990676
 30
0.0
 10
16.1199170645
 20
12.3233049971
 30
0.0
 10
16.1189765217
 20
12.3233049938
 30
0.0
  0
SPLINE
  5
2EF
100
AcDbEntity
  8
02___PRT_ALL_AXES
100
AcDbSpline
 62
7
  6
CONTINUOUS
 70
0
 71
3
 72
28
 73
24
 74
0
 42
0.0000001
 43
0.0000001
 44
0.0000000001
 40
0.0
 40
0.0
 40
0.0
 40
0.0
 40
0.0835099152
 40
0.1639062348
 40
0.2411638705
 40
0.3152793562
 40
0.386271481
 40
0.4541854331
 40
0.5190958474
 40
0.5811108569
 40
0.6403762273
 40
0.6970796105
 40
0.751454399
 40
0.7778611762
 40
0.8037957655
 40
0.8293011223
 40
0.8544231919
 40
0.8792107113
 40
0.9037150479
 40
0.927989834
 40
0.9520906791
 40
0.9760746805
 40
1.0
 40
1.0
 40
1.0
 40
1.0
 10
15.9761573909
 20
12.0486421162
 30
0.0
 10
15.9786267351
 20
12.0436101217
 30
0.0
 10
15.9836386845
 20
12.0338136076
 30
0.0
 10
15.9915354532
 20
12.0196791461
 30
0.0
 10
15.9996563322
 20
12.0064053491
 30
0.0
 10
16.0079872337
 20
11.9940155052
 30
0.0
 10
16.0165140032
 20
11.9825310565
 30
0.0
 10
16.0252221994
 20
11.9719719784
 30
0.0
 10
16.0340972699
 20
11.9623566713
 30
0.0
 10
16.0431244691
 20
11.9537020661
 30
0.0
 10
16.0522891753
 20
11.946023546
 30
0.0
 10
16.0615758577
 20
11.9393355213
 30
0.0
 10
16.0694810323
 20
11.9345517649
 30
0.0
 10
16.0758410198
 20
11.9312523741
 30
0.0
 10
16.0805843801
 20
11.929056454
 30
0.0
 10
16.0853450339
 20
11.9271163758
 30
0.0
 10
16.0901209535
 20
11.9254329989
 30
0.0
 10
16.0949100081
 20
11.9240071905
 30
0.0
 10
16.0997100493
 20
11.922839608
 30
0.0
 10
16.1045189106
 20
11.9219308946
 30
0.0
 10
16.1093344435
 20
11.9212814496
 30
0.0
 10
16.1141542713
 20
11.9208916752
 30
0.0
 10
16.1173706408
 20
11.9208049946
 30
0.0
 10
16.1189765217
 20
11.9208049932
 30
0.0
  0
SPLINE
  5
2F0
100
AcDbEntity
  8
LAYER_FEATURE
100
AcDbSpline
 62
7
  6
CONTINUOUS
 70
0
 71
3
 72
19
 73
15
 74
0
 42
0.0000001
 43
0.0000001
 44
0.0000000001
 40
0.0
 40
0.0
 40
0.0
 40
0.0
 40
0.0497823375
 40
0.1017417003
 40
0.1558106282
 40
0.2119074731
 40
0.2699382177
 40
0.3297973873
 40
0.3913697945
 40
0.4545317035
 40
0.5850809816
 40
0.7203268241
 40
0.8590551726
 40
1.0
 40
1.0
 40
1.0
 40
1.0
 10
14.8302780292
 20
12.9054294376
 30
0.0
 10
14.8305804485
 20
12.9060320547
 30
0.0
 10
14.8311713185
 20
12.9072774398
 30
0.0
 10
14.8319998556
 20
12.9092187743
 30
0.0
 10
14.8327877305
 20
12.9112688457
 30
0.0
 10
14.833532769
 20
12.9134220167
 30
0.0
 10
14.834232925
 20
12.9156724288
 30
0.0
 10
14.8348862828
 20
12.9180139203
 30
0.0
 10
14.835491064
 20
12.9204400974
 30
0.0
 10
14.8362385977
 20
12.9238161804
 30
0.0
 10
14.8370360789
 20
12.9282015058
 30
0.0
 10
14.8377666884
 20
12.9336331657
 30
0.0
 10
14.8382730842
 20
12.9392315416
 30
0.0
 10
14.8384565721
 20
12.9430162105
 30
0.0
 10
14.8385101776
 20
12.9449243916
 30
0.0
  0
SPLINE
  5
2F1
100
AcDbEntity
  8
LAYER_FEATURE
100
AcDbSpline
 62
7
  6
CONTINUOUS
 70
0
 71
3
 72
15
 73
11
 74
0
 42
0.0000001
 43
0.0000001
 44
0.0000000001
 40
0.0
 40
0.0
 40
0.0
 40
0.0
 40
0.1334579795
 40
0.2652305047
 40
0.3949313889
 40
0.5221950729
 40
0.6466643488
 40
0.7679982866
 40
0.8858784742
 40
1.0
 40
1.0
 40
1.0
 40
1.0
 10
14.8381300727
 20
12.9612036189
 30
0.0
 10
14.8380194858
 20
12.9626661057
 30
0.0
 10
14.8377653838
 20
12.9655701411
 30
0.0
 10
14.8372822522
 20
12.9698837611
 30
0.0
 10
14.8367008585
 20
12.9741165835
 30
0.0
 10
14.8360232678
 20
12.9782537876
 30
0.0
 10
14.8352518338
 20
12.9822809724
 30
0.0
 10
14.8343892704
 20
12.9861841372
 30
0.0
 10
14.8334385979
 20
12.989949604
 30
0.0
 10
14.8327363365
 20
12.9924011773
 30
0.0
 10
14.8323702061
 20
12.993600705
 30
0.0
  0
LINE
  5
2F2
100
AcDbEntity
  8
LAYER_FEATURE
100
AcDbLine
 62
7
  6
CONTINUOUS
 10
14.8296223824
 20
13.0037284596
 11
14.8303098427
 21
13.0005477631
  0
SPLINE
  5
2F3
100
AcDbEntity
  8
LAYER_FEATURE
100
AcDbSpline
 62
7
  6
CONTINUOUS
 70
0
 71
3
 72
18
 73
14
 74
0
 42
0.0000001
 43
0.0000001
 44
0.0000000001
 40
0.0
 40
0.0
 40
0.0
 40
0.0
 40
0.0524578985
 40
0.1073668627
 40
0.1645285839
 40
0.2237393297
 40
0.2847686661
 40
0.3473724138
 40
0.4762507395
 40
0.6082213532
 40
0.7410210089
 40
0.8723605963
 40
1.0
 40
1.0
 40
1.0
 40
1.0
 10
14.8314102411
 20
13.0270526703
 30
0.0
 10
14.831265619
 20
13.0266659059
 30
0.0
 10
14.8309885307
 20
13.0258671347
 30
0.0
 10
14.8306161842
 20
13.024626394
 30
0.0
 10
14.8302791065
 20
13.0233206471
 30
0.0
 10
14.8299790112
 20
13.021956581
 30
0.0
 10
14.8297174256
 20
13.0205410355
 30
0.0
 10
14.829418941
 20
13.0185756652
 30
0.0
 10
14.8291529146
 20
13.016041924
 30
0.0
 10
14.8290051097
 20
13.0129453196
 30
0.0
 10
14.8290288153
 20
13.0098258249
 30
0.0
 10
14.8292235222
 20
13.0067465844
 30
0.0
 10
14.829469542
 20
13.0047214721
 30
0.0
 10
14.8296223824
 20
13.0037284596
 30
0.0
  0
SPLINE
  5
2F4
100
AcDbEntity
  8
LAYER_FEATURE
100
AcDbSpline
 62
7
  6
CONTINUOUS
 70
0
 71
3
 72
9
 73
5
 74
0
 42
0.0000001
 43
0.0000001
 44
0.0000000001
 40
0.0
 40
0.0
 40
0.0
 40
0.0
 40
0.4899057371
 40
1.0
 40
1.0
 40
1.0
 40
1.0
 10
14.8869595074
 20
13.0483992695
 30
0.0
 10
14.8873554632
 20
13.0500827205
 30
0.0
 10
14.8880714022
 20
13.053541148
 30
0.0
 10
14.8886208508
 20
13.0570295603
 30
0.0
 10
14.8888618368
 20
13.0588140176
 30
0.0
  0
SPLINE
  5
2F5
100
AcDbEntity
  8
LAYER_FEATURE
100
AcDbSpline
 62
7
  6
CONTINUOUS
 70
0
 71
3
 72
11
 73
7
 74
0
 42
0.0000001
 43
0.0000001
 44
0.0000000001
 40
0.0
 40
0.0
 40
0.0
 40
0.0
 40
0.2452771963
 40
0.494307461
 40
0.7461886131
 40
1.0
 40
1.0
 40
1.0
 40
1.0
 10
14.8888618368
 20
13.0588140176
 30
0.0
 10
14.8890372914
 20
13.0601132262
 30
0.0
 10
14.889353626
 20
13.0627366897
 30
0.0
 10
14.8897230309
 20
13.0667083726
 30
0.0
 10
14.8899899084
 20
13.070733966
 30
0.0
 10
14.8900984162
 20
13.0734350607
 30
0.0
 10
14.8901354488
 20
13.0747911727
 30
0.0
  0
SPLINE
  5
2F6
100
AcDbEntity
  8
LAYER_FEATURE
100
AcDbSpline
 62
7
  6
CONTINUOUS
 70
0
 71
3
 72
14
 73
10
 74
0
 42
0.0000001
 43
0.0000001
 44
0.0000000001
 40
0.0
 40
0.0
 40
0.0
 40
0.0
 40
0.2548043014
 40
0.3819403433
 40
0.5083931041
 40
0.6337887965
 40
0.7577592426
 40
0.8799480603
 40
1.0
 40
1.0
 40
1.0
 40
1.0
 10
14.8901354488
 20
13.0747911727
 30
0.0
 10
14.8902171721
 20
13.0777838339
 30
0.0
 10
14.8902361329
 20
13.0822734347
 30
0.0
 10
14.890055158
 20
13.0882443182
 30
0.0
 10
14.8898169063
 20
13.0926911912
 30
0.0
 10
14.8894769043
 20
13.0970941028
 30
0.0
 10
14.8890363471
 20
13.1014377748
 30
0.0
 10
14.8884967714
 20
13.1057069671
 30
0.0
 10
14.8880681215
 20
13.1085210511
 30
0.0
 10
14.887837111
 20
13.109912534
 30
0.0
  0
LINE
  5
2F7
100
AcDbEntity
  8
LAYER_FEATURE
100
AcDbLine
 62
7
  6
CONTINUOUS
 10
14.8862036823
 20
13.1215214793
 11
14.8865471391
 21
13.1179922559
  0
SPLINE
  5
2F8
100
AcDbEntity
  8
LAYER_FEATURE
100
AcDbSpline
 62
7
  6
CONTINUOUS
 70
0
 71
3
 72
20
 73
16
 74
0
 42
0.0000001
 43
0.0000001
 44
0.0000000001
 40
0.0
 40
0.0
 40
0.0
 40
0.0
 40
0.0454274307
 40
0.0939433863
 40
0.1454676582
 40
0.1998897996
 40
0.2570554992
 40
0.3167808487
 40
0.3788558626
 40
0.4430482064
 40
0.5091068649
 40
0.576764916
 40
0.7157346216
 40
0.8576239283
 40
1.0
 40
1.0
 40
1.0
 40
1.0
 10
14.8902814423
 20
13.1428626727
 30
0.0
 10
14.8901009781
 20
13.1425824299
 30
0.0
 10
14.8897495916
 20
13.141988663
 30
0.0
 10
14.8892652034
 20
13.1410368901
 30
0.0
 10
14.8888083926
 20
13.1399990756
 30
0.0
 10
14.8883814587
 20
13.138880511
 30
0.0
 10
14.8879865489
 20
13.137686744
 30
0.0
 10
14.8876256597
 20
13.1364237999
 30
0.0
 10
14.8873006215
 20
13.1350980467
 30
0.0
 10
14.8870130957
 20
13.1337161873
 30
0.0
 10
14.8867645418
 20
13.1322852031
 30
0.0
 10
14.8864843489
 20
13.1303038234
 30
0.0
 10
14.8862416141
 20
13.1277565146
 30
0.0
 10
14.8861220257
 20
13.1246518847
 30
0.0
 10
14.8861569021
 20
13.1225651094
 30
0.0
 10
14.8862036823
 20
13.1215214793
 30
0.0
  0
SPLINE
  5
2F9
100
AcDbEntity
  8
LAYER_FEATURE
100
AcDbSpline
 62
7
  6
CONTINUOUS
 70
0
 71
3
 72
22
 73
18
 74
0
 42
0.0000001
 43
0.0000001
 44
0.0000000001
 40
0.0
 40
0.0
 40
0.0
 40
0.0
 40
0.0392328466
 40
0.0816285756
 40
0.1274026275
 40
0.1766752488
 40
0.2294739836
 40
0.2857571006
 40
0.3454255965
 40
0.4083330643
 40
0.4742936272
 40
0.5430877748
 40
0.6144676487
 40
0.6881621289
 40
0.763879815
 40
0.8413091073
 40
1.0
 40
1.0
 40
1.0
 40
1.0
 10
14.9588190168
 20
13.2155989887
 30
0.0
 10
14.9586158374
 20
13.2154477762
 30
0.0
 10
14.9582136695
 20
13.2151049692
 30
0.0
 10
14.9576487528
 20
13.2145054559
 30
0.0
 10
14.9571024316
 20
13.2138048784
 30
0.0
 10
14.9565772825
 20
13.2130068611
 30
0.0
 10
14.9560757237
 20
13.2121152526
 30
0.0
 10
14.9556001841
 20
13.2111344757
 30
0.0
 10
14.9551530031
 20
13.2100693964
 30
0.0
 10
14.9547364208
 20
13.2089253322
 30
0.0
 10
14.954352541
 20
13.207708022
 30
0.0
 10
14.9540033066
 20
13.2064235988
 30
0.0
 10
14.9536904906
 20
13.2050785455
 30
0.0
 10
14.9534156925
 20
13.2036796672
 30
0.0
 10
14.9531803136
 20
13.202234037
 30
0.0
 10
14.9529185325
 20
13.2002377967
 30
0.0
 10
14.9527883004
 20
13.198717926
 30
0.0
 10
14.9527292481
 20
13.1976951798
 30
0.0
  0
LINE
  5
2FA
100
AcDbEntity
  8
LAYER_FEATURE
100
AcDbLine
 62
7
  6
CONTINUOUS
 10
15.0246654723
 20
13.2270584491
 11
15.0242757425
 21
13.223561065
  0
SPLINE
  5
2FB
100
AcDbEntity
  8
LAYER_FEATURE
100
AcDbSpline
 62
7
  6
CONTINUOUS
 70
0
 71
3
 72
23
 73
19
 74
0
 42
0.0000001
 43
0.0000001
 44
0.0000000001
 40
0.0
 40
0.0
 40
0.0
 40
0.0
 40
0.0380140713
 40
0.0773662898
 40
0.1189559676
 40
0.1635163008
 40
0.2115862255
 40
0.2635328835
 40
0.3195771666
 40
0.3798204534
 40
0.4442675327
 40
0.5128443218
 40
0.585412319
 40
0.6617805366
 40
0.741713266
 40
0.8249331753
 40
0.911145527
 40
1.0
 40
1.0
 40
1.0
 40
1.0
 10
15.0323522422
 20
13.2403047586
 30
0.0
 10
15.032147057
 20
13.2402940665
 30
0.0
 10
15.0317305971
 20
13.2402333222
 30
0.0
 10
15.0311178532
 20
13.2400291899
 30
0.0
 10
15.0305144788
 20
13.2397135728
 30
0.0
 10
15.0299235318
 20
13.2392892707
 30
0.0
 10
15.0293473361
 20
13.2387590038
 30
0.0
 10
15.0287882534
 20
13.2381256914
 30
0.0
 10
15.0282486716
 20
13.2373925274
 30
0.0
 10
15.0277310431
 20
13.236563116
 30
0.0
 10
15.0272378195
 20
13.2356415309
 30
0.0
 10
15.0267713979
 20
13.2346323313
 30
0.0
 10
15.026334088
 20
13.2335405392
 30
0.0
 10
15.0259280856
 20
13.2323716118
 30
0.0
 10
15.0255554548
 20
13.231131435
 30
0.0
 10
15.0252180553
 20
13.2298262194
 30
0.0
 10
15.0249176497
 20
13.2284626227
 30
0.0
 10
15.0247454032
 20
13.2275320035
 30
0.0
 10
15.0246654723
 20
13.2270584491
 30
0.0
  0
SPLINE
  5
2FC
100
AcDbEntity
  8
LAYER_FEATURE
100
AcDbSpline
 62
7
  6
CONTINUOUS
 70
0
 71
3
 72
23
 73
19
 74
0
 42
0.0000001
 43
0.0000001
 44
0.0000000001
 40
0.0
 40
0.0
 40
0.0
 40
0.0
 40
0.0878306328
 40
0.1732375295
 40
0.2558677921
 40
0.3354211423
 40
0.4116118631
 40
0.4841922195
 40
0.5529548752
 40
0.617739642
 40
0.6784439918
 40
0.7350356386
 40
0.7875679251
 40
0.8362001301
 40
0.881222088
 40
0.9230800908
 40
0.9624052274
 40
1.0
 40
1.0
 40
1.0
 40
1.0
 10
15.0155793749
 20
11.7955562467
 30
0.0
 10
15.015653333
 20
11.7950757373
 30
0.0
 10
15.0158138876
 20
11.7941301582
 30
0.0
 10
15.0160968815
 20
11.7927421519
 30
0.0
 10
15.0164175921
 20
11.7914094099
 30
0.0
 10
15.0167743417
 20
11.7901387353
 30
0.0
 10
15.0171653476
 20
11.7889364986
 30
0.0
 10
15.0175886173
 20
11.7878087631
 30
0.0
 10
15.0180420173
 20
11.7867611777
 30
0.0
 10
15.0185232889
 20
11.7857989694
 30
0.0
 10
15.0190300709
 20
11.7849269125
 30
0.0
 10
15.0195599279
 20
11.7841493
 30
0.0
 10
15.0201104001
 20
11.7834699468
 30
0.0
 10
15.0206790728
 20
11.7828922249
 30
0.0
 10
15.0212635632
 20
11.7824191711
 30
0.0
 10
15.0218615996
 20
11.7820535399
 30
0.0
 10
15.0224703562
 20
11.7817981718
 30
0.0
 10
15.0228877496
 20
11.7817017067
 30
0.0
 10
15.0230939511
 20
11.7816736772
 30
0.0
  0
SPLINE
  5
2FD
100
AcDbEntity
  8
LAYER_FEATURE
100
AcDbSpline
 62
7
  6
CONTINUOUS
 70
0
 71
3
 72
11
 73
7
 74
0
 42
0.0000001
 43
0.0000001
 44
0.0000000001
 40
0.0
 40
0.0
 40
0.0
 40
0.0
 40
0.2655861655
 40
0.518148767
 40
0.7614620206
 40
1.0
 40
1.0
 40
1.0
 40
1.0
 10
14.9583791469
 20
11.8063136608
 30
0.0
 10
14.9585417752
 20
11.806210794
 30
0.0
 10
14.9588709565
 20
11.8060279604
 30
0.0
 10
14.9593858335
 20
11.8058250013
 30
0.0
 10
14.9599056178
 20
11.805702552
 30
0.0
 10
14.9602553233
 20
11.8056751838
 30
0.0
 10
14.9604281561
 20
11.8056751827
 30
0.0
  0
SPLINE
  5
2FE
100
AcDbEntity
  8
LAYER_FEATURE
100
AcDbSpline
 62
7
  6
CONTINUOUS
 70
0
 71
3
 72
57
 73
53
 74
0
 42
0.0000001
 43
0.0000001
 44
0.0000000001
 40
0.0
 40
0.0
 40
0.0
 40
0.0
 40
0.014775814
 40
0.029797877
 40
0.0450573376
 40
0.0605458397
 40
0.0762542944
 40
0.0921733715
 40
0.1082934729
 40
0.1246047085
 40
0.1410969382
 40
0.1577597846
 40
0.1915541098
 40
0.2259012548
 40
0.2607113876
 40
0.2958924345
 40
0.3313505603
 40
0.3669906241
 40
0.4027166392
 40
0.4384322187
 40
0.4740410243
 40
0.5094472144
 40
0.5445558916
 40
0.5792735623
 40
0.6135085981
 40
0.6471717135
 40
0.6637619987
 40
0.6801771481
 40
0.6964068833
 40
0.7124411726
 40
0.7282702478
 40
0.7438846186
 40
0.7592750936
 40
0.7744328075
 40
0.7893492371
 40
0.8040162218
 40
0.8184259927
 40
0.8325712027
 40
0.8464449475
 40
0.860040795
 40
0.8733528273
 40
0.8863756742
 40
0.8991045464
 40
0.9115352817
 40
0.9236644016
 40
0.9354891558
 40
0.9470075779
 40
0.9582185569
 40
0.9691219125
 40
0.9797184659
 40
0.9900101268
 40
1.0
 40
1.0
 40
1.0
 40
1.0
 10
15.4882754727
 20
13.0640378647
 30
0.0
 10
15.4862327121
 20
13.0574274887
 30
0.0
 10
15.482222875
 20
13.0440624112
 30
0.0
 10
15.4764794397
 20
13.0237601666
 30
0.0
 10
15.470961108
 20
13.0030500079
 30
0.0
 10
15.4656722979
 20
12.9819486012
 30
0.0
 10
15.4606172011
 20
12.960472584
 30
0.0
 10
15.4557998415
 20
12.9386390642
 30
0.0
 10
15.4512240482
 20
12.916465389
 30
0.0
 10
15.4468934747
 20
12.8939691859
 30
0.0
 10
15.4428115463
 20
12.8711683004
 30
0.0
 10
15.4376810004
 20
12.8402410468
 30
0.0
 10
15.4319204534
 20
12.8009468382
 30
0.0
 10
15.4260794169
 20
12.753090245
 30
0.0
 10
15.4212967494
 20
12.7044638173
 30
0.0
 10
15.4175877013
 20
12.6552222094
 30
0.0
 10
15.4149641239
 20
12.6055217759
 30
0.0
 10
15.4134343684
 20
12.5555204227
 30
0.0
 10
15.4130033389
 20
12.5053770015
 30
0.0
 10
15.4136723884
 20
12.4552508258
 30
0.0
 10
15.4154394024
 20
12.4053011538
 30
0.0
 10
15.4182987255
 20
12.3556866713
 30
0.0
 10
15.4222412451
 20
12.3065650079
 30
0.0
 10
15.4272543769
 20
12.2580921319
 30
0.0
 10
15.4333221217
 20
12.2104222066
 30
0.0
 10
15.4392696555
 20
12.1713054162
 30
0.0
 10
15.444547617
 20
12.1405363905
 30
0.0
 10
15.4487375843
 20
12.1178651585
 30
0.0
 10
15.453174731
 20
12.0955063806
 30
0.0
 10
15.4578555426
 20
12.0734777887
 30
0.0
 10
15.462776285
 20
12.0517968992
 30
0.0
 10
15.4679330457
 20
12.0304809403
 30
0.0
 10
15.473321728
 20
12.0095468533
 30
0.0
 10
15.4789380388
 20
11.9890112691
 30
0.0
 10
15.4847775089
 20
11.9688905008
 30
0.0
 10
15.4908354989
 20
11.9492005334
 30
0.0
 10
15.4971071947
 20
11.9299570062
 30
0.0
 10
15.5035876043
 20
11.9111751964
 30
0.0
 10
15.510271578
 20
11.8928700148
 30
0.0
 10
15.5171538132
 20
11.8750559941
 30
0.0
 10
15.5242288427
 20
11.8577472687
 30
0.0
 10
15.5314910473
 20
11.8409575658
 30
0.0
 10
15.5389346696
 20
11.8247002013
 30
0.0
 10
15.5465538177
 20
11.8089880673
 30
0.0
 10
15.5543424525
 20
11.7938336103
 30
0.0
 10
15.5622944126
 20
11.7792488317
 30
0.0
 10
15.5704034213
 20
11.7652452847
 30
0.0
 10
15.5786630904
 20
11.7518340507
 30
0.0
 10
15.5870668978
 20
11.7390257508
 30
0.0
 10
15.5956082886
 20
11.7268304613
 30
0.0
 10
15.6042804113
 20
11.7152580343
 30
0.0
 10
15.610232562
 20
11.7078548708
 30
0.0
 10
15.6132300783
 20
11.704263695
 30
0.0
  0
SPLINE
  5
2FF
100
AcDbEntity
  8
02___PRT_ALL_AXES
100
AcDbSpline
 62
7
  6
CONTINUOUS
 70
0
 71
3
 72
38
 73
34
 74
0
 42
0.0000001
 43
0.0000001
 44
0.0000000001
 40
0.0
 40
0.0
 40
0.0
 40
0.0
 40
0.0839157284
 40
0.1248866986
 40
0.1651792971
 40
0.2047802982
 40
0.2436767058
 40
0.2818567955
 40
0.3193099172
 40
0.3560265286
 40
0.3919982145
 40
0.4272178615
 40
0.4616797087
 40
0.4953793878
 40
0.5283141358
 40
0.5604827643
 40
0.5918859186
 40
0.6225261002
 40
0.6524078603
 40
0.6815379682
 40
0.7099254985
 40
0.73758213
 40
0.7645221939
 40
0.7907629899
 40
0.8163249064
 40
0.8412316412
 40
0.8655104332
 40
0.8891921553
 40
0.9123115777
 40
0.9349073735
 40
0.9570222579
 40
0.9787029361
 40
1.0
 40
1.0
 40
1.0
 40
1.0
 10
15.5645359394
 20
12.9086353726
 30
0.0
 10
15.5669925058
 20
12.9165848244
 30
0.0
 10
15.5708115481
 20
12.9283662848
 30
0.0
 10
15.5762107937
 20
12.9438289574
 30
0.0
 10
15.5803350524
 20
12.9550813706
 30
0.0
 10
15.5845638497
 20
12.9660747879
 30
0.0
 10
15.588894777
 20
12.9768028589
 30
0.0
 10
15.5933252751
 20
12.9872593117
 30
0.0
 10
15.5978527908
 20
12.9974380597
 30
0.0
 10
15.602474669
 20
13.0073331909
 30
0.0
 10
15.6071882371
 20
13.0169389427
 30
0.0
 10
15.6119907519
 20
13.0262497293
 30
0.0
 10
15.6168794153
 20
13.0352601416
 30
0.0
 10
15.621851411
 20
13.0439649333
 30
0.0
 10
15.62690383
 20
13.0523590577
 30
0.0
 10
15.6320337736
 20
13.0604376249
 30
0.0
 10
15.6372382537
 20
13.0681959527
 30
0.0
 10
15.6425142746
 20
13.0756295295
 30
0.0
 10
15.6478587969
 20
13.0827340346
 30
0.0
 10
15.6532687282
 20
13.0895053504
 30
0.0
 10
15.6587409852
 20
13.0959395224
 30
0.0
 10
15.664272401
 20
13.1020328269
 30
0.0
 10
15.6698598358
 20
13.107781692
 30
0.0
 10
15.6755000813
 20
13.1131827716
 30
0.0
 10
15.6811899262
 20
13.1182328956
 30
0.0
 10
15.6869261396
 20
13.1229290773
 30
0.0
 10
15.6927054389
 20
13.1272685533
 30
0.0
 10
15.6985245594
 20
13.1312486942
 30
0.0
 10
15.704380165
 20
13.1348671261
 30
0.0
 10
15.7102689074
 20
13.138121594
 30
0.0
 10
15.7161874656
 20
13.1410101043
 30
0.0
 10
15.7221321489
 20
13.1435307357
 30
0.0
 10
15.7261434452
 20
13.1449766931
 30
0.0
 10
15.7281496799
 20
13.1456354984
 30
0.0
  0
SPLINE
  5
300
100
AcDbEntity
  8
LAYER_FEATURE
100
AcDbSpline
 62
7
  6
CONTINUOUS
 70
0
 71
3
 72
21
 73
17
 74
0
 42
0.0000001
 43
0.0000001
 44
0.0000000001
 40
0.0
 40
0.0
 40
0.0
 40
0.0
 40
0.1565833595
 40
0.3083005709
 40
0.3815510968
 40
0.4526590985
 40
0.5213490881
 40
0.5873666672
 40
0.6504832375
 40
0.7105007853
 40
0.767257063
 40
0.8206326145
 40
0.8705593752
 40
0.9170309968
 40
0.9601244279
 40
1.0
 40
1.0
 40
1.0
 40
1.0
 10
14.9440540155
 20
11.8309241727
 30
0.0
 10
14.944100149
 20
11.829894968
 30
0.0
 10
14.9442471488
 20
11.8278705987
 30
0.0
 10
14.9445747297
 20
11.8253799885
 30
0.0
 10
14.9449213451
 20
11.823462732
 30
0.0
 10
14.9452169868
 20
11.8220922198
 30
0.0
 10
14.9455497883
 20
11.8207792728
 30
0.0
 10
14.9459180714
 20
11.8195305167
 30
0.0
 10
14.9463199657
 20
11.8183522525
 30
0.0
 10
14.9467534367
 20
11.8172504006
 30
0.0
 10
14.9472163033
 20
11.8162304751
 30
0.0
 10
14.9477062719
 20
11.815297551
 30
0.0
 10
14.9482209458
 20
11.8144562682
 30
0.0
 10
14.9487579083
 20
11.8137106939
 30
0.0
 10
14.9493145907
 20
11.8130646536
 30
0.0
 10
14.9497120295
 20
11.8126884886
 30
0.0
 10
14.94991333
 20
11.8125202289
 30
0.0
  0
SPLINE
  5
301
100
AcDbEntity
  8
LAYER_FEATURE
100
AcDbSpline
 62
7
  6
CONTINUOUS
 70
0
 71
3
 72
15
 73
11
 74
0
 42
0.0000001
 43
0.0000001
 44
0.0000000001
 40
0.0
 40
0.0
 40
0.0
 40
0.0
 40
0.1538809922
 40
0.2977797428
 40
0.4321448938
 40
0.5577670429
 40
0.6757407696
 40
0.7875146812
 40
0.8948982402
 40
1.0
 40
1.0
 40
1.0
 40
1.0
 10
14.8898870658
 20
11.8793320144
 30
0.0
 10
14.8900393531
 20
11.8791166921
 30
0.0
 10
14.8903482986
 20
11.8787097764
 30
0.0
 10
14.8908422865
 20
11.8781567745
 30
0.0
 10
14.8913494575
 20
11.8776840477
 30
0.0
 10
14.8918680514
 20
11.8772936179
 30
0.0
 10
14.8923963524
 20
11.876987265
 30
0.0
 10
14.8929325595
 20
11.8767667324
 30
0.0
 10
14.8934742979
 20
11.8766336197
 30
0.0
 10
14.8938391284
 20
11.8766038213
 30
0.0
 10
14.8940192599
 20
11.8766038242
 30
0.0
  0
SPLINE
  5
302
100
AcDbEntity
  8
LAYER_FEATURE
100
AcDbSpline
 62
7
  6
CONTINUOUS
 70
0
 71
3
 72
19
 73
15
 74
0
 42
0.0000001
 43
0.0000001
 44
0.0000000001
 40
0.0
 40
0.0
 40
0.0
 40
0.0
 40
0.1404627505
 40
0.2809992832
 40
0.4191958657
 40
0.5527036367
 40
0.6170121474
 40
0.6793395976
 40
0.7394475122
 40
0.7971179037
 40
0.8521566648
 40
0.9043965929
 40
0.9537112404
 40
1.0
 40
1.0
 40
1.0
 40
1.0
 10
14.8785305173
 20
11.9126248531
 30
0.0
 10
14.8784703981
 20
11.9115836295
 30
0.0
 10
14.8784091681
 20
11.9094967888
 30
0.0
 10
14.8784896176
 20
11.9063837049
 30
0.0
 10
14.8787401518
 20
11.90333139
 30
0.0
 10
14.8790905304
 20
11.9008593978
 30
0.0
 10
14.8794548902
 20
11.8989621482
 30
0.0
 10
14.8797629934
 20
11.897609904
 30
0.0
 10
14.8801077165
 20
11.8963174538
 30
0.0
 10
14.8804873219
 20
11.8950913115
 30
0.0
 10
14.8808998841
 20
11.8939376757
 30
0.0
 10
14.8813433205
 20
11.8928622817
 30
0.0
 10
14.8818153929
 20
11.8918706167
 30
0.0
 10
14.8821586597
 20
11.8912485896
 30
0.0
 10
14.8823352676
 20
11.8909537333
 30
0.0
  0
SPLINE
  5
303
100
AcDbEntity
  8
LAYER_FEATURE
100
AcDbSpline
 62
7
  6
CONTINUOUS
 70
0
 71
3
 72
15
 73
11
 74
0
 42
0.0000001
 43
0.0000001
 44
0.0000000001
 40
0.0
 40
0.0
 40
0.0
 40
0.0
 40
0.1241767739
 40
0.2495955328
 40
0.3757558033
 40
0.502151971
 40
0.6282767938
 40
0.753624902
 40
0.8776963143
 40
1.0
 40
1.0
 40
1.0
 40
1.0
 10
14.8823978682
 20
11.9418550543
 30
0.0
 10
14.8825298905
 20
11.9432501622
 30
0.0
 10
14.8827556329
 20
11.9460582291
 30
0.0
 10
14.8829794996
 20
11.9502932321
 30
0.0
 10
14.8830896991
 20
11.9545577963
 30
0.0
 10
14.8830857036
 20
11.9588317385
 30
0.0
 10
14.8829675335
 20
11.9630948829
 30
0.0
 10
14.8827357489
 20
11.9673271065
 30
0.0
 10
14.8823914568
 20
11.9715083788
 30
0.0
 10
14.8820854095
 20
11.9742722909
 30
0.0
 10
14.881913408
 20
11.9756417344
 30
0.0
  0
SPLINE
  5
304
100
AcDbEntity
  8
LAYER_FEATURE
100
AcDbSpline
 62
7
  6
CONTINUOUS
 70
0
 71
3
 72
11
 73
7
 74
0
 42
0.0000001
 43
0.0000001
 44
0.0000000001
 40
0.0
 40
0.0
 40
0.0
 40
0.0
 40
0.2597742206
 40
0.5136709965
 40
0.7607121776
 40
1.0
 40
1.0
 40
1.0
 40
1.0
 10
14.881913408
 20
11.9756417344
 30
0.0
 10
14.8817635922
 20
11.9768345386
 30
0.0
 10
14.8814332489
 20
11.9791890402
 30
0.0
 10
14.880838303
 20
11.9826593685
 30
0.0
 10
14.8801517675
 20
11.986016061
 30
0.0
 10
14.8796262071
 20
11.9882050224
 30
0.0
 10
14.8793478286
 20
11.9892768305
 30
0.0
  0
SPLINE
  5
305
100
AcDbEntity
  8
LAYER_FEATURE
100
AcDbSpline
 62
7
  6
CONTINUOUS
 70
0
 71
3
 72
22
 73
18
 74
0
 42
0.0000001
 43
0.0000001
 44
0.0000000001
 40
0.0
 40
0.0
 40
0.0
 40
0.0
 40
0.1682075649
 40
0.2473617708
 40
0.3231262073
 40
0.3954829093
 40
0.4644380845
 40
0.5300285602
 40
0.5923355026
 40
0.6514837169
 40
0.707652148
 40
0.7610767127
 40
0.8120607116
 40
0.8609748317
 40
0.9082600155
 40
0.9544182293
 40
1.0
 40
1.0
 40
1.0
 40
1.0
 10
14.831088234
 20
11.995384208
 30
0.0
 10
14.8312779077
 20
11.994916513
 30
0.0
 10
14.8315788988
 20
11.994237152
 30
0.0
 10
14.8320234886
 20
11.9933753493
 30
0.0
 10
14.8323615903
 20
11.9927828807
 30
0.0
 10
14.8327103527
 20
11.9922325088
 30
0.0
 10
14.8330689954
 20
11.9917254337
 30
0.0
 10
14.8334367643
 20
11.9912628278
 30
0.0
 10
14.8338128323
 20
11.9908457158
 30
0.0
 10
14.8341964338
 20
11.990475072
 30
0.0
 10
14.8345867375
 20
11.9901517313
 30
0.0
 10
14.8349829662
 20
11.9898765149
 30
0.0
 10
14.8353842686
 20
11.9896501035
 30
0.0
 10
14.8357898011
 20
11.9894731924
 30
0.0
 10
14.8361986383
 20
11.9893463157
 30
0.0
 10
14.8366096969
 20
11.9892699975
 30
0.0
 10
14.8368852467
 20
11.9892529636
 30
0.0
 10
14.8370220109
 20
11.9892529643
 30
0.0
  0
SPLINE
  5
306
100
AcDbEntity
  8
LAYER_FEATURE
100
AcDbSpline
 62
7
  6
CONTINUOUS
 70
0
 71
3
 72
18
 73
14
 74
0
 42
0.0000001
 43
0.0000001
 44
0.0000000001
 40
0.0
 40
0.0
 40
0.0
 40
0.0
 40
0.1258894497
 40
0.255958495
 40
0.387997215
 40
0.5197312511
 40
0.6488964777
 40
0.7118349642
 40
0.7733219698
 40
0.833108298
 40
0.8909571306
 40
0.9466570311
 40
1.0
 40
1.0
 40
1.0
 40
1.0
 10
14.8234741986
 20
12.0350905215
 30
0.0
 10
14.8233084875
 20
12.0341087577
 30
0.0
 10
14.823036602
 20
12.0321012189
 30
0.0
 10
14.8228032699
 20
12.0290399086
 30
0.0
 10
14.8227403264
 20
12.0259240426
 30
0.0
 10
14.8228490949
 20
12.0228166899
 30
0.0
 10
14.8230828971
 20
12.0202645752
 30
0.0
 10
14.8233560597
 20
12.0182773625
 30
0.0
 10
14.8235995922
 20
12.0168406798
 30
0.0
 10
14.8238822698
 20
12.0154522315
 30
0.0
 10
14.824202652
 20
12.0141189846
 30
0.0
 10
14.8245591108
 20
12.0128477691
 30
0.0
 10
14.8248256336
 20
12.0120272444
 30
0.0
 10
14.8249650972
 20
12.0116290767
 30
0.0
  0
LINE
  5
307
100
AcDbEntity
  8
LAYER_FEATURE
100
AcDbLine
 62
7
  6
CONTINUOUS
 10
14.8239325464
 20
12.0372592362
 11
14.8234741986
 21
12.0350905215
  0
LINE
  5
308
100
AcDbEntity
  8
LAYER_FEATURE
100
AcDbLine
 62
7
  6
CONTINUOUS
 10
14.8278809453
 20
12.0516579388
 11
14.830155852
 21
12.0607543711
  0
SPLINE
  5
309
100
AcDbEntity
  8
LAYER_FEATURE
100
AcDbSpline
 62
7
  6
CONTINUOUS
 70
0
 71
3
 72
15
 73
11
 74
0
 42
0.0000001
 43
0.0000001
 44
0.0000000001
 40
0.0
 40
0.0
 40
0.0
 40
0.0
 40
0.1174961819
 40
0.2380915091
 40
0.3613290636
 40
0.4867322536
 40
0.6138088053
 40
0.7420545785
 40
0.870957263
 40
1.0
 40
1.0
 40
1.0
 40
1.0
 10
14.830155852
 20
12.0607543711
 30
0.0
 10
14.8304261892
 20
12.0620245424
 30
0.0
 10
14.8309306451
 20
12.0646077895
 30
0.0
 10
14.8315727875
 20
12.0685499931
 30
0.0
 10
14.8321081467
 20
12.0725962907
 30
0.0
 10
14.832534168
 20
12.0767275345
 30
0.0
 10
14.8328488301
 20
12.0809242393
 30
0.0
 10
14.8330506364
 20
12.0851665979
 30
0.0
 10
14.8331386286
 20
12.0894345384
 30
0.0
 10
14.8331211194
 20
12.0922858183
 30
0.0
 10
14.8330932212
 20
12.0937117846
 30
0.0
  0
SPLINE
  5
30A
100
AcDbEntity
  8
LAYER_FEATURE
100
AcDbSpline
 62
7
  6
CONTINUOUS
 70
0
 71
3
 72
20
 73
16
 74
0
 42
0.0000001
 43
0.0000001
 44
0.0000000001
 40
0.0
 40
0.0
 40
0.0
 40
0.0
 40
0.142517991
 40
0.2827887872
 40
0.4193060991
 40
0.4857097567
 40
0.5506441067
 40
0.6139468203
 40
0.6754645899
 40
0.7350542678
 40
0.7925845276
 40
0.8479376596
 40
0.9010112046
 40
0.9517201616
 40
1.0
 40
1.0
 40
1.0
 40
1.0
 10
14.8330932212
 20
12.0937117846
 30
0.0
 10
14.8330526947
 20
12.0957832163
 30
0.0
 10
14.8328817635
 20
12.099892276
 30
0.0
 10
14.8323541949
 20
12.1059669561
 30
0.0
 10
14.8316892676
 20
12.110913751
 30
0.0
 10
14.8310240595
 20
12.1147507783
 30
0.0
 10
14.8304675668
 20
12.1175254276
 30
0.0
 10
14.8298507514
 20
12.1202144807
 30
0.0
 10
14.8291755949
 20
12.1228093121
 30
0.0
 10
14.8284442751
 20
12.125301581
 30
0.0
 10
14.8276591444
 20
12.1276832928
 30
0.0
 10
14.8268227394
 20
12.1299468152
 30
0.0
 10
14.8259377317
 20
12.1320849312
 30
0.0
 10
14.8250069766
 20
12.134090742
 30
0.0
 10
14.8243413444
 20
12.13536734
 30
0.0
 10
14.8240006437
 20
12.1359809596
 30
0.0
  0
SPLINE
  5
30B
100
AcDbEntity
  8
LAYER_FEATURE
100
AcDbSpline
 62
7
  6
CONTINUOUS
 70
0
 71
3
 72
23
 73
19
 74
0
 42
0.0000001
 43
0.0000001
 44
0.0000000001
 40
0.0
 40
0.0
 40
0.0
 40
0.0
 40
0.089129242
 40
0.1751795977
 40
0.2578838132
 40
0.3370379182
 40
0.4124573639
 40
0.4839948013
 40
0.5515489149
 40
0.615070921
 40
0.6745750684
 40
0.7301513402
 40
0.7819828396
 40
0.8303635385
 40
0.8757168399
 40
0.9186113949
 40
0.9597600963
 40
1.0
 40
1.0
 40
1.0
 40
1.0
 10
14.7859896949
 20
12.1465614762
 30
0.0
 10
14.7860830021
 20
12.1461652538
 30
0.0
 10
14.7862787826
 20
12.1453893387
 30
0.0
 10
14.786606161
 20
12.1442577254
 30
0.0
 10
14.7869610744
 20
12.1431822708
 30
0.0
 10
14.7873420317
 20
12.1421674302
 30
0.0
 10
14.7877474885
 20
12.1412172859
 30
0.0
 10
14.7881757989
 20
12.1403357004
 30
0.0
 10
14.7886252483
 20
12.1395262393
 30
0.0
 10
14.7890940539
 20
12.1387921491
 30
0.0
 10
14.7895803972
 20
12.1381363649
 30
0.0
 10
14.7900824663
 20
12.1375615252
 30
0.0
 10
14.7905984438
 20
12.1370699719
 30
0.0
 10
14.7911265406
 20
12.1366638088
 30
0.0
 10
14.7916649468
 20
12.1363450054
 30
0.0
 10
14.7922117677
 20
12.1361154348
 30
0.0
 10
14.7927644921
 20
12.1359767849
 30
0.0
 10
14.7931368984
 20
12.1359457518
 30
0.0
 10
14.7933206775
 20
12.1359457513
 30
0.0
  0
SPLINE
  5
30C
100
AcDbEntity
  8
LAYER_FEATURE
100
AcDbSpline
 62
7
  6
CONTINUOUS
 70
0
 71
3
 72
17
 73
13
 74
0
 42
0.0000001
 43
0.0000001
 44
0.0000000001
 40
0.0
 40
0.0
 40
0.0
 40
0.0
 40
0.0550242875
 40
0.1122215877
 40
0.171367307
 40
0.2322368294
 40
0.3581318783
 40
0.4878252539
 40
0.6191031706
 40
0.7497042326
 40
0.8773860303
 40
1.0
 40
1.0
 40
1.0
 40
1.0
 10
14.7826370565
 20
12.189975345
 30
0.0
 10
14.7825077204
 20
12.1895568132
 30
0.0
 10
14.7822618868
 20
12.1886975901
 30
0.0
 10
14.7819365352
 20
12.1873723707
 30
0.0
 10
14.7816486754
 20
12.1859909278
 30
0.0
 10
14.7813130934
 20
12.1840618609
 30
0.0
 10
14.7809996725
 20
12.1815603344
 30
0.0
 10
14.7807942288
 20
12.1784856832
 30
0.0
 10
14.7807596724
 20
12.1753668886
 30
0.0
 10
14.7808966843
 20
12.1722669
 30
0.0
 10
14.7812024237
 20
12.1692483428
 30
0.0
 10
14.7815227547
 20
12.1672799707
 30
0.0
 10
14.7817125011
 20
12.1663224338
 30
0.0
  0
LINE
  5
30D
100
AcDbEntity
  8
LAYER_FEATURE
100
AcDbLine
 62
7
  6
CONTINUOUS
 10
14.7832983687
 20
12.1917655309
 11
14.7826370565
 21
12.189975345
  0
SPLINE
  5
30E
100
AcDbEntity
  8
LAYER_FEATURE
100
AcDbSpline
 62
7
  6
CONTINUOUS
 70
0
 71
3
 72
9
 73
5
 74
0
 42
0.0000001
 43
0.0000001
 44
0.0000000001
 40
0.0
 40
0.0
 40
0.0
 40
0.0
 40
0.4860742555
 40
1.0
 40
1.0
 40
1.0
 40
1.0
 10
14.7885634584
 20
12.203049386
 30
0.0
 10
14.7891316281
 20
12.2041992062
 30
0.0
 10
14.7902306219
 20
12.206599662
 30
0.0
 10
14.7912053284
 20
12.2090527918
 30
0.0
 10
14.7916776688
 20
12.2103238939
 30
0.0
  0
SPLINE
  5
30F
100
AcDbEntity
  8
LAYER_FEATURE
100
AcDbSpline
 62
7
  6
CONTINUOUS
 70
0
 71
3
 72
15
 73
11
 74
0
 42
0.0000001
 43
0.0000001
 44
0.0000000001
 40
0.0
 40
0.0
 40
0.0
 40
0.0
 40
0.1105363431
 40
0.2260330204
 40
0.3461221446
 40
0.4703943364
 40
0.5984048827
 40
0.7296791639
 40
0.8637175618
 40
1.0
 40
1.0
 40
1.0
 40
1.0
 10
14.7916776688
 20
12.2103238939
 30
0.0
 10
14.792070387
 20
12.2113807273
 30
0.0
 10
14.7928239242
 20
12.2135604752
 30
0.0
 10
14.7938404374
 20
12.2169421959
 30
0.0
 10
14.7947643396
 20
12.2204953169
 30
0.0
 10
14.7955912257
 20
12.2242030456
 30
0.0
 10
14.7963171838
 20
12.2280479548
 30
0.0
 10
14.7969387668
 20
12.232011931
 30
0.0
 10
14.7974530201
 20
12.236076243
 30
0.0
 10
14.7977208127
 20
12.2388208411
 30
0.0
 10
14.7978366904
 20
12.2402060477
 30
0.0
  0
SPLINE
  5
310
100
AcDbEntity
  8
LAYER_FEATURE
100
AcDbSpline
 62
7
  6
CONTINUOUS
 70
0
 71
3
 72
23
 73
19
 74
0
 42
0.0000001
 43
0.0000001
 44
0.0000000001
 40
0.0
 40
0.0
 40
0.0
 40
0.0
 40
0.0688101806
 40
0.1382211049
 40
0.2079082873
 40
0.2775479803
 40
0.3468150355
 40
0.4153880674
 40
0.4829510499
 40
0.5491963988
 40
0.6138276506
 40
0.676562448
 40
0.7371357304
 40
0.795303156
 40
0.8508453165
 40
0.903571705
 40
0.9533280057
 40
1.0
 40
1.0
 40
1.0
 40
1.0
 10
14.7978366904
 20
12.2402060477
 30
0.0
 10
14.7979485663
 20
12.2415434165
 30
0.0
 10
14.7981328104
 20
12.2442333787
 30
0.0
 10
14.7982913174
 20
12.2482857627
 30
0.0
 10
14.7983327143
 20
12.252357245
 30
0.0
 10
14.7982567801
 20
12.256425414
 30
0.0
 10
14.7980639272
 20
12.2604679762
 30
0.0
 10
14.7977552267
 20
12.2644627396
 30
0.0
 10
14.7973323828
 20
12.2683877952
 30
0.0
 10
14.7967977337
 20
12.2722216197
 30
0.0
 10
14.7961542326
 20
12.2759432037
 30
0.0
 10
14.7954054332
 20
12.2795321699
 30
0.0
 10
14.7945554651
 20
12.2829688879
 30
0.0
 10
14.7936090083
 20
12.2862346
 30
0.0
 10
14.7925712632
 20
12.2893114955
 30
0.0
 10
14.7914478802
 20
12.2921829347
 30
0.0
 10
14.7902450377
 20
12.2948332034
 30
0.0
 10
14.7893657625
 20
12.2964974583
 30
0.0
 10
14.7889122556
 20
12.2972867103
 30
0.0
  0
SPLINE
  5
311
100
AcDbEntity
  8
LAYER_FEATURE
100
AcDbSpline
 62
7
  6
CONTINUOUS
 70
0
 71
3
 72
11
 73
7
 74
0
 42
0.0000001
 43
0.0000001
 44
0.0000000001
 40
0.0
 40
0.0
 40
0.0
 40
0.0
 40
0.2761156652
 40
0.5345390016
 40
0.7755901871
 40
1.0
 40
1.0
 40
1.0
 40
1.0
 10
14.7889122556
 20
12.2972867103
 30
0.0
 10
14.788486615
 20
12.2980274657
 30
0.0
 10
14.7876198862
 20
12.2994376799
 30
0.0
 10
14.7862233023
 20
12.3013918875
 30
0.0
 10
14.784778838
 20
12.3031069363
 30
0.0
 10
14.7837521209
 20
12.3041209049
 30
0.0
 10
14.7832320959
 20
12.3045810106
 30
0.0
  0
LINE
  5
312
100
AcDbEntity
  8
LAYER_FEATURE
100
AcDbLine
 62
7
  6
CONTINUOUS
 10
14.7832320959
 20
12.3045810106
 11
14.7801905237
 21
12.3068129552
  0
LINE
  5
313
100
AcDbEntity
  8
LAYER_FEATURE
100
AcDbLine
 62
7
  6
CONTINUOUS
 10
14.7646369109
 20
12.3069232234
 11
14.765436516
 21
12.3067718253
  0
SPLINE
  5
314
100
AcDbEntity
  8
LAYER_FEATURE
100
AcDbSpline
 62
7
  6
CONTINUOUS
 70
0
 71
3
 72
22
 73
18
 74
0
 42
0.0000001
 43
0.0000001
 44
0.0000000001
 40
0.0
 40
0.0
 40
0.0
 40
0.0
 40
0.1674396464
 40
0.2480798551
 40
0.3262320685
 40
0.4015941786
 40
0.4738933721
 40
0.5428871822
 40
0.6083681209
 40
0.6701711823
 40
0.7281823861
 40
0.7823489268
 40
0.8326929449
 40
0.8793290507
 40
0.9224853032
 40
0.9625344386
 40
1.0
 40
1.0
 40
1.0
 40
1.0
 10
14.7576648393
 20
12.3225613382
 30
0.0
 10
14.7577759731
 20
12.3215766342
 30
0.0
 10
14.7579829287
 20
12.3201218186
 30
0.0
 10
14.7583482048
 20
12.3182256816
 30
0.0
 10
14.7586569403
 20
12.3168744023
 30
0.0
 10
14.7590022792
 20
12.3155830335
 30
0.0
 10
14.7593824683
 20
12.3143580844
 30
0.0
 10
14.7597955732
 20
12.3132057272
 30
0.0
 10
14.7602395131
 20
12.312131746
 30
0.0
 10
14.7607120691
 20
12.3111415116
 30
0.0
 10
14.7612109031
 20
12.3102399415
 30
0.0
 10
14.7617335948
 20
12.3094314823
 30
0.0
 10
14.7622777004
 20
12.3087201026
 30
0.0
 10
14.7628407643
 20
12.3081093372
 30
0.0
 10
14.7634204676
 20
12.3076022383
 30
0.0
 10
14.7640142339
 20
12.307201796
 30
0.0
 10
14.764429691
 20
12.3070021217
 30
0.0
 10
14.7646369109
 20
12.3069232234
 30
0.0
  0
SPLINE
  5
315
100
AcDbEntity
  8
LAYER_FEATURE
100
AcDbSpline
 62
7
  6
CONTINUOUS
 70
0
 71
3
 72
19
 73
15
 74
0
 42
0.0000001
 43
0.0000001
 44
0.0000000001
 40
0.0
 40
0.0
 40
0.0
 40
0.0
 40
0.04793524
 40
0.0987612182
 40
0.1523442637
 40
0.2085318939
 40
0.267135789
 40
0.3279451067
 40
0.390728753
 40
0.4552382677
 40
0.5883574125
 40
0.7250901666
 40
0.863095537
 40
1.0
 40
1.0
 40
1.0
 40
1.0
 10
14.7588020746
 20
12.3667241787
 30
0.0
 10
14.7586332758
 20
12.3664026566
 30
0.0
 10
14.7583063187
 20
12.3657291516
 30
0.0
 10
14.7578588939
 20
12.3646648095
 30
0.0
 10
14.7574420402
 20
12.3635213698
 30
0.0
 10
14.7570578685
 20
12.3623046737
 30
0.0
 10
14.7567083297
 20
12.3610207935
 30
0.0
 10
14.7563952007
 20
12.3596762319
 30
0.0
 10
14.7561200629
 20
12.3582777758
 30
0.0
 10
14.7558024837
 20
12.3563304336
 30
0.0
 10
14.7555120976
 20
12.3538124781
 30
0.0
 10
14.7553346916
 20
12.3507262177
 30
0.0
 10
14.7553285244
 20
12.3476062688
 30
0.0
 10
14.7554397371
 20
12.3455253254
 30
0.0
 10
14.7555250722
 20
12.3444917081
 30
0.0
  0
LINE
  5
316
100
AcDbEntity
  8
LAYER_FEATURE
100
AcDbLine
 62
7
  6
CONTINUOUS
 10
14.759621284
 20
12.3680138377
 11
14.7588020746
 21
12.3667241787
  0
SPLINE
  5
317
100
AcDbEntity
  8
LAYER_FEATURE
100
AcDbSpline
 62
7
  6
CONTINUOUS
 70
0
 71
3
 72
9
 73
5
 74
0
 42
0.0000001
 43
0.0000001
 44
0.0000000001
 40
0.0
 40
0.0
 40
0.0
 40
0.0
 40
0.48151189
 40
1.0
 40
1.0
 40
1.0
 40
1.0
 10
14.7658442573
 20
12.3754138691
 30
0.0
 10
14.7665144148
 20
12.3761529075
 30
0.0
 10
14.7678296911
 20
12.377757995
 30
0.0
 10
14.7690068224
 20
12.3794656653
 30
0.0
 10
14.769585543
 20
12.3803707071
 30
0.0
  0
SPLINE
  5
318
100
AcDbEntity
  8
LAYER_FEATURE
100
AcDbSpline
 62
7
  6
CONTINUOUS
 70
0
 71
3
 72
15
 73
11
 74
0
 42
0.0000001
 43
0.0000001
 44
0.0000000001
 40
0.0
 40
0.0
 40
0.0
 40
0.0
 40
0.1031572858
 40
0.2130549666
 40
0.3295431547
 40
0.4523813231
 40
0.5812530658
 40
0.7157778637
 40
0.8555206801
 40
1.0
 40
1.0
 40
1.0
 40
1.0
 10
14.769585543
 20
12.3803707071
 30
0.0
 10
14.7700760897
 20
12.3811378566
 30
0.0
 10
14.7710321533
 20
12.3827592525
 30
0.0
 10
14.7723540467
 20
12.3853521202
 30
0.0
 10
14.7736036152
 20
12.38817165
 30
0.0
 10
14.7747749574
 20
12.3912045791
 30
0.0
 10
14.775862623
 20
12.3944368129
 30
0.0
 10
14.7768614856
 20
12.3978532226
 30
0.0
 10
14.7777668202
 20
12.4014377327
 30
0.0
 10
14.7782970019
 20
12.4038904903
 30
0.0
 10
14.77854649
 20
12.4051411817
 30
0.0
  0
SPLINE
  5
319
100
AcDbEntity
  8
LAYER_FEATURE
100
AcDbSpline
 62
7
  6
CONTINUOUS
 70
0
 71
3
 72
23
 73
19
 74
0
 42
0.0000001
 43
0.0000001
 44
0.0000000001
 40
0.0
 40
0.0
 40
0.0
 40
0.0
 40
0.0608485479
 40
0.123291693
 40
0.1870498595
 40
0.2518348603
 40
0.317348421
 40
0.3832869949
 40
0.4493433619
 40
0.515209441
 40
0.5805786535
 40
0.6451484365
 40
0.7086227907
 40
0.7707147886
 40
0.8311495798
 40
0.8896664764
 40
0.946024053
 40
1.0
 40
1.0
 40
1.0
 40
1.0
 10
14.77854649
 20
12.4051411817
 30
0.0
 10
14.7787914761
 20
12.4063693043
 30
0.0
 10
14.7792437134
 20
12.4088667285
 30
0.0
 10
14.7798042346
 20
12.4126759958
 30
0.0
 10
14.7802535927
 20
12.4165815421
 30
0.0
 10
14.7805893027
 20
12.420561871
 30
0.0
 10
14.7808095052
 20
12.4245951846
 30
0.0
 10
14.7809129863
 20
12.4286593415
 30
0.0
 10
14.7808991717
 20
12.4327320445
 30
0.0
 10
14.7807681388
 20
12.4367909433
 30
0.0
 10
14.7805206117
 20
12.4408137662
 30
0.0
 10
14.7801579593
 20
12.4447784435
 30
0.0
 10
14.7796821854
 20
12.4486632294
 30
0.0
 10
14.7790959206
 20
12.4524468328
 30
0.0
 10
14.7784024015
 20
12.4561085114
 30
0.0
 10
14.7776054538
 20
12.4596282683
 30
0.0
 10
14.7767094895
 20
12.4629867521
 30
0.0
 10
14.7760340187
 20
12.4651556133
 30
0.0
 10
14.7756792442
 20
12.4662083135
 30
0.0
  0
SPLINE
  5
31A
100
AcDbEntity
  8
LAYER_FEATURE
100
AcDbSpline
 62
7
  6
CONTINUOUS
 70
0
 71
3
 72
11
 73
7
 74
0
 42
0.0000001
 43
0.0000001
 44
0.0000000001
 40
0.0
 40
0.0
 40
0.0
 40
0.0
 40
0.2695292076
 40
0.5263875832
 40
0.7700138424
 40
1.0
 40
1.0
 40
1.0
 40
1.0
 10
14.7756792442
 20
12.4662083135
 30
0.0
 10
14.7753396372
 20
12.467216008
 30
0.0
 10
14.7746375962
 20
12.4691712762
 30
0.0
 10
14.7734856935
 20
12.4719835364
 30
0.0
 10
14.7722643201
 20
12.4745951812
 30
0.0
 10
14.7713813487
 20
12.476243375
 30
0.0
 10
14.7709278157
 20
12.47702927
 30
0.0
  0
SPLINE
  5
31B
100
AcDbEntity
  8
LAYER_FEATURE
100
AcDbSpline
 62
7
  6
CONTINUOUS
 70
0
 71
3
 72
15
 73
11
 74
0
 42
0.0000001
 43
0.0000001
 44
0.0000000001
 40
0.0
 40
0.0
 40
0.0
 40
0.0
 40
0.1533573458
 40
0.2979146646
 40
0.4337871452
 40
0.5612595038
 40
0.6807987467
 40
0.7930943516
 40
0.8990913155
 40
1.0
 40
1.0
 40
1.0
 40
1.0
 10
14.7709278157
 20
12.47702927
 30
0.0
 10
14.7704578889
 20
12.4778435726
 30
0.0
 10
14.7695024399
 20
12.4794015251
 30
0.0
 10
14.7679740224
 20
12.4815800357
 30
0.0
 10
14.7663974284
 20
12.4835240593
 30
0.0
 10
14.7647777395
 20
12.4852268357
 30
0.0
 10
14.7631199318
 20
12.4866823638
 30
0.0
 10
14.7614288481
 20
12.4878852639
 30
0.0
 10
14.7597100702
 20
12.488830318
 30
0.0
 10
14.7585247848
 20
12.4892948529
 30
0.0
 10
14.757934102
 20
12.4894786894
 30
0.0
  0
LINE
  5
31C
100
AcDbEntity
  8
LAYER_FEATURE
100
AcDbLine
 62
7
  6
CONTINUOUS
 10
14.7532023152
 20
12.4916505884
 11
14.7545642607
 21
12.4906497885
  0
SPLINE
  5
31D
100
AcDbEntity
  8
LAYER_FEATURE
100
AcDbSpline
 62
7
  6
CONTINUOUS
 70
0
 71
3
 72
21
 73
17
 74
0
 42
0.0000001
 43
0.0000001
 44
0.0000000001
 40
0.0
 40
0.0
 40
0.0
 40
0.0
 40
0.1505847528
 40
0.2982079064
 40
0.3701329184
 40
0.440393288
 40
0.5087047328
 40
0.5747987308
 40
0.6384264266
 40
0.699362355
 40
0.7574082674
 40
0.8123982671
 40
0.8642047093
 40
0.9127448255
 40
0.9579981609
 40
1.0
 40
1.0
 40
1.0
 40
1.0
 10
14.7480439593
 20
12.5113896942
 30
0.0
 10
14.7480521915
 20
12.5103479392
 30
0.0
 10
14.7481253836
 20
12.5082849337
 30
0.0
 10
14.7483603905
 20
12.5057335273
 30
0.0
 10
14.748634507
 20
12.503747097
 30
0.0
 10
14.7488787238
 20
12.5023111838
 30
0.0
 10
14.7491620545
 20
12.50092361
 30
0.0
 10
14.7494830673
 20
12.4995913911
 30
0.0
 10
14.7498401271
 20
12.4983212673
 30
0.0
 10
14.7502314163
 20
12.4971196453
 30
0.0
 10
14.7506549494
 20
12.4959925701
 30
0.0
 10
14.7511085981
 20
12.4949456893
 30
0.0
 10
14.751590099
 20
12.493984248
 30
0.0
 10
14.7520970997
 20
12.4931129478
 30
0.0
 10
14.7526271004
 20
12.4923362245
 30
0.0
 10
14.7530081137
 20
12.491866743
 30
0.0
 10
14.7532023152
 20
12.4916505884
 30
0.0
  0
SPLINE
  5
31E
100
AcDbEntity
  8
LAYER_FEATURE
100
AcDbSpline
 62
7
  6
CONTINUOUS
 70
0
 71
3
 72
21
 73
17
 74
0
 42
0.0000001
 43
0.0000001
 44
0.0000000001
 40
0.0
 40
0.0
 40
0.0
 40
0.0
 40
0.0412308809
 40
0.0857195615
 40
0.1335394015
 40
0.1846995382
 40
0.2391404834
 40
0.2967527865
 40
0.3573847612
 40
0.4208491762
 40
0.4869289391
 40
0.5553813147
 40
0.6259419602
 40
0.6983290696
 40
0.8473634884
 40
1.0
 40
1.0
 40
1.0
 40
1.0
 10
14.7535935677
 20
12.5532918819
 30
0.0
 10
14.7533966521
 20
12.5530920196
 30
0.0
 10
14.7530095278
 20
12.5526542287
 30
0.0
 10
14.752469821
 20
12.5519219722
 30
0.0
 10
14.7519519806
 20
12.5510933328
 30
0.0
 10
14.7514585377
 20
12.5501725334
 30
0.0
 10
14.7509918762
 20
12.5491640584
 30
0.0
 10
14.7505543114
 20
12.5480729483
 30
0.0
 10
14.7501480337
 20
12.5469046587
 30
0.0
 10
14.7497750996
 20
12.5456650578
 30
0.0
 10
14.7494374049
 20
12.5443603909
 30
0.0
 10
14.7491366681
 20
12.5429972537
 30
0.0
 10
14.7488744081
 20
12.5415825342
 30
0.0
 10
14.7485749791
 20
12.5396180256
 30
0.0
 10
14.7483077563
 20
12.5370850932
 30
0.0
 10
14.7482088469
 20
12.5350334134
 30
0.0
 10
14.7481874405
 20
12.5339949579
 30
0.0
  0
LINE
  5
31F
100
AcDbEntity
  8
LAYER_FEATURE
100
AcDbLine
 62
7
  6
CONTINUOUS
 10
14.7545148465
 20
12.5539931258
 11
14.7535935677
 21
12.5532918819
  0
SPLINE
  5
320
100
AcDbEntity
  8
LAYER_FEATURE
100
AcDbSpline
 62
7
  6
CONTINUOUS
 70
0
 71
3
 72
9
 73
5
 74
0
 42
0.0000001
 43
0.0000001
 44
0.0000000001
 40
0.0
 40
0.0
 40
0.0
 40
0.0
 40
0.4943249346
 40
1.0
 40
1.0
 40
1.0
 40
1.0
 10
14.761271618
 20
12.5570050336
 30
0.0
 10
14.7601285755
 20
12.5565799226
 30
0.0
 10
14.7578438034
 20
12.5556442231
 30
0.0
 10
14.7556215306
 20
12.5545689708
 30
0.0
 10
14.7545148465
 20
12.5539931258
 30
0.0
  0
SPLINE
  5
321
100
AcDbEntity
  8
LAYER_FEATURE
100
AcDbSpline
 62
7
  6
CONTINUOUS
 70
0
 71
3
 72
10
 73
6
 74
0
 42
0.0000001
 43
0.0000001
 44
0.0000000001
 40
0.0
 40
0.0
 40
0.0
 40
0.0
 40
0.2383708454
 40
0.4838592092
 40
1.0
 40
1.0
 40
1.0
 40
1.0
 10
14.761271618
 20
12.5570050336
 30
0.0
 10
14.7616236887
 20
12.5571359729
 30
0.0
 10
14.7623276889
 20
12.5574314129
 30
0.0
 10
14.7637304104
 20
12.5581518252
 30
0.0
 10
14.764735252
 20
12.5588171754
 30
0.0
 10
14.7653850167
 20
12.5593064013
 30
0.0
  0
SPLINE
  5
322
100
AcDbEntity
  8
LAYER_FEATURE
100
AcDbSpline
 62
7
  6
CONTINUOUS
 70
0
 71
3
 72
15
 73
11
 74
0
 42
0.0000001
 43
0.0000001
 44
0.0000000001
 40
0.0
 40
0.0
 40
0.0
 40
0.0
 40
0.0969094588
 40
0.2013344706
 40
0.3137882737
 40
0.4345456843
 40
0.5636869279
 40
0.7011335717
 40
0.8466768851
 40
1.0
 40
1.0
 40
1.0
 40
1.0
 10
14.7653850167
 20
12.5593064013
 30
0.0
 10
14.7659378783
 20
12.5597226662
 30
0.0
 10
14.7670323691
 20
12.5606607564
 30
0.0
 10
14.768573382
 20
12.5622920589
 30
0.0
 10
14.7700658254
 20
12.5641894708
 30
0.0
 10
14.7715030669
 20
12.5663439666
 30
0.0
 10
14.7728789591
 20
12.5687457631
 30
0.0
 10
14.7741872894
 20
12.5713838205
 30
0.0
 10
14.7754220459
 20
12.5742458859
 30
0.0
 10
14.7761735234
 20
12.5762443873
 30
0.0
 10
14.7765372153
 20
12.5772771298
 30
0.0
  0
SPLINE
  5
323
100
AcDbEntity
  8
LAYER_FEATURE
100
AcDbSpline
 62
7
  6
CONTINUOUS
 70
0
 71
3
 72
23
 73
19
 74
0
 42
0.0000001
 43
0.0000001
 44
0.0000000001
 40
0.0
 40
0.0
 40
0.0
 40
0.0
 40
0.0533611041
 40
0.109169865
 40
0.167210524
 40
0.227247003
 40
0.2890229472
 40
0.3522669026
 40
0.4166944821
 40
0.4820114183
 40
0.5479161072
 40
0.61410218
 40
0.6802610313
 40
0.7460841896
 40
0.8112661333
 40
0.8755058725
 40
0.9385117722
 40
1.0
 40
1.0
 40
1.0
 40
1.0
 10
14.7765372153
 20
12.5772771298
 30
0.0
 10
14.7769011595
 20
12.5783105889
 30
0.0
 10
14.7775953945
 20
12.5804429021
 30
0.0
 10
14.7785195711
 20
12.583750442
 30
0.0
 10
14.7793461287
 20
12.5872247468
 30
0.0
 10
14.7800704916
 20
12.590846719
 30
0.0
 10
14.7806886659
 20
12.594596587
 30
0.0
 10
14.7811972394
 20
12.5984537984
 30
0.0
 10
14.7815934004
 20
12.6023972171
 30
0.0
 10
14.7818749603
 20
12.6064052163
 30
0.0
 10
14.7820403618
 20
12.6104558094
 30
0.0
 10
14.782088691
 20
12.6145267712
 30
0.0
 10
14.7820196796
 20
12.6185957611
 30
0.0
 10
14.7818337113
 20
12.6226404549
 30
0.0
 10
14.7815318106
 20
12.6266386475
 30
0.0
 10
14.7811156507
 20
12.6305684407
 30
0.0
 10
14.780587532
 20
12.6344082036
 30
0.0
 10
14.7801568731
 20
12.6369284953
 30
0.0
 10
14.7799225565
 20
12.6381691067
 30
0.0
  0
SPLINE
  5
324
100
AcDbEntity
  8
LAYER_FEATURE
100
AcDbSpline
 62
7
  6
CONTINUOUS
 70
0
 71
3
 72
11
 73
7
 74
0
 42
0.0000001
 43
0.0000001
 44
0.0000000001
 40
0.0
 40
0.0
 40
0.0
 40
0.0
 40
0.2625852515
 40
0.5173169261
 40
0.7633728699
 40
1.0
 40
1.0
 40
1.0
 40
1.0
 10
14.7799225565
 20
12.6381691067
 30
0.0
 10
14.7796941059
 20
12.6393786607
 30
0.0
 10
14.7792080648
 20
12.6417549918
 30
0.0
 10
14.7783778674
 20
12.6452365423
 30
0.0
 10
14.7774603842
 20
12.6485701139
 30
0.0
 10
14.776779208
 20
12.6507285612
 30
0.0
 10
14.7764236611
 20
12.6517792891
 30
0.0
  0
SPLINE
  5
325
100
AcDbEntity
  8
LAYER_FEATURE
100
AcDbSpline
 62
7
  6
CONTINUOUS
 70
0
 71
3
 72
15
 73
11
 74
0
 42
0.0000001
 43
0.0000001
 44
0.0000000001
 40
0.0
 40
0.0
 40
0.0
 40
0.0
 40
0.1479131888
 40
0.2896241434
 40
0.4248713826
 40
0.5534628691
 40
0.6752691815
 40
0.790242408
 40
0.8984333957
 40
1.0
 40
1.0
 40
1.0
 40
1.0
 10
14.7764236611
 20
12.6517792891
 30
0.0
 10
14.7760487202
 20
12.6528873311
 30
0.0
 10
14.7752760128
 20
12.6550441982
 30
0.0
 10
14.7740192535
 20
12.6581613508
 30
0.0
 10
14.7726930646
 20
12.6610827709
 30
0.0
 10
14.7713020553
 20
12.6637983371
 30
0.0
 10
14.7698509443
 20
12.6662987337
 30
0.0
 10
14.768344575
 20
12.6685754846
 30
0.0
 10
14.766788083
 20
12.670620602
 30
0.0
 10
14.7656861815
 20
12.671863443
 30
0.0
 10
14.7651274605
 20
12.6724405145
 30
0.0
  0
LINE
  5
326
100
AcDbEntity
  8
LAYER_FEATURE
100
AcDbLine
 62
7
  6
CONTINUOUS
 10
14.7607758088
 20
12.6776832945
 11
14.7619904776
 21
12.6758114064
  0
SPLINE
  5
327
100
AcDbEntity
  8
LAYER_FEATURE
100
AcDbSpline
 62
7
  6
CONTINUOUS
 70
0
 71
3
 72
19
 73
15
 74
0
 42
0.0000001
 43
0.0000001
 44
0.0000000001
 40
0.0
 40
0.0
 40
0.0
 40
0.0
 40
0.1350592584
 40
0.2717453676
 40
0.4077080185
 40
0.5406130136
 40
0.6052209418
 40
0.6682363174
 40
0.7294061442
 40
0.7884933154
 40
0.8452792888
 40
0.8995660351
 40
0.9511891784
 40
1.0
 40
1.0
 40
1.0
 40
1.0
 10
14.7577827021
 20
12.7001782037
 30
0.0
 10
14.7576840964
 20
12.6991502107
 30
0.0
 10
14.7575464964
 20
12.6970755803
 30
0.0
 10
14.7575134035
 20
12.6939567627
 30
0.0
 10
14.7576518908
 20
12.6908572692
 30
0.0
 10
14.7579102186
 20
12.688318894
 30
0.0
 10
14.7582026724
 20
12.6863481056
 30
0.0
 10
14.7584599675
 20
12.6849273709
 30
0.0
 10
14.7587559202
 20
12.6835573281
 30
0.0
 10
14.759089035
 20
12.6822448973
 30
0.0
 10
14.759457617
 20
12.6809967311
 30
0.0
 10
14.7598597902
 20
12.6798190691
 30
0.0
 10
14.7602935159
 20
12.6787179305
 30
0.0
 10
14.7606113872
 20
12.6780183504
 30
0.0
 10
14.7607758088
 20
12.6776832945
 30
0.0
  0
SPLINE
  5
328
100
AcDbEntity
  8
LAYER_FEATURE
100
AcDbSpline
 62
7
  6
CONTINUOUS
 70
0
 71
3
 72
22
 73
18
 74
0
 42
0.0000001
 43
0.0000001
 44
0.0000000001
 40
0.0
 40
0.0
 40
0.0
 40
0.0
 40
0.037348751
 40
0.0770331892
 40
0.1196698568
 40
0.1657132701
 40
0.2154586109
 40
0.2690735779
 40
0.3266215923
 40
0.3880817327
 40
0.4533645359
 40
0.5223237109
 40
0.59476587
 40
0.6704589141
 40
0.7491372781
 40
0.8305033699
 40
1.0
 40
1.0
 40
1.0
 40
1.0
 10
14.7673664868
 20
12.7369641738
 30
0.0
 10
14.7671592678
 20
12.7369029229
 30
0.0
 10
14.7667423799
 20
12.7367387743
 30
0.0
 10
14.7661429108
 20
12.73638793
 30
0.0
 10
14.7655564043
 20
12.7359291762
 30
0.0
 10
14.7649854717
 20
12.7353654263
 30
0.0
 10
14.7644323989
 20
12.7346995965
 30
0.0
 10
14.763899621
 20
12.7339350288
 30
0.0
 10
14.7633895818
 20
12.7330754772
 30
0.0
 10
14.7629047247
 20
12.732125169
 30
0.0
 10
14.7624474291
 20
12.7310888091
 30
0.0
 10
14.7620199689
 20
12.7299715674
 30
0.0
 10
14.7616244903
 20
12.7287790411
 30
0.0
 10
14.7612630015
 20
12.7275172303
 30
0.0
 10
14.7609373346
 20
12.7261924886
 30
0.0
 10
14.7605478302
 20
12.724325848
 30
0.0
 10
14.7603229669
 20
12.7228906913
 30
0.0
 10
14.7601996535
 20
12.7219178499
 30
0.0
  0
SPLINE
  5
329
100
AcDbEntity
  8
LAYER_FEATURE
100
AcDbSpline
 62
7
  6
CONTINUOUS
 70
0
 71
3
 72
14
 73
10
 74
0
 42
0.0000001
 43
0.0000001
 44
0.0000000001
 40
0.0
 40
0.0
 40
0.0
 40
0.0
 40
0.2194224884
 40
0.3363267821
 40
0.4583200375
 40
0.5855777207
 40
0.7182305408
 40
0.8563664584
 40
1.0
 40
1.0
 40
1.0
 40
1.0
 10
14.7850381651
 20
12.7370208336
 30
0.0
 10
14.7856742642
 20
12.7374564801
 30
0.0
 10
14.7865994661
 20
12.7381992176
 30
0.0
 10
14.7877587932
 20
12.7393175492
 30
0.0
 10
14.7886329254
 20
12.7402625593
 30
0.0
 10
14.7894917091
 20
12.7412943376
 30
0.0
 10
14.79033404
 20
12.7424114788
 30
0.0
 10
14.7911585735
 20
12.7436121982
 30
0.0
 10
14.7916853443
 20
12.7444508279
 30
0.0
 10
14.7919457949
 20
12.7448831117
 30
0.0
  0
SPLINE
  5
32A
100
AcDbEntity
  8
LAYER_FEATURE
100
AcDbSpline
 62
7
  6
CONTINUOUS
 70
0
 71
3
 72
23
 73
19
 74
0
 42
0.0000001
 43
0.0000001
 44
0.0000000001
 40
0.0
 40
0.0
 40
0.0
 40
0.0
 40
0.0460744215
 40
0.0952791484
 40
0.1475132476
 40
0.2026329373
 40
0.2604561033
 40
0.3207699664
 40
0.3833353472
 40
0.4478910801
 40
0.5141575839
 40
0.581840157
 40
0.6506320422
 40
0.7202171624
 40
0.790273251
 40
0.8604734703
 40
0.9304916272
 40
1.0
 40
1.0
 40
1.0
 40
1.0
 10
14.7919457949
 20
12.7448831117
 30
0.0
 10
14.7924062821
 20
12.7456474066
 30
0.0
 10
14.7933002081
 20
12.7472635291
 30
0.0
 10
14.7945252224
 20
12.7498460125
 30
0.0
 10
14.7956726484
 20
12.7526539987
 30
0.0
 10
14.7967361853
 20
12.7556721311
 30
0.0
 10
14.7977100556
 20
12.7588841116
 30
0.0
 10
14.7985889135
 20
12.7622724362
 30
0.0
 10
14.7993679236
 20
12.7658186231
 30
0.0
 10
14.8000427914
 20
12.769503284
 30
0.0
 10
14.800609791
 20
12.77330625
 30
0.0
 10
14.8010657909
 20
12.7772066854
 30
0.0
 10
14.8014082699
 20
12.7811832049
 30
0.0
 10
14.8016353371
 20
12.7852140018
 30
0.0
 10
14.8017457324
 20
12.78927695
 30
0.0
 10
14.8017388529
 20
12.793349785
 30
0.0
 10
14.8016147281
 20
12.7974100884
 30
0.0
 10
14.8014534357
 20
12.8001078667
 30
0.0
 10
14.8013530179
 20
12.801450246
 30
0.0
  0
SPLINE
  5
32B
100
AcDbEntity
  8
LAYER_FEATURE
100
AcDbSpline
 62
7
  6
CONTINUOUS
 70
0
 71
3
 72
11
 73
7
 74
0
 42
0.0000001
 43
0.0000001
 44
0.0000000001
 40
0.0
 40
0.0
 40
0.0
 40
0.0
 40
0.2564288276
 40
0.5091709696
 40
0.7573199069
 40
1.0
 40
1.0
 40
1.0
 40
1.0
 10
14.8013530179
 20
12.801450246
 30
0.0
 10
14.8012534877
 20
12.8027807583
 30
0.0
 10
14.8010211092
 20
12.8054201972
 30
0.0
 10
14.8005691998
 20
12.8093351106
 30
0.0
 10
14.8000180199
 20
12.8131650437
 30
0.0
 10
14.7995805996
 20
12.8156816049
 30
0.0
 10
14.7993450995
 20
12.8169221429
 30
0.0
  0
SPLINE
  5
32C
100
AcDbEntity
  8
LAYER_FEATURE
100
AcDbSpline
 62
7
  6
CONTINUOUS
 70
0
 71
3
 72
15
 73
11
 74
0
 42
0.0000001
 43
0.0000001
 44
0.0000000001
 40
0.0
 40
0.0
 40
0.0
 40
0.0
 40
0.1402918122
 40
0.2768570117
 40
0.4093333541
 40
0.537394517
 40
0.6607383595
 40
0.7790974055
 40
0.8922469194
 40
1.0
 40
1.0
 40
1.0
 40
1.0
 10
14.7993450995
 20
12.8169221429
 30
0.0
 10
14.7990926501
 20
12.8182519648
 30
0.0
 10
14.7985588224
 20
12.8208696909
 30
0.0
 10
14.7976581766
 20
12.8247155492
 30
0.0
 10
14.7966707826
 20
12.8284181433
 30
0.0
 10
14.7956001278
 20
12.8319645411
 30
0.0
 10
14.7944499246
 20
12.835342443
 30
0.0
 10
14.7932241801
 20
12.8385401836
 30
0.0
 10
14.7919271796
 20
12.8415465716
 30
0.0
 10
14.7909947467
 20
12.8434641881
 30
0.0
 10
14.7905162295
 20
12.844387146
 30
0.0
  0
LINE
  5
32D
100
AcDbEntity
  8
LAYER_FEATURE
100
AcDbLine
 62
7
  6
CONTINUOUS
 10
14.7868412706
 20
12.8523435202
 11
14.7878258851
 21
12.8497281099
  0
SPLINE
  5
32E
100
AcDbEntity
  8
LAYER_FEATURE
100
AcDbSpline
 62
7
  6
CONTINUOUS
 70
0
 71
3
 72
17
 73
13
 74
0
 42
0.0000001
 43
0.0000001
 44
0.0000000001
 40
0.0
 40
0.0
 40
0.0
 40
0.0
 40
0.1208991377
 40
0.2473256735
 40
0.3771659008
 40
0.5081964975
 40
0.6381597897
 40
0.7648300763
 40
0.8262682694
 40
0.8860968862
 40
0.9440849875
 40
1.0
 40
1.0
 40
1.0
 40
1.0
 10
14.7862173883
 20
12.8760612419
 30
0.0
 10
14.7860151478
 20
12.8751180289
 30
0.0
 10
14.7856695589
 20
12.8731734207
 30
0.0
 10
14.7853260392
 20
12.870182051
 30
0.0
 10
14.7851501024
 20
12.8670951668
 30
0.0
 10
14.7851453985
 20
12.8639751229
 30
0.0
 10
14.7853120583
 20
12.8608848859
 30
0.0
 10
14.7855935967
 20
12.8583610044
 30
0.0
 10
14.7859042545
 20
12.8564069787
 30
0.0
 10
14.7861744813
 20
12.855002185
 30
0.0
 10
14.7864828966
 20
12.8536504532
 30
0.0
 10
14.7867174627
 20
12.8527721418
 30
0.0
 10
14.7868412706
 20
12.8523435202
 30
0.0
  0
SPLINE
  5
32F
100
AcDbEntity
  8
LAYER_FEATURE
100
AcDbSpline
 62
7
  6
CONTINUOUS
 70
0
 71
3
 72
93
 73
89
 74
0
 42
0.0000001
 43
0.0000001
 44
0.0000000001
 40
0.0
 40
0.0
 40
0.0
 40
0.0
 40
0.0175570867
 40
0.0355326581
 40
0.0539050743
 40
0.0726515098
 40
0.0917479882
 40
0.1111695297
 40
0.1308902335
 40
0.1508833781
 40
0.1711215088
 40
0.1915765244
 40
0.2122197602
 40
0.2330220697
 40
0.2539539031
 40
0.2749853856
 40
0.2960863939
 40
0.3172266325
 40
0.3383757086
 40
0.3595032079
 40
0.3805787693
 40
0.40157216
 40
0.4224533517
 40
0.4431925963
 40
0.4637605035
 40
0.4841281187
 40
0.5042670034
 40
0.5241493171
 40
0.5437479012
 40
0.5630363674
 40
0.5819891882
 40
0.6005817936
 40
0.6187906725
 40
0.6365934822
 40
0.6539691658
 40
0.6708980807
 40
0.6873621404
 40
0.7033449721
 40
0.7188320935
 40
0.7338111147
 40
0.7482719679
 40
0.7553059246
 40
0.7622077668
 40
0.76897702
 40
0.7756134039
 40
0.7821168612
 40
0.7884875561
 40
0.7947259018
 40
0.8008325651
 40
0.8068084913
 40
0.8126549151
 40
0.8183733842
 40
0.8239657757
 40
0.8294343178
 40
0.8347816114
 40
0.8400106491
 40
0.8451248414
 40
0.8501280311
 40
0.8550245211
 40
0.864515104
 40
0.869122105
 40
0.8736444787
 40
0.8780889976
 40
0.8824629372
 40
0.8867740467
 40
0.8910305332
 40
0.8952410118
 40
0.8994144666
 40
0.9035601817
 40
0.9076876791
 40
0.9118066359
 40
0.9159268049
 40
0.9200579285
 40
0.924209652
 40
0.9283914466
 40
0.9326125262
 40
0.9368817907
 40
0.9412077554
 40
0.9455985199
 40
0.9500617143
 40
0.9592314201
 40
0.9687703632
 40
0.9736929282
 40
0.9787233019
 40
0.9838656778
 40
0.9891237825
 40
0.9945009279
 40
1.0
 40
1.0
 40
1.0
 40
1.0
 10
14.7911414741
 20
13.0018768678
 30
0.0
 10
14.7884840321
 20
12.9932773823
 30
0.0
 10
14.7833155856
 20
12.9758079501
 30
0.0
 10
14.7760782912
 20
12.949135552
 30
0.0
 10
14.769274175
 20
12.9217206995
 30
0.0
 10
14.7629148361
 20
12.8936099805
 30
0.0
 10
14.7570110478
 20
12.8648508964
 30
0.0
 10
14.7515728326
 20
12.8354921419
 30
0.0
 10
14.7466094198
 20
12.805583412
 30
0.0
 10
14.7421292353
 20
12.7751753487
 30
0.0
 10
14.7381398852
 20
12.7443194447
 30
0.0
 10
14.7346481428
 20
12.7130679578
 30
0.0
 10
14.731659937
 20
12.6814738205
 30
0.0
 10
14.7291803417
 20
12.6495905499
 30
0.0
 10
14.7272135677
 20
12.617472156
 30
0.0
 10
14.7257629546
 20
12.5851730499
 30
0.0
 10
14.7248309658
 20
12.5527479505
 30
0.0
 10
14.7244191841
 20
12.5202517915
 30
0.0
 10
14.7245283087
 20
12.4877396278
 30
0.0
 10
14.7251581543
 20
12.4552665415
 30
0.0
 10
14.7263076513
 20
12.422887548
 30
0.0
 10
14.7279748476
 20
12.3906575024
 30
0.0
 10
14.7301569122
 20
12.3586310062
 30
0.0
 10
14.7328501396
 20
12.3268623135
 30
0.0
 10
14.7360499566
 20
12.295405239
 30
0.0
 10
14.7397509299
 20
12.2643130661
 30
0.0
 10
14.7439467755
 20
12.2336384556
 30
0.0
 10
14.7486303696
 20
12.2034333555
 30
0.0
 10
14.7537937612
 20
12.1737489126
 30
0.0
 10
14.7594281857
 20
12.1446353839
 30
0.0
 10
14.7655240804
 20
12.1161420511
 30
0.0
 10
14.7720711016
 20
12.0883171348
 30
0.0
 10
14.7790581433
 20
12.0612077116
 30
0.0
 10
14.7864733573
 20
12.0348596325
 30
0.0
 10
14.7943041753
 20
12.0093174424
 30
0.0
 10
14.8025373328
 20
11.9846243047
 30
0.0
 10
14.8111588972
 20
11.9608219174
 30
0.0
 10
14.8201542865
 20
11.937950468
 30
0.0
 10
14.8295083364
 20
11.9160484634
 30
0.0
 10
14.8392052076
 20
11.8951530149
 30
0.0
 10
14.8476340443
 20
11.8784574974
 30
0.0
 10
14.8545422684
 20
11.8656425528
 30
0.0
 10
14.8597510349
 20
11.8563931646
 30
0.0
 10
14.8650328357
 20
11.8474210047
 30
0.0
 10
14.8703854855
 20
11.8387298498
 30
0.0
 10
14.8758067066
 20
11.8303233729
 30
0.0
 10
14.88129423
 20
11.8222051314
 30
0.0
 10
14.8868457352
 20
11.8143785514
 30
0.0
 10
14.8924588972
 20
11.8068469452
 30
0.0
 10
14.898131352
 20
11.799613493
 30
0.0
 10
14.9038607242
 20
11.7926812559
 30
0.0
 10
14.9096446115
 20
11.7860531656
 30
0.0
 10
14.9154805928
 20
11.7797320283
 30
0.0
 10
14.9213662328
 20
11.7737205249
 30
0.0
 10
14.9272990649
 20
11.7680212066
 30
0.0
 10
14.9332766397
 20
11.7626364936
 30
0.0
 10
14.9392963944
 20
11.7575687169
 30
0.0
 10
14.9453560628
 20
11.7528199082
 30
0.0
 10
14.9534005243
 20
11.7469777668
 30
0.0
 10
14.9616013773
 20
11.7417047974
 30
0.0
 10
14.9699405572
 20
11.737054933
 30
0.0
 10
14.9761606151
 20
11.7339296853
 30
0.0
 10
14.9824048942
 20
11.7311339643
 30
0.0
 10
14.988670869
 20
11.7286689261
 30
0.0
 10
14.9949558526
 20
11.7265357755
 30
0.0
 10
15.0012571416
 20
11.7247354649
 30
0.0
 10
15.0075720248
 20
11.7232689041
 30
0.0
 10
15.0138977396
 20
11.7221367497
 30
0.0
 10
15.0202315228
 20
11.7213396132
 30
0.0
 10
15.0265705733
 20
11.7208778292
 30
0.0
 10
15.0329120892
 20
11.7207516907
 30
0.0
 10
15.0392532559
 20
11.7209611954
 30
0.0
 10
15.0455912585
 20
11.7215063058
 30
0.0
 10
15.0519232996
 20
11.7223866822
 30
0.0
 10
15.0582465802
 20
11.7236019592
 30
0.0
 10
15.0645583447
 20
11.7251514725
 30
0.0
 10
15.0708558379
 20
11.7270345477
 30
0.0
 10
15.0771363382
 20
11.7292502053
 30
0.0
 10
15.0833972336
 20
11.7317975349
 30
0.0
 10
15.0917900482
 20
11.7356688947
 30
0.0
 10
15.1022335393
 20
11.7413629419
 30
0.0
 10
15.1123693614
 20
11.7480221198
 30
0.0
 10
15.1204016156
 20
11.7539694474
 30
0.0
 10
15.1264516013
 20
11.758797666
 30
0.0
 10
15.132461106
 20
11.763944371
 30
0.0
 10
15.1384278177
 20
11.769407443
 30
0.0
 10
15.1443491126
 20
11.7751844939
 30
0.0
 10
15.1482209059
 20
11.7791980835
 30
0.0
 10
15.1501488945
 20
11.7812548624
 30
0.0
  0
SPLINE
  5
330
100
AcDbEntity
  8
LAYER_FEATURE
100
AcDbSpline
 62
7
  6
CONTINUOUS
 70
0
 71
3
 72
51
 73
47
 74
0
 42
0.0000001
 43
0.0000001
 44
0.0000000001
 40
0.0
 40
0.0
 40
0.0
 40
0.0
 40
0.0475915077
 40
0.0939355803
 40
0.1389860683
 40
0.1827018786
 40
0.2250469805
 40
0.265991221
 40
0.305510855
 40
0.3435893192
 40
0.3802180669
 40
0.4153975549
 40
0.449138377
 40
0.4814625651
 40
0.5124050612
 40
0.5420153473
 40
0.5703591856
 40
0.5975203715
 40
0.6236023289
 40
0.6362794296
 40
0.648735119
 40
0.6609882545
 40
0.6730589587
 40
0.6849686017
 40
0.6967396851
 40
0.708395753
 40
0.7199612355
 40
0.7314612938
 40
0.7429216252
 40
0.7543682608
 40
0.7658273468
 40
0.7773249253
 40
0.7888867132
 40
0.8005379034
 40
0.8123029624
 40
0.824205483
 40
0.8362680157
 40
0.8485119905
 40
0.860957587
 40
0.8865224474
 40
0.9131041043
 40
0.9268149803
 40
0.9408211196
 40
0.9551336612
 40
0.9697625161
 40
1.0
 40
1.0
 40
1.0
 40
1.0
 10
14.7911414741
 20
13.0018768678
 30
0.0
 10
14.7936859759
 20
13.0101108787
 30
0.0
 10
14.798896249
 20
13.0263058114
 30
0.0
 10
14.8071928677
 20
13.0500703308
 30
0.0
 10
14.8158563743
 20
13.0729550171
 30
0.0
 10
14.824872592
 20
13.094922465
 30
0.0
 10
14.8342268841
 20
13.1159370336
 30
0.0
 10
14.8439040595
 20
13.135964591
 30
0.0
 10
14.8538884579
 20
13.1549726652
 30
0.0
 10
14.8641639706
 20
13.1729304684
 30
0.0
 10
14.8747140922
 20
13.1898089494
 30
0.0
 10
14.8855219667
 20
13.2055808277
 30
0.0
 10
14.8965704435
 20
13.2202206198
 30
0.0
 10
14.9078421244
 20
13.2337046433
 30
0.0
 10
14.9193194438
 20
13.2460110168
 30
0.0
 10
14.9309846142
 20
13.2571195727
 30
0.0
 10
14.942819978
 20
13.267011953
 30
0.0
 10
14.9548068009
 20
13.2756709385
 30
0.0
 10
14.965003514
 20
13.2819049945
 30
0.0
 10
14.9732068034
 20
13.2862367097
 30
0.0
 10
14.9793261696
 20
13.2891380889
 30
0.0
 10
14.9854675822
 20
13.2917212448
 30
0.0
 10
14.9916286418
 20
13.2939850561
 30
0.0
 10
14.9978067711
 20
13.2959285281
 30
0.0
 10
15.0039994257
 20
13.2975507502
 30
0.0
 10
15.0102040091
 20
13.2988509986
 30
0.0
 10
15.016417917
 20
13.2998286477
 30
0.0
 10
15.022638517
 20
13.3004832474
 30
0.0
 10
15.0288631651
 20
13.3008144821
 30
0.0
 10
15.0350892055
 20
13.3008221896
 30
0.0
 10
15.0413139806
 20
13.3005063776
 30
0.0
 10
15.047534833
 20
13.2998671782
 30
0.0
 10
15.0537491205
 20
13.2989049222
 30
0.0
 10
15.059954207
 20
13.2976200309
 30
0.0
 10
15.066147489
 20
13.2960131444
 30
0.0
 10
15.0723263725
 20
13.2940849563
 30
0.0
 10
15.0784882855
 20
13.2918364072
 30
0.0
 10
15.0846307653
 20
13.2892683969
 30
0.0
 10
15.0928642183
 20
13.2853857926
 30
0.0
 10
15.103108317
 20
13.2797096402
 30
0.0
 10
15.1130538128
 20
13.2731062036
 30
0.0
 10
15.1209364679
 20
13.2672256918
 30
0.0
 10
15.1268732535
 20
13.2624605749
 30
0.0
 10
15.132770953
 20
13.2573885192
 30
0.0
 10
15.1406658837
 20
13.2501398601
 30
0.0
 10
15.1463898062
 20
13.2443647596
 30
0.0
 10
15.1501348336
 20
13.2403701219
 30
0.0
  0
SPLINE
  5
331
100
AcDbEntity
  8
LAYER_FEATURE
100
AcDbSpline
 62
7
  6
CONTINUOUS
 70
0
 71
3
 72
15
 73
11
 74
0
 42
0.0000001
 43
0.0000001
 44
0.0000000001
 40
0.0
 40
0.0
 40
0.0
 40
0.0
 40
0.1069159614
 40
0.2158669829
 40
0.3287520453
 40
0.4472312844
 40
0.5726648907
 40
0.7061216037
 40
0.8484036232
 40
1.0
 40
1.0
 40
1.0
 40
1.0
 10
14.90186214
 20
13.1562388295
 30
0.0
 10
14.9016937288
 20
13.156238828
 30
0.0
 10
14.9013531612
 20
13.1562128518
 30
0.0
 10
14.9008467367
 20
13.1560966659
 30
0.0
 10
14.9003447239
 20
13.1559039949
 30
0.0
 10
14.8998491244
 20
13.1556360039
 30
0.0
 10
14.8993614566
 20
13.1552940726
 30
0.0
 10
14.8988831827
 20
13.1548795726
 30
0.0
 10
14.8984157873
 20
13.1543941013
 30
0.0
 10
14.8981218425
 20
13.154035851
 30
0.0
 10
14.8979767217
 20
13.1538462175
 30
0.0
  0
SPLINE
  5
332
100
AcDbEntity
  8
LAYER_FEATURE
100
AcDbSpline
 62
7
  6
CONTINUOUS
 70
0
 71
3
 72
23
 73
19
 74
0
 42
0.0000001
 43
0.0000001
 44
0.0000000001
 40
0.0
 40
0.0
 40
0.0
 40
0.0
 40
0.0737079012
 40
0.1460529479
 40
0.216994746
 40
0.2864994471
 40
0.3545339444
 40
0.4210685717
 40
0.4860768352
 40
0.5495355364
 40
0.611425168
 40
0.6717301916
 40
0.7304393346
 40
0.7875459424
 40
0.8430483935
 40
0.8969505736
 40
0.949262329
 40
1.0
 40
1.0
 40
1.0
 40
1.0
 10
15.4882754727
 20
13.0640378647
 30
0.0
 10
15.4903369461
 20
13.0707087948
 30
0.0
 10
15.4945317339
 20
13.083893659
 30
0.0
 10
15.5011037366
 20
13.1033712702
 30
0.0
 10
15.5078925945
 20
13.1223521548
 30
0.0
 10
15.5148925184
 20
13.140820237
 30
0.0
 10
15.5220977101
 20
13.158760167
 30
0.0
 10
15.5295021142
 20
13.1761569001
 30
0.0
 10
15.5370995351
 20
13.192995893
 30
0.0
 10
15.544883627
 20
13.2092630654
 30
0.0
 10
15.5528478927
 20
13.2249448166
 30
0.0
 10
15.5609856834
 20
13.2400280506
 30
0.0
 10
15.5692902181
 20
13.2545001727
 30
0.0
 10
15.5777545964
 20
13.2683491051
 30
0.0
 10
15.5863717832
 20
13.2815632714
 30
0.0
 10
15.595134686
 20
13.2941317135
 30
0.0
 10
15.6040358845
 20
13.3060437347
 30
0.0
 10
15.610150227
 20
13.313656478
 30
0.0
 10
15.6132300775
 20
13.3173462953
 30
0.0
  0
ENDSEC
  0
SECTION
  2
OBJECTS
  0
DICTIONARY
  5
C
100
AcDbDictionary
280
0
281
1
  3
ACAD_GROUP
350
D
  3
ACAD_MLINESTYLE
350
17
  3
ACAD_LAYOUT
350
1A
  3
ACAD_PLOTSETTINGS
350
19
  3
ACAD_PLOTSTYLENAME
350
E
  0
DICTIONARY
  5
D
102
{ACAD_REACTORS
330
C
102
}
100
AcDbDictionary
280
0
281
1
  0
ACDBDICTIONARYWDFLT
  5
E
102
{ACAD_REACTORS
330
C
102
}
100
AcDbDictionary
281
1
  3
Normal
350
F
100
AcDbDictionaryWithDefault
340
F
  0
DICTIONARY
  5
17
102
{ACAD_REACTORS
330
C
102
}
100
AcDbDictionary
280
0
281
1
  3
Standard
350
18
  0
DICTIONARY
  5
19
102
{ACAD_REACTORS
330
C
102
}
100
AcDbDictionary
281
1
  0
DICTIONARY
  5
1A
102
{ACAD_REACTORS
330
C
102
}
100
AcDbDictionary
281
1
  3
Model
350
333
  3
Layout1
350
334
  0
ACDBPLACEHOLDER
  5
F
102
{ACAD_REACTORS
330
E
102
}
  0
MLINESTYLE
  5
18
102
{ACAD_REACTORS
330
17
102
}
100
AcDbMlineStyle
  2
STANDARD
 70
0
  3

 62
256
 51
90.0
 52
90.0
 71
2
 49
0.5
 62
256
  6
BYLAYER
 49
-0.5
 62
256
  6
BYLAYER
  0
LAYOUT
  5
333
102
{ACAD_REACTORS
330
1A
102
}
100
AcDbPlotSettings
  1

  2
none_device
  4
ANSI_C_(22.00_x_17.00_Inches)
  6

 40
0.0
 41
0.0
 42
0.0
 43
0.0
 44
558.8
 45
431.8
 46
0.0
 47
0.0
 48
0.0
 49
0.0
140
0.0
141
0.0
142
1.0
143
1.0
 70
1024
 72
0
 73
0
 74
0
  7

 75
0
147
1.0
148
0.0
149
0.0
100
AcDbLayout
  1
Model
 70
0
 71
0
 10
0.0
 20
0.0
 11
22.0
 21
17.0
 12
0.0
 22
0.0
 32
0.0
 14
0.0
 24
0.0
 34
0.0
 15
0.0
 25
0.0
 35
0.0
146
0.0
 13
0.0
 23
0.0
 33
0.0
 16
1.0
 26
0.0
 36
0.0
 17
0.0
 27
1.0
 37
0.0
 76
0
330
21F
345
0
346
0
  0
LAYOUT
  5
334
102
{ACAD_REACTORS
330
1A
102
}
100
AcDbPlotSettings
  1

  2
none_device
  4
ANSI_C_(22.00_x_17.00_Inches)
  6

 40
0.0
 41
0.0
 42
0.0
 43
0.0
 44
558.8
 45
431.8
 46
0.0
 47
0.0
 48
0.0
 49
0.0
140
0.0
141
0.0
142
1.0
143
1.0
 70
0
 72
0
 73
0
 74
0
  7

 75
0
147
1.0
148
0.0
149
0.0
100
AcDbLayout
  1
Layout1
 70
0
 71
1
 10
0.0
 20
0.0
 11
22.0
 21
17.0
 12
0.0
 22
0.0
 32
0.0
 14
0.0
 24
0.0
 34
0.0
 15
0.0
 25
0.0
 35
0.0
146
0.0
 13
0.0
 23
0.0
 33
0.0
 16
1.0
 26
0.0
 36
0.0
 17
0.0
 27
1.0
 37
0.0
 76
0
330
220
345
0
346
0
  0
ENDSEC
  0
EOF