999
DXF file: _cgs_temp_output.dxf
999
Pro/ENGINEER 2016360 by Parametric Technology Corporation
  0
SECTION
  2
HEADER
  9
$ACADVER
  1
AC1021
  9
$DWGCODEPAGE
  3
ANSI_1252
  9
$EXTMAX
 10
22.0
 20
17.0
 30
0.0
  9
$EXTMIN
 10
0.0
 20
0.0
 30
0.0
  9
$LIMMIN
 10
0.0
 20
0.0
  9
$LIMMAX
 10
22.0
 20
17.0
  9
$VIEWCTR
 10
11.0
 20
8.5
  9
$VIEWSIZE
 40
17.0
  9
$CLAYER
  8
0
  9
$LTSCALE
 40
1.21
  9
$CELTYPE
  6
BYLAYER
  9
$DIMSCALE
 40
1.0
  9
$DIMASZ
 40
0.1875
  9
$DIMEXO
 40
0.0625
  9
$DIMDLI
 40
0.836
  9
$DIMEXE
 40
0.125
  9
$DIMCEN
 40
0.198
  9
$DIMLFAC
 40
1.0
  9
$DIMBLK
  1
_CLOSED
  9
$DIMALT
 70
0
  9
$DIMALTF
 40
25.4
  9
$DIMTXT
 40
0.15625
  9
$DIMTOL
 70
0
  9
$DIMLIM
 70
0
  9
$DIMTFAC
 40
1.0
  9
$DIMGAP
 40
0.09
  9
$DIMDSEP
 70
46
  9
$AUNITS
 70
0
  9
$PDMODE
 70
3
  9
$PDSIZE
 40
0.3125
  9
$HANDSEED
  5
32D
  9
$TILEMODE
 70
1
  9
$MEASUREMENT
 70
0
  9
$INSUNITS
 70
1
  0
ENDSEC
  0
SECTION
  2
CLASSES
  0
CLASS
  1
ACDBDICTIONARYWDFLT
  2
AcDbDictionaryWithDefault
  3
AutoCAD 2000
 90
0
 91
1
280
0
281
0
  0
CLASS
  1
ACDBPLACEHOLDER
  2
AcDbPlaceHolder
  3
AutoCAD 2000
 90
0
 91
1
280
0
281
0
  0
CLASS
  1
LAYOUT
  2
AcDbLayout
  3
AutoCAD 2000
 90
0
 91
0
280
0
281
0
  0
ENDSEC
  0
SECTION
  2
TABLES
  0
TABLE
  2
VPORT
  5
8
100
AcDbSymbolTable
 70
2
  0
VPORT
  5
1F4
100
AcDbSymbolTableRecord
100
AcDbViewportTableRecord
  2
*ACTIVE
 70
0
 10
0.0
 20
0.0
 11
1.0
 21
1.0
 12
11.0
 22
8.5
 13
0.0
 23
0.0
 14
1.0
 24
1.0
 15
0.0
 25
0.0
 16
0.0
 26
0.0
 36
1.0
 17
0.0
 27
0.0
 37
0.0
 40
17.0
 41
1.2941176471
 42
50.0
 43
0.0
 44
0.0
 50
0.0
 51
0.0
 71
0
 72
100
 73
1
 74
1
 75
0
 76
0
 77
0
 78
0
  0
ENDTAB
  0
TABLE
  2
LTYPE
  5
5
100
AcDbSymbolTable
 70
6
  0
LTYPE
  5
14
100
AcDbSymbolTableRecord
100
AcDbLinetypeTableRecord
  2
BYBLOCK
 70
0
  3

 72
65
 73
0
 40
0.0
  0
LTYPE
  5
15
100
AcDbSymbolTableRecord
100
AcDbLinetypeTableRecord
  2
BYLAYER
 70
0
  3

 72
65
 73
0
 40
0.0
  0
LTYPE
  5
16
100
AcDbSymbolTableRecord
100
AcDbLinetypeTableRecord
  2
CONTINUOUS
 70
64
  3
Solid line
 72
65
 73
0
 40
0.0
  0
LTYPE
  5
1F5
100
AcDbSymbolTableRecord
100
AcDbLinetypeTableRecord
  2
CENTER
 70
64
  3
____ _ ____ _ ____ _ ____ _ ____ _ ____ _ ____
 72
65
 73
4
 40
0.6
 49
0.375
 74
0
 49
-0.075
 74
0
 49
0.075
 74
0
 49
-0.075
 74
0
  0
LTYPE
  5
1F6
100
AcDbSymbolTableRecord
100
AcDbLinetypeTableRecord
  2
HIDDEN
 70
64
  3
- - - - - - - - - - - - - - - - - - - -
 72
65
 73
2
 40
0.2
 49
0.1
 74
0
 49
-0.1
 74
0
  0
LTYPE
  5
1F7
100
AcDbSymbolTableRecord
100
AcDbLinetypeTableRecord
  2
PHANTOM
 70
64
  3
_____ _ _ _____ _ _ _____ _ _ _____
 72
65
 73
6
 40
0.8
 49
0.45
 74
0
 49
-0.05
 74
0
 49
0.1
 74
0
 49
-0.05
 74
0
 49
0.1
 74
0
 49
-0.05
 74
0
  0
LTYPE
  5
1F8
100
AcDbSymbolTableRecord
100
AcDbLinetypeTableRecord
  2
DOT
 70
64
  3
. . . . . . . . . . . . . . . . . . . .
 72
65
 73
2
 40
0.2
 49
0.1
 74
0
 49
-0.1
 74
0
  0
LTYPE
  5
1F9
100
AcDbSymbolTableRecord
100
AcDbLinetypeTableRecord
  2
DASHED
 70
64
  3
- - - - - - - - - - - - - - - - - - - -
 72
65
 73
2
 40
0.2
 49
0.1
 74
0
 49
-0.1
 74
0
  0
ENDTAB
  0
TABLE
  2
LAYER
  5
2
100
AcDbSymbolTable
 70
36
  0
LAYER
  5
10
100
AcDbSymbolTableRecord
100
AcDbLayerTableRecord
  2
0
 70
0
 62
7
  6
CONTINUOUS
370
-3
390
F
  0
LAYER
  5
1FA
100
AcDbSymbolTableRecord
100
AcDbLayerTableRecord
  2
DEFAULT_1
 70
0
 62
7
  6
CENTER
370
-3
390
F
  0
LAYER
  5
1FB
100
AcDbSymbolTableRecord
100
AcDbLayerTableRecord
  2
DEFAULT_2
 70
0
 62
8
  6
HIDDEN
370
-3
390
F
  0
LAYER
  5
1FC
100
AcDbSymbolTableRecord
100
AcDbLayerTableRecord
  2
DEFAULT_3
 70
0
 62
7
  6
PHANTOM
370
-3
390
F
  0
LAYER
  5
1FD
100
AcDbSymbolTableRecord
100
AcDbLayerTableRecord
  2
01_ALL_DTM_PLN
 70
0
 62
7
  6
CONTINUOUS
370
-3
390
F
  0
LAYER
  5
1FE
100
AcDbSymbolTableRecord
100
AcDbLayerTableRecord
  2
01__ASM_ALL_DTM_PLN
 70
0
 62
7
  6
CONTINUOUS
370
-3
390
F
  0
LAYER
  5
1FF
100
AcDbSymbolTableRecord
100
AcDbLayerTableRecord
  2
01__ASM_DEF_DTM_PLN
 70
0
 62
7
  6
CONTINUOUS
370
-3
390
F
  0
LAYER
  5
200
100
AcDbSymbolTableRecord
100
AcDbLayerTableRecord
  2
01___PRT_ALL_DTM_PLN
 70
0
 62
7
  6
CONTINUOUS
370
-3
390
F
  0
LAYER
  5
201
100
AcDbSymbolTableRecord
100
AcDbLayerTableRecord
  2
01___PRT_DEF_DTM_PLN
 70
0
 62
7
  6
CONTINUOUS
370
-3
390
F
  0
LAYER
  5
202
100
AcDbSymbolTableRecord
100
AcDbLayerTableRecord
  2
02_ALL_AXES
 70
0
 62
7
  6
CONTINUOUS
370
-3
390
F
  0
LAYER
  5
203
100
AcDbSymbolTableRecord
100
AcDbLayerTableRecord
  2
02__ASM_ALL_AXES
 70
0
 62
7
  6
CONTINUOUS
370
-3
390
F
  0
LAYER
  5
204
100
AcDbSymbolTableRecord
100
AcDbLayerTableRecord
  2
02___PRT_ALL_AXES
 70
0
 62
7
  6
CONTINUOUS
370
-3
390
F
  0
LAYER
  5
205
100
AcDbSymbolTableRecord
100
AcDbLayerTableRecord
  2
03_ALL_CURVES
 70
0
 62
7
  6
CONTINUOUS
370
-3
390
F
  0
LAYER
  5
206
100
AcDbSymbolTableRecord
100
AcDbLayerTableRecord
  2
03__ASM_ALL_CURVES
 70
0
 62
7
  6
CONTINUOUS
370
-3
390
F
  0
LAYER
  5
207
100
AcDbSymbolTableRecord
100
AcDbLayerTableRecord
  2
03___PRT_ALL_CURVES
 70
0
 62
7
  6
CONTINUOUS
370
-3
390
F
  0
LAYER
  5
208
100
AcDbSymbolTableRecord
100
AcDbLayerTableRecord
  2
04_ALL_DTM_PNT
 70
0
 62
7
  6
CONTINUOUS
370
-3
390
F
  0
LAYER
  5
209
100
AcDbSymbolTableRecord
100
AcDbLayerTableRecord
  2
04__ASM_ALL_DTM_PNT
 70
0
 62
7
  6
CONTINUOUS
370
-3
390
F
  0
LAYER
  5
20A
100
AcDbSymbolTableRecord
100
AcDbLayerTableRecord
  2
04___PRT_ALL_DTM_PNT
 70
0
 62
7
  6
CONTINUOUS
370
-3
390
F
  0
LAYER
  5
20B
100
AcDbSymbolTableRecord
100
AcDbLayerTableRecord
  2
05_ALL_DTM_CSYS
 70
0
 62
7
  6
CONTINUOUS
370
-3
390
F
  0
LAYER
  5
20C
100
AcDbSymbolTableRecord
100
AcDbLayerTableRecord
  2
05__ASM_ALL_DTM_CSYS
 70
0
 62
7
  6
CONTINUOUS
370
-3
390
F
  0
LAYER
  5
20D
100
AcDbSymbolTableRecord
100
AcDbLayerTableRecord
  2
05__ASM_DEF_DTM_CSYS
 70
0
 62
7
  6
CONTINUOUS
370
-3
390
F
  0
LAYER
  5
20E
100
AcDbSymbolTableRecord
100
AcDbLayerTableRecord
  2
05___PRT_ALL_DTM_CSYS
 70
0
 62
7
  6
CONTINUOUS
370
-3
390
F
  0
LAYER
  5
20F
100
AcDbSymbolTableRecord
100
AcDbLayerTableRecord
  2
05___PRT_DEF_DTM_CSYS
 70
0
 62
7
  6
CONTINUOUS
370
-3
390
F
  0
LAYER
  5
210
100
AcDbSymbolTableRecord
100
AcDbLayerTableRecord
  2
06_ALL_SURFS
 70
0
 62
7
  6
CONTINUOUS
370
-3
390
F
  0
LAYER
  5
211
100
AcDbSymbolTableRecord
100
AcDbLayerTableRecord
  2
06__ASM_ALL_SURFS
 70
0
 62
7
  6
CONTINUOUS
370
-3
390
F
  0
LAYER
  5
212
100
AcDbSymbolTableRecord
100
AcDbLayerTableRecord
  2
06___PRT_ALL_SURFS
 70
0
 62
7
  6
CONTINUOUS
370
-3
390
F
  0
LAYER
  5
213
100
AcDbSymbolTableRecord
100
AcDbLayerTableRecord
  2
07__ASM_ALL_SKELETONS
 70
0
 62
7
  6
CONTINUOUS
370
-3
390
F
  0
LAYER
  5
214
100
AcDbSymbolTableRecord
100
AcDbLayerTableRecord
  2
LAYER_AXIS
 70
0
 62
7
  6
CONTINUOUS
370
-3
390
F
  0
LAYER
  5
215
100
AcDbSymbolTableRecord
100
AcDbLayerTableRecord
  2
LAYER_CHAMFER_FEAT
 70
0
 62
7
  6
CONTINUOUS
370
-3
390
F
  0
LAYER
  5
216
100
AcDbSymbolTableRecord
100
AcDbLayerTableRecord
  2
LAYER_CUT_FEAT
 70
0
 62
7
  6
CONTINUOUS
370
-3
390
F
  0
LAYER
  5
217
100
AcDbSymbolTableRecord
100
AcDbLayerTableRecord
  2
LAYER_DATUM
 70
0
 62
7
  6
CONTINUOUS
370
-3
390
F
  0
LAYER
  5
218
100
AcDbSymbolTableRecord
100
AcDbLayerTableRecord
  2
LAYER_DIM
 70
0
 62
7
  6
CONTINUOUS
370
-3
390
F
  0
LAYER
  5
219
100
AcDbSymbolTableRecord
100
AcDbLayerTableRecord
  2
LAYER_FEATURE
 70
0
 62
7
  6
CONTINUOUS
370
-3
390
F
  0
LAYER
  5
21A
100
AcDbSymbolTableRecord
100
AcDbLayerTableRecord
  2
LAYER_GEOM_FEAT
 70
0
 62
7
  6
CONTINUOUS
370
-3
390
F
  0
LAYER
  5
21B
100
AcDbSymbolTableRecord
100
AcDbLayerTableRecord
  2
LAYER_NOGEOM_FEAT
 70
0
 62
7
  6
CONTINUOUS
370
-3
390
F
  0
LAYER
  5
21C
100
AcDbSymbolTableRecord
100
AcDbLayerTableRecord
  2
LAYER_PARAMETER_DIM
 70
0
 62
7
  6
CONTINUOUS
370
-3
390
F
  0
LAYER
  5
21D
100
AcDbSymbolTableRecord
100
AcDbLayerTableRecord
  2
LAYER_PROTRUSION_FEAT
 70
0
 62
7
  6
CONTINUOUS
370
-3
390
F
  0
LAYER
  5
21E
100
AcDbSymbolTableRecord
100
AcDbLayerTableRecord
  2
LAYER_QUILT
 70
0
 62
7
  6
CONTINUOUS
370
-3
390
F
  0
LAYER
  5
21F
100
AcDbSymbolTableRecord
100
AcDbLayerTableRecord
  2
LAYER_ROUND_FEAT
 70
0
 62
7
  6
CONTINUOUS
370
-3
390
F
  0
ENDTAB
  0
TABLE
  2
STYLE
  5
3
100
AcDbSymbolTable
 70
1
  0
STYLE
  5
11
100
AcDbSymbolTableRecord
100
AcDbTextStyleTableRecord
  2
STANDARD
 70
0
 40
0.0
 41
0.8
 50
0.0
 71
0
 42
0.2
  3
txt
  4

  0
STYLE
  5
220
100
AcDbSymbolTableRecord
100
AcDbTextStyleTableRecord
  2
TEXTSTYLE_1
 70
0
 40
0.0
 41
0.8
 50
0.0
 71
0
 42
0.2
  3
gdt
  4

  0
ENDTAB
  0
TABLE
  2
VIEW
  5
6
100
AcDbSymbolTable
 70
0
  0
ENDTAB
  0
TABLE
  2
UCS
  5
7
100
AcDbSymbolTable
 70
0
  0
ENDTAB
  0
TABLE
  2
APPID
  5
9
100
AcDbSymbolTable
 70
1
  0
APPID
  5
221
100
AcDbSymbolTableRecord
100
AcDbRegAppTableRecord
  2
ACAD
 70
0
  0
ENDTAB
  0
TABLE
  2
BLOCK_RECORD
  5
1
100
AcDbSymbolTable
 70
0
  0
BLOCK_RECORD
  5
222
100
AcDbSymbolTableRecord
100
AcDbBlockTableRecord
  2
*Model_Space
  0
BLOCK_RECORD
  5
223
100
AcDbSymbolTableRecord
100
AcDbBlockTableRecord
  2
*Paper_Space
  0
ENDTAB
  0
TABLE
  2
DIMSTYLE
  5
A
100
AcDbSymbolTable
 70
1
100
AcDbDimStyleTable
 71
0
  0
DIMSTYLE
105
224
100
AcDbSymbolTableRecord
100
AcDbDimStyleTableRecord
  2
STANDARD
 70
0
  3

  4

 40
1.0
 41
0.1875
 42
0.0625
 43
0.38
 44
0.125
 45
0.0
 46
0.0
 47
0.0001
 48
0.0001
140
0.15625
141
0.09
142
0.0
143
25.4
144
1.0
145
0.0
146
1.0
147
0.09
 71
0.0
 72
0.0
 73
1
 74
1
 75
0
 76
0
 77
0
 78
4
 79
1
170
0
171
3
172
0
173
0
174
0
175
0
176
0
177
0
178
0
270
2
179
4
271
4
272
4
273
2
274
2
275
0
280
0
281
0
282
0
283
1
284
4
285
0
286
0
287
3
288
0
340
11
278
46
  0
ENDTAB
  0
ENDSEC
  0
SECTION
  2
BLOCKS
  0
BLOCK
  5
20
100
AcDbEntity
  8
0
100
AcDbBlockBegin
  2
*Model_Space
 70
0
 10
0.0
 20
0.0
 30
0.0
  3
*Model_Space
  1

  0
ENDBLK
  5
21
100
AcDbEntity
  8
0
100
AcDbBlockEnd
  0
BLOCK
  5
1C
100
AcDbEntity
  8
0
100
AcDbBlockBegin
  2
*Paper_Space
 70
0
 10
0.0
 20
0.0
 30
0.0
  3
*Paper_Space
  1

  0
ENDBLK
  5
1D
100
AcDbEntity
  8
0
100
AcDbBlockEnd
  0
ENDSEC
  0
SECTION
  2
ENTITIES
  0
MTEXT
  5
225
100
AcDbEntity
  8
0
100
AcDbMText
 62
7
  6
CONTINUOUS
  7
STANDARD
 71
1
 72
1
 10
15.9560215477
 20
0.9479130325
 30
0.0
 11
1.0
 21
0.0
 31
0.0
 44
0.9
  1
SCALE: 1:1.000
 40
0.3
 41
3.36
  0
LINE
  5
226
100
AcDbEntity
  8
0
100
AcDbLine
 62
7
  6
CONTINUOUS
 10
0.0
 20
0.0
 11
0.0
 21
17.0
  0
LINE
  5
227
100
AcDbEntity
  8
0
100
AcDbLine
 62
7
  6
CONTINUOUS
 10
0.0
 20
0.0
 11
22.0
 21
0.0
  0
LINE
  5
228
100
AcDbEntity
  8
0
100
AcDbLine
 62
7
  6
CONTINUOUS
 10
0.0
 20
17.0
 11
22.0
 21
17.0
  0
LINE
  5
229
100
AcDbEntity
  8
0
100
AcDbLine
 62
7
  6
CONTINUOUS
 10
22.0
 20
0.0
 11
22.0
 21
17.0
  0
LINE
  5
22A
100
AcDbEntity
  8
LAYER_FEATURE
100
AcDbLine
 62
7
  6
CONTINUOUS
 10
6.0647672762
 20
6.0516198968
 11
6.060054315
 21
6.0469069355
  0
LINE
  5
22B
100
AcDbEntity
  8
LAYER_FEATURE
100
AcDbLine
 62
7
  6
CONTINUOUS
 10
6.6618672762
 20
5.4545198968
 11
6.657154315
 21
5.4498069355
  0
LINE
  5
22C
100
AcDbEntity
  8
LAYER_FEATURE
100
AcDbLine
 62
7
  6
CONTINUOUS
 10
6.1959672762
 20
6.0516198968
 11
6.2006802374
 21
6.0469069355
  0
LINE
  5
22D
100
AcDbEntity
  8
LAYER_FEATURE
100
AcDbLine
 62
7
  6
CONTINUOUS
 10
6.6618672762
 20
5.5857198968
 11
6.657154315
 21
5.590432858
  0
LINE
  5
22E
100
AcDbEntity
  8
LAYER_FEATURE
100
AcDbLine
 62
7
  6
CONTINUOUS
 10
6.6618672762
 20
5.5857198968
 11
6.6618672762
 21
5.4545198968
  0
LINE
  5
22F
100
AcDbEntity
  8
LAYER_FEATURE
100
AcDbLine
 62
7
  6
CONTINUOUS
 10
6.0647672762
 20
6.0516198968
 11
6.1959672762
 21
6.0516198968
  0
LINE
  5
230
100
AcDbEntity
  8
LAYER_FEATURE
100
AcDbLine
 62
7
  6
CONTINUOUS
 10
5.1948720839
 20
12.3635477814
 11
5.1948720839
 21
12.4035477814
  0
LINE
  5
231
100
AcDbEntity
  8
LAYER_FEATURE
100
AcDbLine
 62
7
  6
CONTINUOUS
 10
5.1948720839
 20
13.1035477814
 11
5.1948720839
 21
13.1435477814
  0
LINE
  5
232
100
AcDbEntity
  8
02___PRT_ALL_AXES
100
AcDbLine
 62
7
  6
CONTINUOUS
 10
5.2788720839
 20
12.4285477814
 11
5.2788720839
 21
13.0785477814
  0
LINE
  5
233
100
AcDbEntity
  8
LAYER_CUT_FEAT
100
AcDbLine
 62
7
  6
CONTINUOUS
 10
5.2977770742
 20
13.0785477814
 11
5.2977770742
 21
12.4285477814
  0
LINE
  5
234
100
AcDbEntity
  8
LAYER_CUT_FEAT
100
AcDbLine
 62
7
  6
CONTINUOUS
 10
5.3604633824
 20
13.0785477814
 11
5.3604633824
 21
12.4285477814
  0
LINE
  5
235
100
AcDbEntity
  8
LAYER_CUT_FEAT
100
AcDbLine
 62
7
  6
CONTINUOUS
 10
5.4634480838
 20
13.0785477814
 11
5.4634480838
 21
12.4285477814
  0
LINE
  5
236
100
AcDbEntity
  8
02___PRT_ALL_AXES
100
AcDbLine
 62
7
  6
CONTINUOUS
 10
5.5393720839
 20
12.0565477814
 11
6.6023720839
 21
12.0565477814
  0
LINE
  5
237
100
AcDbEntity
  8
02___PRT_ALL_AXES
100
AcDbLine
 62
7
  6
CONTINUOUS
 10
5.5393720839
 20
12.0565477814
 11
5.5393720839
 21
12.3635477814
  0
LINE
  5
238
100
AcDbEntity
  8
LAYER_CUT_FEAT
100
AcDbLine
 62
7
  6
CONTINUOUS
 10
5.600746082
 20
13.0785477814
 11
5.600746082
 21
12.4285477814
  0
LINE
  5
239
100
AcDbEntity
  8
LAYER_CUT_FEAT
100
AcDbLine
 62
7
  6
CONTINUOUS
 10
6.0472007228
 20
12.1690477814
 11
6.0945434449
 21
12.1690477814
  0
LINE
  5
23A
100
AcDbEntity
  8
LAYER_CUT_FEAT
100
AcDbLine
 62
7
  6
CONTINUOUS
 10
6.0945434449
 20
12.2510477814
 11
6.0472007228
 21
12.2510477814
  0
LINE
  5
23B
100
AcDbEntity
  8
LAYER_CUT_FEAT
100
AcDbLine
 62
7
  6
CONTINUOUS
 10
5.7643781164
 20
13.0785477814
 11
5.7643781164
 21
12.4285477814
  0
LINE
  5
23C
100
AcDbEntity
  8
LAYER_FEATURE
100
AcDbLine
 62
7
  6
CONTINUOUS
 10
5.1948720839
 20
12.3635477814
 11
6.9468720839
 21
12.3635477814
  0
LINE
  5
23D
100
AcDbEntity
  8
LAYER_CUT_FEAT
100
AcDbLine
 62
7
  6
CONTINUOUS
 10
6.0235293618
 20
12.2100477814
 11
6.0472007228
 21
12.1690477814
  0
LINE
  5
23E
100
AcDbEntity
  8
LAYER_FEATURE
100
AcDbLine
 62
7
  6
CONTINUOUS
 10
5.1948720839
 20
12.4035477814
 11
5.2558720839
 21
12.4285477814
  0
LINE
  5
23F
100
AcDbEntity
  8
LAYER_FEATURE
100
AcDbLine
 62
7
  6
CONTINUOUS
 10
6.8858720839
 20
13.0785477814
 11
6.9468720839
 21
13.1035477814
  0
LINE
  5
240
100
AcDbEntity
  8
LAYER_FEATURE
100
AcDbLine
 62
7
  6
CONTINUOUS
 10
5.1948720839
 20
12.4035477814
 11
6.9468720839
 21
12.4035477814
  0
LINE
  5
241
100
AcDbEntity
  8
LAYER_FEATURE
100
AcDbLine
 62
7
  6
CONTINUOUS
 10
5.2558721368
 20
12.4285477814
 11
6.8858720309
 21
12.4285477814
  0
LINE
  5
242
100
AcDbEntity
  8
LAYER_CUT_FEAT
100
AcDbLine
 62
7
  6
CONTINUOUS
 10
6.1182148059
 20
12.2100477814
 11
6.0945434449
 21
12.2510477814
  0
LINE
  5
243
100
AcDbEntity
  8
LAYER_CUT_FEAT
100
AcDbLine
 62
7
  6
CONTINUOUS
 10
5.944834488
 20
13.0785477814
 11
5.944834488
 21
12.4285477814
  0
LINE
  5
244
100
AcDbEntity
  8
LAYER_CUT_FEAT
100
AcDbLine
 62
7
  6
CONTINUOUS
 10
6.0141493155
 20
13.0785477814
 11
6.0141493155
 21
12.4285477814
  0
LINE
  5
245
100
AcDbEntity
  8
LAYER_CUT_FEAT
100
AcDbLine
 62
7
  6
CONTINUOUS
 10
6.1316277282
 20
13.0785477814
 11
6.1316277282
 21
12.4285477814
  0
LINE
  5
246
100
AcDbEntity
  8
LAYER_CUT_FEAT
100
AcDbLine
 62
7
  6
CONTINUOUS
 10
6.200920142
 20
13.0785477814
 11
6.200920142
 21
12.4285477814
  0
LINE
  5
247
100
AcDbEntity
  8
LAYER_FEATURE
100
AcDbLine
 62
7
  6
CONTINUOUS
 10
5.2558720839
 20
13.0785477814
 11
5.1948720839
 21
13.1035477814
  0
LINE
  5
248
100
AcDbEntity
  8
LAYER_FEATURE
100
AcDbLine
 62
7
  6
CONTINUOUS
 10
6.6003468669
 20
12.2776729983
 11
6.6023720839
 21
12.2756477814
  0
LINE
  5
249
100
AcDbEntity
  8
LAYER_CUT_FEAT
100
AcDbLine
 62
7
  6
CONTINUOUS
 10
6.0472007228
 20
12.2510477814
 11
6.0235293618
 21
12.2100477814
  0
LINE
  5
24A
100
AcDbEntity
  8
LAYER_FEATURE
100
AcDbLine
 62
7
  6
CONTINUOUS
 10
6.9468720839
 20
12.4035477814
 11
6.8858720839
 21
12.4285477814
  0
LINE
  5
24B
100
AcDbEntity
  8
LAYER_CUT_FEAT
100
AcDbLine
 62
7
  6
CONTINUOUS
 10
6.0945434449
 20
12.1690477814
 11
6.1182148059
 21
12.2100477814
  0
LINE
  5
24C
100
AcDbEntity
  8
LAYER_CUT_FEAT
100
AcDbLine
 62
7
  6
CONTINUOUS
 10
6.3811210263
 20
13.0785477814
 11
6.3811210263
 21
12.4285477814
  0
LINE
  5
24D
100
AcDbEntity
  8
LAYER_CUT_FEAT
100
AcDbLine
 62
7
  6
CONTINUOUS
 10
6.5442793479
 20
13.0785477814
 11
6.5442793479
 21
12.4285477814
  0
LINE
  5
24E
100
AcDbEntity
  8
LAYER_FEATURE
100
AcDbLine
 62
7
  6
CONTINUOUS
 10
5.2558721368
 20
13.0785477814
 11
6.8858720309
 21
13.0785477814
  0
LINE
  5
24F
100
AcDbEntity
  8
02___PRT_ALL_AXES
100
AcDbLine
 62
7
  6
CONTINUOUS
 10
6.6023720839
 20
12.0565477814
 11
6.6023720839
 21
12.1280477814
  0
LINE
  5
250
100
AcDbEntity
  8
LAYER_FEATURE
100
AcDbLine
 62
7
  6
CONTINUOUS
 10
6.6023720839
 20
12.1444477814
 11
6.6023720839
 21
12.2756477814
  0
LINE
  5
251
100
AcDbEntity
  8
02___PRT_ALL_AXES
100
AcDbLine
 62
7
  6
CONTINUOUS
 10
6.6023720839
 20
12.2920477814
 11
6.6023720839
 21
12.3635477814
  0
LINE
  5
252
100
AcDbEntity
  8
LAYER_FEATURE
100
AcDbLine
 62
7
  6
CONTINUOUS
 10
5.1948720839
 20
13.1035477814
 11
6.9468720839
 21
13.1035477814
  0
LINE
  5
253
100
AcDbEntity
  8
LAYER_FEATURE
100
AcDbLine
 62
7
  6
CONTINUOUS
 10
5.1948720839
 20
13.1435477814
 11
6.9468720839
 21
13.1435477814
  0
LINE
  5
254
100
AcDbEntity
  8
LAYER_CUT_FEAT
100
AcDbLine
 62
7
  6
CONTINUOUS
 10
6.6809129383
 20
13.0785477814
 11
6.6809129383
 21
12.4285477814
  0
LINE
  5
255
100
AcDbEntity
  8
LAYER_CUT_FEAT
100
AcDbLine
 62
7
  6
CONTINUOUS
 10
6.7830811499
 20
13.0785477814
 11
6.7830811499
 21
12.4285477814
  0
LINE
  5
256
100
AcDbEntity
  8
LAYER_FEATURE
100
AcDbLine
 62
7
  6
CONTINUOUS
 10
6.6003468667
 20
12.1424225642
 11
6.6023720839
 21
12.1444477814
  0
LINE
  5
257
100
AcDbEntity
  8
LAYER_CUT_FEAT
100
AcDbLine
 62
7
  6
CONTINUOUS
 10
6.8448463376
 20
13.0785477814
 11
6.8448463376
 21
12.4285477814
  0
LINE
  5
258
100
AcDbEntity
  8
02___PRT_ALL_AXES
100
AcDbLine
 62
7
  6
CONTINUOUS
 10
6.8628720839
 20
12.4285477814
 11
6.8628720839
 21
13.0785477814
  0
LINE
  5
259
100
AcDbEntity
  8
LAYER_FEATURE
100
AcDbLine
 62
7
  6
CONTINUOUS
 10
6.9468720839
 20
12.3635477814
 11
6.9468720839
 21
12.4035477814
  0
LINE
  5
25A
100
AcDbEntity
  8
LAYER_FEATURE
100
AcDbLine
 62
7
  6
CONTINUOUS
 10
6.9468720839
 20
13.1035477814
 11
6.9468720839
 21
13.1435477814
  0
LINE
  5
25B
100
AcDbEntity
  8
LAYER_FEATURE
100
AcDbLine
 62
7
  6
CONTINUOUS
 10
16.1038552569
 20
4.5846247044
 11
16.0638552569
 21
4.5846247044
  0
LINE
  5
25C
100
AcDbEntity
  8
LAYER_FEATURE
100
AcDbLine
 62
7
  6
CONTINUOUS
 10
15.3638552569
 20
4.5846247044
 11
15.3238552569
 21
4.5846247044
  0
LINE
  5
25D
100
AcDbEntity
  8
LAYER_CUT_FEAT
100
AcDbLine
 62
7
  6
CONTINUOUS
 10
16.0388552569
 20
4.6721391547
 11
15.3888552569
 21
4.6721391547
  0
LINE
  5
25E
100
AcDbEntity
  8
LAYER_CUT_FEAT
100
AcDbLine
 62
7
  6
CONTINUOUS
 10
16.0388552569
 20
4.712200136
 11
15.3888552569
 21
4.712200136
  0
LINE
  5
25F
100
AcDbEntity
  8
LAYER_FEATURE
100
AcDbLine
 62
7
  6
CONTINUOUS
 10
15.1027305036
 20
5.9900999511
 11
15.1047552569
 21
5.9921247044
  0
LINE
  5
260
100
AcDbEntity
  8
LAYER_CUT_FEAT
100
AcDbLine
 62
7
  6
CONTINUOUS
 10
16.0388552569
 20
4.7947688545
 11
15.3888552569
 21
4.7947688545
  0
LINE
  5
261
100
AcDbEntity
  8
02___PRT_ALL_AXES
100
AcDbLine
 62
7
  6
CONTINUOUS
 10
15.0168552569
 20
5.9921247044
 11
15.0168552569
 21
4.9291247044
  0
LINE
  5
262
100
AcDbEntity
  8
LAYER_CUT_FEAT
100
AcDbLine
 62
7
  6
CONTINUOUS
 10
16.0388552569
 20
4.9150467165
 11
15.3888552569
 21
4.9150467165
  0
LINE
  5
263
100
AcDbEntity
  8
02___PRT_ALL_AXES
100
AcDbLine
 62
7
  6
CONTINUOUS
 10
15.3238552569
 20
4.9291247044
 11
15.0168552569
 21
4.9291247044
  0
LINE
  5
264
100
AcDbEntity
  8
LAYER_CUT_FEAT
100
AcDbLine
 62
7
  6
CONTINUOUS
 10
15.1293552569
 20
5.4842960655
 11
15.1293552569
 21
5.4369533434
  0
LINE
  5
265
100
AcDbEntity
  8
LAYER_CUT_FEAT
100
AcDbLine
 62
7
  6
CONTINUOUS
 10
15.2113552569
 20
5.4369533434
 11
15.2113552569
 21
5.4842960655
  0
LINE
  5
266
100
AcDbEntity
  8
LAYER_CUT_FEAT
100
AcDbLine
 62
7
  6
CONTINUOUS
 10
16.0388552569
 20
5.0660436099
 11
15.3888552569
 21
5.0660436099
  0
LINE
  5
267
100
AcDbEntity
  8
LAYER_FEATURE
100
AcDbLine
 62
7
  6
CONTINUOUS
 10
15.3238552569
 20
6.3366247044
 11
15.3238552569
 21
4.5846247044
  0
LINE
  5
268
100
AcDbEntity
  8
LAYER_CUT_FEAT
100
AcDbLine
 62
7
  6
CONTINUOUS
 10
15.1703552569
 20
5.5079674265
 11
15.1293552569
 21
5.4842960655
  0
LINE
  5
269
100
AcDbEntity
  8
LAYER_CUT_FEAT
100
AcDbLine
 62
7
  6
CONTINUOUS
 10
16.0388552569
 20
5.2389841441
 11
15.3888552569
 21
5.2389841441
  0
LINE
  5
26A
100
AcDbEntity
  8
LAYER_CUT_FEAT
100
AcDbLine
 62
7
  6
CONTINUOUS
 10
15.1293552569
 20
5.4369533434
 11
15.1703552569
 21
5.4132819824
  0
LINE
  5
26B
100
AcDbEntity
  8
LAYER_FEATURE
100
AcDbLine
 62
7
  6
CONTINUOUS
 10
15.3638552569
 20
6.3366247044
 11
15.3638552569
 21
4.5846247044
  0
LINE
  5
26C
100
AcDbEntity
  8
LAYER_FEATURE
100
AcDbLine
 62
7
  6
CONTINUOUS
 10
15.3888552569
 20
6.2756247044
 11
15.3888552569
 21
4.6456247044
  0
LINE
  5
26D
100
AcDbEntity
  8
LAYER_CUT_FEAT
100
AcDbLine
 62
7
  6
CONTINUOUS
 10
15.1703552569
 20
5.4132819824
 11
15.2113552569
 21
5.4369533434
  0
LINE
  5
26E
100
AcDbEntity
  8
LAYER_CUT_FEAT
100
AcDbLine
 62
7
  6
CONTINUOUS
 10
15.2113552569
 20
5.4842960655
 11
15.1703552569
 21
5.5079674265
  0
LINE
  5
26F
100
AcDbEntity
  8
LAYER_CUT_FEAT
100
AcDbLine
 62
7
  6
CONTINUOUS
 10
16.0388552569
 20
5.4238176438
 11
15.3888552569
 21
5.4238176438
  0
LINE
  5
270
100
AcDbEntity
  8
LAYER_CUT_FEAT
100
AcDbLine
 62
7
  6
CONTINUOUS
 10
16.0388552569
 20
5.4933805581
 11
15.3888552569
 21
5.4933805581
  0
LINE
  5
271
100
AcDbEntity
  8
LAYER_FEATURE
100
AcDbLine
 62
7
  6
CONTINUOUS
 10
16.0638552569
 20
6.3366247044
 11
16.0388552569
 21
6.2756247044
  0
LINE
  5
272
100
AcDbEntity
  8
LAYER_FEATURE
100
AcDbLine
 62
7
  6
CONTINUOUS
 10
15.2379800102
 20
5.9900999512
 11
15.2359552569
 21
5.9921247044
  0
LINE
  5
273
100
AcDbEntity
  8
LAYER_FEATURE
100
AcDbLine
 62
7
  6
CONTINUOUS
 10
16.0638552569
 20
4.5846247044
 11
16.0388552569
 21
4.6456247044
  0
LINE
  5
274
100
AcDbEntity
  8
LAYER_FEATURE
100
AcDbLine
 62
7
  6
CONTINUOUS
 10
15.3888552569
 20
4.6456247044
 11
15.3638552569
 21
4.5846247044
  0
LINE
  5
275
100
AcDbEntity
  8
LAYER_FEATURE
100
AcDbLine
 62
7
  6
CONTINUOUS
 10
15.3888552569
 20
6.2756247044
 11
15.3638552569
 21
6.3366247044
  0
LINE
  5
276
100
AcDbEntity
  8
LAYER_CUT_FEAT
100
AcDbLine
 62
7
  6
CONTINUOUS
 10
16.0388552569
 20
5.6783540289
 11
15.3888552569
 21
5.6783540289
  0
LINE
  5
277
100
AcDbEntity
  8
LAYER_CUT_FEAT
100
AcDbLine
 62
7
  6
CONTINUOUS
 10
16.0388552569
 20
5.8516618409
 11
15.3888552569
 21
5.8516618409
  0
LINE
  5
278
100
AcDbEntity
  8
LAYER_FEATURE
100
AcDbLine
 62
7
  6
CONTINUOUS
 10
16.0388552569
 20
6.2756247044
 11
16.0388552569
 21
4.6456247044
  0
LINE
  5
279
100
AcDbEntity
  8
LAYER_FEATURE
100
AcDbLine
 62
7
  6
CONTINUOUS
 10
16.0638552569
 20
6.3366247044
 11
16.0638552569
 21
4.5846247044
  0
LINE
  5
27A
100
AcDbEntity
  8
LAYER_FEATURE
100
AcDbLine
 62
7
  6
CONTINUOUS
 10
16.1038552569
 20
6.3366247044
 11
16.1038552569
 21
4.5846247044
  0
LINE
  5
27B
100
AcDbEntity
  8
02___PRT_ALL_AXES
100
AcDbLine
 62
7
  6
CONTINUOUS
 10
15.3238552569
 20
5.9921247044
 11
15.2523552569
 21
5.9921247044
  0
LINE
  5
27C
100
AcDbEntity
  8
02___PRT_ALL_AXES
100
AcDbLine
 62
7
  6
CONTINUOUS
 10
15.0883552569
 20
5.9921247044
 11
15.0168552569
 21
5.9921247044
  0
LINE
  5
27D
100
AcDbEntity
  8
LAYER_FEATURE
100
AcDbLine
 62
7
  6
CONTINUOUS
 10
15.1047553099
 20
5.9921247044
 11
15.235955204
 21
5.9921247044
  0
LINE
  5
27E
100
AcDbEntity
  8
LAYER_CUT_FEAT
100
AcDbLine
 62
7
  6
CONTINUOUS
 10
16.0388552569
 20
6.0032319742
 11
15.3888552569
 21
6.0032319742
  0
LINE
  5
27F
100
AcDbEntity
  8
LAYER_CUT_FEAT
100
AcDbLine
 62
7
  6
CONTINUOUS
 10
16.0388552569
 20
6.1242557234
 11
15.3888552569
 21
6.1242557234
  0
LINE
  5
280
100
AcDbEntity
  8
LAYER_CUT_FEAT
100
AcDbLine
 62
7
  6
CONTINUOUS
 10
16.0388552569
 20
6.2076996282
 11
15.3888552569
 21
6.2076996282
  0
LINE
  5
281
100
AcDbEntity
  8
LAYER_CUT_FEAT
100
AcDbLine
 62
7
  6
CONTINUOUS
 10
16.0388552569
 20
6.2487142322
 11
15.3888552569
 21
6.2487142322
  0
LINE
  5
282
100
AcDbEntity
  8
LAYER_CUT_FEAT
100
AcDbLine
 62
7
  6
CONTINUOUS
 10
16.0388552569
 20
6.2491102542
 11
15.3888552569
 21
6.2491102542
  0
LINE
  5
283
100
AcDbEntity
  8
LAYER_FEATURE
100
AcDbLine
 62
7
  6
CONTINUOUS
 10
16.1038552569
 20
6.3366247044
 11
16.0638552569
 21
6.3366247044
  0
LINE
  5
284
100
AcDbEntity
  8
LAYER_FEATURE
100
AcDbLine
 62
7
  6
CONTINUOUS
 10
15.3638552569
 20
6.3366247044
 11
15.3238552569
 21
6.3366247044
  0
LINE
  5
285
100
AcDbEntity
  8
LAYER_FEATURE
100
AcDbLine
 62
7
  6
CONTINUOUS
 10
14.5397579428
 20
12.4771125592
 11
14.5494405957
 21
12.5084456355
  0
LINE
  5
286
100
AcDbEntity
  8
LAYER_FEATURE
100
AcDbLine
 62
7
  6
CONTINUOUS
 10
14.7188870221
 20
13.0567744723
 11
14.728569675
 21
13.0881075487
  0
LINE
  5
287
100
AcDbEntity
  8
02___PRT_ALL_AXES
100
AcDbLine
 62
7
  6
CONTINUOUS
 10
14.6929190338
 20
12.6882348415
 11
14.7930907149
 21
13.0123905203
  0
LINE
  5
288
100
AcDbEntity
  8
LAYER_CUT_FEAT
100
AcDbLine
 62
7
  6
CONTINUOUS
 10
14.8365881074
 20
13.0956347036
 11
14.714885677
 21
12.7018054943
  0
LINE
  5
289
100
AcDbEntity
  8
LAYER_FEATURE
100
AcDbLine
 62
7
  6
CONTINUOUS
 10
14.7930907261
 20
13.0123905169
 11
14.7950319055
 21
13.0184112116
  0
LINE
  5
28A
100
AcDbEntity
  8
LAYER_FEATURE
100
AcDbLine
 62
7
  6
CONTINUOUS
 10
15.6430635171
 20
11.6739458387
 11
15.6439232775
 21
11.6739455295
  0
LINE
  5
28B
100
AcDbEntity
  8
LAYER_FEATURE
100
AcDbLine
 62
7
  6
CONTINUOUS
 10
15.6430579529
 20
11.6739572139
 11
15.6439232775
 21
11.6739455295
  0
LINE
  5
28C
100
AcDbEntity
  8
LAYER_CUT_FEAT
100
AcDbLine
 62
7
  6
CONTINUOUS
 10
14.9243961104
 20
13.1743988472
 11
14.7895072767
 21
12.7378984213
  0
LINE
  5
28D
100
AcDbEntity
  8
LAYER_CUT_FEAT
100
AcDbLine
 62
7
  6
CONTINUOUS
 10
14.7795685747
 20
12.4030054689
 11
14.7856202328
 21
12.4225886417
  0
LINE
  5
28E
100
AcDbEntity
  8
LAYER_CUT_FEAT
100
AcDbLine
 62
7
  6
CONTINUOUS
 10
15.0476054508
 20
13.2304496602
 11
14.9062555063
 21
12.7730410723
  0
LINE
  5
28F
100
AcDbEntity
  8
02___PRT_ALL_AXES
100
AcDbLine
 62
7
  6
CONTINUOUS
 10
14.7945860623
 20
12.1349184784
 11
14.8689004236
 21
12.3753998397
  0
LINE
  5
290
100
AcDbEntity
  8
LAYER_CUT_FEAT
100
AcDbLine
 62
7
  6
CONTINUOUS
 10
15.1990556495
 20
13.2605296728
 11
15.0544313663
 21
12.792525321
  0
LINE
  5
291
100
AcDbEntity
  8
LAYER_CUT_FEAT
100
AcDbLine
 62
7
  6
CONTINUOUS
 10
15.8435348523
 20
12.0688064732
 11
15.8178496915
 21
12.0688064732
  0
LINE
  5
292
100
AcDbEntity
  8
LAYER_CUT_FEAT
100
AcDbLine
 62
7
  6
CONTINUOUS
 10
15.8462388154
 20
12.1156372304
 11
15.8139574199
 21
12.1156372304
  0
LINE
  5
293
100
AcDbEntity
  8
LAYER_CUT_FEAT
100
AcDbLine
 62
7
  6
CONTINUOUS
 10
15.1338141349
 20
12.4286208793
 11
15.1495745765
 21
12.396504476
  0
LINE
  5
294
100
AcDbEntity
  8
LAYER_CUT_FEAT
100
AcDbLine
 62
7
  6
CONTINUOUS
 10
15.1338141349
 20
12.4286208793
 11
15.145692183
 21
12.396504476
  0
LINE
  5
295
100
AcDbEntity
  8
LAYER_CUT_FEAT
100
AcDbLine
 62
7
  6
CONTINUOUS
 10
15.3699449714
 20
13.2628907443
 11
15.2237721768
 21
12.7898754076
  0
LINE
  5
296
100
AcDbEntity
  8
LAYER_CUT_FEAT
100
AcDbLine
 62
7
  6
CONTINUOUS
 10
15.1655416215
 20
12.4607372825
 11
15.1905550546
 21
12.4097652651
  0
LINE
  5
297
100
AcDbEntity
  8
LAYER_CUT_FEAT
100
AcDbLine
 62
7
  6
CONTINUOUS
 10
15.2210252042
 20
12.4286208793
 11
15.2091471562
 21
12.4607372825
  0
LINE
  5
298
100
AcDbEntity
  8
LAYER_CUT_FEAT
100
AcDbLine
 62
7
  6
CONTINUOUS
 10
15.1655416215
 20
12.4607372825
 11
15.1338141349
 21
12.4286208793
  0
LINE
  5
299
100
AcDbEntity
  8
LAYER_CUT_FEAT
100
AcDbLine
 62
7
  6
CONTINUOUS
 10
15.5503419504
 20
13.2373956576
 11
15.4037487399
 21
12.7630198546
  0
LINE
  5
29A
100
AcDbEntity
  8
LAYER_CUT_FEAT
100
AcDbLine
 62
7
  6
CONTINUOUS
 10
15.1905550546
 20
12.4097652651
 11
15.1774548482
 21
12.396504476
  0
LINE
  5
29B
100
AcDbEntity
  8
LAYER_CUT_FEAT
100
AcDbLine
 62
7
  6
CONTINUOUS
 10
15.1892977177
 20
12.396504476
 11
15.2210252042
 21
12.4286208793
  0
LINE
  5
29C
100
AcDbEntity
  8
LAYER_CUT_FEAT
100
AcDbLine
 62
7
  6
CONTINUOUS
 10
15.145692183
 20
12.396504476
 11
15.1892977177
 21
12.396504476
  0
LINE
  5
29D
100
AcDbEntity
  8
LAYER_CUT_FEAT
100
AcDbLine
 62
7
  6
CONTINUOUS
 10
15.202397924
 20
12.4097652651
 11
15.1905550546
 21
12.4097652651
  0
LINE
  5
29E
100
AcDbEntity
  8
LAYER_CUT_FEAT
100
AcDbLine
 62
7
  6
CONTINUOUS
 10
15.6172962579
 20
13.21946422
 11
15.4712760362
 21
12.7469426096
  0
LINE
  5
29F
100
AcDbEntity
  8
LAYER_CUT_FEAT
100
AcDbLine
 62
7
  6
CONTINUOUS
 10
15.2091471562
 20
12.4607372825
 11
15.1655416215
 21
12.4607372825
  0
LINE
  5
2A0
100
AcDbEntity
  8
LAYER_CUT_FEAT
100
AcDbLine
 62
7
  6
CONTINUOUS
 10
15.7297625698
 20
13.1855260946
 11
15.5836769657
 21
12.7127929065
  0
LINE
  5
2A1
100
AcDbEntity
  8
LAYER_FEATURE
100
AcDbLine
 62
7
  6
CONTINUOUS
 10
15.8274887013
 20
12.1725457281
 11
15.8398939493
 21
12.1576836187
  0
LINE
  5
2A2
100
AcDbEntity
  8
LAYER_CUT_FEAT
100
AcDbLine
 62
7
  6
CONTINUOUS
 10
15.7953413814
 20
13.1628823322
 11
15.6487614559
 21
12.6885495196
  0
LINE
  5
2A3
100
AcDbEntity
  8
LAYER_CUT_FEAT
100
AcDbLine
 62
7
  6
CONTINUOUS
 10
15.8119478646
 20
12.0808331318
 11
15.8263893769
 21
12.0514044238
  0
LINE
  5
2A4
100
AcDbEntity
  8
LAYER_CUT_FEAT
100
AcDbLine
 62
7
  6
CONTINUOUS
 10
15.8462388154
 20
12.1156372304
 11
15.8317973031
 21
12.1450659384
  0
LINE
  5
2A5
100
AcDbEntity
  8
LAYER_CUT_FEAT
100
AcDbLine
 62
7
  6
CONTINUOUS
 10
15.9600595388
 20
13.0836730157
 11
15.8138363016
 21
12.6104944466
  0
LINE
  5
2A6
100
AcDbEntity
  8
LAYER_CUT_FEAT
100
AcDbLine
 62
7
  6
CONTINUOUS
 10
15.8146518277
 20
12.1276638891
 11
15.8119478646
 21
12.0808331318
  0
LINE
  5
2A7
100
AcDbEntity
  8
LAYER_CUT_FEAT
100
AcDbLine
 62
7
  6
CONTINUOUS
 10
15.8435348523
 20
12.0688064732
 11
15.8462388154
 21
12.1156372304
  0
LINE
  5
2A8
100
AcDbEntity
  8
LAYER_CUT_FEAT
100
AcDbLine
 62
7
  6
CONTINUOUS
 10
16.1018779096
 20
12.9864396281
 11
15.9570690585
 21
12.5178380143
  0
LINE
  5
2A9
100
AcDbEntity
  8
LAYER_CUT_FEAT
100
AcDbLine
 62
7
  6
CONTINUOUS
 10
15.8317973031
 20
12.1450659384
 11
15.8146518277
 21
12.1276638891
  0
LINE
  5
2AA
100
AcDbEntity
  8
02___PRT_ALL_AXES
100
AcDbLine
 62
7
  6
CONTINUOUS
 10
15.8101984198
 20
11.8210705225
 11
15.8845127811
 21
12.0615518838
  0
LINE
  5
2AB
100
AcDbEntity
  8
LAYER_CUT_FEAT
100
AcDbLine
 62
7
  6
CONTINUOUS
 10
16.2125545254
 20
12.8768330205
 11
16.0708561274
 21
12.4182968366
  0
LINE
  5
2AC
100
AcDbEntity
  8
LAYER_FEATURE
100
AcDbLine
 62
7
  6
CONTINUOUS
 10
15.8274887013
 20
12.0239246341
 11
15.8398939493
 21
12.0387867435
  0
LINE
  5
2AD
100
AcDbEntity
  8
LAYER_CUT_FEAT
100
AcDbLine
 62
7
  6
CONTINUOUS
 10
15.8263893769
 20
12.0514044238
 11
15.8435348523
 21
12.0688064732
  0
LINE
  5
2AE
100
AcDbEntity
  8
LAYER_CUT_FEAT
100
AcDbLine
 62
7
  6
CONTINUOUS
 10
15.97384463
 20
12.0339462546
 11
15.9798962881
 21
12.0535294273
  0
LINE
  5
2AF
100
AcDbEntity
  8
LAYER_CUT_FEAT
100
AcDbLine
 62
7
  6
CONTINUOUS
 10
16.2856572637
 20
12.7612231305
 11
16.1501180246
 21
12.3226179919
  0
LINE
  5
2B0
100
AcDbEntity
  8
LAYER_CUT_FEAT
100
AcDbLine
 62
7
  6
CONTINUOUS
 10
16.3169376591
 20
12.6463287846
 11
16.1939361256
 21
12.2482956763
  0
LINE
  5
2B1
100
AcDbEntity
  8
02___PRT_ALL_AXES
100
AcDbLine
 62
7
  6
CONTINUOUS
 10
16.2062945222
 20
12.2205269918
 11
16.3064773322
 21
12.5447186839
  0
LINE
  5
2B2
100
AcDbEntity
  8
LAYER_FEATURE
100
AcDbLine
 62
7
  6
CONTINUOUS
 10
16.2136552619
 20
11.9598391643
 11
16.2233379148
 21
11.9911722407
  0
LINE
  5
2B3
100
AcDbEntity
  8
LAYER_FEATURE
100
AcDbLine
 62
7
  6
CONTINUOUS
 10
16.3927843412
 20
12.5395010775
 11
16.4024669942
 21
12.5708341538
  0
CIRCLE
  5
2B4
100
AcDbEntity
  8
LAYER_FEATURE
100
AcDbCircle
 62
7
  6
CONTINUOUS
 10
6.1303672762
 20
5.5201198968
 40
0.876
  0
CIRCLE
  5
2B5
100
AcDbEntity
  8
LAYER_FEATURE
100
AcDbCircle
 62
7
  6
CONTINUOUS
 10
6.1303672762
 20
5.5201198968
 40
0.815
  0
CIRCLE
  5
2B6
100
AcDbEntity
  8
LAYER_CUT_FEAT
100
AcDbCircle
 62
7
  6
CONTINUOUS
 10
6.1303672762
 20
5.5201198968
 40
0.625
  0
CIRCLE
  5
2B7
100
AcDbEntity
  8
02___PRT_ALL_AXES
100
AcDbCircle
 62
7
  6
CONTINUOUS
 10
6.1303672762
 20
5.5201198968
 40
0.5315
  0
CIRCLE
  5
2B8
100
AcDbEntity
  8
LAYER_CHAMFER_FEAT
100
AcDbCircle
 62
7
  6
CONTINUOUS
 10
6.1303672762
 20
5.5201198968
 40
0.14375
  0
CIRCLE
  5
2B9
100
AcDbEntity
  8
LAYER_CHAMFER_FEAT
100
AcDbCircle
 62
7
  6
CONTINUOUS
 10
6.1303672762
 20
5.5201198968
 40
0.125
  0
CIRCLE
  5
2BA
100
AcDbEntity
  8
02___PRT_ALL_AXES
100
AcDbCircle
 62
7
  6
CONTINUOUS
 10
6.0708720839
 20
12.2100477814
 40
0.082
  0
CIRCLE
  5
2BB
100
AcDbEntity
  8
LAYER_FEATURE
100
AcDbCircle
 62
7
  6
CONTINUOUS
 10
6.0708720839
 20
12.2100477814
 40
0.0656
  0
CIRCLE
  5
2BC
100
AcDbEntity
  8
02___PRT_ALL_AXES
100
AcDbCircle
 62
7
  6
CONTINUOUS
 10
15.1703552569
 20
5.4606247044
 40
0.082
  0
CIRCLE
  5
2BD
100
AcDbEntity
  8
LAYER_FEATURE
100
AcDbCircle
 62
7
  6
CONTINUOUS
 10
15.1703552569
 20
5.4606247044
 40
0.0656
  0
ARC
  5
2BE
100
AcDbEntity
  8
LAYER_FEATURE
100
AcDbCircle
 62
7
  6
CONTINUOUS
 10
15.2806836126
 20
11.9055166852
 40
1.3670072834
100
AcDbArc
 50
68.3902261283
 51
69.9071408021
  0
ARC
  5
2BF
100
AcDbEntity
  8
LAYER_FEATURE
100
AcDbCircle
 62
7
  6
CONTINUOUS
 10
15.2813693233
 20
11.9141955193
 40
1.3584926762
100
AcDbArc
 50
76.3405195634
 51
77.8647130815
  0
ARC
  5
2C0
100
AcDbEntity
  8
LAYER_FEATURE
100
AcDbCircle
 62
7
  6
CONTINUOUS
 10
15.3425923358
 20
12.0356727275
 40
1.2227686516
100
AcDbArc
 50
60.0819893749
 51
61.7149583911
  0
ARC
  5
2C1
100
AcDbEntity
  8
LAYER_FEATURE
100
AcDbCircle
 62
7
  6
CONTINUOUS
 10
15.3036868151
 20
12.070899226
 40
1.2000836007
100
AcDbArc
 50
84.5732179498
 51
86.2297844882
  0
ARC
  5
2C2
100
AcDbEntity
  8
LAYER_FEATURE
100
AcDbCircle
 62
7
  6
CONTINUOUS
 10
15.48080288
 20
12.2430941309
 40
0.9732631098
100
AcDbArc
 50
50.6892875014
 51
52.5894707828
  0
ARC
  5
2C3
100
AcDbEntity
  8
LAYER_FEATURE
100
AcDbCircle
 62
7
  6
CONTINUOUS
 10
15.3023820599
 20
12.3270281287
 40
0.9436802166
100
AcDbArc
 50
93.7967695661
 51
95.7424260537
  0
ARC
  5
2C4
100
AcDbEntity
  8
LAYER_FEATURE
100
AcDbCircle
 62
7
  6
CONTINUOUS
 10
15.6722665504
 20
12.4445735723
 40
0.6949017861
100
AcDbArc
 50
39.2368490955
 51
41.6143215588
  0
ARC
  5
2C5
100
AcDbEntity
  8
LAYER_FEATURE
100
AcDbCircle
 62
7
  6
CONTINUOUS
 10
15.2526490885
 20
12.5988812572
 40
0.6668792908
100
AcDbArc
 50
104.9496520319
 51
107.4032973738
  0
ARC
  5
2C6
100
AcDbEntity
  8
LAYER_FEATURE
100
AcDbCircle
 62
7
  6
CONTINUOUS
 10
15.8660710034
 20
12.5758899296
 40
0.4602182984
100
AcDbArc
 50
24.395094071
 51
27.5236304523
  0
ARC
  5
2C7
100
AcDbEntity
  8
LAYER_FEATURE
100
AcDbCircle
 62
7
  6
CONTINUOUS
 10
15.1640866324
 20
12.8071335589
 40
0.4399839215
100
AcDbArc
 50
119.3246832986
 51
122.5628773919
  0
ARC
  5
2C8
100
AcDbEntity
  8
LAYER_CUT_FEAT
100
AcDbCircle
 62
7
  6
CONTINUOUS
 10
15.1464675039
 20
12.3883630343
 40
0.3849407836
100
AcDbArc
 50
206.1889796147
 51
210.0407030537
  0
ARC
  5
2C9
100
AcDbEntity
  8
LAYER_FEATURE
100
AcDbCircle
 62
7
  6
CONTINUOUS
 10
16.0079741865
 20
12.6221427961
 40
0.3103192057
100
AcDbArc
 50
4.8830151422
 51
8.9608981838
  0
ARC
  5
2CA
100
AcDbEntity
  8
LAYER_FEATURE
100
AcDbCircle
 62
7
  6
CONTINUOUS
 10
15.0778631632
 20
12.9124887856
 40
0.3032635081
100
AcDbArc
 50
138.2740834384
 51
142.4149842226
  0
ARC
  5
2CB
100
AcDbEntity
  8
LAYER_FEATURE
100
AcDbCircle
 62
7
  6
CONTINUOUS
 10
16.0581279908
 20
12.6214591958
 40
0.2599355711
100
AcDbArc
 50
342.8287319196
 51
346.0224766323
  0
SPLINE
  5
2CC
100
AcDbEntity
  8
02___PRT_ALL_AXES
100
AcDbSpline
 62
7
  6
CONTINUOUS
 70
0
 71
3
 72
19
 73
15
 74
0
 42
0.0000001
 43
0.0000001
 44
0.0000000001
 40
0.0
 40
0.0
 40
0.0
 40
0.0
 40
0.038398876
 40
0.1471449558
 40
0.2228664301
 40
0.3091345652
 40
0.402698423
 40
0.5000000009
 40
0.5973015788
 40
0.6908654364
 40
0.7771335714
 40
0.8528550446
 40
0.9616011243
 40
1.0
 40
1.0
 40
1.0
 40
1.0
 10
6.6023720839
 20
12.1280477814
 30
0.0
 10
6.6020507391
 20
12.1301305423
 30
0.0
 10
6.6008641204
 20
12.1381188631
 30
0.0
 10
6.5993295869
 20
12.1502563156
 30
0.0
 10
6.5978777776
 20
12.1650451751
 30
0.0
 10
6.5968544322
 20
12.1790350611
 30
0.0
 10
6.5961683848
 20
12.1942316718
 30
0.0
 10
6.5959269899
 20
12.2100477815
 30
0.0
 10
6.5961683848
 20
12.2258638912
 30
0.0
 10
6.5968544322
 20
12.2410605019
 30
0.0
 10
6.5978777777
 20
12.2550503879
 30
0.0
 10
6.599329587
 20
12.2698392473
 30
0.0
 10
6.6008641204
 20
12.2819766997
 30
0.0
 10
6.6020507391
 20
12.2899650205
 30
0.0
 10
6.6023720839
 20
12.2920477814
 30
0.0
  0
SPLINE
  5
2CD
100
AcDbEntity
  8
02___PRT_ALL_AXES
100
AcDbSpline
 62
7
  6
CONTINUOUS
 70
0
 71
3
 72
19
 73
15
 74
0
 42
0.0000001
 43
0.0000001
 44
0.0000000001
 40
0.0
 40
0.0
 40
0.0
 40
0.0
 40
0.0383988751
 40
0.1471449532
 40
0.2228664223
 40
0.3091345831
 40
0.4026984227
 40
0.5000000006
 40
0.5973015781
 40
0.6908654177
 40
0.7771335784
 40
0.8528550477
 40
0.9616011252
 40
1.0
 40
1.0
 40
1.0
 40
1.0
 10
15.2523552569
 20
5.9921247044
 30
0.0
 10
15.2502724961
 20
5.9918033596
 30
0.0
 10
15.2422841754
 20
5.9906167409
 30
0.0
 10
15.2301467233
 20
5.9890822084
 30
0.0
 10
15.215357863
 20
5.987630396
 30
0.0
 10
15.2013679764
 20
5.9866070563
 30
0.0
 10
15.1861713655
 20
5.9859210064
 30
0.0
 10
15.1703552569
 20
5.9856796042
 30
0.0
 10
15.1545391482
 20
5.9859210064
 30
0.0
 10
15.1393425373
 20
5.9866070563
 30
0.0
 10
15.1253526507
 20
5.9876303961
 30
0.0
 10
15.1105637905
 20
5.9890822084
 30
0.0
 10
15.0984263384
 20
5.9906167409
 30
0.0
 10
15.0904380178
 20
5.9918033596
 30
0.0
 10
15.0883552569
 20
5.9921247044
 30
0.0
  0
SPLINE
  5
2CE
100
AcDbEntity
  8
02___PRT_ALL_AXES
100
AcDbSpline
 62
7
  6
CONTINUOUS
 70
0
 71
3
 72
44
 73
40
 74
0
 42
0.0000001
 43
0.0000001
 44
0.0000000001
 40
0.0
 40
0.0
 40
0.0
 40
0.0
 40
0.0137218552
 40
0.0279278661
 40
0.0426002269
 40
0.0577225259
 40
0.089243967
 40
0.1223354317
 40
0.156824658
 40
0.1925287073
 40
0.2292573435
 40
0.2668157722
 40
0.3050069226
 40
0.3436333992
 40
0.3824990581
 40
0.421410319
 40
0.4601774473
 40
0.4986157365
 40
0.5365467247
 40
0.5737996046
 40
0.610212746
 40
0.6456355082
 40
0.679930132
 40
0.7129739572
 40
0.7446616328
 40
0.7749076532
 40
0.8036489238
 40
0.830847763
 40
0.8564952176
 40
0.8806151009
 40
0.9032687159
 40
0.9245603354
 40
0.9446428045
 40
0.9542991066
 40
0.9637349836
 40
0.9729845588
 40
0.9820850084
 40
0.9910761648
 40
1.0
 40
1.0
 40
1.0
 40
1.0
 10
15.8092439015
 20
12.0340023745
 30
0.0
 10
15.8089156496
 20
12.0346712815
 30
0.0
 10
15.8082643463
 20
12.0360409881
 30
0.0
 10
15.8073183098
 20
12.0381521075
 30
0.0
 10
15.8063875352
 20
12.0403528167
 30
0.0
 10
15.8051519659
 20
12.0434447817
 30
0.0
 10
15.8036609049
 20
12.0475107332
 30
0.0
 10
15.8019826846
 20
12.0526246773
 30
0.0
 10
15.8004057665
 20
12.0580078333
 30
0.0
 10
15.7989445408
 20
12.0636277933
 30
0.0
 10
15.7976134954
 20
12.0694510774
 30
0.0
 10
15.7964270218
 20
12.0754432699
 30
0.0
 10
15.7953992185
 20
12.0815692546
 30
0.0
 10
15.7945436861
 20
12.0877933675
 30
0.0
 10
15.7938733142
 20
12.0940795249
 30
0.0
 10
15.7934000527
 20
12.1003913265
 30
0.0
 10
15.7931346734
 20
12.1066921523
 30
0.0
 10
15.7930865155
 20
12.1129452678
 30
0.0
 10
15.793263228
 20
12.1191139535
 30
0.0
 10
15.793670511
 20
12.1251616678
 30
0.0
 10
15.7943118713
 20
12.1310522602
 30
0.0
 10
15.7951884066
 20
12.1367502247
 30
0.0
 10
15.7962986335
 20
12.1422209985
 30
0.0
 10
15.797638375
 20
12.1474312814
 30
0.0
 10
15.7992007245
 20
12.1523493689
 30
0.0
 10
15.8009760856
 20
12.1569454646
 30
0.0
 10
15.8029523073
 20
12.1611919608
 30
0.0
 10
15.8051148824
 20
12.1650636495
 30
0.0
 10
15.8074472565
 20
12.1685378647
 30
0.0
 10
15.8099310783
 20
12.1715944786
 30
0.0
 10
15.8125468072
 20
12.1742159028
 30
0.0
 10
15.8152731015
 20
12.1763865062
 30
0.0
 10
15.8176508899
 20
12.1778273877
 30
0.0
 10
15.8195792118
 20
12.1787293764
 30
0.0
 10
15.8210189343
 20
12.1792773538
 30
0.0
 10
15.8224675714
 20
12.1797045794
 30
0.0
 10
15.8239220625
 20
12.1800103596
 30
0.0
 10
15.8253790627
 20
12.1801941411
 30
0.0
 10
15.8263523438
 20
12.180235176
 30
0.0
 10
15.8268369153
 20
12.180235179
 30
0.0
  0
SPLINE
  5
2CF
100
AcDbEntity
  8
02___PRT_ALL_AXES
100
AcDbSpline
 62
7
  6
CONTINUOUS
 70
0
 71
3
 72
23
 73
19
 74
0
 42
0.0000001
 43
0.0000001
 44
0.0000000001
 40
0.0
 40
0.0
 40
0.0
 40
0.0
 40
0.0742449297
 40
0.1469376536
 40
0.2179739306
 40
0.2872806481
 40
0.3548076088
 40
0.4205364409
 40
0.4844812498
 40
0.5466915447
 40
0.6072541066
 40
0.6662938203
 40
0.723973661
 40
0.7804931477
 40
0.8360850437
 40
0.8910102264
 40
0.9455505414
 40
1.0
 40
1.0
 40
1.0
 40
1.0
 10
15.1575702311
 20
12.3643880727
 30
0.0
 10
15.1560509915
 20
12.3643880727
 30
0.0
 10
15.1530437683
 20
12.3644557432
 30
0.0
 10
15.148592676
 20
12.3647670537
 30
0.0
 10
15.1442625746
 20
12.3652864789
 30
0.0
 10
15.1400694343
 20
12.3660127487
 30
0.0
 10
15.1360282333
 20
12.3669442009
 30
0.0
 10
15.1321532366
 20
12.368078651
 30
0.0
 10
15.1284578436
 20
12.3694134901
 30
0.0
 10
15.1249546147
 20
12.3709456564
 30
0.0
 10
15.121655267
 20
12.3726716424
 30
0.0
 10
15.1185706925
 20
12.374587481
 30
0.0
 10
15.1157109841
 20
12.3766887115
 30
0.0
 10
15.1130854444
 20
12.3789703391
 30
0.0
 10
15.110702604
 20
12.3814267379
 30
0.0
 10
15.1085701306
 20
12.3840517301
 30
0.0
 10
15.106695033
 20
12.3868380121
 30
0.0
 10
15.1056211727
 20
12.3887967963
 30
0.0
 10
15.105130329
 20
12.3897970244
 30
0.0
  0
SPLINE
  5
2D0
100
AcDbEntity
  8
LAYER_CUT_FEAT
100
AcDbSpline
 62
7
  6
CONTINUOUS
 70
0
 71
3
 72
22
 73
18
 74
0
 42
0.0000001
 43
0.0000001
 44
0.0000000001
 40
0.0
 40
0.0
 40
0.0
 40
0.0
 40
0.1381197978
 40
0.2053664405
 40
0.2714549011
 40
0.3364371411
 40
0.4003725799
 40
0.4633278459
 40
0.5253764074
 40
0.5865986107
 40
0.6470813122
 40
0.7069174445
 40
0.7662054998
 40
0.8250488571
 40
0.883554961
 40
0.9418344168
 40
1.0
 40
1.0
 40
1.0
 40
1.0
 10
14.8010434811
 20
12.2184758617
 30
0.0
 10
14.7971828531
 20
12.2263429945
 30
0.0
 10
14.7918632123
 20
12.2382562145
 30
0.0
 10
14.7857959938
 20
12.2543789635
 30
0.0
 10
14.7818507945
 20
12.266331317
 30
0.0
 10
14.7784749328
 20
12.2782384449
 30
0.0
 10
14.7756715985
 20
12.2900893058
 30
0.0
 10
14.7734436325
 20
12.3018724757
 30
0.0
 10
14.7717933106
 20
12.313576699
 30
0.0
 10
14.770722339
 20
12.3251907282
 30
0.0
 10
14.7702318715
 20
12.3367033899
 30
0.0
 10
14.7703225193
 20
12.348103574
 30
0.0
 10
14.7709943215
 20
12.3593802589
 30
0.0
 10
14.7722467049
 20
12.3705224804
 30
0.0
 10
14.7740785745
 20
12.381519522
 30
0.0
 10
14.7764881052
 20
12.3923602699
 30
0.0
 10
14.7784789824
 20
12.3994795282
 30
0.0
 10
14.77956858
 20
12.4030054673
 30
0.0
  0
SPLINE
  5
2D1
100
AcDbEntity
  8
LAYER_CHAMFER_FEAT
100
AcDbSpline
 62
7
  6
CONTINUOUS
 70
0
 71
3
 72
21
 73
17
 74
0
 42
0.0000001
 43
0.0000001
 44
0.0000000001
 40
0.0
 40
0.0
 40
0.0
 40
0.0
 40
0.1460256408
 40
0.2163702475
 40
0.2849455742
 40
0.4168973465
 40
0.4804403875
 40
0.5424557166
 40
0.6030489525
 40
0.6623443729
 40
0.7204847319
 40
0.777630655
 40
0.8339588851
 40
0.8896603391
 40
0.9449373184
 40
1.0
 40
1.0
 40
1.0
 40
1.0
 10
15.2290704046
 20
12.0649190238
 30
0.0
 10
15.2264292115
 20
12.0641060462
 30
0.0
 10
15.2225607673
 20
12.0627431408
 30
0.0
 10
15.2176088035
 20
12.0606041757
 30
0.0
 10
15.213004221
 20
12.0583481553
 30
0.0
 10
15.2086829823
 20
12.0558156514
 30
0.0
 10
15.2047000947
 20
12.0530036788
 30
0.0
 10
15.2019444965
 20
12.0508053459
 30
0.0
 10
15.1993888145
 20
12.0484956794
 30
0.0
 10
15.1970379239
 20
12.0460789111
 30
0.0
 10
15.1948964939
 20
12.0435595847
 30
0.0
 10
15.1929687291
 20
12.0409424867
 30
0.0
 10
15.1912585129
 20
12.038232613
 30
0.0
 10
15.1897692771
 20
12.0354351243
 30
0.0
 10
15.1885040613
 20
12.0325557096
 30
0.0
 10
15.1878110471
 20
12.0305833869
 30
0.0
 10
15.1875033828
 20
12.0295878003
 30
0.0
  0
SPLINE
  5
2D2
100
AcDbEntity
  8
LAYER_CHAMFER_FEAT
100
AcDbSpline
 62
7
  6
CONTINUOUS
 70
0
 71
3
 72
21
 73
17
 74
0
 42
0.0000001
 43
0.0000001
 44
0.0000000001
 40
0.0
 40
0.0
 40
0.0
 40
0.0
 40
0.145939217
 40
0.2162486599
 40
0.2847947765
 40
0.4167086695
 40
0.4802432047
 40
0.5422573934
 40
0.6028565234
 40
0.6621646216
 40
0.7203240989
 40
0.7774947176
 40
0.8338524627
 40
0.8895872404
 40
0.9449001007
 40
1.0
 40
1.0
 40
1.0
 40
1.0
 10
15.4121171578
 20
12.0082148828
 30
0.0
 10
15.4138261855
 20
12.0060598434
 30
0.0
 10
15.4162324846
 20
12.0027621651
 30
0.0
 10
15.4190910777
 20
11.9982173521
 30
0.0
 10
15.4215992563
 20
11.9937716143
 30
0.0
 10
15.4237197792
 20
11.9892584278
 30
0.0
 10
15.4254059173
 20
11.9847061812
 30
0.0
 10
15.4264306555
 20
11.9813486537
 30
0.0
 10
15.4272290145
 20
11.9780120165
 30
0.0
 10
15.4277993987
 20
11.9747024583
 30
0.0
 10
15.428140594
 20
11.9714263033
 30
0.0
 10
15.42825176
 20
11.9681897996
 30
0.0
 10
15.4281325797
 20
11.9649992047
 30
0.0
 10
15.4277831511
 20
11.9618606411
 30
0.0
 10
15.4272040845
 20
11.9587804687
 30
0.0
 10
15.4266651881
 20
11.9567681079
 30
0.0
 10
15.4263585864
 20
11.9557759598
 30
0.0
  0
SPLINE
  5
2D3
100
AcDbEntity
  8
LAYER_FEATURE
100
AcDbSpline
 62
7
  6
CONTINUOUS
 70
0
 71
3
 72
34
 73
30
 74
0
 42
0.0000001
 43
0.0000001
 44
0.0000000001
 40
0.0
 40
0.0
 40
0.0
 40
0.0
 40
0.0202795182
 40
0.0417779245
 40
0.0645062224
 40
0.0884593734
 40
0.11361859
 40
0.1399532938
 40
0.1674229023
 40
0.1959781244
 40
0.2255619232
 40
0.2561105986
 40
0.287554653
 40
0.3198194088
 40
0.3528256313
 40
0.386490239
 40
0.4207268151
 40
0.4554460442
 40
0.5259595735
 40
0.5972828181
 40
0.6686477673
 40
0.7392856343
 40
0.8084412619
 40
0.8422370556
 40
0.8753930125
 40
0.9078251367
 40
0.9394527287
 40
0.9702027607
 40
1.0
 40
1.0
 40
1.0
 40
1.0
 10
15.8398939493
 20
12.1576836187
 30
0.0
 10
15.8403424398
 20
12.1571463037
 30
0.0
 10
15.8412254259
 20
12.1560047501
 30
0.0
 10
15.8424726894
 20
12.1541591744
 30
0.0
 10
15.8436773613
 20
12.1521365236
 30
0.0
 10
15.8448356403
 20
12.1499432214
 30
0.0
 10
15.8459439654
 20
12.1475860854
 30
0.0
 10
15.8469988703
 20
12.1450725233
 30
0.0
 10
15.8479970359
 20
12.1424104346
 30
0.0
 10
15.8489352968
 20
12.139608207
 30
0.0
 10
15.8498106859
 20
12.1366746932
 30
0.0
 10
15.8506204255
 20
12.1336191728
 30
0.0
 10
15.8513619337
 20
12.1304513179
 30
0.0
 10
15.8520328449
 20
12.127181167
 30
0.0
 10
15.8526310305
 20
12.1238190919
 30
0.0
 10
15.8531545798
 20
12.1203757649
 30
0.0
 10
15.8536018262
 20
12.1168620936
 30
0.0
 10
15.8540969991
 20
12.1120738514
 30
0.0
 10
15.8545141704
 20
12.1059925169
 30
0.0
 10
15.8546925673
 20
12.0986343022
 30
0.0
 10
15.8545489818
 20
12.0912709192
 30
0.0
 10
15.8540852455
 20
12.0839957665
 30
0.0
 10
15.8534321163
 20
12.0780380703
 30
0.0
 10
15.8527507325
 20
12.0733899618
 30
0.0
 10
15.8521685398
 20
12.0700093718
 30
0.0
 10
15.851513194
 20
12.0667184586
 30
0.0
 10
15.8507867692
 20
12.063527559
 30
0.0
 10
15.8499915822
 20
12.0604469268
 30
0.0
 10
15.8494077107
 20
12.0584400957
 30
0.0
 10
15.8491040865
 20
12.0574575672
 30
0.0
  0
SPLINE
  5
2D4
100
AcDbEntity
  8
LAYER_FEATURE
100
AcDbSpline
 62
7
  6
CONTINUOUS
 70
0
 71
3
 72
15
 73
11
 74
0
 42
0.0000001
 43
0.0000001
 44
0.0000000001
 40
0.0
 40
0.0
 40
0.0
 40
0.0
 40
0.1030415714
 40
0.2124415823
 40
0.3282548779
 40
0.4504494651
 40
0.5789186576
 40
0.7134883268
 40
0.8539463761
 40
1.0
 40
1.0
 40
1.0
 40
1.0
 10
15.8398939492
 20
12.0387867443
 30
0.0
 10
15.840354938
 20
12.0393390361
 30
0.0
 10
15.8412620813
 20
12.0405143047
 30
0.0
 10
15.8425412396
 20
12.0424174854
 30
0.0
 10
15.8437752506
 20
12.0445070487
 30
0.0
 10
15.8449600128
 20
12.0467760034
 30
0.0
 10
15.8460916679
 20
12.049216898
 30
0.0
 10
15.8471665278
 20
12.0518217083
 30
0.0
 10
15.8481809421
 20
12.0545816977
 30
0.0
 10
15.848803024
 20
12.0564833287
 30
0.0
 10
15.8491040865
 20
12.0574575672
 30
0.0
  0
SPLINE
  5
2D5
100
AcDbEntity
  8
02___PRT_ALL_AXES
100
AcDbSpline
 62
7
  6
CONTINUOUS
 70
0
 71
3
 72
23
 73
19
 74
0
 42
0.0000001
 43
0.0000001
 44
0.0000000001
 40
0.0
 40
0.0
 40
0.0
 40
0.0
 40
0.0421998677
 40
0.0852686889
 40
0.1298432079
 40
0.1764878491
 40
0.2256830037
 40
0.2778208682
 40
0.3332118871
 40
0.3920930094
 40
0.4546368589
 40
0.5209631246
 40
0.5911443802
 40
0.6652152408
 40
0.743174349
 40
0.824996849
 40
0.9106359802
 40
1.0
 40
1.0
 40
1.0
 40
1.0
 10
15.8268369153
 20
12.0162351832
 30
0.0
 10
15.8264693436
 20
12.0162351799
 30
0.0
 10
15.8257257688
 20
12.0162843322
 30
0.0
 10
15.8246133585
 20
12.0165033477
 30
0.0
 10
15.8234988512
 20
12.0168670849
 30
0.0
 10
15.8223834098
 20
12.0173742076
 30
0.0
 10
15.8212676669
 20
12.0180233594
 30
0.0
 10
15.820152226
 20
12.0188130771
 30
0.0
 10
15.8190377284
 20
12.019741882
 30
0.0
 10
15.8179249349
 20
12.0208081685
 30
0.0
 10
15.8168147304
 20
12.0220101551
 30
0.0
 10
15.8157081783
 20
12.0233458697
 30
0.0
 10
15.8146064486
 20
12.0248130854
 30
0.0
 10
15.8135108848
 20
12.0264093268
 30
0.0
 10
15.8124229039
 20
12.0281318619
 30
0.0
 10
15.8113440438
 20
12.0299777695
 30
0.0
 10
15.8102760215
 20
12.0319437306
 30
0.0
 10
15.8095868127
 20
12.0333035949
 30
0.0
 10
15.8092439015
 20
12.0340023745
 30
0.0
  0
SPLINE
  5
2D6
100
AcDbEntity
  8
LAYER_FEATURE
100
AcDbSpline
 62
7
  6
CONTINUOUS
 70
0
 71
3
 72
39
 73
35
 74
0
 42
0.0000001
 43
0.0000001
 44
0.0000000001
 40
0.0
 40
0.0
 40
0.0
 40
0.0
 40
0.0247993538
 40
0.0496561061
 40
0.0746270013
 40
0.0997674993
 40
0.1251311902
 40
0.1507692686
 40
0.1767300858
 40
0.2030587844
 40
0.2297970167
 40
0.2569827447
 40
0.2846501164
 40
0.3128294057
 40
0.3415470141
 40
0.3708255208
 40
0.4006837687
 40
0.4311369786
 40
0.4621968836
 40
0.493871875
 40
0.5261671595
 40
0.5590849233
 40
0.5926244935
 40
0.6267824977
 40
0.6615530203
 40
0.6969277505
 40
0.7328961283
 40
0.7694454878
 40
0.8065611904
 40
0.8442267526
 40
0.882423968
 40
0.9211330211
 40
0.9603325989
 40
1.0
 40
1.0
 40
1.0
 40
1.0
 10
14.5397579466
 20
12.477112558
 30
0.0
 10
14.5380970133
 20
12.4717377915
 30
0.0
 10
14.5350871121
 20
12.4608753005
 30
0.0
 10
14.531529314
 20
12.4443154073
 30
0.0
 10
14.5289300244
 20
12.4274994891
 30
0.0
 10
14.5272923156
 20
12.4104476907
 30
0.0
 10
14.5266178209
 20
12.3931794529
 30
0.0
 10
14.5269070942
 20
12.3757146624
 30
0.0
 10
14.5281595353
 20
12.3580732974
 30
0.0
 10
14.5303734386
 20
12.340275489
 30
0.0
 10
14.5335460032
 20
12.3223414758
 30
0.0
 10
14.5376733524
 20
12.304291593
 30
0.0
 10
14.5427505492
 20
12.2861462564
 30
0.0
 10
14.5487716018
 20
12.267925948
 30
0.0
 10
14.5557294782
 20
12.2496512014
 30
0.0
 10
14.5636161207
 20
12.2313425895
 30
0.0
 10
14.5724224536
 20
12.2130207081
 30
0.0
 10
14.5821383926
 20
12.1947061601
 30
0.0
 10
14.592752853
 20
12.1764195388
 30
0.0
 10
14.6042537541
 20
12.1581814064
 30
0.0
 10
14.6166280304
 20
12.1400122735
 30
0.0
 10
14.6298616481
 20
12.1219325806
 30
0.0
 10
14.6439396171
 20
12.1039626748
 30
0.0
 10
14.6588460052
 20
12.0861227881
 30
0.0
 10
14.6745639538
 20
12.0684330157
 30
0.0
 10
14.6910756903
 20
12.0509132906
 30
0.0
 10
14.7083625469
 20
12.0335833598
 30
0.0
 10
14.7264049849
 20
12.0164627649
 30
0.0
 10
14.7451826139
 20
11.9995708186
 30
0.0
 10
14.7646742179
 20
11.9829265798
 30
0.0
 10
14.7848577628
 20
11.9665488434
 30
0.0
 10
14.8057104786
 20
11.9504560736
 30
0.0
 10
14.8272086503
 20
11.9346665424
 30
0.0
 10
14.8418712407
 20
11.9244127236
 30
0.0
 10
14.8493029547
 20
11.9193394355
 30
0.0
  0
SPLINE
  5
2D7
100
AcDbEntity
  8
LAYER_FEATURE
100
AcDbSpline
 62
7
  6
CONTINUOUS
 70
0
 71
3
 72
22
 73
18
 74
0
 42
0.0000001
 43
0.0000001
 44
0.0000000001
 40
0.0
 40
0.0
 40
0.0
 40
0.0
 40
0.0589360792
 40
0.1179638558
 40
0.1771743272
 40
0.236657095
 40
0.2964997157
 40
0.3567871068
 40
0.4176009781
 40
0.4790193532
 40
0.5411161876
 40
0.6039610081
 40
0.6676186419
 40
0.7321490688
 40
0.797607273
 40
0.8640431467
 40
1.0
 40
1.0
 40
1.0
 40
1.0
 10
14.718887026
 20
13.0567744711
 30
0.0
 10
14.7175259389
 20
13.0523700048
 30
0.0
 10
14.7150136666
 20
13.0434870888
 30
0.0
 10
14.711886675
 20
13.0299807155
 30
0.0
 10
14.7094020864
 20
13.016297793
 30
0.0
 10
14.7075618745
 20
13.0024492751
 30
0.0
 10
14.7063673478
 20
12.9884457157
 30
0.0
 10
14.7058193805
 20
12.9742979093
 30
0.0
 10
14.7059182995
 20
12.9600167101
 30
0.0
 10
14.7066639152
 20
12.9456130635
 30
0.0
 10
14.7080555759
 20
12.9310979839
 30
0.0
 10
14.7100921173
 20
12.9164825622
 30
0.0
 10
14.7127718705
 20
12.9017779066
 30
0.0
 10
14.7160926656
 20
12.8869953124
 30
0.0
 10
14.7200520412
 20
12.8721456171
 30
0.0
 10
14.7262249062
 20
12.8521205219
 30
0.0
 10
14.7317400413
 20
12.8372614721
 30
0.0
 10
14.7357820199
 20
12.827425021
 30
0.0
  0
SPLINE
  5
2D8
100
AcDbEntity
  8
LAYER_FEATURE
100
AcDbSpline
 62
7
  6
CONTINUOUS
 70
0
 71
3
 72
39
 73
35
 74
0
 42
0.0000001
 43
0.0000001
 44
0.0000000001
 40
0.0
 40
0.0
 40
0.0
 40
0.0
 40
0.0248034971
 40
0.0496643331
 40
0.0746391948
 40
0.099783486
 40
0.1251507443
 40
0.1507921182
 40
0.1767559197
 40
0.2030872593
 40
0.2298277628
 40
0.2570153701
 40
0.2846842128
 40
0.3128645581
 40
0.3415828091
 40
0.3708615524
 40
0.4007196423
 40
0.4311723119
 40
0.4622313107
 40
0.4939050539
 40
0.5261987784
 40
0.5591147036
 40
0.5926521912
 40
0.6268079018
 40
0.6615759544
 40
0.6969480785
 40
0.7329137585
 40
0.7694603751
 40
0.806573337
 40
0.8442361872
 40
0.8824308367
 40
0.9211372771
 40
0.9603348313
 40
1.0
 40
1.0
 40
1.0
 40
1.0
 10
16.213655258
 20
11.9598391655
 30
0.0
 10
16.2119953304
 20
11.9544676535
 30
0.0
 10
16.2083546003
 20
11.9438072636
 30
0.0
 10
16.2019542483
 20
11.9281364721
 30
0.0
 10
16.194619181
 20
11.9127946329
 30
0.0
 10
16.186358205
 20
11.8978000801
 30
0.0
 10
16.1771809285
 20
11.8831697524
 30
0.0
 10
16.167098088
 20
11.8689203531
 30
0.0
 10
16.156121421
 20
11.8550680132
 30
0.0
 10
16.1442636618
 20
11.8416283677
 30
0.0
 10
16.1315385098
 20
11.8286165239
 30
0.0
 10
16.1179606123
 20
11.8160470573
 30
0.0
 10
16.1035455344
 20
11.8039340131
 30
0.0
 10
16.0883097417
 20
11.7922909009
 30
0.0
 10
16.0722705832
 20
11.7811306909
 30
0.0
 10
16.0554462754
 20
11.7704658075
 30
0.0
 10
16.0378558884
 20
11.7603081213
 30
0.0
 10
16.0195193329
 20
11.7506689346
 30
0.0
 10
16.0004573372
 20
11.7415589787
 30
0.0
 10
15.9806914291
 20
11.7329884028
 30
0.0
 10
15.9602439162
 20
11.7249667629
 30
0.0
 10
15.9391378646
 20
11.7175030119
 30
0.0
 10
15.9173970777
 20
11.7106054876
 30
0.0
 10
15.895046074
 20
11.7042818958
 30
0.0
 10
15.8721100583
 20
11.6985393087
 30
0.0
 10
15.8486148945
 20
11.693384154
 30
0.0
 10
15.8245870774
 20
11.6888222066
 30
0.0
 10
15.8000537038
 20
11.684858581
 30
0.0
 10
15.7750424488
 20
11.6814977265
 30
0.0
 10
15.7495815113
 20
11.6787434021
 30
0.0
 10
15.7236996689
 20
11.6765987168
 30
0.0
 10
15.6974259851
 20
11.6750660365
 30
0.0
 10
15.6707903973
 20
11.6741471367
 30
0.0
 10
15.6529140776
 20
11.6739455295
 30
0.0
 10
15.6439232775
 20
11.6739455295
 30
0.0
  0
SPLINE
  5
2D9
100
AcDbEntity
  8
LAYER_FEATURE
100
AcDbSpline
 62
7
  6
CONTINUOUS
 70
0
 71
3
 72
21
 73
17
 74
0
 42
0.0000001
 43
0.0000001
 44
0.0000000001
 40
0.0
 40
0.0
 40
0.0
 40
0.0
 40
0.0589365674
 40
0.1179648631
 40
0.1771759072
 40
0.2366593315
 40
0.296502729
 40
0.3567910274
 40
0.4176059583
 40
0.4790255871
 40
0.5411238704
 40
0.6039703402
 40
0.6676298674
 40
0.73216243
 40
0.86403712
 40
1.0
 40
1.0
 40
1.0
 40
1.0
 10
16.3927843374
 20
12.5395010786
 30
0.0
 10
16.3914230405
 20
12.5350959334
 30
0.0
 10
16.3884853702
 20
12.5263429831
 30
0.0
 10
16.3834463444
 20
12.5134252443
 30
0.0
 10
16.3777771463
 20
12.500724221
 30
0.0
 10
16.3714823039
 20
12.4882500812
 30
0.0
 10
16.3645666622
 20
12.4760122998
 30
0.0
 10
16.3570356319
 20
12.4640202665
 30
0.0
 10
16.3488950691
 20
12.4522831275
 30
0.0
 10
16.3401512752
 20
12.4408098449
 30
0.0
 10
16.3308110241
 20
12.4296091233
 30
0.0
 10
16.3208815854
 20
12.4186894824
 30
0.0
 10
16.3103704405
 20
12.4080590764
 30
0.0
 10
16.2954849174
 20
12.39418278
 30
0.0
 10
16.2754185811
 20
12.3776040981
 30
0.0
 10
16.2582980888
 20
12.3654881035
 30
0.0
 10
16.2494091549
 20
12.3596465936
 30
0.0
  0
SPLINE
  5
2DA
100
AcDbEntity
  8
LAYER_CUT_FEAT
100
AcDbSpline
 62
7
  6
CONTINUOUS
 70
0
 71
3
 72
23
 73
19
 74
0
 42
0.0000001
 43
0.0000001
 44
0.0000000001
 40
0.0
 40
0.0
 40
0.0
 40
0.0
 40
0.0572878153
 40
0.1147159211
 40
0.1724229188
 40
0.2305440912
 40
0.2892098947
 40
0.348544628
 40
0.4086653003
 40
0.4696807198
 40
0.5316907976
 40
0.5947860689
 40
0.6590474272
 40
0.7245460223
 40
0.7913433021
 40
0.8594911633
 40
0.9290321923
 40
1.0
 40
1.0
 40
1.0
 40
1.0
 10
15.9738446247
 20
12.0339462562
 30
0.0
 10
15.9726255789
 20
12.0300014227
 30
0.0
 10
15.9699447761
 20
12.0221739044
 30
0.0
 10
15.9652137078
 20
12.0106749956
 30
0.0
 10
15.9597763362
 20
11.9994255916
 30
0.0
 10
15.9536395905
 20
11.9884399459
 30
0.0
 10
15.9468110514
 20
11.9777312074
 30
0.0
 10
15.9392991974
 20
11.9673123262
 30
0.0
 10
15.9311133038
 20
11.957195791
 30
0.0
 10
15.9222634371
 20
11.9473936904
 30
0.0
 10
15.9127604338
 20
11.937917685
 30
0.0
 10
15.9026158848
 20
11.9287790047
 30
0.0
 10
15.8918421094
 20
11.9199884549
 30
0.0
 10
15.8804521348
 20
11.9115564078
 30
0.0
 10
15.8684597103
 20
11.9034928145
 30
0.0
 10
15.8558791914
 20
11.8958071444
 30
0.0
 10
15.8427259424
 20
11.8885085738
 30
0.0
 10
15.8336780829
 20
11.8839531288
 30
0.0
 10
15.8290665423
 20
11.8817405722
 30
0.0
  0
SPLINE
  5
2DB
100
AcDbEntity
  8
02___PRT_ALL_AXES
100
AcDbSpline
 62
7
  6
CONTINUOUS
 70
0
 71
3
 72
39
 73
35
 74
0
 42
0.0000001
 43
0.0000001
 44
0.0000000001
 40
0.0
 40
0.0
 40
0.0
 40
0.0
 40
0.0267164912
 40
0.0534117726
 40
0.080151101
 40
0.1070011528
 40
0.1340288014
 40
0.1612997351
 40
0.188876906
 40
0.2168190118
 40
0.2451789313
 40
0.2740023716
 40
0.3033266546
 40
0.3331797671
 40
0.3635797238
 40
0.394534108
 40
0.4260400047
 40
0.4580839817
 40
0.4906424225
 40
0.5236818272
 40
0.5571593479
 40
0.5910233056
 40
0.6252138066
 40
0.6596634302
 40
0.694297937
 40
0.7290371256
 40
0.7637957502
 40
0.7984845844
 40
0.8330116829
 40
0.8672836901
 40
0.9012075824
 40
0.9346920498
 40
0.9676501498
 40
1.0
 40
1.0
 40
1.0
 40
1.0
 10
15.2523583121
 20
12.4620460245
 30
0.0
 10
15.2529860832
 20
12.4607667683
 30
0.0
 10
15.2541296471
 20
12.4581527709
 30
0.0
 10
15.2554928402
 20
12.4540952926
 30
0.0
 10
15.2564943284
 20
12.4499260731
 30
0.0
 10
15.2571274585
 20
12.4456674568
 30
0.0
 10
15.2573876862
 20
12.4413415465
 30
0.0
 10
15.257272395
 20
12.4369706694
 30
0.0
 10
15.2567810626
 20
12.4325770299
 30
0.0
 10
15.2559153041
 20
12.4281825718
 30
0.0
 10
15.2546788979
 20
12.4238087798
 30
0.0
 10
15.2530777711
 20
12.4194765072
 30
0.0
 10
15.2511199449
 20
12.4152058162
 30
0.0
 10
15.2488154449
 20
12.4110158436
 30
0.0
 10
15.2461761869
 20
12.4069246979
 30
0.0
 10
15.2432158373
 20
12.4029493842
 30
0.0
 10
15.2399496676
 20
12.399105767
 30
0.0
 10
15.2363944006
 20
12.3954085565
 30
0.0
 10
15.2325680644
 20
12.3918713291
 30
0.0
 10
15.2284898539
 20
12.3885065614
 30
0.0
 10
15.2241800075
 20
12.3853256861
 30
0.0
 10
15.2196596981
 20
12.3823391523
 30
0.0
 10
15.2149509385
 20
12.379556491
 30
0.0
 10
15.2100764996
 20
12.3769863772
 30
0.0
 10
15.2050598336
 20
12.3746366834
 30
0.0
 10
15.1999250016
 20
12.3725145248
 30
0.0
 10
15.1946965951
 20
12.3706262878
 30
0.0
 10
15.1893996474
 20
12.3689776486
 30
0.0
 10
15.184059535
 20
12.3675735779
 30
0.0
 10
15.1787018451
 20
12.3664183295
 30
0.0
 10
15.1733522706
 20
12.3655154397
 30
0.0
 10
15.1680363446
 20
12.3648676818
 30
0.0
 10
15.1627796071
 20
12.3644770939
 30
0.0
 10
15.1592956887
 20
12.3643880727
 30
0.0
 10
15.1575702311
 20
12.3643880727
 30
0.0
  0
SPLINE
  5
2DC
100
AcDbEntity
  8
LAYER_FEATURE
100
AcDbSpline
 62
7
  6
CONTINUOUS
 70
0
 71
3
 72
66
 73
62
 74
0
 42
0.0000001
 43
0.0000001
 44
0.0000000001
 40
0.0
 40
0.0
 40
0.0
 40
0.0
 40
0.0171788923
 40
0.034530769
 40
0.0520448443
 40
0.0697107132
 40
0.0875171989
 40
0.1054529495
 40
0.1235062927
 40
0.1416652975
 40
0.159917808
 40
0.1782514655
 40
0.215110338
 40
0.2521417323
 40
0.2892423764
 40
0.3263084234
 40
0.3632363136
 40
0.3816171919
 40
0.3999252736
 40
0.4181480823
 40
0.4362733234
 40
0.4542889119
 40
0.4721830017
 40
0.4899440158
 40
0.5075606768
 40
0.525022036
 40
0.5423175053
 40
0.5594368898
 40
0.5763704231
 40
0.5931088018
 40
0.6096432202
 40
0.6259654076
 40
0.6420676677
 40
0.6579429215
 40
0.6735847493
 40
0.6889874336
 40
0.7041460053
 40
0.7190562928
 40
0.7337149752
 40
0.7481196342
 40
0.7622688071
 40
0.7761620435
 40
0.7897999625
 40
0.8031843148
 40
0.8163180403
 40
0.8292053233
 40
0.841851648
 40
0.8542638502
 40
0.8664501637
 40
0.8784202566
 40
0.890185254
 40
0.9017577476
 40
0.9131517883
 40
0.9243828585
 40
0.9354678166
 40
0.9464248149
 40
0.9572731891
 40
0.9680333187
 40
0.97872646
 40
0.9893745518
 40
1.0
 40
1.0
 40
1.0
 40
1.0
 10
15.2983016594
 20
13.3740011835
 30
0.0
 10
15.307027906
 20
13.3740011835
 30
0.0
 10
15.324568829
 20
13.3738091719
 30
0.0
 10
15.350993793
 20
13.3729560233
 30
0.0
 10
15.3776422183
 20
13.3715370795
 30
0.0
 10
15.4044860753
 20
13.3695538792
 30
0.0
 10
15.4314975838
 20
13.3670084467
 30
0.0
 10
15.458648573
 20
13.3639034458
 30
0.0
 10
15.4859108085
 20
13.3602421075
 30
0.0
 10
15.5132558798
 20
13.356028249
 30
0.0
 10
15.5406554478
 20
13.3512662447
 30
0.0
 10
15.5772856216
 20
13.3441804511
 30
0.0
 10
15.6230208312
 20
13.33398264
 30
0.0
 10
15.6775664734
 20
13.3196713156
 30
0.0
 10
15.7316471816
 20
13.3033234864
 30
0.0
 10
15.7850372517
 20
13.2850073756
 30
0.0
 10
15.8288369
 20
13.2681409133
 30
0.0
 10
15.8633429648
 20
13.2537246695
 30
0.0
 10
15.8888740773
 20
13.2424868546
 30
0.0
 10
15.9140684982
 20
13.2308191415
 30
0.0
 10
15.9389001132
 20
13.2187336174
 30
0.0
 10
15.9633430459
 20
13.2062428752
 30
0.0
 10
15.9873718606
 20
13.1933599067
 30
0.0
 10
16.0109615476
 20
13.180098123
 30
0.0
 10
16.0340875586
 20
13.1664713266
 30
0.0
 10
16.0567258267
 20
13.1524936965
 30
0.0
 10
16.078852792
 20
13.1381797745
 30
0.0
 10
16.1004454259
 20
13.1235444475
 30
0.0
 10
16.1214812615
 20
13.1086029412
 30
0.0
 10
16.1419384137
 20
13.0933707973
 30
0.0
 10
16.161795598
 20
13.0778638547
 30
0.0
 10
16.1810321534
 20
13.0620982346
 30
0.0
 10
16.1996280623
 20
13.0460903208
 30
0.0
 10
16.2175639796
 20
13.0298567507
 30
0.0
 10
16.2348212481
 20
13.013414392
 30
0.0
 10
16.2513819136
 20
12.9967803224
 30
0.0
 10
16.2672287428
 20
12.9799718132
 30
0.0
 10
16.2823452392
 20
12.9630063083
 30
0.0
 10
16.2967156695
 20
12.9459014136
 30
0.0
 10
16.310325074
 20
12.9286748734
 30
0.0
 10
16.3231592753
 20
12.9113445496
 30
0.0
 10
16.335204892
 20
12.8939284055
 30
0.0
 10
16.3464493489
 20
12.8764444848
 30
0.0
 10
16.3568808997
 20
12.8589109002
 30
0.0
 10
16.3664886317
 20
12.8413458123
 30
0.0
 10
16.3752624684
 20
12.8237674107
 30
0.0
 10
16.383193179
 20
12.8061938995
 30
0.0
 10
16.3902723829
 20
12.7886434807
 30
0.0
 10
16.3964925704
 20
12.7711343445
 30
0.0
 10
16.4018471055
 20
12.7536846529
 30
0.0
 10
16.4063302246
 20
12.7363125257
 30
0.0
 10
16.4099370478
 20
12.7190360309
 30
0.0
 10
16.4126635838
 20
12.7018731717
 30
0.0
 10
16.4145067564
 20
12.6848418771
 30
0.0
 10
16.4154644117
 20
12.6679599845
 30
0.0
 10
16.4155353233
 20
12.65124523
 30
0.0
 10
16.4147192031
 20
12.6347152107
 30
0.0
 10
16.4130167338
 20
12.6183874397
 30
0.0
 10
16.4104295111
 20
12.6022790358
 30
0.0
 10
16.4069603636
 20
12.5864077397
 30
0.0
 10
16.4040605443
 20
12.5759908826
 30
0.0
 10
16.4024669903
 20
12.570834155
 30
0.0
  0
SPLINE
  5
2DD
100
AcDbEntity
  8
02___PRT_ALL_AXES
100
AcDbSpline
 62
7
  6
CONTINUOUS
 70
0
 71
3
 72
56
 73
52
 74
0
 42
0.0000001
 43
0.0000001
 44
0.0000000001
 40
0.0
 40
0.0
 40
0.0
 40
0.0
 40
0.0106256372
 40
0.0212739184
 40
0.0319672499
 40
0.0427275708
 40
0.0535761374
 40
0.0645333304
 40
0.0756184859
 40
0.0868497563
 40
0.0982439996
 40
0.1098166981
 40
0.1215819041
 40
0.1335522104
 40
0.1457387415
 40
0.1581511645
 40
0.1707977132
 40
0.1836852246
 40
0.1968191838
 40
0.210203775
 40
0.2238419369
 40
0.2377354194
 40
0.2518848433
 40
0.2662897587
 40
0.2809487025
 40
0.2958592551
 40
0.3110180955
 40
0.3264210532
 40
0.3420631596
 40
0.3579386965
 40
0.3740412429
 40
0.3903637196
 40
0.4068984314
 40
0.423637108
 40
0.4405709432
 40
0.4576906323
 40
0.4924461504
 40
0.5278226276
 40
0.5637311966
 40
0.6000782075
 40
0.6367661816
 40
0.6736947281
 40
0.7107614342
 40
0.7478627378
 40
0.7848947906
 40
0.821754318
 40
0.8583394846
 40
0.8945507717
 40
0.9302918757
 40
0.9654706407
 40
1.0
 40
1.0
 40
1.0
 40
1.0
 10
14.794586063
 20
12.1349184782
 30
0.0
 10
14.793619201
 20
12.1317897093
 30
0.0
 10
14.7918597723
 20
12.1254694377
 30
0.0
 10
14.7897549216
 20
12.1158397633
 30
0.0
 10
14.7881851644
 20
12.106066228
 30
0.0
 10
14.7871522166
 20
12.0961595953
 30
0.0
 10
14.7866570451
 20
12.0861302517
 30
0.0
 10
14.7867000687
 20
12.0759888224
 30
0.0
 10
14.7872811131
 20
12.0657459844
 30
0.0
 10
14.7883994334
 20
12.0554124991
 30
0.0
 10
14.7900537189
 20
12.0449991892
 30
0.0
 10
14.7922421023
 20
12.0345169321
 30
0.0
 10
14.7949621668
 20
12.0239766516
 30
0.0
 10
14.7982109527
 20
12.0133893101
 30
0.0
 10
14.8019849619
 20
12.002765902
 30
0.0
 10
14.8062801646
 20
11.9921174461
 30
0.0
 10
14.8110920031
 20
11.9814549783
 30
0.0
 10
14.8164153968
 20
11.9707895436
 30
0.0
 10
14.822244746
 20
11.9601321872
 30
0.0
 10
14.8285739367
 20
11.9494939456
 30
0.0
 10
14.8353963451
 20
11.9388858366
 30
0.0
 10
14.8427048425
 20
11.9283188488
 30
0.0
 10
14.8504918026
 20
11.9178039316
 30
0.0
 10
14.8587491073
 20
11.907351984
 30
0.0
 10
14.8674681541
 20
11.8969738438
 30
0.0
 10
14.8766398644
 20
11.8866802757
 30
0.0
 10
14.8862546913
 20
11.8764819612
 30
0.0
 10
14.8963026285
 20
11.8663894859
 30
0.0
 10
14.9067732208
 20
11.856413329
 30
0.0
 10
14.9176555739
 20
11.8465638523
 30
0.0
 10
14.9289383663
 20
11.8368512884
 30
0.0
 10
14.9406098585
 20
11.8272857316
 30
0.0
 10
14.9526579121
 20
11.8178771212
 30
0.0
 10
14.965069976
 20
11.8086352532
 30
0.0
 10
14.9778331971
 20
11.7995696831
 30
0.0
 10
14.9953886057
 20
11.7876708002
 30
0.0
 10
15.0181315863
 20
11.773306894
 30
0.0
 10
15.0464674907
 20
11.7570067113
 30
0.0
 10
15.0758666683
 20
11.7416244846
 30
0.0
 10
15.1062066964
 20
11.7272242646
 30
0.0
 10
15.1373616944
 20
11.7138657796
 30
0.0
 10
15.1692022404
 20
11.701604526
 30
0.0
 10
15.2015960807
 20
11.6904914295
 30
0.0
 10
15.2344086422
 20
11.6805726573
 30
0.0
 10
15.2675036145
 20
11.671889416
 30
0.0
 10
15.3007435123
 20
11.6644777759
 30
0.0
 10
15.3339902844
 20
11.6583685217
 30
0.0
 10
15.3671057978
 20
11.6535870296
 30
0.0
 10
15.3999527903
 20
11.6501531616
 30
0.0
 10
15.4323941001
 20
11.6480811954
 30
0.0
 10
15.4538802619
 20
11.6476088024
 30
0.0
 10
15.4645219932
 20
11.6476088024
 30
0.0
  0
SPLINE
  5
2DE
100
AcDbEntity
  8
02___PRT_ALL_AXES
100
AcDbSpline
 62
7
  6
CONTINUOUS
 70
0
 71
3
 72
28
 73
24
 74
0
 42
0.0000001
 43
0.0000001
 44
0.0000000001
 40
0.0
 40
0.0
 40
0.0
 40
0.0
 40
0.0277258376
 40
0.055476721
 40
0.0832775841
 40
0.1111531391
 40
0.1391277685
 40
0.1672254238
 40
0.1954695285
 40
0.2238828876
 40
0.2812966138
 40
0.3396425593
 40
0.3990736672
 40
0.4597272498
 40
0.5217241439
 40
0.5851683641
 40
0.6174640709
 40
0.6501529095
 40
0.7167369501
 40
0.7849811196
 40
0.8549250825
 40
0.9265941179
 40
1.0
 40
1.0
 40
1.0
 40
1.0
 10
15.8101984191
 20
11.8210705228
 30
0.0
 10
15.8095694567
 20
11.8190351983
 30
0.0
 10
15.8082361144
 20
11.8149854085
 30
0.0
 10
15.8060132496
 20
11.80898392
 30
0.0
 10
15.8035680954
 20
11.8030569786
 30
0.0
 10
15.8009017786
 20
11.7972073259
 30
0.0
 10
15.798015479
 20
11.7914375229
 30
0.0
 10
15.7949105059
 20
11.7857501542
 30
0.0
 10
15.7915881832
 20
11.7801476677
 30
0.0
 10
15.786854799
 20
11.7727694038
 30
0.0
 10
15.7803890816
 20
11.7637630719
 30
0.0
 10
15.7718141043
 20
11.7533747849
 30
0.0
 10
15.7624110566
 20
11.743385179
 30
0.0
 10
15.7521971986
 20
11.7338120258
 30
0.0
 10
15.7411910973
 20
11.724671946
 30
0.0
 10
15.7314334927
 20
11.7174720397
 30
0.0
 10
15.7232603044
 20
11.7119412039
 30
0.0
 10
15.7147389748
 20
11.7065006615
 30
0.0
 10
15.7036213682
 20
11.7000030472
 30
0.0
 10
15.6896554871
 20
11.6927446708
 30
0.0
 10
15.6750079545
 20
11.6859899121
 30
0.0
 10
15.6597051524
 20
11.6797506859
 30
0.0
 10
15.6492090805
 20
11.6759868056
 30
0.0
 10
15.6438626976
 20
11.6741905126
 30
0.0
  0
SPLINE
  5
2DF
100
AcDbEntity
  8
02___PRT_ALL_AXES
100
AcDbSpline
 62
7
  6
CONTINUOUS
 70
0
 71
3
 72
15
 73
11
 74
0
 42
0.0000001
 43
0.0000001
 44
0.0000000001
 40
0.0
 40
0.0
 40
0.0
 40
0.0
 40
0.114614
 40
0.2323728696
 40
0.3532179446
 40
0.477064666
 40
0.6038049666
 40
0.7333095043
 40
0.8654297309
 40
1.0
 40
1.0
 40
1.0
 40
1.0
 10
15.6438626976
 20
11.6741905126
 30
0.0
 10
15.6372690074
 20
11.6719751457
 30
0.0
 10
15.6237869824
 20
11.6678157456
 30
0.0
 10
15.603024965
 20
11.6624522578
 30
0.0
 10
15.5814987665
 20
11.6578919681
 30
0.0
 10
15.5592636226
 20
11.6541464896
 30
0.0
 10
15.5363757655
 20
11.6512251309
 30
0.0
 10
15.5128932252
 20
11.6491352278
 30
0.0
 10
15.4888759465
 20
11.6478820102
 30
0.0
 10
15.4726890398
 20
11.6476088024
 30
0.0
 10
15.4645219932
 20
11.6476088024
 30
0.0
  0
SPLINE
  5
2E0
100
AcDbEntity
  8
LAYER_CHAMFER_FEAT
100
AcDbSpline
 62
7
  6
CONTINUOUS
 70
0
 71
3
 72
11
 73
7
 74
0
 42
0.0000001
 43
0.0000001
 44
0.0000000001
 40
0.0
 40
0.0
 40
0.0
 40
0.0
 40
0.261777405
 40
0.5161275258
 40
0.7623843939
 40
1.0
 40
1.0
 40
1.0
 40
1.0
 10
15.2585424727
 20
12.0673509334
 30
0.0
 10
15.2552453568
 20
12.0673509334
 30
0.0
 10
15.2487432633
 20
12.067187259
 30
0.0
 10
15.2391660855
 20
12.0664293313
 30
0.0
 10
15.2299490547
 20
12.0651666317
 30
0.0
 10
15.2239681438
 20
12.0639706061
 30
0.0
 10
15.2210548292
 20
12.0632854623
 30
0.0
  0
SPLINE
  5
2E1
100
AcDbEntity
  8
LAYER_CHAMFER_FEAT
100
AcDbSpline
 62
7
  6
CONTINUOUS
 70
0
 71
3
 72
23
 73
19
 74
0
 42
0.0000001
 43
0.0000001
 44
0.0000000001
 40
0.0
 40
0.0
 40
0.0
 40
0.0
 40
0.0614590498
 40
0.1243125221
 40
0.1883141377
 40
0.2531994671
 40
0.3186929633
 40
0.3845108469
 40
0.450365127
 40
0.5159673459
 40
0.5810323193
 40
0.6452819436
 40
0.7084491009
 40
0.7702816988
 40
0.8305469448
 40
0.8890359569
 40
0.9455688029
 40
1.0
 40
1.0
 40
1.0
 40
1.0
 10
15.2585424727
 20
12.0673509334
 30
0.0
 10
15.2621532915
 20
12.0673509334
 30
0.0
 10
15.269458167
 20
12.0671495529
 30
0.0
 10
15.2804915615
 20
12.0662721246
 30
0.0
 10
15.2916674148
 20
12.0648213359
 30
0.0
 10
15.3029128127
 20
12.0628065762
 30
0.0
 10
15.3141548396
 20
12.0602409392
 30
0.0
 10
15.3253204608
 20
12.0571410855
 30
0.0
 10
15.3363371602
 20
12.053527156
 30
0.0
 10
15.3471333761
 20
12.0494226247
 30
0.0
 10
15.3576389883
 20
12.0448541433
 30
0.0
 10
15.3677857856
 20
12.0398513702
 30
0.0
 10
15.3775079161
 20
12.0344467726
 30
0.0
 10
15.3867423304
 20
12.0286753683
 30
0.0
 10
15.3954291344
 20
12.0225745443
 30
0.0
 10
15.4035121896
 20
12.0161835545
 30
0.0
 10
15.4109387223
 20
12.0095440721
 30
0.0
 10
15.415510575
 20
12.0048881821
 30
0.0
 10
15.4176678122
 20
12.0025274562
 30
0.0
  0
SPLINE
  5
2E2
100
AcDbEntity
  8
LAYER_FEATURE
100
AcDbSpline
 62
7
  6
CONTINUOUS
 70
0
 71
3
 72
39
 73
35
 74
0
 42
0.0000001
 43
0.0000001
 44
0.0000000001
 40
0.0
 40
0.0
 40
0.0
 40
0.0
 40
0.0396651687
 40
0.0788627229
 40
0.1175691633
 40
0.1557638128
 40
0.193426663
 40
0.2305396249
 40
0.2670862415
 40
0.3030519215
 40
0.3384240456
 40
0.3731920982
 40
0.4073478088
 40
0.4408852964
 40
0.4738012216
 40
0.5060949461
 40
0.5377686893
 40
0.5688276881
 40
0.5992803577
 40
0.6291384476
 40
0.6584171909
 40
0.6871354419
 40
0.7153157872
 40
0.7429846299
 40
0.7701722372
 40
0.7969127407
 40
0.8232440803
 40
0.8492078818
 40
0.8748492557
 40
0.900216514
 40
0.9253608052
 40
0.9503356669
 40
0.9751965029
 40
1.0
 40
1.0
 40
1.0
 40
1.0
 10
15.1191725801
 20
12.7943392703
 30
0.0
 10
15.11018178
 20
12.7943392703
 30
0.0
 10
15.0923054603
 20
12.7941376632
 30
0.0
 10
15.0656698725
 20
12.7932187633
 30
0.0
 10
15.0393961887
 20
12.7916860831
 30
0.0
 10
15.0135143464
 20
12.7895413977
 30
0.0
 10
14.9880534088
 20
12.7867870734
 30
0.0
 10
14.9630421538
 20
12.7834262188
 30
0.0
 10
14.9385087802
 20
12.7794625933
 30
0.0
 10
14.9144809631
 20
12.7749006459
 30
0.0
 10
14.8909857993
 20
12.7697454912
 30
0.0
 10
14.8680497836
 20
12.7640029041
 30
0.0
 10
14.84569878
 20
12.7576793123
 30
0.0
 10
14.823957993
 20
12.7507817879
 30
0.0
 10
14.8028519414
 20
12.7433180369
 30
0.0
 10
14.7824044285
 20
12.7352963971
 30
0.0
 10
14.7626385205
 20
12.7267258212
 30
0.0
 10
14.7435765247
 20
12.7176158653
 30
0.0
 10
14.7252399692
 20
12.7079766785
 30
0.0
 10
14.7076495823
 20
12.6978189924
 30
0.0
 10
14.6908252744
 20
12.687154109
 30
0.0
 10
14.6747861159
 20
12.6759938989
 30
0.0
 10
14.6595503232
 20
12.6643507868
 30
0.0
 10
14.6451352453
 20
12.6522377425
 30
0.0
 10
14.6315573478
 20
12.639668276
 30
0.0
 10
14.6188321959
 20
12.6266564321
 30
0.0
 10
14.6069744366
 20
12.6132167867
 30
0.0
 10
14.5959977696
 20
12.5993644468
 30
0.0
 10
14.5859149292
 20
12.5851150475
 30
0.0
 10
14.5767376526
 20
12.5704847198
 30
0.0
 10
14.5684766766
 20
12.5554901669
 30
0.0
 10
14.5611416094
 20
12.5401483278
 30
0.0
 10
14.5547412573
 20
12.5244775362
 30
0.0
 10
14.5511005272
 20
12.5138171464
 30
0.0
 10
14.5494405996
 20
12.5084456343
 30
0.0
  0
SPLINE
  5
2E3
100
AcDbEntity
  8
LAYER_FEATURE
100
AcDbSpline
 62
7
  6
CONTINUOUS
 70
0
 71
3
 72
39
 73
35
 74
0
 42
0.0000001
 43
0.0000001
 44
0.0000000001
 40
0.0
 40
0.0
 40
0.0
 40
0.0
 40
0.0396651687
 40
0.0788627229
 40
0.1175691633
 40
0.1557638128
 40
0.193426663
 40
0.2305396249
 40
0.2670862415
 40
0.3030519215
 40
0.3384240456
 40
0.3731920982
 40
0.4073478088
 40
0.4408852964
 40
0.4738012216
 40
0.5060949461
 40
0.5377686893
 40
0.5688276881
 40
0.5992803577
 40
0.6291384476
 40
0.6584171909
 40
0.6871354419
 40
0.7153157872
 40
0.7429846299
 40
0.7701722372
 40
0.7969127407
 40
0.8232440803
 40
0.8492078818
 40
0.8748492557
 40
0.900216514
 40
0.9253608052
 40
0.9503356669
 40
0.9751965029
 40
1.0
 40
1.0
 40
1.0
 40
1.0
 10
15.2983016594
 20
13.3740011835
 30
0.0
 10
15.2893108594
 20
13.3740011835
 30
0.0
 10
15.2714345396
 20
13.3737995763
 30
0.0
 10
15.2447989518
 20
13.3728806765
 30
0.0
 10
15.2185252681
 20
13.3713479962
 30
0.0
 10
15.1926434257
 20
13.3692033109
 30
0.0
 10
15.1671824882
 20
13.3664489865
 30
0.0
 10
15.1421712331
 20
13.363088132
 30
0.0
 10
15.1176378595
 20
13.3591245064
 30
0.0
 10
15.0936100424
 20
13.354562559
 30
0.0
 10
15.0701148786
 20
13.3494074043
 30
0.0
 10
15.0471788629
 20
13.3436648172
 30
0.0
 10
15.0248278593
 20
13.3373412254
 30
0.0
 10
15.0030870724
 20
13.3304437011
 30
0.0
 10
14.9819810207
 20
13.3229799501
 30
0.0
 10
14.9615335078
 20
13.3149583102
 30
0.0
 10
14.9417675998
 20
13.3063877343
 30
0.0
 10
14.9227056041
 20
13.2972777784
 30
0.0
 10
14.9043690485
 20
13.2876385917
 30
0.0
 10
14.8867786616
 20
13.2774809055
 30
0.0
 10
14.8699543538
 20
13.2668160221
 30
0.0
 10
14.8539151953
 20
13.2556558121
 30
0.0
 10
14.8386794025
 20
13.2440126999
 30
0.0
 10
14.8242643246
 20
13.2318996557
 30
0.0
 10
14.8106864271
 20
13.2193301891
 30
0.0
 10
14.7979612752
 20
13.2063183453
 30
0.0
 10
14.786103516
 20
13.1928786998
 30
0.0
 10
14.775126849
 20
13.1790263599
 30
0.0
 10
14.7650440085
 20
13.1647769606
 30
0.0
 10
14.7558667319
 20
13.1501466329
 30
0.0
 10
14.747605756
 20
13.1351520801
 30
0.0
 10
14.7402706887
 20
13.1198102409
 30
0.0
 10
14.7338703366
 20
13.1041394494
 30
0.0
 10
14.7302296065
 20
13.0934790595
 30
0.0
 10
14.7285696789
 20
13.0881075475
 30
0.0
  0
SPLINE
  5
2E4
100
AcDbEntity
  8
LAYER_FEATURE
100
AcDbSpline
 62
7
  6
CONTINUOUS
 70
0
 71
3
 72
66
 73
62
 74
0
 42
0.0000001
 43
0.0000001
 44
0.0000000001
 40
0.0
 40
0.0
 40
0.0
 40
0.0
 40
0.0171788923
 40
0.034530769
 40
0.0520448443
 40
0.0697107132
 40
0.0875171989
 40
0.1054529495
 40
0.1235062927
 40
0.1416652975
 40
0.159917808
 40
0.1782514655
 40
0.215110338
 40
0.2521417323
 40
0.2892423764
 40
0.3263084234
 40
0.3632363136
 40
0.3816171919
 40
0.3999252736
 40
0.4181480823
 40
0.4362733234
 40
0.4542889119
 40
0.4721830017
 40
0.4899440158
 40
0.5075606768
 40
0.525022036
 40
0.5423175053
 40
0.5594368898
 40
0.5763704231
 40
0.5931088018
 40
0.6096432202
 40
0.6259654076
 40
0.6420676677
 40
0.6579429215
 40
0.6735847493
 40
0.6889874336
 40
0.7041460053
 40
0.7190562928
 40
0.7337149752
 40
0.7481196342
 40
0.7622688071
 40
0.7761620435
 40
0.7897999625
 40
0.8031843148
 40
0.8163180403
 40
0.8292053233
 40
0.841851648
 40
0.8542638502
 40
0.8664501637
 40
0.8784202566
 40
0.890185254
 40
0.9017577476
 40
0.9131517883
 40
0.9243828585
 40
0.9354678166
 40
0.9464248149
 40
0.9572731891
 40
0.9680333187
 40
0.97872646
 40
0.9893745518
 40
1.0
 40
1.0
 40
1.0
 40
1.0
 10
15.1191725801
 20
12.7943392703
 30
0.0
 10
15.1278988267
 20
12.7943392703
 30
0.0
 10
15.1454397497
 20
12.7941472588
 30
0.0
 10
15.1718647136
 20
12.7932941102
 30
0.0
 10
15.198513139
 20
12.7918751664
 30
0.0
 10
15.225356996
 20
12.789891966
 30
0.0
 10
15.2523685045
 20
12.7873465336
 30
0.0
 10
15.2795194936
 20
12.7842415327
 30
0.0
 10
15.3067817292
 20
12.7805801943
 30
0.0
 10
15.3341268005
 20
12.7763663359
 30
0.0
 10
15.3615263685
 20
12.7716043316
 30
0.0
 10
15.3981565423
 20
12.764518538
 30
0.0
 10
15.4438917518
 20
12.7543207268
 30
0.0
 10
15.4984373941
 20
12.7400094024
 30
0.0
 10
15.5525181023
 20
12.7236615732
 30
0.0
 10
15.6059081724
 20
12.7053454625
 30
0.0
 10
15.6497078206
 20
12.6884790002
 30
0.0
 10
15.6842138855
 20
12.6740627564
 30
0.0
 10
15.7097449979
 20
12.6628249414
 30
0.0
 10
15.7349394188
 20
12.6511572284
 30
0.0
 10
15.7597710339
 20
12.6390717043
 30
0.0
 10
15.7842139666
 20
12.6265809621
 30
0.0
 10
15.8082427813
 20
12.6136979936
 30
0.0
 10
15.8318324683
 20
12.6004362099
 30
0.0
 10
15.8549584793
 20
12.5868094134
 30
0.0
 10
15.8775967474
 20
12.5728317834
 30
0.0
 10
15.8997237127
 20
12.5585178613
 30
0.0
 10
15.9213163466
 20
12.5438825344
 30
0.0
 10
15.9423521822
 20
12.5289410281
 30
0.0
 10
15.9628093343
 20
12.5137088841
 30
0.0
 10
15.9826665187
 20
12.4982019416
 30
0.0
 10
16.0019030741
 20
12.4824363215
 30
0.0
 10
16.020498983
 20
12.4664284076
 30
0.0
 10
16.0384349003
 20
12.4501948375
 30
0.0
 10
16.0556921688
 20
12.4337524789
 30
0.0
 10
16.0722528343
 20
12.4171184093
 30
0.0
 10
16.0880996634
 20
12.4003099001
 30
0.0
 10
16.1032161599
 20
12.3833443952
 30
0.0
 10
16.1175865902
 20
12.3662395005
 30
0.0
 10
16.1311959947
 20
12.3490129603
 30
0.0
 10
16.144030196
 20
12.3316826365
 30
0.0
 10
16.1560758126
 20
12.3142664924
 30
0.0
 10
16.1673202696
 20
12.2967825716
 30
0.0
 10
16.1777518204
 20
12.279248987
 30
0.0
 10
16.1873595524
 20
12.2616838992
 30
0.0
 10
16.1961333891
 20
12.2441054975
 30
0.0
 10
16.2040640997
 20
12.2265319863
 30
0.0
 10
16.2111433036
 20
12.2089815676
 30
0.0
 10
16.2173634911
 20
12.1914724314
 30
0.0
 10
16.2227180261
 20
12.1740227398
 30
0.0
 10
16.2272011453
 20
12.1566506126
 30
0.0
 10
16.2308079685
 20
12.1393741178
 30
0.0
 10
16.2335345045
 20
12.1222112586
 30
0.0
 10
16.2353776771
 20
12.105179964
 30
0.0
 10
16.2363353324
 20
12.0882980714
 30
0.0
 10
16.236406244
 20
12.0715833169
 30
0.0
 10
16.2355901238
 20
12.0550532976
 30
0.0
 10
16.2338876545
 20
12.0387255265
 30
0.0
 10
16.2313004318
 20
12.0226171227
 30
0.0
 10
16.2278312843
 20
12.0067458266
 30
0.0
 10
16.224931465
 20
11.9963289694
 30
0.0
 10
16.223337911
 20
11.9911722419
 30
0.0
  0
SPLINE
  5
2E5
100
AcDbEntity
  8
LAYER_FEATURE
100
AcDbSpline
 62
7
  6
CONTINUOUS
 70
0
 71
3
 72
15
 73
11
 74
0
 42
0.0000001
 43
0.0000001
 44
0.0000000001
 40
0.0
 40
0.0
 40
0.0
 40
0.0
 40
0.1190317654
 40
0.2390339112
 40
0.3604281218
 40
0.4835982548
 40
0.6088827656
 40
0.7365664732
 40
0.8668824741
 40
1.0
 40
1.0
 40
1.0
 40
1.0
 10
15.1070911981
 20
12.3863050486
 30
0.0
 10
15.1066410037
 20
12.3875218269
 30
0.0
 10
15.1058472734
 20
12.3900076988
 30
0.0
 10
15.1049897959
 20
12.3938464642
 30
0.0
 10
15.1044651157
 20
12.3977903402
 30
0.0
 10
15.1042754104
 20
12.4018217796
 30
0.0
 10
15.104421206
 20
12.4059234122
 30
0.0
 10
15.1049016104
 20
12.4100776333
 30
0.0
 10
15.1057142518
 20
12.4142663481
 30
0.0
 10
15.1064669745
 20
12.4170402369
 30
0.0
 10
15.1068953547
 20
12.4184264758
 30
0.0
  0
SPLINE
  5
2E6
100
AcDbEntity
  8
02___PRT_ALL_AXES
100
AcDbSpline
 62
7
  6
CONTINUOUS
 70
0
 71
3
 72
35
 73
31
 74
0
 42
0.0000001
 43
0.0000001
 44
0.0000000001
 40
0.0
 40
0.0
 40
0.0
 40
0.0
 40
0.023558293
 40
0.0473687612
 40
0.0715742647
 40
0.0963016813
 40
0.1216581148
 40
0.1477286186
 40
0.1745752832
 40
0.2022375538
 40
0.2307333568
 40
0.2600609228
 40
0.2902009456
 40
0.3211189605
 40
0.3527678298
 40
0.3850900864
 40
0.4180202987
 40
0.4514870801
 40
0.4854150674
 40
0.5197264925
 40
0.5543426624
 40
0.5891851248
 40
0.6592205092
 40
0.7292645672
 40
0.7987817348
 40
0.867306034
 40
0.9010871036
 40
0.9344840004
 40
0.9674640076
 40
1.0
 40
1.0
 40
1.0
 40
1.0
 10
15.105130329
 20
12.3897970244
 30
0.0
 10
15.1045817095
 20
12.3909149864
 30
0.0
 10
15.1035918115
 20
12.393220402
 30
0.0
 10
15.1024504475
 20
12.3968337183
 30
0.0
 10
15.1016508515
 20
12.4006009746
 30
0.0
 10
15.1011954639
 20
12.4045069314
 30
0.0
 10
15.1010849492
 20
12.4085360269
 30
0.0
 10
15.1013186181
 20
12.4126716381
 30
0.0
 10
15.1018943784
 20
12.4168962788
 30
0.0
 10
15.1028087829
 20
12.4211915518
 30
0.0
 10
15.104057038
 20
12.4255382073
 30
0.0
 10
15.1056330178
 20
12.4299162176
 30
0.0
 10
15.1075292904
 20
12.4343048924
 30
0.0
 10
15.1097371598
 20
12.4386830188
 30
0.0
 10
15.1122467224
 20
12.4430290164
 30
0.0
 10
15.1150469385
 20
12.4473211017
 30
0.0
 10
15.1181257076
 20
12.4515374462
 30
0.0
 10
15.1214699436
 20
12.4556563287
 30
0.0
 10
15.1250656584
 20
12.4596562852
 30
0.0
 10
15.1288979659
 20
12.4635161915
 30
0.0
 10
15.1329513412
 20
12.4672155628
 30
0.0
 10
15.1386372626
 20
12.4719144172
 30
0.0
 10
15.1461942752
 20
12.4772713654
 30
0.0
 10
15.1558467815
 20
12.4827492237
 30
0.0
 10
15.1659443874
 20
12.4871625729
 30
0.0
 10
15.1746338813
 20
12.4898776499
 30
0.0
 10
15.1816440374
 20
12.4914155273
 30
0.0
 10
15.1868770465
 20
12.4922418066
 30
0.0
 10
15.1920850011
 20
12.4927407072
 30
0.0
 10
15.1955492157
 20
12.4928536858
 30
0.0
 10
15.1972691081
 20
12.4928536858
 30
0.0
  0
SPLINE
  5
2E7
100
AcDbEntity
  8
LAYER_FEATURE
100
AcDbSpline
 62
7
  6
CONTINUOUS
 70
0
 71
3
 72
48
 73
44
 74
0
 42
0.0000001
 43
0.0000001
 44
0.0000000001
 40
0.0
 40
0.0
 40
0.0
 40
0.0
 40
0.0290937738
 40
0.0572902587
 40
0.0710904767
 40
0.0847099893
 40
0.0981685983
 40
0.1114883517
 40
0.1246932876
 40
0.1378092309
 40
0.1508634013
 40
0.1638839885
 40
0.1768997315
 40
0.1899394505
 40
0.2030315768
 40
0.2162036921
 40
0.2294821322
 40
0.2428915931
 40
0.2564547972
 40
0.2701922795
 40
0.28412214
 40
0.2982599192
 40
0.3271973556
 40
0.3570880416
 40
0.3879619416
 40
0.4198102398
 40
0.4525890748
 40
0.4862238834
 40
0.5206139351
 40
0.5556368337
 40
0.5911529485
 40
0.6270097809
 40
0.6630461947
 40
0.6990965752
 40
0.7349949655
 40
0.7705791851
 40
0.8056949843
 40
0.8402002903
 40
0.8739695066
 40
0.9068979293
 40
0.9389063654
 40
0.9699450884
 40
1.0
 40
1.0
 40
1.0
 40
1.0
 10
15.1169980684
 20
12.4286208793
 30
0.0
 10
15.1164869629
 20
12.4269669412
 30
0.0
 10
15.1156484736
 20
12.4236549751
 30
0.0
 10
15.1150756806
 20
12.4194538074
 30
0.0
 10
15.1149255454
 20
12.4161462089
 30
0.0
 10
15.1149644275
 20
12.4137126041
 30
0.0
 10
15.1151540166
 20
12.4113147615
 30
0.0
 10
15.1154938545
 20
12.4089584162
 30
0.0
 10
15.1159832008
 20
12.4066493207
 30
0.0
 10
15.1166208876
 20
12.4043930947
 30
0.0
 10
15.1174053731
 20
12.4021952352
 30
0.0
 10
15.1183347989
 20
12.4000611201
 30
0.0
 10
15.1194068772
 20
12.3979959492
 30
0.0
 10
15.1206189889
 20
12.3960047556
 30
0.0
 10
15.1219681904
 20
12.3940924047
 30
0.0
 10
15.1234511417
 20
12.3922635201
 30
0.0
 10
15.1250642205
 20
12.3905225376
 30
0.0
 10
15.1268034845
 20
12.3888736714
 30
0.0
 10
15.1286646636
 20
12.3873208587
 30
0.0
 10
15.1306432174
 20
12.3858678503
 30
0.0
 10
15.1327344041
 20
12.3845180862
 30
0.0
 10
15.1356882879
 20
12.3828476783
 30
0.0
 10
15.1396455058
 20
12.3810383442
 30
0.0
 10
15.1447166294
 20
12.3793446248
 30
0.0
 10
15.1500995699
 20
12.3781258054
 30
0.0
 10
15.1557423499
 20
12.3773929346
 30
0.0
 10
15.1615912302
 20
12.3771522566
 30
0.0
 10
15.1675904099
 20
12.3774055989
 30
0.0
 10
15.1736827021
 20
12.3781502063
 30
0.0
 10
15.1798099898
 20
12.3793787466
 30
0.0
 10
15.1859137925
 20
12.3810793157
 30
0.0
 10
15.191935816
 20
12.3832355659
 30
0.0
 10
15.1978185116
 20
12.385826844
 30
0.0
 10
15.2035056456
 20
12.3888283518
 30
0.0
 10
15.2089428417
 20
12.3922113972
 30
0.0
 10
15.2140780949
 20
12.3959436882
 30
0.0
 10
15.2188622712
 20
12.3999896456
 30
0.0
 10
15.2232495882
 20
12.4043107254
 30
0.0
 10
15.2271980218
 20
12.4088658602
 30
0.0
 10
15.2306696468
 20
12.4136117622
 30
0.0
 10
15.2336310479
 20
12.4185036742
 30
0.0
 10
15.2360532898
 20
12.4234945057
 30
0.0
 10
15.2373132805
 20
12.426912302
 30
0.0
 10
15.2378412708
 20
12.4286208793
 30
0.0
  0
SPLINE
  5
2E8
100
AcDbEntity
  8
LAYER_FEATURE
100
AcDbSpline
 62
7
  6
CONTINUOUS
 70
0
 71
3
 72
23
 73
19
 74
0
 42
0.0000001
 43
0.0000001
 44
0.0000000001
 40
0.0
 40
0.0
 40
0.0
 40
0.0
 40
0.0549036844
 40
0.1116047498
 40
0.1700770959
 40
0.2302301448
 40
0.2919190966
 40
0.3549527445
 40
0.4191016361
 40
0.4841062115
 40
0.5496847164
 40
0.615540875
 40
0.6813715179
 40
0.7468741042
 40
0.8117542857
 40
0.8757334986
 40
0.9385561215
 40
1.0
 40
1.0
 40
1.0
 40
1.0
 10
15.1068953547
 20
12.4184264758
 30
0.0
 10
15.1075553418
 20
12.420562195
 30
0.0
 10
15.1091303339
 20
12.4248344407
 30
0.0
 10
15.1121581255
 20
12.4310729847
 30
0.0
 10
15.1158598857
 20
12.4371878735
 30
0.0
 10
15.1201994208
 20
12.4431202448
 30
0.0
 10
15.1251349521
 20
12.4488141732
 30
0.0
 10
15.1306191025
 20
12.4542155195
 30
0.0
 10
15.136599329
 20
12.4592729587
 30
0.0
 10
15.1430183877
 20
12.4639383334
 30
0.0
 10
15.1498148853
 20
12.4681671362
 30
0.0
 10
15.1569238044
 20
12.4719190191
 30
0.0
 10
15.1642771713
 20
12.4751581177
 30
0.0
 10
15.1718047102
 20
12.4778534295
 30
0.0
 10
15.1794344303
 20
12.4799791496
 30
0.0
 10
15.1870936484
 20
12.481514806
 30
0.0
 10
15.1947085672
 20
12.4824455808
 30
0.0
 10
15.1997701446
 20
12.4826592824
 30
0.0
 10
15.2022717947
 20
12.4826592824
 30
0.0
  0
SPLINE
  5
2E9
100
AcDbEntity
  8
LAYER_FEATURE
100
AcDbSpline
 62
7
  6
CONTINUOUS
 70
0
 71
3
 72
20
 73
16
 74
0
 42
0.0000001
 43
0.0000001
 44
0.0000000001
 40
0.0
 40
0.0
 40
0.0
 40
0.0
 40
0.1404394221
 40
0.20895809
 40
0.2762823734
 40
0.407229471
 40
0.533359771
 40
0.5947324754
 40
0.6550349722
 40
0.7143475238
 40
0.7727674467
 40
0.8304082141
 40
0.8873980776
 40
0.9438781534
 40
1.0
 40
1.0
 40
1.0
 40
1.0
 10
15.2022717947
 20
12.4826592824
 30
0.0
 10
15.2050737206
 20
12.4826592824
 30
0.0
 10
15.209247068
 20
12.4824619882
 30
0.0
 10
15.2147184088
 20
12.4817765539
 30
0.0
 10
15.2199595894
 20
12.4808357022
 30
0.0
 10
15.2262295645
 20
12.4791731955
 30
0.0
 10
15.2321518218
 20
12.4768246813
 30
0.0
 10
15.236553334
 20
12.4745663633
 30
0.0
 10
15.2396525144
 20
12.4727078552
 30
0.0
 10
15.2425689896
 20
12.4706753467
 30
0.0
 10
15.2452934592
 20
12.4684752091
 30
0.0
 10
15.2478170376
 20
12.4661144479
 30
0.0
 10
15.2501315494
 20
12.4636005187
 30
0.0
 10
15.2522292866
 20
12.4609417045
 30
0.0
 10
15.2534818307
 20
12.4590735219
 30
0.0
 10
15.2540685226
 20
12.4581198404
 30
0.0
  0
SPLINE
  5
2EA
100
AcDbEntity
  8
LAYER_FEATURE
100
AcDbSpline
 62
7
  6
CONTINUOUS
 70
0
 71
3
 72
48
 73
44
 74
0
 42
0.0000001
 43
0.0000001
 44
0.0000000001
 40
0.0
 40
0.0
 40
0.0
 40
0.0
 40
0.0300549116
 40
0.0610936346
 40
0.0931020707
 40
0.1260304934
 40
0.1597997097
 40
0.1943050157
 40
0.2294208149
 40
0.2650050345
 40
0.3009034248
 40
0.3369538053
 40
0.3729902191
 40
0.4088470515
 40
0.4443631663
 40
0.4793860649
 40
0.5137761166
 40
0.5474109252
 40
0.5801897602
 40
0.6120380584
 40
0.6429119584
 40
0.6728026444
 40
0.7017400808
 40
0.71587786
 40
0.7298077205
 40
0.7435452028
 40
0.7571084069
 40
0.7705178678
 40
0.7837963079
 40
0.7969684232
 40
0.8100605495
 40
0.8231002685
 40
0.8361160115
 40
0.8491365987
 40
0.8621907691
 40
0.8753067124
 40
0.8885116483
 40
0.9018314017
 40
0.9152900107
 40
0.9289095233
 40
0.9427097413
 40
0.9709062262
 40
1.0
 40
1.0
 40
1.0
 40
1.0
 10
15.1169980684
 20
12.4286208793
 30
0.0
 10
15.1175260587
 20
12.4303294565
 30
0.0
 10
15.1187860494
 20
12.4337472528
 30
0.0
 10
15.1212082912
 20
12.4387380843
 30
0.0
 10
15.1241696924
 20
12.4436299963
 30
0.0
 10
15.1276413174
 20
12.4483758983
 30
0.0
 10
15.131589751
 20
12.4529310331
 30
0.0
 10
15.135977068
 20
12.4572521129
 30
0.0
 10
15.1407612443
 20
12.4612980703
 30
0.0
 10
15.1458964975
 20
12.4650303613
 30
0.0
 10
15.1513336935
 20
12.4684134067
 30
0.0
 10
15.1570208276
 20
12.4714149145
 30
0.0
 10
15.1629035232
 20
12.4740061927
 30
0.0
 10
15.1689255467
 20
12.4761624428
 30
0.0
 10
15.1750293494
 20
12.4778630119
 30
0.0
 10
15.1811566371
 20
12.4790915522
 30
0.0
 10
15.1872489293
 20
12.4798361596
 30
0.0
 10
15.193248109
 20
12.4800895019
 30
0.0
 10
15.1990969893
 20
12.4798488239
 30
0.0
 10
15.2047397693
 20
12.4791159531
 30
0.0
 10
15.2101227098
 20
12.4778971337
 30
0.0
 10
15.2151938334
 20
12.4762034143
 30
0.0
 10
15.2191510513
 20
12.4743940802
 30
0.0
 10
15.2221049351
 20
12.4727236723
 30
0.0
 10
15.2241961218
 20
12.4713739082
 30
0.0
 10
15.2261746755
 20
12.4699208998
 30
0.0
 10
15.2280358547
 20
12.4683680871
 30
0.0
 10
15.2297751187
 20
12.466719221
 30
0.0
 10
15.2313881975
 20
12.4649782384
 30
0.0
 10
15.2328711488
 20
12.4631493538
 30
0.0
 10
15.2342203503
 20
12.4612370029
 30
0.0
 10
15.235432462
 20
12.4592458093
 30
0.0
 10
15.2365045403
 20
12.4571806384
 30
0.0
 10
15.237433966
 20
12.4550465233
 30
0.0
 10
15.2382184516
 20
12.4528486638
 30
0.0
 10
15.2388561384
 20
12.4505924378
 30
0.0
 10
15.2393454847
 20
12.4482833423
 30
0.0
 10
15.2396853226
 20
12.445926997
 30
0.0
 10
15.2398749117
 20
12.4435291544
 30
0.0
 10
15.2399137938
 20
12.4410955496
 30
0.0
 10
15.2397636586
 20
12.4377879511
 30
0.0
 10
15.2391908656
 20
12.4335867834
 30
0.0
 10
15.2383523763
 20
12.4302748173
 30
0.0
 10
15.2378412708
 20
12.4286208793
 30
0.0
  0
SPLINE
  5
2EB
100
AcDbEntity
  8
LAYER_FEATURE
100
AcDbSpline
 62
7
  6
CONTINUOUS
 70
0
 71
3
 72
11
 73
7
 74
0
 42
0.0000001
 43
0.0000001
 44
0.0000000001
 40
0.0
 40
0.0
 40
0.0
 40
0.0
 40
0.2460131889
 40
0.4936585085
 40
0.744530244
 40
1.0
 40
1.0
 40
1.0
 40
1.0
 10
16.3169376553
 20
12.6463287858
 30
0.0
 10
16.3169922262
 20
12.6465053644
 30
0.0
 10
16.3170841124
 20
12.6468654088
 30
0.0
 10
16.317168285
 20
12.6474192474
 30
0.0
 10
16.3171987246
 20
12.6479857067
 30
0.0
 10
16.3171833807
 20
12.648366419
 30
0.0
 10
16.3171671114
 20
12.6485576513
 30
0.0
  0
SPLINE
  5
2EC
100
AcDbEntity
  8
LAYER_FEATURE
100
AcDbSpline
 62
7
  6
CONTINUOUS
 70
0
 71
3
 72
22
 73
18
 74
0
 42
0.0000001
 43
0.0000001
 44
0.0000000001
 40
0.0
 40
0.0
 40
0.0
 40
0.0
 40
0.1381197978
 40
0.2053664405
 40
0.2714549011
 40
0.3364371411
 40
0.4003725798
 40
0.4633278459
 40
0.5253764074
 40
0.5865986107
 40
0.6470813122
 40
0.7069174445
 40
0.7662054997
 40
0.8250488571
 40
0.883554961
 40
0.9418344168
 40
1.0
 40
1.0
 40
1.0
 40
1.0
 10
15.9584213817
 20
12.2380590345
 30
0.0
 10
15.9622820097
 20
12.2301919018
 30
0.0
 10
15.9676016505
 20
12.2182786817
 30
0.0
 10
15.973668869
 20
12.2021559328
 30
0.0
 10
15.9776140683
 20
12.1902035792
 30
0.0
 10
15.98098993
 20
12.1782964513
 30
0.0
 10
15.9837932643
 20
12.1664455905
 30
0.0
 10
15.9860212303
 20
12.1546624206
 30
0.0
 10
15.9876715522
 20
12.1429581973
 30
0.0
 10
15.9887425238
 20
12.131344168
 30
0.0
 10
15.9892329912
 20
12.1198315063
 30
0.0
 10
15.9891423435
 20
12.1084313222
 30
0.0
 10
15.9884705413
 20
12.0971546374
 30
0.0
 10
15.9872181578
 20
12.0860124158
 30
0.0
 10
15.9853862883
 20
12.0750153743
 30
0.0
 10
15.9829767576
 20
12.0641746263
 30
0.0
 10
15.9809858803
 20
12.057055368
 30
0.0
 10
15.9798962828
 20
12.053529429
 30
0.0
  0
SPLINE
  5
2ED
100
AcDbEntity
  8
LAYER_FEATURE
100
AcDbSpline
 62
7
  6
CONTINUOUS
 70
0
 71
3
 72
14
 73
10
 74
0
 42
0.0000001
 43
0.0000001
 44
0.0000000001
 40
0.0
 40
0.0
 40
0.0
 40
0.0
 40
0.1171877704
 40
0.2351959856
 40
0.35481796
 40
0.4767929287
 40
0.6017820577
 40
0.7303736311
 40
1.0
 40
1.0
 40
1.0
 40
1.0
 10
16.2856572588
 20
12.761223132
 30
0.0
 10
16.2857135008
 20
12.7614051342
 30
0.0
 10
16.2858076789
 20
12.7617764917
 30
0.0
 10
16.2858918653
 20
12.7623480321
 30
0.0
 10
16.2859190076
 20
12.7629329157
 30
0.0
 10
16.2858890268
 20
12.7635289388
 30
0.0
 10
16.2858021339
 20
12.7641340805
 30
0.0
 10
16.2856079525
 20
12.7649629378
 30
0.0
 10
16.2853813688
 20
12.7655730008
 30
0.0
 10
16.2852005654
 20
12.7659722603
 30
0.0
  0
SPLINE
  5
2EE
100
AcDbEntity
  8
LAYER_FEATURE
100
AcDbSpline
 62
7
  6
CONTINUOUS
 70
0
 71
3
 72
66
 73
62
 74
0
 42
0.0000001
 43
0.0000001
 44
0.0000000001
 40
0.0
 40
0.0
 40
0.0
 40
0.0
 40
0.0171788923
 40
0.034530769
 40
0.0520448443
 40
0.0697107132
 40
0.0875171989
 40
0.1054529495
 40
0.1235062927
 40
0.1416652975
 40
0.159917808
 40
0.1782514655
 40
0.215110338
 40
0.2521417323
 40
0.2892423764
 40
0.3263084234
 40
0.3632363136
 40
0.3816171919
 40
0.3999252736
 40
0.4181480823
 40
0.4362733234
 40
0.4542889119
 40
0.4721830017
 40
0.4899440158
 40
0.5075606768
 40
0.525022036
 40
0.5423175053
 40
0.5594368898
 40
0.5763704231
 40
0.5931088018
 40
0.6096432202
 40
0.6259654076
 40
0.6420676677
 40
0.6579429215
 40
0.6735847493
 40
0.6889874336
 40
0.7041460053
 40
0.7190562928
 40
0.7337149752
 40
0.7481196342
 40
0.7622688071
 40
0.7761620435
 40
0.7897999625
 40
0.8031843148
 40
0.8163180403
 40
0.8292053233
 40
0.841851648
 40
0.8542638502
 40
0.8664501637
 40
0.8784202566
 40
0.890185254
 40
0.9017577476
 40
0.9131517883
 40
0.9243828585
 40
0.9354678166
 40
0.9464248149
 40
0.9572731891
 40
0.9680333187
 40
0.97872646
 40
0.9893745518
 40
1.0
 40
1.0
 40
1.0
 40
1.0
 10
15.2886190065
 20
13.3426681071
 30
0.0
 10
15.2973452531
 20
13.3426681071
 30
0.0
 10
15.314886176
 20
13.3424760956
 30
0.0
 10
15.34131114
 20
13.3416229469
 30
0.0
 10
15.3679595654
 20
13.3402040031
 30
0.0
 10
15.3948034224
 20
13.3382208028
 30
0.0
 10
15.4218149309
 20
13.3356753703
 30
0.0
 10
15.44896592
 20
13.3325703695
 30
0.0
 10
15.4762281556
 20
13.3289090311
 30
0.0
 10
15.5035732269
 20
13.3246951726
 30
0.0
 10
15.5309727949
 20
13.3199331684
 30
0.0
 10
15.5676029687
 20
13.3128473747
 30
0.0
 10
15.6133381782
 20
13.3026495636
 30
0.0
 10
15.6678838204
 20
13.2883382392
 30
0.0
 10
15.7219645287
 20
13.27199041
 30
0.0
 10
15.7753545988
 20
13.2536742992
 30
0.0
 10
15.819154247
 20
13.236807837
 30
0.0
 10
15.8536603118
 20
13.2223915931
 30
0.0
 10
15.8791914243
 20
13.2111537782
 30
0.0
 10
15.9043858452
 20
13.1994860651
 30
0.0
 10
15.9292174603
 20
13.1874005411
 30
0.0
 10
15.953660393
 20
13.1749097989
 30
0.0
 10
15.9776892077
 20
13.1620268304
 30
0.0
 10
16.0012788947
 20
13.1487650467
 30
0.0
 10
16.0244049057
 20
13.1351382502
 30
0.0
 10
16.0470431738
 20
13.1211606201
 30
0.0
 10
16.0691701391
 20
13.1068466981
 30
0.0
 10
16.0907627729
 20
13.0922113711
 30
0.0
 10
16.1117986086
 20
13.0772698648
 30
0.0
 10
16.1322557607
 20
13.0620377209
 30
0.0
 10
16.1521129451
 20
13.0465307783
 30
0.0
 10
16.1713495005
 20
13.0307651582
 30
0.0
 10
16.1899454094
 20
13.0147572444
 30
0.0
 10
16.2078813267
 20
12.9985236743
 30
0.0
 10
16.2251385952
 20
12.9820813156
 30
0.0
 10
16.2416992607
 20
12.965447246
 30
0.0
 10
16.2575460898
 20
12.9486387368
 30
0.0
 10
16.2726625863
 20
12.9316732319
 30
0.0
 10
16.2870330166
 20
12.9145683372
 30
0.0
 10
16.3006424211
 20
12.897341797
 30
0.0
 10
16.3134766223
 20
12.8800114733
 30
0.0
 10
16.325522239
 20
12.8625953292
 30
0.0
 10
16.336766696
 20
12.8451114084
 30
0.0
 10
16.3471982468
 20
12.8275778238
 30
0.0
 10
16.3568059787
 20
12.8100127359
 30
0.0
 10
16.3655798155
 20
12.7924343343
 30
0.0
 10
16.3735105261
 20
12.7748608231
 30
0.0
 10
16.38058973
 20
12.7573104043
 30
0.0
 10
16.3868099175
 20
12.7398012681
 30
0.0
 10
16.3921644525
 20
12.7223515765
 30
0.0
 10
16.3966475717
 20
12.7049794493
 30
0.0
 10
16.4002543949
 20
12.6877029545
 30
0.0
 10
16.4029809309
 20
12.6705400954
 30
0.0
 10
16.4048241035
 20
12.6535088008
 30
0.0
 10
16.4057817588
 20
12.6366269081
 30
0.0
 10
16.4058526704
 20
12.6199121536
 30
0.0
 10
16.4050365502
 20
12.6033821343
 30
0.0
 10
16.4033340808
 20
12.5870543633
 30
0.0
 10
16.4007468582
 20
12.5709459594
 30
0.0
 10
16.3972777107
 20
12.5550746633
 30
0.0
 10
16.3943778914
 20
12.5446578062
 30
0.0
 10
16.3927843374
 20
12.5395010786
 30
0.0
  0
SPLINE
  5
2EF
100
AcDbEntity
  8
LAYER_FEATURE
100
AcDbSpline
 62
7
  6
CONTINUOUS
 70
0
 71
3
 72
52
 73
48
 74
0
 42
0.0000001
 43
0.0000001
 44
0.0000000001
 40
0.0
 40
0.0
 40
0.0
 40
0.0
 40
0.0410364922
 40
0.0814746011
 40
0.1212800739
 40
0.1604213267
 40
0.1988697537
 40
0.2365999628
 40
0.273590067
 40
0.3098219774
 40
0.3452817177
 40
0.379959754
 40
0.4138513411
 40
0.4469568814
 40
0.4792822939
 40
0.5108393839
 40
0.5416462063
 40
0.5567769617
 40
0.5717299743
 40
0.6011170847
 40
0.6298487645
 40
0.6439844293
 40
0.6579740809
 40
0.6855399512
 40
0.7126098586
 40
0.7259813814
 40
0.739254636
 40
0.7524389777
 40
0.7655441109
 40
0.7785800454
 40
0.7915570733
 40
0.8044857234
 40
0.817376728
 40
0.8302409749
 40
0.8430894666
 40
0.8559332722
 40
0.8687834803
 40
0.8816511533
 40
0.8945472777
 40
0.9074827221
 40
0.9204681873
 40
0.9335141713
 40
0.946630921
 40
0.9598284054
 40
0.9731162718
 40
0.9865038271
 40
1.0
 40
1.0
 40
1.0
 40
1.0
 10
15.3011749023
 20
13.2851667263
 30
0.0
 10
15.2909760392
 20
13.2851667263
 30
0.0
 10
15.2707258084
 20
13.2848883177
 30
0.0
 10
15.2406067464
 20
13.2836157507
 30
0.0
 10
15.2110073979
 20
13.2814932899
 30
0.0
 10
15.1819777972
 20
13.2785244679
 30
0.0
 10
15.1535666381
 20
13.2747142326
 30
0.0
 10
15.1258216604
 20
13.2700689293
 30
0.0
 10
15.098789451
 20
13.2645962902
 30
0.0
 10
15.0725153981
 20
13.2583054156
 30
0.0
 10
15.047043609
 20
13.2512067541
 30
0.0
 10
15.0224168453
 20
13.2433120823
 30
0.0
 10
14.9986764441
 20
13.2346344722
 30
0.0
 10
14.9758623023
 20
13.2251882928
 30
0.0
 10
14.9540126557
 20
13.2149890823
 30
0.0
 10
14.9331646193
 20
13.2040538817
 30
0.0
 10
14.9165561555
 20
13.1942846144
 30
0.0
 10
14.9038158989
 20
13.1861147629
 30
0.0
 10
14.8915854636
 20
13.1778130076
 30
0.0
 10
14.876970527
 20
13.1670168088
 30
0.0
 10
14.8631387447
 20
13.1555479696
 30
0.0
 10
14.8526683073
 20
13.146055804
 30
0.0
 10
14.8426951422
 20
13.1364558616
 30
0.0
 10
14.8309508096
 20
13.1240720875
 30
0.0
 10
14.820113287
 20
13.1110854428
 30
0.0
 10
14.8120755754
 20
13.1004239399
 30
0.0
 10
14.8063821256
 20
13.0923240056
 30
0.0
 10
14.8010019602
 20
13.0840917199
 30
0.0
 10
14.7959372574
 20
13.0757304995
 30
0.0
 10
14.7911902353
 20
13.0672438754
 30
0.0
 10
14.7867628768
 20
13.0586354518
 30
0.0
 10
14.7826571099
 20
13.0499088541
 30
0.0
 10
14.7788746489
 20
13.0410677965
 30
0.0
 10
14.7754171436
 20
13.0321160111
 30
0.0
 10
14.7722860303
 20
13.0230573092
 30
0.0
 10
14.7694826768
 20
13.0138955227
 30
0.0
 10
14.7670082374
 20
13.0046345516
 30
0.0
 10
14.7648637941
 20
12.9952783187
 30
0.0
 10
14.763050217
 20
12.9858308037
 30
0.0
 10
14.7615682996
 20
12.9762960109
 30
0.0
 10
14.7604186269
 20
12.9666779904
 30
0.0
 10
14.7596017033
 20
12.9569808191
 30
0.0
 10
14.7591178291
 20
12.9472086069
 30
0.0
 10
14.7589672192
 20
12.9373655018
 30
0.0
 10
14.7591498933
 20
12.9274556347
 30
0.0
 10
14.7596657689
 20
12.9174833327
 30
0.0
 10
14.760229275
 20
12.9108242929
 30
0.0
 10
14.7605656424
 20
12.9074869765
 30
0.0
  0
SPLINE
  5
2F0
100
AcDbEntity
  8
LAYER_FEATURE
100
AcDbSpline
 62
7
  6
CONTINUOUS
 70
0
 71
3
 72
71
 73
67
 74
0
 42
0.0000001
 43
0.0000001
 44
0.0000000001
 40
0.0
 40
0.0
 40
0.0
 40
0.0
 40
0.0177513835
 40
0.0357004373
 40
0.0538335629
 40
0.0721370585
 40
0.0905964777
 40
0.109197045
 40
0.1279235594
 40
0.1467604898
 40
0.1656920068
 40
0.1847020313
 40
0.2037742782
 40
0.2228923008
 40
0.2420395341
 40
0.2611993377
 40
0.2803550391
 40
0.2994899761
 40
0.3185875401
 40
0.3376312185
 40
0.3566046389
 40
0.3754916121
 40
0.3942761766
 40
0.4129426433
 40
0.4314756406
 40
0.4498601615
 40
0.4680816106
 40
0.486125853
 40
0.5039792649
 40
0.5216287859
 40
0.5390619719
 40
0.5562670515
 40
0.573232984
 40
0.58994952
 40
0.6064072657
 40
0.6225977492
 40
0.6385134909
 40
0.6541480784
 40
0.6694962428
 40
0.6845539403
 40
0.6993184367
 40
0.713788396
 40
0.7279639711
 40
0.7418468972
 40
0.755440585
 40
0.7687502142
 40
0.7817828214
 40
0.7945473811
 40
0.8070548764
 40
0.8193183521
 40
0.8313529469
 40
0.8431758966
 40
0.8548065017
 40
0.8662660543
 40
0.8775777165
 40
0.888766348
 40
0.8998582819
 40
0.9108810504
 40
0.9218630663
 40
0.9328332707
 40
0.9438207592
 40
0.9548544018
 40
0.9659624714
 40
0.9771722976
 40
0.9885099553
 40
1.0
 40
1.0
 40
1.0
 40
1.0
 10
15.3011749023
 20
13.2851667263
 30
0.0
 10
15.3102313723
 20
13.2851667263
 30
0.0
 10
15.3284458778
 20
13.284944326
 30
0.0
 10
15.3558955528
 20
13.2839575795
 30
0.0
 10
15.3835961903
 20
13.2823170036
 30
0.0
 10
15.4115116799
 20
13.2800247641
 30
0.0
 10
15.4396060441
 20
13.2770837988
 30
0.0
 10
15.4678429046
 20
13.273497929
 30
0.0
 10
15.4961857559
 20
13.2692717862
 30
0.0
 10
15.5245979343
 20
13.2644108395
 30
0.0
 10
15.5530426902
 20
13.2589213748
 30
0.0
 10
15.5814832288
 20
13.2528104936
 30
0.0
 10
15.6098827604
 20
13.2460861018
 30
0.0
 10
15.6382045471
 20
13.2387568985
 30
0.0
 10
15.6664119513
 20
13.2308323653
 30
0.0
 10
15.694468483
 20
13.2223227536
 30
0.0
 10
15.7223378471
 20
13.2132390715
 30
0.0
 10
15.7499839903
 20
13.2035930698
 30
0.0
 10
15.7773711483
 20
13.1933972262
 30
0.0
 10
15.8044638924
 20
13.1826647295
 30
0.0
 10
15.8312271757
 20
13.1714094641
 30
0.0
 10
15.8576263789
 20
13.1596459898
 30
0.0
 10
15.8836273543
 20
13.1473895229
 30
0.0
 10
15.9091964708
 20
13.1346559163
 30
0.0
 10
15.934300657
 20
13.1214616385
 30
0.0
 10
15.9589074441
 20
13.1078237525
 30
0.0
 10
15.9829850084
 20
13.093759893
 30
0.0
 10
16.0065022117
 20
13.0792882429
 30
0.0
 10
16.0294286433
 20
13.0644275111
 30
0.0
 10
16.0517346593
 20
13.0491969068
 30
0.0
 10
16.0733914196
 20
13.0336161133
 30
0.0
 10
16.0943709252
 20
13.017705262
 30
0.0
 10
16.1146460542
 20
13.0014849057
 30
0.0
 10
16.1341905961
 20
12.9849759914
 30
0.0
 10
16.1529792852
 20
12.9681998319
 30
0.0
 10
16.1709878325
 20
12.9511780777
 30
0.0
 10
16.1881929563
 20
12.9339326878
 30
0.0
 10
16.2045724128
 20
12.9164859017
 30
0.0
 10
16.220105021
 20
12.8988602081
 30
0.0
 10
16.2347706882
 20
12.8810783152
 30
0.0
 10
16.2485504327
 20
12.8631631209
 30
0.0
 10
16.2614264056
 20
12.8451376834
 30
0.0
 10
16.2733819095
 20
12.8270251913
 30
0.0
 10
16.2844014163
 20
12.8088489357
 30
0.0
 10
16.2944705822
 20
12.7906322814
 30
0.0
 10
16.3035762636
 20
12.7723986419
 30
0.0
 10
16.3117065286
 20
12.7541714538
 30
0.0
 10
16.318850667
 20
12.7359741535
 30
0.0
 10
16.3249992009
 20
12.7178301569
 30
0.0
 10
16.3301438965
 20
12.6997628404
 30
0.0
 10
16.3342777766
 20
12.6817955246
 30
0.0
 10
16.3373951365
 20
12.6639514579
 30
0.0
 10
16.3394915621
 20
12.6462538004
 30
0.0
 10
16.3405639528
 20
12.6287256053
 30
0.0
 10
16.3406105502
 20
12.6113897966
 30
0.0
 10
16.3396309616
 20
12.5942691393
 30
0.0
 10
16.3376261869
 20
12.577386203
 30
0.0
 10
16.3345986424
 20
12.5607633165
 30
0.0
 10
16.3305521763
 20
12.5444225138
 30
0.0
 10
16.3254920741
 20
12.5283854742
 30
0.0
 10
16.3194250552
 20
12.5126734649
 30
0.0
 10
16.3123592394
 20
12.4973072655
 30
0.0
 10
16.3043041701
 20
12.482307175
 30
0.0
 10
16.2952705798
 20
12.4676927356
 30
0.0
 10
16.2852710762
 20
12.4534835821
 30
0.0
 10
16.2780217953
 20
12.4443588988
 30
0.0
 10
16.2742481249
 20
12.4398730459
 30
0.0
  0
SPLINE
  5
2F1
100
AcDbEntity
  8
LAYER_FEATURE
100
AcDbSpline
 62
7
  6
CONTINUOUS
 70
0
 71
3
 72
14
 73
10
 74
0
 42
0.0000001
 43
0.0000001
 44
0.0000000001
 40
0.0
 40
0.0
 40
0.0
 40
0.0
 40
0.2547750515
 40
0.3819089428
 40
0.5083544014
 40
0.6337412133
 40
0.7577058557
 40
0.8799050021
 40
1.0
 40
1.0
 40
1.0
 40
1.0
 10
16.2633982266
 20
12.6891959038
 30
0.0
 10
16.265862466
 20
12.6883108577
 30
0.0
 10
16.2696091908
 20
12.6871248021
 30
0.0
 10
16.2746728207
 20
12.6858351889
 30
0.0
 10
16.2784822407
 20
12.6850196366
 30
0.0
 10
16.2822883905
 20
12.6843588578
 30
0.0
 10
16.2860746328
 20
12.6838557167
 30
0.0
 10
16.2898240595
 20
12.6835124909
 30
0.0
 10
16.2923120484
 20
12.6833900972
 30
0.0
 10
16.2935458279
 20
12.6833567062
 30
0.0
  0
SPLINE
  5
2F2
100
AcDbEntity
  8
LAYER_FEATURE
100
AcDbSpline
 62
7
  6
CONTINUOUS
 70
0
 71
3
 72
16
 73
12
 74
0
 42
0.0000001
 43
0.0000001
 44
0.0000000001
 40
0.0
 40
0.0
 40
0.0
 40
0.0
 40
0.1099180187
 40
0.2215838783
 40
0.3366128216
 40
0.456383437
 40
0.5184265354
 40
0.5820358515
 40
0.7142253496
 40
0.8534872034
 40
1.0
 40
1.0
 40
1.0
 40
1.0
 10
16.2125545248
 20
12.8768330207
 30
0.0
 10
16.2126398029
 20
12.8771089921
 30
0.0
 10
16.21276841
 20
12.8776797313
 30
0.0
 10
16.2128285511
 20
12.8785654481
 30
0.0
 10
16.2127567703
 20
12.8794761218
 30
0.0
 10
16.2125899088
 20
12.8802405234
 30
0.0
 10
16.2123948766
 20
12.8808555815
 30
0.0
 10
16.2121520804
 20
12.881488536
 30
0.0
 10
16.2117669708
 20
12.8822824124
 30
0.0
 10
16.2111893278
 20
12.8832184225
 30
0.0
 10
16.2107376996
 20
12.8838198092
 30
0.0
 10
16.2104942832
 20
12.8841181092
 30
0.0
  0
SPLINE
  5
2F3
100
AcDbEntity
  8
LAYER_FEATURE
100
AcDbSpline
 62
7
  6
CONTINUOUS
 70
0
 71
3
 72
23
 73
19
 74
0
 42
0.0000001
 43
0.0000001
 44
0.0000000001
 40
0.0
 40
0.0
 40
0.0
 40
0.0
 40
0.0625666855
 40
0.125996104
 40
0.1901081038
 40
0.2547162586
 40
0.3196296675
 40
0.3846547103
 40
0.4495967769
 40
0.514261989
 40
0.5784589269
 40
0.6420003865
 40
0.7047052094
 40
0.7663999844
 40
0.8269215298
 40
0.8861171812
 40
0.9438515318
 40
1.0
 40
1.0
 40
1.0
 40
1.0
 10
16.1921748353
 20
12.8109059909
 30
0.0
 10
16.1932711079
 20
12.8102790024
 30
0.0
 10
16.1955056849
 20
12.8090628556
 30
0.0
 10
16.1989487822
 20
12.8073665121
 30
0.0
 10
16.202494113
 20
12.8057912493
 30
0.0
 10
16.2061258603
 20
12.8043441061
 30
0.0
 10
16.2098279189
 20
12.8030314952
 30
0.0
 10
16.2135838431
 20
12.801859249
 30
0.0
 10
16.2173769549
 20
12.8008325727
 30
0.0
 10
16.2211904094
 20
12.7999560263
 30
0.0
 10
16.2250072733
 20
12.7992335037
 30
0.0
 10
16.2288106014
 20
12.798668212
 30
0.0
 10
16.232583511
 20
12.7982626625
 30
0.0
 10
16.2363092707
 20
12.7980186507
 30
0.0
 10
16.2399713339
 20
12.7979372767
 30
0.0
 10
16.2435535404
 20
12.7980188907
 30
0.0
 10
16.2470398539
 20
12.7982631654
 30
0.0
 10
16.2493233193
 20
12.7985377581
 30
0.0
 10
16.2504445426
 20
12.7987031306
 30
0.0
  0
SPLINE
  5
2F4
100
AcDbEntity
  8
LAYER_FEATURE
100
AcDbSpline
 62
7
  6
CONTINUOUS
 70
0
 71
3
 72
18
 73
14
 74
0
 42
0.0000001
 43
0.0000001
 44
0.0000000001
 40
0.0
 40
0.0
 40
0.0
 40
0.0
 40
0.0513062944
 40
0.1029824867
 40
0.1553855808
 40
0.2088476914
 40
0.2636677924
 40
0.3201041054
 40
0.4385531696
 40
0.5654982498
 40
0.7014805346
 40
0.8464729842
 40
1.0
 40
1.0
 40
1.0
 40
1.0
 10
16.1018779069
 20
12.9864396289
 30
0.0
 10
16.1019349896
 20
12.9866243388
 30
0.0
 10
16.1020302778
 20
12.9870013633
 30
0.0
 10
16.1021144479
 20
12.987581783
 30
0.0
 10
16.1021398078
 20
12.9881758785
 30
0.0
 10
16.1021063675
 20
12.9887813566
 30
0.0
 10
16.1020142896
 20
12.9893960578
 30
0.0
 10
16.101810753
 20
12.9902383337
 30
0.0
 10
16.1014042542
 20
12.991306058
 30
0.0
 10
16.1007022487
 20
12.9925647495
 30
0.0
 10
16.0997889938
 20
12.9938056044
 30
0.0
 10
16.0986777935
 20
12.9950118301
 30
0.0
 10
16.0978374449
 20
12.9957623871
 30
0.0
 10
16.0973899222
 20
12.9961289908
 30
0.0
  0
SPLINE
  5
2F5
100
AcDbEntity
  8
LAYER_FEATURE
100
AcDbSpline
 62
7
  6
CONTINUOUS
 70
0
 71
3
 72
11
 73
7
 74
0
 42
0.0000001
 43
0.0000001
 44
0.0000000001
 40
0.0
 40
0.0
 40
0.0
 40
0.0
 40
0.2723198748
 40
0.4026275074
 40
0.529165152
 40
1.0
 40
1.0
 40
1.0
 40
1.0
 10
15.8274887004
 20
12.0239246392
 30
0.0
 10
15.8269829293
 20
12.0233187002
 30
0.0
 10
15.8262046581
 20
12.0224473784
 30
0.0
 10
15.8251167115
 20
12.0213656007
 30
0.0
 10
15.8235614042
 20
12.0199417343
 30
0.0
 10
15.8221570366
 20
12.0189028301
 30
0.0
 10
15.8209744157
 20
12.0182218895
 30
0.0
  0
SPLINE
  5
2F6
100
AcDbEntity
  8
LAYER_FEATURE
100
AcDbSpline
 62
7
  6
CONTINUOUS
 70
0
 71
3
 72
24
 73
20
 74
0
 42
0.0000001
 43
0.0000001
 44
0.0000000001
 40
0.0
 40
0.0
 40
0.0
 40
0.0
 40
0.059490812
 40
0.1212257978
 40
0.1848768019
 40
0.2500716128
 40
0.3164046209
 40
0.3834466956
 40
0.4507544394
 40
0.5178791847
 40
0.5843758944
 40
0.6498120892
 40
0.713777124
 40
0.7758918775
 40
0.8358191606
 40
0.8932754227
 40
0.921012016
 40
0.9480555976
 40
1.0
 40
1.0
 40
1.0
 40
1.0
 10
16.0847556081
 20
12.9311024117
 30
0.0
 10
16.0860625385
 20
12.9299663142
 30
0.0
 10
16.0888162881
 20
12.9277538052
 30
0.0
 10
16.0932401803
 20
12.9246827732
 30
0.0
 10
16.0979977251
 20
12.9218220929
 30
0.0
 10
16.1030418219
 20
12.9192001163
 30
0.0
 10
16.1083229065
 20
12.9168425454
 30
0.0
 10
16.1137889252
 20
12.9147726293
 30
0.0
 10
16.1193860046
 20
12.9130107744
 30
0.0
 10
16.1250589529
 20
12.9115743437
 30
0.0
 10
16.130751843
 20
12.9104774965
 30
0.0
 10
16.1364085884
 20
12.9097310551
 30
0.0
 10
16.141973485
 20
12.909342374
 30
0.0
 10
16.1473919054
 20
12.9093153123
 30
0.0
 10
16.1526104532
 20
12.9096502142
 30
0.0
 10
16.1567987966
 20
12.9102351146
 30
0.0
 10
16.1600011385
 20
12.9108870079
 30
0.0
 10
16.1630163645
 20
12.9116373283
 30
0.0
 10
16.1652097777
 20
12.9123420547
 30
0.0
 10
16.1666234148
 20
12.9128785958
 30
0.0
  0
SPLINE
  5
2F7
100
AcDbEntity
  8
LAYER_FEATURE
100
AcDbSpline
 62
7
  6
CONTINUOUS
 70
0
 71
3
 72
22
 73
18
 74
0
 42
0.0000001
 43
0.0000001
 44
0.0000000001
 40
0.0
 40
0.0
 40
0.0
 40
0.0
 40
0.0482332003
 40
0.0970103853
 40
0.1468459187
 40
0.1981996807
 40
0.2514603274
 40
0.3069366377
 40
0.3648554062
 40
0.4253651344
 40
0.4885423795
 40
0.5543986374
 40
0.6228873234
 40
0.6939127202
 40
0.7673348306
 40
0.8429729692
 40
1.0
 40
1.0
 40
1.0
 40
1.0
 10
15.9600595344
 20
13.083673017
 30
0.0
 10
15.9601311227
 20
13.0839046825
 30
0.0
 10
15.9602447043
 20
13.0843806343
 30
0.0
 10
15.9603220502
 20
13.0851167009
 30
0.0
 10
15.9603066027
 20
13.0858723434
 30
0.0
 10
15.9601986863
 20
13.0866429621
 30
0.0
 10
15.9599992188
 20
13.087424223
 30
0.0
 10
15.9597095638
 20
13.0882117903
 30
0.0
 10
15.9593315474
 20
13.0890013878
 30
0.0
 10
15.9588674067
 20
13.089788754
 30
0.0
 10
15.9583197876
 20
13.0905696376
 30
0.0
 10
15.9576917619
 20
13.0913398051
 30
0.0
 10
15.9569868324
 20
13.0920950816
 30
0.0
 10
15.9562089107
 20
13.0928313302
 30
0.0
 10
15.9553622664
 20
13.0935445358
 30
0.0
 10
15.9541329374
 20
13.0944708795
 30
0.0
 10
15.9531448499
 20
13.0951014407
 30
0.0
 10
15.9524606969
 20
13.0954952398
 30
0.0
  0
SPLINE
  5
2F8
100
AcDbEntity
  8
LAYER_FEATURE
100
AcDbSpline
 62
7
  6
CONTINUOUS
 70
0
 71
3
 72
38
 73
34
 74
0
 42
0.0000001
 43
0.0000001
 44
0.0000000001
 40
0.0
 40
0.0
 40
0.0
 40
0.0
 40
0.0269591013
 40
0.0549087287
 40
0.0838281616
 40
0.1136825668
 40
0.14442467
 40
0.1759962994
 40
0.2083298019
 40
0.2413493327
 40
0.2749720454
 40
0.3091092009
 40
0.3436672113
 40
0.3785486318
 40
0.4136531218
 40
0.4488783799
 40
0.4841210537
 40
0.5192776398
 40
0.5542453825
 40
0.5889231791
 40
0.6232125049
 40
0.6570183666
 40
0.690250281
 40
0.7228233
 40
0.7546590958
 40
0.7856871227
 40
0.8158458692
 40
0.8450842291
 40
0.873363015
 40
0.9006565265
 40
0.9269545453
 40
0.9522634828
 40
1.0
 40
1.0
 40
1.0
 40
1.0
 10
15.9473264429
 20
13.0425876246
 30
0.0
 10
15.9478956115
 20
13.0417719931
 30
0.0
 10
15.9491119394
 20
13.0401499773
 30
0.0
 10
15.9511189207
 20
13.0377947294
 30
0.0
 10
15.9533330408
 20
13.0354827836
 30
0.0
 10
15.9557445536
 20
13.0332242591
 30
0.0
 10
15.9583430008
 20
13.0310288677
 30
0.0
 10
15.9611170724
 20
13.0289061252
 30
0.0
 10
15.964054704
 20
13.0268652346
 30
0.0
 10
15.9671431123
 20
13.0249150609
 30
0.0
 10
15.9703688541
 20
13.0230640839
 30
0.0
 10
15.9737178826
 20
13.0213203596
 30
0.0
 10
15.9771756094
 20
13.0196914829
 30
0.0
 10
15.9807269673
 20
13.0181845511
 30
0.0
 10
15.9843564771
 20
13.0168061303
 30
0.0
 10
15.9880483172
 20
13.0155622287
 30
0.0
 10
15.9917863936
 20
13.0144582686
 30
0.0
 10
15.9955544105
 20
13.0134990628
 30
0.0
 10
15.9993359424
 20
13.012688793
 30
0.0
 10
16.0031145071
 20
13.0120309924
 30
0.0
 10
16.0068736383
 20
13.0115285289
 30
0.0
 10
16.0105969594
 20
13.0111835916
 30
0.0
 10
16.0142682567
 20
13.0109976852
 30
0.0
 10
16.0178715513
 20
13.0109716249
 30
0.0
 10
16.0213911703
 20
13.0111055353
 30
0.0
 10
16.0248118142
 20
13.0113988525
 30
0.0
 10
16.0281186304
 20
13.0118503342
 30
0.0
 10
16.0312972582
 20
13.0124580582
 30
0.0
 10
16.034333958
 20
13.0132194803
 30
0.0
 10
16.0372154264
 20
13.0141312983
 30
0.0
 10
16.0399296963
 20
13.0151900303
 30
0.0
 10
16.043243287
 20
13.0167596855
 30
0.0
 10
16.0455479874
 20
13.0181868987
 30
0.0
 10
16.0469538236
 20
13.0192476388
 30
0.0
  0
SPLINE
  5
2F9
100
AcDbEntity
  8
LAYER_FEATURE
100
AcDbSpline
 62
7
  6
CONTINUOUS
 70
0
 71
3
 72
23
 73
19
 74
0
 42
0.0000001
 43
0.0000001
 44
0.0000000001
 40
0.0
 40
0.0
 40
0.0
 40
0.0
 40
0.0458335859
 40
0.0924100892
 40
0.1404149948
 40
0.1904317066
 40
0.2429163681
 40
0.2981906481
 40
0.3564472592
 40
0.4177621929
 40
0.482109376
 40
0.5493752454
 40
0.6193723641
 40
0.6918511242
 40
0.7665118134
 40
0.843009747
 40
0.9209753114
 40
1.0
 40
1.0
 40
1.0
 40
1.0
 10
15.7953413814
 20
13.1628823322
 30
0.0
 10
15.7954275009
 20
13.1631610194
 30
0.0
 10
15.795556954
 20
13.1637376221
 30
0.0
 10
15.7956157008
 20
13.1646325848
 30
0.0
 10
15.7955398879
 20
13.165552877
 30
0.0
 10
15.7953307964
 20
13.1664904173
 30
0.0
 10
15.7949908502
 20
13.1674377385
 30
0.0
 10
15.7945232971
 20
13.1683874425
 30
0.0
 10
15.7939322056
 20
13.1693322309
 30
0.0
 10
15.793222465
 20
13.1702648286
 30
0.0
 10
15.7923998101
 20
13.1711780085
 30
0.0
 10
15.791470824
 20
13.1720646397
 30
0.0
 10
15.790442916
 20
13.1729177469
 30
0.0
 10
15.7893242785
 20
13.1737305903
 30
0.0
 10
15.7881238408
 20
13.1744966961
 30
0.0
 10
15.7868511639
 20
13.175209998
 30
0.0
 10
15.7855164789
 20
13.1758647384
 30
0.0
 10
15.7845969339
 20
13.1762568167
 30
0.0
 10
15.784129367
 20
13.1764420509
 30
0.0
  0
SPLINE
  5
2FA
100
AcDbEntity
  8
02___PRT_ALL_AXES
100
AcDbSpline
 62
7
  6
CONTINUOUS
 70
0
 71
3
 72
39
 73
35
 74
0
 42
0.0000001
 43
0.0000001
 44
0.0000000001
 40
0.0
 40
0.0
 40
0.0
 40
0.0
 40
0.039665382
 40
0.0788626135
 40
0.1175692048
 40
0.1557638041
 40
0.1934266659
 40
0.2305396241
 40
0.2670862409
 40
0.3030519228
 40
0.3384240482
 40
0.3731921007
 40
0.4073478092
 40
0.4408852948
 40
0.4738012208
 40
0.5060949475
 40
0.5377686921
 40
0.5688276902
 40
0.5992803577
 40
0.6291384461
 40
0.6584171903
 40
0.6871354432
 40
0.7153157893
 40
0.7429846313
 40
0.7701722373
 40
0.7969127399
 40
0.82324408
 40
0.8492078824
 40
0.8748492566
 40
0.9002165148
 40
0.9253608057
 40
0.950335667
 40
0.9751965029
 40
1.0
 40
1.0
 40
1.0
 40
1.0
 10
15.1402624889
 20
12.3083801986
 30
0.0
 10
15.1348074251
 20
12.3083801986
 30
0.0
 10
15.1239612482
 20
12.3082578814
 30
0.0
 10
15.1078004952
 20
12.3077003425
 30
0.0
 10
15.0918593574
 20
12.3067704229
 30
0.0
 10
15.0761559186
 20
12.3054691602
 30
0.0
 10
15.0607078782
 20
12.3037980168
 30
0.0
 10
15.0455326695
 20
12.3017588658
 30
0.0
 10
15.0306474092
 20
12.2993539956
 30
0.0
 10
15.016068887
 20
12.296586103
 30
0.0
 10
15.0018135443
 20
12.2934582902
 30
0.0
 10
14.9878974572
 20
12.2899740607
 30
0.0
 10
14.9743363184
 20
12.2861373137
 30
0.0
 10
14.9611454195
 20
12.2819523416
 30
0.0
 10
14.9483396355
 20
12.2774238223
 30
0.0
 10
14.9359334091
 20
12.2725568129
 30
0.0
 10
14.9239407368
 20
12.2673567442
 30
0.0
 10
14.9123751543
 20
12.2618294129
 30
0.0
 10
14.9012497227
 20
12.2559809779
 30
0.0
 10
14.8905770176
 20
12.2498179514
 30
0.0
 10
14.8803691177
 20
12.2433471926
 30
0.0
 10
14.8706375945
 20
12.2365759024
 30
0.0
 10
14.8613935027
 20
12.2295116172
 30
0.0
 10
14.8526473688
 20
12.2221622067
 30
0.0
 10
14.8444091824
 20
12.2145358683
 30
0.0
 10
14.8366883865
 20
12.2066411243
 30
0.0
 10
14.8294938659
 20
12.1984868199
 30
0.0
 10
14.8228339345
 20
12.190082119
 30
0.0
 10
14.8167163201
 20
12.1814365076
 30
0.0
 10
14.8111481442
 20
12.172559773
 30
0.0
 10
14.806135921
 20
12.16346205
 30
0.0
 10
14.8016854784
 20
12.1541536164
 30
0.0
 10
14.7978021616
 20
12.1446455958
 30
0.0
 10
14.7955931961
 20
12.1381775645
 30
0.0
 10
14.794586063
 20
12.1349184782
 30
0.0
  0
SPLINE
  5
2FB
100
AcDbEntity
  8
LAYER_FEATURE
100
AcDbSpline
 62
7
  6
CONTINUOUS
 70
0
 71
3
 72
41
 73
37
 74
0
 42
0.0000001
 43
0.0000001
 44
0.0000000001
 40
0.0
 40
0.0
 40
0.0
 40
0.0
 40
0.024321231
 40
0.0498208081
 40
0.0765811865
 40
0.1046419748
 40
0.1340046988
 40
0.1646376905
 40
0.1964807082
 40
0.2294491325
 40
0.2634377256
 40
0.2983239986
 40
0.3339712564
 40
0.3702313872
 40
0.4069474597
 40
0.4439561812
 40
0.4810902597
 40
0.5181807091
 40
0.5550591315
 40
0.5915600062
 40
0.6275230212
 40
0.6627954803
 40
0.6972348268
 40
0.730711333
 40
0.7631110127
 40
0.7943388238
 40
0.8243222296
 40
0.8530151812
 40
0.8804025365
 40
0.9065048608
 40
0.9313832807
 40
0.9551440516
 40
0.9666567205
 40
0.9779521859
 40
0.9890575654
 40
1.0
 40
1.0
 40
1.0
 40
1.0
 10
15.7878400406
 20
13.1387135946
 30
0.0
 10
15.7881306311
 20
13.1376940818
 30
0.0
 10
15.7888492312
 20
13.135639281
 30
0.0
 10
15.7902770269
 20
13.1326162981
 30
0.0
 10
15.7920684744
 20
13.1296026366
 30
0.0
 10
15.7942109025
 20
13.1266185379
 30
0.0
 10
15.7966897261
 20
13.1236833762
 30
0.0
 10
15.7994881826
 20
13.1208165382
 30
0.0
 10
15.8025874477
 20
13.1180370072
 30
0.0
 10
15.8059666946
 20
13.1153632968
 30
0.0
 10
15.8096032136
 20
13.11281328
 30
0.0
 10
15.8134725493
 20
13.1104040549
 30
0.0
 10
15.8175486603
 20
13.1081518101
 30
0.0
 10
15.8218040934
 20
13.1060717032
 30
0.0
 10
15.8262101704
 20
13.1041777482
 30
0.0
 10
15.8307371846
 20
13.1024827135
 30
0.0
 10
15.8353546052
 20
13.100998031
 30
0.0
 10
15.8400312876
 20
13.0997337148
 30
0.0
 10
15.844735689
 20
13.0986982926
 30
0.0
 10
15.8494360863
 20
13.0978987468
 30
0.0
 10
15.8541007962
 20
13.0973404692
 30
0.0
 10
15.8586983954
 20
13.097027227
 30
0.0
 10
15.8631979398
 20
13.0969611438
 30
0.0
 10
15.8675691797
 20
13.0971426945
 30
0.0
 10
15.8717827697
 20
13.0975707164
 30
0.0
 10
15.87581047
 20
13.0982424392
 30
0.0
 10
15.8796253303
 20
13.0991535296
 30
0.0
 10
15.883201863
 20
13.1002981708
 30
0.0
 10
15.8865161414
 20
13.101669106
 30
0.0
 10
15.8895459972
 20
13.1032578642
 30
0.0
 10
15.8922706391
 20
13.1050543566
 30
0.0
 10
15.894292704
 20
13.1067334957
 30
0.0
 10
15.8957306102
 20
13.1081678008
 30
0.0
 10
15.8967105582
 20
13.1092759332
 30
0.0
 10
15.8976012757
 20
13.1104256258
 30
0.0
 10
15.8981381742
 20
13.111223746
 30
0.0
 10
15.8983905309
 20
13.1116284773
 30
0.0
  0
SPLINE
  5
2FC
100
AcDbEntity
  8
LAYER_FEATURE
100
AcDbSpline
 62
7
  6
CONTINUOUS
 70
0
 71
3
 72
25
 73
21
 74
0
 42
0.0000001
 43
0.0000001
 44
0.0000000001
 40
0.0
 40
0.0
 40
0.0
 40
0.0
 40
0.0220176624
 40
0.0441557955
 40
0.0665367536
 40
0.0892750929
 40
0.1361903026
 40
0.1856407926
 40
0.2381214206
 40
0.2939253483
 40
0.3531636283
 40
0.4157910167
 40
0.481631956
 40
0.5504040673
 40
0.6217386413
 40
0.6951985424
 40
0.7702938956
 40
0.8464967967
 40
0.9232536863
 40
1.0
 40
1.0
 40
1.0
 40
1.0
 10
15.6172962495
 20
13.2194642226
 30
0.0
 10
15.6173465093
 20
13.2196268481
 30
0.0
 10
15.6174323781
 20
13.2199578173
 30
0.0
 10
15.617515725
 20
13.2204660784
 30
0.0
 10
15.6175535854
 20
13.2209853657
 30
0.0
 10
15.6175432833
 20
13.2216975604
 30
0.0
 10
15.6174120884
 20
13.2226134197
 30
0.0
 10
15.6170755239
 20
13.2237178578
 30
0.0
 10
15.6165633295
 20
13.2248282162
 30
0.0
 10
15.615881863
 20
13.2259327554
 30
0.0
 10
15.6150389328
 20
13.2270201444
 30
0.0
 10
15.614043827
 20
13.2280790138
 30
0.0
 10
15.6129073679
 20
13.2290981822
 30
0.0
 10
15.611641872
 20
13.2300667653
 30
0.0
 10
15.6102610611
 20
13.2309743401
 30
0.0
 10
15.6087799283
 20
13.2318110853
 30
0.0
 10
15.607214588
 20
13.2325679143
 30
0.0
 10
15.6055820664
 20
13.2332365912
 30
0.0
 10
15.6039002381
 20
13.2338098128
 30
0.0
 10
15.602755275
 20
13.2341250008
 30
0.0
 10
15.6021787375
 20
13.2342650898
 30
0.0
  0
SPLINE
  5
2FD
100
AcDbEntity
  8
LAYER_FEATURE
100
AcDbSpline
 62
7
  6
CONTINUOUS
 70
0
 71
3
 72
11
 73
7
 74
0
 42
0.0000001
 43
0.0000001
 44
0.0000000001
 40
0.0
 40
0.0
 40
0.0
 40
0.0
 40
0.226231285
 40
0.4669965394
 40
0.7244187847
 40
1.0
 40
1.0
 40
1.0
 40
1.0
 10
15.8198882802
 20
12.1788231847
 30
0.0
 10
15.8205624029
 20
12.178497708
 30
0.0
 10
15.821908365
 20
12.1777284199
 30
0.0
 10
15.8238355042
 20
12.1762950167
 30
0.0
 10
15.8257210297
 20
12.1745568998
 30
0.0
 10
15.8269043682
 20
12.173245781
 30
0.0
 10
15.8274887009
 20
12.1725457256
 30
0.0
  0
SPLINE
  5
2FE
100
AcDbEntity
  8
LAYER_FEATURE
100
AcDbSpline
 62
7
  6
CONTINUOUS
 70
0
 71
3
 72
45
 73
41
 74
0
 42
0.0000001
 43
0.0000001
 44
0.0000000001
 40
0.0
 40
0.0
 40
0.0
 40
0.0
 40
0.0111082609
 40
0.0223471733
 40
0.033759468
 40
0.0453846971
 40
0.0572584457
 40
0.0694120964
 40
0.0946504724
 40
0.1212757977
 40
0.1493826472
 40
0.1790046749
 40
0.2101226394
 40
0.2426722952
 40
0.2765515988
 40
0.3116270887
 40
0.3477395343
 40
0.3847089998
 40
0.4223394138
 40
0.4604227934
 40
0.4987432328
 40
0.5370807589
 40
0.5752151127
 40
0.6129295135
 40
0.6500144853
 40
0.686271836
 40
0.7215188518
 40
0.7555927959
 40
0.7883558616
 40
0.8197007182
 40
0.8495568131
 40
0.8778974538
 40
0.904747591
 40
0.9301918616
 40
0.9424378211
 40
0.9543951023
 40
0.9660936732
 40
0.9775678439
 40
0.9888559887
 40
1.0
 40
1.0
 40
1.0
 40
1.0
 10
15.6155199898
 20
13.2137356844
 30
0.0
 10
15.6154380803
 20
13.2132150888
 30
0.0
 10
15.6153152346
 20
13.2121607122
 30
0.0
 10
15.6152548409
 20
13.2105587157
 30
0.0
 10
15.615317497
 20
13.208932226
 30
0.0
 10
15.6155029959
 20
13.2072849479
 30
0.0
 10
15.6158108259
 20
13.2056203455
 30
0.0
 10
15.6163905606
 20
13.2033545597
 30
0.0
 10
15.617429978
 20
13.2004918437
 30
0.0
 10
15.6191320266
 20
13.1970929155
 30
0.0
 10
15.6212887579
 20
13.1937141037
 30
0.0
 10
15.6238811078
 20
13.1903835104
 30
0.0
 10
15.6268868611
 20
13.187128399
 30
0.0
 10
15.6302804636
 20
13.1839758305
 30
0.0
 10
15.6340331629
 20
13.1809521594
 30
0.0
 10
15.6381131612
 20
13.1780828252
 30
0.0
 10
15.6424858535
 20
13.1753920645
 30
0.0
 10
15.6471141134
 20
13.1729026792
 30
0.0
 10
15.651958606
 20
13.1706358094
 30
0.0
 10
15.6569781269
 20
13.1686107345
 30
0.0
 10
15.6621299579
 20
13.1668446888
 30
0.0
 10
15.667370241
 20
13.1653527026
 30
0.0
 10
15.6726543659
 20
13.1641474763
 30
0.0
 10
15.6779373601
 20
13.1632392683
 30
0.0
 10
15.6831742859
 20
13.1626358118
 30
0.0
 10
15.6883206365
 20
13.1623422487
 30
0.0
 10
15.6933327315
 20
13.1623610991
 30
0.0
 10
15.6981681052
 20
13.1626922719
 30
0.0
 10
15.7027858739
 20
13.1633330973
 30
0.0
 10
15.7071470984
 20
13.1642784219
 30
0.0
 10
15.7112150405
 20
13.165520675
 30
0.0
 10
15.7149555834
 20
13.1670501945
 30
0.0
 10
15.7183367237
 20
13.1688548517
 30
0.0
 10
15.7208631912
 20
13.1705992751
 30
0.0
 10
15.722664912
 20
13.1721186708
 30
0.0
 10
15.7238919755
 20
13.1733019033
 30
0.0
 10
15.7250090328
 20
13.1745406708
 30
0.0
 10
15.7260136688
 20
13.1758324058
 30
0.0
 10
15.7269035601
 20
13.1771742169
 30
0.0
 10
15.7274217392
 20
13.1781052613
 30
0.0
 10
15.7276602293
 20
13.1785771107
 30
0.0
  0
SPLINE
  5
2FF
100
AcDbEntity
  8
02___PRT_ALL_AXES
100
AcDbSpline
 62
7
  6
CONTINUOUS
 70
0
 71
3
 72
22
 73
18
 74
0
 42
0.0000001
 43
0.0000001
 44
0.0000000001
 40
0.0
 40
0.0
 40
0.0
 40
0.0
 40
0.0526616891
 40
0.1054773078
 40
0.1587526906
 40
0.2127854506
 40
0.2678589642
 40
0.3242373428
 40
0.3821618787
 40
0.4418484577
 40
0.503486301
 40
0.5672380419
 40
0.7015456091
 40
0.7723541205
 40
0.8456745346
 40
0.9215540542
 40
1.0
 40
1.0
 40
1.0
 40
1.0
 10
15.8268369153
 20
12.180235179
 30
0.0
 10
15.8273615482
 20
12.1802351823
 30
0.0
 10
15.8284129841
 20
12.1801871563
 30
0.0
 10
15.8299817467
 20
12.1799706587
 30
0.0
 10
15.8315378836
 20
12.1796100395
 30
0.0
 10
15.8330772246
 20
12.1791060238
 30
0.0
 10
15.834595907
 20
12.1784594964
 30
0.0
 10
15.8360901727
 20
12.1776716939
 30
0.0
 10
15.8375564116
 20
12.1767440375
 30
0.0
 10
15.8389911308
 20
12.1756781993
 30
0.0
 10
15.8403910952
 20
12.1744760566
 30
0.0
 10
15.842238874
 20
12.1726630065
 30
0.0
 10
15.8439693405
 20
12.1706089057
 30
0.0
 10
15.8455813673
 20
12.1683506162
 30
0.0
 10
15.8467628328
 20
12.1665033106
 30
0.0
 10
15.8478926883
 20
12.1645360637
 30
0.0
 10
15.8485984926
 20
12.1631695687
 30
0.0
 10
15.8489427785
 20
12.1624679877
 30
0.0
  0
SPLINE
  5
300
100
AcDbEntity
  8
02___PRT_ALL_AXES
100
AcDbSpline
 62
7
  6
CONTINUOUS
 70
0
 71
3
 72
39
 73
35
 74
0
 42
0.0000001
 43
0.0000001
 44
0.0000000001
 40
0.0
 40
0.0
 40
0.0
 40
0.0
 40
0.0248034973
 40
0.0496643335
 40
0.0746391947
 40
0.0997834851
 40
0.1251507427
 40
0.1507921168
 40
0.1767559198
 40
0.2030872608
 40
0.2298277638
 40
0.2570153696
 40
0.284684211
 40
0.312864556
 40
0.3415828085
 40
0.3708615539
 40
0.4007196437
 40
0.4311723119
 40
0.4622313094
 40
0.493905052
 40
0.5261987774
 40
0.5591147045
 40
0.5926521923
 40
0.6268079021
 40
0.6615759537
 40
0.6969480775
 40
0.7329137579
 40
0.7694603751
 40
0.8065733377
 40
0.8442361876
 40
0.8824308336
 40
0.9211372865
 40
0.9603348127
 40
1.0
 40
1.0
 40
1.0
 40
1.0
 10
14.8689004238
 20
12.3753998396
 30
0.0
 10
14.8699075562
 20
12.3786589261
 30
0.0
 10
14.8721165246
 20
12.3851269565
 30
0.0
 10
14.8759998427
 20
12.3946349766
 30
0.0
 10
14.8804502853
 20
12.40394341
 30
0.0
 10
14.8854625072
 20
12.4130411335
 30
0.0
 10
14.8910306817
 20
12.4219178687
 30
0.0
 10
14.8971482954
 20
12.4305634807
 30
0.0
 10
14.9038082279
 20
12.4389681808
 30
0.0
 10
14.9110027495
 20
12.4471224847
 30
0.0
 10
14.9187235459
 20
12.4550172283
 30
0.0
 10
14.9269617321
 20
12.4626435667
 30
0.0
 10
14.9357078653
 20
12.4699929776
 30
0.0
 10
14.944951956
 20
12.4770572636
 30
0.0
 10
14.9546834788
 20
12.4838285544
 30
0.0
 10
14.9648913796
 20
12.4902993123
 30
0.0
 10
14.9755640857
 20
12.4964623379
 30
0.0
 10
14.9866895178
 20
12.5023107722
 30
0.0
 10
14.9982550999
 20
12.5078381037
 30
0.0
 10
15.0102477709
 20
12.5130381739
 30
0.0
 10
15.0226539964
 20
12.5179051844
 30
0.0
 10
15.035459781
 20
12.522433703
 30
0.0
 10
15.048650681
 20
12.5266186736
 30
0.0
 10
15.0622118204
 20
12.5304554196
 30
0.0
 10
15.076127907
 20
12.5339396497
 30
0.0
 10
15.0903832488
 20
12.5370674637
 30
0.0
 10
15.1049617704
 20
12.5398353574
 30
0.0
 10
15.1198470311
 20
12.5422402276
 30
0.0
 10
15.1350222391
 20
12.5442793761
 30
0.0
 10
15.1504702846
 20
12.5459505217
 30
0.0
 10
15.1661737096
 20
12.5472517784
 30
0.0
 10
15.1821148747
 20
12.5481817086
 30
0.0
 10
15.1982756227
 20
12.5487392382
 30
0.0
 10
15.2091218131
 20
12.5488615599
 30
0.0
 10
15.2145768502
 20
12.5488615599
 30
0.0
  0
SPLINE
  5
301
100
AcDbEntity
  8
02___PRT_ALL_AXES
100
AcDbSpline
 62
7
  6
CONTINUOUS
 70
0
 71
3
 72
56
 73
52
 74
0
 42
0.0000001
 43
0.0000001
 44
0.0000000001
 40
0.0
 40
0.0
 40
0.0
 40
0.0
 40
0.0345294132
 40
0.0697081291
 40
0.1054492283
 40
0.1416605161
 40
0.1782456822
 40
0.2151052099
 40
0.2521372626
 40
0.2892385663
 40
0.3263052722
 40
0.3632338187
 40
0.3999217931
 40
0.4362688034
 40
0.4721773729
 40
0.5075538498
 40
0.5423093677
 40
0.5594290573
 40
0.5763628928
 40
0.5931015688
 40
0.60963628
 40
0.6259587567
 40
0.6420613039
 40
0.6579368415
 40
0.6735789474
 40
0.6889819041
 40
0.7041407441
 40
0.7190512973
 40
0.7337102421
 40
0.7481151576
 40
0.7622645807
 40
0.7761580625
 40
0.7897962244
 40
0.8031808165
 40
0.8163147763
 40
0.8292022871
 40
0.8418488351
 40
0.854261258
 40
0.8664477897
 40
0.8784180964
 40
0.8901833021
 40
0.9017560001
 40
0.9131502433
 40
0.924381514
 40
0.93546667
 40
0.9464238628
 40
0.9572724291
 40
0.9680327498
 40
0.9787260815
 40
0.9893743628
 40
1.0
 40
1.0
 40
1.0
 40
1.0
 10
15.2145768502
 20
12.5488615599
 30
0.0
 10
15.2252185981
 20
12.5488615599
 30
0.0
 10
15.2467047614
 20
12.5483891674
 30
0.0
 10
15.2791460709
 20
12.5463171979
 30
0.0
 10
15.3119930472
 20
12.5428833329
 30
0.0
 10
15.3451085586
 20
12.5381018374
 30
0.0
 10
15.3783553316
 20
12.5319925876
 30
0.0
 10
15.4115952287
 20
12.5245809451
 30
0.0
 10
15.4446902005
 20
12.5158977024
 30
0.0
 10
15.4775027633
 20
12.5059789346
 30
0.0
 10
15.5098966021
 20
12.494865834
 30
0.0
 10
15.5417371485
 20
12.4826045817
 30
0.0
 10
15.5728921472
 20
12.4692460984
 30
0.0
 10
15.6032321737
 20
12.4548458753
 30
0.0
 10
15.6326313526
 20
12.4394636517
 30
0.0
 10
15.6609672561
 20
12.4231634674
 30
0.0
 10
15.6837102363
 20
12.4087995607
 30
0.0
 10
15.701265646
 20
12.3969006792
 30
0.0
 10
15.7140288676
 20
12.3878351095
 30
0.0
 10
15.7264409303
 20
12.3785932405
 30
0.0
 10
15.7384889829
 20
12.3691846294
 30
0.0
 10
15.7501604752
 20
12.3596190729
 30
0.0
 10
15.7614432688
 20
12.3499065098
 30
0.0
 10
15.7723256232
 20
12.340057034
 30
0.0
 10
15.7827962145
 20
12.3300808764
 30
0.0
 10
15.79284415
 20
12.3199884002
 30
0.0
 10
15.8024589763
 20
12.3097900855
 30
0.0
 10
15.8116306876
 20
12.299496518
 30
0.0
 10
15.8203497365
 20
12.2891183787
 30
0.0
 10
15.8286070412
 20
12.2786664311
 30
0.0
 10
15.8363939995
 20
12.2681515132
 30
0.0
 10
15.8437024956
 20
12.2575845251
 30
0.0
 10
15.8505249042
 20
12.2469764162
 30
0.0
 10
15.8568540967
 20
12.2363381751
 30
0.0
 10
15.8626834472
 20
12.2256808191
 30
0.0
 10
15.8680068394
 20
12.2150153839
 30
0.0
 10
15.8728186764
 20
12.204352916
 30
0.0
 10
15.877113879
 20
12.1937044601
 30
0.0
 10
15.8808878895
 20
12.1830810522
 30
0.0
 10
15.884136677
 20
12.1724937111
 30
0.0
 10
15.8868567403
 20
12.1619534303
 30
0.0
 10
15.889045122
 20
12.1514711732
 30
0.0
 10
15.8906994072
 20
12.1410578633
 30
0.0
 10
15.8918177289
 20
12.1307243781
 30
0.0
 10
15.8923987754
 20
12.12048154
 30
0.0
 10
15.8924417982
 20
12.1103401107
 30
0.0
 10
15.8919466242
 20
12.1003107674
 30
0.0
 10
15.8909136757
 20
12.090404135
 30
0.0
 10
15.8893439196
 20
12.0806305996
 30
0.0
 10
15.8872390719
 20
12.0710009244
 30
0.0
 10
15.8854796423
 20
12.064680653
 30
0.0
 10
15.8845127809
 20
12.0615518838
 30
0.0
  0
SPLINE
  5
302
100
AcDbEntity
  8
LAYER_CUT_FEAT
100
AcDbSpline
 62
7
  6
CONTINUOUS
 70
0
 71
3
 72
22
 73
18
 74
0
 42
0.0000001
 43
0.0000001
 44
0.0000000001
 40
0.0
 40
0.0
 40
0.0
 40
0.0
 40
0.1381197978
 40
0.2053664405
 40
0.2714549011
 40
0.3364371411
 40
0.4003725799
 40
0.4633278459
 40
0.5253764074
 40
0.5865986107
 40
0.6470813122
 40
0.7069174445
 40
0.7662054998
 40
0.8250488571
 40
0.883554961
 40
0.9418344168
 40
1.0
 40
1.0
 40
1.0
 40
1.0
 10
15.9523697236
 20
12.2184758617
 30
0.0
 10
15.9562303516
 20
12.210608729
 30
0.0
 10
15.9615499924
 20
12.1986955089
 30
0.0
 10
15.9676172109
 20
12.18257276
 30
0.0
 10
15.9715624102
 20
12.1706204065
 30
0.0
 10
15.9749382719
 20
12.1587132785
 30
0.0
 10
15.9777416062
 20
12.1468624177
 30
0.0
 10
15.9799695722
 20
12.1350792478
 30
0.0
 10
15.9816198941
 20
12.1233750245
 30
0.0
 10
15.9826908657
 20
12.1117609953
 30
0.0
 10
15.9831813332
 20
12.1002483336
 30
0.0
 10
15.9830906854
 20
12.0888481495
 30
0.0
 10
15.9824188832
 20
12.0775714646
 30
0.0
 10
15.9811664997
 20
12.0664292431
 30
0.0
 10
15.9793346302
 20
12.0554322015
 30
0.0
 10
15.9769250995
 20
12.0445914536
 30
0.0
 10
15.9749342222
 20
12.0374721953
 30
0.0
 10
15.9738446247
 20
12.0339462562
 30
0.0
  0
SPLINE
  5
303
100
AcDbEntity
  8
LAYER_CHAMFER_FEAT
100
AcDbSpline
 62
7
  6
CONTINUOUS
 70
0
 71
3
 72
43
 73
39
 74
0
 42
0.0000001
 43
0.0000001
 44
0.0000000001
 40
0.0
 40
0.0
 40
0.0
 40
0.0
 40
0.0106261666
 40
0.0212749804
 40
0.0319688438
 40
0.0427297046
 40
0.0535788084
 40
0.0645365536
 40
0.0756222554
 40
0.0868540945
 40
0.1098154976
 40
0.1335461378
 40
0.1581408782
 40
0.1836713475
 40
0.2101868782
 40
0.2377160149
 40
0.2662683006
 40
0.2958361412
 40
0.3263966286
 40
0.3579132604
 40
0.39033753
 40
0.4236103843
 40
0.4576635607
 40
0.4924208153
 40
0.5277990593
 40
0.5637094208
 40
0.6000582454
 40
0.6367480498
 40
0.6736784382
 40
0.7107469929
 40
0.7478501476
 40
0.7848840467
 40
0.8217454181
 40
0.8583323982
 40
0.8945455303
 40
0.9302883294
 40
0.9654690222
 40
1.0
 40
1.0
 40
1.0
 40
1.0
 10
15.1875033828
 20
12.0295878003
 30
0.0
 10
15.1872759896
 20
12.0288519668
 30
0.0
 10
15.1868622043
 20
12.0273655424
 30
0.0
 10
15.1863671812
 20
12.0251008023
 30
0.0
 10
15.185997993
 20
12.0228022293
 30
0.0
 10
15.1857550713
 20
12.0204723534
 30
0.0
 10
15.1856386024
 20
12.0181136156
 30
0.0
 10
15.1856487332
 20
12.0157285298
 30
0.0
 10
15.18578538
 20
12.0133195452
 30
0.0
 10
15.1861385904
 20
12.0100556582
 30
0.0
 10
15.1869038099
 20
12.0059204189
 30
0.0
 10
15.1883162858
 20
12.0009434125
 30
0.0
 10
15.1902229262
 20
11.9959347173
 30
0.0
 10
15.1926150938
 20
11.9909151871
 30
0.0
 10
15.1954823676
 20
11.9859051448
 30
0.0
 10
15.1988125311
 20
11.9809250037
 30
0.0
 10
15.2025915847
 20
11.9759950497
 30
0.0
 10
15.2068037608
 20
11.9711354286
 30
0.0
 10
15.2114315542
 20
11.9663660533
 30
0.0
 10
15.2164557692
 20
11.9617065216
 30
0.0
 10
15.2218555805
 20
11.9571760262
 30
0.0
 10
15.2276086083
 20
11.9527932664
 30
0.0
 10
15.2336910039
 20
11.948576362
 30
0.0
 10
15.2400775441
 20
11.94454277
 30
0.0
 10
15.2467417348
 20
11.9407092062
 30
0.0
 10
15.2536559197
 20
11.9370915702
 30
0.0
 10
15.260791396
 20
11.9337048751
 30
0.0
 10
15.2681185344
 20
11.9305631817
 30
0.0
 10
15.2756069034
 20
11.9276795378
 30
0.0
 10
15.2832253978
 20
11.9250659215
 30
0.0
 10
15.2909423685
 20
11.9227331906
 30
0.0
 10
15.2987257577
 20
11.9206910352
 30
0.0
 10
15.3065432304
 20
11.9189479405
 30
0.0
 10
15.3143623222
 20
11.9175111424
 30
0.0
 10
15.3221505382
 20
11.916386618
 30
0.0
 10
15.3298756149
 20
11.9155790223
 30
0.0
 10
15.3375052725
 20
11.9150917353
 30
0.0
 10
15.3425584666
 20
11.914980634
 30
0.0
 10
15.345061218
 20
11.914980634
 30
0.0
  0
SPLINE
  5
304
100
AcDbEntity
  8
02___PRT_ALL_AXES
100
AcDbSpline
 62
7
  6
CONTINUOUS
 70
0
 71
3
 72
25
 73
21
 74
0
 42
0.0000001
 43
0.0000001
 44
0.0000000001
 40
0.0
 40
0.0
 40
0.0
 40
0.0
 40
0.0687411661
 40
0.1365680516
 40
0.2034633426
 40
0.2694266165
 40
0.3344636516
 40
0.3985915789
 40
0.4618366374
 40
0.5242343302
 40
0.5858291439
 40
0.6466740989
 40
0.7068305559
 40
0.7366771644
 40
0.7663783251
 40
0.8253737139
 40
0.8839117357
 40
0.9130430976
 40
0.9420950816
 40
1.0
 40
1.0
 40
1.0
 40
1.0
 10
15.1972691081
 20
12.4928536858
 30
0.0
 10
15.1987933734
 20
12.4928536858
 30
0.0
 10
15.2018224318
 20
12.492766133
 30
0.0
 10
15.2063189506
 20
12.4923667979
 30
0.0
 10
15.2107219664
 20
12.4917022943
 30
0.0
 10
15.2150142481
 20
12.4907760893
 30
0.0
 10
15.2191792602
 20
12.4895928579
 30
0.0
 10
15.2232007998
 20
12.4881586063
 30
0.0
 10
15.2270632219
 20
12.4864804927
 30
0.0
 10
15.2307514432
 20
12.484566808
 30
0.0
 10
15.234251051
 20
12.4824268348
 30
0.0
 10
15.2375481732
 20
12.4800709272
 30
0.0
 10
15.2401232752
 20
12.477931008
 30
0.0
 10
15.2420673305
 20
12.4761229948
 30
0.0
 10
15.2439242563
 20
12.4742618035
 30
0.0
 10
15.2460983948
 20
12.471821804
 30
0.0
 10
15.2480720814
 20
12.4692327493
 30
0.0
 10
15.2495192044
 20
12.467086215
 30
0.0
 10
15.2508743222
 20
12.4648971063
 30
0.0
 10
15.2517926604
 20
12.4631986951
 30
0.0
 10
15.2523583121
 20
12.4620460245
 30
0.0
  0
SPLINE
  5
305
100
AcDbEntity
  8
02___PRT_ALL_AXES
100
AcDbSpline
 62
7
  6
CONTINUOUS
 70
0
 71
3
 72
49
 73
45
 74
0
 42
0.0000001
 43
0.0000001
 44
0.0000000001
 40
0.0
 40
0.0
 40
0.0
 40
0.0
 40
0.0287955125
 40
0.0592342961
 40
0.0912618066
 40
0.1247950677
 40
0.1597275922
 40
0.1959323417
 40
0.2332648307
 40
0.2715656582
 40
0.3106626465
 40
0.3503727196
 40
0.3905034727
 40
0.4308545513
 40
0.4712190933
 40
0.5113851702
 40
0.5511373891
 40
0.5902588363
 40
0.6285332976
 40
0.6657479527
 40
0.7016963228
 40
0.7361817241
 40
0.76902086
 40
0.7847710742
 40
0.8000491884
 40
0.8148379278
 40
0.8291216599
 40
0.8428866725
 40
0.8561211582
 40
0.868815761
 40
0.8809634461
 40
0.8925602652
 40
0.9036052232
 40
0.9141012883
 40
0.9240553916
 40
0.9334796423
 40
0.9423916338
 40
0.9508158444
 40
0.958784308
 40
0.9735124369
 40
0.9803992584
 40
0.9870546548
 40
0.9935591844
 40
1.0
 40
1.0
 40
1.0
 40
1.0
 10
15.8489427785
 20
12.1624679877
 30
0.0
 10
15.849606603
 20
12.1611152557
 30
0.0
 10
15.8508624746
 20
12.1582778417
 30
0.0
 10
15.8524940229
 20
12.1537863158
 30
0.0
 10
15.8539190373
 20
12.1489661524
 30
0.0
 10
15.8551320802
 20
12.1438468716
 30
0.0
 10
15.8561303364
 20
12.1384592683
 30
0.0
 10
15.8569132203
 20
12.1328356806
 30
0.0
 10
15.8574823383
 20
12.1270095674
 30
0.0
 10
15.8578412805
 20
12.121015311
 30
0.0
 10
15.8579954198
 20
12.1148880029
 30
0.0
 10
15.8579516859
 20
12.108663287
 30
0.0
 10
15.8577183318
 20
12.1023772325
 30
0.0
 10
15.857304705
 20
12.0960662294
 30
0.0
 10
15.8567210196
 20
12.0897668909
 30
0.0
 10
15.8559781403
 20
12.0835159458
 30
0.0
 10
15.8550873708
 20
12.0773501085
 30
0.0
 10
15.8540602529
 20
12.0713059134
 30
0.0
 10
15.8529083724
 20
12.0654194979
 30
0.0
 10
15.8516431721
 20
12.0597263547
 30
0.0
 10
15.8502757812
 20
12.0542610005
 30
0.0
 10
15.8488168363
 20
12.049056752
 30
0.0
 10
15.8475156744
 20
12.0449079627
 30
0.0
 10
15.8464331836
 20
12.0417458589
 30
0.0
 10
15.8456154877
 20
12.0394919037
 30
0.0
 10
15.844781701
 20
12.0373258736
 30
0.0
 10
15.843932784
 20
12.0352510132
 30
0.0
 10
15.8430696594
 20
12.0332704137
 30
0.0
 10
15.8421931798
 20
12.0313869984
 30
0.0
 10
15.8413041556
 20
12.0296035244
 30
0.0
 10
15.8404033183
 20
12.027922575
 30
0.0
 10
15.8394913692
 20
12.026346558
 30
0.0
 10
15.8385689174
 20
12.0248777115
 30
0.0
 10
15.8376365513
 20
12.0235180874
 30
0.0
 10
15.8366947609
 20
12.0222695862
 30
0.0
 10
15.8357439934
 20
12.0211339022
 30
0.0
 10
15.8347846816
 20
12.0201126668
 30
0.0
 10
15.8338168919
 20
12.0192071166
 30
0.0
 10
15.8325496499
 20
12.018183116
 30
0.0
 10
15.8312296497
 20
12.0173547444
 30
0.0
 10
15.8298685247
 20
12.0167690439
 30
0.0
 10
15.8288632609
 20
12.0164612382
 30
0.0
 10
15.827852082
 20
12.0162762465
 30
0.0
 10
15.8271739552
 20
12.0162351863
 30
0.0
 10
15.8268369153
 20
12.0162351832
 30
0.0
  0
SPLINE
  5
306
100
AcDbEntity
  8
LAYER_CHAMFER_FEAT
100
AcDbSpline
 62
7
  6
CONTINUOUS
 70
0
 71
3
 72
27
 73
23
 74
0
 42
0.0000001
 43
0.0000001
 44
0.0000000001
 40
0.0
 40
0.0
 40
0.0
 40
0.0
 40
0.0248063988
 40
0.0496701392
 40
0.074647923
 40
0.0997951499
 40
0.1251653785
 40
0.1508097449
 40
0.1767765901
 40
0.2031109997
 40
0.2570287791
 40
0.3128695228
 40
0.3708599293
 40
0.4311658479
 40
0.4938953619
 40
0.5591032335
 40
0.6267959397
 40
0.6969367547
 40
0.7694507149
 40
0.8442289915
 40
0.9211335322
 40
1.0
 40
1.0
 40
1.0
 40
1.0
 10
15.4263585864
 20
11.9557759598
 30
0.0
 10
15.4261217219
 20
11.9550094777
 30
0.0
 10
15.425602214
 20
11.9534883026
 30
0.0
 10
15.4246889219
 20
11.9512521735
 30
0.0
 10
15.4236422496
 20
11.9490629851
 30
0.0
 10
15.4224634614
 20
11.9469233499
 30
0.0
 10
15.4211539126
 20
11.9448356897
 30
0.0
 10
15.4197151639
 20
11.9428023889
 30
0.0
 10
15.4181488207
 20
11.9408257197
 30
0.0
 10
15.4158752753
 20
11.9382488053
 30
0.0
 10
15.412710596
 20
11.9351784965
 30
0.0
 10
15.4084665743
 20
11.9317872058
 30
0.0
 10
15.4037655407
 20
11.9286736294
 30
0.0
 10
15.3986293418
 20
11.9258513182
 30
0.0
 10
15.3930811796
 20
11.9233321637
 30
0.0
 10
15.3871460381
 20
11.9211269455
 30
0.0
 10
15.3808505229
 20
11.9192451311
 30
0.0
 10
15.3742228246
 20
11.9176948615
 30
0.0
 10
15.3672926398
 20
11.9164828848
 30
0.0
 10
15.3600909712
 20
11.9156144958
 30
0.0
 10
15.3526503264
 20
11.9150935075
 30
0.0
 10
15.3476117839
 20
11.914980634
 30
0.0
 10
15.345061218
 20
11.914980634
 30
0.0
  0
SPLINE
  5
307
100
AcDbEntity
  8
LAYER_FEATURE
100
AcDbSpline
 62
7
  6
CONTINUOUS
 70
0
 71
3
 72
25
 73
21
 74
0
 42
0.0000001
 43
0.0000001
 44
0.0000000001
 40
0.0
 40
0.0
 40
0.0
 40
0.0
 40
0.0218152365
 40
0.0438339135
 40
0.0661647885
 40
0.0889174448
 40
0.136038575
 40
0.1858753663
 40
0.2388562794
 40
0.2952102334
 40
0.3549900432
 40
0.418099402
 40
0.4843187634
 40
0.5533282755
 40
0.6247276953
 40
0.6980538603
 40
0.7727960186
 40
0.8484109391
 40
0.9243327366
 40
1.0
 40
1.0
 40
1.0
 40
1.0
 10
16.3103670141
 20
12.558674036
 30
0.0
 10
16.3104086159
 20
12.5588411644
 30
0.0
 10
16.310476673
 20
12.5591810579
 30
0.0
 10
16.3105322383
 20
12.5597011296
 30
0.0
 10
16.3105413676
 20
12.5602315231
 30
0.0
 10
16.3104911829
 20
12.5609584989
 30
0.0
 10
16.3103077035
 20
12.5618900516
 30
0.0
 10
16.3099075071
 20
12.5630080704
 30
0.0
 10
16.3093304741
 20
12.5641280528
 30
0.0
 10
16.308583663
 20
12.5652379852
 30
0.0
 10
16.3076756379
 20
12.5663262471
 30
0.0
 10
16.3066165229
 20
12.5673812046
 30
0.0
 10
16.3054180244
 20
12.5683914696
 30
0.0
 10
16.3040933689
 20
12.5693460204
 30
0.0
 10
16.3026571917
 20
12.5702343725
 30
0.0
 10
16.3011253849
 20
12.5710467189
 30
0.0
 10
16.2995149301
 20
12.5717740697
 30
0.0
 10
16.2978436826
 20
12.5724083458
 30
0.0
 10
16.2961302394
 20
12.5729425274
 30
0.0
 10
16.2949673963
 20
12.5732291816
 30
0.0
 10
16.2943832428
 20
12.5733542055
 30
0.0
  0
SPLINE
  5
308
100
AcDbEntity
  8
LAYER_FEATURE
100
AcDbSpline
 62
7
  6
CONTINUOUS
 70
0
 71
3
 72
77
 73
73
 74
0
 42
0.0000001
 43
0.0000001
 44
0.0000000001
 40
0.0
 40
0.0
 40
0.0
 40
0.0
 40
0.0053541179
 40
0.0107129252
 40
0.0160810906
 40
0.0214632434
 40
0.0268639516
 40
0.032287707
 40
0.0377389026
 40
0.0432218218
 40
0.0487406174
 40
0.0542993041
 40
0.0655501203
 40
0.0770047199
 40
0.0886891118
 40
0.1006262807
 40
0.1128361124
 40
0.1190492014
 40
0.1253364879
 40
0.1381389499
 40
0.1512553804
 40
0.1646937387
 40
0.1784593033
 40
0.1925548263
 40
0.206980693
 40
0.22173508
 40
0.2368141101
 40
0.2522120012
 40
0.2679212088
 40
0.2839325611
 40
0.3002353867
 40
0.3168176351
 40
0.3336659914
 40
0.3507659839
 40
0.3681020865
 40
0.3856578167
 40
0.403415828
 40
0.421358
 40
0.439465524
 40
0.4577189861
 40
0.4760984477
 40
0.4945835247
 40
0.513153464
 40
0.531787219
 40
0.5504635244
 40
0.5691609698
 40
0.5878580732
 40
0.6065333534
 40
0.6251654035
 40
0.6437329641
 40
0.6622149969
 40
0.6805907593
 40
0.69883988
 40
0.7169424362
 40
0.7348790318
 40
0.7526308788
 40
0.7701798799
 40
0.787508715
 40
0.8046009305
 40
0.8214410322
 40
0.8380145838
 40
0.8543083088
 40
0.8703101989
 40
0.8860096287
 40
0.901397476
 40
0.9164662501
 40
0.9312102282
 40
0.9456255937
 40
0.9597105979
 40
0.9734656811
 40
0.9868937137
 40
1.0
 40
1.0
 40
1.0
 40
1.0
 10
14.7856202381
 20
12.42258864
 30
0.0
 10
14.786348486
 20
12.4249452511
 30
0.0
 10
14.7878909364
 20
12.4296346584
 30
0.0
 10
14.7904587303
 20
12.4365853796
 30
0.0
 10
14.7932799495
 20
12.4434512182
 30
0.0
 10
14.7963533929
 20
12.4502290733
 30
0.0
 10
14.7996776863
 20
12.4569160869
 30
0.0
 10
14.8032514344
 20
12.46350935
 30
0.0
 10
14.8070730508
 20
12.4700060628
 30
0.0
 10
14.8111408997
 20
12.4764033961
 30
0.0
 10
14.8154532572
 20
12.4826986994
 30
0.0
 10
14.8215504195
 20
12.4909852358
 30
0.0
 10
14.8297890913
 20
12.5010814668
 30
0.0
 10
14.8405807797
 20
12.5126944344
 30
0.0
 10
14.8522993062
 20
12.5238352258
 30
0.0
 10
14.864923676
 20
12.5344845239
 30
0.0
 10
14.8761155622
 20
12.5428857168
 30
0.0
 10
14.8854894933
 20
12.5493465503
 30
0.0
 10
14.8952601788
 20
12.5557057818
 30
0.0
 10
14.9080075977
 20
12.5633112826
 30
0.0
 10
14.9240229664
 20
12.5718259604
 30
0.0
 10
14.9408211651
 20
12.579769254
 30
0.0
 10
14.958373224
 20
12.5871276969
 30
0.0
 10
14.976649282
 20
12.5938890085
 30
0.0
 10
14.9956181622
 20
12.6000418291
 30
0.0
 10
15.0152475456
 20
12.6055758211
 30
0.0
 10
15.0355039838
 20
12.6104816688
 30
0.0
 10
15.0563529607
 20
12.6147511035
 30
0.0
 10
15.0777589453
 20
12.6183769207
 30
0.0
 10
15.0996854512
 20
12.6213529959
 30
0.0
 10
15.1220950966
 20
12.6236742985
 30
0.0
 10
15.1449496678
 20
12.6253369033
 30
0.0
 10
15.168210184
 20
12.6263380001
 30
0.0
 10
15.1918369641
 20
12.6266758999
 30
0.0
 10
15.2157896944
 20
12.6263500405
 30
0.0
 10
15.2400274981
 20
12.6253609882
 30
0.0
 10
15.2645090056
 20
12.6237104385
 30
0.0
 10
15.2891924255
 20
12.6214012141
 30
0.0
 10
15.314035617
 20
12.6184372608
 30
0.0
 10
15.3389961621
 20
12.6148236415
 30
0.0
 10
15.3640314388
 20
12.6105665279
 30
0.0
 10
15.3890986944
 20
12.6056731906
 30
0.0
 10
15.4141551194
 20
12.6001519865
 30
0.0
 10
15.4391579204
 20
12.5940123453
 30
0.0
 10
15.4640643945
 20
12.5872647528
 30
0.0
 10
15.4888320024
 20
12.5799207337
 30
0.0
 10
15.5134184415
 20
12.5719928312
 30
0.0
 10
15.5377817186
 20
12.5634945862
 30
0.0
 10
15.5618802221
 20
12.5544405135
 30
0.0
 10
15.5856727938
 20
12.5448460766
 30
0.0
 10
15.6091187989
 20
12.5347276618
 30
0.0
 10
15.6321781965
 20
12.524102549
 30
0.0
 10
15.6548116077
 20
12.512988882
 30
0.0
 10
15.6769803838
 20
12.5014056371
 30
0.0
 10
15.698646672
 20
12.4893725902
 30
0.0
 10
15.7197734806
 20
12.4769102818
 30
0.0
 10
15.7403247423
 20
12.4640399813
 30
0.0
 10
15.7602653757
 20
12.4507836498
 30
0.0
 10
15.7795613451
 20
12.4371639015
 30
0.0
 10
15.7981797186
 20
12.4232039633
 30
0.0
 10
15.8160887235
 20
12.4089276341
 30
0.0
 10
15.8332578001
 20
12.3943592423
 30
0.0
 10
15.8496576522
 20
12.3795236027
 30
0.0
 10
15.8652602962
 20
12.3644459717
 30
0.0
 10
15.8800391053
 20
12.349152003
 30
0.0
 10
15.8939688542
 20
12.3336677
 30
0.0
 10
15.9070257523
 20
12.3180193754
 30
0.0
 10
15.919187496
 20
12.3022335854
 30
0.0
 10
15.9304332494
 20
12.2863371552
 30
0.0
 10
15.94074383
 20
12.2703568763
 30
0.0
 10
15.9501012354
 20
12.2543203783
 30
0.0
 10
15.9557614349
 20
12.2434794362
 30
0.0
 10
15.9584213817
 20
12.2380590345
 30
0.0
  0
SPLINE
  5
309
100
AcDbEntity
  8
LAYER_FEATURE
100
AcDbSpline
 62
7
  6
CONTINUOUS
 70
0
 71
3
 72
23
 73
19
 74
0
 42
0.0000001
 43
0.0000001
 44
0.0000000001
 40
0.0
 40
0.0
 40
0.0
 40
0.0
 40
0.0447763158
 40
0.0923320779
 40
0.1430283414
 40
0.1970253786
 40
0.2543129316
 40
0.3147375975
 40
0.3780297143
 40
0.4438262093
 40
0.5116905353
 40
0.5811301557
 40
0.6516122997
 40
0.7225786682
 40
0.7934591447
 40
0.8636862758
 40
0.9327066878
 40
1.0
 40
1.0
 40
1.0
 40
1.0
 10
16.3145059059
 20
12.670478232
 30
0.0
 10
16.314445142
 20
12.6708644886
 30
0.0
 10
16.3142514059
 20
12.671651277
 30
0.0
 10
16.3137749315
 20
12.6728098747
 30
0.0
 10
16.3131117659
 20
12.6739660861
 30
0.0
 10
16.3122704044
 20
12.6751065126
 30
0.0
 10
16.3112610209
 20
12.6762184272
 30
0.0
 10
16.3100955862
 20
12.6772890611
 30
0.0
 10
16.3087878533
 20
12.6783060191
 30
0.0
 10
16.3073532551
 20
12.6792574009
 30
0.0
 10
16.3058087508
 20
12.6801320066
 30
0.0
 10
16.3041726315
 20
12.6809194953
 30
0.0
 10
16.3024643015
 20
12.681610533
 30
0.0
 10
16.3007040384
 20
12.6821969154
 30
0.0
 10
16.2989127545
 20
12.6826716825
 30
0.0
 10
16.297111693
 20
12.6830291886
 30
0.0
 10
16.2953223482
 20
12.683265198
 30
0.0
 10
16.2941332481
 20
12.6833408082
 30
0.0
 10
16.2935458279
 20
12.6833567062
 30
0.0
  0
SPLINE
  5
30A
100
AcDbEntity
  8
LAYER_CUT_FEAT
100
AcDbSpline
 62
7
  6
CONTINUOUS
 70
0
 71
3
 72
77
 73
73
 74
0
 42
0.0000001
 43
0.0000001
 44
0.0000000001
 40
0.0
 40
0.0
 40
0.0
 40
0.0
 40
0.0053541179
 40
0.0107129252
 40
0.0160810906
 40
0.0214632434
 40
0.0268639516
 40
0.0322877071
 40
0.0377389026
 40
0.0432218218
 40
0.0487406174
 40
0.0542993041
 40
0.0655501203
 40
0.0770047199
 40
0.0886891118
 40
0.1006262807
 40
0.1128361124
 40
0.1190492014
 40
0.1253364879
 40
0.1381389499
 40
0.1512553804
 40
0.1646937387
 40
0.1784593033
 40
0.1925548263
 40
0.206980693
 40
0.22173508
 40
0.2368141101
 40
0.2522120012
 40
0.2679212088
 40
0.2839325611
 40
0.3002353866
 40
0.3168176351
 40
0.3336659914
 40
0.3507659839
 40
0.3681020865
 40
0.3856578166
 40
0.403415828
 40
0.421358
 40
0.439465524
 40
0.4577189861
 40
0.4760984477
 40
0.4945835247
 40
0.513153464
 40
0.5317872189
 40
0.5504635243
 40
0.5691609698
 40
0.5878580732
 40
0.6065333534
 40
0.6251654035
 40
0.6437329641
 40
0.6622149969
 40
0.6805907593
 40
0.69883988
 40
0.7169424361
 40
0.7348790318
 40
0.7526308787
 40
0.7701798799
 40
0.787508715
 40
0.8046009304
 40
0.8214410322
 40
0.8380145838
 40
0.8543083088
 40
0.8703101989
 40
0.8860096286
 40
0.9013974759
 40
0.9164662501
 40
0.9312102282
 40
0.9456255937
 40
0.9597105979
 40
0.9734656811
 40
0.9868937137
 40
1.0
 40
1.0
 40
1.0
 40
1.0
 10
14.77956858
 20
12.4030054673
 30
0.0
 10
14.7802968279
 20
12.4053620784
 30
0.0
 10
14.7818392783
 20
12.4100514857
 30
0.0
 10
14.7844070722
 20
12.4170022069
 30
0.0
 10
14.7872282914
 20
12.4238680454
 30
0.0
 10
14.7903017348
 20
12.4306459005
 30
0.0
 10
14.7936260282
 20
12.4373329141
 30
0.0
 10
14.7971997763
 20
12.4439261773
 30
0.0
 10
14.8010213927
 20
12.45042289
 30
0.0
 10
14.8050892416
 20
12.4568202233
 30
0.0
 10
14.8094015991
 20
12.4631155267
 30
0.0
 10
14.8154987614
 20
12.4714020631
 30
0.0
 10
14.8237374332
 20
12.481498294
 30
0.0
 10
14.8345291216
 20
12.4931112616
 30
0.0
 10
14.8462476481
 20
12.5042520531
 30
0.0
 10
14.8588720179
 20
12.5149013512
 30
0.0
 10
14.8700639041
 20
12.5233025441
 30
0.0
 10
14.8794378353
 20
12.5297633776
 30
0.0
 10
14.8892085207
 20
12.5361226091
 30
0.0
 10
14.9019559396
 20
12.5437281098
 30
0.0
 10
14.9179713083
 20
12.5522427877
 30
0.0
 10
14.934769507
 20
12.5601860813
 30
0.0
 10
14.9523215659
 20
12.5675445242
 30
0.0
 10
14.9705976239
 20
12.5743058358
 30
0.0
 10
14.9895665041
 20
12.5804586563
 30
0.0
 10
15.0091958875
 20
12.5859926484
 30
0.0
 10
15.0294523257
 20
12.590898496
 30
0.0
 10
15.0503013026
 20
12.5951679308
 30
0.0
 10
15.0717072872
 20
12.598793748
 30
0.0
 10
15.0936337931
 20
12.6017698232
 30
0.0
 10
15.1160434385
 20
12.6040911257
 30
0.0
 10
15.1388980097
 20
12.6057537306
 30
0.0
 10
15.1621585259
 20
12.6067548273
 30
0.0
 10
15.185785306
 20
12.6070927272
 30
0.0
 10
15.2097380363
 20
12.6067668678
 30
0.0
 10
15.23397584
 20
12.6057778155
 30
0.0
 10
15.2584573475
 20
12.6041272658
 30
0.0
 10
15.2831407674
 20
12.6018180414
 30
0.0
 10
15.3079839588
 20
12.5988540881
 30
0.0
 10
15.3329445039
 20
12.5952404688
 30
0.0
 10
15.3579797807
 20
12.5909833552
 30
0.0
 10
15.3830470363
 20
12.5860900179
 30
0.0
 10
15.4081034613
 20
12.5805688138
 30
0.0
 10
15.4331062623
 20
12.5744291726
 30
0.0
 10
15.4580127364
 20
12.5676815801
 30
0.0
 10
15.4827803443
 20
12.560337561
 30
0.0
 10
15.5073667834
 20
12.5524096585
 30
0.0
 10
15.5317300605
 20
12.5439114135
 30
0.0
 10
15.555828564
 20
12.5348573407
 30
0.0
 10
15.5796211357
 20
12.5252629039
 30
0.0
 10
15.6030671408
 20
12.5151444891
 30
0.0
 10
15.6261265383
 20
12.5045193763
 30
0.0
 10
15.6487599496
 20
12.4934057092
 30
0.0
 10
15.6709287257
 20
12.4818224644
 30
0.0
 10
15.6925950139
 20
12.4697894175
 30
0.0
 10
15.7137218225
 20
12.457327109
 30
0.0
 10
15.7342730842
 20
12.4444568085
 30
0.0
 10
15.7542137176
 20
12.4312004771
 30
0.0
 10
15.773509687
 20
12.4175807288
 30
0.0
 10
15.7921280605
 20
12.4036207906
 30
0.0
 10
15.8100370654
 20
12.3893444613
 30
0.0
 10
15.827206142
 20
12.3747760696
 30
0.0
 10
15.8436059941
 20
12.35994043
 30
0.0
 10
15.8592086381
 20
12.344862799
 30
0.0
 10
15.8739874472
 20
12.3295688302
 30
0.0
 10
15.8879171961
 20
12.3140845273
 30
0.0
 10
15.9009740942
 20
12.2984362027
 30
0.0
 10
15.9131358379
 20
12.2826504127
 30
0.0
 10
15.9243815913
 20
12.2667539824
 30
0.0
 10
15.934692172
 20
12.2507737035
 30
0.0
 10
15.9440495773
 20
12.2347372056
 30
0.0
 10
15.9497097768
 20
12.2238962635
 30
0.0
 10
15.9523697236
 20
12.2184758617
 30
0.0
  0
SPLINE
  5
30B
100
AcDbEntity
  8
LAYER_FEATURE
100
AcDbSpline
 62
7
  6
CONTINUOUS
 70
0
 71
3
 72
23
 73
19
 74
0
 42
0.0000001
 43
0.0000001
 44
0.0000000001
 40
0.0
 40
0.0
 40
0.0
 40
0.0
 40
0.0495142885
 40
0.1022198767
 40
0.1580771522
 40
0.216912216
 40
0.2784450748
 40
0.3423095125
 40
0.408072292
 40
0.4752494465
 40
0.543321258
 40
0.6117461852
 40
0.6799742192
 40
0.7474601023
 40
0.8136763851
 40
0.8781278699
 40
0.9403641951
 40
1.0
 40
1.0
 40
1.0
 40
1.0
 10
16.2742019417
 20
12.7885634339
 30
0.0
 10
16.2739946985
 20
12.7889613214
 30
0.0
 10
16.2735125484
 20
12.789755194
 30
0.0
 10
16.2726354997
 20
12.7908905947
 30
0.0
 10
16.2715926583
 20
12.791995027
 30
0.0
 10
16.270396503
 20
12.7930555115
 30
0.0
 10
16.2690611125
 20
12.79405982
 30
0.0
 10
16.2676022589
 20
12.7949961588
 30
0.0
 10
16.266037193
 20
12.7958535008
 30
0.0
 10
16.2643844562
 20
12.7966217006
 30
0.0
 10
16.2626636541
 20
12.7972916496
 30
0.0
 10
16.2608952165
 20
12.7978553938
 30
0.0
 10
16.2591001471
 20
12.7983062386
 30
0.0
 10
16.2572997578
 20
12.7986388283
 30
0.0
 10
16.2555154221
 20
12.7988492207
 30
0.0
 10
16.2537682395
 20
12.7989348989
 30
0.0
 10
16.2520790336
 20
12.798894862
 30
0.0
 10
16.2509790905
 20
12.7987819726
 30
0.0
 10
16.2504445426
 20
12.7987031306
 30
0.0
  0
SPLINE
  5
30C
100
AcDbEntity
  8
LAYER_CHAMFER_FEAT
100
AcDbSpline
 62
7
  6
CONTINUOUS
 70
0
 71
3
 72
60
 73
56
 74
0
 42
0.0000001
 43
0.0000001
 44
0.0000000001
 40
0.0
 40
0.0
 40
0.0
 40
0.0
 40
0.0157588266
 40
0.0311491482
 40
0.0461672675
 40
0.0608122797
 40
0.0750862378
 40
0.0889943716
 40
0.1025453664
 40
0.115751519
 40
0.1286289071
 40
0.1411975875
 40
0.153481638
 40
0.1655091359
 40
0.177312092
 40
0.1889261853
 40
0.2003903591
 40
0.2117463097
 40
0.2230377936
 40
0.234309822
 40
0.2456077933
 40
0.2569765906
 40
0.2684597232
 40
0.2800985324
 40
0.2919315218
 40
0.3039938673
 40
0.3163170292
 40
0.3289285135
 40
0.3418518221
 40
0.3551064376
 40
0.3687078832
 40
0.382667928
 40
0.3969947526
 40
0.4116931142
 40
0.4267646303
 40
0.4422079863
 40
0.4580191002
 40
0.4741913956
 40
0.4907159963
 40
0.5075818599
 40
0.5247760116
 40
0.542283715
 40
0.5600885773
 40
0.5781727421
 40
0.6150972269
 40
0.6528941399
 40
0.6913810707
 40
0.7303640922
 40
0.7696412591
 40
0.8090059816
 40
0.8482502937
 40
0.8871681263
 40
0.9255585987
 40
0.9632290616
 40
1.0
 40
1.0
 40
1.0
 40
1.0
 10
15.2210548292
 20
12.0632854623
 30
0.0
 10
15.2193988821
 20
12.0628960221
 30
0.0
 10
15.2161400353
 20
12.0620635118
 30
0.0
 10
15.2113641156
 20
12.0606349146
 30
0.0
 10
15.2067667269
 20
12.0590437356
 30
0.0
 10
15.2023569646
 20
12.0572930866
 30
0.0
 10
15.1981434501
 20
12.0553863284
 30
0.0
 10
15.1941344724
 20
12.0533271007
 30
0.0
 10
15.1903379051
 20
12.0511193697
 30
0.0
 10
15.1867612311
 20
12.0487673669
 30
0.0
 10
15.1834115473
 20
12.0462755725
 30
0.0
 10
15.1802955107
 20
12.0436487797
 30
0.0
 10
15.1774193563
 20
12.0408920445
 30
0.0
 10
15.1747889155
 20
12.0380106704
 30
0.0
 10
15.1724095418
 20
12.0350102722
 30
0.0
 10
15.1702861173
 20
12.0318967423
 30
0.0
 10
15.1684230722
 20
12.0286762299
 30
0.0
 10
15.1668242862
 20
12.025355184
 30
0.0
 10
15.1654930759
 20
12.0219403145
 30
0.0
 10
15.1644322257
 20
12.0184385495
 30
0.0
 10
15.1636438933
 20
12.0148570356
 30
0.0
 10
15.1631296035
 20
12.0112030834
 30
0.0
 10
15.1628903199
 20
12.00748412
 30
0.0
 10
15.162926387
 20
12.0037076706
 30
0.0
 10
15.1632375363
 20
11.9998813182
 30
0.0
 10
15.1638229856
 20
11.9960126882
 30
0.0
 10
15.164681401
 20
11.9921094399
 30
0.0
 10
15.165810887
 20
11.9881792444
 30
0.0
 10
15.167209079
 20
11.9842297976
 30
0.0
 10
15.1688731092
 20
11.9802688127
 30
0.0
 10
15.1707995755
 20
11.9763039932
 30
0.0
 10
15.1729846203
 20
11.9723430555
 30
0.0
 10
15.1754239073
 20
11.9683937145
 30
0.0
 10
15.1781125811
 20
11.9644636423
 30
0.0
 10
15.1810453388
 20
11.9605604934
 30
0.0
 10
15.1842164207
 20
11.9566918874
 30
0.0
 10
15.1876195735
 20
11.9528653572
 30
0.0
 10
15.1912481131
 20
11.9490883738
 30
0.0
 10
15.1950949312
 20
11.9453683332
 30
0.0
 10
15.1991524634
 20
11.9417124989
 30
0.0
 10
15.203412748
 20
11.9381280208
 30
0.0
 10
15.207867428
 20
11.9346219452
 30
0.0
 10
15.21250779
 20
11.9312010927
 30
0.0
 10
15.2189747932
 20
11.9267318836
 30
0.0
 10
15.2274679194
 20
11.9214071844
 30
0.0
 10
15.2381751744
 20
11.915504476
 30
0.0
 10
15.2493849286
 20
11.9100905925
 30
0.0
 10
15.2610092796
 20
11.9052079924
 30
0.0
 10
15.2729573908
 20
11.9008947967
 30
0.0
 10
15.2851357759
 20
11.8971847797
 30
0.0
 10
15.2974491704
 20
11.8941069577
 30
0.0
 10
15.3098012047
 20
11.8916853931
 30
0.0
 10
15.3220954277
 20
11.8899390603
 30
0.0
 10
15.3342352147
 20
11.8888815777
 30
0.0
 10
15.342272682
 20
11.8886380676
 30
0.0
 10
15.3462420094
 20
11.8886380676
 30
0.0
  0
SPLINE
  5
30D
100
AcDbEntity
  8
LAYER_FEATURE
100
AcDbSpline
 62
7
  6
CONTINUOUS
 70
0
 71
3
 72
23
 73
19
 74
0
 42
0.0000001
 43
0.0000001
 44
0.0000000001
 40
0.0
 40
0.0
 40
0.0
 40
0.0
 40
0.0560726356
 40
0.1150505327
 40
0.1766376782
 40
0.2404544131
 40
0.3060593493
 40
0.3729634652
 40
0.4406453395
 40
0.5085646337
 40
0.5761753469
 40
0.6429388605
 40
0.7083371699
 40
0.7718867111
 40
0.8331529023
 40
0.8917669534
 40
0.9474424298
 40
1.0
 40
1.0
 40
1.0
 40
1.0
 10
16.1917974412
 20
12.9060669588
 30
0.0
 10
16.1914575548
 20
12.9064496857
 30
0.0
 10
16.1907207603
 20
12.907200599
 30
0.0
 10
16.1894945667
 20
12.9082503325
 30
0.0
 10
16.1881321807
 20
12.9092415035
 30
0.0
 10
16.1866498201
 20
12.9101623175
 30
0.0
 10
16.1850649914
 20
12.9110019604
 30
0.0
 10
16.1833964827
 20
12.9117504777
 30
0.0
 10
16.1816640896
 20
12.9123989954
 30
0.0
 10
16.1798883824
 20
12.9129398118
 30
0.0
 10
16.1780904503
 20
12.9133665045
 30
0.0
 10
16.1762916397
 20
12.9136740066
 30
0.0
 10
16.1745132903
 20
12.9138586689
 30
0.0
 10
16.1727764604
 20
12.913918289
 30
0.0
 10
16.1711016907
 20
12.9138521447
 30
0.0
 10
16.1695086421
 20
12.9136609118
 30
0.0
 10
16.1680162453
 20
12.9133468045
 30
0.0
 10
16.1670719676
 20
12.9130488425
 30
0.0
 10
16.1666234148
 20
12.9128785958
 30
0.0
  0
SPLINE
  5
30E
100
AcDbEntity
  8
LAYER_FEATURE
100
AcDbSpline
 62
7
  6
CONTINUOUS
 70
0
 71
3
 72
23
 73
19
 74
0
 42
0.0000001
 43
0.0000001
 44
0.0000000001
 40
0.0
 40
0.0
 40
0.0
 40
0.0
 40
0.063535433
 40
0.1292628367
 40
0.1967205817
 40
0.2653990815
 40
0.3347599831
 40
0.4042478738
 40
0.4733044909
 40
0.5413818623
 40
0.607956005
 40
0.6725411716
 40
0.7347051803
 40
0.7940864269
 40
0.8504130016
 40
0.8773851399
 40
0.9035445988
 40
1.0
 40
1.0
 40
1.0
 40
1.0
 10
16.0720814545
 20
13.016159929
 30
0.0
 10
16.0716313216
 20
13.0165042654
 30
0.0
 10
16.0706874153
 20
13.0171686976
 30
0.0
 10
16.0691823651
 20
13.0180734772
 30
0.0
 10
16.0675785702
 20
13.0188950034
 30
0.0
 10
16.0658951464
 20
13.019623452
 30
0.0
 10
16.064152049
 20
13.0202502077
 30
0.0
 10
16.0623699816
 20
13.0207678188
 30
0.0
 10
16.0605701077
 20
13.0211701413
 30
0.0
 10
16.0587737948
 20
13.0214523975
 30
0.0
 10
16.0570023445
 20
13.0216112366
 30
0.0
 10
16.0552767353
 20
13.0216447635
 30
0.0
 10
16.0536173239
 20
13.0215525484
 30
0.0
 10
16.0520437159
 20
13.021335592
 30
0.0
 10
16.0508016529
 20
13.021048833
 30
0.0
 10
16.0498693486
 20
13.0207567615
 30
0.0
 10
16.048619756
 20
13.0202905223
 30
0.0
 10
16.0476406316
 20
13.0197658533
 30
0.0
 10
16.0469538236
 20
13.0192476388
 30
0.0
  0
SPLINE
  5
30F
100
AcDbEntity
  8
LAYER_FEATURE
100
AcDbSpline
 62
7
  6
CONTINUOUS
 70
0
 71
3
 72
24
 73
20
 74
0
 42
0.0000001
 43
0.0000001
 44
0.0000000001
 40
0.0
 40
0.0
 40
0.0
 40
0.0
 40
0.0712155892
 40
0.1435981435
 40
0.2165785772
 40
0.2895701359
 40
0.3619875875
 40
0.4332588545
 40
0.5028403104
 40
0.570231696
 40
0.6349926184
 40
0.6967608111
 40
0.7552729835
 40
0.81038897
 40
0.8621191862
 40
0.9106548569
 40
0.9563938494
 40
0.978423723
 40
1.0
 40
1.0
 40
1.0
 40
1.0
 10
15.9220114395
 20
13.1124441413
 30
0.0
 10
15.9214792442
 20
13.1127305457
 30
0.0
 10
15.9203861796
 20
13.1132716964
 30
0.0
 10
15.918688756
 20
13.1139796773
 30
0.0
 10
15.9169358361
 20
13.1145843574
 30
0.0
 10
15.9151483234
 20
13.1150784958
 30
0.0
 10
15.913347429
 20
13.1154562432
 30
0.0
 10
15.9115545319
 20
13.1157131085
 30
0.0
 10
15.909790888
 20
13.1158460434
 30
0.0
 10
15.9080773681
 20
13.1158534568
 30
0.0
 10
15.9064341943
 20
13.1157352187
 30
0.0
 10
15.9048806912
 20
13.1154926293
 30
0.0
 10
15.9034350498
 20
13.1151283419
 30
0.0
 10
15.9021141724
 20
13.1146462848
 30
0.0
 10
15.9009334808
 20
13.1140514099
 30
0.0
 10
15.8999072629
 20
13.1133499787
 30
0.0
 10
15.8991820866
 20
13.1126734721
 30
0.0
 10
15.8986978508
 20
13.1120889948
 30
0.0
 10
15.8984874109
 20
13.1117838542
 30
0.0
 10
15.8983905309
 20
13.1116284773
 30
0.0
  0
SPLINE
  5
310
100
AcDbEntity
  8
LAYER_FEATURE
100
AcDbSpline
 62
7
  6
CONTINUOUS
 70
0
 71
3
 72
25
 73
21
 74
0
 42
0.0000001
 43
0.0000001
 44
0.0000000001
 40
0.0
 40
0.0
 40
0.0
 40
0.0
 40
0.0769759695
 40
0.1538721663
 40
0.230135327
 40
0.3052253914
 40
0.3786285679
 40
0.4498698539
 40
0.5185271024
 40
0.5842463429
 40
0.6467591819
 40
0.7059027363
 40
0.7616424184
 40
0.8140969905
 40
0.8635632533
 40
0.9105341831
 40
0.9333128651
 40
0.9557408527
 40
0.9779298008
 40
1.0
 40
1.0
 40
1.0
 40
1.0
 10
15.7503089202
 20
13.1893239072
 30
0.0
 10
15.7497573944
 20
13.1895256656
 30
0.0
 10
15.7486425928
 20
13.1898961449
 30
0.0
 10
15.7469456234
 20
13.1903505189
 30
0.0
 10
15.7452385511
 20
13.1906998549
 30
0.0
 10
15.7435396619
 20
13.1909403964
 30
0.0
 10
15.7418670416
 20
13.1910695839
 30
0.0
 10
15.7402384913
 20
13.1910860277
 30
0.0
 10
15.7386712986
 20
13.1909895241
 30
0.0
 10
15.7371820511
 20
13.1907810302
 30
0.0
 10
15.735786459
 20
13.1904626239
 30
0.0
 10
15.7344991994
 20
13.190037421
 30
0.0
 10
15.7333338324
 20
13.189509511
 30
0.0
 10
15.7323027223
 20
13.1888837536
 30
0.0
 10
15.7314173131
 20
13.18816612
 30
0.0
 10
15.7308029497
 20
13.1874896143
 30
0.0
 10
15.7303992941
 20
13.1869128443
 30
0.0
 10
15.7301415613
 20
13.1864671286
 30
0.0
 10
15.7299267012
 20
13.186005239
 30
0.0
 10
15.729812281
 20
13.1856869688
 30
0.0
 10
15.7297625728
 20
13.1855260937
 30
0.0
  0
SPLINE
  5
311
100
AcDbEntity
  8
LAYER_FEATURE
100
AcDbSpline
 62
7
  6
CONTINUOUS
 70
0
 71
3
 72
37
 73
33
 74
0
 42
0.0000001
 43
0.0000001
 44
0.0000000001
 40
0.0
 40
0.0
 40
0.0
 40
0.0
 40
0.0938203129
 40
0.1387505314
 40
0.1822968871
 40
0.2244239502
 40
0.2650999748
 40
0.3043002983
 40
0.3420093028
 40
0.3782202634
 40
0.4129364659
 40
0.4461730008
 40
0.4779578334
 40
0.5083341734
 40
0.5373615375
 40
0.5651187481
 40
0.5917048248
 40
0.6172416577
 40
0.6418739747
 40
0.665769975
 40
0.6891188182
 40
0.7121272721
 40
0.7350136452
 40
0.7580005939
 40
0.7813072223
 40
0.8051416326
 40
0.8296949708
 40
0.8815711231
 40
0.9092102486
 40
0.9381108643
 40
0.9683537135
 40
1.0
 40
1.0
 40
1.0
 40
1.0
 10
15.8090825936
 20
12.139012795
 30
0.0
 10
15.8095130266
 20
12.1404056768
 30
0.0
 10
15.8101980619
 20
12.1424513225
 30
0.0
 10
15.8112068684
 20
12.145098609
 30
0.0
 10
15.8119837153
 20
12.1469738248
 30
0.0
 10
15.812790336
 20
12.1487641713
 30
0.0
 10
15.8136253435
 20
12.1504665913
 30
0.0
 10
15.8144873076
 20
12.1520781123
 30
0.0
 10
15.8153747337
 20
12.1535959544
 30
0.0
 10
15.8162861066
 20
12.1550175032
 30
0.0
 10
15.8172198851
 20
12.1563403047
 30
0.0
 10
15.8181744801
 20
12.1575620868
 30
0.0
 10
15.8191483187
 20
12.1586807248
 30
0.0
 10
15.8201397625
 20
12.159694299
 30
0.0
 10
15.8211472243
 20
12.1606009986
 30
0.0
 10
15.8221690327
 20
12.1613992348
 30
0.0
 10
15.8232035746
 20
12.1620874772
 30
0.0
 10
15.8242491261
 20
12.1626644274
 30
0.0
 10
15.8253039759
 20
12.1631288098
 30
0.0
 10
15.8263662597
 20
12.163479608
 30
0.0
 10
15.8274340422
 20
12.1637158735
 30
0.0
 10
15.828505227
 20
12.1638369994
 30
0.0
 10
15.829577634
 20
12.1638425884
 30
0.0
 10
15.8306490383
 20
12.1637326494
 30
0.0
 10
15.8317172291
 20
12.1635075044
 30
0.0
 10
15.8327801813
 20
12.1631677401
 30
0.0
 10
15.8342135457
 20
12.1625521127
 30
0.0
 10
15.8356055117
 20
12.1617113733
 30
0.0
 10
15.8369410167
 20
12.1606831165
 30
0.0
 10
15.8379500788
 20
12.1597867691
 30
0.0
 10
15.8389430808
 20
12.1587835122
 30
0.0
 10
15.8395788361
 20
12.1580611407
 30
0.0
 10
15.8398939493
 20
12.1576836187
 30
0.0
  0
SPLINE
  5
312
100
AcDbEntity
  8
LAYER_FEATURE
100
AcDbSpline
 62
7
  6
CONTINUOUS
 70
0
 71
3
 72
25
 73
21
 74
0
 42
0.0000001
 43
0.0000001
 44
0.0000000001
 40
0.0
 40
0.0
 40
0.0
 40
0.0
 40
0.0791163865
 40
0.1571077511
 40
0.2335772679
 40
0.3081689116
 40
0.380550974
 40
0.4504368807
 40
0.5175897167
 40
0.5818340146
 40
0.6430671364
 40
0.701272315
 40
0.7565326462
 40
0.7831263587
 40
0.8090679586
 40
0.8591543963
 40
0.9072669175
 40
0.953980003
 40
0.9770359874
 40
1.0
 40
1.0
 40
1.0
 40
1.0
 10
15.5669526227
 20
13.2423312542
 30
0.0
 10
15.5664681653
 20
13.2424354177
 30
0.0
 10
15.5655006458
 20
13.2426176689
 30
0.0
 10
15.5640500504
 20
13.2428125556
 30
0.0
 10
15.5626191657
 20
13.2429259463
 30
0.0
 10
15.5612192253
 20
13.2429569731
 30
0.0
 10
15.5598610787
 20
13.2429053638
 30
0.0
 10
15.5585552913
 20
13.2427715079
 30
0.0
 10
15.5573119774
 20
13.2425563944
 30
0.0
 10
15.5561407634
 20
13.2422616211
 30
0.0
 10
15.5550506705
 20
13.2418893287
 30
0.0
 10
15.5540502134
 20
13.2414422632
 30
0.0
 10
15.5532879405
 20
13.2410044144
 30
0.0
 10
15.5527329682
 20
13.2406192867
 30
0.0
 10
15.5522272443
 20
13.2402221001
 30
0.0
 10
15.551660763
 20
13.2396860703
 30
0.0
 10
15.5510902763
 20
13.2389764372
 30
0.0
 10
15.5507149466
 20
13.2383370736
 30
0.0
 10
15.5504802519
 20
13.2378052896
 30
0.0
 10
15.5503844196
 20
13.237533075
 30
0.0
 10
15.5503419522
 20
13.2373956571
 30
0.0
  0
SPLINE
  5
313
100
AcDbEntity
  8
LAYER_FEATURE
100
AcDbSpline
 62
7
  6
CONTINUOUS
 70
0
 71
3
 72
40
 73
36
 74
0
 42
0.0000001
 43
0.0000001
 44
0.0000000001
 40
0.0
 40
0.0
 40
0.0
 40
0.0
 40
0.010964591
 40
0.0221016771
 40
0.0449831807
 40
0.0688429123
 40
0.0938211655
 40
0.1200131502
 40
0.1474716853
 40
0.1762116034
 40
0.2062143211
 40
0.2374323142
 40
0.2697932232
 40
0.3032035537
 40
0.3375519908
 40
0.3727123864
 40
0.408546482
 40
0.4449064271
 40
0.4816371462
 40
0.5185785974
 40
0.5555679611
 40
0.5924417901
 40
0.6290381525
 40
0.6651987939
 40
0.7007713512
 40
0.7356116511
 40
0.7695861342
 40
0.8025744507
 40
0.8344722857
 40
0.8651944739
 40
0.894678468
 40
0.9228882078
 40
0.949818389
 40
0.9754990257
 40
1.0
 40
1.0
 40
1.0
 40
1.0
 10
15.4365233266
 20
13.2517542639
 30
0.0
 10
15.43651765
 20
13.2512815128
 30
0.0
 10
15.4365384182
 20
13.250327879
 30
0.0
 10
15.4367068467
 20
13.2483944715
 30
0.0
 10
15.4371607668
 20
13.2459334684
 30
0.0
 10
15.438073883
 20
13.2429723842
 30
0.0
 10
15.4393530908
 20
13.2399946493
 30
0.0
 10
15.4409891108
 20
13.237019592
 30
0.0
 10
15.442970727
 20
13.2340659447
 30
0.0
 10
15.4452847139
 20
13.2311525043
 30
0.0
 10
15.4479158441
 20
13.2282978705
 30
0.0
 10
15.4508469058
 20
13.2255203834
 30
0.0
 10
15.4540587668
 20
13.2228379756
 30
0.0
 10
15.457530468
 20
13.2202680381
 30
0.0
 10
15.4612393444
 20
13.2178272864
 30
0.0
 10
15.4651611642
 20
13.2155316337
 30
0.0
 10
15.4692702857
 20
13.2133960734
 30
0.0
 10
15.4735398254
 20
13.2114345706
 30
0.0
 10
15.4779418359
 20
13.2096599627
 30
0.0
 10
15.4824474926
 20
13.2080838697
 30
0.0
 10
15.4870272862
 20
13.2067166143
 30
0.0
 10
15.4916512204
 20
13.2055671516
 30
0.0
 10
15.4962890133
 20
13.2046430094
 30
0.0
 10
15.5009103005
 20
13.2039502387
 30
0.0
 10
15.50548484
 20
13.2034933763
 30
0.0
 10
15.5099827163
 20
13.2032754187
 30
0.0
 10
15.5143745425
 20
13.2032978086
 30
0.0
 10
15.5186316583
 20
13.2035604354
 30
0.0
 10
15.5227263239
 20
13.204061652
 30
0.0
 10
15.5266318977
 20
13.2047983032
 30
0.0
 10
15.5303230206
 20
13.2057657893
 30
0.0
 10
15.5337757018
 20
13.2069580841
 30
0.0
 10
15.5369676362
 20
13.2083679873
 30
0.0
 10
15.5398775494
 20
13.2099866017
 30
0.0
 10
15.541656796
 20
13.2112264598
 30
0.0
 10
15.5424880178
 20
13.2118785235
 30
0.0
  0
SPLINE
  5
314
100
AcDbEntity
  8
LAYER_FEATURE
100
AcDbSpline
 62
7
  6
CONTINUOUS
 70
0
 71
3
 72
23
 73
19
 74
0
 42
0.0000001
 43
0.0000001
 44
0.0000000001
 40
0.0
 40
0.0
 40
0.0
 40
0.0
 40
0.043674527
 40
0.0896309949
 40
0.1384519741
 40
0.1904980887
 40
0.2459281681
 40
0.3047259136
 40
0.3667298436
 40
0.4316600876
 40
0.499141859
 40
0.5687257394
 40
0.6399055068
 40
0.7121343195
 40
0.7848394133
 40
0.8574372443
 40
0.9293450563
 40
1.0
 40
1.0
 40
1.0
 40
1.0
 10
15.4365233266
 20
13.2517542639
 30
0.0
 10
15.4365277967
 20
13.2521265349
 30
0.0
 10
15.4364659946
 20
13.2528927088
 30
0.0
 10
15.4361763764
 20
13.2540415318
 30
0.0
 10
15.4356934617
 20
13.255200626
 30
0.0
 10
15.435024129
 20
13.2563564074
 30
0.0
 10
15.4341769182
 20
13.2574961126
 30
0.0
 10
15.4331620574
 20
13.2586068296
 30
0.0
 10
15.4319915827
 20
13.2596758536
 30
0.0
 10
15.4306793038
 20
13.2606907865
 30
0.0
 10
15.4292407087
 20
13.2616397538
 30
0.0
 10
15.4276928046
 20
13.2625115803
 30
0.0
 10
15.4260539245
 20
13.2632959581
 30
0.0
 10
15.4243435039
 20
13.263983587
 30
0.0
 10
15.422581854
 20
13.2645663083
 30
0.0
 10
15.4207898714
 20
13.2650371953
 30
0.0
 10
15.4189889428
 20
13.2653906579
 30
0.0
 10
15.4177827142
 20
13.2655470044
 30
0.0
 10
15.4171831177
 20
13.2656038916
 30
0.0
  0
SPLINE
  5
315
100
AcDbEntity
  8
LAYER_FEATURE
100
AcDbSpline
 62
7
  6
CONTINUOUS
 70
0
 71
3
 72
22
 73
18
 74
0
 42
0.0000001
 43
0.0000001
 44
0.0000000001
 40
0.0
 40
0.0
 40
0.0
 40
0.0
 40
0.156889706
 40
0.2324165202
 40
0.305714081
 40
0.3766130696
 40
0.444983757
 40
0.5107401984
 40
0.5738445381
 40
0.634315776
 40
0.6922360317
 40
0.7477570823
 40
0.8011065643
 40
0.8525907335
 40
0.9025921087
 40
0.9515611262
 40
1.0
 40
1.0
 40
1.0
 40
1.0
 10
15.3825985487
 20
13.2683855879
 30
0.0
 10
15.381826724
 20
13.2684364166
 30
0.0
 10
15.3806786678
 20
13.268459755
 30
0.0
 10
15.3791733774
 20
13.2683736516
 30
0.0
 10
15.3780962056
 20
13.268253309
 30
0.0
 10
15.3770625182
 20
13.2680770332
 30
0.0
 10
15.3760778047
 20
13.2678457394
 30
0.0
 10
15.3751473398
 20
13.2675606271
 30
0.0
 10
15.3742760962
 20
13.2672231409
 30
0.0
 10
15.373468737
 20
13.2668350058
 30
0.0
 10
15.3727296058
 20
13.2663981787
 30
0.0
 10
15.3720627366
 20
13.2659148375
 30
0.0
 10
15.3714718387
 20
13.2653874068
 30
0.0
 10
15.3709602955
 20
13.2648185949
 30
0.0
 10
15.3705311433
 20
13.2642113413
 30
0.0
 10
15.370187099
 20
13.2635691102
 30
0.0
 10
15.3700154834
 20
13.2631189103
 30
0.0
 10
15.3699449759
 20
13.2628907429
 30
0.0
  0
SPLINE
  5
316
100
AcDbEntity
  8
LAYER_FEATURE
100
AcDbSpline
 62
7
  6
CONTINUOUS
 70
0
 71
3
 72
38
 73
34
 74
0
 42
0.0000001
 43
0.0000001
 44
0.0000000001
 40
0.0
 40
0.0
 40
0.0
 40
0.0
 40
0.0480226941
 40
0.0734559989
 40
0.0998592028
 40
0.1272348272
 40
0.1555701916
 40
0.184838333
 40
0.2149998349
 40
0.2460042776
 40
0.2777916162
 40
0.3102934311
 40
0.3434340733
 40
0.3771317309
 40
0.4112994227
 40
0.4458459462
 40
0.480676794
 40
0.5156950271
 40
0.5508021242
 40
0.5858988168
 40
0.6208859183
 40
0.6556651625
 40
0.690140049
 40
0.7242166961
 40
0.7578047183
 40
0.7908181359
 40
0.8231763303
 40
0.8548050664
 40
0.8856375851
 40
0.9156157626
 40
0.944691378
 40
0.9728274999
 40
1.0
 40
1.0
 40
1.0
 40
1.0
 10
15.2625889137
 20
13.2572159313
 30
0.0
 10
15.2631855527
 20
13.2555760032
 30
0.0
 10
15.26432217
 20
13.2531445674
 30
0.0
 10
15.2662050095
 20
13.2500408246
 30
0.0
 10
15.2678632069
 20
13.2476850045
 30
0.0
 10
15.2697326844
 20
13.2453570417
 30
0.0
 10
15.2718058074
 20
13.2430660458
 30
0.0
 10
15.2740738156
 20
13.2408216593
 30
0.0
 10
15.276527223
 20
13.2386331683
 30
0.0
 10
15.2791557472
 20
13.2365096995
 30
0.0
 10
15.2819483799
 20
13.2344601118
 30
0.0
 10
15.2848934209
 20
13.2324929731
 30
0.0
 10
15.287978528
 20
13.2306165163
 30
0.0
 10
15.2911907672
 20
13.2288386038
 30
0.0
 10
15.294516666
 20
13.2271666901
 30
0.0
 10
15.297942269
 20
13.2256077865
 30
0.0
 10
15.3014532
 20
13.2241684335
 30
0.0
 10
15.3050347225
 20
13.2228546721
 30
0.0
 10
15.3086718023
 20
13.2216720174
 30
0.0
 10
15.3123491713
 20
13.2206254354
 30
0.0
 10
15.3160513917
 20
13.2197193216
 30
0.0
 10
15.3197629221
 20
13.2189574785
 30
0.0
 10
15.3234681843
 20
13.2183431023
 30
0.0
 10
15.3271516305
 20
13.2178787712
 30
0.0
 10
15.330797809
 20
13.2175664347
 30
0.0
 10
15.33439143
 20
13.2174074069
 30
0.0
 10
15.3379174315
 20
13.2174023626
 30
0.0
 10
15.3413610428
 20
13.2175513341
 30
0.0
 10
15.3447078537
 20
13.2178537142
 30
0.0
 10
15.3479438543
 20
13.2183082594
 30
0.0
 10
15.3510555685
 20
13.218913127
 30
0.0
 10
15.3540298387
 20
13.2196657935
 30
0.0
 10
15.3559467893
 20
13.2202748895
 30
0.0
 10
15.3568775678
 20
13.2206045048
 30
0.0
  0
SPLINE
  5
317
100
AcDbEntity
  8
LAYER_FEATURE
100
AcDbSpline
 62
7
  6
CONTINUOUS
 70
0
 71
3
 72
24
 73
20
 74
0
 42
0.0000001
 43
0.0000001
 44
0.0000000001
 40
0.0
 40
0.0
 40
0.0
 40
0.0
 40
0.0471365405
 40
0.0973921712
 40
0.1237421057
 40
0.1509008635
 40
0.2075783262
 40
0.267264071
 40
0.3296708213
 40
0.3944252152
 40
0.4610864379
 40
0.5291628739
 40
0.5981271808
 40
0.6674303638
 40
0.7365153677
 40
0.8048301703
 40
0.8718419896
 40
0.9370490775
 40
1.0
 40
1.0
 40
1.0
 40
1.0
 10
15.2625889137
 20
13.2572159313
 30
0.0
 10
15.262444742
 20
13.257612203
 30
0.0
 10
15.2620856786
 20
13.2584095117
 30
0.0
 10
15.2615058277
 20
13.2593554942
 30
0.0
 10
15.260957109
 20
13.2601046791
 30
0.0
 10
15.2603334183
 20
13.2608685275
 30
0.0
 10
15.2594475406
 20
13.2618007743
 30
0.0
 10
15.2582464945
 20
13.2628595231
 30
0.0
 10
15.2569066525
 20
13.2638617343
 30
0.0
 10
15.2554439266
 20
13.2647955777
 30
0.0
 10
15.2538755892
 20
13.2656500696
 30
0.0
 10
15.2522202286
 20
13.2664150932
 30
0.0
 10
15.25049748
 20
13.267081578
 30
0.0
 10
15.2487277983
 20
13.2676416114
 30
0.0
 10
15.2469321983
 20
13.2680885401
 30
0.0
 10
15.2451320104
 20
13.2684170624
 30
0.0
 10
15.2433485582
 20
13.2686232671
 30
0.0
 10
15.2416031147
 20
13.2687047232
 30
0.0
 10
15.2404556945
 20
13.2686745821
 30
0.0
 10
15.2398937806
 20
13.268637159
 30
0.0
  0
SPLINE
  5
318
100
AcDbEntity
  8
LAYER_FEATURE
100
AcDbSpline
 62
7
  6
CONTINUOUS
 70
0
 71
3
 72
18
 73
14
 74
0
 42
0.0000001
 43
0.0000001
 44
0.0000000001
 40
0.0
 40
0.0
 40
0.0
 40
0.0
 40
0.1531172276
 40
0.2977335862
 40
0.4334381084
 40
0.5602562509
 40
0.6787620539
 40
0.7352973898
 40
0.7902612669
 40
0.8439071939
 40
0.8965266533
 40
0.9484422577
 40
1.0
 40
1.0
 40
1.0
 40
1.0
 10
15.2079606867
 20
13.2659727252
 30
0.0
 10
15.207400224
 20
13.2659163188
 30
0.0
 10
15.2063142737
 20
13.2657601647
 30
0.0
 10
15.2047627481
 20
13.2653807639
 30
0.0
 10
15.203352139
 20
13.2648669457
 30
0.0
 10
15.2021015936
 20
13.264224902
 30
0.0
 10
15.2011925618
 20
13.2635785175
 30
0.0
 10
15.2005688907
 20
13.2630053243
 30
0.0
 10
15.200158533
 20
13.262556181
 30
0.0
 10
15.199799887
 20
13.2620826662
 30
0.0
 10
15.1994942257
 20
13.2615863729
 30
0.0
 10
15.1992427656
 20
13.2610690906
 30
0.0
 10
15.1991116485
 20
13.2607108906
 30
0.0
 10
15.1990556498
 20
13.2605296727
 30
0.0
  0
SPLINE
  5
319
100
AcDbEntity
  8
LAYER_FEATURE
100
AcDbSpline
 62
7
  6
CONTINUOUS
 70
0
 71
3
 72
23
 73
19
 74
0
 42
0.0000001
 43
0.0000001
 44
0.0000000001
 40
0.0
 40
0.0
 40
0.0
 40
0.0
 40
0.0522681199
 40
0.1072673422
 40
0.1648583074
 40
0.2248259792
 40
0.2868960295
 40
0.3507453311
 40
0.4160125342
 40
0.482307457
 40
0.5492197958
 40
0.6163274713
 40
0.6832047378
 40
0.7494301772
 40
0.814594827
 40
0.8783105462
 40
0.9402187756
 40
1.0
 40
1.0
 40
1.0
 40
1.0
 10
15.1053452367
 20
13.2348595421
 30
0.0
 10
15.1062183515
 20
13.2336537627
 30
0.0
 10
15.1081337908
 20
13.2312669935
 30
0.0
 10
15.1113824599
 20
13.2278698797
 30
0.0
 10
15.115051566
 20
13.2245927564
 30
0.0
 10
15.1191065331
 20
13.2214663502
 30
0.0
 10
15.1235095711
 20
13.2185195342
 30
0.0
 10
15.1282194755
 20
13.2157798078
 30
0.0
 10
15.1331921531
 20
13.2132727725
 30
0.0
 10
15.1383809942
 20
13.2110219235
 30
0.0
 10
15.1437373243
 20
13.2090483726
 30
0.0
 10
15.1492108715
 20
13.2073706353
 30
0.0
 10
15.1547502566
 20
13.2060044592
 30
0.0
 10
15.1603035033
 20
13.2049626744
 30
0.0
 10
15.1658184921
 20
13.2042550508
 30
0.0
 10
15.1712436488
 20
13.203888236
 30
0.0
 10
15.1765278184
 20
13.2038656684
 30
0.0
 10
15.1799902591
 20
13.204084546
 30
0.0
 10
15.1816844048
 20
13.2042549132
 30
0.0
  0
SPLINE
  5
31A
100
AcDbEntity
  8
LAYER_FEATURE
100
AcDbSpline
 62
7
  6
CONTINUOUS
 70
0
 71
3
 72
23
 73
19
 74
0
 42
0.0000001
 43
0.0000001
 44
0.0000000001
 40
0.0
 40
0.0
 40
0.0
 40
0.0
 40
0.0530507976
 40
0.1091964019
 40
0.1682387994
 40
0.229876584
 40
0.2937292311
 40
0.3593532399
 40
0.4262586588
 40
0.4939234286
 40
0.5618070888
 40
0.6293639485
 40
0.6960561268
 40
0.7613668548
 40
0.8248140694
 40
0.8859658253
 40
0.9444546883
 40
1.0
 40
1.0
 40
1.0
 40
1.0
 10
15.1053452367
 20
13.2348595421
 30
0.0
 10
15.1050610684
 20
13.235251981
 30
0.0
 10
15.1044305974
 20
13.2360274249
 30
0.0
 10
15.1033496588
 20
13.2371222344
 30
0.0
 10
15.1021185171
 20
13.2381703193
 30
0.0
 10
15.1007518322
 20
13.2391592612
 30
0.0
 10
15.0992657111
 20
13.2400775177
 30
0.0
 10
15.0976777445
 20
13.2409142355
 30
0.0
 10
15.0960067498
 20
13.241659515
 30
0.0
 10
15.0942725545
 20
13.2423045134
 30
0.0
 10
15.0924957504
 20
13.2428415728
 30
0.0
 10
15.0906974393
 20
13.2432643143
 30
0.0
 10
15.0888989733
 20
13.2435677197
 30
0.0
 10
15.0871216816
 20
13.2437481838
 30
0.0
 10
15.0853866283
 20
13.2438035666
 30
0.0
 10
15.0837142591
 20
13.2437331586
 30
0.0
 10
15.0821244746
 20
13.2435377887
 30
0.0
 10
15.0811042189
 20
13.2433196711
 30
0.0
 10
15.080614138
 20
13.2431886096
 30
0.0
  0
SPLINE
  5
31B
100
AcDbEntity
  8
LAYER_FEATURE
100
AcDbSpline
 62
7
  6
CONTINUOUS
 70
0
 71
3
 72
16
 73
12
 74
0
 42
0.0000001
 43
0.0000001
 44
0.0000000001
 40
0.0
 40
0.0
 40
0.0
 40
0.0
 40
0.1458689519
 40
0.2846516073
 40
0.4165552954
 40
0.4801003988
 40
0.5421332087
 40
0.6620421941
 40
0.7773982094
 40
0.8895342652
 40
1.0
 40
1.0
 40
1.0
 40
1.0
 10
15.0531883547
 20
13.2352328929
 30
0.0
 10
15.0528336496
 20
13.2351216605
 30
0.0
 10
15.0521497231
 20
13.2348766784
 30
0.0
 10
15.0511854536
 20
13.234429185
 30
0.0
 10
15.0504511013
 20
13.233994162
 30
0.0
 10
15.0499164334
 20
13.2336131964
 30
0.0
 10
15.0494287542
 20
13.2332208759
 30
0.0
 10
15.0488822982
 20
13.2326929087
 30
0.0
 10
15.0483314764
 20
13.2319961822
 30
0.0
 10
15.0478977109
 20
13.2312486995
 30
0.0
 10
15.047688574
 20
13.2307186226
 30
0.0
 10
15.0476054538
 20
13.2304496592
 30
0.0
  0
SPLINE
  5
31C
100
AcDbEntity
  8
LAYER_FEATURE
100
AcDbSpline
 62
7
  6
CONTINUOUS
 70
0
 71
3
 72
23
 73
19
 74
0
 42
0.0000001
 43
0.0000001
 44
0.0000000001
 40
0.0
 40
0.0
 40
0.0
 40
0.0
 40
0.0564422744
 40
0.1143839866
 40
0.173705076
 40
0.2342785512
 40
0.2959611088
 40
0.3586007001
 40
0.4220362288
 40
0.4860997441
 40
0.5506179587
 40
0.6154137859
 40
0.6803078523
 40
0.7451199706
 40
0.8096706169
 40
0.8737824285
 40
0.9372817175
 40
1.0
 40
1.0
 40
1.0
 40
1.0
 10
14.9739307265
 20
13.1859843684
 30
0.0
 10
14.9747488049
 20
13.1852496772
 30
0.0
 10
14.9764446836
 20
13.1838025824
 30
0.0
 10
14.9791207082
 20
13.1817294879
 30
0.0
 10
14.981953074
 20
13.179732507
 30
0.0
 10
14.9849299786
 20
13.177819908
 30
0.0
 10
14.9880392475
 20
13.1759995316
 30
0.0
 10
14.9912680534
 20
13.1742788704
 30
0.0
 10
14.9946031118
 20
13.1726650092
 30
0.0
 10
14.9980306826
 20
13.1711645924
 30
0.0
 10
15.0015366447
 20
13.1697837996
 30
0.0
 10
15.0051065526
 20
13.1685283196
 30
0.0
 10
15.0087256957
 20
13.167403326
 30
0.0
 10
15.012379162
 20
13.1664134557
 30
0.0
 10
15.0160518911
 20
13.1655627907
 30
0.0
 10
15.0197287706
 20
13.1648548321
 30
0.0
 10
15.0233945741
 20
13.1642925046
 30
0.0
 10
15.0258383948
 20
13.1640142686
 30
0.0
 10
15.0270549062
 20
13.1639005028
 30
0.0
  0
SPLINE
  5
31D
100
AcDbEntity
  8
LAYER_FEATURE
100
AcDbSpline
 62
7
  6
CONTINUOUS
 70
0
 71
3
 72
23
 73
19
 74
0
 42
0.0000001
 43
0.0000001
 44
0.0000000001
 40
0.0
 40
0.0
 40
0.0
 40
0.0
 40
0.0601933907
 40
0.1229331975
 40
0.187821962
 40
0.2543998346
 40
0.3221645453
 40
0.3905838198
 40
0.459109753
 40
0.5271918457
 40
0.5942902591
 40
0.6598892616
 40
0.7235113136
 40
0.7847322841
 40
0.8431980838
 40
0.8986443198
 40
0.9509167471
 40
1.0
 40
1.0
 40
1.0
 40
1.0
 10
14.9739307265
 20
13.1859843684
 30
0.0
 10
14.9735256757
 20
13.186348132
 30
0.0
 10
14.9726658358
 20
13.1870553618
 30
0.0
 10
14.9712730536
 20
13.1880304991
 30
0.0
 10
14.9697642853
 20
13.188932711
 30
0.0
 10
14.9681575033
 20
13.1897512245
 30
0.0
 10
14.9664717293
 20
13.1904763797
 30
0.0
 10
14.9647269753
 20
13.191099561
 30
0.0
 10
14.9629439592
 20
13.1916133718
 30
0.0
 10
14.9611438566
 20
13.1920117087
 30
0.0
 10
14.9593480369
 20
13.1922898432
 30
0.0
 10
14.9575777958
 20
13.192444472
 30
0.0
 10
14.9558540919
 20
13.1924737522
 30
0.0
 10
14.9541972728
 20
13.1923772949
 30
0.0
 10
14.9526268571
 20
13.1921561737
 30
0.0
 10
14.9511611726
 20
13.1918127584
 30
0.0
 10
14.9498176288
 20
13.1913509381
 30
0.0
 10
14.9489878673
 20
13.1909548574
 30
0.0
 10
14.9486009438
 20
13.1907372206
 30
0.0
  0
SPLINE
  5
31E
100
AcDbEntity
  8
LAYER_FEATURE
100
AcDbSpline
 62
7
  6
CONTINUOUS
 70
0
 71
3
 72
13
 73
9
 74
0
 42
0.0000001
 43
0.0000001
 44
0.0000000001
 40
0.0
 40
0.0
 40
0.0
 40
0.0
 40
0.2684886534
 40
0.5216355796
 40
0.6438137685
 40
0.7637983826
 40
0.8822806093
 40
1.0
 40
1.0
 40
1.0
 40
1.0
 10
14.9272763578
 20
13.1779525783
 30
0.0
 10
14.926924285
 20
13.1777276456
 30
0.0
 10
14.9262689002
 20
13.1772429193
 30
0.0
 10
14.9255658468
 20
13.1765218853
 30
0.0
 10
14.9251069564
 20
13.1759014318
 30
0.0
 10
14.9248162531
 20
13.1754203788
 30
0.0
 10
14.9245761606
 20
13.174919904
 30
0.0
 10
14.9244501973
 20
13.1745738619
 30
0.0
 10
14.924396115
 20
13.1743988458
 30
0.0
  0
SPLINE
  5
31F
100
AcDbEntity
  8
LAYER_FEATURE
100
AcDbSpline
 62
7
  6
CONTINUOUS
 70
0
 71
3
 72
14
 73
10
 74
0
 42
0.0000001
 43
0.0000001
 44
0.0000000001
 40
0.0
 40
0.0
 40
0.0
 40
0.0
 40
0.1205089046
 40
0.2429059314
 40
0.3668938226
 40
0.492181966
 40
0.618458807
 40
0.7454087861
 40
1.0
 40
1.0
 40
1.0
 40
1.0
 10
14.8759827168
 20
13.1134308576
 30
0.0
 10
14.8769531755
 20
13.1128216145
 30
0.0
 10
14.8789343013
 20
13.111632963
 30
0.0
 10
14.8819936413
 20
13.109954818
 30
0.0
 10
14.8851546035
 20
13.1083725792
 30
0.0
 10
14.8884050722
 20
13.1068922652
 30
0.0
 10
14.8917329359
 20
13.1055194231
 30
0.0
 10
14.8962599519
 20
13.1038379202
 30
0.0
 10
14.8997266817
 20
13.1027553294
 30
0.0
 10
14.9020613907
 20
13.1021156434
 30
0.0
  0
SPLINE
  5
320
100
AcDbEntity
  8
LAYER_FEATURE
100
AcDbSpline
 62
7
  6
CONTINUOUS
 70
0
 71
3
 72
23
 73
19
 74
0
 42
0.0000001
 43
0.0000001
 44
0.0000000001
 40
0.0
 40
0.0
 40
0.0
 40
0.0
 40
0.0678687926
 40
0.1373877642
 40
0.2080286317
 40
0.2792323489
 40
0.3504280282
 40
0.4210443544
 40
0.4905241494
 40
0.5583382178
 40
0.6240002608
 40
0.6870829321
 40
0.7472357369
 40
0.8042055102
 40
0.8578599141
 40
0.9082149416
 40
0.9554625494
 40
1.0
 40
1.0
 40
1.0
 40
1.0
 10
14.8759827168
 20
13.1134308576
 30
0.0
 10
14.8754826744
 20
13.1137447786
 30
0.0
 10
14.8744472162
 20
13.1143439416
 30
0.0
 10
14.8728224965
 20
13.1151438012
 30
0.0
 10
14.8711227944
 20
13.1158484698
 30
0.0
 10
14.8693683777
 20
13.1164495121
 30
0.0
 10
14.8675800624
 20
13.1169398123
 30
0.0
 10
14.8657790898
 20
13.1173135402
 30
0.0
 10
14.8639868353
 20
13.1175662619
 30
0.0
 10
14.8622245467
 20
13.1176949747
 30
0.0
 10
14.8605130772
 20
13.1176981383
 30
0.0
 10
14.8588726224
 20
13.1175756706
 30
0.0
 10
14.8573224728
 20
13.1173289214
 30
0.0
 10
14.8558807763
 20
13.1169605817
 30
0.0
 10
14.8545643946
 20
13.1164746378
 30
0.0
 10
14.8533886763
 20
13.1158760258
 30
0.0
 10
14.8523679741
 20
13.115171192
 30
0.0
 10
14.8517840963
 20
13.1146205316
 30
0.0
 10
14.851526325
 20
13.114331276
 30
0.0
  0
LINE
  5
321
100
AcDbEntity
  8
LAYER_FEATURE
100
AcDbLine
 62
7
  6
CONTINUOUS
 10
14.8375422438
 20
13.097460705
 11
14.8365881079
 21
13.0956347034
  0
SPLINE
  5
322
100
AcDbEntity
  8
LAYER_FEATURE
100
AcDbSpline
 62
7
  6
CONTINUOUS
 70
0
 71
3
 72
23
 73
19
 74
0
 42
0.0000001
 43
0.0000001
 44
0.0000000001
 40
0.0
 40
0.0
 40
0.0
 40
0.0
 40
0.0778336909
 40
0.155149376
 40
0.2314661508
 40
0.306323122
 40
0.3792880607
 40
0.4499683353
 40
0.518022122
 40
0.5831711225
 40
0.6452148736
 40
0.7040470588
 40
0.7596738726
 40
0.8122335544
 40
0.862015289
 40
0.9094708953
 40
0.9552158264
 40
1.0
 40
1.0
 40
1.0
 40
1.0
 10
14.814015527
 20
13.0225898975
 30
0.0
 10
14.8134908176
 20
13.0227502116
 30
0.0
 10
14.8124358079
 20
13.0230408862
 30
0.0
 10
14.8108402952
 20
13.0233861136
 30
0.0
 10
14.8092483856
 20
13.0236368665
 30
0.0
 10
14.8076749885
 20
13.0237907882
 30
0.0
 10
14.8061347391
 20
13.0238464422
 30
0.0
 10
14.8046419634
 20
13.0238032948
 30
0.0
 10
14.8032105095
 20
13.0236617137
 30
0.0
 10
14.8018536226
 20
13.0234229463
 30
0.0
 10
14.8005838237
 20
13.0230890812
 30
0.0
 10
14.7994128106
 20
13.0226629941
 30
0.0
 10
14.7983513995
 20
13.0221482811
 30
0.0
 10
14.7974095053
 20
13.0215491943
 30
0.0
 10
14.7965962245
 20
13.0208706696
 30
0.0
 10
14.7959198152
 20
13.0201183006
 30
0.0
 10
14.7953879042
 20
13.0192991472
 30
0.0
 10
14.7951324303
 20
13.0187104645
 30
0.0
 10
14.7950319055
 20
13.0184112116
 30
0.0
  0
SPLINE
  5
323
100
AcDbEntity
  8
02___PRT_ALL_AXES
100
AcDbSpline
 62
7
  6
CONTINUOUS
 70
0
 71
3
 72
56
 73
52
 74
0
 42
0.0000001
 43
0.0000001
 44
0.0000000001
 40
0.0
 40
0.0
 40
0.0
 40
0.0
 40
0.0345293593
 40
0.0697081243
 40
0.1054492283
 40
0.1416605154
 40
0.178245682
 40
0.2151052094
 40
0.2521372622
 40
0.2892385658
 40
0.3263052719
 40
0.3632338184
 40
0.3999217925
 40
0.4362688034
 40
0.4721773724
 40
0.5075538496
 40
0.5423093677
 40
0.5594290568
 40
0.576362892
 40
0.5931015686
 40
0.6096362804
 40
0.6259587571
 40
0.6420613035
 40
0.6579368404
 40
0.6735789468
 40
0.6889819045
 40
0.7041407449
 40
0.7190512975
 40
0.7337102413
 40
0.7481151567
 40
0.7622645806
 40
0.7761580631
 40
0.789796225
 40
0.8031808162
 40
0.8163147754
 40
0.8292022868
 40
0.8418488355
 40
0.8542612585
 40
0.8664477896
 40
0.8784180959
 40
0.8901833019
 40
0.9017560004
 40
0.9131502437
 40
0.9243815141
 40
0.9354666696
 40
0.9464238626
 40
0.9572724292
 40
0.9680327501
 40
0.9787260816
 40
0.9893743628
 40
1.0
 40
1.0
 40
1.0
 40
1.0
 10
15.1402624889
 20
12.3083801986
 30
0.0
 10
15.1509042202
 20
12.3083801986
 30
0.0
 10
15.172390382
 20
12.3079078056
 30
0.0
 10
15.2048316918
 20
12.3058358394
 30
0.0
 10
15.2376786843
 20
12.3024019714
 30
0.0
 10
15.2707941977
 20
12.2976204793
 30
0.0
 10
15.3040409699
 20
12.291511225
 30
0.0
 10
15.3372808676
 20
12.284099585
 30
0.0
 10
15.3703758399
 20
12.2754163437
 30
0.0
 10
15.4031884014
 20
12.2654975715
 30
0.0
 10
15.4355822417
 20
12.254384475
 30
0.0
 10
15.4674227878
 20
12.2421232214
 30
0.0
 10
15.4985777858
 20
12.2287647364
 30
0.0
 10
15.5289178138
 20
12.2143645164
 30
0.0
 10
15.5583169914
 20
12.1989822897
 30
0.0
 10
15.5866528958
 20
12.182682107
 30
0.0
 10
15.6093958764
 20
12.1683182008
 30
0.0
 10
15.626951285
 20
12.1564193179
 30
0.0
 10
15.6397145061
 20
12.1473537477
 30
0.0
 10
15.65212657
 20
12.1381118798
 30
0.0
 10
15.6641746236
 20
12.1287032693
 30
0.0
 10
15.6758461158
 20
12.1191377126
 30
0.0
 10
15.6871289082
 20
12.1094251487
 30
0.0
 10
15.6980112613
 20
12.099575672
 30
0.0
 10
15.7084818536
 20
12.0895995151
 30
0.0
 10
15.7185297909
 20
12.0795070398
 30
0.0
 10
15.7281446177
 20
12.0693087253
 30
0.0
 10
15.737316328
 20
12.0590151572
 30
0.0
 10
15.7460353749
 20
12.0486370169
 30
0.0
 10
15.7542926795
 20
12.0381850694
 30
0.0
 10
15.7620796396
 20
12.0276701522
 30
0.0
 10
15.7693881371
 20
12.0171031644
 30
0.0
 10
15.7762105454
 20
12.0064950554
 30
0.0
 10
15.7825397361
 20
11.9958568138
 30
0.0
 10
15.7883690853
 20
11.9851994574
 30
0.0
 10
15.793692479
 20
11.9745340227
 30
0.0
 10
15.7985043176
 20
11.9638715549
 30
0.0
 10
15.8027995202
 20
11.953223099
 30
0.0
 10
15.8065735295
 20
11.9425996909
 30
0.0
 10
15.8098223153
 20
11.9320123494
 30
0.0
 10
15.8125423798
 20
11.9214720689
 30
0.0
 10
15.8147307632
 20
11.9109898118
 30
0.0
 10
15.8163850487
 20
11.9005765019
 30
0.0
 10
15.817503369
 20
11.8902430166
 30
0.0
 10
15.8180844134
 20
11.8800001786
 30
0.0
 10
15.8181274371
 20
11.8698587493
 30
0.0
 10
15.8176322656
 20
11.8598294057
 30
0.0
 10
15.8165993177
 20
11.849922773
 30
0.0
 10
15.8150295605
 20
11.8401492377
 30
0.0
 10
15.8129247098
 20
11.8305195633
 30
0.0
 10
15.8111652811
 20
11.8241992917
 30
0.0
 10
15.8101984191
 20
11.8210705228
 30
0.0
  0
SPLINE
  5
324
100
AcDbEntity
  8
LAYER_FEATURE
100
AcDbSpline
 62
7
  6
CONTINUOUS
 70
0
 71
3
 72
53
 73
49
 74
0
 42
0.0000001
 43
0.0000001
 44
0.0000000001
 40
0.0
 40
0.0
 40
0.0
 40
0.0
 40
0.0357017651
 40
0.0730196221
 40
0.1117596407
 40
0.1517098442
 40
0.1926450474
 40
0.2343291328
 40
0.2765181204
 40
0.3189627768
 40
0.3614112526
 40
0.4036116581
 40
0.4453146462
 40
0.4862760253
 40
0.5262594449
 40
0.565039203
 40
0.6024032478
 40
0.6381564793
 40
0.6721245078
 40
0.6883928652
 40
0.7041613909
 40
0.7194162373
 40
0.7341459783
 40
0.7483417629
 40
0.7619976523
 40
0.7751110453
 40
0.7876829428
 40
0.7997186745
 40
0.811228143
 40
0.8222268294
 40
0.8327360748
 40
0.8427842376
 40
0.8524069864
 40
0.86164828
 40
0.870560396
 40
0.8792041232
 40
0.8876479297
 40
0.895966698
 40
0.9042395816
 40
0.9125473653
 40
0.9209695896
 40
0.9295818605
 40
0.9384536121
 40
0.9571982875
 40
0.9671861584
 40
0.9776306924
 40
0.9885612307
 40
1.0
 40
1.0
 40
1.0
 40
1.0
 10
15.8090825936
 20
12.139012795
 30
0.0
 10
15.8086286041
 20
12.1375436846
 30
0.0
 10
15.8077743301
 20
12.1345156282
 30
0.0
 10
15.8066714672
 20
12.1298288858
 30
0.0
 10
15.8057243387
 20
12.1249217447
 30
0.0
 10
15.8049396533
 20
12.1198284757
 30
0.0
 10
15.8043229177
 20
12.1145845292
 30
0.0
 10
15.8038784827
 20
12.1092264768
 30
0.0
 10
15.8036094774
 20
12.1037917007
 30
0.0
 10
15.8035177988
 20
12.0983181346
 30
0.0
 10
15.8036040926
 20
12.0928439894
 30
0.0
 10
15.8038677508
 20
12.0874074802
 30
0.0
 10
15.8043069151
 20
12.0820465524
 30
0.0
 10
15.8049184909
 20
12.0767986113
 30
0.0
 10
15.8056981704
 20
12.0717002479
 30
0.0
 10
15.8066404645
 20
12.0667869888
 30
0.0
 10
15.8077387494
 20
12.0620929791
 30
0.0
 10
15.8089853127
 20
12.0576509242
 30
0.0
 10
15.8101566989
 20
12.0541356392
 30
0.0
 10
15.811164987
 20
12.0514773119
 30
0.0
 10
15.811941648
 20
12.0495940381
 30
0.0
 10
15.8127482754
 20
12.0477957733
 30
0.0
 10
15.813583471
 20
12.0460856323
 30
0.0
 10
15.8144457883
 20
12.044466587
 30
0.0
 10
15.8153337444
 20
12.042941446
 30
0.0
 10
15.816245802
 20
12.0415128443
 30
0.0
 10
15.8171804254
 20
12.0401832642
 30
0.0
 10
15.8181360046
 20
12.0389549893
 30
0.0
 10
15.819110971
 20
12.037830171
 30
0.0
 10
15.8201036678
 20
12.0368107398
 30
0.0
 10
15.8211125067
 20
12.0358985281
 30
0.0
 10
15.8221358036
 20
12.0350951362
 30
0.0
 10
15.8231719383
 20
12.0344021074
 30
0.0
 10
15.8242191815
 20
12.0338207575
 30
0.0
 10
15.8252758094
 20
12.0333523638
 30
0.0
 10
15.8263399566
 20
12.0329979696
 30
0.0
 10
15.8274096732
 20
12.0327585143
 30
0.0
 10
15.8284828581
 20
12.0326346411
 30
0.0
 10
15.8295573161
 20
12.0326267281
 30
0.0
 10
15.8306308086
 20
12.0327348048
 30
0.0
 10
15.8317011128
 20
12.032958521
 30
0.0
 10
15.832766183
 20
12.0332973205
 30
0.0
 10
15.8342024305
 20
12.0339122309
 30
0.0
 10
15.8355972159
 20
12.0347532163
 30
0.0
 10
15.8369353302
 20
12.0357824602
 30
0.0
 10
15.8379463791
 20
12.0366800057
 30
0.0
 10
15.8389413097
 20
12.0376848722
 30
0.0
 10
15.8395782532
 20
12.0384085218
 30
0.0
 10
15.8398939492
 20
12.0387867443
 30
0.0
  0
SPLINE
  5
325
100
AcDbEntity
  8
LAYER_CHAMFER_FEAT
100
AcDbSpline
 62
7
  6
CONTINUOUS
 70
0
 71
3
 72
41
 73
37
 74
0
 42
0.0000001
 43
0.0000001
 44
0.0000000001
 40
0.0
 40
0.0
 40
0.0
 40
0.0
 40
0.0357356798
 40
0.0703750899
 40
0.1039087901
 40
0.136341877
 40
0.1676954304
 40
0.1829810928
 40
0.1980128834
 40
0.2273415315
 40
0.2557632295
 40
0.2833751247
 40
0.3102943797
 40
0.3366569529
 40
0.3626151745
 40
0.3883340484
 40
0.4139864144
 40
0.4397473365
 40
0.4657882611
 40
0.4922715441
 40
0.5193458619
 40
0.5471428179
 40
0.5757748211
 40
0.5904363158
 40
0.6053394664
 40
0.6358981726
 40
0.66750886
 40
0.7002057032
 40
0.7340058015
 40
0.7689106116
 40
0.8049074142
 40
0.8419706224
 40
0.8800633728
 40
0.919137892
 40
0.9591387936
 40
1.0
 40
1.0
 40
1.0
 40
1.0
 10
15.4176678122
 20
12.0025274562
 30
0.0
 10
15.4191572658
 20
12.000897505
 30
0.0
 10
15.422011419
 20
11.9976140615
 30
0.0
 10
15.4259598928
 20
11.9925476691
 30
0.0
 10
15.4294972184
 20
11.9874317013
 30
0.0
 10
15.4326112908
 20
11.9822832877
 30
0.0
 10
15.4348638675
 20
11.9779433463
 30
0.0
 10
15.4364385616
 20
11.9744726867
 30
0.0
 10
15.4378393253
 20
11.9710632251
 30
0.0
 10
15.4393162342
 20
11.9668106309
 30
0.0
 10
15.4406458703
 20
11.9617007025
 30
0.0
 10
15.4415133056
 20
11.9566426516
 30
0.0
 10
15.4419148817
 20
11.951653628
 30
0.0
 10
15.4418485616
 20
11.9467506186
 30
0.0
 10
15.441313966
 20
11.9419506434
 30
0.0
 10
15.4403125207
 20
11.937270589
 30
0.0
 10
15.4388475412
 20
11.9327270531
 30
0.0
 10
15.4369242498
 20
11.9283361308
 30
0.0
 10
15.4345496977
 20
11.9241132099
 30
0.0
 10
15.4317326385
 20
11.9200728302
 30
0.0
 10
15.4284832937
 20
11.9162285712
 30
0.0
 10
15.4248134181
 20
11.9125932169
 30
0.0
 10
15.4214418705
 20
11.9097698243
 30
0.0
 10
15.4185544592
 20
11.9076256183
 30
0.0
 10
15.4154894171
 20
11.9055252976
 30
0.0
 10
15.4114139271
 20
11.9030535339
 30
0.0
 10
15.4062016655
 20
11.9003631847
 30
0.0
 10
15.4006443566
 20
11.8979324188
 30
0.0
 10
15.3947606606
 20
11.8957691499
 30
0.0
 10
15.388570044
 20
11.8938802983
 30
0.0
 10
15.382093046
 20
11.8922719788
 30
0.0
 10
15.3753511235
 20
11.8909493944
 30
0.0
 10
15.3683666618
 20
11.8899168692
 30
0.0
 10
15.3611627517
 20
11.8891777338
 30
0.0
 10
15.3537635047
 20
11.8887344515
 30
0.0
 10
15.348766687
 20
11.8886380676
 30
0.0
 10
15.3462420094
 20
11.8886380676
 30
0.0
  0
SPLINE
  5
326
100
AcDbEntity
  8
LAYER_FEATURE
100
AcDbSpline
 62
7
  6
CONTINUOUS
 70
0
 71
3
 72
39
 73
35
 74
0
 42
0.0000001
 43
0.0000001
 44
0.0000000001
 40
0.0
 40
0.0
 40
0.0
 40
0.0
 40
0.0396651687
 40
0.0788627229
 40
0.1175691633
 40
0.1557638128
 40
0.193426663
 40
0.2305396249
 40
0.2670862415
 40
0.3030519215
 40
0.3384240456
 40
0.3731920982
 40
0.4073478088
 40
0.4408852964
 40
0.4738012216
 40
0.5060949461
 40
0.5377686893
 40
0.5688276881
 40
0.5992803577
 40
0.6291384476
 40
0.6584171909
 40
0.6871354419
 40
0.7153157872
 40
0.7429846299
 40
0.7701722372
 40
0.7969127407
 40
0.8232440803
 40
0.8492078818
 40
0.8748492557
 40
0.900216514
 40
0.9253608052
 40
0.9503356669
 40
0.9751965029
 40
1.0
 40
1.0
 40
1.0
 40
1.0
 10
15.1094899272
 20
12.763006194
 30
0.0
 10
15.1004991271
 20
12.763006194
 30
0.0
 10
15.0826228073
 20
12.7628045868
 30
0.0
 10
15.0559872195
 20
12.761885687
 30
0.0
 10
15.0297135358
 20
12.7603530067
 30
0.0
 10
15.0038316934
 20
12.7582083213
 30
0.0
 10
14.9783707559
 20
12.755453997
 30
0.0
 10
14.9533595009
 20
12.7520931425
 30
0.0
 10
14.9288261273
 20
12.7481295169
 30
0.0
 10
14.9047983102
 20
12.7435675695
 30
0.0
 10
14.8813031464
 20
12.7384124148
 30
0.0
 10
14.8583671307
 20
12.7326698277
 30
0.0
 10
14.836016127
 20
12.7263462359
 30
0.0
 10
14.8142753401
 20
12.7194487115
 30
0.0
 10
14.7931692885
 20
12.7119849606
 30
0.0
 10
14.7727217756
 20
12.7039633207
 30
0.0
 10
14.7529558675
 20
12.6953927448
 30
0.0
 10
14.7338938718
 20
12.6862827889
 30
0.0
 10
14.7155573163
 20
12.6766436022
 30
0.0
 10
14.6979669293
 20
12.666485916
 30
0.0
 10
14.6811426215
 20
12.6558210326
 30
0.0
 10
14.665103463
 20
12.6446608225
 30
0.0
 10
14.6498676703
 20
12.6330177104
 30
0.0
 10
14.6354525924
 20
12.6209046661
 30
0.0
 10
14.6218746949
 20
12.6083351996
 30
0.0
 10
14.6091495429
 20
12.5953233558
 30
0.0
 10
14.5972917837
 20
12.5818837103
 30
0.0
 10
14.5863151167
 20
12.5680313704
 30
0.0
 10
14.5762322762
 20
12.5537819711
 30
0.0
 10
14.5670549997
 20
12.5391516434
 30
0.0
 10
14.5587940237
 20
12.5241570905
 30
0.0
 10
14.5514589564
 20
12.5088152514
 30
0.0
 10
14.5450586043
 20
12.4931444599
 30
0.0
 10
14.5414178743
 20
12.48248407
 30
0.0
 10
14.5397579466
 20
12.477112558
 30
0.0
  0
SPLINE
  5
327
100
AcDbEntity
  8
LAYER_FEATURE
100
AcDbSpline
 62
7
  6
CONTINUOUS
 70
0
 71
3
 72
39
 73
35
 74
0
 42
0.0000001
 43
0.0000001
 44
0.0000000001
 40
0.0
 40
0.0
 40
0.0
 40
0.0
 40
0.0396651687
 40
0.0788627229
 40
0.1175691633
 40
0.1557638128
 40
0.193426663
 40
0.2305396249
 40
0.2670862415
 40
0.3030519215
 40
0.3384240456
 40
0.3731920982
 40
0.4073478088
 40
0.4408852964
 40
0.4738012216
 40
0.5060949461
 40
0.5377686893
 40
0.5688276881
 40
0.5992803577
 40
0.6291384476
 40
0.6584171909
 40
0.6871354419
 40
0.7153157872
 40
0.7429846299
 40
0.7701722372
 40
0.7969127407
 40
0.8232440803
 40
0.8492078818
 40
0.8748492557
 40
0.900216514
 40
0.9253608052
 40
0.9503356669
 40
0.9751965029
 40
1.0
 40
1.0
 40
1.0
 40
1.0
 10
15.2886190065
 20
13.3426681071
 30
0.0
 10
15.2796282064
 20
13.3426681071
 30
0.0
 10
15.2617518867
 20
13.3424664999
 30
0.0
 10
15.2351162989
 20
13.3415476001
 30
0.0
 10
15.2088426151
 20
13.3400149198
 30
0.0
 10
15.1829607727
 20
13.3378702345
 30
0.0
 10
15.1574998352
 20
13.3351159102
 30
0.0
 10
15.1324885802
 20
13.3317550556
 30
0.0
 10
15.1079552066
 20
13.32779143
 30
0.0
 10
15.0839273895
 20
13.3232294826
 30
0.0
 10
15.0604322257
 20
13.3180743279
 30
0.0
 10
15.03749621
 20
13.3123317408
 30
0.0
 10
15.0151452063
 20
13.3060081491
 30
0.0
 10
14.9934044194
 20
13.2991106247
 30
0.0
 10
14.9722983678
 20
13.2916468737
 30
0.0
 10
14.9518508549
 20
13.2836252339
 30
0.0
 10
14.9320849469
 20
13.2750546579
 30
0.0
 10
14.9130229511
 20
13.265944702
 30
0.0
 10
14.8946863956
 20
13.2563055153
 30
0.0
 10
14.8770960086
 20
13.2461478291
 30
0.0
 10
14.8602717008
 20
13.2354829457
 30
0.0
 10
14.8442325423
 20
13.2243227357
 30
0.0
 10
14.8289967496
 20
13.2126796236
 30
0.0
 10
14.8145816717
 20
13.2005665793
 30
0.0
 10
14.8010037742
 20
13.1879971127
 30
0.0
 10
14.7882786223
 20
13.1749852689
 30
0.0
 10
14.776420863
 20
13.1615456235
 30
0.0
 10
14.765444196
 20
13.1476932835
 30
0.0
 10
14.7553613556
 20
13.1334438842
 30
0.0
 10
14.746184079
 20
13.1188135565
 30
0.0
 10
14.737923103
 20
13.1038190037
 30
0.0
 10
14.7305880357
 20
13.0884771645
 30
0.0
 10
14.7241876837
 20
13.072806373
 30
0.0
 10
14.7205469536
 20
13.0621459831
 30
0.0
 10
14.718887026
 20
13.0567744711
 30
0.0
  0
SPLINE
  5
328
100
AcDbEntity
  8
LAYER_FEATURE
100
AcDbSpline
 62
7
  6
CONTINUOUS
 70
0
 71
3
 72
84
 73
80
 74
0
 42
0.0000001
 43
0.0000001
 44
0.0000000001
 40
0.0
 40
0.0
 40
0.0
 40
0.0
 40
0.0182270673
 40
0.0367099187
 40
0.0554255827
 40
0.0743497597
 40
0.0934572852
 40
0.1127221267
 40
0.1321175558
 40
0.1516162677
 40
0.1711905081
 40
0.1908121972
 40
0.2104530522
 40
0.2300847082
 40
0.2496788399
 40
0.2692072824
 40
0.2886421528
 40
0.3079559741
 40
0.3271217999
 40
0.3461133423
 40
0.3649051019
 40
0.3834725022
 40
0.4017920295
 40
0.4198413768
 40
0.4375995959
 40
0.455047257
 40
0.4721666167
 40
0.4889417953
 40
0.505358967
 40
0.5214065613
 40
0.5370754783
 40
0.5523593172
 40
0.567254619
 40
0.5817611193
 40
0.5958820098
 40
0.6096242015
 40
0.622998582
 40
0.6360202518
 40
0.6487087236
 40
0.6610880589
 40
0.6671714877
 40
0.6731887668
 40
0.6791441848
 40
0.6850422977
 40
0.6908879247
 40
0.6966861249
 40
0.7024421903
 40
0.708161618
 40
0.7138500923
 40
0.7195134577
 40
0.7251576898
 40
0.730788868
 40
0.7364131408
 40
0.742036695
 40
0.7476657211
 40
0.7533063796
 40
0.7589647685
 40
0.7646468907
 40
0.770358623
 40
0.7761056903
 40
0.7818936342
 40
0.7877277967
 40
0.7936132927
 40
0.7995549976
 40
0.8055575309
 40
0.8116252423
 40
0.8239704802
 40
0.836621765
 40
0.8496036911
 40
0.8629362931
 40
0.8766351747
 40
0.8907117006
 40
0.9051732305
 40
0.9200233742
 40
0.9352622546
 40
0.9508867696
 40
0.9668908472
 40
0.9832656884
 40
1.0
 40
1.0
 40
1.0
 40
1.0
 10
15.1341491391
 20
12.7446711586
 30
0.0
 10
15.1458358328
 20
12.7446711586
 30
0.0
 10
15.169374726
 20
12.7443003579
 30
0.0
 10
15.2048793266
 20
12.7426619275
 30
0.0
 10
15.2407658244
 20
12.7399407273
 30
0.0
 10
15.2769568464
 20
12.7361425769
 30
0.0
 10
15.3133748581
 20
12.7312756461
 30
0.0
 10
15.3499417169
 20
12.7253503709
 30
0.0
 10
15.3865789806
 20
12.7183794668
 30
0.0
 10
15.4232080409
 20
12.7103778884
 30
0.0
 10
15.4597503045
 20
12.7013628054
 30
0.0
 10
15.4961273601
 20
12.6913535633
 30
0.0
 10
15.5322611492
 20
12.6803716406
 30
0.0
 10
15.5680741342
 20
12.668440603
 30
0.0
 10
15.6034894663
 20
12.6555860524
 30
0.0
 10
15.6384311514
 20
12.6418355717
 30
0.0
 10
15.6728242143
 20
12.627218664
 30
0.0
 10
15.7065948611
 20
12.6117666904
 30
0.0
 10
15.7396706397
 20
12.5955128019
 30
0.0
 10
15.7719805949
 20
12.5784918645
 30
0.0
 10
15.8034554212
 20
12.5607403828
 30
0.0
 10
15.8340276123
 20
12.5422964193
 30
0.0
 10
15.8636316058
 20
12.5231995109
 30
0.0
 10
15.8922039239
 20
12.50349058
 30
0.0
 10
15.9196833094
 20
12.4832118439
 30
0.0
 10
15.9460108584
 20
12.462406722
 30
0.0
 10
15.9711301422
 20
12.4411197359
 30
0.0
 10
15.9949873249
 20
12.4193964082
 30
0.0
 10
16.017531274
 20
12.39728316
 30
0.0
 10
16.0387136624
 20
12.374827205
 30
0.0
 10
16.058489063
 20
12.3520764436
 30
0.0
 10
16.0768150329
 20
12.3290793544
 30
0.0
 10
16.0936521906
 20
12.3058848901
 30
0.0
 10
16.1089642801
 20
12.2825423708
 30
0.0
 10
16.1227182204
 20
12.2591013913
 30
0.0
 10
16.1348841532
 20
12.235611701
 30
0.0
 10
16.1454354619
 20
12.2121232278
 30
0.0
 10
16.1543488613
 20
12.1886856364
 30
0.0
 10
16.1616042181
 20
12.1653496195
 30
0.0
 10
16.1662820477
 20
12.145914951
 30
0.0
 10
16.1691634981
 20
12.1304830699
 30
0.0
 10
16.1708895506
 20
12.1190328397
 30
0.0
 10
16.1721919034
 20
12.1076463412
 30
0.0
 10
16.1730698211
 20
12.0963295618
 30
0.0
 10
16.1735228287
 20
12.0850886466
 30
0.0
 10
16.1735505882
 20
12.073929651
 30
0.0
 10
16.1731531016
 20
12.0628586104
 30
0.0
 10
16.1723305084
 20
12.051881514
 30
0.0
 10
16.1710832445
 20
12.041004307
 30
0.0
 10
16.1694119624
 20
12.0302328837
 30
0.0
 10
16.16731752
 20
12.019573092
 30
0.0
 10
16.1648010832
 20
12.0090307072
 30
0.0
 10
16.1618639511
 20
11.9986114654
 30
0.0
 10
16.1585077703
 20
11.9883210065
 30
0.0
 10
16.1547343187
 20
11.9781649285
 30
0.0
 10
16.15054568
 20
11.9681487302
 30
0.0
 10
16.145944134
 20
11.95827784
 30
0.0
 10
16.1409321775
 20
11.9485576105
 30
0.0
 10
16.1355125838
 20
11.9389932774
 30
0.0
 10
16.1296882668
 20
11.929590033
 30
0.0
 10
16.1234624547
 20
11.9203529152
 30
0.0
 10
16.1168385031
 20
11.9112869281
 30
0.0
 10
16.1098200418
 20
11.9023969181
 30
0.0
 10
16.1024109085
 20
11.8936876918
 30
0.0
 10
16.0946150085
 20
11.8851638291
 30
0.0
 10
16.0836485088
 20
11.8739886667
 30
0.0
 10
16.0689674314
 20
11.8605041308
 30
0.0
 10
16.0499796705
 20
11.8452329979
 30
0.0
 10
16.0295606298
 20
11.830809824
 30
0.0
 10
16.0077552084
 20
11.8172653277
 30
0.0
 10
15.9846103342
 20
11.8046275928
 30
0.0
 10
15.9601758411
 20
11.7929230466
 30
0.0
 10
15.9345041461
 20
11.7821761449
 30
0.0
 10
15.9076502521
 20
11.7724094043
 30
0.0
 10
15.8796716295
 20
11.763643326
 30
0.0
 10
15.8506281776
 20
11.7558963546
 30
0.0
 10
15.8205818997
 20
11.7491848052
 30
0.0
 10
15.7895976027
 20
11.7435229118
 30
0.0
 10
15.7685813641
 20
11.7404880355
 30
0.0
 10
15.7579364502
 20
11.7391427871
 30
0.0
  0
SPLINE
  5
329
100
AcDbEntity
  8
LAYER_FEATURE
100
AcDbSpline
 62
7
  6
CONTINUOUS
 70
0
 71
3
 72
71
 73
67
 74
0
 42
0.0000001
 43
0.0000001
 44
0.0000000001
 40
0.0
 40
0.0
 40
0.0
 40
0.0
 40
0.0202644883
 40
0.040310619
 40
0.0601278435
 40
0.0797073179
 40
0.0990401862
 40
0.1181183752
 40
0.1369344719
 40
0.1554817485
 40
0.1737542379
 40
0.1917467737
 40
0.2094550399
 40
0.2268756185
 40
0.2440060419
 40
0.2608448551
 40
0.2773916708
 40
0.2936472218
 40
0.3096134206
 40
0.325293423
 40
0.3406916862
 40
0.3558140186
 40
0.3706676315
 40
0.38526119
 40
0.3996048526
 40
0.4137102938
 40
0.4275907184
 40
0.4412608637
 40
0.4547369802
 40
0.4680367838
 40
0.4811793871
 40
0.4941852062
 40
0.5070758387
 40
0.5198739093
 40
0.5326028919
 40
0.5452869092
 40
0.557950514
 40
0.5706184554
 40
0.5833154406
 40
0.5960658982
 40
0.6088937478
 40
0.6218221873
 40
0.6348735005
 40
0.648068888
 40
0.661428322
 40
0.6749704351
 40
0.6887124358
 40
0.7026700497
 40
0.7168574792
 40
0.7312873916
 40
0.7459709275
 40
0.7609177197
 40
0.7761359203
 40
0.7916322428
 40
0.8074120154
 40
0.8234792342
 40
0.839836614
 40
0.8564856466
 40
0.8734266651
 40
0.8906589022
 40
0.9081805435
 40
0.9259887815
 40
0.9440798768
 40
0.9624492105
 40
0.981091331
 40
1.0
 40
1.0
 40
1.0
 40
1.0
 10
15.1341491391
 20
12.7446711586
 30
0.0
 10
15.1264593265
 20
12.7446711586
 30
0.0
 10
15.1111620502
 20
12.7445125461
 30
0.0
 10
15.0883549473
 20
12.7437903813
 30
0.0
 10
15.0658283758
 20
12.7425858388
 30
0.0
 10
15.0436040849
 20
12.7409001219
 30
0.0
 10
15.0217031004
 20
12.7387347837
 30
0.0
 10
15.000146343
 20
12.736091896
 30
0.0
 10
14.9789543407
 20
12.7329739694
 30
0.0
 10
14.9581472829
 20
12.7293839562
 30
0.0
 10
14.9377449954
 20
12.7253252521
 30
0.0
 10
14.9177669112
 20
12.7208017068
 30
0.0
 10
14.8982320571
 20
12.7158176091
 30
0.0
 10
14.8791590397
 20
12.7103776762
 30
0.0
 10
14.860566029
 20
12.7044870452
 30
0.0
 10
14.8424707343
 20
12.698151288
 30
0.0
 10
14.8248903897
 20
12.6913763967
 30
0.0
 10
14.8078417452
 20
12.6841687679
 30
0.0
 10
14.7913410542
 20
12.6765351947
 30
0.0
 10
14.7754040503
 20
12.6684828759
 30
0.0
 10
14.7600459336
 20
12.6600194088
 30
0.0
 10
14.7452813684
 20
12.6511527674
 30
0.0
 10
14.7311244734
 20
12.6418912968
 30
0.0
 10
14.717588802
 20
12.632243719
 30
0.0
 10
14.7046873259
 20
12.6222191324
 30
0.0
 10
14.6924324396
 20
12.6118269887
 30
0.0
 10
14.6808359515
 20
12.6010770911
 30
0.0
 10
14.6699090661
 20
12.5899795972
 30
0.0
 10
14.6596623595
 20
12.5785450259
 30
0.0
 10
14.6501057875
 20
12.5667842344
 30
0.0
 10
14.6412486727
 20
12.5547084173
 30
0.0
 10
14.6330996848
 20
12.5423291055
 30
0.0
 10
14.625666803
 20
12.5296581718
 30
0.0
 10
14.6189573254
 20
12.5167078027
 30
0.0
 10
14.6129778509
 20
12.5034904908
 30
0.0
 10
14.6077342622
 20
12.4900190203
 30
0.0
 10
14.6032316821
 20
12.4763064594
 30
0.0
 10
14.5994744912
 20
12.4623661247
 30
0.0
 10
14.596466319
 20
12.4482115604
 30
0.0
 10
14.5942100413
 20
12.4338565154
 30
0.0
 10
14.5927077462
 20
12.4193149247
 30
0.0
 10
14.5919607674
 20
12.4046008782
 30
0.0
 10
14.5919696907
 20
12.3897286009
 30
0.0
 10
14.5927343658
 20
12.3747124366
 30
0.0
 10
14.594253883
 20
12.3595668304
 30
0.0
 10
14.5965266069
 20
12.344306314
 30
0.0
 10
14.5995501919
 20
12.3289454934
 30
0.0
 10
14.6033215925
 20
12.313499042
 30
0.0
 10
14.6078370437
 20
12.2979816859
 30
0.0
 10
14.6130920837
 20
12.282408196
 30
0.0
 10
14.6190815707
 20
12.2667933807
 30
0.0
 10
14.6257996889
 20
12.2511520786
 30
0.0
 10
14.6332399323
 20
12.2354991425
 30
0.0
 10
14.6413951168
 20
12.2198494289
 30
0.0
 10
14.6502574008
 20
12.2042177916
 30
0.0
 10
14.6598182892
 20
12.1886190714
 30
0.0
 10
14.670068625
 20
12.1730680773
 30
0.0
 10
14.680998595
 20
12.1575795711
 30
0.0
 10
14.6925977552
 20
12.1421682631
 30
0.0
 10
14.7048550366
 20
12.1268487981
 30
0.0
 10
14.7177587439
 20
12.1116357376
 30
0.0
 10
14.7312965622
 20
12.0965435369
 30
0.0
 10
14.7454555728
 20
12.0815865547
 30
0.0
 10
14.760222311
 20
12.066778994
 30
0.0
 10
14.775582586
 20
12.0521350524
 30
0.0
 10
14.7861353906
 20
12.0425573263
 30
0.0
 10
14.7915053908
 20
12.0377983067
 30
0.0
  0
SPLINE
  5
32A
100
AcDbEntity
  8
LAYER_FEATURE
100
AcDbSpline
 62
7
  6
CONTINUOUS
 70
0
 71
3
 72
66
 73
62
 74
0
 42
0.0000001
 43
0.0000001
 44
0.0000000001
 40
0.0
 40
0.0
 40
0.0
 40
0.0
 40
0.0171788923
 40
0.034530769
 40
0.0520448443
 40
0.0697107132
 40
0.0875171989
 40
0.1054529495
 40
0.1235062927
 40
0.1416652975
 40
0.159917808
 40
0.1782514655
 40
0.215110338
 40
0.2521417323
 40
0.2892423764
 40
0.3263084234
 40
0.3632363136
 40
0.3816171919
 40
0.3999252736
 40
0.4181480823
 40
0.4362733234
 40
0.4542889119
 40
0.4721830017
 40
0.4899440158
 40
0.5075606768
 40
0.525022036
 40
0.5423175053
 40
0.5594368898
 40
0.5763704231
 40
0.5931088018
 40
0.6096432202
 40
0.6259654076
 40
0.6420676677
 40
0.6579429215
 40
0.6735847493
 40
0.6889874336
 40
0.7041460053
 40
0.7190562928
 40
0.7337149752
 40
0.7481196342
 40
0.7622688071
 40
0.7761620435
 40
0.7897999625
 40
0.8031843148
 40
0.8163180403
 40
0.8292053233
 40
0.841851648
 40
0.8542638502
 40
0.8664501637
 40
0.8784202566
 40
0.890185254
 40
0.9017577476
 40
0.9131517883
 40
0.9243828585
 40
0.9354678166
 40
0.9464248149
 40
0.9572731891
 40
0.9680333187
 40
0.97872646
 40
0.9893745518
 40
1.0
 40
1.0
 40
1.0
 40
1.0
 10
15.1094899272
 20
12.763006194
 30
0.0
 10
15.1182161737
 20
12.763006194
 30
0.0
 10
15.1357570967
 20
12.7628141824
 30
0.0
 10
15.1621820607
 20
12.7619610338
 30
0.0
 10
15.1888304861
 20
12.76054209
 30
0.0
 10
15.2156743431
 20
12.7585588897
 30
0.0
 10
15.2426858516
 20
12.7560134572
 30
0.0
 10
15.2698368407
 20
12.7529084563
 30
0.0
 10
15.2970990762
 20
12.7492471179
 30
0.0
 10
15.3244441476
 20
12.7450332595
 30
0.0
 10
15.3518437156
 20
12.7402712552
 30
0.0
 10
15.3884738894
 20
12.7331854616
 30
0.0
 10
15.4342090989
 20
12.7229876504
 30
0.0
 10
15.4887547411
 20
12.7086763261
 30
0.0
 10
15.5428354494
 20
12.6923284969
 30
0.0
 10
15.5962255195
 20
12.6740123861
 30
0.0
 10
15.6400251677
 20
12.6571459238
 30
0.0
 10
15.6745312325
 20
12.64272968
 30
0.0
 10
15.700062345
 20
12.6314918651
 30
0.0
 10
15.7252567659
 20
12.619824152
 30
0.0
 10
15.750088381
 20
12.6077386279
 30
0.0
 10
15.7745313137
 20
12.5952478857
 30
0.0
 10
15.7985601284
 20
12.5823649172
 30
0.0
 10
15.8221498154
 20
12.5691031335
 30
0.0
 10
15.8452758264
 20
12.5554763371
 30
0.0
 10
15.8679140944
 20
12.541498707
 30
0.0
 10
15.8900410598
 20
12.5271847849
 30
0.0
 10
15.9116336936
 20
12.512549458
 30
0.0
 10
15.9326695293
 20
12.4976079517
 30
0.0
 10
15.9531266814
 20
12.4823758078
 30
0.0
 10
15.9729838658
 20
12.4668688652
 30
0.0
 10
15.9922204212
 20
12.4511032451
 30
0.0
 10
16.0108163301
 20
12.4350953313
 30
0.0
 10
16.0287522473
 20
12.4188617612
 30
0.0
 10
16.0460095159
 20
12.4024194025
 30
0.0
 10
16.0625701814
 20
12.3857853329
 30
0.0
 10
16.0784170105
 20
12.3689768237
 30
0.0
 10
16.0935335069
 20
12.3520113188
 30
0.0
 10
16.1079039373
 20
12.3349064241
 30
0.0
 10
16.1215133418
 20
12.3176798839
 30
0.0
 10
16.134347543
 20
12.3003495601
 30
0.0
 10
16.1463931597
 20
12.282933416
 30
0.0
 10
16.1576376167
 20
12.2654494952
 30
0.0
 10
16.1680691674
 20
12.2479159107
 30
0.0
 10
16.1776768994
 20
12.2303508228
 30
0.0
 10
16.1864507362
 20
12.2127724212
 30
0.0
 10
16.1943814468
 20
12.19519891
 30
0.0
 10
16.2014606507
 20
12.1776484912
 30
0.0
 10
16.2076808382
 20
12.160139355
 30
0.0
 10
16.2130353732
 20
12.1426896634
 30
0.0
 10
16.2175184924
 20
12.1253175362
 30
0.0
 10
16.2211253155
 20
12.1080410414
 30
0.0
 10
16.2238518516
 20
12.0908781822
 30
0.0
 10
16.2256950242
 20
12.0738468876
 30
0.0
 10
16.2266526794
 20
12.056964995
 30
0.0
 10
16.2267235911
 20
12.0402502405
 30
0.0
 10
16.2259074709
 20
12.0237202212
 30
0.0
 10
16.2242050015
 20
12.0073924502
 30
0.0
 10
16.2216177789
 20
11.9912840463
 30
0.0
 10
16.2181486313
 20
11.9754127502
 30
0.0
 10
16.215248812
 20
11.9649958931
 30
0.0
 10
16.213655258
 20
11.9598391655
 30
0.0
  0
ENDSEC
  0
SECTION
  2
OBJECTS
  0
DICTIONARY
  5
C
100
AcDbDictionary
280
0
281
1
  3
ACAD_GROUP
350
D
  3
ACAD_MLINESTYLE
350
17
  3
ACAD_LAYOUT
350
1A
  3
ACAD_PLOTSETTINGS
350
19
  3
ACAD_PLOTSTYLENAME
350
E
  0
DICTIONARY
  5
D
102
{ACAD_REACTORS
330
C
102
}
100
AcDbDictionary
280
0
281
1
  0
ACDBDICTIONARYWDFLT
  5
E
102
{ACAD_REACTORS
330
C
102
}
100
AcDbDictionary
281
1
  3
Normal
350
F
100
AcDbDictionaryWithDefault
340
F
  0
DICTIONARY
  5
17
102
{ACAD_REACTORS
330
C
102
}
100
AcDbDictionary
280
0
281
1
  3
Standard
350
18
  0
DICTIONARY
  5
19
102
{ACAD_REACTORS
330
C
102
}
100
AcDbDictionary
281
1
  0
DICTIONARY
  5
1A
102
{ACAD_REACTORS
330
C
102
}
100
AcDbDictionary
281
1
  3
Model
350
32B
  3
Layout1
350
32C
  0
ACDBPLACEHOLDER
  5
F
102
{ACAD_REACTORS
330
E
102
}
  0
MLINESTYLE
  5
18
102
{ACAD_REACTORS
330
17
102
}
100
AcDbMlineStyle
  2
STANDARD
 70
0
  3

 62
256
 51
90.0
 52
90.0
 71
2
 49
0.5
 62
256
  6
BYLAYER
 49
-0.5
 62
256
  6
BYLAYER
  0
LAYOUT
  5
32B
102
{ACAD_REACTORS
330
1A
102
}
100
AcDbPlotSettings
  1

  2
none_device
  4
ANSI_C_(22.00_x_17.00_Inches)
  6

 40
0.0
 41
0.0
 42
0.0
 43
0.0
 44
558.8
 45
431.8
 46
0.0
 47
0.0
 48
0.0
 49
0.0
140
0.0
141
0.0
142
1.0
143
1.0
 70
1024
 72
0
 73
0
 74
0
  7

 75
0
147
1.0
148
0.0
149
0.0
100
AcDbLayout
  1
Model
 70
0
 71
0
 10
0.0
 20
0.0
 11
22.0
 21
17.0
 12
0.0
 22
0.0
 32
0.0
 14
0.0
 24
0.0
 34
0.0
 15
0.0
 25
0.0
 35
0.0
146
0.0
 13
0.0
 23
0.0
 33
0.0
 16
1.0
 26
0.0
 36
0.0
 17
0.0
 27
1.0
 37
0.0
 76
0
330
222
345
0
346
0
  0
LAYOUT
  5
32C
102
{ACAD_REACTORS
330
1A
102
}
100
AcDbPlotSettings
  1

  2
none_device
  4
ANSI_C_(22.00_x_17.00_Inches)
  6

 40
0.0
 41
0.0
 42
0.0
 43
0.0
 44
558.8
 45
431.8
 46
0.0
 47
0.0
 48
0.0
 49
0.0
140
0.0
141
0.0
142
1.0
143
1.0
 70
0
 72
0
 73
0
 74
0
  7

 75
0
147
1.0
148
0.0
149
0.0
100
AcDbLayout
  1
Layout1
 70
0
 71
1
 10
0.0
 20
0.0
 11
22.0
 21
17.0
 12
0.0
 22
0.0
 32
0.0
 14
0.0
 24
0.0
 34
0.0
 15
0.0
 25
0.0
 35
0.0
146
0.0
 13
0.0
 23
0.0
 33
0.0
 16
1.0
 26
0.0
 36
0.0
 17
0.0
 27
1.0
 37
0.0
 76
0
330
223
345
0
346
0
  0
ENDSEC
  0
EOF