999
DXF file: _cgs_temp_output.dxf
999
Pro/ENGINEER 2016360 by Parametric Technology Corporation
  0
SECTION
  2
HEADER
  9
$ACADVER
  1
AC1021
  9
$DWGCODEPAGE
  3
ANSI_1252
  9
$EXTMAX
 10
22.0
 20
17.0
 30
0.0
  9
$EXTMIN
 10
0.0
 20
0.0
 30
0.0
  9
$LIMMIN
 10
0.0
 20
0.0
  9
$LIMMAX
 10
22.0
 20
17.0
  9
$VIEWCTR
 10
11.0
 20
8.5
  9
$VIEWSIZE
 40
17.0
  9
$CLAYER
  8
0
  9
$LTSCALE
 40
1.21
  9
$CELTYPE
  6
BYLAYER
  9
$DIMSCALE
 40
1.0
  9
$DIMASZ
 40
0.1875
  9
$DIMEXO
 40
0.0625
  9
$DIMDLI
 40
0.836
  9
$DIMEXE
 40
0.125
  9
$DIMCEN
 40
0.198
  9
$DIMLFAC
 40
1.0
  9
$DIMBLK
  1
_CLOSED
  9
$DIMALT
 70
0
  9
$DIMALTF
 40
25.4
  9
$DIMTXT
 40
0.15625
  9
$DIMTOL
 70
0
  9
$DIMLIM
 70
0
  9
$DIMTFAC
 40
1.0
  9
$DIMGAP
 40
0.09
  9
$DIMDSEP
 70
46
  9
$AUNITS
 70
0
  9
$PDMODE
 70
3
  9
$PDSIZE
 40
0.3125
  9
$HANDSEED
  5
339
  9
$TILEMODE
 70
1
  9
$MEASUREMENT
 70
0
  9
$INSUNITS
 70
1
  0
ENDSEC
  0
SECTION
  2
CLASSES
  0
CLASS
  1
ACDBDICTIONARYWDFLT
  2
AcDbDictionaryWithDefault
  3
AutoCAD 2000
 90
0
 91
1
280
0
281
0
  0
CLASS
  1
ACDBPLACEHOLDER
  2
AcDbPlaceHolder
  3
AutoCAD 2000
 90
0
 91
1
280
0
281
0
  0
CLASS
  1
LAYOUT
  2
AcDbLayout
  3
AutoCAD 2000
 90
0
 91
0
280
0
281
0
  0
ENDSEC
  0
SECTION
  2
TABLES
  0
TABLE
  2
VPORT
  5
8
100
AcDbSymbolTable
 70
2
  0
VPORT
  5
1F4
100
AcDbSymbolTableRecord
100
AcDbViewportTableRecord
  2
*ACTIVE
 70
0
 10
0.0
 20
0.0
 11
1.0
 21
1.0
 12
11.0
 22
8.5
 13
0.0
 23
0.0
 14
1.0
 24
1.0
 15
0.0
 25
0.0
 16
0.0
 26
0.0
 36
1.0
 17
0.0
 27
0.0
 37
0.0
 40
17.0
 41
1.2941176471
 42
50.0
 43
0.0
 44
0.0
 50
0.0
 51
0.0
 71
0
 72
100
 73
1
 74
1
 75
0
 76
0
 77
0
 78
0
  0
ENDTAB
  0
TABLE
  2
LTYPE
  5
5
100
AcDbSymbolTable
 70
6
  0
LTYPE
  5
14
100
AcDbSymbolTableRecord
100
AcDbLinetypeTableRecord
  2
BYBLOCK
 70
0
  3

 72
65
 73
0
 40
0.0
  0
LTYPE
  5
15
100
AcDbSymbolTableRecord
100
AcDbLinetypeTableRecord
  2
BYLAYER
 70
0
  3

 72
65
 73
0
 40
0.0
  0
LTYPE
  5
16
100
AcDbSymbolTableRecord
100
AcDbLinetypeTableRecord
  2
CONTINUOUS
 70
64
  3
Solid line
 72
65
 73
0
 40
0.0
  0
LTYPE
  5
1F5
100
AcDbSymbolTableRecord
100
AcDbLinetypeTableRecord
  2
CENTER
 70
64
  3
____ _ ____ _ ____ _ ____ _ ____ _ ____ _ ____
 72
65
 73
4
 40
0.6
 49
0.375
 74
0
 49
-0.075
 74
0
 49
0.075
 74
0
 49
-0.075
 74
0
  0
LTYPE
  5
1F6
100
AcDbSymbolTableRecord
100
AcDbLinetypeTableRecord
  2
HIDDEN
 70
64
  3
- - - - - - - - - - - - - - - - - - - -
 72
65
 73
2
 40
0.2
 49
0.1
 74
0
 49
-0.1
 74
0
  0
LTYPE
  5
1F7
100
AcDbSymbolTableRecord
100
AcDbLinetypeTableRecord
  2
PHANTOM
 70
64
  3
_____ _ _ _____ _ _ _____ _ _ _____
 72
65
 73
6
 40
0.8
 49
0.45
 74
0
 49
-0.05
 74
0
 49
0.1
 74
0
 49
-0.05
 74
0
 49
0.1
 74
0
 49
-0.05
 74
0
  0
LTYPE
  5
1F8
100
AcDbSymbolTableRecord
100
AcDbLinetypeTableRecord
  2
DOT
 70
64
  3
. . . . . . . . . . . . . . . . . . . .
 72
65
 73
2
 40
0.2
 49
0.1
 74
0
 49
-0.1
 74
0
  0
LTYPE
  5
1F9
100
AcDbSymbolTableRecord
100
AcDbLinetypeTableRecord
  2
DASHED
 70
64
  3
- - - - - - - - - - - - - - - - - - - -
 72
65
 73
2
 40
0.2
 49
0.1
 74
0
 49
-0.1
 74
0
  0
ENDTAB
  0
TABLE
  2
LAYER
  5
2
100
AcDbSymbolTable
 70
36
  0
LAYER
  5
10
100
AcDbSymbolTableRecord
100
AcDbLayerTableRecord
  2
0
 70
0
 62
7
  6
CONTINUOUS
370
-3
390
F
  0
LAYER
  5
1FA
100
AcDbSymbolTableRecord
100
AcDbLayerTableRecord
  2
DEFAULT_1
 70
0
 62
7
  6
CENTER
370
-3
390
F
  0
LAYER
  5
1FB
100
AcDbSymbolTableRecord
100
AcDbLayerTableRecord
  2
DEFAULT_2
 70
0
 62
8
  6
HIDDEN
370
-3
390
F
  0
LAYER
  5
1FC
100
AcDbSymbolTableRecord
100
AcDbLayerTableRecord
  2
DEFAULT_3
 70
0
 62
7
  6
PHANTOM
370
-3
390
F
  0
LAYER
  5
1FD
100
AcDbSymbolTableRecord
100
AcDbLayerTableRecord
  2
01_ALL_DTM_PLN
 70
0
 62
7
  6
CONTINUOUS
370
-3
390
F
  0
LAYER
  5
1FE
100
AcDbSymbolTableRecord
100
AcDbLayerTableRecord
  2
01__ASM_ALL_DTM_PLN
 70
0
 62
7
  6
CONTINUOUS
370
-3
390
F
  0
LAYER
  5
1FF
100
AcDbSymbolTableRecord
100
AcDbLayerTableRecord
  2
01__ASM_DEF_DTM_PLN
 70
0
 62
7
  6
CONTINUOUS
370
-3
390
F
  0
LAYER
  5
200
100
AcDbSymbolTableRecord
100
AcDbLayerTableRecord
  2
01___PRT_ALL_DTM_PLN
 70
0
 62
7
  6
CONTINUOUS
370
-3
390
F
  0
LAYER
  5
201
100
AcDbSymbolTableRecord
100
AcDbLayerTableRecord
  2
01___PRT_DEF_DTM_PLN
 70
0
 62
7
  6
CONTINUOUS
370
-3
390
F
  0
LAYER
  5
202
100
AcDbSymbolTableRecord
100
AcDbLayerTableRecord
  2
02_ALL_AXES
 70
0
 62
7
  6
CONTINUOUS
370
-3
390
F
  0
LAYER
  5
203
100
AcDbSymbolTableRecord
100
AcDbLayerTableRecord
  2
02__ASM_ALL_AXES
 70
0
 62
7
  6
CONTINUOUS
370
-3
390
F
  0
LAYER
  5
204
100
AcDbSymbolTableRecord
100
AcDbLayerTableRecord
  2
02___PRT_ALL_AXES
 70
0
 62
7
  6
CONTINUOUS
370
-3
390
F
  0
LAYER
  5
205
100
AcDbSymbolTableRecord
100
AcDbLayerTableRecord
  2
03_ALL_CURVES
 70
0
 62
7
  6
CONTINUOUS
370
-3
390
F
  0
LAYER
  5
206
100
AcDbSymbolTableRecord
100
AcDbLayerTableRecord
  2
03__ASM_ALL_CURVES
 70
0
 62
7
  6
CONTINUOUS
370
-3
390
F
  0
LAYER
  5
207
100
AcDbSymbolTableRecord
100
AcDbLayerTableRecord
  2
03___PRT_ALL_CURVES
 70
0
 62
7
  6
CONTINUOUS
370
-3
390
F
  0
LAYER
  5
208
100
AcDbSymbolTableRecord
100
AcDbLayerTableRecord
  2
04_ALL_DTM_PNT
 70
0
 62
7
  6
CONTINUOUS
370
-3
390
F
  0
LAYER
  5
209
100
AcDbSymbolTableRecord
100
AcDbLayerTableRecord
  2
04__ASM_ALL_DTM_PNT
 70
0
 62
7
  6
CONTINUOUS
370
-3
390
F
  0
LAYER
  5
20A
100
AcDbSymbolTableRecord
100
AcDbLayerTableRecord
  2
04___PRT_ALL_DTM_PNT
 70
0
 62
7
  6
CONTINUOUS
370
-3
390
F
  0
LAYER
  5
20B
100
AcDbSymbolTableRecord
100
AcDbLayerTableRecord
  2
05_ALL_DTM_CSYS
 70
0
 62
7
  6
CONTINUOUS
370
-3
390
F
  0
LAYER
  5
20C
100
AcDbSymbolTableRecord
100
AcDbLayerTableRecord
  2
05__ASM_ALL_DTM_CSYS
 70
0
 62
7
  6
CONTINUOUS
370
-3
390
F
  0
LAYER
  5
20D
100
AcDbSymbolTableRecord
100
AcDbLayerTableRecord
  2
05__ASM_DEF_DTM_CSYS
 70
0
 62
7
  6
CONTINUOUS
370
-3
390
F
  0
LAYER
  5
20E
100
AcDbSymbolTableRecord
100
AcDbLayerTableRecord
  2
05___PRT_ALL_DTM_CSYS
 70
0
 62
7
  6
CONTINUOUS
370
-3
390
F
  0
LAYER
  5
20F
100
AcDbSymbolTableRecord
100
AcDbLayerTableRecord
  2
05___PRT_DEF_DTM_CSYS
 70
0
 62
7
  6
CONTINUOUS
370
-3
390
F
  0
LAYER
  5
210
100
AcDbSymbolTableRecord
100
AcDbLayerTableRecord
  2
06_ALL_SURFS
 70
0
 62
7
  6
CONTINUOUS
370
-3
390
F
  0
LAYER
  5
211
100
AcDbSymbolTableRecord
100
AcDbLayerTableRecord
  2
06__ASM_ALL_SURFS
 70
0
 62
7
  6
CONTINUOUS
370
-3
390
F
  0
LAYER
  5
212
100
AcDbSymbolTableRecord
100
AcDbLayerTableRecord
  2
06___PRT_ALL_SURFS
 70
0
 62
7
  6
CONTINUOUS
370
-3
390
F
  0
LAYER
  5
213
100
AcDbSymbolTableRecord
100
AcDbLayerTableRecord
  2
07__ASM_ALL_SKELETONS
 70
0
 62
7
  6
CONTINUOUS
370
-3
390
F
  0
LAYER
  5
214
100
AcDbSymbolTableRecord
100
AcDbLayerTableRecord
  2
ANNOTATIONS
 70
0
 62
7
  6
CONTINUOUS
370
-3
390
F
  0
LAYER
  5
215
100
AcDbSymbolTableRecord
100
AcDbLayerTableRecord
  2
ASM_DATUMS
 70
0
 62
7
  6
CONTINUOUS
370
-3
390
F
  0
LAYER
  5
216
100
AcDbSymbolTableRecord
100
AcDbLayerTableRecord
  2
ASM_DEF_DATUMS
 70
0
 62
7
  6
CONTINUOUS
370
-3
390
F
  0
LAYER
  5
217
100
AcDbSymbolTableRecord
100
AcDbLayerTableRecord
  2
AXIS
 70
0
 62
7
  6
CONTINUOUS
370
-3
390
F
  0
LAYER
  5
218
100
AcDbSymbolTableRecord
100
AcDbLayerTableRecord
  2
CSYS
 70
0
 62
7
  6
CONTINUOUS
370
-3
390
F
  0
LAYER
  5
219
100
AcDbSymbolTableRecord
100
AcDbLayerTableRecord
  2
CURVES
 70
0
 62
7
  6
CONTINUOUS
370
-3
390
F
  0
LAYER
  5
21A
100
AcDbSymbolTableRecord
100
AcDbLayerTableRecord
  2
DATUMS
 70
0
 62
7
  6
CONTINUOUS
370
-3
390
F
  0
LAYER
  5
21B
100
AcDbSymbolTableRecord
100
AcDbLayerTableRecord
  2
DEF_CSYS
 70
0
 62
7
  6
CONTINUOUS
370
-3
390
F
  0
LAYER
  5
21C
100
AcDbSymbolTableRecord
100
AcDbLayerTableRecord
  2
DEF_DATUMS
 70
0
 62
7
  6
CONTINUOUS
370
-3
390
F
  0
LAYER
  5
21D
100
AcDbSymbolTableRecord
100
AcDbLayerTableRecord
  2
GTOL
 70
0
 62
7
  6
CONTINUOUS
370
-3
390
F
  0
LAYER
  5
21E
100
AcDbSymbolTableRecord
100
AcDbLayerTableRecord
  2
POINTS
 70
0
 62
7
  6
CONTINUOUS
370
-3
390
F
  0
LAYER
  5
21F
100
AcDbSymbolTableRecord
100
AcDbLayerTableRecord
  2
SKELETONS
 70
0
 62
7
  6
CONTINUOUS
370
-3
390
F
  0
LAYER
  5
220
100
AcDbSymbolTableRecord
100
AcDbLayerTableRecord
  2
SURFACES
 70
0
 62
7
  6
CONTINUOUS
370
-3
390
F
  0
LAYER
  5
221
100
AcDbSymbolTableRecord
100
AcDbLayerTableRecord
  2
XSEC_DATUMS
 70
0
 62
7
  6
CONTINUOUS
370
-3
390
F
  0
ENDTAB
  0
TABLE
  2
STYLE
  5
3
100
AcDbSymbolTable
 70
1
  0
STYLE
  5
11
100
AcDbSymbolTableRecord
100
AcDbTextStyleTableRecord
  2
STANDARD
 70
0
 40
0.0
 41
0.8
 50
0.0
 71
0
 42
0.2
  3
txt
  4

  0
STYLE
  5
222
100
AcDbSymbolTableRecord
100
AcDbTextStyleTableRecord
  2
TEXTSTYLE_1
 70
0
 40
0.0
 41
0.8
 50
0.0
 71
0
 42
0.2
  3
gdt
  4

  0
ENDTAB
  0
TABLE
  2
VIEW
  5
6
100
AcDbSymbolTable
 70
0
  0
ENDTAB
  0
TABLE
  2
UCS
  5
7
100
AcDbSymbolTable
 70
0
  0
ENDTAB
  0
TABLE
  2
APPID
  5
9
100
AcDbSymbolTable
 70
1
  0
APPID
  5
223
100
AcDbSymbolTableRecord
100
AcDbRegAppTableRecord
  2
ACAD
 70
0
  0
ENDTAB
  0
TABLE
  2
BLOCK_RECORD
  5
1
100
AcDbSymbolTable
 70
0
  0
BLOCK_RECORD
  5
224
100
AcDbSymbolTableRecord
100
AcDbBlockTableRecord
  2
*Model_Space
  0
BLOCK_RECORD
  5
225
100
AcDbSymbolTableRecord
100
AcDbBlockTableRecord
  2
*Paper_Space
  0
ENDTAB
  0
TABLE
  2
DIMSTYLE
  5
A
100
AcDbSymbolTable
 70
1
100
AcDbDimStyleTable
 71
0
  0
DIMSTYLE
105
226
100
AcDbSymbolTableRecord
100
AcDbDimStyleTableRecord
  2
STANDARD
 70
0
  3

  4

 40
1.0
 41
0.1875
 42
0.0625
 43
0.38
 44
0.125
 45
0.0
 46
0.0
 47
0.0001
 48
0.0001
140
0.15625
141
0.09
142
0.0
143
25.4
144
1.0
145
0.0
146
1.0
147
0.09
 71
0.0
 72
0.0
 73
1
 74
1
 75
0
 76
0
 77
0
 78
4
 79
1
170
0
171
3
172
0
173
0
174
0
175
0
176
0
177
0
178
0
270
2
179
4
271
4
272
4
273
2
274
2
275
0
280
0
281
0
282
0
283
1
284
4
285
0
286
0
287
3
288
0
340
11
278
46
  0
ENDTAB
  0
ENDSEC
  0
SECTION
  2
BLOCKS
  0
BLOCK
  5
20
100
AcDbEntity
  8
0
100
AcDbBlockBegin
  2
*Model_Space
 70
0
 10
0.0
 20
0.0
 30
0.0
  3
*Model_Space
  1

  0
ENDBLK
  5
21
100
AcDbEntity
  8
0
100
AcDbBlockEnd
  0
BLOCK
  5
1C
100
AcDbEntity
  8
0
100
AcDbBlockBegin
  2
*Paper_Space
 70
0
 10
0.0
 20
0.0
 30
0.0
  3
*Paper_Space
  1

  0
ENDBLK
  5
1D
100
AcDbEntity
  8
0
100
AcDbBlockEnd
  0
ENDSEC
  0
SECTION
  2
ENTITIES
  0
MTEXT
  5
227
100
AcDbEntity
  8
0
100
AcDbMText
 62
7
  6
CONTINUOUS
  7
STANDARD
 71
1
 72
1
 10
15.9560215477
 20
0.9479130325
 30
0.0
 11
1.0
 21
0.0
 31
0.0
 44
0.9
  1
SCALE: 1:1.000
 40
0.3
 41
3.36
  0
LINE
  5
228
100
AcDbEntity
  8
0
100
AcDbLine
 62
7
  6
CONTINUOUS
 10
0.0
 20
0.0
 11
0.0
 21
17.0
  0
LINE
  5
229
100
AcDbEntity
  8
0
100
AcDbLine
 62
7
  6
CONTINUOUS
 10
0.0
 20
0.0
 11
22.0
 21
0.0
  0
LINE
  5
22A
100
AcDbEntity
  8
0
100
AcDbLine
 62
7
  6
CONTINUOUS
 10
0.0
 20
17.0
 11
22.0
 21
17.0
  0
LINE
  5
22B
100
AcDbEntity
  8
0
100
AcDbLine
 62
7
  6
CONTINUOUS
 10
22.0
 20
0.0
 11
22.0
 21
17.0
  0
LINE
  5
22C
100
AcDbEntity
  8
02___PRT_ALL_AXES
100
AcDbLine
 62
7
  6
CONTINUOUS
 10
5.6489347042
 20
7.1481198968
 11
5.5628672762
 21
7.1218064433
  0
LINE
  5
22D
100
AcDbEntity
  8
02___PRT_ALL_AXES
100
AcDbLine
 62
7
  6
CONTINUOUS
 10
5.6489347042
 20
3.8921198968
 11
5.5628672762
 21
3.9184333502
  0
LINE
  5
22E
100
AcDbEntity
  8
0
100
AcDbLine
 62
7
  6
CONTINUOUS
 10
5.6878672762
 20
4.1199185442
 11
6.5728672762
 21
4.1199185442
  0
LINE
  5
22F
100
AcDbEntity
  8
0
100
AcDbLine
 62
7
  6
CONTINUOUS
 10
5.6878672762
 20
4.2119976592
 11
6.5728672762
 21
4.2119976592
  0
LINE
  5
230
100
AcDbEntity
  8
0
100
AcDbLine
 62
7
  6
CONTINUOUS
 10
5.6878672762
 20
4.3642712801
 11
6.5728672762
 21
4.3642712801
  0
LINE
  5
231
100
AcDbEntity
  8
0
100
AcDbLine
 62
7
  6
CONTINUOUS
 10
5.6878672762
 20
4.5696235951
 11
6.5728672762
 21
4.5696235951
  0
LINE
  5
232
100
AcDbEntity
  8
0
100
AcDbLine
 62
7
  6
CONTINUOUS
 10
5.6878672762
 20
4.8184584022
 11
6.5728672762
 21
4.8184584022
  0
LINE
  5
233
100
AcDbEntity
  8
02___PRT_ALL_AXES
100
AcDbLine
 62
7
  6
CONTINUOUS
 10
5.5628672762
 20
7.1218064433
 11
5.5628672762
 21
3.9184333502
  0
LINE
  5
234
100
AcDbEntity
  8
02___PRT_ALL_AXES
100
AcDbLine
 62
7
  6
CONTINUOUS
 10
5.6489347042
 20
7.1481198968
 11
5.6489347042
 21
3.8921198968
  0
LINE
  5
235
100
AcDbEntity
  8
02___PRT_ALL_AXES
100
AcDbLine
 62
7
  6
CONTINUOUS
 10
5.6878672762
 20
7.0207771918
 11
5.6878672762
 21
4.0194626017
  0
LINE
  5
236
100
AcDbEntity
  8
0
100
AcDbLine
 62
7
  6
CONTINUOUS
 10
5.6878672762
 20
5.0973296765
 11
6.5728672762
 21
5.0973296765
  0
LINE
  5
237
100
AcDbEntity
  8
02___PRT_ALL_AXES
100
AcDbLine
 62
7
  6
CONTINUOUS
 10
6.5728672762
 20
7.0207771918
 11
6.6117998481
 21
7.1481198968
  0
LINE
  5
238
100
AcDbEntity
  8
02___PRT_ALL_AXES
100
AcDbLine
 62
7
  6
CONTINUOUS
 10
6.5728672762
 20
4.0194626017
 11
6.6117998481
 21
3.8921198968
  0
LINE
  5
239
100
AcDbEntity
  8
02___PRT_ALL_AXES
100
AcDbLine
 62
7
  6
CONTINUOUS
 10
5.6878672762
 20
4.0194626017
 11
5.6489347042
 21
3.8921198968
  0
LINE
  5
23A
100
AcDbEntity
  8
02___PRT_ALL_AXES
100
AcDbLine
 62
7
  6
CONTINUOUS
 10
5.6878672762
 20
7.0207771918
 11
5.6489347042
 21
7.1481198968
  0
LINE
  5
23B
100
AcDbEntity
  8
02___PRT_ALL_AXES
100
AcDbLine
 62
7
  6
CONTINUOUS
 10
6.5728672762
 20
4.0194626017
 11
6.5728672762
 21
7.0207771918
  0
LINE
  5
23C
100
AcDbEntity
  8
02___PRT_ALL_AXES
100
AcDbLine
 62
7
  6
CONTINUOUS
 10
6.6117998481
 20
3.8921198968
 11
6.6117998481
 21
7.1481198968
  0
LINE
  5
23D
100
AcDbEntity
  8
02___PRT_ALL_AXES
100
AcDbLine
 62
7
  6
CONTINUOUS
 10
6.6978672762
 20
3.9184333502
 11
6.6978672762
 21
7.1218064433
  0
LINE
  5
23E
100
AcDbEntity
  8
0
100
AcDbLine
 62
7
  6
CONTINUOUS
 10
6.5728672762
 20
6.0808815637
 11
5.6878672762
 21
6.0808815637
  0
LINE
  5
23F
100
AcDbEntity
  8
0
100
AcDbLine
 62
7
  6
CONTINUOUS
 10
6.5728672762
 20
6.3476307346
 11
5.6878672762
 21
6.3476307346
  0
LINE
  5
240
100
AcDbEntity
  8
0
100
AcDbLine
 62
7
  6
CONTINUOUS
 10
6.5728672762
 20
6.5766408705
 11
5.6878672762
 21
6.5766408705
  0
LINE
  5
241
100
AcDbEntity
  8
0
100
AcDbLine
 62
7
  6
CONTINUOUS
 10
6.5728672762
 20
6.7572139357
 11
5.6878672762
 21
6.7572139357
  0
LINE
  5
242
100
AcDbEntity
  8
0
100
AcDbLine
 62
7
  6
CONTINUOUS
 10
6.5728672762
 20
6.8809116733
 11
5.6878672762
 21
6.8809116733
  0
LINE
  5
243
100
AcDbEntity
  8
0
100
AcDbLine
 62
7
  6
CONTINUOUS
 10
6.5728672762
 20
6.9422037606
 11
5.6878672762
 21
6.9422037606
  0
LINE
  5
244
100
AcDbEntity
  8
02___PRT_ALL_AXES
100
AcDbLine
 62
7
  6
CONTINUOUS
 10
6.6117998481
 20
3.8921198968
 11
6.6978672762
 21
3.9184333502
  0
LINE
  5
245
100
AcDbEntity
  8
02___PRT_ALL_AXES
100
AcDbLine
 62
7
  6
CONTINUOUS
 10
6.6117998481
 20
7.1481198968
 11
6.6978672762
 21
7.1218064433
  0
LINE
  5
246
100
AcDbEntity
  8
02___PRT_ALL_AXES
100
AcDbLine
 62
7
  6
CONTINUOUS
 10
5.5033720839
 20
14.2017343279
 11
5.5894395119
 21
14.2280477814
  0
LINE
  5
247
100
AcDbEntity
  8
02___PRT_ALL_AXES
100
AcDbLine
 62
7
  6
CONTINUOUS
 10
5.5033720839
 20
10.9983612348
 11
5.5894395119
 21
10.9720477814
  0
LINE
  5
248
100
AcDbEntity
  8
0
100
AcDbLine
 62
7
  6
CONTINUOUS
 10
6.5133720839
 20
11.1731181196
 11
5.6283720839
 21
11.1731181196
  0
LINE
  5
249
100
AcDbEntity
  8
0
100
AcDbLine
 62
7
  6
CONTINUOUS
 10
5.6283720839
 20
11.1867041291
 11
6.5133720839
 21
11.1867041291
  0
LINE
  5
24A
100
AcDbEntity
  8
0
100
AcDbLine
 62
7
  6
CONTINUOUS
 10
5.6283720839
 20
11.2628054932
 11
6.5133720839
 21
11.2628054932
  0
LINE
  5
24B
100
AcDbEntity
  8
0
100
AcDbLine
 62
7
  6
CONTINUOUS
 10
5.6283720839
 20
11.4004621556
 11
6.5133720839
 21
11.4004621556
  0
LINE
  5
24C
100
AcDbEntity
  8
0
100
AcDbLine
 62
7
  6
CONTINUOUS
 10
5.6283720839
 20
11.5932413614
 11
6.5133720839
 21
11.5932413614
  0
LINE
  5
24D
100
AcDbEntity
  8
0
100
AcDbLine
 62
7
  6
CONTINUOUS
 10
5.6283720839
 20
11.8321344554
 11
6.5133720839
 21
11.8321344554
  0
LINE
  5
24E
100
AcDbEntity
  8
02___PRT_ALL_AXES
100
AcDbLine
 62
7
  6
CONTINUOUS
 10
5.5033720839
 20
10.9983612348
 11
5.5033720839
 21
14.2017343279
  0
LINE
  5
24F
100
AcDbEntity
  8
02___PRT_ALL_AXES
100
AcDbLine
 62
7
  6
CONTINUOUS
 10
5.5894395119
 20
10.9720477814
 11
5.5894395119
 21
14.2280477814
  0
LINE
  5
250
100
AcDbEntity
  8
0
100
AcDbLine
 62
7
  6
CONTINUOUS
 10
5.6283720839
 20
12.1057342158
 11
6.5133720839
 21
12.1057342158
  0
LINE
  5
251
100
AcDbEntity
  8
02___PRT_ALL_AXES
100
AcDbLine
 62
7
  6
CONTINUOUS
 10
5.6283720839
 20
11.0993904863
 11
5.6283720839
 21
14.1007050764
  0
LINE
  5
252
100
AcDbEntity
  8
02___PRT_ALL_AXES
100
AcDbLine
 62
7
  6
CONTINUOUS
 10
6.5523046558
 20
14.2280477814
 11
6.5133720839
 21
14.1007050764
  0
LINE
  5
253
100
AcDbEntity
  8
02___PRT_ALL_AXES
100
AcDbLine
 62
7
  6
CONTINUOUS
 10
6.5523046558
 20
10.9720477814
 11
6.5133720839
 21
11.0993904863
  0
LINE
  5
254
100
AcDbEntity
  8
02___PRT_ALL_AXES
100
AcDbLine
 62
7
  6
CONTINUOUS
 10
5.5894395119
 20
10.9720477814
 11
5.6283720839
 21
11.0993904863
  0
LINE
  5
255
100
AcDbEntity
  8
02___PRT_ALL_AXES
100
AcDbLine
 62
7
  6
CONTINUOUS
 10
5.5894395119
 20
14.2280477814
 11
5.6283720839
 21
14.1007050764
  0
LINE
  5
256
100
AcDbEntity
  8
02___PRT_ALL_AXES
100
AcDbLine
 62
7
  6
CONTINUOUS
 10
6.5133720839
 20
11.0993904863
 11
6.5133720839
 21
14.1007050764
  0
LINE
  5
257
100
AcDbEntity
  8
02___PRT_ALL_AXES
100
AcDbLine
 62
7
  6
CONTINUOUS
 10
6.5523046558
 20
10.9720477814
 11
6.5523046558
 21
14.2280477814
  0
LINE
  5
258
100
AcDbEntity
  8
02___PRT_ALL_AXES
100
AcDbLine
 62
7
  6
CONTINUOUS
 10
6.6383720839
 20
10.9983612348
 11
6.6383720839
 21
14.2017343279
  0
LINE
  5
259
100
AcDbEntity
  8
0
100
AcDbLine
 62
7
  6
CONTINUOUS
 10
5.6283720839
 20
13.091845704
 11
6.5133720839
 21
13.091845704
  0
LINE
  5
25A
100
AcDbEntity
  8
0
100
AcDbLine
 62
7
  6
CONTINUOUS
 10
6.5133720839
 20
13.3656694631
 11
5.6283720839
 21
13.3656694631
  0
LINE
  5
25B
100
AcDbEntity
  8
0
100
AcDbLine
 62
7
  6
CONTINUOUS
 10
6.5133720839
 20
13.6049242103
 11
5.6283720839
 21
13.6049242103
  0
LINE
  5
25C
100
AcDbEntity
  8
0
100
AcDbLine
 62
7
  6
CONTINUOUS
 10
6.5133720839
 20
13.7981552587
 11
5.6283720839
 21
13.7981552587
  0
LINE
  5
25D
100
AcDbEntity
  8
0
100
AcDbLine
 62
7
  6
CONTINUOUS
 10
6.5133720839
 20
13.9363328382
 11
5.6283720839
 21
13.9363328382
  0
LINE
  5
25E
100
AcDbEntity
  8
0
100
AcDbLine
 62
7
  6
CONTINUOUS
 10
6.5133720839
 20
14.0129998513
 11
5.6283720839
 21
14.0129998513
  0
LINE
  5
25F
100
AcDbEntity
  8
0
100
AcDbLine
 62
7
  6
CONTINUOUS
 10
5.6283720839
 20
14.0270802317
 11
6.5133720839
 21
14.0270802317
  0
LINE
  5
260
100
AcDbEntity
  8
02___PRT_ALL_AXES
100
AcDbLine
 62
7
  6
CONTINUOUS
 10
6.6383720839
 20
10.9983612348
 11
6.5523046558
 21
10.9720477814
  0
LINE
  5
261
100
AcDbEntity
  8
02___PRT_ALL_AXES
100
AcDbLine
 62
7
  6
CONTINUOUS
 10
6.6383720839
 20
14.2017343279
 11
6.5523046558
 21
14.2280477814
  0
LINE
  5
262
100
AcDbEntity
  8
02___PRT_ALL_AXES
100
AcDbLine
 62
7
  6
CONTINUOUS
 10
14.8677869804
 20
14.0990543894
 11
14.9457358028
 21
14.1251470894
  0
LINE
  5
263
100
AcDbEntity
  8
02___PRT_ALL_AXES
100
AcDbLine
 62
7
  6
CONTINUOUS
 10
14.8677869804
 20
10.9225555964
 11
14.9457358028
 21
10.8964628964
  0
LINE
  5
264
100
AcDbEntity
  8
0
100
AcDbLine
 62
7
  6
CONTINUOUS
 10
14.8770895749
 20
13.8561431669
 11
14.8797009682
 21
13.8572996133
  0
LINE
  5
265
100
AcDbEntity
  8
0
100
AcDbLine
 62
7
  6
CONTINUOUS
 10
14.9732547775
 20
11.1020398401
 11
14.9719722598
 21
11.1022988018
  0
LINE
  5
266
100
AcDbEntity
  8
0
100
AcDbLine
 62
7
  6
CONTINUOUS
 10
14.8591398579
 20
11.1843017908
 11
14.8562364044
 21
11.1857433929
  0
LINE
  5
267
100
AcDbEntity
  8
0
100
AcDbLine
 62
7
  6
CONTINUOUS
 10
15.6101829869
 20
11.0830359143
 11
15.0735432094
 21
11.0830359143
  0
LINE
  5
268
100
AcDbEntity
  8
0
100
AcDbLine
 62
7
  6
CONTINUOUS
 10
14.9732547628
 20
11.1020257793
 11
15.5978433641
 21
11.1020257793
  0
LINE
  5
269
100
AcDbEntity
  8
0
100
AcDbLine
 62
7
  6
CONTINUOUS
 10
14.8591398579
 20
11.1843016786
 11
15.5479919571
 21
11.1843016786
  0
LINE
  5
26A
100
AcDbEntity
  8
AXIS
100
AcDbLine
 62
7
  6
CONTINUOUS
 10
15.9915119301
 20
11.2605549929
 11
15.9454093273
 21
11.2605549929
  0
LINE
  5
26B
100
AcDbEntity
  8
0
100
AcDbLine
 62
7
  6
CONTINUOUS
 10
14.7545767986
 20
11.3276310394
 11
15.4791103601
 21
11.3276310394
  0
LINE
  5
26C
100
AcDbEntity
  8
0
100
AcDbLine
 62
7
  6
CONTINUOUS
 10
14.6644518617
 20
11.525316019
 11
15.4102866107
 21
11.525316019
  0
LINE
  5
26D
100
AcDbEntity
  8
0
100
AcDbLine
 62
7
  6
CONTINUOUS
 10
14.5929766243
 20
11.7681187134
 11
15.3506628537
 21
11.7681187134
  0
LINE
  5
26E
100
AcDbEntity
  8
02___PRT_ALL_AXES
100
AcDbLine
 62
7
  6
CONTINUOUS
 10
15.5873348629
 20
13.7256527115
 11
15.5866997239
 21
13.7242494576
  0
LINE
  5
26F
100
AcDbEntity
  8
02___PRT_ALL_AXES
100
AcDbLine
 62
7
  6
CONTINUOUS
 10
15.5875062918
 20
13.7251403532
 11
15.5868523445
 21
13.7237945503
  0
LINE
  5
270
100
AcDbEntity
  8
0
100
AcDbLine
 62
7
  6
CONTINUOUS
 10
14.5535132482
 20
12.0440165196
 11
15.3072348426
 21
12.0440165196
  0
LINE
  5
271
100
AcDbEntity
  8
02___PRT_ALL_AXES
100
AcDbLine
 62
7
  6
CONTINUOUS
 10
15.529617953
 20
13.4991907781
 11
15.5288311774
 21
13.496873203
  0
LINE
  5
272
100
AcDbEntity
  8
02___PRT_ALL_AXES
100
AcDbLine
 62
7
  6
CONTINUOUS
 10
15.5291821755
 20
13.5001878889
 11
15.5283858125
 21
13.4978880161
  0
LINE
  5
273
100
AcDbEntity
  8
02___PRT_ALL_AXES
100
AcDbLine
 62
7
  6
CONTINUOUS
 10
15.5731462708
 20
11.32823833
 11
15.5725539273
 21
11.3296296302
  0
LINE
  5
274
100
AcDbEntity
  8
02___PRT_ALL_AXES
100
AcDbLine
 62
7
  6
CONTINUOUS
 10
15.5734828269
 20
11.329184433
 11
15.5729016286
 21
11.3306045415
  0
LINE
  5
275
100
AcDbEntity
  8
02___PRT_ALL_AXES
100
AcDbLine
 62
7
  6
CONTINUOUS
 10
15.5158346129
 20
11.5612849398
 11
15.5156959857
 21
11.5617142457
  0
LINE
  5
276
100
AcDbEntity
  8
02___PRT_ALL_AXES
100
AcDbLine
 62
7
  6
CONTINUOUS
 10
15.4470342317
 20
13.2814651676
 11
15.4472135523
 21
13.2823035462
  0
LINE
  5
277
100
AcDbEntity
  8
02___PRT_ALL_AXES
100
AcDbLine
 62
7
  6
CONTINUOUS
 10
15.4472655044
 20
13.2811392002
 11
15.4474558098
 21
13.2819616125
  0
LINE
  5
278
100
AcDbEntity
  8
02___PRT_ALL_AXES
100
AcDbLine
 62
7
  6
CONTINUOUS
 10
15.5161872767
 20
11.5620361736
 11
15.5160526527
 21
11.5624734273
  0
LINE
  5
279
100
AcDbEntity
  8
02___PRT_ALL_AXES
100
AcDbLine
 62
7
  6
CONTINUOUS
 10
15.437896319
 20
11.784533631
 11
15.4377625487
 21
11.7852092457
  0
LINE
  5
27A
100
AcDbEntity
  8
02___PRT_ALL_AXES
100
AcDbLine
 62
7
  6
CONTINUOUS
 10
15.4383512699
 20
11.7851279871
 11
15.4382226522
 21
11.78580963
  0
LINE
  5
27B
100
AcDbEntity
  8
0
100
AcDbLine
 62
7
  6
CONTINUOUS
 10
15.3606369505
 20
13.3013542073
 11
14.6046373107
 21
13.3013542073
  0
LINE
  5
27C
100
AcDbEntity
  8
0
100
AcDbLine
 62
7
  6
CONTINUOUS
 10
15.4225995976
 20
13.5366034662
 11
14.6798456591
 21
13.5366034662
  0
LINE
  5
27D
100
AcDbEntity
  8
AXIS
100
AcDbLine
 62
7
  6
CONTINUOUS
 10
16.2091260766
 20
11.3923922788
 11
16.2105650933
 21
11.3942462756
  0
LINE
  5
27E
100
AcDbEntity
  8
AXIS
100
AcDbLine
 62
7
  6
CONTINUOUS
 10
16.2090882593
 20
11.3925866398
 11
16.2105650933
 21
11.3942462756
  0
LINE
  5
27F
100
AcDbEntity
  8
0
100
AcDbLine
 62
7
  6
CONTINUOUS
 10
15.4922977864
 20
13.7248513302
 11
14.7729843483
 21
13.7248513302
  0
LINE
  5
280
100
AcDbEntity
  8
AXIS
100
AcDbLine
 62
7
  6
CONTINUOUS
 10
15.9915119301
 20
13.7610549929
 11
15.9463221771
 21
13.7610549929
  0
LINE
  5
281
100
AcDbEntity
  8
AXIS
100
AcDbLine
 62
7
  6
CONTINUOUS
 10
16.089795499
 20
11.286294683
 11
16.0901233187
 21
11.28646849
  0
LINE
  5
282
100
AcDbEntity
  8
AXIS
100
AcDbLine
 62
7
  6
CONTINUOUS
 10
16.0896540924
 20
11.2880564931
 11
16.0899819657
 21
11.2882235314
  0
LINE
  5
283
100
AcDbEntity
  8
0
100
AcDbLine
 62
7
  6
CONTINUOUS
 10
14.9940351025
 20
13.9276058869
 11
14.9950086043
 21
13.9277473825
  0
LINE
  5
284
100
AcDbEntity
  8
0
100
AcDbLine
 62
7
  6
CONTINUOUS
 10
15.5592746663
 20
13.8573008955
 11
14.8797009671
 21
13.8573008955
  0
LINE
  5
285
100
AcDbEntity
  8
0
100
AcDbLine
 62
7
  6
CONTINUOUS
 10
15.6035756674
 20
13.9277627372
 11
14.9950086022
 21
13.9277627372
  0
LINE
  5
286
100
AcDbEntity
  8
0
100
AcDbLine
 62
7
  6
CONTINUOUS
 10
15.0953729932
 20
13.9364304798
 11
15.6096484519
 21
13.9364304798
  0
LINE
  5
287
100
AcDbEntity
  8
AXIS
100
AcDbLine
 62
7
  6
CONTINUOUS
 10
16.1134447068
 20
13.7194827803
 11
16.1140602248
 21
13.7191002094
  0
LINE
  5
288
100
AcDbEntity
  8
AXIS
100
AcDbLine
 62
7
  6
CONTINUOUS
 10
16.113608103
 20
13.7211025191
 11
16.114221784
 21
13.7206931925
  0
LINE
  5
289
100
AcDbEntity
  8
02___PRT_ALL_AXES
100
AcDbLine
 62
7
  6
CONTINUOUS
 10
16.0744379565
 20
10.9225555964
 11
15.9964891342
 21
10.8964628964
  0
LINE
  5
28A
100
AcDbEntity
  8
02___PRT_ALL_AXES
100
AcDbLine
 62
7
  6
CONTINUOUS
 10
16.0744379565
 20
14.0990543894
 11
15.9964891342
 21
14.1251470894
  0
CIRCLE
  5
28B
100
AcDbEntity
  8
02___PRT_ALL_AXES
100
AcDbCircle
 62
7
  6
CONTINUOUS
 10
15.5603552569
 20
5.4606247044
 40
1.628
  0
CIRCLE
  5
28C
100
AcDbEntity
  8
02___PRT_ALL_AXES
100
AcDbCircle
 62
7
  6
CONTINUOUS
 10
15.5603552569
 20
5.4606247044
 40
1.6016865466
  0
CIRCLE
  5
28D
100
AcDbEntity
  8
02___PRT_ALL_AXES
100
AcDbCircle
 62
7
  6
CONTINUOUS
 10
15.5603552569
 20
5.4606247044
 40
1.4872067049
  0
CIRCLE
  5
28E
100
AcDbEntity
  8
02___PRT_ALL_AXES
100
AcDbCircle
 62
7
  6
CONTINUOUS
 10
15.5603552569
 20
5.4606247044
 40
1.252
  0
CIRCLE
  5
28F
100
AcDbEntity
  8
AXIS
100
AcDbCircle
 62
7
  6
CONTINUOUS
 10
15.5603552569
 20
5.4606247044
 40
1.25025
  0
CIRCLE
  5
290
100
AcDbEntity
  8
AXIS
100
AcDbCircle
 62
7
  6
CONTINUOUS
 10
15.5603552569
 20
5.4606247044
 40
0.875
  0
ARC
  5
291
100
AcDbEntity
  8
AXIS
100
AcDbCircle
 62
7
  6
CONTINUOUS
 10
15.5603552569
 20
5.4606247044
 40
0.752
100
AcDbArc
 50
192.4768073688
 51
347.5231926312
  0
ARC
  5
292
100
AcDbEntity
  8
AXIS
100
AcDbCircle
 62
7
  6
CONTINUOUS
 10
15.5603552569
 20
5.4606247044
 40
0.752
100
AcDbArc
 50
2.4768073688
 51
80.1201274897
  0
ARC
  5
293
100
AcDbEntity
  8
AXIS
100
AcDbCircle
 62
7
  6
CONTINUOUS
 10
15.5603552569
 20
5.4606247044
 40
0.752
100
AcDbArc
 50
99.8798725103
 51
177.5231926312
  0
ARC
  5
294
100
AcDbEntity
  8
AXIS
100
AcDbCircle
 62
7
  6
CONTINUOUS
 10
15.5603552569
 20
5.4606247044
 40
0.7278804598
100
AcDbArc
 50
79.7354184336
 51
100.2645815664
  0
ARC
  5
295
100
AcDbEntity
  8
AXIS
100
AcDbCircle
 62
7
  6
CONTINUOUS
 10
15.5603552569
 20
5.4606247044
 40
0.691
100
AcDbArc
 50
2.6183152968
 51
177.3816847032
  0
ARC
  5
296
100
AcDbEntity
  8
AXIS
100
AcDbCircle
 62
7
  6
CONTINUOUS
 10
15.5603552569
 20
5.4606247044
 40
0.691
100
AcDbArc
 50
192.6183152968
 51
347.3816847032
  0
ARC
  5
297
100
AcDbEntity
  8
AXIS
100
AcDbCircle
 62
7
  6
CONTINUOUS
 10
15.5603552569
 20
6.1856247044
 40
0.13
100
AcDbArc
 50
356.1322466284
 51
183.8677533716
  0
ARC
  5
298
100
AcDbEntity
  8
AXIS
100
AcDbCircle
 62
7
  6
CONTINUOUS
 10
16.2825964131
 20
5.397436791
 40
0.1
100
AcDbArc
 50
241.3597231389
 51
108.6402768611
  0
ARC
  5
299
100
AcDbEntity
  8
AXIS
100
AcDbCircle
 62
7
  6
CONTINUOUS
 10
14.8381141008
 20
5.397436791
 40
0.1
100
AcDbArc
 50
71.3597231389
 51
298.6402768611
  0
ARC
  5
29A
100
AcDbEntity
  8
AXIS
100
AcDbCircle
 62
7
  6
CONTINUOUS
 10
14.5856350171
 20
33.6081829523
 40
20.670256329
100
AcDbArc
 50
273.0938882702
 51
273.86610837
  0
ARC
  5
29B
100
AcDbEntity
  8
0
100
AcDbCircle
 62
7
  6
CONTINUOUS
 10
16.3101516127
 20
12.1373192751
 40
1.7589520301
100
AcDbArc
 50
198.9321327924
 51
200.142901556
  0
ARC
  5
29C
100
AcDbEntity
  8
0
100
AcDbCircle
 62
7
  6
CONTINUOUS
 10
16.1933188396
 20
12.927451009
 40
1.6344012499
100
AcDbArc
 50
158.3330172748
 51
159.5995730917
  0
ARC
  5
29D
100
AcDbEntity
  8
0
100
AcDbCircle
 62
7
  6
CONTINUOUS
 10
16.1575216044
 20
13.8209395251
 40
1.3026486689
100
AcDbArc
 50
180.0016586266
 51
183.1008413536
  0
ARC
  5
29E
100
AcDbEntity
  8
0
100
AcDbCircle
 62
7
  6
CONTINUOUS
 10
16.2331458427
 20
11.2159062453
 40
1.2885272146
100
AcDbArc
 50
181.405850608
 51
183.9575401538
  0
ARC
  5
29F
100
AcDbEntity
  8
0
100
AcDbCircle
 62
7
  6
CONTINUOUS
 10
16.1184314665
 20
11.2034146048
 40
1.2839967819
100
AcDbArc
 50
175.9804965608
 51
179.1151368645
  0
ARC
  5
2A0
100
AcDbEntity
  8
0
100
AcDbCircle
 62
7
  6
CONTINUOUS
 10
16.2227694499
 20
13.7982221442
 40
1.2579594064
100
AcDbArc
 50
175.1102697685
 51
177.3079673273
  0
ARC
  5
2A1
100
AcDbEntity
  8
0
100
AcDbCircle
 62
7
  6
CONTINUOUS
 10
15.9335768353
 20
13.7763605374
 40
1.1877892752
100
AcDbArc
 50
184.8888405708
 51
188.1777134503
  0
ARC
  5
2A2
100
AcDbEntity
  8
0
100
AcDbCircle
 62
7
  6
CONTINUOUS
 10
15.8561645143
 20
11.2656668816
 40
1.129748633
100
AcDbArc
 50
170.7864707329
 51
174.2079195856
  0
ARC
  5
2A3
100
AcDbEntity
  8
0
100
AcDbCircle
 62
7
  6
CONTINUOUS
 10
16.1343022456
 20
11.2677599407
 40
1.0819155592
100
AcDbArc
 50
188.8138720423
 51
189.1681996559
  0
ARC
  5
2A4
100
AcDbEntity
  8
0
100
AcDbCircle
 62
7
  6
CONTINUOUS
 10
15.6544168309
 20
11.8472016602
 40
1.0411443734
100
AcDbArc
 50
207.9971579615
 51
209.7157747685
  0
ARC
  5
2A5
100
AcDbEntity
  8
0
100
AcDbCircle
 62
7
  6
CONTINUOUS
 10
15.570464561
 20
13.2226889815
 40
0.9442979045
100
AcDbArc
 50
148.0914216934
 51
149.9161043265
  0
ARC
  5
2A6
100
AcDbEntity
  8
0
100
AcDbCircle
 62
7
  6
CONTINUOUS
 10
15.5867571846
 20
13.640995989
 40
0.9415219599
100
AcDbArc
 50
190.1573853492
 51
194.0082201535
  0
ARC
  5
2A7
100
AcDbEntity
  8
0
100
AcDbCircle
 62
7
  6
CONTINUOUS
 10
15.5184937531
 20
11.4157704519
 40
0.8902413223
100
AcDbArc
 50
164.7836883562
 51
168.7811058137
  0
ARC
  5
2A8
100
AcDbEntity
  8
AXIS
100
AcDbCircle
 62
7
  6
CONTINUOUS
 10
15.5471881115
 20
13.1338279498
 40
0.827315344
100
AcDbArc
 50
30.0277441663
 51
31.4172043277
  0
ARC
  5
2A9
100
AcDbEntity
  8
AXIS
100
AcDbCircle
 62
7
  6
CONTINUOUS
 10
15.6173297349
 20
13.1772305505
 40
0.7448327382
100
AcDbArc
 50
31.3805040371
 51
33.9549128677
  0
ARC
  5
2AA
100
AcDbEntity
  8
AXIS
100
AcDbCircle
 62
7
  6
CONTINUOUS
 10
15.64810457
 20
11.8239578819
 40
0.7078995252
100
AcDbArc
 50
325.4405362491
 51
327.0124393867
  0
ARC
  5
2AB
100
AcDbEntity
  8
AXIS
100
AcDbCircle
 62
7
  6
CONTINUOUS
 10
15.6592704101
 20
13.2052912616
 40
0.6943708748
100
AcDbArc
 50
33.9672764327
 51
34.5004943399
  0
ARC
  5
2AC
100
AcDbEntity
  8
AXIS
100
AcDbCircle
 62
7
  6
CONTINUOUS
 10
15.6728930143
 20
13.2146635838
 40
0.6778355882
100
AcDbArc
 50
34.4998261024
 51
34.9520951982
  0
ARC
  5
2AD
100
AcDbEntity
  8
AXIS
100
AcDbCircle
 62
7
  6
CONTINUOUS
 10
15.7093911313
 20
11.7811621916
 40
0.6331515631
100
AcDbArc
 50
322.596897393
 51
325.4838265022
  0
ARC
  5
2AE
100
AcDbEntity
  8
AXIS
100
AcDbCircle
 62
7
  6
CONTINUOUS
 10
15.7413083469
 20
11.7569684102
 40
0.5931013749
100
AcDbArc
 50
322.2969956718
 51
322.5806659844
  0
ARC
  5
2AF
100
AcDbEntity
  8
0
100
AcDbCircle
 62
7
  6
CONTINUOUS
 10
15.2418002679
 20
11.5593102337
 40
0.5368534972
100
AcDbArc
 50
221.420601145
 51
224.0945939313
  0
ARC
  5
2B0
100
AcDbEntity
  8
0
100
AcDbCircle
 62
7
  6
CONTINUOUS
 10
15.2008489692
 20
13.5023759334
 40
0.4795533348
100
AcDbArc
 50
132.4640116487
 51
135.3297060198
  0
ARC
  5
2B1
100
AcDbEntity
  8
0
100
AcDbCircle
 62
7
  6
CONTINUOUS
 10
15.0811329057
 20
11.3567493125
 40
0.2768774259
100
AcDbArc
 50
242.6251878444
 51
246.7804058418
  0
ARC
  5
2B2
100
AcDbEntity
  8
0
100
AcDbCircle
 62
7
  6
CONTINUOUS
 10
15.072833943
 20
13.6845864712
 40
0.2554754268
100
AcDbArc
 50
107.9652427469
 51
112.330705823
  0
ARC
  5
2B3
100
AcDbEntity
  8
0
100
AcDbCircle
 62
7
  6
CONTINUOUS
 10
14.6263301044
 20
13.7578448551
 40
0.2309920222
100
AcDbArc
 50
351.7196320699
 51
355.7199013181
  0
ARC
  5
2B4
100
AcDbEntity
  8
AXIS
100
AcDbCircle
 62
7
  6
CONTINUOUS
 10
15.992376383
 20
11.4575880171
 40
0.1970889033
100
AcDbArc
 50
259.0805383019
 51
261.1358058234
  0
ARC
  5
2B5
100
AcDbEntity
  8
02___PRT_ALL_AXES
100
AcDbCircle
 62
7
  6
CONTINUOUS
 10
15.9612474418
 20
13.5689599292
 40
0.1938596092
100
AcDbArc
 50
81.1114998631
 51
85.1139574122
  0
ARC
  5
2B6
100
AcDbEntity
  8
02___PRT_ALL_AXES
100
AcDbCircle
 62
7
  6
CONTINUOUS
 10
15.9612638637
 20
11.4525710949
 40
0.1937791867
100
AcDbArc
 50
274.6124079448
 51
278.9310705679
  0
ARC
  5
2B7
100
AcDbEntity
  8
AXIS
100
AcDbCircle
 62
7
  6
CONTINUOUS
 10
15.9915728007
 20
11.4519269301
 40
0.19137162
100
AcDbArc
 50
261.112348483
 51
269.9817756373
  0
ARC
  5
2B8
100
AcDbEntity
  8
AXIS
100
AcDbCircle
 62
7
  6
CONTINUOUS
 10
15.9915568878
 20
13.5699315101
 40
0.1911231612
100
AcDbArc
 50
90.0134776588
 51
98.6740785428
  0
ARC
  5
2B9
100
AcDbEntity
  8
02___PRT_ALL_AXES
100
AcDbCircle
 62
7
  6
CONTINUOUS
 10
15.9615587949
 20
11.4493073569
 40
0.1905023041
100
AcDbArc
 50
270.0056100746
 51
274.6029269775
  0
ARC
  5
2BA
100
AcDbEntity
  8
02___PRT_ALL_AXES
100
AcDbCircle
 62
7
  6
CONTINUOUS
 10
15.9615638147
 20
13.5723555011
 40
0.1904494315
100
AcDbArc
 50
85.1217818
 51
89.9958985396
  0
ARC
  5
2BB
100
AcDbEntity
  8
0
100
AcDbCircle
 62
7
  6
CONTINUOUS
 10
14.5535401222
 20
12.1220527115
 40
0.0780362004
100
AcDbArc
 50
262.2983258801
 51
269.9802685894
  0
ARC
  5
2BC
100
AcDbEntity
  8
0
100
AcDbCircle
 62
7
  6
CONTINUOUS
 10
14.7613833556
 20
11.2987544809
 40
0.0763962763
100
AcDbArc
 50
355.9942472501
 51
3.4032868553
  0
ARC
  5
2BD
100
AcDbEntity
  8
0
100
AcDbCircle
 62
7
  6
CONTINUOUS
 10
14.7806182726
 20
13.746328647
 40
0.0762746701
100
AcDbArc
 50
355.6967659508
 51
3.1159785933
  0
ARC
  5
2BE
100
AcDbEntity
  8
AXIS
100
AcDbCircle
 62
7
  6
CONTINUOUS
 10
17.1284813154
 20
-13.7482621025
 40
26.8947649642
100
AcDbArc
 50
92.5668767369
 51
92.9504414679
  0
ARC
  5
2BF
100
AcDbEntity
  8
0
100
AcDbCircle
 62
7
  6
CONTINUOUS
 10
18.1349617435
 20
12.5098748996
 40
3.6274960143
100
AcDbArc
 50
181.6218752404
 51
182.3678964178
  0
ARC
  5
2C0
100
AcDbEntity
  8
0
100
AcDbCircle
 62
7
  6
CONTINUOUS
 10
18.1024227364
 20
12.5131196061
 40
3.5949275166
100
AcDbArc
 50
176.769536177
 51
177.5196742509
  0
ARC
  5
2C1
100
AcDbEntity
  8
0
100
AcDbCircle
 62
7
  6
CONTINUOUS
 10
17.7539480059
 20
12.4769007143
 40
3.2449498218
100
AcDbArc
 50
186.6068735996
 51
187.4108513033
  0
ARC
  5
2C2
100
AcDbEntity
  8
0
100
AcDbCircle
 62
7
  6
CONTINUOUS
 10
17.6666224184
 20
12.5561693776
 40
3.1568753085
100
AcDbArc
 50
171.6497254619
 51
172.4673168491
  0
ARC
  5
2C3
100
AcDbEntity
  8
0
100
AcDbCircle
 62
7
  6
CONTINUOUS
 10
17.0784702306
 20
12.358186441
 40
2.5588545676
100
AcDbArc
 50
192.1659409643
 51
193.1084010534
  0
ARC
  5
2C4
100
AcDbEntity
  8
0
100
AcDbCircle
 62
7
  6
CONTINUOUS
 10
16.9603092112
 20
12.691116917
 40
2.4374913776
100
AcDbArc
 50
165.7212334681
 51
166.7481990115
  0
ARC
  5
2C5
100
AcDbEntity
  8
02___PRT_ALL_AXES
100
AcDbCircle
 62
7
  6
CONTINUOUS
 10
16.8679665777
 20
12.7475829992
 40
2.366847894
100
AcDbArc
 50
162.8975482336
 51
166.7559176167
  0
ARC
  5
2C6
100
AcDbEntity
  8
AXIS
100
AcDbCircle
 62
7
  6
CONTINUOUS
 10
17.7164222849
 20
12.3692436223
 40
2.2003526076
100
AcDbArc
 50
191.2131399569
 51
194.8995768689
  0
ARC
  5
2C7
100
AcDbEntity
  8
02___PRT_ALL_AXES
100
AcDbCircle
 62
7
  6
CONTINUOUS
 10
17.4007735977
 20
12.8512078399
 40
1.9809167748
100
AcDbArc
 50
160.9462512447
 51
162.8518701018
  0
ARC
  5
2C8
100
AcDbEntity
  8
02___PRT_ALL_AXES
100
AcDbCircle
 62
7
  6
CONTINUOUS
 10
17.3257260551
 20
12.1450956001
 40
1.9017207786
100
AcDbArc
 50
197.8779714782
 51
199.7541124659
  0
SPLINE
  5
2C9
100
AcDbEntity
  8
02___PRT_ALL_AXES
100
AcDbSpline
 62
7
  6
CONTINUOUS
 70
0
 71
3
 72
41
 73
37
 74
0
 42
0.0000001
 43
0.0000001
 44
0.0000000001
 40
0.0
 40
0.0
 40
0.0
 40
0.0
 40
0.032027984
 40
0.06523626
 40
0.0995132372
 40
0.1347486352
 40
0.1708206164
 40
0.2076023662
 40
0.2449624806
 40
0.2827655305
 40
0.3208732439
 40
0.3591453853
 40
0.3974407022
 40
0.4356177718
 40
0.4735359112
 40
0.5110561355
 40
0.5480420174
 40
0.5843605871
 40
0.6198834288
 40
0.654487665
 40
0.688056953
 40
0.7204826993
 40
0.7516655555
 40
0.7815167724
 40
0.8099598848
 40
0.8369329594
 40
0.8623913221
 40
0.8863106089
 40
0.9086908683
 40
0.9295620004
 40
0.9489902115
 40
0.9581991841
 40
0.9670929312
 40
0.9840167973
 40
0.9921110624
 40
1.0
 40
1.0
 40
1.0
 40
1.0
 10
14.4598289004
 20
13.5064293163
 30
0.0
 10
14.4511314042
 20
13.4782842082
 30
0.0
 10
14.4345297113
 20
13.4206076117
 30
0.0
 10
14.4123277817
 20
13.3317948867
 30
0.0
 10
14.3924490575
 20
13.2394137705
 30
0.0
 10
14.3749798928
 20
13.1438697135
 30
0.0
 10
14.3599969552
 20
13.0455741836
 30
0.0
 10
14.3475654333
 20
12.9449549259
 30
0.0
 10
14.337739536
 20
12.8424488805
 30
0.0
 10
14.3305625364
 20
12.7385012948
 30
0.0
 10
14.3260658173
 20
12.6335639711
 30
0.0
 10
14.3242687872
 20
12.5280930339
 30
0.0
 10
14.3251793199
 20
12.4225469434
 30
0.0
 10
14.3287937135
 20
12.3173845114
 30
0.0
 10
14.3350960536
 20
12.2130628502
 30
0.0
 10
14.3440585869
 20
12.1100353273
 30
0.0
 10
14.3556421772
 20
12.0087496301
 30
0.0
 10
14.3697964889
 20
11.9096457944
 30
0.0
 10
14.3864594308
 20
11.8131540953
 30
0.0
 10
14.4055580857
 20
11.7196931888
 30
0.0
 10
14.4270091939
 20
11.6296683707
 30
0.0
 10
14.4507194862
 20
11.5434696529
 30
0.0
 10
14.4765854446
 20
11.4614697059
 30
0.0
 10
14.5044946989
 20
11.3840223606
 30
0.0
 10
14.5343267967
 20
11.311461088
 30
0.0
 10
14.5659537114
 20
11.2440972178
 30
0.0
 10
14.5992406697
 20
11.182218037
 30
0.0
 10
14.6340478069
 20
11.1260866198
 30
0.0
 10
14.6702339003
 20
11.0759394029
 30
0.0
 10
14.7076515867
 20
11.0319923998
 30
0.0
 10
14.7403089847
 20
11.0001383044
 30
0.0
 10
14.7669190366
 20
10.9781207787
 30
0.0
 10
14.7928893253
 20
10.9590370872
 30
0.0
 10
14.8196915073
 20
10.9428714754
 30
0.0
 10
14.8471430966
 20
10.9300745435
 30
0.0
 10
14.8609062672
 20
10.9248591437
 30
0.0
 10
14.867786994
 20
10.9225558636
 30
0.0
  0
SPLINE
  5
2CA
100
AcDbEntity
  8
02___PRT_ALL_AXES
100
AcDbSpline
 62
7
  6
CONTINUOUS
 70
0
 71
3
 72
23
 73
19
 74
0
 42
0.0000001
 43
0.0000001
 44
0.0000000001
 40
0.0
 40
0.0
 40
0.0
 40
0.0
 40
0.0558267961
 40
0.1106070311
 40
0.1647893551
 40
0.2188411972
 40
0.2732340531
 40
0.3284288578
 40
0.3848614738
 40
0.4429333345
 40
0.5030020986
 40
0.5653805412
 40
0.6303332221
 40
0.698080429
 40
0.7687993283
 40
0.8426283523
 40
0.9196714218
 40
1.0
 40
1.0
 40
1.0
 40
1.0
 10
14.9457358068
 20
14.12514701
 30
0.0
 10
14.9539259539
 20
14.1278887024
 30
0.0
 10
14.9704145178
 20
14.1325775286
 30
0.0
 10
14.9955381726
 20
14.1371383479
 30
0.0
 10
15.0207225937
 20
14.1391341726
 30
0.0
 10
15.0459191827
 20
14.1385584504
 30
0.0
 10
15.0710826402
 20
14.1354142136
 30
0.0
 10
15.0961671956
 20
14.1297074573
 30
0.0
 10
15.121130181
 20
14.121454086
 30
0.0
 10
15.1459297106
 20
14.1106699496
 30
0.0
 10
15.1705279977
 20
14.0973792356
 30
0.0
 10
15.1948868277
 20
14.0816049377
 30
0.0
 10
15.2189712212
 20
14.0633762773
 30
0.0
 10
15.242745209
 20
14.0427227345
 30
0.0
 10
15.2661743212
 20
14.0196782451
 30
0.0
 10
15.2892242099
 20
13.9942790466
 30
0.0
 10
15.311859594
 20
13.9665652613
 30
0.0
 10
15.3263476456
 20
13.946986071
 30
0.0
 10
15.3335224563
 20
13.9368389258
 30
0.0
  0
SPLINE
  5
2CB
100
AcDbEntity
  8
02___PRT_ALL_AXES
100
AcDbSpline
 62
7
  6
CONTINUOUS
 70
0
 71
3
 72
23
 73
19
 74
0
 42
0.0000001
 43
0.0000001
 44
0.0000000001
 40
0.0
 40
0.0
 40
0.0
 40
0.0
 40
0.0838346687
 40
0.1650436693
 40
0.2434895293
 40
0.3190804931
 40
0.3917410857
 40
0.4614081462
 40
0.528039855
 40
0.591620661
 40
0.6521628064
 40
0.7097098985
 40
0.7643437711
 40
0.8161881557
 40
0.8654171491
 40
0.9122586948
 40
0.95700246
 40
1.0
 40
1.0
 40
1.0
 40
1.0
 10
14.4598289004
 20
13.5064293163
 30
0.0
 10
14.4659570932
 20
13.5262601553
 30
0.0
 10
14.4785583779
 20
13.5651377043
 30
0.0
 10
14.4988373243
 20
13.6219182224
 30
0.0
 10
14.5201570983
 20
13.6761303417
 30
0.0
 10
14.5424657274
 20
13.7276456919
 30
0.0
 10
14.5657131671
 20
13.7763480087
 30
0.0
 10
14.5898459667
 20
13.8221263399
 30
0.0
 10
14.614809634
 20
13.8648751244
 30
0.0
 10
14.6405475268
 20
13.904496724
 30
0.0
 10
14.6670018457
 20
13.9409011109
 30
0.0
 10
14.694114932
 20
13.9740047256
 30
0.0
 10
14.7218267662
 20
14.0037323732
 30
0.0
 10
14.7500795368
 20
14.0300139359
 30
0.0
 10
14.7788117599
 20
14.0527880615
 30
0.0
 10
14.8079664911
 20
14.0719962102
 30
0.0
 10
14.8374748405
 20
14.0875867345
 30
0.0
 10
14.8576920708
 20
14.0956748819
 30
0.0
 10
14.8677869933
 20
14.0990541348
 30
0.0
  0
SPLINE
  5
2CC
100
AcDbEntity
  8
02___PRT_ALL_AXES
100
AcDbSpline
 62
7
  6
CONTINUOUS
 70
0
 71
3
 72
22
 73
18
 74
0
 42
0.0000001
 43
0.0000001
 44
0.0000000001
 40
0.0
 40
0.0
 40
0.0
 40
0.0
 40
0.0559430988
 40
0.1108413299
 40
0.1651384236
 40
0.2192968881
 40
0.2737835752
 40
0.3290547846
 40
0.3855435887
 40
0.4436479886
 40
0.5659899474
 40
0.6308993918
 40
0.6985784273
 40
0.7692047064
 40
0.8429191577
 40
0.9198258261
 40
1.0
 40
1.0
 40
1.0
 40
1.0
 10
14.9457358079
 20
10.8964629975
 30
0.0
 10
14.953876141
 20
10.8937382041
 30
0.0
 10
14.9702631047
 20
10.8890731195
 30
0.0
 10
14.9952299642
 20
10.8845169857
 30
0.0
 10
15.0202573241
 20
10.8824950907
 30
0.0
 10
15.0452975276
 20
10.8830110921
 30
0.0
 10
15.0703060527
 20
10.8860661194
 30
0.0
 10
15.0952382507
 20
10.8916497651
 30
0.0
 10
15.120052691
 20
10.8997521919
 30
0.0
 10
15.1534908581
 20
10.9141277831
 30
0.0
 10
15.1860273753
 20
10.9334431281
 30
0.0
 10
15.2173396417
 20
10.9569202646
 30
0.0
 10
15.2409926076
 20
10.9772777733
 30
0.0
 10
15.264304597
 20
10.9999971163
 30
0.0
 10
15.2872449666
 20
11.025046572
 30
0.0
 10
15.3097797559
 20
11.0523848172
 30
0.0
 10
15.3242079938
 20
11.0717053715
 30
0.0
 10
15.3313544219
 20
11.0817192772
 30
0.0
  0
SPLINE
  5
2CD
100
AcDbEntity
  8
02___PRT_ALL_AXES
100
AcDbSpline
 62
7
  6
CONTINUOUS
 70
0
 71
3
 72
36
 73
32
 74
0
 42
0.0000001
 43
0.0000001
 44
0.0000000001
 40
0.0
 40
0.0
 40
0.0
 40
0.0
 40
0.0937764619
 40
0.1827346179
 40
0.2665847268
 40
0.3065360752
 40
0.3451426031
 40
0.3823936827
 40
0.4182857545
 40
0.4528227158
 40
0.4860179474
 40
0.5178935213
 40
0.5484837046
 40
0.577834418
 40
0.6060053901
 40
0.6330718384
 40
0.6591244545
 40
0.6842720504
 40
0.7086403063
 40
0.7323723531
 40
0.7556268553
 40
0.7785750081
 40
0.8013969254
 40
0.8242762936
 40
0.8473951471
 40
0.8709285464
 40
0.8950404384
 40
0.9198796662
 40
0.9455790567
 40
0.972253293
 40
1.0
 40
1.0
 40
1.0
 40
1.0
 10
14.6057796762
 20
13.4436285265
 30
0.0
 10
14.614759341
 20
13.4726867326
 30
0.0
 10
14.6334728973
 20
13.5289462895
 30
0.0
 10
14.6647104762
 20
13.6096029174
 30
0.0
 10
14.6930902713
 20
13.6725472904
 30
0.0
 10
14.7169626371
 20
13.7195087663
 30
0.0
 10
14.7350787132
 20
13.7524192372
 30
0.0
 10
14.7536684542
 20
13.7835411147
 30
0.0
 10
14.7727056814
 20
13.812830263
 30
0.0
 10
14.7921643105
 20
13.8402443747
 30
0.0
 10
14.8120157206
 20
13.8657451259
 30
0.0
 10
14.8322337216
 20
13.889295
 30
0.0
 10
14.8527892178
 20
13.9108609277
 30
0.0
 10
14.8736544639
 20
13.9304114492
 30
0.0
 10
14.8948013957
 20
13.94791738
 30
0.0
 10
14.9162003293
 20
13.9633536507
 30
0.0
 10
14.9378235187
 20
13.9766945194
 30
0.0
 10
14.9596400299
 20
13.9879199492
 30
0.0
 10
14.9816199853
 20
13.9970092975
 30
0.0
 10
15.0037311391
 20
14.0039456605
 30
0.0
 10
15.0259396713
 20
14.0087161675
 30
0.0
 10
15.0482106508
 20
14.0113083513
 30
0.0
 10
15.0705071228
 20
14.0117188881
 30
0.0
 10
15.0927919832
 20
14.009944636
 30
0.0
 10
15.115028169
 20
14.0059908624
 30
0.0
 10
15.13718005
 20
13.9998664386
 30
0.0
 10
15.1592128034
 20
13.9915826904
 30
0.0
 10
15.1810946727
 20
13.9811576786
 30
0.0
 10
15.2027937559
 20
13.9686076921
 30
0.0
 10
15.2242798154
 20
13.953956047
 30
0.0
 10
15.2381576494
 20
13.9430262955
 30
0.0
 10
15.2450512018
 20
13.9372418351
 30
0.0
  0
SPLINE
  5
2CE
100
AcDbEntity
  8
02___PRT_ALL_AXES
100
AcDbSpline
 62
7
  6
CONTINUOUS
 70
0
 71
3
 72
22
 73
18
 74
0
 42
0.0000001
 43
0.0000001
 44
0.0000000001
 40
0.0
 40
0.0
 40
0.0
 40
0.0
 40
0.0799361629
 40
0.1577645973
 40
0.2333840165
 40
0.3067234517
 40
0.3777266885
 40
0.4463438193
 40
0.5125326444
 40
0.57626558
 40
0.6375296386
 40
0.6963276625
 40
0.7526803563
 40
0.8066283129
 40
0.8582359513
 40
0.907592571
 40
1.0
 40
1.0
 40
1.0
 40
1.0
 10
14.5310755463
 20
13.5227860213
 30
0.0
 10
14.5363874976
 20
13.5399755019
 30
0.0
 10
14.5472692625
 20
13.5737800016
 30
0.0
 10
14.5646089832
 20
13.6233700007
 30
0.0
 10
14.5827255157
 20
13.6710974967
 30
0.0
 10
14.6015862317
 20
13.7168791921
 30
0.0
 10
14.6211607989
 20
13.760639976
 30
0.0
 10
14.6414160228
 20
13.8023083438
 30
0.0
 10
14.6623190731
 20
13.841814379
 30
0.0
 10
14.6838347779
 20
13.8790921644
 30
0.0
 10
14.7059278283
 20
13.9140798543
 30
0.0
 10
14.7285620573
 20
13.9467193392
 30
0.0
 10
14.7517006465
 20
13.9769570545
 30
0.0
 10
14.7753056345
 20
14.0047411463
 30
0.0
 10
14.7993430308
 20
14.0300298422
 30
0.0
 10
14.8312041599
 20
14.0596984233
 30
0.0
 10
14.8566827818
 20
14.0791499633
 30
0.0
 10
14.8741945595
 20
14.0903711257
 30
0.0
  0
SPLINE
  5
2CF
100
AcDbEntity
  8
02___PRT_ALL_AXES
100
AcDbSpline
 62
7
  6
CONTINUOUS
 70
0
 71
3
 72
9
 73
5
 74
0
 42
0.0000001
 43
0.0000001
 44
0.0000000001
 40
0.0
 40
0.0
 40
0.0
 40
0.0
 40
0.5122606752
 40
1.0
 40
1.0
 40
1.0
 40
1.0
 10
14.8741945595
 20
14.0903711257
 30
0.0
 10
14.8856526938
 20
14.0977132463
 30
0.0
 10
14.9088180013
 20
14.1108529943
 30
0.0
 10
14.9334487526
 20
14.1210338575
 30
0.0
 10
14.9457358068
 20
14.12514701
 30
0.0
  0
SPLINE
  5
2D0
100
AcDbEntity
  8
02___PRT_ALL_AXES
100
AcDbSpline
 62
7
  6
CONTINUOUS
 70
0
 71
3
 72
39
 73
35
 74
0
 42
0.0000001
 43
0.0000001
 44
0.0000000001
 40
0.0
 40
0.0
 40
0.0
 40
0.0
 40
0.0311420637
 40
0.0633760232
 40
0.0966045933
 40
0.1307329832
 40
0.1656562306
 40
0.2012649508
 40
0.23744597
 40
0.2740824386
 40
0.3110548552
 40
0.348241832
 40
0.3855207498
 40
0.4227684355
 40
0.459861923
 40
0.4966791289
 40
0.533099505
 40
0.569004856
 40
0.6042800462
 40
0.6388136728
 40
0.6724989489
 40
0.7052346379
 40
0.7369258194
 40
0.7674848949
 40
0.7968329707
 40
0.824901045
 40
0.8516314667
 40
0.8769800226
 40
0.9009183805
 40
0.9234367812
 40
0.9445477379
 40
0.964290864
 40
0.9827381451
 40
1.0
 40
1.0
 40
1.0
 40
1.0
 10
14.5310755463
 20
13.5227860213
 30
0.0
 10
14.5227231639
 20
13.495757702
 30
0.0
 10
14.5067355576
 20
13.440436939
 30
0.0
 10
14.4852074139
 20
13.3553480995
 30
0.0
 10
14.4657831671
 20
13.2669749538
 30
0.0
 10
14.4485384724
 20
13.1756648956
 30
0.0
 10
14.4335406929
 20
13.0817695748
 30
0.0
 10
14.420848278
 20
12.9856545376
 30
0.0
 10
14.4105107759
 20
12.8876932373
 30
0.0
 10
14.4025689753
 20
12.788266301
 30
0.0
 10
14.3970536091
 20
12.6877603801
 30
0.0
 10
14.3939861492
 20
12.586566296
 30
0.0
 10
14.3933788506
 20
12.4850775655
 30
0.0
 10
14.3952341117
 20
12.3836888932
 30
0.0
 10
14.3995444023
 20
12.2827945719
 30
0.0
 10
14.4062929332
 20
12.1827869573
 30
0.0
 10
14.4154536321
 20
12.0840549382
 30
0.0
 10
14.4269904105
 20
11.9869823063
 30
0.0
 10
14.440858063
 20
11.8919462951
 30
0.0
 10
14.4570026506
 20
11.799316176
 30
0.0
 10
14.4753611716
 20
11.7094516488
 30
0.0
 10
14.49586166
 20
11.6227013187
 30
0.0
 10
14.5184242012
 20
11.5394015053
 30
0.0
 10
14.54296128
 20
11.4598748721
 30
0.0
 10
14.5693772464
 20
11.3844287371
 30
0.0
 10
14.5975696212
 20
11.3133540059
 30
0.0
 10
14.6274299751
 20
11.2469241991
 30
0.0
 10
14.6588441472
 20
11.1853939688
 30
0.0
 10
14.691692782
 20
11.1289979255
 30
0.0
 10
14.725853748
 20
11.0779502061
 30
0.0
 10
14.7612022874
 20
11.0324451266
 30
0.0
 10
14.797615996
 20
10.9926542292
 30
0.0
 10
14.8349617898
 20
10.9587373925
 30
0.0
 10
14.8612147608
 20
10.939542666
 30
0.0
 10
14.8744234916
 20
10.9310920684
 30
0.0
  0
SPLINE
  5
2D1
100
AcDbEntity
  8
02___PRT_ALL_AXES
100
AcDbSpline
 62
7
  6
CONTINUOUS
 70
0
 71
3
 72
9
 73
5
 74
0
 42
0.0000001
 43
0.0000001
 44
0.0000000001
 40
0.0
 40
0.0
 40
0.0
 40
0.0
 40
0.51221239
 40
1.0
 40
1.0
 40
1.0
 40
1.0
 10
14.8744234916
 20
10.9310920684
 30
0.0
 10
14.8858467249
 20
10.9237837849
 30
0.0
 10
14.9089409657
 20
10.9107034292
 30
0.0
 10
14.9334892976
 20
10.9005622414
 30
0.0
 10
14.9457358079
 20
10.8964629975
 30
0.0
  0
SPLINE
  5
2D2
100
AcDbEntity
  8
02___PRT_ALL_AXES
100
AcDbSpline
 62
7
  6
CONTINUOUS
 70
0
 71
3
 72
52
 73
48
 74
0
 42
0.0000001
 43
0.0000001
 44
0.0000000001
 40
0.0
 40
0.0
 40
0.0
 40
0.0
 40
0.0376884842
 40
0.076582205
 40
0.1165034727
 40
0.1572662389
 40
0.1986770203
 40
0.2405366018
 40
0.2826420308
 40
0.324788244
 40
0.3667698291
 40
0.4083827705
 40
0.4494261862
 40
0.4897040833
 40
0.5290271722
 40
0.567214787
 40
0.6040970047
 40
0.639516891
 40
0.6733330266
 40
0.705422482
 40
0.7207886357
 40
0.7356875255
 40
0.7501105519
 40
0.7640515394
 40
0.7775062692
 40
0.7904730725
 40
0.8029532276
 40
0.8149507603
 40
0.8264736081
 40
0.8375332415
 40
0.848145672
 40
0.8583317787
 40
0.8681175417
 40
0.8775350464
 40
0.8866221762
 40
0.8954233129
 40
0.9039889159
 40
0.9123750558
 40
0.9206426219
 40
0.9288557296
 40
0.9370801426
 40
0.9453812613
 40
0.9538223149
 40
0.9624625825
 40
0.9713564329
 40
0.9805521437
 40
1.0
 40
1.0
 40
1.0
 40
1.0
 10
14.5640699134
 20
13.2898275138
 30
0.0
 10
14.5562666761
 20
13.2568356874
 30
0.0
 10
14.5417120752
 20
13.1894833634
 30
0.0
 10
14.5232363342
 20
13.0863060593
 30
0.0
 10
14.5078477358
 20
12.979828348
 30
0.0
 10
14.4956354649
 20
12.8706627775
 30
0.0
 10
14.4866698388
 20
12.7594341207
 30
0.0
 10
14.4810027519
 20
12.6467799715
 30
0.0
 10
14.4786669315
 20
12.533346151
 30
0.0
 10
14.4796759976
 20
12.4197830691
 30
0.0
 10
14.4840241215
 20
12.3067419157
 30
0.0
 10
14.4916860703
 20
12.194870804
 30
0.0
 10
14.5026175386
 20
12.0848109726
 30
0.0
 10
14.5167553776
 20
11.9771930505
 30
0.0
 10
14.5340179762
 20
11.8726333942
 30
0.0
 10
14.5543058116
 20
11.7717303134
 30
0.0
 10
14.5775017984
 20
11.6750607013
 30
0.0
 10
14.6034723935
 20
11.5831754108
 30
0.0
 10
14.6320683105
 20
11.4965998311
 30
0.0
 10
14.658316031
 20
11.4283297403
 30
0.0
 10
14.6805711289
 20
11.3768368748
 30
0.0
 10
14.69757048
 20
11.3404031156
 30
0.0
 10
14.7150955958
 20
11.3056488546
 30
0.0
 10
14.7331207378
 20
11.272623136
 30
0.0
 10
14.7516207241
 20
11.2413732106
 30
0.0
 10
14.7705697439
 20
11.2119437865
 30
0.0
 10
14.7899401177
 20
11.1843761518
 30
0.0
 10
14.8097062076
 20
11.158710422
 30
0.0
 10
14.8298391495
 20
11.1349822629
 30
0.0
 10
14.8503121293
 20
11.1132261934
 30
0.0
 10
14.8710969788
 20
11.0934735257
 30
0.0
 10
14.8921648749
 20
11.0757523612
 30
0.0
 10
14.9134885435
 20
11.0600904965
 30
0.0
 10
14.9350377802
 20
11.0465103497
 30
0.0
 10
14.9567842789
 20
11.0350353094
 30
0.0
 10
14.9786971149
 20
11.0256843014
 30
0.0
 10
15.0007447114
 20
11.0184741619
 30
0.0
 10
15.0228942631
 20
11.0134207776
 30
0.0
 10
15.0451104258
 20
11.0105325809
 30
0.0
 10
15.0673573439
 20
11.0098185055
 30
0.0
 10
15.0895978448
 20
11.0112783866
 30
0.0
 10
15.1117952629
 20
11.0149094502
 30
0.0
 10
15.1339135595
 20
11.0207045082
 30
0.0
 10
15.1559186494
 20
11.0286493955
 30
0.0
 10
15.1777787039
 20
11.0387320894
 30
0.0
 10
15.2072308414
 20
11.0553018288
 30
0.0
 10
15.2281898264
 20
11.0704795486
 30
0.0
 10
15.2417040592
 20
11.081588373
 30
0.0
  0
SPLINE
  5
2D3
100
AcDbEntity
  8
02___PRT_ALL_AXES
100
AcDbSpline
 62
7
  6
CONTINUOUS
 70
0
 71
3
 72
23
 73
19
 74
0
 42
0.0000001
 43
0.0000001
 44
0.0000000001
 40
0.0
 40
0.0
 40
0.0
 40
0.0
 40
0.0426285774
 40
0.0859998629
 40
0.1308108304
 40
0.1776770664
 40
0.2271131305
 40
0.2795289354
 40
0.335232959
 40
0.3944462074
 40
0.4573098827
 40
0.5239019816
 40
0.5942437678
 40
0.6683089634
 40
0.7460288179
 40
0.8273093295
 40
0.912029545
 40
1.0
 40
1.0
 40
1.0
 40
1.0
 10
15.9615774478
 20
13.7628049321
 30
0.0
 10
15.952416856
 20
13.7628047686
 30
0.0
 10
15.9339091762
 20
13.7614564431
 30
0.0
 10
15.9063652736
 20
13.7554215837
 30
0.0
 10
15.8790375664
 20
13.7454076185
 30
0.0
 10
15.8520259958
 20
13.7314697842
 30
0.0
 10
15.8254083648
 20
13.7136727327
 30
0.0
 10
15.7992607829
 20
13.692083861
 30
0.0
 10
15.7736531318
 20
13.6667795377
 30
0.0
 10
15.7486590576
 20
13.6378397413
 30
0.0
 10
15.724348034
 20
13.6053569041
 30
0.0
 10
15.7007933641
 20
13.5694303508
 30
0.0
 10
15.6780646914
 20
13.530171962
 30
0.0
 10
15.6562323001
 20
13.4877037666
 30
0.0
 10
15.6353629019
 20
13.4421577008
 30
0.0
 10
15.615520746
 20
13.3936731856
 30
0.0
 10
15.5967711639
 20
13.3424060069
 30
0.0
 10
15.5852464619
 20
13.307122191
 30
0.0
 10
15.5796650308
 20
13.2890606732
 30
0.0
  0
SPLINE
  5
2D4
100
AcDbEntity
  8
02___PRT_ALL_AXES
100
AcDbSpline
 62
7
  6
CONTINUOUS
 70
0
 71
3
 72
28
 73
24
 74
0
 42
0.0000001
 43
0.0000001
 44
0.0000000001
 40
0.0
 40
0.0
 40
0.0
 40
0.0
 40
0.022910253
 40
0.0454449955
 40
0.0677236623
 40
0.0898711362
 40
0.112014933
 40
0.1342827335
 40
0.1567994808
 40
0.1796851489
 40
0.2030525826
 40
0.2270056094
 40
0.2770098096
 40
0.3303593094
 40
0.3875243486
 40
0.4488308955
 40
0.5144813152
 40
0.5845749623
 40
0.6591273658
 40
0.7380837637
 40
0.8213278067
 40
0.9087067175
 40
1.0
 40
1.0
 40
1.0
 40
1.0
 10
15.996489129
 20
14.1251469883
 30
0.0
 10
15.9898140649
 20
14.1273813159
 30
0.0
 10
15.9764011371
 20
14.1313193362
 30
0.0
 10
15.9560167733
 20
14.135599983
 30
0.0
 10
15.9355836401
 20
14.1381899203
 30
0.0
 10
15.9151266889
 20
14.1390860526
 30
0.0
 10
15.8946689126
 20
14.1382872809
 30
0.0
 10
15.874234141
 20
14.1357934284
 30
0.0
 10
15.8538453656
 20
14.1316097986
 30
0.0
 10
15.8335255531
 20
14.1257414319
 30
0.0
 10
15.8132962815
 20
14.1181955794
 30
0.0
 10
15.7860882043
 20
14.1057370678
 30
0.0
 10
15.7523124789
 20
14.085769111
 30
0.0
 10
15.7131318952
 20
14.0556497051
 30
0.0
 10
15.6748475144
 20
14.0191753859
 30
0.0
 10
15.6376001825
 20
13.976506314
 30
0.0
 10
15.6015225879
 20
13.9278167843
 30
0.0
 10
15.5667509736
 20
13.8733035305
 30
0.0
 10
15.5334205181
 20
13.8131855259
 30
0.0
 10
15.5016645738
 20
13.7477060862
 30
0.0
 10
15.4716093192
 20
13.6771290555
 30
0.0
 10
15.4433803948
 20
13.6017454742
 30
0.0
 10
15.426214613
 20
13.5495850951
 30
0.0
 10
15.4179330729
 20
13.5227860213
 30
0.0
  0
SPLINE
  5
2D5
100
AcDbEntity
  8
02___PRT_ALL_AXES
100
AcDbSpline
 62
7
  6
CONTINUOUS
 70
0
 71
3
 72
23
 73
19
 74
0
 42
0.0000001
 43
0.0000001
 44
0.0000000001
 40
0.0
 40
0.0
 40
0.0
 40
0.0
 40
0.0838346687
 40
0.1650436693
 40
0.2434895293
 40
0.3190804931
 40
0.3917410857
 40
0.4614081462
 40
0.528039855
 40
0.591620661
 40
0.6521628064
 40
0.7097098985
 40
0.7643437711
 40
0.8161881557
 40
0.8654171491
 40
0.9122586948
 40
0.95700246
 40
1.0
 40
1.0
 40
1.0
 40
1.0
 10
16.4823960365
 20
11.5151806695
 30
0.0
 10
16.4762678438
 20
11.4953498305
 30
0.0
 10
16.4636665591
 20
11.4564722815
 30
0.0
 10
16.4433876126
 20
11.3996917634
 30
0.0
 10
16.4220678386
 20
11.3454796441
 30
0.0
 10
16.3997592095
 20
11.2939642939
 30
0.0
 10
16.3765117698
 20
11.2452619771
 30
0.0
 10
16.3523789703
 20
11.1994836459
 30
0.0
 10
16.327415303
 20
11.1567348614
 30
0.0
 10
16.3016774102
 20
11.1171132618
 30
0.0
 10
16.2752230913
 20
11.0807088749
 30
0.0
 10
16.2481100049
 20
11.0476052602
 30
0.0
 10
16.2203981707
 20
11.0178776126
 30
0.0
 10
16.1921454002
 20
10.9915960499
 30
0.0
 10
16.163413177
 20
10.9688219243
 30
0.0
 10
16.1342584458
 20
10.9496137756
 30
0.0
 10
16.1047500965
 20
10.9340232513
 30
0.0
 10
16.0845328661
 20
10.9259351039
 30
0.0
 10
16.0744379436
 20
10.9225558511
 30
0.0
  0
SPLINE
  5
2D6
100
AcDbEntity
  8
02___PRT_ALL_AXES
100
AcDbSpline
 62
7
  6
CONTINUOUS
 70
0
 71
3
 72
41
 73
37
 74
0
 42
0.0000001
 43
0.0000001
 44
0.0000000001
 40
0.0
 40
0.0
 40
0.0
 40
0.0
 40
0.032027984
 40
0.06523626
 40
0.0995132372
 40
0.1347486352
 40
0.1708206164
 40
0.2076023662
 40
0.2449624806
 40
0.2827655305
 40
0.3208732439
 40
0.3591453853
 40
0.3974407022
 40
0.4356177718
 40
0.4735359112
 40
0.5110561355
 40
0.5480420174
 40
0.5843605871
 40
0.6198834288
 40
0.654487665
 40
0.688056953
 40
0.7204826993
 40
0.7516655555
 40
0.7815167724
 40
0.8099598848
 40
0.8369329594
 40
0.8623913221
 40
0.8863106089
 40
0.9086908683
 40
0.9295620004
 40
0.9489902115
 40
0.9581991841
 40
0.9670929312
 40
0.9840167973
 40
0.9921110624
 40
1.0
 40
1.0
 40
1.0
 40
1.0
 10
16.4823960365
 20
11.5151806695
 30
0.0
 10
16.4910935327
 20
11.5433257776
 30
0.0
 10
16.5076952257
 20
11.6010023741
 30
0.0
 10
16.5298971552
 20
11.6898150991
 30
0.0
 10
16.5497758795
 20
11.7821962153
 30
0.0
 10
16.5672450441
 20
11.8777402723
 30
0.0
 10
16.5822279818
 20
11.9760358022
 30
0.0
 10
16.5946595037
 20
12.0766550599
 30
0.0
 10
16.604485401
 20
12.1791611053
 30
0.0
 10
16.6116624005
 20
12.283108691
 30
0.0
 10
16.6161591196
 20
12.3880460147
 30
0.0
 10
16.6179561497
 20
12.4935169519
 30
0.0
 10
16.617045617
 20
12.5990630424
 30
0.0
 10
16.6134312235
 20
12.7042254745
 30
0.0
 10
16.6071288833
 20
12.8085471356
 30
0.0
 10
16.59816635
 20
12.9115746585
 30
0.0
 10
16.5865827597
 20
13.0128603557
 30
0.0
 10
16.572428448
 20
13.1119641914
 30
0.0
 10
16.5557655061
 20
13.2084558905
 30
0.0
 10
16.5366668512
 20
13.3019167971
 30
0.0
 10
16.5152157431
 20
13.3919416151
 30
0.0
 10
16.4915054508
 20
13.4781403329
 30
0.0
 10
16.4656394923
 20
13.5601402799
 30
0.0
 10
16.4377302381
 20
13.6375876253
 30
0.0
 10
16.4078981403
 20
13.7101488978
 30
0.0
 10
16.3762712256
 20
13.777512768
 30
0.0
 10
16.3429842672
 20
13.8393919488
 30
0.0
 10
16.3081771301
 20
13.895523366
 30
0.0
 10
16.2719910367
 20
13.9456705829
 30
0.0
 10
16.2345733503
 20
13.989617586
 30
0.0
 10
16.2019159523
 20
14.0214716814
 30
0.0
 10
16.1753059004
 20
14.0434892071
 30
0.0
 10
16.1493356116
 20
14.0625728986
 30
0.0
 10
16.1225334296
 20
14.0787385105
 30
0.0
 10
16.0950818404
 20
14.0915354423
 30
0.0
 10
16.0813186698
 20
14.0967508421
 30
0.0
 10
16.074437943
 20
14.0990541222
 30
0.0
  0
SPLINE
  5
2D7
100
AcDbEntity
  8
02___PRT_ALL_AXES
100
AcDbSpline
 62
7
  6
CONTINUOUS
 70
0
 71
3
 72
51
 73
47
 74
0
 42
0.0000001
 43
0.0000001
 44
0.0000000001
 40
0.0
 40
0.0
 40
0.0
 40
0.0
 40
0.0081714454
 40
0.0161957385
 40
0.0241301345
 40
0.0320343358
 40
0.0399688934
 40
0.0479935344
 40
0.0561654719
 40
0.0645381762
 40
0.0731603068
 40
0.0820750813
 40
0.0913202393
 40
0.1009276876
 40
0.1109242538
 40
0.1213315067
 40
0.1321665922
 40
0.1434424753
 40
0.1551682523
 40
0.1673499345
 40
0.1799901888
 40
0.193089343
 40
0.2066450501
 40
0.2206529291
 40
0.2351066795
 40
0.2499980496
 40
0.2810512447
 40
0.3137205666
 40
0.3478916827
 40
0.3834338098
 40
0.4202023121
 40
0.4580409341
 40
0.4967837796
 40
0.5362571118
 40
0.5762810488
 40
0.616671197
 40
0.6572402064
 40
0.6977992945
 40
0.7381597508
 40
0.7781344514
 40
0.8175394108
 40
0.8561952607
 40
0.8939293
 40
0.9305756893
 40
0.9659813465
 40
1.0
 40
1.0
 40
1.0
 40
1.0
 10
15.9964891301
 20
10.8964629758
 30
0.0
 10
15.9888138807
 20
10.8938936479
 30
0.0
 10
15.9733724097
 20
10.8894541582
 30
0.0
 10
15.94986452
 20
10.884959387
 30
0.0
 10
15.9262994817
 20
10.8827103964
 30
0.0
 10
15.9027163358
 20
10.8827141833
 30
0.0
 10
15.8791516648
 20
10.8849683749
 30
0.0
 10
15.8556426801
 20
10.8894705741
 30
0.0
 10
15.8322247146
 20
10.8962095264
 30
0.0
 10
15.8089321898
 20
10.9051734786
 30
0.0
 10
15.7857977505
 20
10.9163460493
 30
0.0
 10
15.7628521767
 20
10.929707917
 30
0.0
 10
15.740126609
 20
10.9452393571
 30
0.0
 10
15.717649362
 20
10.9629155652
 30
0.0
 10
15.695450771
 20
10.9827125437
 30
0.0
 10
15.6735585968
 20
11.0046013581
 30
0.0
 10
15.6520018846
 20
11.028552282
 30
0.0
 10
15.6308090511
 20
11.0545324836
 30
0.0
 10
15.610007399
 20
11.0825061067
 30
0.0
 10
15.5896258174
 20
11.1124358006
 30
0.0
 10
15.5696902433
 20
11.1442801041
 30
0.0
 10
15.550228774
 20
11.1779963642
 30
0.0
 10
15.5312668533
 20
11.2135382707
 30
0.0
 10
15.5128305827
 20
11.2508575441
 30
0.0
 10
15.4949450548
 20
11.2899035206
 30
0.0
 10
15.4715372969
 20
11.3449658877
 30
0.0
 10
15.4439131373
 20
11.417806469
 30
0.0
 10
15.4137772249
 20
11.5100008863
 30
0.0
 10
15.3863712677
 20
11.6076674721
 30
0.0
 10
15.3618457541
 20
11.710272631
 30
0.0
 10
15.3403354538
 20
11.8172576974
 30
0.0
 10
15.3219588401
 20
11.9280383926
 30
0.0
 10
15.3068172348
 20
12.0420092847
 30
0.0
 10
15.2949941681
 20
12.1585469263
 30
0.0
 10
15.2865547984
 20
12.2770134878
 30
0.0
 10
15.2815456645
 20
12.3967603627
 30
0.0
 10
15.2799943936
 20
12.5171318158
 30
0.0
 10
15.2819095567
 20
12.637468628
 30
0.0
 10
15.2872806099
 20
12.7571117573
 30
0.0
 10
15.2960779632
 20
12.8754060355
 30
0.0
 10
15.3082531128
 20
12.9917037345
 30
0.0
 10
15.3237387083
 20
13.105368705
 30
0.0
 10
15.3424496215
 20
13.2157783421
 30
0.0
 10
15.36428235
 20
13.3223315749
 30
0.0
 10
15.3891169174
 20
13.424442132
 30
0.0
 10
15.4079844937
 20
13.4905924071
 30
0.0
 10
15.4179330729
 20
13.5227860213
 30
0.0
  0
SPLINE
  5
2D8
100
AcDbEntity
  8
02___PRT_ALL_AXES
100
AcDbSpline
 62
7
  6
CONTINUOUS
 70
0
 71
3
 72
36
 73
32
 74
0
 42
0.0000001
 43
0.0000001
 44
0.0000000001
 40
0.0
 40
0.0
 40
0.0
 40
0.0
 40
0.0079150063
 40
0.0158673597
 40
0.023893707
 40
0.0320294927
 40
0.0487526943
 40
0.0662889004
 40
0.0848381343
 40
0.1045568711
 40
0.1255610683
 40
0.1479311864
 40
0.1717164276
 40
0.1969409333
 40
0.223606312
 40
0.2516964946
 40
0.2811795538
 40
0.312010253
 40
0.3441322854
 40
0.3774788168
 40
0.4119750684
 40
0.4475380699
 40
0.4840787131
 40
0.5215019297
 40
0.5597076522
 40
0.5985917672
 40
0.6779548712
 40
0.7587025999
 40
0.8399123459
 40
0.9206523227
 40
1.0
 40
1.0
 40
1.0
 40
1.0
 10
15.9615774478
 20
11.2588050537
 30
0.0
 10
15.9568459204
 20
11.2588049692
 30
0.0
 10
15.9473567198
 20
11.2591604087
 30
0.0
 10
15.9331504736
 20
11.2607578228
 30
0.0
 10
15.9189690596
 20
11.2634176874
 30
0.0
 10
15.8999430341
 20
11.2684208114
 30
0.0
 10
15.8761693843
 20
11.2774416804
 30
0.0
 10
15.8482627294
 20
11.2923595651
 30
0.0
 10
15.8207904819
 20
11.3113998697
 30
0.0
 10
15.7938377931
 20
11.3344830658
 30
0.0
 10
15.7674813632
 20
11.3615247487
 30
0.0
 10
15.7418013148
 20
11.3924329744
 30
0.0
 10
15.7168745721
 20
11.4271033505
 30
0.0
 10
15.6927817757
 20
11.4654223317
 30
0.0
 10
15.669598929
 20
11.507262204
 30
0.0
 10
15.6474030807
 20
11.5524846682
 30
0.0
 10
15.6262675285
 20
11.6009389693
 30
0.0
 10
15.6062623416
 20
11.6524630799
 30
0.0
 10
15.5874559089
 20
11.7068846799
 30
0.0
 10
15.5699100728
 20
11.7640206577
 30
0.0
 10
15.5536857048
 20
11.8236791405
 30
0.0
 10
15.5388364793
 20
11.8856589541
 30
0.0
 10
15.525413396
 20
11.9497512442
 30
0.0
 10
15.5134620389
 20
12.0157396432
 30
0.0
 10
15.5030220904
 20
12.0834016945
 30
0.0
 10
15.491086488
 20
12.1761714365
 30
0.0
 10
15.4802349534
 20
12.2946823539
 30
0.0
 10
15.4737362516
 20
12.4388437299
 30
0.0
 10
15.4737635813
 20
12.5839767965
 30
0.0
 10
15.4803161324
 20
12.7281206859
 30
0.0
 10
15.4890843407
 20
12.8234601447
 30
0.0
 10
15.4945886201
 20
12.8705731035
 30
0.0
  0
SPLINE
  5
2D9
100
AcDbEntity
  8
02___PRT_ALL_AXES
100
AcDbSpline
 62
7
  6
CONTINUOUS
 70
0
 71
3
 72
9
 73
5
 74
0
 42
0.0000001
 43
0.0000001
 44
0.0000000001
 40
0.0
 40
0.0
 40
0.0
 40
0.0
 40
0.5080722516
 40
1.0
 40
1.0
 40
1.0
 40
1.0
 10
15.4945886201
 20
12.8705731035
 30
0.0
 10
15.4989962502
 20
12.9082994764
 30
0.0
 10
15.5091357705
 20
12.9823909179
 30
0.0
 10
15.5223920755
 20
13.0559930973
 30
0.0
 10
15.5297467438
 20
13.0920262087
 30
0.0
  0
SPLINE
  5
2DA
100
AcDbEntity
  8
02___PRT_ALL_AXES
100
AcDbSpline
 62
7
  6
CONTINUOUS
 70
0
 71
3
 72
10
 73
6
 74
0
 42
0.0000001
 43
0.0000001
 44
0.0000000001
 40
0.0
 40
0.0
 40
0.0
 40
0.0
 40
0.5121765612
 40
0.7593662069
 40
1.0
 40
1.0
 40
1.0
 40
1.0
 10
15.5297467438
 20
13.0920262087
 30
0.0
 10
15.5366889171
 20
13.1260383619
 30
0.0
 10
15.5480848038
 20
13.1762537534
 30
0.0
 10
15.5655236557
 20
13.241753121
 30
0.0
 10
15.5748497663
 20
13.2734784716
 30
0.0
 10
15.5796650308
 20
13.2890606732
 30
0.0
  0
SPLINE
  5
2DB
100
AcDbEntity
  8
02___PRT_ALL_AXES
100
AcDbSpline
 62
7
  6
CONTINUOUS
 70
0
 71
3
 72
26
 73
22
 74
0
 42
0.0000001
 43
0.0000001
 44
0.0000000001
 40
0.0
 40
0.0
 40
0.0
 40
0.0
 40
0.0500739256
 40
0.0990706973
 40
0.123404649
 40
0.1477440924
 40
0.1721823617
 40
0.1968113198
 40
0.2217203682
 40
0.2469951164
 40
0.2989370306
 40
0.3532440242
 40
0.4104006673
 40
0.4707948668
 40
0.5347225701
 40
0.6023974391
 40
0.673962708
 40
0.7494984031
 40
0.8290339401
 40
0.9125532389
 40
1.0
 40
1.0
 40
1.0
 40
1.0
 10
16.074437943
 20
14.0990541222
 30
0.0
 10
16.0637916191
 20
14.1026179122
 30
0.0
 10
16.0422725866
 20
14.1083955664
 30
0.0
 10
16.0147559733
 20
14.1120217965
 30
0.0
 10
15.9928529431
 20
14.1126737689
 30
0.0
 10
15.9764595318
 20
14.1120554781
 30
0.0
 10
15.9600795372
 20
14.1103311577
 30
0.0
 10
15.9437242944
 20
14.1075029946
 30
0.0
 10
15.9274054998
 20
14.1035721568
 30
0.0
 10
15.9055169941
 20
14.0968063191
 30
0.0
 10
15.8782037317
 20
14.0854895067
 30
0.0
 10
15.8461038944
 20
14.0676875481
 30
0.0
 10
15.8144517914
 20
14.0456059416
 30
0.0
 10
15.7833299455
 20
14.0193153459
 30
0.0
 10
15.7528129912
 20
13.9888931782
 30
0.0
 10
15.7229760773
 20
13.954425097
 30
0.0
 10
15.6938957632
 20
13.9160043449
 30
0.0
 10
15.6656456341
 20
13.873735935
 30
0.0
 10
15.6383009694
 20
13.8277328224
 30
0.0
 10
15.611934463
 20
13.7781208591
 30
0.0
 10
15.5954285761
 20
13.7435103964
 30
0.0
 10
15.5873348629
 20
13.7256527115
 30
0.0
  0
SPLINE
  5
2DC
100
AcDbEntity
  8
02___PRT_ALL_AXES
100
AcDbSpline
 62
7
  6
CONTINUOUS
 70
0
 71
3
 72
11
 73
7
 74
0
 42
0.0000001
 43
0.0000001
 44
0.0000000001
 40
0.0
 40
0.0
 40
0.0
 40
0.0
 40
0.237195182
 40
0.4831365642
 40
0.7375442369
 40
1.0
 40
1.0
 40
1.0
 40
1.0
 10
15.5866997239
 20
13.7242494576
 30
0.0
 10
15.5791218342
 20
13.7074843705
 30
0.0
 10
15.5643081967
 20
13.6730521856
 30
0.0
 10
15.5434514109
 20
13.6197717171
 30
0.0
 10
15.523596927
 20
13.5640258833
 30
0.0
 10
15.5112436321
 20
13.5258793126
 30
0.0
 10
15.5052331286
 20
13.5064293163
 30
0.0
  0
SPLINE
  5
2DD
100
AcDbEntity
  8
02___PRT_ALL_AXES
100
AcDbSpline
 62
7
  6
CONTINUOUS
 70
0
 71
3
 72
53
 73
49
 74
0
 42
0.0000001
 43
0.0000001
 44
0.0000000001
 40
0.0
 40
0.0
 40
0.0
 40
0.0
 40
0.034977164
 40
0.071459436
 40
0.1092756746
 40
0.1482460509
 40
0.1881757583
 40
0.2288619341
 40
0.2700941559
 40
0.3116570383
 40
0.3533321601
 40
0.3949000942
 40
0.4361423933
 40
0.476843578
 40
0.5167931647
 40
0.5557877552
 40
0.5936332532
 40
0.6301472396
 40
0.6651615435
 40
0.6985251717
 40
0.71454769
 40
0.7301105727
 40
0.7452014593
 40
0.7598099516
 40
0.7739274637
 40
0.7875481026
 40
0.8006681127
 40
0.8132869893
 40
0.8254072022
 40
0.8370349045
 40
0.8481804545
 40
0.8588585009
 40
0.8690892051
 40
0.8788980371
 40
0.8883170058
 40
0.8973846284
 40
0.9061463932
 40
0.9146547769
 40
0.9229685312
 40
0.9311520082
 40
0.9392733585
 40
0.9474027464
 40
0.9556100489
 40
0.9639627567
 40
0.9725239565
 40
0.9813511927
 40
0.9904951968
 40
1.0
 40
1.0
 40
1.0
 40
1.0
 10
16.4152377571
 20
11.5863424802
 30
0.0
 10
16.4249163735
 20
11.6176624943
 30
0.0
 10
16.4432021032
 20
11.6821175591
 30
0.0
 10
16.4670450744
 20
11.781745161
 30
0.0
 10
16.4877713563
 20
11.8858857438
 30
0.0
 10
16.5052521093
 20
11.9938915782
 30
0.0
 10
16.5193778239
 20
12.1050977505
 30
0.0
 10
16.5300606477
 20
12.2188154704
 30
0.0
 10
16.5372336663
 20
12.3343412996
 30
0.0
 10
16.5408521053
 20
12.4509598936
 30
0.0
 10
16.5408934126
 20
12.567949094
 30
0.0
 10
16.5373573624
 20
12.6845843947
 30
0.0
 10
16.5302660558
 20
12.8001435482
 30
0.0
 10
16.5196637704
 20
12.9139111238
 30
0.0
 10
16.5056166866
 20
13.0251830059
 30
0.0
 10
16.4882124237
 20
13.1332709652
 30
0.0
 10
16.4675595465
 20
13.2375068362
 30
0.0
 10
16.4437867607
 20
13.3372479111
 30
0.0
 10
16.4170421274
 20
13.4318775827
 30
0.0
 10
16.3920908758
 20
13.5069767205
 30
0.0
 10
16.3707011812
 20
13.5639729967
 30
0.0
 10
16.3542409126
 20
13.6045102947
 30
0.0
 10
16.3371720523
 20
13.6433521108
 30
0.0
 10
16.3195214427
 20
13.6804389494
 30
0.0
 10
16.3013150696
 20
13.7157131208
 30
0.0
 10
16.2825823577
 20
13.7491209239
 30
0.0
 10
16.2633505189
 20
13.7806103556
 30
0.0
 10
16.2436498837
 20
13.8101335059
 30
0.0
 10
16.2235098052
 20
13.8376448575
 30
0.0
 10
16.2029602737
 20
13.8631018822
 30
0.0
 10
16.1820328468
 20
13.8864660934
 30
0.0
 10
16.1607570007
 20
13.9077001183
 30
0.0
 10
16.1391654823
 20
13.926772105
 30
0.0
 10
16.1172882648
 20
13.9436502049
 30
0.0
 10
16.0951580824
 20
13.9583075665
 30
0.0
 10
16.072806929
 20
13.9707185967
 30
0.0
 10
16.0502679287
 20
13.9808597939
 30
0.0
 10
16.027576503
 20
13.9887125976
 30
0.0
 10
16.0047685565
 20
13.9942576935
 30
0.0
 10
15.9818835411
 20
13.9974847432
 30
0.0
 10
15.9589615697
 20
13.9983834109
 30
0.0
 10
15.9360444302
 20
13.9969529261
 30
0.0
 10
15.9131733755
 20
13.993196544
 30
0.0
 10
15.8903889135
 20
13.9871226788
 30
0.0
 10
15.8677287909
 20
13.9787470965
 30
0.0
 10
15.8452298541
 20
13.9680850232
 30
0.0
 10
15.8229267496
 20
13.9551604988
 30
0.0
 10
15.8085057638
 20
13.9452525492
 30
0.0
 10
15.8013428483
 20
13.9399565943
 30
0.0
  0
SPLINE
  5
2DE
100
AcDbEntity
  8
02___PRT_ALL_AXES
100
AcDbSpline
 62
7
  6
CONTINUOUS
 70
0
 71
3
 72
11
 73
7
 74
0
 42
0.0000001
 43
0.0000001
 44
0.0000000001
 40
0.0
 40
0.0
 40
0.0
 40
0.0
 40
0.2325595492
 40
0.4763258839
 40
0.7319730552
 40
1.0
 40
1.0
 40
1.0
 40
1.0
 10
15.8013428483
 20
13.9399565943
 30
0.0
 10
15.7930439085
 20
13.9338207114
 30
0.0
 10
15.7765455707
 20
13.9205665204
 30
0.0
 10
15.7527231175
 20
13.8984466462
 30
0.0
 10
15.7293083757
 20
13.8736835447
 30
0.0
 10
15.7143574526
 20
13.855871874
 30
0.0
 10
15.7069521802
 20
13.8465631729
 30
0.0
  0
SPLINE
  5
2DF
100
AcDbEntity
  8
02___PRT_ALL_AXES
100
AcDbSpline
 62
7
  6
CONTINUOUS
 70
0
 71
3
 72
11
 73
7
 74
0
 42
0.0000001
 43
0.0000001
 44
0.0000000001
 40
0.0
 40
0.0
 40
0.0
 40
0.0
 40
0.2308538722
 40
0.4744485457
 40
0.7308534555
 40
1.0
 40
1.0
 40
1.0
 40
1.0
 10
15.7069521802
 20
13.8465631729
 30
0.0
 10
15.6975927104
 20
13.8347979735
 30
0.0
 10
15.6791560272
 20
13.8099749663
 30
0.0
 10
15.6530227305
 20
13.7701690501
 30
0.0
 10
15.62774019
 20
13.7269053215
 30
0.0
 10
15.6118784919
 20
13.6965620357
 30
0.0
 10
15.6040859793
 20
13.6808618232
 30
0.0
  0
SPLINE
  5
2E0
100
AcDbEntity
  8
02___PRT_ALL_AXES
100
AcDbSpline
 62
7
  6
CONTINUOUS
 70
0
 71
3
 72
11
 73
7
 74
0
 42
0.0000001
 43
0.0000001
 44
0.0000000001
 40
0.0
 40
0.0
 40
0.0
 40
0.0
 40
0.2370482927
 40
0.4828759806
 40
0.7372755592
 40
1.0
 40
1.0
 40
1.0
 40
1.0
 10
15.6040859793
 20
13.6808618232
 30
0.0
 10
15.5972109427
 20
13.6670101249
 30
0.0
 10
15.5837276472
 20
13.6385323687
 30
0.0
 10
15.5646207776
 20
13.5943849871
 30
0.0
 10
15.5462937975
 20
13.5481022737
 30
0.0
 10
15.534800553
 20
13.5163798509
 30
0.0
 10
15.5291821755
 20
13.5001878889
 30
0.0
  0
SPLINE
  5
2E1
100
AcDbEntity
  8
02___PRT_ALL_AXES
100
AcDbSpline
 62
7
  6
CONTINUOUS
 70
0
 71
3
 72
36
 73
32
 74
0
 42
0.0000001
 43
0.0000001
 44
0.0000000001
 40
0.0
 40
0.0
 40
0.0
 40
0.0
 40
0.0937613384
 40
0.1827171889
 40
0.2665787501
 40
0.3065411608
 40
0.3451623502
 40
0.3824315922
 40
0.418345231
 40
0.452906939
 40
0.4861298329
 40
0.51803561
 40
0.5486580162
 40
0.5780423967
 40
0.6062476751
 40
0.6333481953
 40
0.6594335734
 40
0.6846113979
 40
0.7090060441
 40
0.7327591923
 40
0.7560281123
 40
0.778982628
 40
0.8018016781
 40
0.8246680045
 40
0.8477630241
 40
0.8712614741
 40
0.895327329
 40
0.9201097023
 40
0.9457418741
 40
0.9723392187
 40
1.0
 40
1.0
 40
1.0
 40
1.0
 10
16.4152377571
 20
11.5863424802
 30
0.0
 10
16.406358345
 20
11.5576086922
 30
0.0
 10
16.3878551513
 20
11.5019728147
 30
0.0
 10
16.3569754932
 20
11.4222005722
 30
0.0
 10
16.3289252897
 20
11.3599342788
 30
0.0
 10
16.3053319754
 20
11.3134679922
 30
0.0
 10
16.2874273487
 20
11.2808970399
 30
0.0
 10
16.2690549364
 20
11.2500897927
 30
0.0
 10
16.2502405702
 20
11.221089713
 30
0.0
 10
16.2310098515
 20
11.1939385326
 30
0.0
 10
16.2113909786
 20
11.1686740211
 30
0.0
 10
16.1914097459
 20
11.145333153
 30
0.0
 10
16.1710947153
 20
11.1239486171
 30
0.0
 10
16.150473308
 20
11.1045513586
 30
0.0
 10
16.1295730273
 20
11.0871702904
 30
0.0
 10
16.1084231765
 20
11.0718300859
 30
0.0
 10
16.0870510269
 20
11.0585561616
 30
0.0
 10
16.065486964
 20
11.0473684095
 30
0.0
 10
16.0437604416
 20
11.0382870361
 30
0.0
 10
16.0219030211
 20
11.0313290338
 30
0.0
 10
15.999948002
 20
11.0265069664
 30
0.0
 10
15.9779296089
 20
11.0238334294
 30
0.0
 10
15.9558841822
 20
11.0233119383
 30
0.0
 10
15.9338481758
 20
11.0249456476
 30
0.0
 10
15.9118581332
 20
11.0287299846
 30
0.0
 10
15.8899491234
 20
11.0346561125
 30
0.0
 10
15.8681555703
 20
11.0427134192
 30
0.0
 10
15.8465088176
 20
11.0528841826
 30
0.0
 10
15.8250402684
 20
11.0651524829
 30
0.0
 10
15.8037799368
 20
11.0794957534
 30
0.0
 10
15.7900447198
 20
11.0902077587
 30
0.0
 10
15.7832217841
 20
11.0958792838
 30
0.0
  0
SPLINE
  5
2E2
100
AcDbEntity
  8
02___PRT_ALL_AXES
100
AcDbSpline
 62
7
  6
CONTINUOUS
 70
0
 71
3
 72
11
 73
7
 74
0
 42
0.0000001
 43
0.0000001
 44
0.0000000001
 40
0.0
 40
0.0
 40
0.0
 40
0.0
 40
0.2325321639
 40
0.4763853259
 40
0.7320863498
 40
1.0
 40
1.0
 40
1.0
 40
1.0
 10
15.7832217841
 20
11.0958792838
 30
0.0
 10
15.7750003628
 20
11.1027132917
 30
0.0
 10
15.7586778207
 20
11.1173495748
 30
0.0
 10
15.7351549736
 20
11.14145344
 30
0.0
 10
15.7120721546
 20
11.168166438
 30
0.0
 10
15.697350896
 20
11.187230769
 30
0.0
 10
15.6900643503
 20
11.1971620139
 30
0.0
  0
SPLINE
  5
2E3
100
AcDbEntity
  8
02___PRT_ALL_AXES
100
AcDbSpline
 62
7
  6
CONTINUOUS
 70
0
 71
3
 72
11
 73
7
 74
0
 42
0.0000001
 43
0.0000001
 44
0.0000000001
 40
0.0
 40
0.0
 40
0.0
 40
0.0
 40
0.2314650846
 40
0.4753201949
 40
0.7315470728
 40
1.0
 40
1.0
 40
1.0
 40
1.0
 10
15.6900643503
 20
11.1971620139
 30
0.0
 10
15.68087994
 20
11.2096799657
 30
0.0
 10
15.6628114868
 20
11.2359738948
 30
0.0
 10
15.6372376387
 20
11.2778760137
 30
0.0
 10
15.6125550585
 20
11.3231543444
 30
0.0
 10
15.5970928649
 20
11.3547830994
 30
0.0
 10
15.5895070277
 20
11.371114138
 30
0.0
  0
SPLINE
  5
2E4
100
AcDbEntity
  8
02___PRT_ALL_AXES
100
AcDbSpline
 62
7
  6
CONTINUOUS
 70
0
 71
3
 72
9
 73
5
 74
0
 42
0.0000001
 43
0.0000001
 44
0.0000000001
 40
0.0
 40
0.0
 40
0.0
 40
0.0
 40
0.4878067273
 40
1.0
 40
1.0
 40
1.0
 40
1.0
 10
15.5895070277
 20
11.371114138
 30
0.0
 10
15.5797947006
 20
11.3920231536
 30
0.0
 10
15.5609700344
 20
11.4353962091
 30
0.0
 10
15.5441031449
 20
11.4795624349
 30
0.0
 10
15.5359182002
 20
11.502343889
 30
0.0
  0
SPLINE
  5
2E5
100
AcDbEntity
  8
02___PRT_ALL_AXES
100
AcDbSpline
 62
7
  6
CONTINUOUS
 70
0
 71
3
 72
23
 73
19
 74
0
 42
0.0000001
 43
0.0000001
 44
0.0000000001
 40
0.0
 40
0.0
 40
0.0
 40
0.0
 40
0.0554063573
 40
0.1134657304
 40
0.1738687814
 40
0.2362766226
 40
0.3003265364
 40
0.365637138
 40
0.4318131673
 40
0.4984500452
 40
0.5651382985
 40
0.6314679002
 40
0.6970326688
 40
0.7614344968
 40
0.824288387
 40
0.8852257082
 40
0.9439028362
 40
1.0
 40
1.0
 40
1.0
 40
1.0
 10
15.5156959857
 20
11.5617142457
 30
0.0
 10
15.504926783
 20
11.5950774599
 30
0.0
 10
15.4846389886
 20
11.6639810269
 30
0.0
 10
15.4584002612
 20
11.7708546399
 30
0.0
 10
15.4357805154
 20
11.88307451
 30
0.0
 10
15.4169456838
 20
11.999828681
 30
0.0
 10
15.4020327709
 20
12.1202760269
 30
0.0
 10
15.391150699
 20
12.2435464576
 30
0.0
 10
15.3843788885
 20
12.3687492549
 30
0.0
 10
15.381766791
 20
12.4949792479
 30
0.0
 10
15.3833334873
 20
12.6213236704
 30
0.0
 10
15.3890675099
 20
12.7468689324
 30
0.0
 10
15.3989270398
 20
12.8707072732
 30
0.0
 10
15.412839971
 20
12.9919439229
 30
0.0
 10
15.430704946
 20
13.1097025193
 30
0.0
 10
15.452391507
 20
13.2231352745
 30
0.0
 10
15.4777413108
 20
13.3314201402
 30
0.0
 10
15.4974372325
 20
13.4013545175
 30
0.0
 10
15.5079171384
 20
13.4352675056
 30
0.0
  0
SPLINE
  5
2E6
100
AcDbEntity
  8
02___PRT_ALL_AXES
100
AcDbSpline
 62
7
  6
CONTINUOUS
 70
0
 71
3
 72
27
 73
23
 74
0
 42
0.0000001
 43
0.0000001
 44
0.0000000001
 40
0.0
 40
0.0
 40
0.0
 40
0.0
 40
0.0248314315
 40
0.0493028805
 40
0.0735056486
 40
0.0975348707
 40
0.1214881374
 40
0.1454643044
 40
0.1695618042
 40
0.1938772488
 40
0.2435054272
 40
0.2950669761
 40
0.3491569537
 40
0.4062637344
 40
0.4667695368
 40
0.5309601727
 40
0.5990340316
 40
0.6711162356
 40
0.7472685504
 40
0.8274982002
 40
0.9117679723
 40
1.0
 40
1.0
 40
1.0
 40
1.0
 10
16.0744379436
 20
10.9225558511
 30
0.0
 10
16.0688816583
 20
10.920695897
 30
0.0
 10
16.0577290796
 20
10.9173511033
 30
0.0
 10
16.0408107103
 20
10.9134732634
 30
0.0
 10
16.0238543998
 20
10.910779489
 30
0.0
 10
16.0068744239
 20
10.9092718462
 30
0.0
 10
15.9898838762
 20
10.9089524048
 30
0.0
 10
15.9728966675
 20
10.9098218212
 30
0.0
 10
15.9559255727
 20
10.911878625
 30
0.0
 10
15.9331885407
 20
10.9162288975
 30
0.0
 10
15.9047257357
 20
10.9247373336
 30
0.0
 10
15.8711387261
 20
10.939595114
 30
0.0
 10
15.8379682814
 20
10.9591046664
 30
0.0
 10
15.8053089502
 20
10.9831903622
 30
0.0
 10
15.7732433411
 20
11.0117698939
 30
0.0
 10
15.7418565132
 20
11.0447555385
 30
0.0
 10
15.7112305222
 20
11.0820481238
 30
0.0
 10
15.6814491866
 20
11.1235394265
 30
0.0
 10
15.6525956399
 20
11.1691092972
 30
0.0
 10
15.6247504461
 20
11.2186255737
 30
0.0
 10
15.5979952185
 20
11.2719440573
 30
0.0
 10
15.5813107232
 20
11.3090863729
 30
0.0
 10
15.5731462708
 20
11.32823833
 30
0.0
  0
SPLINE
  5
2E7
100
AcDbEntity
  8
02___PRT_ALL_AXES
100
AcDbSpline
 62
7
  6
CONTINUOUS
 70
0
 71
3
 72
14
 73
10
 74
0
 42
0.0000001
 43
0.0000001
 44
0.0000000001
 40
0.0
 40
0.0
 40
0.0
 40
0.0
 40
0.1128293592
 40
0.2294422505
 40
0.3497044387
 40
0.4734658282
 40
0.6005614372
 40
0.7308134144
 40
1.0
 40
1.0
 40
1.0
 40
1.0
 10
15.5725539273
 20
11.3296296302
 30
0.0
 10
15.565560368
 20
11.3460773825
 30
0.0
 10
15.5518882589
 20
11.3797604403
 30
0.0
 10
15.5326123909
 20
11.4317017192
 30
0.0
 10
15.5142606667
 20
11.4858085117
 30
0.0
 10
15.496870667
 20
11.5419718226
 30
0.0
 10
15.4804765664
 20
11.6000798753
 30
0.0
 10
15.4597642555
 20
11.6808792021
 30
0.0
 10
15.4461829903
 20
11.7427058299
 30
0.0
 10
15.437896319
 20
11.784533631
 30
0.0
  0
SPLINE
  5
2E8
100
AcDbEntity
  8
02___PRT_ALL_AXES
100
AcDbSpline
 62
7
  6
CONTINUOUS
 70
0
 71
3
 72
23
 73
19
 74
0
 42
0.0000001
 43
0.0000001
 44
0.0000000001
 40
0.0
 40
0.0
 40
0.0
 40
0.0
 40
0.0594444081
 40
0.1201958598
 40
0.182073582
 40
0.2448905096
 40
0.3084542901
 40
0.3725682891
 40
0.4370330025
 40
0.5016469957
 40
0.5662079877
 40
0.6305140601
 40
0.6943645764
 40
0.75756146
 40
0.8199101777
 40
0.8812208623
 40
0.9413101018
 40
1.0
 40
1.0
 40
1.0
 40
1.0
 10
15.4377625487
 20
11.7852092457
 30
0.0
 10
15.431970901
 20
11.8144774223
 30
0.0
 10
15.4211160866
 20
11.8738297551
 30
0.0
 10
15.4071332856
 20
11.9641484762
 30
0.0
 10
15.3953074485
 20
12.0564818449
 30
0.0
 10
15.3856827144
 20
12.1504888948
 30
0.0
 10
15.3782950956
 20
12.245823682
 30
0.0
 10
15.3731715025
 20
12.3421348702
 30
0.0
 10
15.3703308836
 20
12.4390676022
 30
0.0
 10
15.369784243
 20
12.5362646972
 30
0.0
 10
15.3715331997
 20
12.6333679749
 30
0.0
 10
15.3755711621
 20
12.730019604
 30
0.0
 10
15.3818836678
 20
12.8258634275
 30
0.0
 10
15.3904470342
 20
12.9205463373
 30
0.0
 10
15.4012292998
 20
13.0137194722
 30
0.0
 10
15.4141910697
 20
13.1050401151
 30
0.0
 10
15.4292841721
 20
13.1941705867
 30
0.0
 10
15.440877204
 20
13.2526588061
 30
0.0
 10
15.4470342317
 20
13.2814651676
 30
0.0
  0
SPLINE
  5
2E9
100
AcDbEntity
  8
02___PRT_ALL_AXES
100
AcDbSpline
 62
7
  6
CONTINUOUS
 70
0
 71
3
 72
9
 73
5
 74
0
 42
0.0000001
 43
0.0000001
 44
0.0000000001
 40
0.0
 40
0.0
 40
0.0
 40
0.0
 40
0.5111193405
 40
1.0
 40
1.0
 40
1.0
 40
1.0
 10
15.4472135523
 20
13.2823035462
 30
0.0
 10
15.4554711699
 20
13.3208831061
 30
0.0
 10
15.4731334374
 20
13.3960511465
 30
0.0
 10
15.4940914403
 20
13.4703747996
 30
0.0
 10
15.5052331286
 20
13.5064293163
 30
0.0
  0
SPLINE
  5
2EA
100
AcDbEntity
  8
0
100
AcDbSpline
 62
7
  6
CONTINUOUS
 70
0
 71
3
 72
15
 73
11
 74
0
 42
0.0000001
 43
0.0000001
 44
0.0000000001
 40
0.0
 40
0.0
 40
0.0
 40
0.0
 40
0.0811355431
 40
0.1691853019
 40
0.2692743693
 40
0.3843241492
 40
0.5156126528
 40
0.6631525185
 40
0.8253431818
 40
1.0
 40
1.0
 40
1.0
 40
1.0
 10
14.5929766068
 20
11.7681217179
 30
0.0
 10
14.5926377388
 20
11.7681223393
 30
0.0
 10
14.591927088
 20
11.7682450878
 30
0.0
 10
14.5909173322
 20
11.7687707963
 30
0.0
 10
14.5899622461
 20
11.7696165387
 30
0.0
 10
14.5890651939
 20
11.7707590271
 30
0.0
 10
14.5882346542
 20
11.7721837572
 30
0.0
 10
14.5874836312
 20
11.7738687266
 30
0.0
 10
14.5868206796
 20
11.7757821893
 30
0.0
 10
14.5864579048
 20
11.7771428295
 30
0.0
 10
14.5862924431
 20
11.7778532833
 30
0.0
  0
SPLINE
  5
2EB
100
AcDbEntity
  8
0
100
AcDbSpline
 62
7
  6
CONTINUOUS
 70
0
 71
3
 72
14
 73
10
 74
0
 42
0.0000001
 43
0.0000001
 44
0.0000000001
 40
0.0
 40
0.0
 40
0.0
 40
0.0
 40
0.0894448093
 40
0.1837552627
 40
0.2870487604
 40
0.4022458699
 40
0.5311467352
 40
0.67412799
 40
1.0
 40
1.0
 40
1.0
 40
1.0
 10
14.6644518615
 20
11.5253164085
 30
0.0
 10
14.6641853966
 20
11.5253156046
 30
0.0
 10
14.6636353774
 20
11.525389061
 30
0.0
 10
14.6628363853
 20
11.5257140118
 30
0.0
 10
14.662062173
 20
11.5262430063
 30
0.0
 10
14.6613180774
 20
11.5269681492
 30
0.0
 10
14.6606099827
 20
11.5278820712
 30
0.0
 10
14.6596788972
 20
11.5294029376
 30
0.0
 10
14.65911732
 20
11.5306902758
 30
0.0
 10
14.6587829538
 20
11.531601687
 30
0.0
  0
SPLINE
  5
2EC
100
AcDbEntity
  8
0
100
AcDbSpline
 62
7
  6
CONTINUOUS
 70
0
 71
3
 72
12
 73
8
 74
0
 42
0.0000001
 43
0.0000001
 44
0.0000000001
 40
0.0
 40
0.0
 40
0.0
 40
0.0
 40
0.100009712
 40
0.2031212556
 40
0.4287829562
 40
0.6925891737
 40
1.0
 40
1.0
 40
1.0
 40
1.0
 10
14.7545767988
 20
11.3276299896
 30
0.0
 10
14.754381906
 20
11.3276299895
 30
0.0
 10
14.7539850913
 20
11.3276687238
 30
0.0
 10
14.7531792349
 20
11.3279055701
 30
0.0
 10
14.752180544
 20
11.3285245674
 30
0.0
 10
14.7511011933
 20
11.329654814
 30
0.0
 10
14.7504850891
 20
11.3305884329
 30
0.0
 10
14.7501880744
 20
11.3311086821
 30
0.0
  0
SPLINE
  5
2ED
100
AcDbEntity
  8
0
100
AcDbSpline
 62
7
  6
CONTINUOUS
 70
0
 71
3
 72
15
 73
11
 74
0
 42
0.0000001
 43
0.0000001
 44
0.0000000001
 40
0.0
 40
0.0
 40
0.0
 40
0.0
 40
0.1749780578
 40
0.3393006762
 40
0.4895208552
 40
0.6232517058
 40
0.7397280981
 40
0.839307236
 40
0.9243883117
 40
1.0
 40
1.0
 40
1.0
 40
1.0
 10
14.5432139598
 20
13.0146247345
 30
0.0
 10
14.543346815
 20
13.0155295266
 30
0.0
 10
14.543661096
 20
13.0172763896
 30
0.0
 10
14.5442923886
 20
13.0197580937
 30
0.0
 10
14.5450575971
 20
13.0219760166
 30
0.0
 10
14.5459435782
 20
13.0238770223
 30
0.0
 10
14.5469287618
 20
13.0254251158
 30
0.0
 10
14.5480048355
 20
13.0265893034
 30
0.0
 10
14.5491573941
 20
13.0273442778
 30
0.0
 10
14.549994694
 20
13.0275518025
 30
0.0
 10
14.5503895974
 20
13.0275663718
 30
0.0
  0
SPLINE
  5
2EE
100
AcDbEntity
  8
0
100
AcDbSpline
 62
7
  6
CONTINUOUS
 70
0
 71
3
 72
13
 73
9
 74
0
 42
0.0000001
 43
0.0000001
 44
0.0000000001
 40
0.0
 40
0.0
 40
0.0
 40
0.0
 40
0.1018576235
 40
0.2147874264
 40
0.4651216557
 40
0.7336399796
 40
0.8686172751
 40
1.0
 40
1.0
 40
1.0
 40
1.0
 10
14.5393335756
 20
12.9483114078
 30
0.0
 10
14.539020463
 20
12.9489918644
 30
0.0
 10
14.5384476517
 20
12.9504674475
 30
0.0
 10
14.5374974565
 20
12.9537564751
 30
0.0
 10
14.5367311796
 20
12.9583551237
 30
0.0
 10
14.5365127871
 20
12.9631690616
 30
0.0
 10
14.5366707044
 20
12.967101002
 30
0.0
 10
14.5368635005
 20
12.9690517685
 30
0.0
 10
14.5369901728
 20
12.9700095899
 30
0.0
  0
SPLINE
  5
2EF
100
AcDbEntity
  8
0
100
AcDbSpline
 62
7
  6
CONTINUOUS
 70
0
 71
3
 72
9
 73
5
 74
0
 42
0.0000001
 43
0.0000001
 44
0.0000000001
 40
0.0
 40
0.0
 40
0.0
 40
0.0
 40
0.5156130286
 40
1.0
 40
1.0
 40
1.0
 40
1.0
 10
14.5393335756
 20
12.9483114078
 30
0.0
 10
14.5427321946
 20
12.9409255277
 30
0.0
 10
14.5496944027
 20
12.9267676197
 30
0.0
 10
14.5574924349
 20
12.9130481675
 30
0.0
 10
14.5614979955
 20
12.9065448325
 30
0.0
  0
SPLINE
  5
2F0
100
AcDbEntity
  8
0
100
AcDbSpline
 62
7
  6
CONTINUOUS
 70
0
 71
3
 72
9
 73
5
 74
0
 42
0.0000001
 43
0.0000001
 44
0.0000000001
 40
0.0
 40
0.0
 40
0.0
 40
0.0
 40
0.5329314873
 40
1.0
 40
1.0
 40
1.0
 40
1.0
 10
14.5643652616
 20
12.899967588
 30
0.0
 10
14.5639842602
 20
12.9011864152
 30
0.0
 10
14.5631665133
 20
12.9034432842
 30
0.0
 10
14.5620849229
 20
12.9055919106
 30
0.0
 10
14.5614979955
 20
12.9065448325
 30
0.0
  0
SPLINE
  5
2F1
100
AcDbEntity
  8
0
100
AcDbSpline
 62
7
  6
CONTINUOUS
 70
0
 71
3
 72
11
 73
7
 74
0
 42
0.0000001
 43
0.0000001
 44
0.0000000001
 40
0.0
 40
0.0
 40
0.0
 40
0.0
 40
0.2220621015
 40
0.4596042747
 40
0.7177558235
 40
1.0
 40
1.0
 40
1.0
 40
1.0
 10
14.5462659142
 20
12.7436668857
 30
0.0
 10
14.5465941161
 20
12.7437450039
 30
0.0
 10
14.5472577669
 20
12.7439783157
 30
0.0
 10
14.5482079655
 20
12.7445231418
 30
0.0
 10
14.5491330398
 20
12.7452650577
 30
0.0
 10
14.5497030784
 20
12.7458589684
 30
0.0
 10
14.5499836026
 20
12.7461832803
 30
0.0
  0
SPLINE
  5
2F2
100
AcDbEntity
  8
0
100
AcDbSpline
 62
7
  6
CONTINUOUS
 70
0
 71
3
 72
9
 73
5
 74
0
 42
0.0000001
 43
0.0000001
 44
0.0000000001
 40
0.0
 40
0.0
 40
0.0
 40
0.0
 40
0.4866318716
 40
1.0
 40
1.0
 40
1.0
 40
1.0
 10
14.5462659142
 20
12.7436668857
 30
0.0
 10
14.5416097749
 20
12.7425586378
 30
0.0
 10
14.532227286
 20
12.7394434875
 30
0.0
 10
14.523454916
 20
12.7349115539
 30
0.0
 10
14.5191326785
 20
12.732301489
 30
0.0
  0
SPLINE
  5
2F3
100
AcDbEntity
  8
0
100
AcDbSpline
 62
7
  6
CONTINUOUS
 70
0
 71
3
 72
15
 73
11
 74
0
 42
0.0000001
 43
0.0000001
 44
0.0000000001
 40
0.0
 40
0.0
 40
0.0
 40
0.0
 40
0.1609682576
 40
0.3166958274
 40
0.4636568452
 40
0.599046867
 40
0.7211498125
 40
0.8287252256
 40
0.9214020696
 40
1.0
 40
1.0
 40
1.0
 40
1.0
 10
14.5132077643
 20
12.7157022631
 30
0.0
 10
14.5132625858
 20
12.7166732418
 30
0.0
 10
14.513427424
 20
12.7185808927
 30
0.0
 10
14.5138390691
 20
12.7213535824
 30
0.0
 10
14.5144040175
 20
12.7239417563
 30
0.0
 10
14.5151128009
 20
12.7262833767
 30
0.0
 10
14.5159460173
 20
12.7283297069
 30
0.0
 10
14.5168918409
 20
12.7300393393
 30
0.0
 10
14.5179268168
 20
12.7313777014
 30
0.0
 10
14.5187261792
 20
12.7320560167
 30
0.0
 10
14.5191326785
 20
12.732301489
 30
0.0
  0
SPLINE
  5
2F4
100
AcDbEntity
  8
0
100
AcDbSpline
 62
7
  6
CONTINUOUS
 70
0
 71
3
 72
13
 73
9
 74
0
 42
0.0000001
 43
0.0000001
 44
0.0000000001
 40
0.0
 40
0.0
 40
0.0
 40
0.0
 40
0.0904123818
 40
0.1941845728
 40
0.3099986463
 40
0.4361746473
 40
0.711495998
 40
1.0
 40
1.0
 40
1.0
 40
1.0
 10
14.5149676927
 20
12.648796919
 30
0.0
 10
14.5145987864
 20
12.6492970365
 30
0.0
 10
14.5139059773
 20
12.6504448923
 30
0.0
 10
14.5130372188
 20
12.6523943772
 30
0.0
 10
14.5122877048
 20
12.6546533814
 30
0.0
 10
14.5114509693
 20
12.6581125737
 30
0.0
 10
14.510835932
 20
12.6628293238
 30
0.0
 10
14.5107773305
 20
12.6667136803
 30
0.0
 10
14.510863161
 20
12.6686948798
 30
0.0
  0
SPLINE
  5
2F5
100
AcDbEntity
  8
0
100
AcDbSpline
 62
7
  6
CONTINUOUS
 70
0
 71
3
 72
9
 73
5
 74
0
 42
0.0000001
 43
0.0000001
 44
0.0000000001
 40
0.0
 40
0.0
 40
0.0
 40
0.0
 40
0.5186778163
 40
1.0
 40
1.0
 40
1.0
 40
1.0
 10
14.5149676927
 20
12.648796919
 30
0.0
 10
14.5188769428
 20
12.6434972405
 30
0.0
 10
14.5268105322
 20
12.6335632496
 30
0.0
 10
14.5356328274
 20
12.6243979274
 30
0.0
 10
14.5401096079
 20
12.6202379638
 30
0.0
  0
SPLINE
  5
2F6
100
AcDbEntity
  8
0
100
AcDbSpline
 62
7
  6
CONTINUOUS
 70
0
 71
3
 72
9
 73
5
 74
0
 42
0.0000001
 43
0.0000001
 44
0.0000000001
 40
0.0
 40
0.0
 40
0.0
 40
0.0
 40
0.5418787667
 40
1.0
 40
1.0
 40
1.0
 40
1.0
 10
14.5434603178
 20
12.6153967378
 30
0.0
 10
14.5429953047
 20
12.6163580395
 30
0.0
 10
14.5420303067
 20
12.6180839228
 30
0.0
 10
14.5407709618
 20
12.6196234133
 30
0.0
 10
14.5401096079
 20
12.6202379638
 30
0.0
  0
SPLINE
  5
2F7
100
AcDbEntity
  8
0
100
AcDbSpline
 62
7
  6
CONTINUOUS
 70
0
 71
3
 72
9
 73
5
 74
0
 42
0.0000001
 43
0.0000001
 44
0.0000000001
 40
0.0
 40
0.0
 40
0.0
 40
0.0
 40
0.4569709234
 40
1.0
 40
1.0
 40
1.0
 40
1.0
 10
14.5388643986
 20
12.452759665
 30
0.0
 10
14.539534321
 20
12.4533088713
 30
0.0
 10
14.5408204276
 20
12.4547296595
 30
0.0
 10
14.541807237
 20
12.4563569015
 30
0.0
 10
14.5422846298
 20
12.4572689202
 30
0.0
  0
SPLINE
  5
2F8
100
AcDbEntity
  8
0
100
AcDbSpline
 62
7
  6
CONTINUOUS
 70
0
 71
3
 72
9
 73
5
 74
0
 42
0.0000001
 43
0.0000001
 44
0.0000000001
 40
0.0
 40
0.0
 40
0.0
 40
0.0
 40
0.4811815409
 40
1.0
 40
1.0
 40
1.0
 40
1.0
 10
14.5388643986
 20
12.452759665
 30
0.0
 10
14.5343306993
 20
12.4490429122
 30
0.0
 10
14.5253726296
 20
12.4407437659
 30
0.0
 10
14.5172984721
 20
12.4315949133
 30
0.0
 10
14.513316287
 20
12.4266859797
 30
0.0
  0
SPLINE
  5
2F9
100
AcDbEntity
  8
0
100
AcDbSpline
 62
7
  6
CONTINUOUS
 70
0
 71
3
 72
13
 73
9
 74
0
 42
0.0000001
 43
0.0000001
 44
0.0000000001
 40
0.0
 40
0.0
 40
0.0
 40
0.0
 40
0.2926048325
 40
0.5690840411
 40
0.6947601836
 40
0.8094316051
 40
0.9115481372
 40
1.0
 40
1.0
 40
1.0
 40
1.0
 10
14.5089189699
 20
12.4072048541
 30
0.0
 10
14.5088629247
 20
12.4091833881
 30
0.0
 10
14.5089765982
 20
12.4130404602
 30
0.0
 10
14.509659789
 20
12.4177049545
 30
0.0
 10
14.5105490593
 20
12.4210895307
 30
0.0
 10
14.5113311609
 20
12.4232741034
 30
0.0
 10
14.5122279683
 20
12.4251382006
 30
0.0
 10
14.5129393431
 20
12.4262213121
 30
0.0
 10
14.513316287
 20
12.4266859797
 30
0.0
  0
SPLINE
  5
2FA
100
AcDbEntity
  8
0
100
AcDbSpline
 62
7
  6
CONTINUOUS
 70
0
 71
3
 72
15
 73
11
 74
0
 42
0.0000001
 43
0.0000001
 44
0.0000000001
 40
0.0
 40
0.0
 40
0.0
 40
0.0
 40
0.0800652179
 40
0.1743696558
 40
0.2832674247
 40
0.4061044246
 40
0.541483543
 40
0.6875941256
 40
0.841603248
 40
1.0
 40
1.0
 40
1.0
 40
1.0
 10
14.5162369687
 20
12.3428340081
 30
0.0
 10
14.515833191
 20
12.3431200139
 30
0.0
 10
14.5150469197
 20
12.3438743886
 30
0.0
 10
14.5140339804
 20
12.3453098295
 30
0.0
 10
14.5131144025
 20
12.3471090597
 30
0.0
 10
14.5123117062
 20
12.3492348621
 30
0.0
 10
14.5116377383
 20
12.3516438895
 30
0.0
 10
14.5111111317
 20
12.3542855821
 30
0.0
 10
14.510740547
 20
12.3570966606
 30
0.0
 10
14.5106035632
 20
12.3590238401
 30
0.0
 10
14.5105631147
 20
12.3600019074
 30
0.0
  0
SPLINE
  5
2FB
100
AcDbEntity
  8
0
100
AcDbSpline
 62
7
  6
CONTINUOUS
 70
0
 71
3
 72
9
 73
5
 74
0
 42
0.0000001
 43
0.0000001
 44
0.0000000001
 40
0.0
 40
0.0
 40
0.0
 40
0.0
 40
0.5153698259
 40
1.0
 40
1.0
 40
1.0
 40
1.0
 10
14.5162369687
 20
12.3428340081
 30
0.0
 10
14.5205060292
 20
12.3398101257
 30
0.0
 10
14.529162217
 20
12.3344429998
 30
0.0
 10
14.5385200473
 20
12.330389578
 30
0.0
 10
14.5431814868
 20
12.3288172455
 30
0.0
  0
SPLINE
  5
2FC
100
AcDbEntity
  8
0
100
AcDbSpline
 62
7
  6
CONTINUOUS
 70
0
 71
3
 72
10
 73
6
 74
0
 42
0.0000001
 43
0.0000001
 44
0.0000000001
 40
0.0
 40
0.0
 40
0.0
 40
0.0
 40
0.2836408066
 40
0.663892168
 40
1.0
 40
1.0
 40
1.0
 40
1.0
 10
14.5468590604
 20
12.3259382703
 30
0.0
 10
14.5465833885
 20
12.326290064
 30
0.0
 10
14.545898126
 20
12.3270830217
 30
0.0
 10
14.5446994021
 20
12.3281210546
 30
0.0
 10
14.5436833191
 20
12.3286479743
 30
0.0
 10
14.5431814868
 20
12.3288172455
 30
0.0
  0
SPLINE
  5
2FD
100
AcDbEntity
  8
0
100
AcDbSpline
 62
7
  6
CONTINUOUS
 70
0
 71
3
 72
9
 73
5
 74
0
 42
0.0000001
 43
0.0000001
 44
0.0000000001
 40
0.0
 40
0.0
 40
0.0
 40
0.0
 40
0.4653653703
 40
1.0
 40
1.0
 40
1.0
 40
1.0
 10
14.5559813385
 20
12.1645649274
 30
0.0
 10
14.5565839031
 20
12.165462453
 30
0.0
 10
14.5576998488
 20
12.1675117075
 30
0.0
 10
14.5585467858
 20
12.1696797078
 30
0.0
 10
14.5589442836
 20
12.1708563238
 30
0.0
  0
SPLINE
  5
2FE
100
AcDbEntity
  8
0
100
AcDbSpline
 62
7
  6
CONTINUOUS
 70
0
 71
3
 72
9
 73
5
 74
0
 42
0.0000001
 43
0.0000001
 44
0.0000000001
 40
0.0
 40
0.0
 40
0.0
 40
0.0
 40
0.4837009456
 40
1.0
 40
1.0
 40
1.0
 40
1.0
 10
14.5559813385
 20
12.1645649274
 30
0.0
 10
14.5518768023
 20
12.1584511816
 30
0.0
 10
14.5438700101
 20
12.1454864987
 30
0.0
 10
14.5367131552
 20
12.132038694
 30
0.0
 10
14.5332122253
 20
12.1250013881
 30
0.0
  0
SPLINE
  5
2FF
100
AcDbEntity
  8
0
100
AcDbSpline
 62
7
  6
CONTINUOUS
 70
0
 71
3
 72
13
 73
9
 74
0
 42
0.0000001
 43
0.0000001
 44
0.0000000001
 40
0.0
 40
0.0
 40
0.0
 40
0.0
 40
0.1335932231
 40
0.2701738582
 40
0.5399123712
 40
0.7888291945
 40
0.9001760268
 40
1.0
 40
1.0
 40
1.0
 40
1.0
 10
14.5305479939
 20
12.1035487241
 30
0.0
 10
14.5304359369
 20
12.1045158023
 30
0.0
 10
14.5302723739
 20
12.1064793462
 30
0.0
 10
14.5301727262
 20
12.1104143533
 30
0.0
 10
14.5304591404
 20
12.1151914289
 30
0.0
 10
14.5312919155
 20
12.1197235945
 30
0.0
 10
14.5322925157
 20
12.1229271644
 30
0.0
 10
14.532888209
 20
12.1243500748
 30
0.0
 10
14.5332122253
 20
12.1250013881
 30
0.0
  0
SPLINE
  5
300
100
AcDbEntity
  8
0
100
AcDbSpline
 62
7
  6
CONTINUOUS
 70
0
 71
3
 72
15
 73
11
 74
0
 42
0.0000001
 43
0.0000001
 44
0.0000000001
 40
0.0
 40
0.0
 40
0.0
 40
0.0
 40
0.0752017532
 40
0.1612670054
 40
0.2622830238
 40
0.3799724968
 40
0.5142905904
 40
0.6642346502
 40
0.8273008195
 40
1.0
 40
1.0
 40
1.0
 40
1.0
 10
14.5430820898
 20
12.0447204535
 30
0.0
 10
14.5426819203
 20
12.0447745008
 30
0.0
 10
14.541844791
 20
12.0450691661
 30
0.0
 10
14.5407128225
 20
12.0459319469
 30
0.0
 10
14.5396578371
 20
12.0471962923
 30
0.0
 10
14.5386969326
 20
12.0488374102
 30
0.0
 10
14.5378395572
 20
12.0508226731
 30
0.0
 10
14.5371073181
 20
12.0531136173
 30
0.0
 10
14.5365128557
 20
12.0556552987
 30
0.0
 10
14.536223679
 20
12.0574364517
 30
0.0
 10
14.5361040551
 20
12.058356028
 30
0.0
  0
SPLINE
  5
301
100
AcDbEntity
  8
0
100
AcDbSpline
 62
7
  6
CONTINUOUS
 70
0
 71
3
 72
9
 73
5
 74
0
 42
0.0000001
 43
0.0000001
 44
0.0000000001
 40
0.0
 40
0.0
 40
0.0
 40
0.0
 40
0.4749265464
 40
1.0
 40
1.0
 40
1.0
 40
1.0
 10
14.5968168521
 20
11.8925501369
 30
0.0
 10
14.5973205402
 20
11.893736415
 30
0.0
 10
14.5982260945
 20
11.8963008155
 30
0.0
 10
14.598888917
 20
11.8989357136
 30
0.0
 10
14.5991840514
 20
11.9003296748
 30
0.0
  0
SPLINE
  5
302
100
AcDbEntity
  8
0
100
AcDbSpline
 62
7
  6
CONTINUOUS
 70
0
 71
3
 72
9
 73
5
 74
0
 42
0.0000001
 43
0.0000001
 44
0.0000000001
 40
0.0
 40
0.0
 40
0.0
 40
0.0
 40
0.4877333173
 40
1.0
 40
1.0
 40
1.0
 40
1.0
 10
14.5968168521
 20
11.8925501369
 30
0.0
 10
14.5933473269
 20
11.8843787671
 30
0.0
 10
14.5866616146
 20
11.8674412371
 30
0.0
 10
14.5807440068
 20
11.8502222476
 30
0.0
 10
14.5778907477
 20
11.8413455647
 30
0.0
  0
SPLINE
  5
303
100
AcDbEntity
  8
0
100
AcDbSpline
 62
7
  6
CONTINUOUS
 70
0
 71
3
 72
13
 73
9
 74
0
 42
0.0000001
 43
0.0000001
 44
0.0000000001
 40
0.0
 40
0.0
 40
0.0
 40
0.0
 40
0.1213750679
 40
0.2490208956
 40
0.5117752845
 40
0.7684008415
 40
0.8886064813
 40
1.0
 40
1.0
 40
1.0
 40
1.0
 10
14.5770841026
 20
11.8189238547
 30
0.0
 10
14.5768908781
 20
11.8198197227
 30
0.0
 10
14.5765640549
 20
11.821673206
 30
0.0
 10
14.5761345974
 20
11.8255154816
 30
0.0
 10
14.5760279328
 20
11.8304113093
 30
0.0
 10
14.5764738041
 20
11.835233167
 30
0.0
 10
14.5771758052
 20
11.8388545678
 30
0.0
 10
14.5776333598
 20
11.8405448136
 30
0.0
 10
14.5778907477
 20
11.8413455647
 30
0.0
  0
SPLINE
  5
304
100
AcDbEntity
  8
0
100
AcDbSpline
 62
7
  6
CONTINUOUS
 70
0
 71
3
 72
9
 73
5
 74
0
 42
0.0000001
 43
0.0000001
 44
0.0000000001
 40
0.0
 40
0.0
 40
0.0
 40
0.0
 40
0.483758846
 40
1.0
 40
1.0
 40
1.0
 40
1.0
 10
14.6594626782
 20
11.6494266616
 30
0.0
 10
14.6598480522
 20
11.650836599
 30
0.0
 10
14.6605107722
 20
11.6537885193
 30
0.0
 10
14.6609490331
 20
11.6567807899
 30
0.0
 10
14.6611235114
 20
11.6583307999
 30
0.0
  0
SPLINE
  5
305
100
AcDbEntity
  8
0
100
AcDbSpline
 62
7
  6
CONTINUOUS
 70
0
 71
3
 72
13
 73
9
 74
0
 42
0.0000001
 43
0.0000001
 44
0.0000000001
 40
0.0
 40
0.0
 40
0.0
 40
0.0
 40
0.1096594391
 40
0.2285565737
 40
0.4840744863
 40
0.747882773
 40
0.8768428574
 40
1.0
 40
1.0
 40
1.0
 40
1.0
 10
14.6463526437
 20
11.5666308883
 30
0.0
 10
14.6460846246
 20
11.5674118236
 30
0.0
 10
14.6456052367
 20
11.5690671336
 30
0.0
 10
14.6448568608
 20
11.5726366949
 30
0.0
 10
14.6443519767
 20
11.5774289945
 30
0.0
 10
14.6443991118
 20
11.5823211435
 30
0.0
 10
14.6447796423
 20
11.5861888549
 30
0.0
 10
14.6450825859
 20
11.5880645143
 30
0.0
 10
14.6452640076
 20
11.5889738682
 30
0.0
  0
SPLINE
  5
306
100
AcDbEntity
  8
0
100
AcDbSpline
 62
7
  6
CONTINUOUS
 70
0
 71
3
 72
9
 73
5
 74
0
 42
0.0000001
 43
0.0000001
 44
0.0000000001
 40
0.0
 40
0.0
 40
0.0
 40
0.0
 40
0.4918460961
 40
1.0
 40
1.0
 40
1.0
 40
1.0
 10
14.7409913505
 20
11.446555766
 30
0.0
 10
14.7412453768
 20
11.4481186816
 30
0.0
 10
14.7416430391
 20
11.4513164005
 30
0.0
 10
14.7418268823
 20
11.4545330069
 30
0.0
 10
14.7418682061
 20
11.4561684104
 30
0.0
  0
SPLINE
  5
307
100
AcDbEntity
  8
0
100
AcDbSpline
 62
7
  6
CONTINUOUS
 70
0
 71
3
 72
14
 73
10
 74
0
 42
0.0000001
 43
0.0000001
 44
0.0000000001
 40
0.0
 40
0.0
 40
0.0
 40
0.0
 40
0.0980877886
 40
0.2080661513
 40
0.3280163368
 40
0.4558789703
 40
0.726603527
 40
0.864532437
 40
1.0
 40
1.0
 40
1.0
 40
1.0
 10
14.7351166685
 20
11.3584595836
 30
0.0
 10
14.7347837371
 20
11.3590852994
 30
0.0
 10
14.7341692946
 20
11.3604618347
 30
0.0
 10
14.7334184727
 20
11.3627127674
 30
0.0
 10
14.7328030192
 20
11.3652266413
 30
0.0
 10
14.7321750918
 20
11.3689228862
 30
0.0
 10
14.7318950292
 20
11.3728010614
 30
0.0
 10
14.7319452861
 20
11.3767337342
 30
0.0
 10
14.7320840188
 20
11.3787059372
 30
0.0
 10
14.7321836236
 20
11.3796797364
 30
0.0
  0
SPLINE
  5
308
100
AcDbEntity
  8
0
100
AcDbSpline
 62
7
  6
CONTINUOUS
 70
0
 71
3
 72
13
 73
9
 74
0
 42
0.0000001
 43
0.0000001
 44
0.0000000001
 40
0.0
 40
0.0
 40
0.0
 40
0.0
 40
0.0868204826
 40
0.187526867
 40
0.3012084708
 40
0.4264384856
 40
0.7038791272
 40
1.0
 40
1.0
 40
1.0
 40
1.0
 10
14.8392281959
 20
11.2041378752
 30
0.0
 10
14.8388449781
 20
11.2045716914
 30
0.0
 10
14.8381185338
 20
11.2055983916
 30
0.0
 10
14.8371988741
 20
11.2073882283
 30
0.0
 10
14.836390011
 20
11.2095073817
 30
0.0
 10
14.8354569794
 20
11.2128247891
 30
0.0
 10
14.8347166179
 20
11.2174398387
 30
0.0
 10
14.8345568372
 20
11.2212695622
 30
0.0
 10
14.8345878047
 20
11.2232435741
 30
0.0
  0
SPLINE
  5
309
100
AcDbEntity
  8
0
100
AcDbSpline
 62
7
  6
CONTINUOUS
 70
0
 71
3
 72
15
 73
11
 74
0
 42
0.0000001
 43
0.0000001
 44
0.0000000001
 40
0.0
 40
0.0
 40
0.0
 40
0.0
 40
0.0775040656
 40
0.1688347788
 40
0.2752636253
 40
0.3966956323
 40
0.5320443962
 40
0.6796866017
 40
0.8368496958
 40
1.0
 40
1.0
 40
1.0
 40
1.0
 10
14.9538220495
 20
11.1108772829
 30
0.0
 10
14.9534143011
 20
11.1110880212
 30
0.0
 10
14.9526048838
 20
11.1117002275
 30
0.0
 10
14.9515518008
 20
11.1129550809
 30
0.0
 10
14.950584594
 20
11.1145870808
 30
0.0
 10
14.9497264058
 20
11.1165639273
 30
0.0
 10
14.9489889194
 20
11.118845866
 30
0.0
 10
14.9483921362
 20
11.1213858119
 30
0.0
 10
14.9479461774
 20
11.1241228558
 30
0.0
 10
14.9477580407
 20
11.1260118344
 30
0.0
 10
14.9476911595
 20
11.1269757103
 30
0.0
  0
SPLINE
  5
30A
100
AcDbEntity
  8
0
100
AcDbSpline
 62
7
  6
CONTINUOUS
 70
0
 71
3
 72
16
 73
12
 74
0
 42
0.0000001
 43
0.0000001
 44
0.0000000001
 40
0.0
 40
0.0
 40
0.0
 40
0.0
 40
0.0378396043
 40
0.0767043601
 40
0.161126466
 40
0.2594734553
 40
0.3747955556
 40
0.5078471162
 40
0.6580976406
 40
0.8232807907
 40
1.0
 40
1.0
 40
1.0
 40
1.0
 10
15.0735432094
 20
11.0830359143
 30
0.0
 10
15.0733501056
 20
11.0830269954
 30
0.0
 10
15.0729558522
 20
11.0830478327
 30
0.0
 10
15.0721528723
 20
11.0832473058
 30
0.0
 10
15.0711480209
 20
11.0838120897
 30
0.0
 10
15.070056059
 20
11.0848904326
 30
0.0
 10
15.0690505011
 20
11.0863581199
 30
0.0
 10
15.0681413622
 20
11.0881858116
 30
0.0
 10
15.0673490078
 20
11.0903394615
 30
0.0
 10
15.0666872497
 20
11.0927676004
 30
0.0
 10
15.0663521755
 20
11.0944835205
 30
0.0
 10
15.0662083196
 20
11.0953747837
 30
0.0
  0
SPLINE
  5
30B
100
AcDbEntity
  8
0
100
AcDbSpline
 62
7
  6
CONTINUOUS
 70
0
 71
3
 72
11
 73
7
 74
0
 42
0.0000001
 43
0.0000001
 44
0.0000000001
 40
0.0
 40
0.0
 40
0.0
 40
0.0
 40
0.2310499951
 40
0.4783562494
 40
0.7367960445
 40
1.0
 40
1.0
 40
1.0
 40
1.0
 10
14.7510636913
 20
13.5361041939
 30
0.0
 10
14.7523802214
 20
13.5407145764
 30
0.0
 10
14.7546604566
 20
13.550389924
 30
0.0
 10
14.7570240364
 20
13.5655082359
 30
0.0
 10
14.7584024326
 20
13.5814169943
 30
0.0
 10
14.7586440512
 20
13.5922478729
 30
0.0
 10
14.7585915158
 20
13.5977095404
 30
0.0
  0
SPLINE
  5
30C
100
AcDbEntity
  8
0
100
AcDbSpline
 62
7
  6
CONTINUOUS
 70
0
 71
3
 72
15
 73
11
 74
0
 42
0.0000001
 43
0.0000001
 44
0.0000000001
 40
0.0
 40
0.0
 40
0.0
 40
0.0
 40
0.0994502599
 40
0.2099042119
 40
0.3298834915
 40
0.4575375302
 40
0.5907004078
 40
0.7271264128
 40
0.864478808
 40
1.0
 40
1.0
 40
1.0
 40
1.0
 10
14.6605952138
 20
13.3006891271
 30
0.0
 10
14.6621821207
 20
13.3038046437
 30
0.0
 10
14.665116525
 20
13.3105944976
 30
0.0
 10
14.6686939243
 20
13.32163989
 30
0.0
 10
14.6716238778
 20
13.333895425
 30
0.0
 10
14.6738418643
 20
13.3471074258
 30
0.0
 10
14.675302567
 20
13.3610049962
 30
0.0
 10
14.6759743384
 20
13.3753039592
 30
0.0
 10
14.6758384096
 20
13.3897002144
 30
0.0
 10
14.6752101322
 20
13.3992793787
 30
0.0
 10
14.6747556277
 20
13.4040221879
 30
0.0
  0
SPLINE
  5
30D
100
AcDbEntity
  8
AXIS
100
AcDbSpline
 62
7
  6
CONTINUOUS
 70
0
 71
3
 72
15
 73
11
 74
0
 42
0.0000001
 43
0.0000001
 44
0.0000000001
 40
0.0
 40
0.0
 40
0.0
 40
0.0
 40
0.0995633713
 40
0.2022078746
 40
0.3107212581
 40
0.4273490074
 40
0.5537920948
 40
0.6911473424
 40
0.8398516131
 40
1.0
 40
1.0
 40
1.0
 40
1.0
 10
15.9461412909
 20
13.1372762851
 30
0.0
 10
15.9451556946
 20
13.1372763722
 30
0.0
 10
15.9431488234
 20
13.1370794121
 30
0.0
 10
15.9401845851
 20
13.1361988959
 30
0.0
 10
15.9372674321
 20
13.1347452348
 30
0.0
 10
15.9344124617
 20
13.132735048
 30
0.0
 10
15.9316329159
 20
13.1301809091
 30
0.0
 10
15.9289428133
 20
13.12709965
 30
0.0
 10
15.9263539898
 20
13.1235143764
 30
0.0
 10
15.9247644187
 20
13.120898889
 30
0.0
 10
15.9239867415
 20
13.1195173983
 30
0.0
  0
SPLINE
  5
30E
100
AcDbEntity
  8
AXIS
100
AcDbSpline
 62
7
  6
CONTINUOUS
 70
0
 71
3
 72
11
 73
7
 74
0
 42
0.0000001
 43
0.0000001
 44
0.0000000001
 40
0.0
 40
0.0
 40
0.0
 40
0.0
 40
0.2416395122
 40
0.4867258574
 40
0.7385272404
 40
1.0
 40
1.0
 40
1.0
 40
1.0
 10
15.9915119302
 20
11.2605553198
 30
0.0
 10
15.9997728807
 20
11.2605551352
 30
0.0
 10
16.0164324638
 20
11.2616495435
 30
0.0
 10
16.0412655874
 20
11.2665559193
 30
0.0
 10
16.0659426547
 20
11.2747026843
 30
0.0
 10
16.0818948655
 20
11.2821131094
 30
0.0
 10
16.089795499
 20
11.286294683
 30
0.0
  0
SPLINE
  5
30F
100
AcDbEntity
  8
AXIS
100
AcDbSpline
 62
7
  6
CONTINUOUS
 70
0
 71
3
 72
9
 73
5
 74
0
 42
0.0000001
 43
0.0000001
 44
0.0000000001
 40
0.0
 40
0.0
 40
0.0
 40
0.0
 40
0.4850785396
 40
1.0
 40
1.0
 40
1.0
 40
1.0
 10
16.0901233187
 20
11.28646849
 30
0.0
 10
16.0997184757
 20
11.2915645796
 30
0.0
 10
16.1188487038
 20
11.3033247762
 30
0.0
 10
16.1365655095
 20
11.3170967385
 30
0.0
 10
16.1453308931
 20
11.324591784
 30
0.0
  0
SPLINE
  5
310
100
AcDbEntity
  8
AXIS
100
AcDbSpline
 62
7
  6
CONTINUOUS
 70
0
 71
3
 72
10
 73
6
 74
0
 42
0.0000001
 43
0.0000001
 44
0.0000000001
 40
0.0
 40
0.0
 40
0.0
 40
0.0
 40
0.4806853722
 40
0.7353906996
 40
1.0
 40
1.0
 40
1.0
 40
1.0
 10
16.1453308931
 20
11.324591784
 30
0.0
 10
16.1566837869
 20
11.3342993404
 30
0.0
 10
16.1731660167
 20
11.3502132788
 30
0.0
 10
16.1938799475
 20
11.373384522
 30
0.0
 10
16.2040712916
 20
11.3859066713
 30
0.0
 10
16.2091260766
 20
11.3923922788
 30
0.0
  0
SPLINE
  5
311
100
AcDbEntity
  8
AXIS
100
AcDbSpline
 62
7
  6
CONTINUOUS
 70
0
 71
3
 72
15
 73
11
 74
0
 42
0.0000001
 43
0.0000001
 44
0.0000000001
 40
0.0
 40
0.0
 40
0.0
 40
0.0
 40
0.1088634766
 40
0.2224901692
 40
0.3408344957
 40
0.4638262683
 40
0.591373935
 40
0.7233680071
 40
0.8596492228
 40
1.0
 40
1.0
 40
1.0
 40
1.0
 10
16.2418827589
 20
11.4385370727
 30
0.0
 10
16.2482837065
 20
11.4483926999
 30
0.0
 10
16.2608884306
 20
11.4688483882
 30
0.0
 10
16.2788428741
 20
11.5009742995
 30
0.0
 10
16.2962179847
 20
11.5351371925
 30
0.0
 10
16.3129766527
 20
11.5712689203
 30
0.0
 10
16.329087489
 20
11.6092988738
 30
0.0
 10
16.3445172937
 20
11.6491519135
 30
0.0
 10
16.3592332523
 20
11.6907420995
 30
0.0
 10
16.3684172635
 20
11.7191616542
 30
0.0
 10
16.3728905238
 20
11.7336371301
 30
0.0
  0
SPLINE
  5
312
100
AcDbEntity
  8
AXIS
100
AcDbSpline
 62
7
  6
CONTINUOUS
 70
0
 71
3
 72
14
 73
10
 74
0
 42
0.0000001
 43
0.0000001
 44
0.0000000001
 40
0.0
 40
0.0
 40
0.0
 40
0.0
 40
0.1184529651
 40
0.2375675316
 40
0.3579927954
 40
0.480351327
 40
0.6052276633
 40
0.7331642796
 40
1.0
 40
1.0
 40
1.0
 40
1.0
 10
15.99151193
 20
13.761054666
 30
0.0
 10
15.9966575588
 20
13.761054551
 30
0.0
 10
16.0069824206
 20
13.7606332702
 30
0.0
 10
16.0224342824
 20
13.7587412057
 30
0.0
 10
16.0378529721
 20
13.7555894891
 30
0.0
 10
16.0532201768
 20
13.7511831225
 30
0.0
 10
16.0685215494
 20
13.7455282172
 30
0.0
 10
16.0890956135
 20
13.7362052152
 30
0.0
 10
16.103957016
 20
13.7275226001
 30
0.0
 10
16.113608103
 20
13.7211025191
 30
0.0
  0
SPLINE
  5
313
100
AcDbEntity
  8
AXIS
100
AcDbSpline
 62
7
  6
CONTINUOUS
 70
0
 71
3
 72
11
 73
7
 74
0
 42
0.0000001
 43
0.0000001
 44
0.0000000001
 40
0.0
 40
0.0
 40
0.0
 40
0.0
 40
0.2250332217
 40
0.4658864689
 40
0.7239233877
 40
1.0
 40
1.0
 40
1.0
 40
1.0
 10
16.114221784
 20
13.7206931925
 30
0.0
 10
16.1245036685
 20
13.713816802
 30
0.0
 10
16.1449207919
 20
13.698252339
 30
0.0
 10
16.1739084099
 20
13.6709064525
 30
0.0
 10
16.2021351609
 20
13.6389353734
 30
0.0
 10
16.2197745227
 20
13.6154276443
 30
0.0
 10
16.2284682943
 20
13.6029897262
 30
0.0
  0
SPLINE
  5
314
100
AcDbEntity
  8
AXIS
100
AcDbSpline
 62
7
  6
CONTINUOUS
 70
0
 71
3
 72
31
 73
27
 74
0
 42
0.0000001
 43
0.0000001
 44
0.0000000001
 40
0.0
 40
0.0
 40
0.0
 40
0.0
 40
0.0229306827
 40
0.0469376491
 40
0.0719993573
 40
0.0980865644
 40
0.1251627166
 40
0.1531856598
 40
0.182107221
 40
0.2118751379
 40
0.2424321475
 40
0.2737179858
 40
0.338212168
 40
0.4048176271
 40
0.4729540565
 40
0.5420165261
 40
0.6113855543
 40
0.6804369373
 40
0.7485512893
 40
0.815124266
 40
0.8476524945
 40
0.8795798029
 40
0.9108395024
 40
0.9413713039
 40
0.9711141395
 40
1.0
 40
1.0
 40
1.0
 40
1.0
 10
16.2634638281
 20
13.5478325104
 30
0.0
 10
16.2705679819
 20
13.5355476058
 30
0.0
 10
16.2844919468
 20
13.5100399925
 30
0.0
 10
16.3041172188
 20
13.4700229528
 30
0.0
 10
16.3229153741
 20
13.4274664584
 30
0.0
 10
16.3408359517
 20
13.3824835061
 30
0.0
 10
16.3578327518
 20
13.3351922943
 30
0.0
 10
16.3738595944
 20
13.2857173626
 30
0.0
 10
16.3888755382
 20
13.234189526
 30
0.0
 10
16.4028389656
 20
13.1807447513
 30
0.0
 10
16.4157149313
 20
13.1255243625
 30
0.0
 10
16.4315437869
 20
13.0489501532
 30
0.0
 10
16.448294245
 20
12.9498199285
 30
0.0
 10
16.463398713
 20
12.8274098137
 30
0.0
 10
16.4735437242
 20
12.7016533973
 30
0.0
 10
16.4786205926
 20
12.5738808445
 30
0.0
 10
16.478574874
 20
12.4454416679
 30
0.0
 10
16.4734070933
 20
12.3176928726
 30
0.0
 10
16.4631724353
 20
12.1919860519
 30
0.0
 10
16.4504167811
 20
12.0892540848
 30
0.0
 10
16.437707471
 20
12.0091605098
 30
0.0
 10
16.4270680303
 20
11.9508826816
 30
0.0
 10
16.4152748386
 20
11.8940885815
 30
0.0
 10
16.4023596101
 20
11.838925991
 30
0.0
 10
16.3883563417
 20
11.7855470142
 30
0.0
 10
16.3781685438
 20
11.7507168091
 30
0.0
 10
16.3728905238
 20
11.7336371301
 30
0.0
  0
SPLINE
  5
315
100
AcDbEntity
  8
0
100
AcDbSpline
 62
7
  6
CONTINUOUS
 70
0
 71
3
 72
21
 73
17
 74
0
 42
0.0000001
 43
0.0000001
 44
0.0000000001
 40
0.0
 40
0.0
 40
0.0
 40
0.0
 40
0.0375917359
 40
0.0797799451
 40
0.1267515372
 40
0.1784715627
 40
0.2347427551
 40
0.2951874976
 40
0.3593506056
 40
0.426685178
 40
0.5683642315
 40
0.7148899202
 40
0.7882299577
 40
0.8606973369
 40
0.9315549955
 40
1.0
 40
1.0
 40
1.0
 40
1.0
 10
14.5856963779
 20
13.0268413373
 30
0.0
 10
14.5871010985
 20
13.0280101328
 30
0.0
 10
14.5898515234
 20
13.0307725118
 30
0.0
 10
14.5935492694
 20
13.0357191045
 30
0.0
 10
14.597014024
 20
13.0416403165
 30
0.0
 10
14.6002121852
 20
13.0484700847
 30
0.0
 10
14.6031073892
 20
13.0561363209
 30
0.0
 10
14.6056720453
 20
13.0645524167
 30
0.0
 10
14.6078717042
 20
13.0736248894
 30
0.0
 10
14.6103285542
 20
13.0866800752
 30
0.0
 10
14.6122939982
 20
13.1038765018
 30
0.0
 10
14.6128134308
 20
13.1214650535
 30
0.0
 10
14.612350009
 20
13.1356716719
 30
0.0
 10
14.6115600625
 20
13.1461778363
 30
0.0
 10
14.6103384904
 20
13.1564026983
 30
0.0
 10
14.6092270133
 20
13.1630856982
 30
0.0
 10
14.6085969946
 20
13.1663527029
 30
0.0
  0
SPLINE
  5
316
100
AcDbEntity
  8
0
100
AcDbSpline
 62
7
  6
CONTINUOUS
 70
0
 71
3
 72
15
 73
11
 74
0
 42
0.0000001
 43
0.0000001
 44
0.0000000001
 40
0.0
 40
0.0
 40
0.0
 40
0.0
 40
0.1742854395
 40
0.3349777718
 40
0.4805078345
 40
0.6105216615
 40
0.7253457673
 40
0.8263221905
 40
0.9163711206
 40
1.0
 40
1.0
 40
1.0
 40
1.0
 10
15.0890183658
 20
13.9279883929
 30
0.0
 10
15.089191497
 20
13.9286154763
 30
0.0
 10
15.0895612725
 20
13.9298110614
 30
0.0
 10
15.0902163668
 20
13.93148274
 30
0.0
 10
15.0909449711
 20
13.9329418976
 30
0.0
 10
15.0917358553
 20
13.9341698788
 30
0.0
 10
15.09258058
 20
13.9351528844
 30
0.0
 10
15.0934754751
 20
13.9358747945
 30
0.0
 10
15.0944095749
 20
13.9363228078
 30
0.0
 10
15.0950608619
 20
13.936428897
 30
0.0
 10
15.095373017
 20
13.9364297483
 30
0.0
  0
SPLINE
  5
317
100
AcDbEntity
  8
0
100
AcDbSpline
 62
7
  6
CONTINUOUS
 70
0
 71
3
 72
15
 73
11
 74
0
 42
0.0000001
 43
0.0000001
 44
0.0000000001
 40
0.0
 40
0.0
 40
0.0
 40
0.0
 40
0.1658433831
 40
0.324743307
 40
0.4731637962
 40
0.6083835019
 40
0.7289130486
 40
0.8338892604
 40
0.923613794
 40
1.0
 40
1.0
 40
1.0
 40
1.0
 10
14.9693882729
 20
13.9054485102
 30
0.0
 10
14.9694699319
 20
13.9064022007
 30
0.0
 10
14.969686524
 20
13.9082653666
 30
0.0
 10
14.9701743537
 20
13.9109543165
 30
0.0
 10
14.9708097195
 20
13.9134309007
 30
0.0
 10
14.9715817332
 20
13.9156357043
 30
0.0
 10
14.9724697422
 20
13.9175238284
 30
0.0
 10
14.9734624076
 20
13.9190575538
 30
0.0
 10
14.9745374117
 20
13.9202073318
 30
0.0
 10
14.9753577129
 20
13.9207354162
 30
0.0
 10
14.9757655587
 20
13.9209028322
 30
0.0
  0
SPLINE
  5
318
100
AcDbEntity
  8
0
100
AcDbSpline
 62
7
  6
CONTINUOUS
 70
0
 71
3
 72
13
 73
9
 74
0
 42
0.0000001
 43
0.0000001
 44
0.0000000001
 40
0.0
 40
0.0
 40
0.0
 40
0.0
 40
0.3005285413
 40
0.579127786
 40
0.7037720747
 40
0.8161973443
 40
0.9151498391
 40
1.0
 40
1.0
 40
1.0
 40
1.0
 10
14.854872936
 20
13.8209018154
 30
0.0
 10
14.8548728118
 20
13.8228673592
 30
0.0
 10
14.8550889552
 20
13.826657867
 30
0.0
 10
14.8558993569
 20
13.8312051387
 30
0.0
 10
14.8568856173
 20
13.8344343559
 30
0.0
 10
14.8577265489
 20
13.8364695474
 30
0.0
 10
14.8586733876
 20
13.8381650524
 30
0.0
 10
14.8594176405
 20
13.8391198663
 30
0.0
 10
14.8598078698
 20
13.8395144353
 30
0.0
  0
SPLINE
  5
319
100
AcDbEntity
  8
0
100
AcDbSpline
 62
7
  6
CONTINUOUS
 70
0
 71
3
 72
11
 73
7
 74
0
 42
0.0000001
 43
0.0000001
 44
0.0000000001
 40
0.0
 40
0.0
 40
0.0
 40
0.0
 40
0.3032843988
 40
0.5657692982
 40
0.7934703876
 40
1.0
 40
1.0
 40
1.0
 40
1.0
 10
14.768857095
 20
13.7218122157
 30
0.0
 10
14.769142233
 20
13.7222697619
 30
0.0
 10
14.7697312195
 20
13.7230908927
 30
0.0
 10
14.7707529832
 20
13.7240774142
 30
0.0
 10
14.7718399296
 20
13.7247050021
 30
0.0
 10
14.7726172096
 20
13.7248523525
 30
0.0
 10
14.772984339
 20
13.7248523732
 30
0.0
  0
SPLINE
  5
31A
100
AcDbEntity
  8
0
100
AcDbSpline
 62
7
  6
CONTINUOUS
 70
0
 71
3
 72
14
 73
10
 74
0
 42
0.0000001
 43
0.0000001
 44
0.0000000001
 40
0.0
 40
0.0
 40
0.0
 40
0.0
 40
0.1378483918
 40
0.2774911619
 40
0.5494832143
 40
0.6769070356
 40
0.7957492445
 40
0.9040397013
 40
1.0
 40
1.0
 40
1.0
 40
1.0
 10
14.7501088398
 20
13.6751337329
 30
0.0
 10
14.7500247388
 20
13.6761144275
 30
0.0
 10
14.7499168684
 20
13.6780944056
 30
0.0
 10
14.7499274997
 20
13.6820190762
 30
0.0
 10
14.7502653862
 20
13.6858650662
 30
0.0
 10
14.7509516795
 20
13.6895039193
 30
0.0
 10
14.7516053591
 20
13.6919527689
 30
0.0
 10
14.7523901988
 20
13.6941251819
 30
0.0
 10
14.7530272692
 20
13.6954420234
 30
0.0
 10
14.7533708102
 20
13.696034875
 30
0.0
  0
SPLINE
  5
31B
100
AcDbEntity
  8
0
100
AcDbSpline
 62
7
  6
CONTINUOUS
 70
0
 71
3
 72
9
 73
5
 74
0
 42
0.0000001
 43
0.0000001
 44
0.0000000001
 40
0.0
 40
0.0
 40
0.0
 40
0.0
 40
0.2543690917
 40
1.0
 40
1.0
 40
1.0
 40
1.0
 10
14.7585915158
 20
13.5977095404
 30
0.0
 10
14.7585835835
 20
13.598534194
 30
0.0
 10
14.758500135
 20
13.6017753063
 30
0.0
 10
14.7582111366
 20
13.6050121586
 30
0.0
 10
14.7578654351
 20
13.6074047276
 30
0.0
  0
SPLINE
  5
31C
100
AcDbEntity
  8
0
100
AcDbSpline
 62
7
  6
CONTINUOUS
 70
0
 71
3
 72
21
 73
17
 74
0
 42
0.0000001
 43
0.0000001
 44
0.0000000001
 40
0.0
 40
0.0
 40
0.0
 40
0.0
 40
0.0412917905
 40
0.0876218124
 40
0.138846775
 40
0.194672374
 40
0.2546975526
 40
0.3183996585
 40
0.3851385981
 40
0.4542292419
 40
0.5964340775
 40
0.7388364482
 40
0.8081785947
 40
0.875307116
 40
0.9394992148
 40
1.0
 40
1.0
 40
1.0
 40
1.0
 10
14.5499836026
 20
12.7461832803
 30
0.0
 10
14.5514152939
 20
12.7478384473
 30
0.0
 10
14.554175316
 20
12.7515938523
 30
0.0
 10
14.5578231077
 20
12.7579983305
 30
0.0
 10
14.5611634957
 20
12.7654209602
 30
0.0
 10
14.5641549424
 20
12.7737632936
 30
0.0
 10
14.5667604864
 20
12.7829224263
 30
0.0
 10
14.5689467475
 20
12.7927827554
 30
0.0
 10
14.570687559
 20
12.8032183666
 30
0.0
 10
14.5723938179
 20
12.8178599102
 30
0.0
 10
14.5732657455
 20
12.8366120763
 30
0.0
 10
14.5725047149
 20
12.8553823192
 30
0.0
 10
14.570885805
 20
12.8700783452
 30
0.0
 10
14.5692076388
 20
12.8805850105
 30
0.0
 10
14.5670770877
 20
12.8905304783
 30
0.0
 10
14.5653219564
 20
12.8969071119
 30
0.0
 10
14.5643652616
 20
12.899967588
 30
0.0
  0
SPLINE
  5
31D
100
AcDbEntity
  8
0
100
AcDbSpline
 62
7
  6
CONTINUOUS
 70
0
 71
3
 72
14
 73
10
 74
0
 42
0.0000001
 43
0.0000001
 44
0.0000000001
 40
0.0
 40
0.0
 40
0.0
 40
0.0
 40
0.3230164236
 40
0.4650101055
 40
0.5934945301
 40
0.7089191001
 40
0.8130619709
 40
0.9087933216
 40
1.0
 40
1.0
 40
1.0
 40
1.0
 10
14.6743954131
 20
13.5308903764
 30
0.0
 10
14.6747265523
 20
13.5317233967
 30
0.0
 10
14.6752777453
 20
13.5328982742
 30
0.0
 10
14.6761786288
 20
13.5342798539
 30
0.0
 10
14.6768601167
 20
13.5351095437
 30
0.0
 10
14.6775728378
 20
13.5357669854
 30
0.0
 10
14.6783118152
 20
13.5362452406
 30
0.0
 10
14.6790715948
 20
13.536538002
 30
0.0
 10
14.6795925466
 20
13.5366042922
 30
0.0
 10
14.6798456598
 20
13.5366038355
 30
0.0
  0
SPLINE
  5
31E
100
AcDbEntity
  8
0
100
AcDbSpline
 62
7
  6
CONTINUOUS
 70
0
 71
3
 72
13
 73
9
 74
0
 42
0.0000001
 43
0.0000001
 44
0.0000000001
 40
0.0
 40
0.0
 40
0.0
 40
0.0
 40
0.1253837606
 40
0.2559805531
 40
0.5210891168
 40
0.7752161093
 40
0.8924861918
 40
1.0
 40
1.0
 40
1.0
 40
1.0
 10
14.6599916557
 20
13.4749560679
 30
0.0
 10
14.6598250451
 20
13.475880767
 30
0.0
 10
14.6595519992
 20
13.4777811499
 30
0.0
 10
14.6592323838
 20
13.4816747674
 30
0.0
 10
14.6592587803
 20
13.486555457
 30
0.0
 10
14.6598363479
 20
13.4913043398
 30
0.0
 10
14.6606414296
 20
13.4948043818
 30
0.0
 10
14.6611473374
 20
13.4964138871
 30
0.0
 10
14.6614282294
 20
13.4971690128
 30
0.0
  0
SPLINE
  5
31F
100
AcDbEntity
  8
0
100
AcDbSpline
 62
7
  6
CONTINUOUS
 70
0
 71
3
 72
9
 73
5
 74
0
 42
0.0000001
 43
0.0000001
 44
0.0000000001
 40
0.0
 40
0.0
 40
0.0
 40
0.0
 40
0.514696179
 40
1.0
 40
1.0
 40
1.0
 40
1.0
 10
14.6747556277
 20
13.4040221879
 30
0.0
 10
14.6746050439
 20
13.4055935477
 30
0.0
 10
14.6742119944
 20
13.4086379249
 30
0.0
 10
14.6735970073
 20
13.4116463939
 30
0.0
 10
14.6732351387
 20
13.4130901475
 30
0.0
  0
SPLINE
  5
320
100
AcDbEntity
  8
0
100
AcDbSpline
 62
7
  6
CONTINUOUS
 70
0
 71
3
 72
15
 73
11
 74
0
 42
0.0000001
 43
0.0000001
 44
0.0000000001
 40
0.0
 40
0.0
 40
0.0
 40
0.0
 40
0.1740341642
 40
0.3353928069
 40
0.482173687
 40
0.6129804089
 40
0.7279240848
 40
0.8284365079
 40
0.9174635957
 40
1.0
 40
1.0
 40
1.0
 40
1.0
 10
14.5981187642
 20
13.2922995086
 30
0.0
 10
14.5982881273
 20
13.2929646423
 30
0.0
 10
14.5986553524
 20
13.2942366529
 30
0.0
 10
14.599316016
 20
13.2960218088
 30
0.0
 10
14.6000557326
 20
13.2975898785
 30
0.0
 10
14.6008664772
 20
13.2989132121
 30
0.0
 10
14.6017373469
 20
13.299972118
 30
0.0
 10
14.602660036
 20
13.3007541238
 30
0.0
 10
14.6036311926
 20
13.3012392987
 30
0.0
 10
14.604311785
 20
13.3013507003
 30
0.0
 10
14.6046372927
 20
13.301350843
 30
0.0
  0
SPLINE
  5
321
100
AcDbEntity
  8
0
100
AcDbSpline
 62
7
  6
CONTINUOUS
 70
0
 71
3
 72
13
 73
9
 74
0
 42
0.0000001
 43
0.0000001
 44
0.0000000001
 40
0.0
 40
0.0
 40
0.0
 40
0.0
 40
0.1134450413
 40
0.2351919679
 40
0.4931103117
 40
0.7546141366
 40
0.8807141455
 40
1.0
 40
1.0
 40
1.0
 40
1.0
 10
14.5881959893
 20
13.2273810338
 30
0.0
 10
14.5879514148
 20
13.2282039986
 30
0.0
 10
14.5875201022
 20
13.2299331173
 30
0.0
 10
14.5868734919
 20
13.2336107578
 30
0.0
 10
14.5864976078
 20
13.2384611715
 30
0.0
 10
14.586674673
 20
13.243354931
 30
0.0
 10
14.5871615569
 20
13.2471620028
 30
0.0
 10
14.5875162532
 20
13.2489867773
 30
0.0
 10
14.5877232236
 20
13.2498654718
 30
0.0
  0
SPLINE
  5
322
100
AcDbEntity
  8
0
100
AcDbSpline
 62
7
  6
CONTINUOUS
 70
0
 71
3
 72
9
 73
5
 74
0
 42
0.0000001
 43
0.0000001
 44
0.0000000001
 40
0.0
 40
0.0
 40
0.0
 40
0.0
 40
0.5115592304
 40
1.0
 40
1.0
 40
1.0
 40
1.0
 10
14.5881959893
 20
13.2273810338
 30
0.0
 10
14.5909189973
 20
13.2182184282
 30
0.0
 10
14.5965853778
 20
13.2004070457
 30
0.0
 10
14.6030064324
 20
13.1828519003
 30
0.0
 10
14.6063471609
 20
13.1743586083
 30
0.0
  0
SPLINE
  5
323
100
AcDbEntity
  8
0
100
AcDbSpline
 62
7
  6
CONTINUOUS
 70
0
 71
3
 72
9
 73
5
 74
0
 42
0.0000001
 43
0.0000001
 44
0.0000000001
 40
0.0
 40
0.0
 40
0.0
 40
0.0
 40
0.5234533028
 40
1.0
 40
1.0
 40
1.0
 40
1.0
 10
14.6085969946
 20
13.1663527029
 30
0.0
 10
14.608321954
 20
13.1677789446
 30
0.0
 10
14.6076960372
 20
13.1704855967
 30
0.0
 10
14.6068311965
 20
13.1731280216
 30
0.0
 10
14.6063471609
 20
13.1743586083
 30
0.0
  0
SPLINE
  5
324
100
AcDbEntity
  8
0
100
AcDbSpline
 62
7
  6
CONTINUOUS
 70
0
 71
3
 72
21
 73
17
 74
0
 42
0.0000001
 43
0.0000001
 44
0.0000000001
 40
0.0
 40
0.0
 40
0.0
 40
0.0
 40
0.0496550332
 40
0.1039607707
 40
0.1624228062
 40
0.2245016172
 40
0.2896196985
 40
0.3571228344
 40
0.4962945497
 40
0.6359825615
 40
0.7041209979
 40
0.7701107512
 40
0.8332798026
 40
0.8930270015
 40
0.9487804743
 40
1.0
 40
1.0
 40
1.0
 40
1.0
 10
14.5422846298
 20
12.4572689202
 30
0.0
 10
14.543530139
 20
12.4596483608
 30
0.0
 10
14.5458837195
 20
12.4647647893
 30
0.0
 10
14.5489142728
 20
12.4730180143
 30
0.0
 10
14.5515616956
 20
12.4821038051
 30
0.0
 10
14.5537919906
 20
12.4919001186
 30
0.0
 10
14.55557682
 20
12.5022834161
 30
0.0
 10
14.5573493065
 20
12.5168816577
 30
0.0
 10
14.5583042216
 20
12.5356179996
 30
0.0
 10
14.5576235588
 20
12.5544001824
 30
0.0
 10
14.5560709591
 20
12.5691333117
 30
0.0
 10
14.5544407011
 20
12.5796839858
 30
0.0
 10
14.5523564883
 20
12.5896916169
 30
0.0
 10
14.5498448439
 20
12.5990297389
 30
0.0
 10
14.5469380644
 20
12.6075727399
 30
0.0
 10
14.544666685
 20
12.6129028663
 30
0.0
 10
14.5434603178
 20
12.6153967378
 30
0.0
  0
SPLINE
  5
325
100
AcDbEntity
  8
AXIS
100
AcDbSpline
 62
7
  6
CONTINUOUS
 70
0
 71
3
 72
23
 73
19
 74
0
 42
0.0000001
 43
0.0000001
 44
0.0000000001
 40
0.0
 40
0.0
 40
0.0
 40
0.0
 40
0.087955162
 40
0.1726823179
 40
0.2539751707
 40
0.3316952489
 40
0.4057554635
 40
0.4760959322
 40
0.5426903065
 40
0.6055539203
 40
0.6647671897
 40
0.7204708348
 40
0.772886593
 40
0.822323083
 40
0.8691889342
 40
0.9140002756
 40
0.9573713449
 40
1.0
 40
1.0
 40
1.0
 40
1.0
 10
15.7246002968
 20
13.0547137151
 30
0.0
 10
15.7285003772
 20
13.06733438
 30
0.0
 10
15.736554906
 20
13.09199222
 30
0.0
 10
15.7496584376
 20
13.1278225959
 30
0.0
 10
15.7635263179
 20
13.1617104668
 30
0.0
 10
15.7781121072
 20
13.1935427663
 30
0.0
 10
15.7933700962
 20
13.2232221254
 30
0.0
 10
15.809255112
 20
13.2506581427
 30
0.0
 10
15.8257161419
 20
13.2757672959
 30
0.0
 10
15.8427074321
 20
13.2984688076
 30
0.0
 10
15.8601749772
 20
13.3186944855
 30
0.0
 10
15.8780717876
 20
13.3363790719
 30
0.0
 10
15.8963460617
 20
13.3514667842
 30
0.0
 10
15.914948113
 20
13.3639056929
 30
0.0
 10
15.9338266431
 20
13.3736453661
 30
0.0
 10
15.952924901
 20
13.3806454453
 30
0.0
 10
15.9721752124
 20
13.3848616482
 30
0.0
 10
15.985109751
 20
13.3858046107
 30
0.0
 10
15.9915119301
 20
13.3858048644
 30
0.0
  0
SPLINE
  5
326
100
AcDbEntity
  8
AXIS
100
AcDbSpline
 62
7
  6
CONTINUOUS
 70
0
 71
3
 72
41
 73
37
 74
0
 42
0.0000001
 43
0.0000001
 44
0.0000000001
 40
0.0
 40
0.0
 40
0.0
 40
0.0
 40
0.0330457831
 40
0.0673857896
 40
0.1028769662
 40
0.1393888351
 40
0.1767845103
 40
0.2149133981
 40
0.2536204461
 40
0.2927472415
 40
0.3321323922
 40
0.3716120857
 40
0.4110221739
 40
0.4501987629
 40
0.4889800285
 40
0.5272064345
 40
0.5647232803
 40
0.6013803503
 40
0.6370350933
 40
0.6715520683
 40
0.7048064564
 40
0.7366840522
 40
0.7670846603
 40
0.7959236424
 40
0.823135021
 40
0.8486757254
 40
0.8725288956
 40
0.8947120318
 40
0.9152818537
 40
0.9343469087
 40
0.9520744985
 40
0.968703224
 40
0.9767065741
 40
0.9845576403
 40
0.9923050845
 40
1.0
 40
1.0
 40
1.0
 40
1.0
 10
15.7246002968
 20
13.0547137151
 30
0.0
 10
15.7195522015
 20
13.0383780729
 30
0.0
 10
15.7099467207
 20
13.0048511052
 30
0.0
 10
15.6971987953
 20
12.9531607197
 30
0.0
 10
15.6858884624
 20
12.8993031275
 30
0.0
 10
15.6760696969
 20
12.843548858
 30
0.0
 10
15.6677910206
 20
12.7861665469
 30
0.0
 10
15.6610919119
 20
12.7274356894
 30
0.0
 10
15.6560069455
 20
12.6676445111
 30
0.0
 10
15.6525605097
 20
12.6070857636
 30
0.0
 10
15.65076927
 20
12.5460556818
 30
0.0
 10
15.6506430113
 20
12.4848529358
 30
0.0
 10
15.6521808969
 20
12.4237772809
 30
0.0
 10
15.6553773341
 20
12.3631276775
 30
0.0
 10
15.6602140941
 20
12.303200967
 30
0.0
 10
15.6666701876
 20
12.2442904989
 30
0.0
 10
15.6747107327
 20
12.1866843292
 30
0.0
 10
15.6842992825
 20
12.1306643537
 30
0.0
 10
15.6953855472
 20
12.0765040184
 30
0.0
 10
15.7079178508
 20
12.0244680519
 30
0.0
 10
15.7218321606
 20
11.9748097691
 30
0.0
 10
15.7370622284
 20
11.9277711636
 30
0.0
 10
15.7535323519
 20
11.883580264
 30
0.0
 10
15.7711630794
 20
11.8424509455
 30
0.0
 10
15.7898697704
 20
11.8045813432
 30
0.0
 10
15.8095624133
 20
11.7701522221
 30
0.0
 10
15.8301514216
 20
11.7393284035
 30
0.0
 10
15.8515413672
 20
11.7122542286
 30
0.0
 10
15.8736432233
 20
11.6890617081
 30
0.0
 10
15.8963647622
 20
11.6698621602
 30
0.0
 10
15.919615198
 20
11.6547673361
 30
0.0
 10
15.9396162047
 20
11.6455719905
 30
0.0
 10
15.9556523942
 20
11.6404841378
 30
0.0
 10
15.9675785048
 20
11.6377867528
 30
0.0
 10
15.979536082
 20
11.6361657883
 30
0.0
 10
15.9875305896
 20
11.6358049637
 30
0.0
 10
15.99151193
 20
11.6358051215
 30
0.0
  0
SPLINE
  5
327
100
AcDbEntity
  8
0
100
AcDbSpline
 62
7
  6
CONTINUOUS
 70
0
 71
3
 72
21
 73
17
 74
0
 42
0.0000001
 43
0.0000001
 44
0.0000000001
 40
0.0
 40
0.0
 40
0.0
 40
0.0
 40
0.0588157293
 40
0.1214912969
 40
0.1873055816
 40
0.2555593077
 40
0.3255583567
 40
0.3965613502
 40
0.538377476
 40
0.6748267733
 40
0.7392284524
 40
0.8001746784
 40
0.85711478
 40
0.9096097074
 40
0.9573116463
 40
1.0
 40
1.0
 40
1.0
 40
1.0
 10
14.5589442836
 20
12.1708563238
 30
0.0
 10
14.5599480506
 20
12.1738275306
 30
0.0
 10
14.5617997776
 20
12.1800410996
 30
0.0
 10
14.5640755248
 20
12.1897709453
 30
0.0
 10
14.5659074088
 20
12.2001054821
 30
0.0
 10
14.5672719714
 20
12.2109050084
 30
0.0
 10
14.568151897
 20
12.2220322976
 30
0.0
 10
14.5686631904
 20
12.2371082718
 30
0.0
 10
14.5680683986
 20
12.2557476427
 30
0.0
 10
14.5658448656
 20
12.2739145373
 30
0.0
 10
14.5630728596
 20
12.2876023558
 30
0.0
 10
14.5606040344
 20
12.2970097909
 30
0.0
 10
14.5577376329
 20
12.3056381594
 30
0.0
 10
14.5545092322
 20
12.3133805067
 30
0.0
 10
14.5509594198
 20
12.3201338317
 30
0.0
 10
14.5482630431
 20
12.3241466035
 30
0.0
 10
14.5468590604
 20
12.3259382703
 30
0.0
  0
SPLINE
  5
328
100
AcDbEntity
  8
0
100
AcDbSpline
 62
7
  6
CONTINUOUS
 70
0
 71
3
 72
21
 73
17
 74
0
 42
0.0000001
 43
0.0000001
 44
0.0000000001
 40
0.0
 40
0.0
 40
0.0
 40
0.0
 40
0.0681021371
 40
0.1389476362
 40
0.2116724932
 40
0.2854853135
 40
0.4333283085
 40
0.5763163738
 40
0.6441359411
 40
0.7085821607
 40
0.7690700022
 40
0.8250921772
 40
0.8762768669
 40
0.9224424621
 40
0.96359028
 40
1.0
 40
1.0
 40
1.0
 40
1.0
 10
14.5991840514
 20
11.9003296748
 30
0.0
 10
14.5998945631
 20
11.9036855213
 30
0.0
 10
14.6011541164
 20
11.9105736759
 30
0.0
 10
14.6025570648
 20
11.9211464311
 30
0.0
 10
14.6034922106
 20
11.9320598115
 30
0.0
 10
14.6040993139
 20
11.946879054
 30
0.0
 10
14.6036571672
 20
11.9652644889
 30
0.0
 10
14.6016391834
 20
11.9832449723
 30
0.0
 10
14.5990600449
 20
11.9968729661
 30
0.0
 10
14.5967350703
 20
12.0063049097
 30
0.0
 10
14.5940180791
 20
12.0150117187
 30
0.0
 10
14.5909430826
 20
12.0228874452
 30
0.0
 10
14.5875446138
 20
12.029836296
 30
0.0
 10
14.583863257
 20
12.0357795701
 30
0.0
 10
14.5799356368
 20
12.040640727
 30
0.0
 10
14.5770154628
 20
12.0432739949
 30
0.0
 10
14.5755299878
 20
12.0443494639
 30
0.0
  0
SPLINE
  5
329
100
AcDbEntity
  8
0
100
AcDbSpline
 62
7
  6
CONTINUOUS
 70
0
 71
3
 72
16
 73
12
 74
0
 42
0.0000001
 43
0.0000001
 44
0.0000000001
 40
0.0
 40
0.0
 40
0.0
 40
0.0
 40
0.1359892037
 40
0.2744496419
 40
0.4122205231
 40
0.5465661048
 40
0.6748154863
 40
0.794443781
 40
0.9033528789
 40
0.9532823016
 40
1.0
 40
1.0
 40
1.0
 40
1.0
 10
14.6611235114
 20
11.6583307999
 30
0.0
 10
14.6616954836
 20
11.6634120178
 30
0.0
 10
14.6625110175
 20
11.6737073834
 30
0.0
 10
14.6627938679
 20
11.6892135039
 30
0.0
 10
14.6621391836
 20
11.7046475171
 30
0.0
 10
14.6605659083
 20
11.7196293132
 30
0.0
 10
14.6581172141
 20
11.7338034419
 30
0.0
 10
14.6548474495
 20
11.7468279191
 30
0.0
 10
14.6514171789
 20
11.7567411158
 30
0.0
 10
14.6482835791
 20
11.7638105903
 30
0.0
 10
14.6466064135
 20
11.7670381314
 30
0.0
 10
14.6457393843
 20
11.7685658719
 30
0.0
  0
SPLINE
  5
32A
100
AcDbEntity
  8
0
100
AcDbSpline
 62
7
  6
CONTINUOUS
 70
0
 71
3
 72
12
 73
8
 74
0
 42
0.0000001
 43
0.0000001
 44
0.0000000001
 40
0.0
 40
0.0
 40
0.0
 40
0.0
 40
0.2648200927
 40
0.5248177492
 40
0.7720479512
 40
0.8888232778
 40
1.0
 40
1.0
 40
1.0
 40
1.0
 10
14.7418682061
 20
11.4561684104
 30
0.0
 10
14.7420247829
 20
11.4623649828
 30
0.0
 10
14.7418895301
 20
11.4746612947
 30
0.0
 10
14.7403834306
 20
11.4926844718
 30
0.0
 10
14.7380396912
 20
11.5071204991
 30
0.0
 10
14.7355165916
 20
11.5179563518
 30
0.0
 10
14.7340545718
 20
11.5230907371
 30
0.0
 10
14.7332722653
 20
11.5255726371
 30
0.0
  0
SPLINE
  5
32B
100
AcDbEntity
  8
0
100
AcDbSpline
 62
7
  6
CONTINUOUS
 70
0
 71
3
 72
9
 73
5
 74
0
 42
0.0000001
 43
0.0000001
 44
0.0000000001
 40
0.0
 40
0.0
 40
0.0
 40
0.0
 40
0.5071560049
 40
1.0
 40
1.0
 40
1.0
 40
1.0
 10
14.8376449013
 20
11.3032896418
 30
0.0
 10
14.8373982747
 20
11.3074296457
 30
0.0
 10
14.836707029
 20
11.3155819662
 30
0.0
 10
14.8355918259
 20
11.3236878896
 30
0.0
 10
14.8349267854
 20
11.3276629465
 30
0.0
  0
SPLINE
  5
32C
100
AcDbEntity
  8
AXIS
100
AcDbSpline
 62
7
  6
CONTINUOUS
 70
0
 71
3
 72
15
 73
11
 74
0
 42
0.0000001
 43
0.0000001
 44
0.0000000001
 40
0.0
 40
0.0
 40
0.0
 40
0.0
 40
0.0987247861
 40
0.204857194
 40
0.3186356901
 40
0.4401141734
 40
0.5692184026
 40
0.7057787972
 40
0.8495274864
 40
1.0
 40
1.0
 40
1.0
 40
1.0
 10
15.8724385875
 20
11.6922519558
 30
0.0
 10
15.8798613797
 20
11.6994514531
 30
0.0
 10
15.8944832288
 20
11.7152081078
 30
0.0
 10
15.9149821192
 20
11.7415885688
 30
0.0
 10
15.9347337657
 20
11.7714333707
 30
0.0
 10
15.9536558252
 20
11.8046043844
 30
0.0
 10
15.9716645714
 20
11.8409594469
 30
0.0
 10
15.9886841401
 20
11.8803395677
 30
0.0
 10
16.0046323303
 20
11.9225637333
 30
0.0
 10
16.0142943302
 20
11.9518379446
 30
0.0
 10
16.0189477049
 20
11.9668962707
 30
0.0
  0
SPLINE
  5
32D
100
AcDbEntity
  8
AXIS
100
AcDbSpline
 62
7
  6
CONTINUOUS
 70
0
 71
3
 72
23
 73
19
 74
0
 42
0.0000001
 43
0.0000001
 44
0.0000000001
 40
0.0
 40
0.0
 40
0.0
 40
0.0
 40
0.0426286551
 40
0.0859997244
 40
0.1308110658
 40
0.177676917
 40
0.227113407
 40
0.2795291652
 40
0.3352328103
 40
0.3944460797
 40
0.4573096935
 40
0.5239040678
 40
0.5942445365
 40
0.6683047511
 40
0.7460248293
 40
0.8273176821
 40
0.912044838
 40
1.0
 40
1.0
 40
1.0
 40
1.0
 10
15.99151193
 20
11.6358051215
 30
0.0
 10
15.9979141091
 20
11.6358053751
 30
0.0
 10
16.0108486477
 20
11.6367483376
 30
0.0
 10
16.0300989592
 20
11.6409645406
 30
0.0
 10
16.0491972171
 20
11.6479646197
 30
0.0
 10
16.0680757472
 20
11.6577042929
 30
0.0
 10
16.0866777985
 20
11.6701432016
 30
0.0
 10
16.1049520725
 20
11.685230914
 30
0.0
 10
16.1228488829
 20
11.7029155003
 30
0.0
 10
16.1403164281
 20
11.7231411783
 30
0.0
 10
16.1573077182
 20
11.7458426899
 30
0.0
 10
16.1737687481
 20
11.7709518431
 30
0.0
 10
16.189653764
 20
11.7983878604
 30
0.0
 10
16.2049117529
 20
11.8280672195
 30
0.0
 10
16.2194975423
 20
11.859899519
 30
0.0
 10
16.2333654226
 20
11.8937873899
 30
0.0
 10
16.2464689542
 20
11.9296177658
 30
0.0
 10
16.254523483
 20
11.9542756059
 30
0.0
 10
16.2584235634
 20
11.9668962707
 30
0.0
  0
SPLINE
  5
32E
100
AcDbEntity
  8
AXIS
100
AcDbSpline
 62
7
  6
CONTINUOUS
 70
0
 71
3
 72
34
 73
30
 74
0
 42
0.0000001
 43
0.0000001
 44
0.0000000001
 40
0.0
 40
0.0
 40
0.0
 40
0.0
 40
0.0189770259
 40
0.0391992437
 40
0.0607066373
 40
0.0835181257
 40
0.1076311054
 40
0.1330282973
 40
0.159677332
 40
0.187534522
 40
0.216546029
 40
0.246648469
 40
0.277771873
 40
0.3098380918
 40
0.3427646389
 40
0.3764624764
 40
0.410839346
 40
0.4457984386
 40
0.5170575424
 40
0.5894209275
 40
0.6620417226
 40
0.7340675113
 40
0.8046590492
 40
0.8391645953
 40
0.8730094148
 40
0.9061015311
 40
0.9383566166
 40
0.9696877634
 40
1.0
 40
1.0
 40
1.0
 40
1.0
 10
15.8714586301
 20
13.330303634
 30
0.0
 10
15.8779228652
 20
13.32409195
 30
0.0
 10
15.8906887458
 20
13.3106409942
 30
0.0
 10
15.9087513577
 20
13.288334524
 30
0.0
 10
15.9262685158
 20
13.2633517256
 30
0.0
 10
15.9431769937
 20
13.2357769451
 30
0.0
 10
15.9594253742
 20
13.2057048129
 30
0.0
 10
15.9749558241
 20
13.173236216
 30
0.0
 10
15.9897177031
 20
13.1384826175
 30
0.0
 10
16.0036595996
 20
13.1015624573
 30
0.0
 10
16.016733314
 20
13.0626023672
 30
0.0
 10
16.0288950514
 20
13.0217364093
 30
0.0
 10
16.0401005444
 20
12.9791048928
 30
0.0
 10
16.0503137979
 20
12.9348551412
 30
0.0
 10
16.0594962465
 20
12.8891393749
 30
0.0
 10
16.0676191132
 20
12.8421158459
 30
0.0
 10
16.0746515915
 20
12.7939464022
 30
0.0
 10
16.0825940452
 20
12.7279981858
 30
0.0
 10
16.089603173
 20
12.6438902868
 30
0.0
 10
16.0933457805
 20
12.5417677852
 30
0.0
 10
16.0924188715
 20
12.4392172171
 30
0.0
 10
16.0868358762
 20
12.3376539123
 30
0.0
 10
16.0783052629
 20
12.2543782563
 30
0.0
 10
16.0691643096
 20
12.189373745
 30
0.0
 10
16.0612658738
 20
12.1421004552
 30
0.0
 10
16.052299618
 20
12.0961006364
 30
0.0
 10
16.0422964669
 20
12.0515306446
 30
0.0
 10
16.0312913359
 20
12.008551788
 30
0.0
 10
16.0231756225
 20
11.9805778169
 30
0.0
 10
16.0189477049
 20
11.9668962707
 30
0.0
  0
SPLINE
  5
32F
100
AcDbEntity
  8
AXIS
100
AcDbSpline
 62
7
  6
CONTINUOUS
 70
0
 71
3
 72
41
 73
37
 74
0
 42
0.0000001
 43
0.0000001
 44
0.0000000001
 40
0.0
 40
0.0
 40
0.0
 40
0.0
 40
0.0076949155
 40
0.0154423597
 40
0.0232934259
 40
0.031296776
 40
0.0479255015
 40
0.0656530913
 40
0.0847181463
 40
0.1052879682
 40
0.1274711044
 40
0.1513242746
 40
0.176864979
 40
0.2040763576
 40
0.2329153397
 40
0.2633159478
 40
0.2951935436
 40
0.3284479317
 40
0.3629649067
 40
0.3986196497
 40
0.4352767197
 40
0.4727935655
 40
0.5110199715
 40
0.5498012371
 40
0.5889778261
 40
0.6283879143
 40
0.6678676078
 40
0.7072527585
 40
0.7463795539
 40
0.7850866019
 40
0.8232154897
 40
0.8606111649
 40
0.8971230338
 40
0.9326142104
 40
0.9669542169
 40
1.0
 40
1.0
 40
1.0
 40
1.0
 10
15.9915119301
 20
13.3858048644
 30
0.0
 10
15.9954932705
 20
13.3858050221
 30
0.0
 10
16.0034877782
 20
13.3854441975
 30
0.0
 10
16.0154453554
 20
13.383823233
 30
0.0
 10
16.0273714659
 20
13.3811258481
 30
0.0
 10
16.0434076554
 20
13.3760379953
 30
0.0
 10
16.0634086622
 20
13.3668426497
 30
0.0
 10
16.086659098
 20
13.3517478256
 30
0.0
 10
16.1093806369
 20
13.3325482777
 30
0.0
 10
16.131482493
 20
13.3093557572
 30
0.0
 10
16.1528724386
 20
13.2822815823
 30
0.0
 10
16.1734614468
 20
13.2514577637
 30
0.0
 10
16.1931540898
 20
13.2170286426
 30
0.0
 10
16.2118607808
 20
13.1791590403
 30
0.0
 10
16.2294915083
 20
13.1380297218
 30
0.0
 10
16.2459616318
 20
13.0938388222
 30
0.0
 10
16.2611916996
 20
13.0468002167
 30
0.0
 10
16.2751060094
 20
12.9971419339
 30
0.0
 10
16.287638313
 20
12.9451059674
 30
0.0
 10
16.2987245777
 20
12.8909456321
 30
0.0
 10
16.3083131275
 20
12.8349256566
 30
0.0
 10
16.3163536725
 20
12.7773194869
 30
0.0
 10
16.3228097661
 20
12.7184090188
 30
0.0
 10
16.3276465261
 20
12.6584823083
 30
0.0
 10
16.3308429632
 20
12.5978327049
 30
0.0
 10
16.3323808489
 20
12.53675705
 30
0.0
 10
16.3322545902
 20
12.475554304
 30
0.0
 10
16.3304633505
 20
12.4145242222
 30
0.0
 10
16.3270169146
 20
12.3539654747
 30
0.0
 10
16.3219319483
 20
12.2941742964
 30
0.0
 10
16.3152328396
 20
12.2354434389
 30
0.0
 10
16.3069541632
 20
12.1780611278
 30
0.0
 10
16.2971353977
 20
12.1223068583
 30
0.0
 10
16.2858250649
 20
12.0684492661
 30
0.0
 10
16.2730771395
 20
12.0167588806
 30
0.0
 10
16.2634716587
 20
11.9832319129
 30
0.0
 10
16.2584235634
 20
11.9668962707
 30
0.0
  0
SPLINE
  5
330
100
AcDbEntity
  8
AXIS
100
AcDbSpline
 62
7
  6
CONTINUOUS
 70
0
 71
3
 72
15
 73
11
 74
0
 42
0.0000001
 43
0.0000001
 44
0.0000000001
 40
0.0
 40
0.0
 40
0.0
 40
0.0
 40
0.1017303779
 40
0.2090871975
 40
0.322781313
 40
0.4433469097
 40
0.5711692944
 40
0.706506687
 40
0.8494704478
 40
1.0
 40
1.0
 40
1.0
 40
1.0
 10
15.8088709438
 20
13.2485058675
 30
0.0
 10
15.8141735253
 20
13.2458119213
 30
0.0
 10
15.8247538084
 20
13.239631133
 30
0.0
 10
15.8399991645
 20
13.2284612122
 30
0.0
 10
15.8549734378
 20
13.2152058674
 30
0.0
 10
15.8696339542
 20
13.1999059323
 30
0.0
 10
15.8839441149
 20
13.1826050708
 30
0.0
 10
15.8978657095
 20
13.1633520155
 30
0.0
 10
15.9113573162
 20
13.1422056071
 30
0.0
 10
15.9198241062
 20
13.1272714245
 30
0.0
 10
15.9239867415
 20
13.1195173983
 30
0.0
  0
SPLINE
  5
331
100
AcDbEntity
  8
AXIS
100
AcDbSpline
 62
7
  6
CONTINUOUS
 70
0
 71
3
 72
23
 73
19
 74
0
 42
0.0000001
 43
0.0000001
 44
0.0000000001
 40
0.0
 40
0.0
 40
0.0
 40
0.0
 40
0.0861442026
 40
0.1693361414
 40
0.2494030608
 40
0.3262327456
 40
0.3997420385
 40
0.4698675498
 40
0.5365699105
 40
0.5998505172
 40
0.6597498629
 40
0.7163584326
 40
0.7698201386
 40
0.8203460814
 40
0.8682196938
 40
0.9138069386
 40
0.9575571176
 40
1.0
 40
1.0
 40
1.0
 40
1.0
 10
15.6101333363
 20
13.2879728557
 30
0.0
 10
15.6153466998
 20
13.304843306
 30
0.0
 10
15.6260920373
 20
13.3378552938
 30
0.0
 10
15.6434870538
 20
13.385936663
 30
0.0
 10
15.6618423396
 20
13.4316099648
 30
0.0
 10
15.6811033036
 20
13.4747452534
 30
0.0
 10
15.7012199359
 20
13.5152266046
 30
0.0
 10
15.722135662
 20
13.5529461885
 30
0.0
 10
15.743796962
 20
13.5877997787
 30
0.0
 10
15.7661436307
 20
13.619693645
 30
0.0
 10
15.7891193489
 20
13.6485403018
 30
0.0
 10
15.812663073
 20
13.6742627744
 30
0.0
 10
15.8367175355
 20
13.6967885305
 30
0.0
 10
15.8612219939
 20
13.716054729
 30
0.0
 10
15.8861173794
 20
13.7320012573
 30
0.0
 10
15.9113424246
 20
13.7445757201
 30
0.0
 10
15.9368246922
 20
13.753727167
 30
0.0
 10
15.9541319843
 20
13.757560591
 30
0.0
 10
15.9627329167
 20
13.7588686463
 30
0.0
  0
SPLINE
  5
332
100
AcDbEntity
  8
AXIS
100
AcDbSpline
 62
7
  6
CONTINUOUS
 70
0
 71
3
 72
35
 73
31
 74
0
 42
0.0000001
 43
0.0000001
 44
0.0000000001
 40
0.0
 40
0.0
 40
0.0
 40
0.0
 40
0.0312994392
 40
0.0637688345
 40
0.0972894566
 40
0.1317487969
 40
0.2030456999
 40
0.2767307983
 40
0.3141544441
 40
0.3517900287
 40
0.3895064006
 40
0.4271712378
 40
0.5018127066
 40
0.5746827382
 40
0.6101444483
 40
0.6447954001
 40
0.6785236183
 40
0.7112227824
 40
0.7427931786
 40
0.7731462342
 40
0.8022002708
 40
0.8298882276
 40
0.8561554642
 40
0.8809625851
 40
0.904292298
 40
0.9261464717
 40
0.9465582617
 40
0.9655927058
 40
0.9833549981
 40
1.0
 40
1.0
 40
1.0
 40
1.0
 10
15.9793296972
 20
12.9849651664
 30
0.0
 10
15.9833637227
 20
12.9722134688
 30
0.0
 10
15.9910823283
 20
12.9460729745
 30
0.0
 10
16.0014619943
 20
12.9058092865
 30
0.0
 10
16.0108163864
 20
12.8639102558
 30
0.0
 10
16.0219908489
 20
12.8054463433
 30
0.0
 10
16.0330531548
 20
12.7295274779
 30
0.0
 10
16.040150775
 20
12.6518704957
 30
0.0
 10
16.0435177505
 20
12.5883941786
 30
0.0
 10
16.044856478
 20
12.5402173359
 30
0.0
 10
16.0449870344
 20
12.491919069
 30
0.0
 10
16.043558457
 20
12.4278232203
 30
0.0
 10
16.0388215428
 20
12.3488014539
 30
0.0
 10
16.0301047818
 20
12.2710619138
 30
0.0
 10
16.0207642632
 20
12.21067494
 30
0.0
 10
16.0127140324
 20
12.1670322277
 30
0.0
 10
16.003591231
 20
12.1248077409
 30
0.0
 10
15.9934344887
 20
12.0841747248
 30
0.0
 10
15.9822822738
 20
12.0453010387
 30
0.0
 10
15.970185635
 20
12.008345234
 30
0.0
 10
15.9571897264
 20
11.9734597191
 30
0.0
 10
15.9433504787
 20
11.9407865002
 30
0.0
 10
15.9287248393
 20
11.9104581094
 30
0.0
 10
15.9133680197
 20
11.8825992424
 30
0.0
 10
15.8973468738
 20
11.8573195534
 30
0.0
 10
15.8807177439
 20
11.8347235151
 30
0.0
 10
15.8635475903
 20
11.8149003721
 30
0.0
 10
15.8458966073
 20
11.7979298965
 30
0.0
 10
15.8278287284
 20
11.7838912752
 30
0.0
 10
15.8151772195
 20
11.7763059993
 30
0.0
 10
15.8088353732
 20
11.7730857852
 30
0.0
  0
SPLINE
  5
333
100
AcDbEntity
  8
AXIS
100
AcDbSpline
 62
7
  6
CONTINUOUS
 70
0
 71
3
 72
26
 73
22
 74
0
 42
0.0000001
 43
0.0000001
 44
0.0000000001
 40
0.0
 40
0.0
 40
0.0
 40
0.0
 40
0.0715555226
 40
0.1467719277
 40
0.2244347435
 40
0.3034286886
 40
0.3826177299
 40
0.4608109224
 40
0.5368523602
 40
0.6096474536
 40
0.6781982045
 40
0.741622865
 40
0.7992326364
 40
0.8505622523
 40
0.8738412068
 40
0.8955492076
 40
0.9344957841
 40
0.9520743203
 40
0.9686503086
 40
0.9845109152
 40
1.0
 40
1.0
 40
1.0
 40
1.0
 10
15.9793296972
 20
12.9849651664
 30
0.0
 10
15.9802565678
 20
12.9888428022
 30
0.0
 10
15.9818830271
 20
12.9968637654
 30
0.0
 10
15.9836408791
 20
13.0092507709
 30
0.0
 10
15.9847479391
 20
13.0221289281
 30
0.0
 10
15.9851882951
 20
13.0352680044
 30
0.0
 10
15.9849529109
 20
13.0484419333
 30
0.0
 10
15.9840475334
 20
13.0614221232
 30
0.0
 10
15.9824865015
 20
13.0739814853
 30
0.0
 10
15.9802983395
 20
13.0859019478
 30
0.0
 10
15.9775226696
 20
13.0969774178
 30
0.0
 10
15.9742062917
 20
13.1070184535
 30
0.0
 10
15.9704094641
 20
13.1158544049
 30
0.0
 10
15.9667836804
 20
13.1222907911
 30
0.0
 10
15.9636631989
 20
13.1266638882
 30
0.0
 10
15.9606508554
 20
13.1302434368
 30
0.0
 10
15.9573976621
 20
13.1332050732
 30
0.0
 10
15.9539160047
 20
13.1353393734
 30
0.0
 10
15.9513504295
 20
13.1364540724
 30
0.0
 10
15.9487544684
 20
13.1371258256
 30
0.0
 10
15.9470042991
 20
13.1372762089
 30
0.0
 10
15.9461412909
 20
13.1372762851
 30
0.0
  0
SPLINE
  5
334
100
AcDbEntity
  8
AXIS
100
AcDbSpline
 62
7
  6
CONTINUOUS
 70
0
 71
3
 72
11
 73
7
 74
0
 42
0.0000001
 43
0.0000001
 44
0.0000000001
 40
0.0
 40
0.0
 40
0.0
 40
0.0
 40
0.23993784
 40
0.4869457281
 40
0.7404666165
 40
1.0
 40
1.0
 40
1.0
 40
1.0
 10
15.6101333363
 20
13.2879728557
 30
0.0
 10
15.6048955073
 20
13.2710232349
 30
0.0
 10
15.5947823469
 20
13.2364629458
 30
0.0
 10
15.5808717646
 20
13.1835046006
 30
0.0
 10
15.5680324612
 20
13.1287874089
 30
0.0
 10
15.5602949728
 20
13.091646258
 30
0.0
 10
15.5566047151
 20
13.0728151057
 30
0.0
  0
SPLINE
  5
335
100
AcDbEntity
  8
AXIS
100
AcDbSpline
 62
7
  6
CONTINUOUS
 70
0
 71
3
 72
18
 73
14
 74
0
 42
0.0000001
 43
0.0000001
 44
0.0000000001
 40
0.0
 40
0.0
 40
0.0
 40
0.0
 40
0.0593747284
 40
0.1200053169
 40
0.1817219741
 40
0.244350226
 40
0.3077119452
 40
0.3716240576
 40
0.5003472884
 40
0.6290277802
 40
0.7561654618
 40
0.8802915904
 40
1.0
 40
1.0
 40
1.0
 40
1.0
 10
15.5566047151
 20
13.0728151057
 30
0.0
 10
15.5522732721
 20
13.0507120254
 30
0.0
 10
15.5441414266
 20
13.0059141716
 30
0.0
 10
15.5336163887
 20
12.9377798293
 30
0.0
 10
15.5246642501
 20
12.8681762874
 30
0.0
 10
15.5173139923
 20
12.7973442899
 30
0.0
 10
15.5115925782
 20
12.7255264576
 30
0.0
 10
15.5061484271
 20
12.6285608231
 30
0.0
 10
15.5035338411
 20
12.5066527818
 30
0.0
 10
15.5070412247
 20
12.3607721539
 30
0.0
 10
15.5171391417
 20
12.2169424195
 30
0.0
 10
15.5336853956
 20
12.0771392943
 30
0.0
 10
15.549200408
 20
11.98590007
 30
0.0
 10
15.558073122
 20
11.9413645637
 30
0.0
  0
SPLINE
  5
336
100
AcDbEntity
  8
AXIS
100
AcDbSpline
 62
7
  6
CONTINUOUS
 70
0
 71
3
 72
23
 73
19
 74
0
 42
0.0000001
 43
0.0000001
 44
0.0000000001
 40
0.0
 40
0.0
 40
0.0
 40
0.0
 40
0.0863878557
 40
0.1699237977
 40
0.2504374803
 40
0.3277793653
 40
0.4018218809
 40
0.472465089
 40
0.5396379365
 40
0.6033066411
 40
0.6634768565
 40
0.7202054902
 40
0.7736048462
 40
0.8238579391
 40
0.8712245232
 40
0.9160565265
 40
0.9588003264
 40
1.0
 40
1.0
 40
1.0
 40
1.0
 10
15.5900499806
 20
11.8034765136
 30
0.0
 10
15.5951027911
 20
11.784564724
 30
0.0
 10
15.6055890291
 20
11.7475086537
 30
0.0
 10
15.6227711978
 20
11.6934139136
 30
0.0
 10
15.6411014866
 20
11.6418661354
 30
0.0
 10
15.6605220768
 20
11.5930255807
 30
0.0
 10
15.6809736823
 20
11.5470433799
 30
0.0
 10
15.7023921198
 20
11.5040610803
 30
0.0
 10
15.7247132425
 20
11.4642114065
 30
0.0
 10
15.7478677563
 20
11.4276157969
 30
0.0
 10
15.7717884959
 20
11.3943872069
 30
0.0
 10
15.7964032202
 20
11.364625935
 30
0.0
 10
15.8216439656
 20
11.3384255065
 30
0.0
 10
15.847438114
 20
11.3158663146
 30
0.0
 10
15.873717359
 20
11.297026247
 30
0.0
 10
15.9004094748
 20
11.281970626
 30
0.0
 10
15.927432714
 20
11.2707685882
 30
0.0
 10
15.9458753335
 20
11.2658357556
 30
0.0
 10
15.9550420341
 20
11.2640675216
 30
0.0
  0
ENDSEC
  0
SECTION
  2
OBJECTS
  0
DICTIONARY
  5
C
100
AcDbDictionary
280
0
281
1
  3
ACAD_GROUP
350
D
  3
ACAD_MLINESTYLE
350
17
  3
ACAD_LAYOUT
350
1A
  3
ACAD_PLOTSETTINGS
350
19
  3
ACAD_PLOTSTYLENAME
350
E
  0
DICTIONARY
  5
D
102
{ACAD_REACTORS
330
C
102
}
100
AcDbDictionary
280
0
281
1
  0
ACDBDICTIONARYWDFLT
  5
E
102
{ACAD_REACTORS
330
C
102
}
100
AcDbDictionary
281
1
  3
Normal
350
F
100
AcDbDictionaryWithDefault
340
F
  0
DICTIONARY
  5
17
102
{ACAD_REACTORS
330
C
102
}
100
AcDbDictionary
280
0
281
1
  3
Standard
350
18
  0
DICTIONARY
  5
19
102
{ACAD_REACTORS
330
C
102
}
100
AcDbDictionary
281
1
  0
DICTIONARY
  5
1A
102
{ACAD_REACTORS
330
C
102
}
100
AcDbDictionary
281
1
  3
Model
350
337
  3
Layout1
350
338
  0
ACDBPLACEHOLDER
  5
F
102
{ACAD_REACTORS
330
E
102
}
  0
MLINESTYLE
  5
18
102
{ACAD_REACTORS
330
17
102
}
100
AcDbMlineStyle
  2
STANDARD
 70
0
  3

 62
256
 51
90.0
 52
90.0
 71
2
 49
0.5
 62
256
  6
BYLAYER
 49
-0.5
 62
256
  6
BYLAYER
  0
LAYOUT
  5
337
102
{ACAD_REACTORS
330
1A
102
}
100
AcDbPlotSettings
  1

  2
none_device
  4
ANSI_C_(22.00_x_17.00_Inches)
  6

 40
0.0
 41
0.0
 42
0.0
 43
0.0
 44
558.8
 45
431.8
 46
0.0
 47
0.0
 48
0.0
 49
0.0
140
0.0
141
0.0
142
1.0
143
1.0
 70
1024
 72
0
 73
0
 74
0
  7

 75
0
147
1.0
148
0.0
149
0.0
100
AcDbLayout
  1
Model
 70
0
 71
0
 10
0.0
 20
0.0
 11
22.0
 21
17.0
 12
0.0
 22
0.0
 32
0.0
 14
0.0
 24
0.0
 34
0.0
 15
0.0
 25
0.0
 35
0.0
146
0.0
 13
0.0
 23
0.0
 33
0.0
 16
1.0
 26
0.0
 36
0.0
 17
0.0
 27
1.0
 37
0.0
 76
0
330
224
345
0
346
0
  0
LAYOUT
  5
338
102
{ACAD_REACTORS
330
1A
102
}
100
AcDbPlotSettings
  1

  2
none_device
  4
ANSI_C_(22.00_x_17.00_Inches)
  6

 40
0.0
 41
0.0
 42
0.0
 43
0.0
 44
558.8
 45
431.8
 46
0.0
 47
0.0
 48
0.0
 49
0.0
140
0.0
141
0.0
142
1.0
143
1.0
 70
0
 72
0
 73
0
 74
0
  7

 75
0
147
1.0
148
0.0
149
0.0
100
AcDbLayout
  1
Layout1
 70
0
 71
1
 10
0.0
 20
0.0
 11
22.0
 21
17.0
 12
0.0
 22
0.0
 32
0.0
 14
0.0
 24
0.0
 34
0.0
 15
0.0
 25
0.0
 35
0.0
146
0.0
 13
0.0
 23
0.0
 33
0.0
 16
1.0
 26
0.0
 36
0.0
 17
0.0
 27
1.0
 37
0.0
 76
0
330
225
345
0
346
0
  0
ENDSEC
  0
EOF