999
DXF file: _cgs_temp_output.dxf
999
Pro/ENGINEER 2016360 by Parametric Technology Corporation
  0
SECTION
  2
HEADER
  9
$ACADVER
  1
AC1021
  9
$DWGCODEPAGE
  3
ANSI_1252
  9
$EXTMAX
 10
22.0
 20
17.0
 30
0.0
  9
$EXTMIN
 10
0.0
 20
0.0
 30
0.0
  9
$LIMMIN
 10
0.0
 20
0.0
  9
$LIMMAX
 10
22.0
 20
17.0
  9
$VIEWCTR
 10
11.0
 20
8.5
  9
$VIEWSIZE
 40
17.0
  9
$CLAYER
  8
0
  9
$LTSCALE
 40
1.21
  9
$CELTYPE
  6
BYLAYER
  9
$DIMSCALE
 40
1.0
  9
$DIMASZ
 40
0.1875
  9
$DIMEXO
 40
0.0625
  9
$DIMDLI
 40
0.836
  9
$DIMEXE
 40
0.125
  9
$DIMCEN
 40
0.198
  9
$DIMLFAC
 40
1.0
  9
$DIMBLK
  1
_CLOSED
  9
$DIMALT
 70
0
  9
$DIMALTF
 40
25.4
  9
$DIMTXT
 40
0.15625
  9
$DIMTOL
 70
0
  9
$DIMLIM
 70
0
  9
$DIMTFAC
 40
1.0
  9
$DIMGAP
 40
0.09
  9
$DIMDSEP
 70
46
  9
$AUNITS
 70
0
  9
$PDMODE
 70
3
  9
$PDSIZE
 40
0.3125
  9
$HANDSEED
  5
33B
  9
$TILEMODE
 70
1
  9
$MEASUREMENT
 70
0
  9
$INSUNITS
 70
1
  0
ENDSEC
  0
SECTION
  2
CLASSES
  0
CLASS
  1
ACDBDICTIONARYWDFLT
  2
AcDbDictionaryWithDefault
  3
AutoCAD 2000
 90
0
 91
1
280
0
281
0
  0
CLASS
  1
ACDBPLACEHOLDER
  2
AcDbPlaceHolder
  3
AutoCAD 2000
 90
0
 91
1
280
0
281
0
  0
CLASS
  1
LAYOUT
  2
AcDbLayout
  3
AutoCAD 2000
 90
0
 91
0
280
0
281
0
  0
ENDSEC
  0
SECTION
  2
TABLES
  0
TABLE
  2
VPORT
  5
8
100
AcDbSymbolTable
 70
2
  0
VPORT
  5
1F4
100
AcDbSymbolTableRecord
100
AcDbViewportTableRecord
  2
*ACTIVE
 70
0
 10
0.0
 20
0.0
 11
1.0
 21
1.0
 12
11.0
 22
8.5
 13
0.0
 23
0.0
 14
1.0
 24
1.0
 15
0.0
 25
0.0
 16
0.0
 26
0.0
 36
1.0
 17
0.0
 27
0.0
 37
0.0
 40
17.0
 41
1.2941176471
 42
50.0
 43
0.0
 44
0.0
 50
0.0
 51
0.0
 71
0
 72
100
 73
1
 74
1
 75
0
 76
0
 77
0
 78
0
  0
ENDTAB
  0
TABLE
  2
LTYPE
  5
5
100
AcDbSymbolTable
 70
6
  0
LTYPE
  5
14
100
AcDbSymbolTableRecord
100
AcDbLinetypeTableRecord
  2
BYBLOCK
 70
0
  3

 72
65
 73
0
 40
0.0
  0
LTYPE
  5
15
100
AcDbSymbolTableRecord
100
AcDbLinetypeTableRecord
  2
BYLAYER
 70
0
  3

 72
65
 73
0
 40
0.0
  0
LTYPE
  5
16
100
AcDbSymbolTableRecord
100
AcDbLinetypeTableRecord
  2
CONTINUOUS
 70
64
  3
Solid line
 72
65
 73
0
 40
0.0
  0
LTYPE
  5
1F5
100
AcDbSymbolTableRecord
100
AcDbLinetypeTableRecord
  2
CENTER
 70
64
  3
____ _ ____ _ ____ _ ____ _ ____ _ ____ _ ____
 72
65
 73
4
 40
0.6
 49
0.375
 74
0
 49
-0.075
 74
0
 49
0.075
 74
0
 49
-0.075
 74
0
  0
LTYPE
  5
1F6
100
AcDbSymbolTableRecord
100
AcDbLinetypeTableRecord
  2
HIDDEN
 70
64
  3
- - - - - - - - - - - - - - - - - - - -
 72
65
 73
2
 40
0.2
 49
0.1
 74
0
 49
-0.1
 74
0
  0
LTYPE
  5
1F7
100
AcDbSymbolTableRecord
100
AcDbLinetypeTableRecord
  2
PHANTOM
 70
64
  3
_____ _ _ _____ _ _ _____ _ _ _____
 72
65
 73
6
 40
0.8
 49
0.45
 74
0
 49
-0.05
 74
0
 49
0.1
 74
0
 49
-0.05
 74
0
 49
0.1
 74
0
 49
-0.05
 74
0
  0
LTYPE
  5
1F8
100
AcDbSymbolTableRecord
100
AcDbLinetypeTableRecord
  2
DOT
 70
64
  3
. . . . . . . . . . . . . . . . . . . .
 72
65
 73
2
 40
0.2
 49
0.1
 74
0
 49
-0.1
 74
0
  0
LTYPE
  5
1F9
100
AcDbSymbolTableRecord
100
AcDbLinetypeTableRecord
  2
DASHED
 70
64
  3
- - - - - - - - - - - - - - - - - - - -
 72
65
 73
2
 40
0.2
 49
0.1
 74
0
 49
-0.1
 74
0
  0
ENDTAB
  0
TABLE
  2
LAYER
  5
2
100
AcDbSymbolTable
 70
36
  0
LAYER
  5
10
100
AcDbSymbolTableRecord
100
AcDbLayerTableRecord
  2
0
 70
0
 62
7
  6
CONTINUOUS
370
-3
390
F
  0
LAYER
  5
1FA
100
AcDbSymbolTableRecord
100
AcDbLayerTableRecord
  2
DEFAULT_1
 70
0
 62
7
  6
CENTER
370
-3
390
F
  0
LAYER
  5
1FB
100
AcDbSymbolTableRecord
100
AcDbLayerTableRecord
  2
DEFAULT_2
 70
0
 62
8
  6
HIDDEN
370
-3
390
F
  0
LAYER
  5
1FC
100
AcDbSymbolTableRecord
100
AcDbLayerTableRecord
  2
DEFAULT_3
 70
0
 62
7
  6
PHANTOM
370
-3
390
F
  0
LAYER
  5
1FD
100
AcDbSymbolTableRecord
100
AcDbLayerTableRecord
  2
01_ALL_DTM_PLN
 70
0
 62
7
  6
CONTINUOUS
370
-3
390
F
  0
LAYER
  5
1FE
100
AcDbSymbolTableRecord
100
AcDbLayerTableRecord
  2
01__ASM_ALL_DTM_PLN
 70
0
 62
7
  6
CONTINUOUS
370
-3
390
F
  0
LAYER
  5
1FF
100
AcDbSymbolTableRecord
100
AcDbLayerTableRecord
  2
01__ASM_DEF_DTM_PLN
 70
0
 62
7
  6
CONTINUOUS
370
-3
390
F
  0
LAYER
  5
200
100
AcDbSymbolTableRecord
100
AcDbLayerTableRecord
  2
01___PRT_ALL_DTM_PLN
 70
0
 62
7
  6
CONTINUOUS
370
-3
390
F
  0
LAYER
  5
201
100
AcDbSymbolTableRecord
100
AcDbLayerTableRecord
  2
01___PRT_DEF_DTM_PLN
 70
0
 62
7
  6
CONTINUOUS
370
-3
390
F
  0
LAYER
  5
202
100
AcDbSymbolTableRecord
100
AcDbLayerTableRecord
  2
02_ALL_AXES
 70
0
 62
7
  6
CONTINUOUS
370
-3
390
F
  0
LAYER
  5
203
100
AcDbSymbolTableRecord
100
AcDbLayerTableRecord
  2
02__ASM_ALL_AXES
 70
0
 62
7
  6
CONTINUOUS
370
-3
390
F
  0
LAYER
  5
204
100
AcDbSymbolTableRecord
100
AcDbLayerTableRecord
  2
02___PRT_ALL_AXES
 70
0
 62
7
  6
CONTINUOUS
370
-3
390
F
  0
LAYER
  5
205
100
AcDbSymbolTableRecord
100
AcDbLayerTableRecord
  2
03_ALL_CURVES
 70
0
 62
7
  6
CONTINUOUS
370
-3
390
F
  0
LAYER
  5
206
100
AcDbSymbolTableRecord
100
AcDbLayerTableRecord
  2
03__ASM_ALL_CURVES
 70
0
 62
7
  6
CONTINUOUS
370
-3
390
F
  0
LAYER
  5
207
100
AcDbSymbolTableRecord
100
AcDbLayerTableRecord
  2
03___PRT_ALL_CURVES
 70
0
 62
7
  6
CONTINUOUS
370
-3
390
F
  0
LAYER
  5
208
100
AcDbSymbolTableRecord
100
AcDbLayerTableRecord
  2
04_ALL_DTM_PNT
 70
0
 62
7
  6
CONTINUOUS
370
-3
390
F
  0
LAYER
  5
209
100
AcDbSymbolTableRecord
100
AcDbLayerTableRecord
  2
04__ASM_ALL_DTM_PNT
 70
0
 62
7
  6
CONTINUOUS
370
-3
390
F
  0
LAYER
  5
20A
100
AcDbSymbolTableRecord
100
AcDbLayerTableRecord
  2
04___PRT_ALL_DTM_PNT
 70
0
 62
7
  6
CONTINUOUS
370
-3
390
F
  0
LAYER
  5
20B
100
AcDbSymbolTableRecord
100
AcDbLayerTableRecord
  2
05_ALL_DTM_CSYS
 70
0
 62
7
  6
CONTINUOUS
370
-3
390
F
  0
LAYER
  5
20C
100
AcDbSymbolTableRecord
100
AcDbLayerTableRecord
  2
05__ASM_ALL_DTM_CSYS
 70
0
 62
7
  6
CONTINUOUS
370
-3
390
F
  0
LAYER
  5
20D
100
AcDbSymbolTableRecord
100
AcDbLayerTableRecord
  2
05__ASM_DEF_DTM_CSYS
 70
0
 62
7
  6
CONTINUOUS
370
-3
390
F
  0
LAYER
  5
20E
100
AcDbSymbolTableRecord
100
AcDbLayerTableRecord
  2
05___PRT_ALL_DTM_CSYS
 70
0
 62
7
  6
CONTINUOUS
370
-3
390
F
  0
LAYER
  5
20F
100
AcDbSymbolTableRecord
100
AcDbLayerTableRecord
  2
05___PRT_DEF_DTM_CSYS
 70
0
 62
7
  6
CONTINUOUS
370
-3
390
F
  0
LAYER
  5
210
100
AcDbSymbolTableRecord
100
AcDbLayerTableRecord
  2
06_ALL_SURFS
 70
0
 62
7
  6
CONTINUOUS
370
-3
390
F
  0
LAYER
  5
211
100
AcDbSymbolTableRecord
100
AcDbLayerTableRecord
  2
06__ASM_ALL_SURFS
 70
0
 62
7
  6
CONTINUOUS
370
-3
390
F
  0
LAYER
  5
212
100
AcDbSymbolTableRecord
100
AcDbLayerTableRecord
  2
06___PRT_ALL_SURFS
 70
0
 62
7
  6
CONTINUOUS
370
-3
390
F
  0
LAYER
  5
213
100
AcDbSymbolTableRecord
100
AcDbLayerTableRecord
  2
07__ASM_ALL_SKELETONS
 70
0
 62
7
  6
CONTINUOUS
370
-3
390
F
  0
LAYER
  5
214
100
AcDbSymbolTableRecord
100
AcDbLayerTableRecord
  2
LAYER_AXIS
 70
0
 62
7
  6
CONTINUOUS
370
-3
390
F
  0
LAYER
  5
215
100
AcDbSymbolTableRecord
100
AcDbLayerTableRecord
  2
LAYER_CHAMFER_FEAT
 70
0
 62
7
  6
CONTINUOUS
370
-3
390
F
  0
LAYER
  5
216
100
AcDbSymbolTableRecord
100
AcDbLayerTableRecord
  2
LAYER_CUT_FEAT
 70
0
 62
7
  6
CONTINUOUS
370
-3
390
F
  0
LAYER
  5
217
100
AcDbSymbolTableRecord
100
AcDbLayerTableRecord
  2
LAYER_DATUM
 70
0
 62
7
  6
CONTINUOUS
370
-3
390
F
  0
LAYER
  5
218
100
AcDbSymbolTableRecord
100
AcDbLayerTableRecord
  2
LAYER_DIM
 70
0
 62
7
  6
CONTINUOUS
370
-3
390
F
  0
LAYER
  5
219
100
AcDbSymbolTableRecord
100
AcDbLayerTableRecord
  2
LAYER_FEATURE
 70
0
 62
7
  6
CONTINUOUS
370
-3
390
F
  0
LAYER
  5
21A
100
AcDbSymbolTableRecord
100
AcDbLayerTableRecord
  2
LAYER_GEOM_FEAT
 70
0
 62
7
  6
CONTINUOUS
370
-3
390
F
  0
LAYER
  5
21B
100
AcDbSymbolTableRecord
100
AcDbLayerTableRecord
  2
LAYER_NOGEOM_FEAT
 70
0
 62
7
  6
CONTINUOUS
370
-3
390
F
  0
LAYER
  5
21C
100
AcDbSymbolTableRecord
100
AcDbLayerTableRecord
  2
LAYER_PARAMETER_DIM
 70
0
 62
7
  6
CONTINUOUS
370
-3
390
F
  0
LAYER
  5
21D
100
AcDbSymbolTableRecord
100
AcDbLayerTableRecord
  2
LAYER_PROTRUSION_FEAT
 70
0
 62
7
  6
CONTINUOUS
370
-3
390
F
  0
LAYER
  5
21E
100
AcDbSymbolTableRecord
100
AcDbLayerTableRecord
  2
LAYER_QUILT
 70
0
 62
7
  6
CONTINUOUS
370
-3
390
F
  0
LAYER
  5
21F
100
AcDbSymbolTableRecord
100
AcDbLayerTableRecord
  2
LAYER_ROUND_FEAT
 70
0
 62
7
  6
CONTINUOUS
370
-3
390
F
  0
ENDTAB
  0
TABLE
  2
STYLE
  5
3
100
AcDbSymbolTable
 70
1
  0
STYLE
  5
11
100
AcDbSymbolTableRecord
100
AcDbTextStyleTableRecord
  2
STANDARD
 70
0
 40
0.0
 41
0.8
 50
0.0
 71
0
 42
0.2
  3
txt
  4

  0
STYLE
  5
220
100
AcDbSymbolTableRecord
100
AcDbTextStyleTableRecord
  2
TEXTSTYLE_1
 70
0
 40
0.0
 41
0.8
 50
0.0
 71
0
 42
0.2
  3
gdt
  4

  0
ENDTAB
  0
TABLE
  2
VIEW
  5
6
100
AcDbSymbolTable
 70
0
  0
ENDTAB
  0
TABLE
  2
UCS
  5
7
100
AcDbSymbolTable
 70
0
  0
ENDTAB
  0
TABLE
  2
APPID
  5
9
100
AcDbSymbolTable
 70
1
  0
APPID
  5
221
100
AcDbSymbolTableRecord
100
AcDbRegAppTableRecord
  2
ACAD
 70
0
  0
ENDTAB
  0
TABLE
  2
BLOCK_RECORD
  5
1
100
AcDbSymbolTable
 70
0
  0
BLOCK_RECORD
  5
222
100
AcDbSymbolTableRecord
100
AcDbBlockTableRecord
  2
*Model_Space
  0
BLOCK_RECORD
  5
223
100
AcDbSymbolTableRecord
100
AcDbBlockTableRecord
  2
*Paper_Space
  0
ENDTAB
  0
TABLE
  2
DIMSTYLE
  5
A
100
AcDbSymbolTable
 70
1
100
AcDbDimStyleTable
 71
0
  0
DIMSTYLE
105
224
100
AcDbSymbolTableRecord
100
AcDbDimStyleTableRecord
  2
STANDARD
 70
0
  3

  4

 40
1.0
 41
0.1875
 42
0.0625
 43
0.38
 44
0.125
 45
0.0
 46
0.0
 47
0.0001
 48
0.0001
140
0.15625
141
0.09
142
0.0
143
25.4
144
1.0
145
0.0
146
1.0
147
0.09
 71
0.0
 72
0.0
 73
1
 74
1
 75
0
 76
0
 77
0
 78
4
 79
1
170
0
171
3
172
0
173
0
174
0
175
0
176
0
177
0
178
0
270
2
179
4
271
4
272
4
273
2
274
2
275
0
280
0
281
0
282
0
283
1
284
4
285
0
286
0
287
3
288
0
340
11
278
46
  0
ENDTAB
  0
ENDSEC
  0
SECTION
  2
BLOCKS
  0
BLOCK
  5
20
100
AcDbEntity
  8
0
100
AcDbBlockBegin
  2
*Model_Space
 70
0
 10
0.0
 20
0.0
 30
0.0
  3
*Model_Space
  1

  0
ENDBLK
  5
21
100
AcDbEntity
  8
0
100
AcDbBlockEnd
  0
BLOCK
  5
1C
100
AcDbEntity
  8
0
100
AcDbBlockBegin
  2
*Paper_Space
 70
0
 10
0.0
 20
0.0
 30
0.0
  3
*Paper_Space
  1

  0
ENDBLK
  5
1D
100
AcDbEntity
  8
0
100
AcDbBlockEnd
  0
ENDSEC
  0
SECTION
  2
ENTITIES
  0
MTEXT
  5
225
100
AcDbEntity
  8
0
100
AcDbMText
 62
7
  6
CONTINUOUS
  7
STANDARD
 71
1
 72
1
 10
15.9560215477
 20
0.9479130325
 30
0.0
 11
1.0
 21
0.0
 31
0.0
 44
0.9
  1
SCALE: 1:1.000
 40
0.3
 41
3.36
  0
LINE
  5
226
100
AcDbEntity
  8
0
100
AcDbLine
 62
7
  6
CONTINUOUS
 10
0.0
 20
0.0
 11
0.0
 21
17.0
  0
LINE
  5
227
100
AcDbEntity
  8
0
100
AcDbLine
 62
7
  6
CONTINUOUS
 10
0.0
 20
0.0
 11
22.0
 21
0.0
  0
LINE
  5
228
100
AcDbEntity
  8
0
100
AcDbLine
 62
7
  6
CONTINUOUS
 10
0.0
 20
17.0
 11
22.0
 21
17.0
  0
LINE
  5
229
100
AcDbEntity
  8
0
100
AcDbLine
 62
7
  6
CONTINUOUS
 10
22.0
 20
0.0
 11
22.0
 21
17.0
  0
LINE
  5
22A
100
AcDbEntity
  8
LAYER_FEATURE
100
AcDbLine
 62
7
  6
CONTINUOUS
 10
6.0647672762
 20
6.1136198968
 11
6.0606080267
 21
6.1094606473
  0
LINE
  5
22B
100
AcDbEntity
  8
LAYER_FEATURE
100
AcDbLine
 62
7
  6
CONTINUOUS
 10
6.7238672762
 20
5.4545198968
 11
6.7197080267
 21
5.4503606473
  0
LINE
  5
22C
100
AcDbEntity
  8
LAYER_FEATURE
100
AcDbLine
 62
7
  6
CONTINUOUS
 10
6.1959672762
 20
6.1136198968
 11
6.2001265256
 21
6.1094606473
  0
LINE
  5
22D
100
AcDbEntity
  8
LAYER_FEATURE
100
AcDbLine
 62
7
  6
CONTINUOUS
 10
6.7238672762
 20
5.5857198968
 11
6.7197080267
 21
5.5898791462
  0
LINE
  5
22E
100
AcDbEntity
  8
LAYER_FEATURE
100
AcDbLine
 62
7
  6
CONTINUOUS
 10
6.7238672762
 20
5.5857198968
 11
6.7238672762
 21
5.4545198968
  0
LINE
  5
22F
100
AcDbEntity
  8
LAYER_FEATURE
100
AcDbLine
 62
7
  6
CONTINUOUS
 10
6.0647672762
 20
6.1136198968
 11
6.1959672762
 21
6.1136198968
  0
LINE
  5
230
100
AcDbEntity
  8
LAYER_FEATURE
100
AcDbLine
 62
7
  6
CONTINUOUS
 10
5.0708720839
 20
12.3635477814
 11
5.0708720839
 21
12.4035477814
  0
LINE
  5
231
100
AcDbEntity
  8
LAYER_FEATURE
100
AcDbLine
 62
7
  6
CONTINUOUS
 10
5.0708720839
 20
13.1035477814
 11
5.0708720839
 21
13.1435477814
  0
LINE
  5
232
100
AcDbEntity
  8
02___PRT_ALL_AXES
100
AcDbLine
 62
7
  6
CONTINUOUS
 10
5.1533720839
 20
12.4285477814
 11
5.1533720839
 21
13.0785477814
  0
LINE
  5
233
100
AcDbEntity
  8
LAYER_CUT_FEAT
100
AcDbLine
 62
7
  6
CONTINUOUS
 10
5.1697688074
 20
13.0785477814
 11
5.1697688074
 21
12.4285477814
  0
LINE
  5
234
100
AcDbEntity
  8
LAYER_CUT_FEAT
100
AcDbLine
 62
7
  6
CONTINUOUS
 10
5.2246540338
 20
13.0785477814
 11
5.2246540338
 21
12.4285477814
  0
LINE
  5
235
100
AcDbEntity
  8
LAYER_CUT_FEAT
100
AcDbLine
 62
7
  6
CONTINUOUS
 10
5.3157800679
 20
13.0785477814
 11
5.3157800679
 21
12.4285477814
  0
LINE
  5
236
100
AcDbEntity
  8
LAYER_CUT_FEAT
100
AcDbLine
 62
7
  6
CONTINUOUS
 10
5.439164265
 20
13.0785477814
 11
5.439164265
 21
12.4285477814
  0
LINE
  5
237
100
AcDbEntity
  8
02___PRT_ALL_AXES
100
AcDbLine
 62
7
  6
CONTINUOUS
 10
5.4773720839
 20
12.0565477814
 11
5.4773720839
 21
12.3635477814
  0
LINE
  5
238
100
AcDbEntity
  8
02___PRT_ALL_AXES
100
AcDbLine
 62
7
  6
CONTINUOUS
 10
5.4773720839
 20
12.0565477814
 11
6.6643720839
 21
12.0565477814
  0
LINE
  5
239
100
AcDbEntity
  8
LAYER_CUT_FEAT
100
AcDbLine
 62
7
  6
CONTINUOUS
 10
5.5894141434
 20
13.0785477814
 11
5.5894141434
 21
12.4285477814
  0
LINE
  5
23A
100
AcDbEntity
  8
LAYER_CUT_FEAT
100
AcDbLine
 62
7
  6
CONTINUOUS
 10
6.0472007228
 20
12.1690477814
 11
6.0945434449
 21
12.1690477814
  0
LINE
  5
23B
100
AcDbEntity
  8
LAYER_CUT_FEAT
100
AcDbLine
 62
7
  6
CONTINUOUS
 10
5.7599630625
 20
13.0785477814
 11
5.7599630625
 21
12.4285477814
  0
LINE
  5
23C
100
AcDbEntity
  8
LAYER_CUT_FEAT
100
AcDbLine
 62
7
  6
CONTINUOUS
 10
6.0945434449
 20
12.2510477814
 11
6.0472007228
 21
12.2510477814
  0
LINE
  5
23D
100
AcDbEntity
  8
LAYER_FEATURE
100
AcDbLine
 62
7
  6
CONTINUOUS
 10
5.0708720839
 20
12.3635477814
 11
7.0708720839
 21
12.3635477814
  0
LINE
  5
23E
100
AcDbEntity
  8
LAYER_CUT_FEAT
100
AcDbLine
 62
7
  6
CONTINUOUS
 10
6.0235293618
 20
12.2100477814
 11
6.0472007228
 21
12.1690477814
  0
LINE
  5
23F
100
AcDbEntity
  8
LAYER_FEATURE
100
AcDbLine
 62
7
  6
CONTINUOUS
 10
6.9958720839
 20
13.0785477814
 11
7.0708720839
 21
13.1035477814
  0
LINE
  5
240
100
AcDbEntity
  8
LAYER_FEATURE
100
AcDbLine
 62
7
  6
CONTINUOUS
 10
5.0708720839
 20
12.4035477814
 11
7.0708720839
 21
12.4035477814
  0
LINE
  5
241
100
AcDbEntity
  8
LAYER_FEATURE
100
AcDbLine
 62
7
  6
CONTINUOUS
 10
5.1458721439
 20
12.4285477814
 11
6.9958720238
 21
12.4285477814
  0
LINE
  5
242
100
AcDbEntity
  8
LAYER_CUT_FEAT
100
AcDbLine
 62
7
  6
CONTINUOUS
 10
6.1182148059
 20
12.2100477814
 11
6.0945434449
 21
12.2510477814
  0
LINE
  5
243
100
AcDbEntity
  8
LAYER_CUT_FEAT
100
AcDbLine
 62
7
  6
CONTINUOUS
 10
5.9433572162
 20
13.0785477814
 11
5.9433572162
 21
12.4285477814
  0
LINE
  5
244
100
AcDbEntity
  8
LAYER_FEATURE
100
AcDbLine
 62
7
  6
CONTINUOUS
 10
5.0708720839
 20
12.4035477814
 11
5.1458720839
 21
12.4285477814
  0
LINE
  5
245
100
AcDbEntity
  8
LAYER_CUT_FEAT
100
AcDbLine
 62
7
  6
CONTINUOUS
 10
6.0141933607
 20
13.0785477814
 11
6.0141933607
 21
12.4285477814
  0
LINE
  5
246
100
AcDbEntity
  8
LAYER_CUT_FEAT
100
AcDbLine
 62
7
  6
CONTINUOUS
 10
6.1315813999
 20
13.0785477814
 11
6.1315813999
 21
12.4285477814
  0
LINE
  5
247
100
AcDbEntity
  8
LAYER_CUT_FEAT
100
AcDbLine
 62
7
  6
CONTINUOUS
 10
6.2024001577
 20
13.0785477814
 11
6.2024001577
 21
12.4285477814
  0
LINE
  5
248
100
AcDbEntity
  8
LAYER_CUT_FEAT
100
AcDbLine
 62
7
  6
CONTINUOUS
 10
6.0472007228
 20
12.2510477814
 11
6.0235293618
 21
12.2100477814
  0
LINE
  5
249
100
AcDbEntity
  8
LAYER_FEATURE
100
AcDbLine
 62
7
  6
CONTINUOUS
 10
7.0708720839
 20
12.4035477814
 11
6.9958720839
 21
12.4285477814
  0
LINE
  5
24A
100
AcDbEntity
  8
LAYER_FEATURE
100
AcDbLine
 62
7
  6
CONTINUOUS
 10
5.1458720839
 20
13.0785477814
 11
5.0708720839
 21
13.1035477814
  0
LINE
  5
24B
100
AcDbEntity
  8
LAYER_CUT_FEAT
100
AcDbLine
 62
7
  6
CONTINUOUS
 10
6.0945434449
 20
12.1690477814
 11
6.1182148059
 21
12.2100477814
  0
LINE
  5
24C
100
AcDbEntity
  8
LAYER_FEATURE
100
AcDbLine
 62
7
  6
CONTINUOUS
 10
6.6625366263
 20
12.2774832389
 11
6.6643720839
 21
12.2756477814
  0
LINE
  5
24D
100
AcDbEntity
  8
LAYER_CUT_FEAT
100
AcDbLine
 62
7
  6
CONTINUOUS
 10
6.3856015283
 20
13.0785477814
 11
6.3856015283
 21
12.4285477814
  0
LINE
  5
24E
100
AcDbEntity
  8
LAYER_CUT_FEAT
100
AcDbLine
 62
7
  6
CONTINUOUS
 10
6.5557906935
 20
13.0785477814
 11
6.5557906935
 21
12.4285477814
  0
LINE
  5
24F
100
AcDbEntity
  8
LAYER_FEATURE
100
AcDbLine
 62
7
  6
CONTINUOUS
 10
5.1458721439
 20
13.0785477814
 11
6.9958720238
 21
13.0785477814
  0
LINE
  5
250
100
AcDbEntity
  8
LAYER_FEATURE
100
AcDbLine
 62
7
  6
CONTINUOUS
 10
5.0708720839
 20
13.1035477814
 11
7.0708720839
 21
13.1035477814
  0
LINE
  5
251
100
AcDbEntity
  8
02___PRT_ALL_AXES
100
AcDbLine
 62
7
  6
CONTINUOUS
 10
6.6643720839
 20
12.0565477814
 11
6.6643720839
 21
12.1280477814
  0
LINE
  5
252
100
AcDbEntity
  8
LAYER_FEATURE
100
AcDbLine
 62
7
  6
CONTINUOUS
 10
6.6643720839
 20
12.1444478461
 11
6.6643720839
 21
12.2756477167
  0
LINE
  5
253
100
AcDbEntity
  8
02___PRT_ALL_AXES
100
AcDbLine
 62
7
  6
CONTINUOUS
 10
6.6643720839
 20
12.2920477814
 11
6.6643720839
 21
12.3635477814
  0
LINE
  5
254
100
AcDbEntity
  8
LAYER_FEATURE
100
AcDbLine
 62
7
  6
CONTINUOUS
 10
5.0708720839
 20
13.1435477814
 11
7.0708720839
 21
13.1435477814
  0
LINE
  5
255
100
AcDbEntity
  8
LAYER_CUT_FEAT
100
AcDbLine
 62
7
  6
CONTINUOUS
 10
6.7055295701
 20
13.0785477814
 11
6.7055295701
 21
12.4285477814
  0
LINE
  5
256
100
AcDbEntity
  8
LAYER_CUT_FEAT
100
AcDbLine
 62
7
  6
CONTINUOUS
 10
6.8282738508
 20
13.0785477814
 11
6.8282738508
 21
12.4285477814
  0
LINE
  5
257
100
AcDbEntity
  8
LAYER_FEATURE
100
AcDbLine
 62
7
  6
CONTINUOUS
 10
6.6625366259
 20
12.1426123234
 11
6.6643720839
 21
12.1444477814
  0
LINE
  5
258
100
AcDbEntity
  8
LAYER_CUT_FEAT
100
AcDbLine
 62
7
  6
CONTINUOUS
 10
6.9186590214
 20
13.0785477814
 11
6.9186590214
 21
12.4285477814
  0
LINE
  5
259
100
AcDbEntity
  8
LAYER_CUT_FEAT
100
AcDbLine
 62
7
  6
CONTINUOUS
 10
6.9727348162
 20
13.0785477814
 11
6.9727348162
 21
12.4285477814
  0
LINE
  5
25A
100
AcDbEntity
  8
02___PRT_ALL_AXES
100
AcDbLine
 62
7
  6
CONTINUOUS
 10
6.9883720839
 20
12.4285477814
 11
6.9883720839
 21
13.0785477814
  0
LINE
  5
25B
100
AcDbEntity
  8
LAYER_FEATURE
100
AcDbLine
 62
7
  6
CONTINUOUS
 10
7.0708720839
 20
12.3635477814
 11
7.0708720839
 21
12.4035477814
  0
LINE
  5
25C
100
AcDbEntity
  8
LAYER_FEATURE
100
AcDbLine
 62
7
  6
CONTINUOUS
 10
7.0708720839
 20
13.1035477814
 11
7.0708720839
 21
13.1435477814
  0
LINE
  5
25D
100
AcDbEntity
  8
LAYER_FEATURE
100
AcDbLine
 62
7
  6
CONTINUOUS
 10
16.1038552569
 20
4.4606247044
 11
16.0638552569
 21
4.4606247044
  0
LINE
  5
25E
100
AcDbEntity
  8
LAYER_FEATURE
100
AcDbLine
 62
7
  6
CONTINUOUS
 10
15.3638552569
 20
4.4606247044
 11
15.3238552569
 21
4.4606247044
  0
LINE
  5
25F
100
AcDbEntity
  8
LAYER_CUT_FEAT
100
AcDbLine
 62
7
  6
CONTINUOUS
 10
16.0388552569
 20
4.5461439549
 11
15.3888552569
 21
4.5461439549
  0
LINE
  5
260
100
AcDbEntity
  8
LAYER_CUT_FEAT
100
AcDbLine
 62
7
  6
CONTINUOUS
 10
16.0388552569
 20
4.5810747305
 11
15.3888552569
 21
4.5810747305
  0
LINE
  5
261
100
AcDbEntity
  8
LAYER_CUT_FEAT
100
AcDbLine
 62
7
  6
CONTINUOUS
 10
16.0388552569
 20
4.6537030789
 11
15.3888552569
 21
4.6537030789
  0
LINE
  5
262
100
AcDbEntity
  8
LAYER_FEATURE
100
AcDbLine
 62
7
  6
CONTINUOUS
 10
15.102920784
 20
6.0522902316
 11
15.1047552569
 21
6.0541247044
  0
LINE
  5
263
100
AcDbEntity
  8
LAYER_CUT_FEAT
100
AcDbLine
 62
7
  6
CONTINUOUS
 10
16.0388552569
 20
4.7608547928
 11
15.3888552569
 21
4.7608547928
  0
LINE
  5
264
100
AcDbEntity
  8
02___PRT_ALL_AXES
100
AcDbLine
 62
7
  6
CONTINUOUS
 10
15.0168552569
 20
6.0541247044
 11
15.0168552569
 21
4.8671247044
  0
LINE
  5
265
100
AcDbEntity
  8
02___PRT_ALL_AXES
100
AcDbLine
 62
7
  6
CONTINUOUS
 10
15.3238552569
 20
4.8671247044
 11
15.0168552569
 21
4.8671247044
  0
LINE
  5
266
100
AcDbEntity
  8
LAYER_CUT_FEAT
100
AcDbLine
 62
7
  6
CONTINUOUS
 10
16.0388552569
 20
4.8978468282
 11
15.3888552569
 21
4.8978468282
  0
LINE
  5
267
100
AcDbEntity
  8
LAYER_CUT_FEAT
100
AcDbLine
 62
7
  6
CONTINUOUS
 10
15.1293552569
 20
5.4842960655
 11
15.1293552569
 21
5.4369533434
  0
LINE
  5
268
100
AcDbEntity
  8
LAYER_CUT_FEAT
100
AcDbLine
 62
7
  6
CONTINUOUS
 10
16.0388552569
 20
5.0586919756
 11
15.3888552569
 21
5.0586919756
  0
LINE
  5
269
100
AcDbEntity
  8
LAYER_CUT_FEAT
100
AcDbLine
 62
7
  6
CONTINUOUS
 10
15.2113552569
 20
5.4369533434
 11
15.2113552569
 21
5.4842960655
  0
LINE
  5
26A
100
AcDbEntity
  8
LAYER_FEATURE
100
AcDbLine
 62
7
  6
CONTINUOUS
 10
15.3238552569
 20
6.4606247044
 11
15.3238552569
 21
4.4606247044
  0
LINE
  5
26B
100
AcDbEntity
  8
LAYER_CUT_FEAT
100
AcDbLine
 62
7
  6
CONTINUOUS
 10
15.1703552569
 20
5.5079674265
 11
15.1293552569
 21
5.4842960655
  0
LINE
  5
26C
100
AcDbEntity
  8
LAYER_CUT_FEAT
100
AcDbLine
 62
7
  6
CONTINUOUS
 10
16.0388552569
 20
5.2363605305
 11
15.3888552569
 21
5.2363605305
  0
LINE
  5
26D
100
AcDbEntity
  8
LAYER_CUT_FEAT
100
AcDbLine
 62
7
  6
CONTINUOUS
 10
15.1293552569
 20
5.4369533434
 11
15.1703552569
 21
5.4132819824
  0
LINE
  5
26E
100
AcDbEntity
  8
LAYER_FEATURE
100
AcDbLine
 62
7
  6
CONTINUOUS
 10
15.3638552569
 20
6.4606247044
 11
15.3638552569
 21
4.4606247044
  0
LINE
  5
26F
100
AcDbEntity
  8
LAYER_FEATURE
100
AcDbLine
 62
7
  6
CONTINUOUS
 10
15.3888552569
 20
6.3856247044
 11
15.3888552569
 21
4.5356247044
  0
LINE
  5
270
100
AcDbEntity
  8
LAYER_CUT_FEAT
100
AcDbLine
 62
7
  6
CONTINUOUS
 10
15.1703552569
 20
5.4132819824
 11
15.2113552569
 21
5.4369533434
  0
LINE
  5
271
100
AcDbEntity
  8
LAYER_CUT_FEAT
100
AcDbLine
 62
7
  6
CONTINUOUS
 10
15.2113552569
 20
5.4842960655
 11
15.1703552569
 21
5.5079674265
  0
LINE
  5
272
100
AcDbEntity
  8
LAYER_CUT_FEAT
100
AcDbLine
 62
7
  6
CONTINUOUS
 10
16.0388552569
 20
5.4230875243
 11
15.3888552569
 21
5.4230875243
  0
LINE
  5
273
100
AcDbEntity
  8
LAYER_CUT_FEAT
100
AcDbLine
 62
7
  6
CONTINUOUS
 10
16.0388552569
 20
5.4941178313
 11
15.3888552569
 21
5.4941178313
  0
LINE
  5
274
100
AcDbEntity
  8
LAYER_FEATURE
100
AcDbLine
 62
7
  6
CONTINUOUS
 10
15.3888552569
 20
4.5356247044
 11
15.3638552569
 21
4.4606247044
  0
LINE
  5
275
100
AcDbEntity
  8
LAYER_FEATURE
100
AcDbLine
 62
7
  6
CONTINUOUS
 10
16.0638552569
 20
6.4606247044
 11
16.0388552569
 21
6.3856247044
  0
LINE
  5
276
100
AcDbEntity
  8
LAYER_FEATURE
100
AcDbLine
 62
7
  6
CONTINUOUS
 10
15.3888552569
 20
6.3856247044
 11
15.3638552569
 21
6.4606247044
  0
LINE
  5
277
100
AcDbEntity
  8
LAYER_FEATURE
100
AcDbLine
 62
7
  6
CONTINUOUS
 10
16.0638552569
 20
4.4606247044
 11
16.0388552569
 21
4.5356247044
  0
LINE
  5
278
100
AcDbEntity
  8
LAYER_CUT_FEAT
100
AcDbLine
 62
7
  6
CONTINUOUS
 10
16.0388552569
 20
5.6809504889
 11
15.3888552569
 21
5.6809504889
  0
LINE
  5
279
100
AcDbEntity
  8
LAYER_FEATURE
100
AcDbLine
 62
7
  6
CONTINUOUS
 10
15.23778973
 20
6.0522902314
 11
15.2359552569
 21
6.0541247044
  0
LINE
  5
27A
100
AcDbEntity
  8
LAYER_CUT_FEAT
100
AcDbLine
 62
7
  6
CONTINUOUS
 10
16.0388552569
 20
5.858896834
 11
15.3888552569
 21
5.858896834
  0
LINE
  5
27B
100
AcDbEntity
  8
LAYER_FEATURE
100
AcDbLine
 62
7
  6
CONTINUOUS
 10
16.0388552569
 20
6.3856247044
 11
16.0388552569
 21
4.5356247044
  0
LINE
  5
27C
100
AcDbEntity
  8
LAYER_FEATURE
100
AcDbLine
 62
7
  6
CONTINUOUS
 10
16.0638552569
 20
6.4606247044
 11
16.0638552569
 21
4.4606247044
  0
LINE
  5
27D
100
AcDbEntity
  8
LAYER_FEATURE
100
AcDbLine
 62
7
  6
CONTINUOUS
 10
16.1038552569
 20
6.4606247044
 11
16.1038552569
 21
4.4606247044
  0
LINE
  5
27E
100
AcDbEntity
  8
LAYER_CUT_FEAT
100
AcDbLine
 62
7
  6
CONTINUOUS
 10
16.0388552569
 20
6.0201797575
 11
15.3888552569
 21
6.0201797575
  0
LINE
  5
27F
100
AcDbEntity
  8
02___PRT_ALL_AXES
100
AcDbLine
 62
7
  6
CONTINUOUS
 10
15.3238552569
 20
6.0541247044
 11
15.2523552569
 21
6.0541247044
  0
LINE
  5
280
100
AcDbEntity
  8
02___PRT_ALL_AXES
100
AcDbLine
 62
7
  6
CONTINUOUS
 10
15.0883552569
 20
6.0541247044
 11
15.0168552569
 21
6.0541247044
  0
LINE
  5
281
100
AcDbEntity
  8
LAYER_FEATURE
100
AcDbLine
 62
7
  6
CONTINUOUS
 10
15.1047553216
 20
6.0541247044
 11
15.2359551922
 21
6.0541247044
  0
LINE
  5
282
100
AcDbEntity
  8
LAYER_CUT_FEAT
100
AcDbLine
 62
7
  6
CONTINUOUS
 10
16.0388552569
 20
6.1577504217
 11
15.3888552569
 21
6.1577504217
  0
LINE
  5
283
100
AcDbEntity
  8
LAYER_CUT_FEAT
100
AcDbLine
 62
7
  6
CONTINUOUS
 10
16.0388552569
 20
6.2655963285
 11
15.3888552569
 21
6.2655963285
  0
LINE
  5
284
100
AcDbEntity
  8
LAYER_CUT_FEAT
100
AcDbLine
 62
7
  6
CONTINUOUS
 10
16.0388552569
 20
6.3390040941
 11
15.3888552569
 21
6.3390040941
  0
LINE
  5
285
100
AcDbEntity
  8
LAYER_CUT_FEAT
100
AcDbLine
 62
7
  6
CONTINUOUS
 10
16.0388552569
 20
6.3747654471
 11
15.3888552569
 21
6.3747654471
  0
LINE
  5
286
100
AcDbEntity
  8
LAYER_CUT_FEAT
100
AcDbLine
 62
7
  6
CONTINUOUS
 10
16.0388552569
 20
6.375105454
 11
15.3888552569
 21
6.375105454
  0
LINE
  5
287
100
AcDbEntity
  8
LAYER_FEATURE
100
AcDbLine
 62
7
  6
CONTINUOUS
 10
16.1038552569
 20
6.4606247044
 11
16.0638552569
 21
6.4606247044
  0
LINE
  5
288
100
AcDbEntity
  8
LAYER_FEATURE
100
AcDbLine
 62
7
  6
CONTINUOUS
 10
15.3638552569
 20
6.4606247044
 11
15.3238552569
 21
6.4606247044
  0
LINE
  5
289
100
AcDbEntity
  8
LAYER_FEATURE
100
AcDbLine
 62
7
  6
CONTINUOUS
 10
14.4212857581
 20
12.5005548696
 11
14.430968411
 21
12.531887946
  0
LINE
  5
28A
100
AcDbEntity
  8
LAYER_FEATURE
100
AcDbLine
 62
7
  6
CONTINUOUS
 10
14.6004148374
 20
13.0802167828
 11
14.6100974903
 21
13.1115498591
  0
LINE
  5
28B
100
AcDbEntity
  8
LAYER_FEATURE
100
AcDbLine
 62
7
  6
CONTINUOUS
 10
14.696789938
 20
13.0921090301
 11
14.696352581
 21
13.0910745154
  0
LINE
  5
28C
100
AcDbEntity
  8
LAYER_CUT_FEAT
100
AcDbLine
 62
7
  6
CONTINUOUS
 10
14.6663034857
 20
13.0096834652
 11
14.5786686315
 21
12.7260969729
  0
LINE
  5
28D
100
AcDbEntity
  8
LAYER_CUT_FEAT
100
AcDbLine
 62
7
  6
CONTINUOUS
 10
14.6963525787
 20
13.0910745161
 11
14.5849116228
 21
12.7304514506
  0
LINE
  5
28E
100
AcDbEntity
  8
LAYER_CUT_FEAT
100
AcDbLine
 62
7
  6
CONTINUOUS
 10
14.7666245744
 20
13.1794581245
 11
14.6378632169
 21
12.7627862188
  0
LINE
  5
28F
100
AcDbEntity
  8
LAYER_CUT_FEAT
100
AcDbLine
 62
7
  6
CONTINUOUS
 10
14.8704145361
 20
13.249964168
 11
14.7326639106
 21
12.8042029805
  0
LINE
  5
290
100
AcDbEntity
  8
LAYER_CUT_FEAT
100
AcDbLine
 62
7
  6
CONTINUOUS
 10
14.6959692508
 20
12.4156712503
 11
14.7020209089
 21
12.4352544231
  0
LINE
  5
291
100
AcDbEntity
  8
LAYER_CUT_FEAT
100
AcDbLine
 62
7
  6
CONTINUOUS
 10
15.0031863442
 20
13.299511194
 11
14.8606821767
 21
12.8383675391
  0
LINE
  5
292
100
AcDbEntity
  8
02___PRT_ALL_AXES
100
AcDbLine
 62
7
  6
CONTINUOUS
 10
14.73534997
 20
12.1400554519
 11
14.8096643313
 21
12.3805368131
  0
LINE
  5
293
100
AcDbEntity
  8
LAYER_CUT_FEAT
100
AcDbLine
 62
7
  6
CONTINUOUS
 10
15.1591372337
 20
13.3259337598
 11
15.0140676543
 21
12.8564884289
  0
LINE
  5
294
100
AcDbEntity
  8
LAYER_CUT_FEAT
100
AcDbLine
 62
7
  6
CONTINUOUS
 10
15.3314514023
 20
13.3280770725
 11
15.1850613038
 21
12.8543585398
  0
LINE
  5
295
100
AcDbEntity
  8
LAYER_CUT_FEAT
100
AcDbLine
 62
7
  6
CONTINUOUS
 10
15.900640634
 20
12.0556381096
 11
15.8749554731
 21
12.0556381096
  0
LINE
  5
296
100
AcDbEntity
  8
LAYER_CUT_FEAT
100
AcDbLine
 62
7
  6
CONTINUOUS
 10
15.9033445971
 20
12.1024688668
 11
15.8710632016
 21
12.1024688668
  0
LINE
  5
297
100
AcDbEntity
  8
LAYER_CUT_FEAT
100
AcDbLine
 62
7
  6
CONTINUOUS
 10
15.1149015392
 20
12.4539923337
 11
15.1306619808
 21
12.4218759304
  0
LINE
  5
298
100
AcDbEntity
  8
LAYER_CUT_FEAT
100
AcDbLine
 62
7
  6
CONTINUOUS
 10
15.1466290258
 20
12.486108737
 11
15.1716424589
 21
12.4351367196
  0
LINE
  5
299
100
AcDbEntity
  8
LAYER_CUT_FEAT
100
AcDbLine
 62
7
  6
CONTINUOUS
 10
15.1149015392
 20
12.4539923337
 11
15.1267795873
 21
12.4218759304
  0
LINE
  5
29A
100
AcDbEntity
  8
LAYER_CUT_FEAT
100
AcDbLine
 62
7
  6
CONTINUOUS
 10
15.2021126085
 20
12.4539923337
 11
15.1902345604
 21
12.486108737
  0
LINE
  5
29B
100
AcDbEntity
  8
LAYER_CUT_FEAT
100
AcDbLine
 62
7
  6
CONTINUOUS
 10
15.5125978941
 20
13.3058474589
 11
15.3657471401
 21
12.8306382446
  0
LINE
  5
29C
100
AcDbEntity
  8
LAYER_CUT_FEAT
100
AcDbLine
 62
7
  6
CONTINUOUS
 10
15.1466290258
 20
12.486108737
 11
15.1149015392
 21
12.4539923337
  0
LINE
  5
29D
100
AcDbEntity
  8
LAYER_CUT_FEAT
100
AcDbLine
 62
7
  6
CONTINUOUS
 10
15.5810110992
 20
13.2886468016
 11
15.4349842129
 21
12.8161036243
  0
LINE
  5
29E
100
AcDbEntity
  8
LAYER_CUT_FEAT
100
AcDbLine
 62
7
  6
CONTINUOUS
 10
15.1716424589
 20
12.4351367196
 11
15.1585422525
 21
12.4218759304
  0
LINE
  5
29F
100
AcDbEntity
  8
LAYER_CUT_FEAT
100
AcDbLine
 62
7
  6
CONTINUOUS
 10
15.1703851219
 20
12.4218759304
 11
15.2021126085
 21
12.4539923337
  0
LINE
  5
2A0
100
AcDbEntity
  8
LAYER_CUT_FEAT
100
AcDbLine
 62
7
  6
CONTINUOUS
 10
15.1267795873
 20
12.4218759304
 11
15.1703851219
 21
12.4218759304
  0
LINE
  5
2A1
100
AcDbEntity
  8
LAYER_CUT_FEAT
100
AcDbLine
 62
7
  6
CONTINUOUS
 10
15.6946597381
 20
13.26021646
 11
15.5480624918
 21
12.7858275971
  0
LINE
  5
2A2
100
AcDbEntity
  8
LAYER_CUT_FEAT
100
AcDbLine
 62
7
  6
CONTINUOUS
 10
15.1834853283
 20
12.4351367196
 11
15.1716424589
 21
12.4351367196
  0
LINE
  5
2A3
100
AcDbEntity
  8
LAYER_CUT_FEAT
100
AcDbLine
 62
7
  6
CONTINUOUS
 10
15.1902345604
 20
12.486108737
 11
15.1466290258
 21
12.486108737
  0
LINE
  5
2A4
100
AcDbEntity
  8
LAYER_CUT_FEAT
100
AcDbLine
 62
7
  6
CONTINUOUS
 10
15.7623132903
 20
13.2386240739
 11
15.6155953
 21
12.7638444833
  0
LINE
  5
2A5
100
AcDbEntity
  8
LAYER_FEATURE
100
AcDbLine
 62
7
  6
CONTINUOUS
 10
15.884594483
 20
12.1593773645
 11
15.8969997309
 21
12.1445152551
  0
LINE
  5
2A6
100
AcDbEntity
  8
LAYER_CUT_FEAT
100
AcDbLine
 62
7
  6
CONTINUOUS
 10
15.8690536462
 20
12.0676647682
 11
15.8834951585
 21
12.0382360602
  0
LINE
  5
2A7
100
AcDbEntity
  8
LAYER_CUT_FEAT
100
AcDbLine
 62
7
  6
CONTINUOUS
 10
15.9350367926
 20
13.1676992185
 11
15.7882530268
 21
12.6927067784
  0
LINE
  5
2A8
100
AcDbEntity
  8
LAYER_CUT_FEAT
100
AcDbLine
 62
7
  6
CONTINUOUS
 10
15.9033445971
 20
12.1024688668
 11
15.8889030847
 21
12.1318975748
  0
LINE
  5
2A9
100
AcDbEntity
  8
LAYER_CUT_FEAT
100
AcDbLine
 62
7
  6
CONTINUOUS
 10
15.8717576093
 20
12.1144955255
 11
15.8690536462
 21
12.0676647682
  0
LINE
  5
2AA
100
AcDbEntity
  8
LAYER_CUT_FEAT
100
AcDbLine
 62
7
  6
CONTINUOUS
 10
15.900640634
 20
12.0556381096
 11
15.9033445971
 21
12.1024688668
  0
LINE
  5
2AB
100
AcDbEntity
  8
LAYER_CUT_FEAT
100
AcDbLine
 62
7
  6
CONTINUOUS
 10
16.0916327604
 20
13.0789719921
 11
15.9455159197
 21
12.6061377224
  0
LINE
  5
2AC
100
AcDbEntity
  8
LAYER_CUT_FEAT
100
AcDbLine
 62
7
  6
CONTINUOUS
 10
15.8889030847
 20
12.1318975748
 11
15.8717576093
 21
12.1144955255
  0
LINE
  5
2AD
100
AcDbEntity
  8
LAYER_CUT_FEAT
100
AcDbLine
 62
7
  6
CONTINUOUS
 10
16.2252571983
 20
12.9763202001
 11
16.0807954569
 21
12.5088418335
  0
LINE
  5
2AE
100
AcDbEntity
  8
02___PRT_ALL_AXES
100
AcDbLine
 62
7
  6
CONTINUOUS
 10
15.8694345121
 20
11.7895968219
 11
15.9437488734
 21
12.0300781832
  0
LINE
  5
2AF
100
AcDbEntity
  8
LAYER_FEATURE
100
AcDbLine
 62
7
  6
CONTINUOUS
 10
15.884594483
 20
12.0107562705
 11
15.8969997309
 21
12.0256183799
  0
LINE
  5
2B0
100
AcDbEntity
  8
LAYER_CUT_FEAT
100
AcDbLine
 62
7
  6
CONTINUOUS
 10
15.8834951585
 20
12.0382360602
 11
15.900640634
 21
12.0556381096
  0
LINE
  5
2B1
100
AcDbEntity
  8
LAYER_CUT_FEAT
100
AcDbLine
 62
7
  6
CONTINUOUS
 10
16.0574439539
 20
11.994943746
 11
16.063495612
 21
12.0145269187
  0
LINE
  5
2B2
100
AcDbEntity
  8
LAYER_CUT_FEAT
100
AcDbLine
 62
7
  6
CONTINUOUS
 10
16.3300700774
 20
12.8642302185
 11
16.1886793021
 21
12.4066895021
  0
LINE
  5
2B3
100
AcDbEntity
  8
LAYER_CUT_FEAT
100
AcDbLine
 62
7
  6
CONTINUOUS
 10
16.4014905717
 20
12.7476009173
 11
16.2658093807
 21
12.3085364225
  0
LINE
  5
2B4
100
AcDbEntity
  8
LAYER_FEATURE
100
AcDbLine
 62
7
  6
CONTINUOUS
 10
16.433264506
 20
12.521089029
 11
16.4333944809
 21
12.5215910308
  0
LINE
  5
2B5
100
AcDbEntity
  8
LAYER_CUT_FEAT
100
AcDbLine
 62
7
  6
CONTINUOUS
 10
16.436397263
 20
12.6315295566
 11
16.3116242319
 21
12.22776388
  0
LINE
  5
2B6
100
AcDbEntity
  8
LAYER_CUT_FEAT
100
AcDbLine
 62
7
  6
CONTINUOUS
 10
16.4332645614
 20
12.5210890119
 11
16.3294170591
 21
12.1850383711
  0
LINE
  5
2B7
100
AcDbEntity
  8
LAYER_FEATURE
100
AcDbLine
 62
7
  6
CONTINUOUS
 10
16.3321274466
 20
11.9100601267
 11
16.3418100995
 21
11.9413932031
  0
LINE
  5
2B8
100
AcDbEntity
  8
LAYER_FEATURE
100
AcDbLine
 62
7
  6
CONTINUOUS
 10
16.5112565259
 20
12.4897220398
 11
16.5209391789
 21
12.5210551162
  0
CIRCLE
  5
2B9
100
AcDbEntity
  8
LAYER_FEATURE
100
AcDbCircle
 62
7
  6
CONTINUOUS
 10
6.1303672762
 20
5.5201198968
 40
1.0
  0
CIRCLE
  5
2BA
100
AcDbEntity
  8
LAYER_FEATURE
100
AcDbCircle
 62
7
  6
CONTINUOUS
 10
6.1303672762
 20
5.5201198968
 40
0.925
  0
CIRCLE
  5
2BB
100
AcDbEntity
  8
LAYER_CUT_FEAT
100
AcDbCircle
 62
7
  6
CONTINUOUS
 10
6.1303672762
 20
5.5201198968
 40
0.7125
  0
CIRCLE
  5
2BC
100
AcDbEntity
  8
02___PRT_ALL_AXES
100
AcDbCircle
 62
7
  6
CONTINUOUS
 10
6.1303672762
 20
5.5201198968
 40
0.5935
  0
CIRCLE
  5
2BD
100
AcDbEntity
  8
LAYER_CHAMFER_FEAT
100
AcDbCircle
 62
7
  6
CONTINUOUS
 10
6.1303672762
 20
5.5201198968
 40
0.14375
  0
CIRCLE
  5
2BE
100
AcDbEntity
  8
LAYER_CHAMFER_FEAT
100
AcDbCircle
 62
7
  6
CONTINUOUS
 10
6.1303672762
 20
5.5201198968
 40
0.125
  0
CIRCLE
  5
2BF
100
AcDbEntity
  8
02___PRT_ALL_AXES
100
AcDbCircle
 62
7
  6
CONTINUOUS
 10
6.0708720839
 20
12.2100477814
 40
0.082
  0
CIRCLE
  5
2C0
100
AcDbEntity
  8
LAYER_FEATURE
100
AcDbCircle
 62
7
  6
CONTINUOUS
 10
6.0708720839
 20
12.2100477814
 40
0.0656
  0
CIRCLE
  5
2C1
100
AcDbEntity
  8
02___PRT_ALL_AXES
100
AcDbCircle
 62
7
  6
CONTINUOUS
 10
15.1703552569
 20
5.4606247044
 40
0.082
  0
CIRCLE
  5
2C2
100
AcDbEntity
  8
LAYER_FEATURE
100
AcDbCircle
 62
7
  6
CONTINUOUS
 10
15.1703552569
 20
5.4606247044
 40
0.0656
  0
ARC
  5
2C3
100
AcDbEntity
  8
LAYER_FEATURE
100
AcDbCircle
 62
7
  6
CONTINUOUS
 10
15.2321481333
 20
11.7374804956
 40
1.601169783
100
AcDbArc
 50
71.1385065847
 51
72.4882044807
  0
ARC
  5
2C4
100
AcDbEntity
  8
LAYER_FEATURE
100
AcDbCircle
 62
7
  6
CONTINUOUS
 10
15.243790839
 20
11.7875237203
 40
1.549778831
100
AcDbArc
 50
78.0361360654
 51
79.4161761133
  0
ARC
  5
2C5
100
AcDbEntity
  8
LAYER_FEATURE
100
AcDbCircle
 62
7
  6
CONTINUOUS
 10
15.2652957024
 20
11.817830956
 40
1.5142097362
100
AcDbArc
 50
64.139712167
 51
65.5399291923
  0
ARC
  5
2C6
100
AcDbEntity
  8
LAYER_FEATURE
100
AcDbCircle
 62
7
  6
CONTINUOUS
 10
15.2659242347
 20
11.9626840888
 40
1.3731163092
100
AcDbArc
 50
85.2487380958
 51
86.7454701037
  0
ARC
  5
2C7
100
AcDbEntity
  8
LAYER_FEATURE
100
AcDbCircle
 62
7
  6
CONTINUOUS
 10
15.363769753
 20
11.9955064604
 40
1.310936346
100
AcDbArc
 50
56.6053264047
 51
58.1460525268
  0
ARC
  5
2C8
100
AcDbEntity
  8
LAYER_FEATURE
100
AcDbCircle
 62
7
  6
CONTINUOUS
 10
15.2648913262
 20
12.2207505383
 40
1.114842803
100
AcDbArc
 50
93.249228865
 51
94.9698281529
  0
ARC
  5
2C9
100
AcDbEntity
  8
LAYER_FEATURE
100
AcDbCircle
 62
7
  6
CONTINUOUS
 10
15.5250480962
 20
12.2118281905
 40
1.0408786734
100
AcDbArc
 50
48.0053034712
 51
49.8013505897
  0
ARC
  5
2CA
100
AcDbEntity
  8
LAYER_FEATURE
100
AcDbCircle
 62
7
  6
CONTINUOUS
 10
15.2216350203
 20
12.4976214057
 40
0.8343013053
100
AcDbArc
 50
102.6477968883
 51
104.736084853
  0
ARC
  5
2CB
100
AcDbEntity
  8
LAYER_FEATURE
100
AcDbCircle
 62
7
  6
CONTINUOUS
 10
15.7229798616
 20
12.4045189277
 40
0.7643002804
100
AcDbArc
 50
37.6338002937
 51
39.8396902901
  0
ARC
  5
2CC
100
AcDbEntity
  8
LAYER_FEATURE
100
AcDbCircle
 62
7
  6
CONTINUOUS
 10
15.1398274198
 20
12.7302825453
 40
0.5872555423
100
AcDbArc
 50
114.2596738558
 51
116.899422628
  0
ARC
  5
2CD
100
AcDbEntity
  8
LAYER_FEATURE
100
AcDbCircle
 62
7
  6
CONTINUOUS
 10
15.9162248202
 20
12.5306014352
 40
0.5331156878
100
AcDbArc
 50
24.5824911059
 51
27.3867959306
  0
ARC
  5
2CE
100
AcDbEntity
  8
LAYER_FEATURE
100
AcDbCircle
 62
7
  6
CONTINUOUS
 10
15.0450288268
 20
12.8790086033
 40
0.4104038544
100
AcDbArc
 50
129.030420508
 51
132.38184797
  0
ARC
  5
2CF
100
AcDbEntity
  8
LAYER_FEATURE
100
AcDbCircle
 62
7
  6
CONTINUOUS
 10
16.0625464913
 20
12.5814758851
 40
0.3777258685
100
AcDbArc
 50
8.0109294524
 51
11.5408234445
  0
ARC
  5
2D0
100
AcDbEntity
  8
LAYER_FEATURE
100
AcDbCircle
 62
7
  6
CONTINUOUS
 10
14.975903113
 20
12.9399576097
 40
0.3178902628
100
AcDbArc
 50
147.4375788026
 51
151.404117987
  0
ARC
  5
2D1
100
AcDbEntity
  8
LAYER_FEATURE
100
AcDbCircle
 62
7
  6
CONTINUOUS
 10
16.1340443317
 20
12.5843928535
 40
0.3058669332
100
AcDbArc
 50
348.1515335486
 51
352.2213651125
  0
ARC
  5
2D2
100
AcDbEntity
  8
LAYER_FEATURE
100
AcDbCircle
 62
7
  6
CONTINUOUS
 10
16.4332308696
 20
12.6547753016
 40
0.098379649
100
AcDbArc
 50
258.5991545032
 51
261.7546060901
  0
ARC
  5
2D3
100
AcDbEntity
  8
LAYER_FEATURE
100
AcDbCircle
 62
7
  6
CONTINUOUS
 10
14.7779745112
 20
13.1983948051
 40
0.0982321552
100
AcDbArc
 50
241.8059907108
 51
249.762007906
  0
SPLINE
  5
2D4
100
AcDbEntity
  8
02___PRT_ALL_AXES
100
AcDbSpline
 62
7
  6
CONTINUOUS
 70
0
 71
3
 72
19
 73
15
 74
0
 42
0.0000001
 43
0.0000001
 44
0.0000000001
 40
0.0
 40
0.0
 40
0.0
 40
0.0
 40
0.0383321304
 40
0.1470071074
 40
0.2227376021
 40
0.3090403168
 40
0.402650199
 40
0.4999999992
 40
0.5973497995
 40
0.6909596818
 40
0.7772623966
 40
0.8529928919
 40
0.9616678699
 40
1.0
 40
1.0
 40
1.0
 40
1.0
 10
6.6643720839
 20
12.1280477814
 30
0.0
 10
6.664084372
 20
12.1301300989
 30
0.0
 10
6.663021462
 20
12.1381217602
 30
0.0
 10
6.6616483225
 20
12.1502612881
 30
0.0
 10
6.6603501251
 20
12.1650509791
 30
0.0
 10
6.6594355509
 20
12.1790419561
 30
0.0
 10
6.6588228337
 20
12.194236394
 30
0.0
 10
6.6586073177
 20
12.2100477812
 30
0.0
 10
6.6588228337
 20
12.2258591685
 30
0.0
 10
6.6594355509
 20
12.2410536064
 30
0.0
 10
6.6603501251
 20
12.2550445835
 30
0.0
 10
6.6616483225
 20
12.2698342746
 30
0.0
 10
6.663021462
 20
12.2819738025
 30
0.0
 10
6.664084372
 20
12.2899654638
 30
0.0
 10
6.6643720839
 20
12.2920477814
 30
0.0
  0
SPLINE
  5
2D5
100
AcDbEntity
  8
02___PRT_ALL_AXES
100
AcDbSpline
 62
7
  6
CONTINUOUS
 70
0
 71
3
 72
19
 73
15
 74
0
 42
0.0000001
 43
0.0000001
 44
0.0000000001
 40
0.0
 40
0.0
 40
0.0
 40
0.0
 40
0.0383321415
 40
0.1470070762
 40
0.2227376106
 40
0.3090403009
 40
0.4026501978
 40
0.5000000005
 40
0.5973498033
 40
0.6909596999
 40
0.7772623903
 40
0.8529929247
 40
0.9616678588
 40
1.0
 40
1.0
 40
1.0
 40
1.0
 10
15.2523552569
 20
6.0541247044
 30
0.0
 10
15.2502729388
 20
6.0538369924
 30
0.0
 10
15.2422812792
 20
6.052774082
 30
0.0
 10
15.230141751
 20
6.051400942
 30
0.0
 10
15.2153520611
 20
6.050102748
 30
0.0
 10
15.2013610828
 20
6.0491881701
 30
0.0
 10
15.1861666453
 20
6.0485754502
 30
0.0
 10
15.1703552568
 20
6.0483599455
 30
0.0
 10
15.1545438684
 20
6.0485754502
 30
0.0
 10
15.139349431
 20
6.0491881701
 30
0.0
 10
15.1253584526
 20
6.050102748
 30
0.0
 10
15.1105687628
 20
6.051400942
 30
0.0
 10
15.0984292346
 20
6.052774082
 30
0.0
 10
15.0904375751
 20
6.0538369924
 30
0.0
 10
15.0883552569
 20
6.0541247044
 30
0.0
  0
SPLINE
  5
2D6
100
AcDbEntity
  8
02___PRT_ALL_AXES
100
AcDbSpline
 62
7
  6
CONTINUOUS
 70
0
 71
3
 72
42
 73
38
 74
0
 42
0.0000001
 43
0.0000001
 44
0.0000000001
 40
0.0
 40
0.0
 40
0.0
 40
0.0
 40
0.0279694924
 40
0.0577941306
 40
0.08933936
 40
0.1224511586
 40
0.1569610004
 40
0.1926892068
 40
0.2294481582
 40
0.2670449883
 40
0.3052838245
 40
0.3439677783
 40
0.3829004568
 40
0.4218875328
 40
0.4607380667
 40
0.499265679
 40
0.537289922
 40
0.5746377085
 40
0.6111448582
 40
0.6466578649
 40
0.6810358048
 40
0.7141524552
 40
0.7458985635
 40
0.7761843504
 40
0.8049422376
 40
0.8321300049
 40
0.8577344358
 40
0.8817757873
 40
0.9043130832
 40
0.9254503477
 40
0.9453430011
 40
0.9548929223
 40
0.9642162404
 40
0.9733484405
 40
0.9823283515
 40
0.991197574
 40
1.0
 40
1.0
 40
1.0
 40
1.0
 10
15.8663496831
 20
12.0208340109
 30
0.0
 10
15.8656820784
 20
12.0221944464
 30
0.0
 10
15.8643747886
 20
12.025041344
 30
0.0
 10
15.8625471701
 20
12.029524893
 30
0.0
 10
15.8607998574
 20
12.0343378361
 30
0.0
 10
15.8591461087
 20
12.0394510428
 30
0.0
 10
15.8575994405
 20
12.0448337995
 30
0.0
 10
15.8561735694
 20
12.0504538535
 30
0.0
 10
15.8548821983
 20
12.0562777473
 30
0.0
 10
15.8537388478
 20
12.0622710386
 30
0.0
 10
15.8527566664
 20
12.068398514
 30
0.0
 10
15.8519482399
 20
12.0746243543
 30
0.0
 10
15.8513253898
 20
12.0809122835
 30
0.0
 10
15.8508989624
 20
12.0872256971
 30
0.0
 10
15.8506786095
 20
12.0935277855
 30
0.0
 10
15.8506725606
 20
12.0997816617
 30
0.0
 10
15.8508873954
 20
12.1059505079
 30
0.0
 10
15.8513278168
 20
12.1119977562
 30
0.0
 10
15.8519964452
 20
12.1178873029
 30
0.0
 10
15.852893635
 20
12.1235837574
 30
0.0
 10
15.8540173366
 20
12.1290527235
 30
0.0
 10
15.8553630079
 20
12.1342610984
 30
0.0
 10
15.8569235923
 20
12.1391773779
 30
0.0
 10
15.8586895653
 20
12.1437719461
 30
0.0
 10
15.8606490584
 20
12.1480173346
 30
0.0
 10
15.8627880471
 20
12.1518884228
 30
0.0
 10
15.8650906342
 20
12.1553625792
 30
0.0
 10
15.8675392826
 20
12.1584196597
 30
0.0
 10
15.8701154038
 20
12.1610420248
 30
0.0
 10
15.8727987219
 20
12.1632139293
 30
0.0
 10
15.8751395371
 20
12.1646568236
 30
0.0
 10
15.8770376918
 20
12.1655598906
 30
0.0
 10
15.8784541146
 20
12.1661082849
 30
0.0
 10
15.8798793986
 20
12.166535815
 30
0.0
 10
15.8813105832
 20
12.1668418492
 30
0.0
 10
15.8827444586
 20
12.1670257484
 30
0.0
 10
15.8837024161
 20
12.1670668183
 30
0.0
 10
15.8841793401
 20
12.1670668175
 30
0.0
  0
SPLINE
  5
2D7
100
AcDbEntity
  8
02___PRT_ALL_AXES
100
AcDbSpline
 62
7
  6
CONTINUOUS
 70
0
 71
3
 72
23
 73
19
 74
0
 42
0.0000001
 43
0.0000001
 44
0.0000000001
 40
0.0
 40
0.0
 40
0.0
 40
0.0
 40
0.0739109261
 40
0.1463078592
 40
0.2170912003
 40
0.2861931646
 40
0.353566964
 40
0.4191965952
 40
0.4830970872
 40
0.5453173108
 40
0.6059416699
 40
0.6650908553
 40
0.7229217614
 40
0.779626042
 40
0.8354268914
 40
0.8905742761
 40
0.9453380863
 40
1.0
 40
1.0
 40
1.0
 40
1.0
 10
15.1386576353
 20
12.3897595271
 30
0.0
 10
15.1371386623
 20
12.3897595271
 30
0.0
 10
15.1341313116
 20
12.3898281801
 30
0.0
 10
15.1296792517
 20
12.3901438597
 30
0.0
 10
15.1253465068
 20
12.3906705227
 30
0.0
 10
15.1211490608
 20
12.3914068128
 30
0.0
 10
15.1171019278
 20
12.3923509681
 30
0.0
 10
15.1132194665
 20
12.3935006585
 30
0.0
 10
15.1095152088
 20
12.3948530963
 30
0.0
 10
15.1060018838
 20
12.3964049933
 30
0.0
 10
15.1026914085
 20
12.3981525786
 30
0.0
 10
15.0995948972
 20
12.4000915801
 30
0.0
 10
15.0967226764
 20
12.4022171955
 30
0.0
 10
15.0940842827
 20
12.4045240559
 30
0.0
 10
15.0916884737
 20
12.4070061395
 30
0.0
 10
15.0895431205
 20
12.4096568491
 30
0.0
 10
15.0876554274
 20
12.4124684685
 30
0.0
 10
15.0865732801
 20
12.4144439409
 30
0.0
 10
15.0860783874
 20
12.4154524354
 30
0.0
  0
SPLINE
  5
2D8
100
AcDbEntity
  8
LAYER_CUT_FEAT
100
AcDbSpline
 62
7
  6
CONTINUOUS
 70
0
 71
3
 72
22
 73
18
 74
0
 42
0.0000001
 43
0.0000001
 44
0.0000000001
 40
0.0
 40
0.0
 40
0.0
 40
0.0
 40
0.1381197978
 40
0.2053664405
 40
0.2714549011
 40
0.3364371411
 40
0.4003725799
 40
0.4633278459
 40
0.5253764074
 40
0.5865986107
 40
0.6470813122
 40
0.7069174445
 40
0.7662054998
 40
0.8250488571
 40
0.883554961
 40
0.9418344168
 40
1.0
 40
1.0
 40
1.0
 40
1.0
 10
14.7204506441
 20
12.2053074982
 30
0.0
 10
14.7160495282
 20
12.2142760295
 30
0.0
 10
14.7099851377
 20
12.2278571003
 30
0.0
 10
14.7030685086
 20
12.2462370341
 30
0.0
 10
14.6985709814
 20
12.2598627172
 30
0.0
 10
14.694722499
 20
12.273436843
 30
0.0
 10
14.6915266979
 20
12.2869468243
 30
0.0
 10
14.6889868167
 20
12.300379638
 30
0.0
 10
14.6871054498
 20
12.3137224526
 30
0.0
 10
14.6858845421
 20
12.3269624459
 30
0.0
 10
14.6853254092
 20
12.3400868803
 30
0.0
 10
14.6854287477
 20
12.3530830901
 30
0.0
 10
14.6861946022
 20
12.3659385109
 30
0.0
 10
14.6876223193
 20
12.3786406435
 30
0.0
 10
14.6897106506
 20
12.3911772708
 30
0.0
 10
14.6924575156
 20
12.4035357235
 30
0.0
 10
14.6947271157
 20
12.4116516779
 30
0.0
 10
14.6959692569
 20
12.4156712484
 30
0.0
  0
SPLINE
  5
2D9
100
AcDbEntity
  8
LAYER_CHAMFER_FEAT
100
AcDbSpline
 62
7
  6
CONTINUOUS
 70
0
 71
3
 72
21
 73
17
 74
0
 42
0.0000001
 43
0.0000001
 44
0.0000000001
 40
0.0
 40
0.0
 40
0.0
 40
0.0
 40
0.1460175704
 40
0.2163589312
 40
0.2849315326
 40
0.4168797924
 40
0.480422
 40
0.5424372241
 40
0.6030310451
 40
0.6623275976
 40
0.7204697622
 40
0.7776179961
 40
0.8339489518
 40
0.8896535328
 40
0.9449338542
 40
1.0
 40
1.0
 40
1.0
 40
1.0
 10
15.2290494997
 20
12.0517442229
 30
0.0
 10
15.2264096435
 20
12.0509310385
 30
0.0
 10
15.2225431794
 20
12.0495679169
 30
0.0
 10
15.217593797
 20
12.047428885
 30
0.0
 10
15.2129915987
 20
12.0451728953
 30
0.0
 10
15.2086726147
 20
12.0426406302
 30
0.0
 10
15.2046918315
 20
12.0398290794
 30
0.0
 10
15.2019376614
 20
12.0376311462
 30
0.0
 10
15.1993832846
 20
12.0353219691
 30
0.0
 10
15.197033602
 20
12.0329057458
 30
0.0
 10
15.1948932279
 20
12.0303870651
 30
0.0
 10
15.1929663974
 20
12.0277706734
 30
0.0
 10
15.1912569969
 20
12.0250615643
 30
0.0
 10
15.1897683998
 20
12.0222649227
 30
0.0
 10
15.1885037217
 20
12.0193863912
 30
0.0
 10
15.1878109447
 20
12.0174147035
 30
0.0
 10
15.187503386
 20
12.0164194357
 30
0.0
  0
SPLINE
  5
2DA
100
AcDbEntity
  8
LAYER_CHAMFER_FEAT
100
AcDbSpline
 62
7
  6
CONTINUOUS
 70
0
 71
3
 72
21
 73
17
 74
0
 42
0.0000001
 43
0.0000001
 44
0.0000000001
 40
0.0
 40
0.0
 40
0.0
 40
0.0
 40
0.146046939
 40
0.2164003108
 40
0.2849829745
 40
0.3518294519
 40
0.4169910862
 40
0.542498663
 40
0.6030909956
 40
0.6623838773
 40
0.7205202209
 40
0.7776608042
 40
0.8339825345
 40
0.8896766228
 40
0.9449456204
 40
1.0
 40
1.0
 40
1.0
 40
1.0
 10
15.4119370555
 20
11.9952729588
 30
0.0
 10
15.413662178
 20
11.9931101645
 30
0.0
 10
15.4160917205
 20
11.9897999844
 30
0.0
 10
15.418978985
 20
11.9852368366
 30
0.0
 10
15.4209040867
 20
11.9818454272
 30
0.0
 10
15.4226118263
 20
11.9784489865
 30
0.0
 10
15.4245697525
 20
11.9739794213
 30
0.0
 10
15.4261172965
 20
11.9694645625
 30
0.0
 10
15.4272086678
 20
11.9649434447
 30
0.0
 10
15.4277879377
 20
11.9616187767
 30
0.0
 10
15.4281360011
 20
11.9583277375
 30
0.0
 10
15.4282521336
 20
11.9550765245
 30
0.0
 10
15.4281359074
 20
11.9518715065
 30
0.0
 10
15.4277874411
 20
11.9487188851
 30
0.0
 10
15.427207404
 20
11.9456250923
 30
0.0
 10
15.4266664898
 20
11.9436039907
 30
0.0
 10
15.4263585832
 20
11.9426075972
 30
0.0
  0
SPLINE
  5
2DB
100
AcDbEntity
  8
LAYER_FEATURE
100
AcDbSpline
 62
7
  6
CONTINUOUS
 70
0
 71
3
 72
33
 73
29
 74
0
 42
0.0000001
 43
0.0000001
 44
0.0000000001
 40
0.0
 40
0.0
 40
0.0
 40
0.0
 40
0.0202795796
 40
0.0417780496
 40
0.0645065155
 40
0.0884597917
 40
0.113619069
 40
0.1399539228
 40
0.1674237088
 40
0.1959790261
 40
0.2255629498
 40
0.2561118167
 40
0.2875560182
 40
0.3198208943
 40
0.3528272993
 40
0.3864920843
 40
0.4554434056
 40
0.5259572813
 40
0.5972808724
 40
0.6686461656
 40
0.7392843681
 40
0.8084403396
 40
0.8422362834
 40
0.8753924269
 40
0.907824675
 40
0.9394523909
 40
0.9702027636
 40
1.0
 40
1.0
 40
1.0
 40
1.0
 10
15.8969997298
 20
12.144515249
 30
0.0
 10
15.8974482213
 20
12.1439779365
 30
0.0
 10
15.8983312059
 20
12.1428363852
 30
0.0
 10
15.8995784771
 20
12.1409908153
 30
0.0
 10
15.90078314
 20
12.1389681578
 30
0.0
 10
15.9019414178
 20
12.136774855
 30
0.0
 10
15.9030497515
 20
12.1344177242
 30
0.0
 10
15.9041046533
 20
12.1319041604
 30
0.0
 10
15.9051028122
 20
12.1292420684
 30
0.0
 10
15.9060410794
 20
12.1264398436
 30
0.0
 10
15.9069164716
 20
12.1235063311
 30
0.0
 10
15.9077262041
 20
12.1204508083
 30
0.0
 10
15.9084677128
 20
12.1172829527
 30
0.0
 10
15.909138629
 20
12.1140128067
 30
0.0
 10
15.9097368191
 20
12.1106507196
 30
0.0
 10
15.9104404308
 20
12.1060228662
 30
0.0
 10
15.9111218664
 20
12.1000843039
 30
0.0
 10
15.9116199591
 20
12.0928242275
 30
0.0
 10
15.911798346
 20
12.0854659185
 30
0.0
 10
15.9116547664
 20
12.078102561
 30
0.0
 10
15.911191024
 20
12.0708274018
 30
0.0
 10
15.9105378998
 20
12.064869707
 30
0.0
 10
15.9098565136
 20
12.0602215978
 30
0.0
 10
15.9092743199
 20
12.0568410088
 30
0.0
 10
15.908618977
 20
12.0535500963
 30
0.0
 10
15.9078925505
 20
12.0503591925
 30
0.0
 10
15.9070973614
 20
12.0472785602
 30
0.0
 10
15.9065134909
 20
12.0452717273
 30
0.0
 10
15.9062098681
 20
12.0442892036
 30
0.0
  0
SPLINE
  5
2DC
100
AcDbEntity
  8
LAYER_FEATURE
100
AcDbSpline
 62
7
  6
CONTINUOUS
 70
0
 71
3
 72
15
 73
11
 74
0
 42
0.0000001
 43
0.0000001
 44
0.0000000001
 40
0.0
 40
0.0
 40
0.0
 40
0.0
 40
0.1030414464
 40
0.2124414996
 40
0.3282548413
 40
0.4504495494
 40
0.5789185432
 40
0.7134880734
 40
0.8539471161
 40
1.0
 40
1.0
 40
1.0
 40
1.0
 10
15.8969997303
 20
12.0256183835
 30
0.0
 10
15.8974607177
 20
12.0261706754
 30
0.0
 10
15.8983678658
 20
12.0273459392
 30
0.0
 10
15.8996470212
 20
12.0292491215
 30
0.0
 10
15.9008810317
 20
12.0313386865
 30
0.0
 10
15.9020657934
 20
12.033607641
 30
0.0
 10
15.9031974501
 20
12.0360485328
 30
0.0
 10
15.9042723109
 20
12.0386533475
 30
0.0
 10
15.9052867233
 20
12.0414133381
 30
0.0
 10
15.9059088072
 20
12.0433149701
 30
0.0
 10
15.9062098681
 20
12.0442892036
 30
0.0
  0
SPLINE
  5
2DD
100
AcDbEntity
  8
02___PRT_ALL_AXES
100
AcDbSpline
 62
7
  6
CONTINUOUS
 70
0
 71
3
 72
24
 73
20
 74
0
 42
0.0000001
 43
0.0000001
 44
0.0000000001
 40
0.0
 40
0.0
 40
0.0
 40
0.0
 40
0.0428467746
 40
0.0865146306
 40
0.1316184503
 40
0.1787067636
 40
0.2031523063
 40
0.2282627754
 40
0.2806460801
 40
0.3361782679
 40
0.3950973519
 40
0.4575777896
 40
0.5237427044
 40
0.5936687514
 40
0.667394468
 40
0.7449235104
 40
0.8262362944
 40
0.9112909513
 40
1.0
 40
1.0
 40
1.0
 40
1.0
 10
15.8841793401
 20
12.0030668176
 30
0.0
 10
15.883803393
 20
12.0030668184
 30
0.0
 10
15.8830434483
 20
12.0031159072
 30
0.0
 10
15.8819067321
 20
12.0033348608
 30
0.0
 10
15.8807687542
 20
12.0036985454
 30
0.0
 10
15.8798321714
 20
12.0041159632
 30
0.0
 10
15.8790849409
 20
12.0045173923
 30
0.0
 10
15.8783175614
 20
12.0049774877
 30
0.0
 10
15.8773581594
 20
12.0056449171
 30
0.0
 10
15.8762251928
 20
12.0065738921
 30
0.0
 10
15.8750955275
 20
12.0076403932
 30
0.0
 10
15.8739702264
 20
12.00884254
 30
0.0
 10
15.8728504394
 20
12.0101783585
 30
0.0
 10
15.8717374253
 20
12.0116455949
 30
0.0
 10
15.8706325914
 20
12.0132417613
 30
0.0
 10
15.8695374113
 20
12.014964124
 30
0.0
 10
15.8684534576
 20
12.0168097666
 30
0.0
 10
15.8673824789
 20
12.0187753709
 30
0.0
 10
15.8666925809
 20
12.0201352588
 30
0.0
 10
15.8663496831
 20
12.0208340109
 30
0.0
  0
SPLINE
  5
2DE
100
AcDbEntity
  8
LAYER_FEATURE
100
AcDbSpline
 62
7
  6
CONTINUOUS
 70
0
 71
3
 72
46
 73
42
 74
0
 42
0.0000001
 43
0.0000001
 44
0.0000000001
 40
0.0
 40
0.0
 40
0.0
 40
0.0
 40
0.0118212085
 40
0.0236520247
 40
0.0355020191
 40
0.0473806831
 40
0.0592973978
 40
0.0712613899
 40
0.0832817089
 40
0.0953671819
 40
0.1075263995
 40
0.1197676726
 40
0.1445250487
 40
0.1697028488
 40
0.1824681592
 40
0.1953585975
 40
0.2215355184
 40
0.2482791397
 40
0.2618763142
 40
0.2756283665
 40
0.3036091087
 40
0.3322482948
 40
0.3615648512
 40
0.3915722733
 40
0.4222789117
 40
0.4536882724
 40
0.4857993193
 40
0.5186067735
 40
0.5521014039
 40
0.5862703065
 40
0.6210971715
 40
0.6565625365
 40
0.6926440264
 40
0.7293165812
 40
0.7665526704
 40
0.8043224983
 40
0.8425941971
 40
0.8813340131
 40
0.920506483
 40
0.9600746044
 40
1.0
 40
1.0
 40
1.0
 40
1.0
 10
14.4212857584
 20
12.5005548695
 30
0.0
 10
14.4201633327
 20
12.4969226934
 30
0.0
 10
14.4180438533
 20
12.4896156701
 30
0.0
 10
14.4152458296
 20
12.478544283
 30
0.0
 10
14.41282955
 20
12.4673643232
 30
0.0
 10
14.4107959566
 20
12.4560804474
 30
0.0
 10
14.4091459077
 20
12.4446971055
 30
0.0
 10
14.4078799818
 20
12.4332188691
 30
0.0
 10
14.4069987399
 20
12.421650302
 30
0.0
 10
14.4065024409
 20
12.4099960606
 30
0.0
 10
14.4063913516
 20
12.3982606607
 30
0.0
 10
14.4067580504
 20
12.3824535925
 30
0.0
 10
14.408191599
 20
12.3624948603
 30
0.0
 10
14.4108904764
 20
12.3424986889
 30
0.0
 10
14.4138035368
 20
12.3264103905
 30
0.0
 10
14.4172570329
 20
12.3101006917
 30
0.0
 10
14.4225439965
 20
12.2895945221
 30
0.0
 10
14.4290300712
 20
12.269198134
 30
0.0
 10
14.4349554978
 20
12.2528405732
 30
0.0
 10
14.441449225
 20
12.2362720364
 30
0.0
 10
14.4505128679
 20
12.2155237997
 30
0.0
 10
14.4627955733
 20
12.1907552098
 30
0.0
 10
14.4765272615
 20
12.1660118415
 30
0.0
 10
14.4916857418
 20
12.1413330585
 30
0.0
 10
14.5082468698
 20
12.1167575515
 30
0.0
 10
14.5261842679
 20
12.0923240285
 30
0.0
 10
14.5454694401
 20
12.0680709527
 30
0.0
 10
14.566071784
 20
12.044036541
 30
0.0
 10
14.5879586362
 20
12.0202586878
 30
0.0
 10
14.6110953159
 20
11.996774909
 30
0.0
 10
14.6354451736
 20
11.973622279
 30
0.0
 10
14.660969645
 20
11.9508373706
 30
0.0
 10
14.6876283086
 20
11.928456194
 30
0.0
 10
14.7153789464
 20
11.9065141378
 30
0.0
 10
14.7441776099
 20
11.8850459101
 30
0.0
 10
14.773978686
 20
11.8640854824
 30
0.0
 10
14.804734976
 20
11.8436660297
 30
0.0
 10
14.8363977412
 20
11.8238198912
 30
0.0
 10
14.8689168886
 20
11.8045784605
 30
0.0
 10
14.9022406374
 20
11.78597235
 30
0.0
 10
14.9248641551
 20
11.7740607136
 30
0.0
 10
14.9362966337
 20
11.7682160723
 30
0.0
  0
SPLINE
  5
2DF
100
AcDbEntity
  8
LAYER_FEATURE
100
AcDbSpline
 62
7
  6
CONTINUOUS
 70
0
 71
3
 72
11
 73
7
 74
0
 42
0.0000001
 43
0.0000001
 44
0.0000000001
 40
0.0
 40
0.0
 40
0.0
 40
0.0
 40
0.254765427
 40
0.5066031481
 40
0.7551339946
 40
1.0
 40
1.0
 40
1.0
 40
1.0
 10
15.493451479
 20
11.5959898062
 30
0.0
 10
15.5093569296
 20
11.593958585
 30
0.0
 10
15.5410479741
 20
11.59039472
 30
0.0
 10
15.5884263924
 20
11.5865431898
 30
0.0
 10
15.6352808521
 20
11.5842232816
 30
0.0
 10
15.6663369009
 20
11.5836975299
 30
0.0
 10
15.681748469
 20
11.5836975299
 30
0.0
  0
SPLINE
  5
2E0
100
AcDbEntity
  8
LAYER_FEATURE
100
AcDbSpline
 62
7
  6
CONTINUOUS
 70
0
 71
3
 72
21
 73
17
 74
0
 42
0.0000001
 43
0.0000001
 44
0.0000000001
 40
0.0
 40
0.0
 40
0.0
 40
0.0
 40
0.0593399686
 40
0.118760418
 40
0.178341291
 40
0.2381614697
 40
0.298298253
 40
0.3588269049
 40
0.4198202181
 40
0.4813480987
 40
0.5434772737
 40
0.6062709831
 40
0.6697887273
 40
0.7340861461
 40
0.8652000634
 40
1.0
 40
1.0
 40
1.0
 40
1.0
 10
14.6004148377
 20
13.0802167827
 30
0.0
 10
14.598964377
 20
13.0755230833
 30
0.0
 10
14.5962723805
 20
13.0660626507
 30
0.0
 10
14.5928721427
 20
13.0516899616
 30
0.0
 10
14.590110563
 20
13.0371402758
 30
0.0
 10
14.587989611
 20
13.0224237174
 30
0.0
 10
14.5865105915
 20
13.0075500529
 30
0.0
 10
14.5856744525
 20
12.9925292627
 30
0.0
 10
14.5854817098
 20
12.9773713808
 30
0.0
 10
14.5859323787
 20
12.9620865323
 30
0.0
 10
14.5870261031
 20
12.9466848914
 30
0.0
 10
14.5887620707
 20
12.9311767624
 30
0.0
 10
14.5911390628
 20
12.9155722554
 30
0.0
 10
14.5951867492
 20
12.8945166791
 30
0.0
 10
14.6018767349
 20
12.867982939
 30
0.0
 10
14.6087800352
 20
12.847057251
 30
0.0
 10
14.612627521
 20
12.8365814837
 30
0.0
  0
SPLINE
  5
2E1
100
AcDbEntity
  8
LAYER_FEATURE
100
AcDbSpline
 62
7
  6
CONTINUOUS
 70
0
 71
3
 72
39
 73
35
 74
0
 42
0.0000001
 43
0.0000001
 44
0.0000000001
 40
0.0
 40
0.0
 40
0.0
 40
0.0
 40
0.0248034973
 40
0.0496643335
 40
0.0746391947
 40
0.0997834851
 40
0.1251507427
 40
0.1507921168
 40
0.1767559198
 40
0.2030872608
 40
0.2298277638
 40
0.2570153696
 40
0.284684211
 40
0.312864556
 40
0.3415828085
 40
0.3708615539
 40
0.4007196437
 40
0.4311723119
 40
0.4622313094
 40
0.493905052
 40
0.5261987774
 40
0.5591147045
 40
0.5926521923
 40
0.6268079021
 40
0.6615759537
 40
0.6969480775
 40
0.7329137579
 40
0.7694603751
 40
0.8065733377
 40
0.8442361876
 40
0.8824308336
 40
0.9211372865
 40
0.9603348127
 40
1.0
 40
1.0
 40
1.0
 40
1.0
 10
16.3321274463
 20
11.9100601268
 30
0.0
 10
16.3302325594
 20
11.9039282613
 30
0.0
 10
16.3260764569
 20
11.891758872
 30
0.0
 10
16.3187701201
 20
11.8738698409
 30
0.0
 10
16.3103967568
 20
11.8563563255
 30
0.0
 10
16.3009664239
 20
11.839239254
 30
0.0
 10
16.2904900843
 20
11.8225379648
 30
0.0
 10
16.2789799927
 20
11.8062715265
 30
0.0
 10
16.2664495458
 20
11.790458356
 30
0.0
 10
16.2529132869
 20
11.7751162979
 30
0.0
 10
16.238386859
 20
11.7602625941
 30
0.0
 10
16.2228869791
 20
11.7459138859
 30
0.0
 10
16.2064314134
 20
11.7320862078
 30
0.0
 10
16.1890389567
 20
11.7187949829
 30
0.0
 10
16.1707294125
 20
11.7060550191
 30
0.0
 10
16.1515235784
 20
11.6938804981
 30
0.0
 10
16.1314432282
 20
11.6822849655
 30
0.0
 10
16.1105110888
 20
11.671281326
 30
0.0
 10
16.0887508215
 20
11.6608818313
 30
0.0
 10
16.0661870002
 20
11.6510980679
 30
0.0
 10
16.0428450896
 20
11.6419409456
 30
0.0
 10
16.0187514214
 20
11.6334206849
 30
0.0
 10
15.9939331713
 20
11.6255467986
 30
0.0
 10
15.9684183276
 20
11.6183280855
 30
0.0
 10
15.9422356622
 20
11.6117726196
 30
0.0
 10
15.9154146993
 20
11.6058877391
 30
0.0
 10
15.8879856841
 20
11.600680037
 30
0.0
 10
15.8599795491
 20
11.5961553517
 30
0.0
 10
15.8314278878
 20
11.59231876
 30
0.0
 10
15.8023628915
 20
11.5891745538
 30
0.0
 10
15.7728174072
 20
11.5867262815
 30
0.0
 10
15.7428246224
 20
11.584976648
 30
0.0
 10
15.7124186995
 20
11.5839276741
 30
0.0
 10
15.6920119442
 20
11.5836975299
 30
0.0
 10
15.681748469
 20
11.5836975299
 30
0.0
  0
SPLINE
  5
2E2
100
AcDbEntity
  8
LAYER_FEATURE
100
AcDbSpline
 62
7
  6
CONTINUOUS
 70
0
 71
3
 72
21
 73
17
 74
0
 42
0.0000001
 43
0.0000001
 44
0.0000000001
 40
0.0
 40
0.0
 40
0.0
 40
0.0
 40
0.0593392172
 40
0.1187589356
 40
0.1783391202
 40
0.2381586703
 40
0.2982949038
 40
0.3588231083
 40
0.4198160849
 40
0.4813437586
 40
0.5434728766
 40
0.6062666784
 40
0.6697846829
 40
0.7340825434
 40
0.8651978786
 40
1.0
 40
1.0
 40
1.0
 40
1.0
 10
16.5112565257
 20
12.4897220399
 30
0.0
 10
16.5098058687
 20
12.4850277054
 30
0.0
 10
16.5066907756
 20
12.4756966251
 30
0.0
 10
16.5013887188
 20
12.4619095558
 30
0.0
 10
16.4954593072
 20
12.4483367269
 30
0.0
 10
16.4889066515
 20
12.4349876037
 30
0.0
 10
16.4817351844
 20
12.4218709887
 30
0.0
 10
16.4739497388
 20
12.4089956715
 30
0.0
 10
16.4655555737
 20
12.3963702181
 30
0.0
 10
16.4565583835
 20
12.3840030043
 30
0.0
 10
16.4469641935
 20
12.3719022423
 30
0.0
 10
16.4367795115
 20
12.3600759683
 30
0.0
 10
16.426011038
 20
12.348531855
 30
0.0
 10
16.4107868048
 20
12.3334292922
 30
0.0
 10
16.3902891374
 20
12.3152942132
 30
0.0
 10
16.3727799286
 20
12.3019104699
 30
0.0
 10
16.3636911293
 20
12.2954313133
 30
0.0
  0
SPLINE
  5
2E3
100
AcDbEntity
  8
LAYER_CUT_FEAT
100
AcDbSpline
 62
7
  6
CONTINUOUS
 70
0
 71
3
 72
23
 73
19
 74
0
 42
0.0000001
 43
0.0000001
 44
0.0000000001
 40
0.0
 40
0.0
 40
0.0
 40
0.0
 40
0.056793332
 40
0.1137424793
 40
0.1710011553
 40
0.2287189581
 40
0.2870395232
 40
0.3460989094
 40
0.406024261
 40
0.4669327618
 40
0.5289308818
 40
0.5921138984
 40
0.6565656605
 40
0.7223585582
 40
0.789553672
 40
0.8582010531
 40
0.9283400995
 40
1.0
 40
1.0
 40
1.0
 40
1.0
 10
16.0574439478
 20
11.9949437479
 30
0.0
 10
16.0559727002
 20
11.9901827889
 30
0.0
 10
16.0527197338
 20
11.9807394331
 30
0.0
 10
16.0469336703
 20
11.9668857343
 30
0.0
 10
16.040245946
 20
11.9533530301
 30
0.0
 10
16.0326661467
 20
11.9401605625
 30
0.0
 10
16.0242048026
 20
11.9273260354
 30
0.0
 10
16.0148737261
 20
11.9148668326
 30
0.0
 10
16.0046858612
 20
11.9027996658
 30
0.0
 10
15.9936552731
 20
11.8911406565
 30
0.0
 10
15.9817971064
 20
11.8799053065
 30
0.0
 10
15.9691275575
 20
11.8691085027
 30
0.0
 10
15.9556638527
 20
11.8587645151
 30
0.0
 10
15.9414242222
 20
11.848886984
 30
0.0
 10
15.9264279121
 20
11.8394889356
 30
0.0
 10
15.9106950263
 20
11.8305827115
 30
0.0
 10
15.8942470406
 20
11.8221801999
 30
0.0
 10
15.882941127
 20
11.8169776073
 30
0.0
 10
15.8771793314
 20
11.8144607696
 30
0.0
  0
SPLINE
  5
2E4
100
AcDbEntity
  8
LAYER_CUT_FEAT
100
AcDbSpline
 62
7
  6
CONTINUOUS
 70
0
 71
3
 72
9
 73
5
 74
0
 42
0.0000001
 43
0.0000001
 44
0.0000000001
 40
0.0
 40
0.0
 40
0.0
 40
0.0
 40
0.255070711
 40
1.0
 40
1.0
 40
1.0
 40
1.0
 10
14.7429832337
 20
12.1649534661
 30
0.0
 10
14.7408968813
 20
12.1682846989
 30
0.0
 10
14.7328765999
 20
12.1814434151
 30
0.0
 10
14.7255078008
 20
12.1950020963
 30
0.0
 10
14.7204506441
 20
12.2053074982
 30
0.0
  0
SPLINE
  5
2E5
100
AcDbEntity
  8
02___PRT_ALL_AXES
100
AcDbSpline
 62
7
  6
CONTINUOUS
 70
0
 71
3
 72
38
 73
34
 74
0
 42
0.0000001
 43
0.0000001
 44
0.0000000001
 40
0.0
 40
0.0
 40
0.0
 40
0.0
 40
0.0265599238
 40
0.0531108491
 40
0.0797218896
 40
0.1064629004
 40
0.133403076
 40
0.1606094879
 40
0.1881454784
 40
0.2160692051
 40
0.2444321499
 40
0.2732779369
 40
0.302641255
 40
0.3325471224
 40
0.3630103679
 40
0.3940353692
 40
0.4577064281
 40
0.4903393218
 40
0.5234492221
 40
0.5569911841
 40
0.5909118513
 40
0.6251500537
 40
0.6596375827
 40
0.6942998854
 40
0.729056988
 40
0.7638243893
 40
0.7985141598
 40
0.8330361535
 40
0.8672992842
 40
0.9012132377
 40
0.9346895988
 40
0.9676448299
 40
1.0
 40
1.0
 40
1.0
 40
1.0
 10
15.2333063708
 20
12.4877014357
 30
0.0
 10
15.2339300741
 20
12.4864304517
 30
0.0
 10
15.2350656926
 20
12.4838323561
 30
0.0
 10
15.2364172256
 20
12.4797978298
 30
0.0
 10
15.2374079373
 20
12.4756496312
 30
0.0
 10
15.2380314663
 20
12.4714097619
 30
0.0
 10
15.2382835661
 20
12.4670999857
 30
0.0
 10
15.2381618838
 20
12.4627422992
 30
0.0
 10
15.2376661156
 20
12.4583585935
 30
0.0
 10
15.2367980254
 20
12.4539705328
 30
0.0
 10
15.2355614655
 20
12.4495993693
 30
0.0
 10
15.2339623547
 20
12.4452657984
 30
0.0
 10
15.2320086144
 20
12.4409897899
 30
0.0
 10
15.229710156
 20
12.4367905528
 30
0.0
 10
15.2270785082
 20
12.4326861199
 30
0.0
 10
15.2231103233
 20
12.4273181595
 30
0.0
 10
15.2185566479
 20
12.4222579635
 30
0.0
 10
15.2135133326
 20
12.4175477076
 30
0.0
 10
15.2094472734
 20
12.4141554975
 30
0.0
 10
15.2051500142
 20
12.4109461701
 30
0.0
 10
15.2006422569
 20
12.4079304555
 30
0.0
 10
15.1959459443
 20
12.4051185734
 30
0.0
 10
15.1910836966
 20
12.4025197587
 30
0.0
 10
15.1860788561
 20
12.4001424407
 30
0.0
 10
15.1809553699
 20
12.39799424
 30
0.0
 10
15.1757377124
 20
12.3960819984
 30
0.0
 10
15.1704507866
 20
12.3944117897
 30
0.0
 10
15.1651198216
 20
12.3929889241
 30
0.0
 10
15.1597702385
 20
12.3918179333
 30
0.0
 10
15.1544275532
 20
12.3909025808
 30
0.0
 10
15.1491171022
 20
12.3902458008
 30
0.0
 10
15.1438642536
 20
12.3898497607
 30
0.0
 10
15.1403823202
 20
12.3897595271
 30
0.0
 10
15.1386576353
 20
12.3897595271
 30
0.0
  0
SPLINE
  5
2E6
100
AcDbEntity
  8
LAYER_FEATURE
100
AcDbSpline
 62
7
  6
CONTINUOUS
 70
0
 71
3
 72
66
 73
62
 74
0
 42
0.0000001
 43
0.0000001
 44
0.0000000001
 40
0.0
 40
0.0
 40
0.0
 40
0.0
 40
0.017178901
 40
0.0345307647
 40
0.0520448452
 40
0.0697107135
 40
0.0875171985
 40
0.1054529495
 40
0.1235062925
 40
0.1416652975
 40
0.159917808
 40
0.1782514655
 40
0.2151103379
 40
0.2521417322
 40
0.2892423763
 40
0.3263084234
 40
0.3632363133
 40
0.3816171919
 40
0.3999252739
 40
0.4181480824
 40
0.436273323
 40
0.4542889113
 40
0.4721830016
 40
0.4899440164
 40
0.5075606771
 40
0.5250220355
 40
0.5423175043
 40
0.5594368896
 40
0.576370424
 40
0.5931088024
 40
0.6096432197
 40
0.6259654062
 40
0.6420676671
 40
0.6579429225
 40
0.6735847504
 40
0.6889874332
 40
0.7041460037
 40
0.7190562919
 40
0.7337149761
 40
0.7481196355
 40
0.762268807
 40
0.7761620418
 40
0.7897999613
 40
0.8031843155
 40
0.8163180417
 40
0.8292053235
 40
0.8418516467
 40
0.8542638489
 40
0.8664501639
 40
0.8784202578
 40
0.8901852544
 40
0.9017577467
 40
0.9131517873
 40
0.9243828583
 40
0.9354678172
 40
0.9464248153
 40
0.9572731887
 40
0.9680333181
 40
0.9787264597
 40
0.9893745517
 40
1.0
 40
1.0
 40
1.0
 40
1.0
 10
15.260476468
 20
13.4379124559
 30
0.0
 10
15.2704379417
 20
13.4379124559
 30
0.0
 10
15.2904618239
 20
13.4376932656
 30
0.0
 10
15.3206273084
 20
13.4367193503
 30
0.0
 10
15.3510478805
 20
13.4350995524
 30
0.0
 10
15.3816915551
 20
13.432835624
 30
0.0
 10
15.4125266099
 20
13.4299298792
 30
0.0
 10
15.4435208897
 20
13.4263853593
 30
0.0
 10
15.4746421633
 20
13.422205749
 30
0.0
 10
15.5058579981
 20
13.4173954075
 30
0.0
 10
15.5371360437
 20
13.4119593283
 30
0.0
 10
15.5789513105
 20
13.4038705233
 30
0.0
 10
15.6311604547
 20
13.3922291902
 30
0.0
 10
15.6934271678
 20
13.3758920555
 30
0.0
 10
15.7551631379
 20
13.3572301557
 30
0.0
 10
15.8161107061
 20
13.3363213523
 30
0.0
 10
15.8661103025
 20
13.3170673949
 30
0.0
 10
15.9055007899
 20
13.3006105008
 30
0.0
 10
15.9346458963
 20
13.2877819462
 30
0.0
 10
15.9634066497
 20
13.2744626372
 30
0.0
 10
15.9917532404
 20
13.2606663744
 30
0.0
 10
16.0196561309
 20
13.2464075349
 30
0.0
 10
16.0470862872
 20
13.2317009536
 30
0.0
 10
16.0740151557
 20
13.2165619335
 30
0.0
 10
16.1004147103
 20
13.2010062279
 30
0.0
 10
16.1262574793
 20
13.1850500265
 30
0.0
 10
16.1515165706
 20
13.1687099311
 30
0.0
 10
16.176165699
 20
13.1520029399
 30
0.0
 10
16.2001792136
 20
13.1349464292
 30
0.0
 10
16.2235321258
 20
13.1175581356
 30
0.0
 10
16.2462001407
 20
13.0998561436
 30
0.0
 10
16.2681596762
 20
13.0818588583
 30
0.0
 10
16.2893878857
 20
13.0635849863
 30
0.0
 10
16.3098626824
 20
13.0450535172
 30
0.0
 10
16.3295627601
 20
13.0262837006
 30
0.0
 10
16.3484676247
 20
13.0072950342
 30
0.0
 10
16.3665576082
 20
12.988107236
 30
0.0
 10
16.3838138855
 20
12.9687402229
 30
0.0
 10
16.4002184928
 20
12.9492140905
 30
0.0
 10
16.4157543438
 20
12.9295490905
 30
0.0
 10
16.430405253
 20
12.9097656136
 30
0.0
 10
16.4441559513
 20
12.8898841685
 30
0.0
 10
16.4569920915
 20
12.8699253558
 30
0.0
 10
16.4689002619
 20
12.8499098506
 30
0.0
 10
16.4798679957
 20
12.8298583812
 30
0.0
 10
16.4898837853
 20
12.8097917109
 30
0.0
 10
16.4989371006
 20
12.7897306235
 30
0.0
 10
16.5070183847
 20
12.7696958995
 30
0.0
 10
16.5141190631
 20
12.7497083023
 30
0.0
 10
16.5202315512
 20
12.7297885635
 30
0.0
 10
16.5253492621
 20
12.7099573673
 30
0.0
 10
16.5294666313
 20
12.6902353408
 30
0.0
 10
16.5325791152
 20
12.6706430363
 30
0.0
 10
16.5346832011
 20
12.6512009192
 30
0.0
 10
16.5357764212
 20
12.6319293517
 30
0.0
 10
16.5358573673
 20
12.6128485816
 30
0.0
 10
16.5349257134
 20
12.5939786977
 30
0.0
 10
16.5329822543
 20
12.5753396903
 30
0.0
 10
16.5300288092
 20
12.5569511007
 30
0.0
 10
16.5260686067
 20
12.5388331793
 30
0.0
 10
16.5227582969
 20
12.5269417938
 30
0.0
 10
16.5209391786
 20
12.5210551163
 30
0.0
  0
SPLINE
  5
2E7
100
AcDbEntity
  8
02___PRT_ALL_AXES
100
AcDbSpline
 62
7
  6
CONTINUOUS
 70
0
 71
3
 72
56
 73
52
 74
0
 42
0.0000001
 43
0.0000001
 44
0.0000000001
 40
0.0
 40
0.0
 40
0.0
 40
0.0
 40
0.0106256372
 40
0.0212739184
 40
0.03196725
 40
0.0427275708
 40
0.0535761374
 40
0.0645333303
 40
0.0756184858
 40
0.0868497563
 40
0.0982439997
 40
0.1098166982
 40
0.1215819042
 40
0.1335522103
 40
0.1457387415
 40
0.1581511645
 40
0.1707977132
 40
0.1836852246
 40
0.1968191838
 40
0.2102037751
 40
0.223841937
 40
0.2377354194
 40
0.2518848433
 40
0.2662897586
 40
0.2809487024
 40
0.2958592553
 40
0.3110180958
 40
0.3264210534
 40
0.3420631595
 40
0.3579386963
 40
0.3740412428
 40
0.3903637197
 40
0.4068984317
 40
0.4236371082
 40
0.4405709432
 40
0.4576906321
 40
0.4924461504
 40
0.5278226278
 40
0.5637311965
 40
0.6000782075
 40
0.6367661817
 40
0.6736947281
 40
0.7107614342
 40
0.7478627378
 40
0.7848947907
 40
0.821754318
 40
0.8583394846
 40
0.8945507718
 40
0.9302918757
 40
0.9654706406
 40
1.0
 40
1.0
 40
1.0
 40
1.0
 10
14.73534997
 20
12.1400554519
 30
0.0
 10
14.7342703222
 20
12.1365617091
 30
0.0
 10
14.7323056551
 20
12.1295041713
 30
0.0
 10
14.7299552719
 20
12.1187511858
 30
0.0
 10
14.7282024015
 20
12.1078375578
 30
0.0
 10
14.7270489594
 20
12.0967753066
 30
0.0
 10
14.726496025
 20
12.0855760303
 30
0.0
 10
14.7265440668
 20
12.0742515933
 30
0.0
 10
14.7271928908
 20
12.0628139181
 30
0.0
 10
14.7284416646
 20
12.0512750215
 30
0.0
 10
14.7302889245
 20
12.0396469887
 30
0.0
 10
14.732732585
 20
12.027941966
 30
0.0
 10
14.7357699475
 20
12.0161721513
 30
0.0
 10
14.7393977071
 20
12.004349786
 30
0.0
 10
14.7436119583
 20
11.9924871468
 30
0.0
 10
14.7484082007
 20
11.980596538
 30
0.0
 10
14.753781345
 20
11.9686902829
 30
0.0
 10
14.7597257178
 20
11.9567807147
 30
0.0
 10
14.7662350663
 20
11.9448801671
 30
0.0
 10
14.7733025636
 20
11.9330009642
 30
0.0
 10
14.7809208127
 20
11.9211554087
 30
0.0
 10
14.7890818535
 20
11.9093557714
 30
0.0
 10
14.7977771699
 20
11.8976142786
 30
0.0
 10
14.8069976971
 20
11.885943101
 30
0.0
 10
14.8167338295
 20
11.8743543404
 30
0.0
 10
14.8269754293
 20
11.8628600177
 30
0.0
 10
14.8377118354
 20
11.8514720598
 30
0.0
 10
14.8489318743
 20
11.8402022872
 30
0.0
 10
14.8606238712
 20
11.8290624016
 30
0.0
 10
14.8727756612
 20
11.8180639735
 30
0.0
 10
14.8853746025
 20
11.8072184294
 30
0.0
 10
14.8984075863
 20
11.7965370414
 30
0.0
 10
14.9118610576
 20
11.7860309075
 30
0.0
 10
14.9257210009
 20
11.7757109664
 30
0.0
 10
14.939973064
 20
11.7655878882
 30
0.0
 10
14.9595763279
 20
11.7523009884
 30
0.0
 10
14.9849723001
 20
11.7362615188
 30
0.0
 10
15.0166136163
 20
11.7180599046
 30
0.0
 10
15.0494422362
 20
11.7008833244
 30
0.0
 10
15.0833214587
 20
11.6848033051
 30
0.0
 10
15.1181107184
 20
11.6698865406
 30
0.0
 10
15.153665495
 20
11.6561949982
 30
0.0
 10
15.1898381089
 20
11.6437855484
 30
0.0
 10
15.2264782885
 20
11.6327097426
 30
0.0
 10
15.2634338217
 20
11.6230135915
 30
0.0
 10
15.3005511864
 20
11.6147373764
 30
0.0
 10
15.3376762274
 20
11.6079154724
 30
0.0
 10
15.3746546981
 20
11.6025762139
 30
0.0
 10
15.4113333247
 20
11.5987417818
 30
0.0
 10
15.4475589453
 20
11.5964281189
 30
0.0
 10
15.4715514892
 20
11.5959006207
 30
0.0
 10
15.4834345889
 20
11.5959006207
 30
0.0
  0
SPLINE
  5
2E8
100
AcDbEntity
  8
02___PRT_ALL_AXES
100
AcDbSpline
 62
7
  6
CONTINUOUS
 70
0
 71
3
 72
39
 73
35
 74
0
 42
0.0000001
 43
0.0000001
 44
0.0000000001
 40
0.0
 40
0.0
 40
0.0
 40
0.0
 40
0.0248034971
 40
0.0496643332
 40
0.0746391943
 40
0.0997834849
 40
0.1251507431
 40
0.1507921178
 40
0.1767559204
 40
0.2030872601
 40
0.2298277621
 40
0.2570153683
 40
0.2846842112
 40
0.3128645574
 40
0.3415828095
 40
0.3708615532
 40
0.4007196421
 40
0.4311723103
 40
0.4622313085
 40
0.4939050522
 40
0.5261987786
 40
0.5591147051
 40
0.5926521913
 40
0.6268078997
 40
0.6615759515
 40
0.6969480768
 40
0.7329137591
 40
0.7694603762
 40
0.8065733343
 40
0.8442361955
 40
0.8824307956
 40
0.9211373856
 40
0.9603346178
 40
1.0
 40
1.0
 40
1.0
 40
1.0
 10
15.8694345121
 20
11.7895968219
 30
0.0
 10
15.8683098956
 20
11.7859575601
 30
0.0
 10
15.8658432518
 20
11.7787350267
 30
0.0
 10
15.8615069411
 20
11.7681178865
 30
0.0
 10
15.8565373508
 20
11.7577236147
 30
0.0
 10
15.8509404478
 20
11.7475646328
 30
0.0
 10
15.8447227388
 20
11.7376524182
 30
0.0
 10
15.8378914974
 20
11.7279982884
 30
0.0
 10
15.8304546779
 20
11.7186131713
 30
0.0
 10
15.8224209102
 20
11.7095076586
 30
0.0
 10
15.8137994767
 20
11.7006919842
 30
0.0
 10
15.8046002975
 20
11.6921760262
 30
0.0
 10
15.7948339175
 20
11.6839693005
 30
0.0
 10
15.784511493
 20
11.6760809597
 30
0.0
 10
15.7736447788
 20
11.668519791
 30
0.0
 10
15.7622461178
 20
11.6612942112
 30
0.0
 10
15.7503284306
 20
11.6544122621
 30
0.0
 10
15.7379052059
 20
11.647881602
 30
0.0
 10
15.7249904867
 20
11.6417095023
 30
0.0
 10
15.7115988579
 20
11.6359028394
 30
0.0
 10
15.6977454332
 20
11.6304680884
 30
0.0
 10
15.6834458415
 20
11.6254113133
 30
0.0
 10
15.6687162109
 20
11.6207381606
 30
0.0
 10
15.6535731519
 20
11.6164538532
 30
0.0
 10
15.6380337398
 20
11.612563184
 30
0.0
 10
15.6221154974
 20
11.609070509
 30
0.0
 10
15.605836376
 20
11.6059797393
 30
0.0
 10
15.5892147353
 20
11.6032943388
 30
0.0
 10
15.5722693236
 20
11.6010173187
 30
0.0
 10
15.555019254
 20
11.5991512343
 30
0.0
 10
15.5374839937
 20
11.5976981783
 30
0.0
 10
15.5196833064
 20
11.5966597827
 30
0.0
 10
15.5016373856
 20
11.5960372064
 30
0.0
 10
15.4895259914
 20
11.5959006207
 30
0.0
 10
15.4834345889
 20
11.5959006207
 30
0.0
  0
SPLINE
  5
2E9
100
AcDbEntity
  8
LAYER_CHAMFER_FEAT
100
AcDbSpline
 62
7
  6
CONTINUOUS
 70
0
 71
3
 72
11
 73
7
 74
0
 42
0.0000001
 43
0.0000001
 44
0.0000000001
 40
0.0
 40
0.0
 40
0.0
 40
0.0
 40
0.2617773449
 40
0.5161275395
 40
0.762384425
 40
1.0
 40
1.0
 40
1.0
 40
1.0
 10
15.2585424727
 20
12.0541825698
 30
0.0
 10
15.2552453576
 20
12.0541825698
 30
0.0
 10
15.2487432641
 20
12.0540188953
 30
0.0
 10
15.2391660859
 20
12.0532609685
 30
0.0
 10
15.2299490548
 20
12.0519982673
 30
0.0
 10
15.2239681436
 20
12.0508022442
 30
0.0
 10
15.22105483
 20
12.0501170978
 30
0.0
  0
SPLINE
  5
2EA
100
AcDbEntity
  8
LAYER_CHAMFER_FEAT
100
AcDbSpline
 62
7
  6
CONTINUOUS
 70
0
 71
3
 72
23
 73
19
 74
0
 42
0.0000001
 43
0.0000001
 44
0.0000000001
 40
0.0
 40
0.0
 40
0.0
 40
0.0
 40
0.0614590506
 40
0.1243125127
 40
0.1883141459
 40
0.2531994683
 40
0.318692965
 40
0.3845108487
 40
0.4503651286
 40
0.5159673462
 40
0.581032323
 40
0.645281953
 40
0.7084491062
 40
0.7702816944
 40
0.8305469407
 40
0.8890359703
 40
0.9455688198
 40
1.0
 40
1.0
 40
1.0
 40
1.0
 10
15.2585424727
 20
12.0541825698
 30
0.0
 10
15.2621532916
 20
12.0541825698
 30
0.0
 10
15.2694581665
 20
12.0539811898
 30
0.0
 10
15.2804915614
 20
12.0531037606
 30
0.0
 10
15.2916674146
 20
12.0516529717
 30
0.0
 10
15.3029128128
 20
12.0496382105
 30
0.0
 10
15.3141548401
 20
12.0470725774
 30
0.0
 10
15.3253204613
 20
12.0439727234
 30
0.0
 10
15.3363371598
 20
12.0403587916
 30
0.0
 10
15.3471333747
 20
12.0362542577
 30
0.0
 10
15.3576389885
 20
12.0316857791
 30
0.0
 10
15.3677857881
 20
12.02668301
 30
0.0
 10
15.3775079167
 20
12.02127841
 30
0.0
 10
15.3867423278
 20
12.0155070022
 30
0.0
 10
15.3954291312
 20
12.009406177
 30
0.0
 10
15.4035121935
 20
12.0030151939
 30
0.0
 10
15.4109387233
 20
11.9963757084
 30
0.0
 10
15.4155105821
 20
11.9917198249
 30
0.0
 10
15.4176678105
 20
11.9893590923
 30
0.0
  0
SPLINE
  5
2EB
100
AcDbEntity
  8
LAYER_FEATURE
100
AcDbSpline
 62
7
  6
CONTINUOUS
 70
0
 71
3
 72
39
 73
35
 74
0
 42
0.0000001
 43
0.0000001
 44
0.0000000001
 40
0.0
 40
0.0
 40
0.0
 40
0.0
 40
0.0396651873
 40
0.0788627135
 40
0.1175691664
 40
0.1557638124
 40
0.1934266623
 40
0.2305396249
 40
0.2670862421
 40
0.3030519225
 40
0.3384240463
 40
0.3731920979
 40
0.4073478077
 40
0.4408852955
 40
0.4738012226
 40
0.506094948
 40
0.5377686906
 40
0.5688276881
 40
0.5992803563
 40
0.6291384461
 40
0.6584171915
 40
0.687135444
 40
0.715315789
 40
0.7429846304
 40
0.7701722362
 40
0.7969127392
 40
0.8232440802
 40
0.8492078832
 40
0.8748492573
 40
0.9002165149
 40
0.9253608053
 40
0.9503356665
 40
0.9751965027
 40
1.0
 40
1.0
 40
1.0
 40
1.0
 10
15.0813473886
 20
12.8582505428
 30
0.0
 10
15.0710839134
 20
12.8582505428
 30
0.0
 10
15.0506771581
 20
12.8580203986
 30
0.0
 10
15.0202712352
 20
12.8569714246
 30
0.0
 10
14.9902784504
 20
12.8552217912
 30
0.0
 10
14.9607329661
 20
12.8527735189
 30
0.0
 10
14.9316679698
 20
12.8496293127
 30
0.0
 10
14.9031163085
 20
12.845792721
 30
0.0
 10
14.8751101736
 20
12.8412680357
 30
0.0
 10
14.8476811583
 20
12.8360603335
 30
0.0
 10
14.8208601954
 20
12.8301754531
 30
0.0
 10
14.79467753
 20
12.8236199872
 30
0.0
 10
14.7691626864
 20
12.8164012741
 30
0.0
 10
14.7443444362
 20
12.8085273878
 30
0.0
 10
14.7202507681
 20
12.8000071271
 30
0.0
 10
14.6969088574
 20
12.7908500048
 30
0.0
 10
14.6743450361
 20
12.7810662414
 30
0.0
 10
14.6525847688
 20
12.7706667467
 30
0.0
 10
14.6316526295
 20
12.7596631072
 30
0.0
 10
14.6115722792
 20
12.7480675746
 30
0.0
 10
14.5923664452
 20
12.7358930536
 30
0.0
 10
14.574056901
 20
12.7231530898
 30
0.0
 10
14.5566644442
 20
12.7098618649
 30
0.0
 10
14.5402088786
 20
12.6960341868
 30
0.0
 10
14.5247089986
 20
12.6816854786
 30
0.0
 10
14.5101825707
 20
12.6668317748
 30
0.0
 10
14.4966463118
 20
12.6514897167
 30
0.0
 10
14.484115865
 20
12.6356765461
 30
0.0
 10
14.4726057733
 20
12.6194101079
 30
0.0
 10
14.4621294337
 20
12.6027088187
 30
0.0
 10
14.4526991008
 20
12.5855917472
 30
0.0
 10
14.4443257375
 20
12.5680782318
 30
0.0
 10
14.4370194007
 20
12.5501892006
 30
0.0
 10
14.4328632982
 20
12.5380198114
 30
0.0
 10
14.4309684113
 20
12.5318879459
 30
0.0
  0
SPLINE
  5
2EC
100
AcDbEntity
  8
LAYER_FEATURE
100
AcDbSpline
 62
7
  6
CONTINUOUS
 70
0
 71
3
 72
39
 73
35
 74
0
 42
0.0000001
 43
0.0000001
 44
0.0000000001
 40
0.0
 40
0.0
 40
0.0
 40
0.0
 40
0.0396651873
 40
0.0788627135
 40
0.1175691664
 40
0.1557638124
 40
0.1934266623
 40
0.2305396249
 40
0.2670862421
 40
0.3030519225
 40
0.3384240463
 40
0.3731920979
 40
0.4073478077
 40
0.4408852955
 40
0.4738012226
 40
0.506094948
 40
0.5377686906
 40
0.5688276881
 40
0.5992803563
 40
0.6291384461
 40
0.6584171915
 40
0.687135444
 40
0.715315789
 40
0.7429846304
 40
0.7701722362
 40
0.7969127392
 40
0.8232440802
 40
0.8492078832
 40
0.8748492573
 40
0.9002165149
 40
0.9253608053
 40
0.9503356665
 40
0.9751965027
 40
1.0
 40
1.0
 40
1.0
 40
1.0
 10
15.260476468
 20
13.4379124559
 30
0.0
 10
15.2502129927
 20
13.4379124559
 30
0.0
 10
15.2298062375
 20
13.4376823117
 30
0.0
 10
15.1994003146
 20
13.4366333378
 30
0.0
 10
15.1694075297
 20
13.4348837043
 30
0.0
 10
15.1398620454
 20
13.432435432
 30
0.0
 10
15.1107970491
 20
13.4292912258
 30
0.0
 10
15.0822453878
 20
13.4254546341
 30
0.0
 10
15.0542392529
 20
13.4209299489
 30
0.0
 10
15.0268102377
 20
13.4157222467
 30
0.0
 10
14.9999892748
 20
13.4098373663
 30
0.0
 10
14.9738066093
 20
13.4032819003
 30
0.0
 10
14.9482917657
 20
13.3960631873
 30
0.0
 10
14.9234735155
 20
13.3881893009
 30
0.0
 10
14.8993798474
 20
13.3796690403
 30
0.0
 10
14.8760379367
 20
13.3705119179
 30
0.0
 10
14.8534741154
 20
13.3607281546
 30
0.0
 10
14.8317138481
 20
13.3503286598
 30
0.0
 10
14.8107817088
 20
13.3393250203
 30
0.0
 10
14.7907013586
 20
13.3277294877
 30
0.0
 10
14.7714955245
 20
13.3155549667
 30
0.0
 10
14.7531859803
 20
13.3028150029
 30
0.0
 10
14.7357935236
 20
13.289523778
 30
0.0
 10
14.7193379579
 20
13.2756960999
 30
0.0
 10
14.7038380779
 20
13.2613473918
 30
0.0
 10
14.68931165
 20
13.2464936879
 30
0.0
 10
14.6757753911
 20
13.2311516298
 30
0.0
 10
14.6632449443
 20
13.2153384593
 30
0.0
 10
14.6517348526
 20
13.199072021
 30
0.0
 10
14.641258513
 20
13.1823707319
 30
0.0
 10
14.6318281801
 20
13.1652536604
 30
0.0
 10
14.6234548168
 20
13.147740145
 30
0.0
 10
14.61614848
 20
13.1298511138
 30
0.0
 10
14.6119923775
 20
13.1176817245
 30
0.0
 10
14.6100974906
 20
13.1115498591
 30
0.0
  0
SPLINE
  5
2ED
100
AcDbEntity
  8
LAYER_FEATURE
100
AcDbSpline
 62
7
  6
CONTINUOUS
 70
0
 71
3
 72
66
 73
62
 74
0
 42
0.0000001
 43
0.0000001
 44
0.0000000001
 40
0.0
 40
0.0
 40
0.0
 40
0.0
 40
0.017178901
 40
0.0345307647
 40
0.0520448452
 40
0.0697107135
 40
0.0875171985
 40
0.1054529495
 40
0.1235062925
 40
0.1416652975
 40
0.159917808
 40
0.1782514655
 40
0.2151103379
 40
0.2521417322
 40
0.2892423763
 40
0.3263084234
 40
0.3632363133
 40
0.3816171919
 40
0.3999252739
 40
0.4181480824
 40
0.436273323
 40
0.4542889113
 40
0.4721830016
 40
0.4899440164
 40
0.5075606771
 40
0.5250220355
 40
0.5423175043
 40
0.5594368896
 40
0.576370424
 40
0.5931088024
 40
0.6096432197
 40
0.6259654062
 40
0.6420676671
 40
0.6579429225
 40
0.6735847504
 40
0.6889874332
 40
0.7041460037
 40
0.7190562919
 40
0.7337149761
 40
0.7481196355
 40
0.762268807
 40
0.7761620418
 40
0.7897999613
 40
0.8031843155
 40
0.8163180417
 40
0.8292053235
 40
0.8418516467
 40
0.8542638489
 40
0.8664501639
 40
0.8784202578
 40
0.8901852544
 40
0.9017577467
 40
0.9131517873
 40
0.9243828583
 40
0.9354678172
 40
0.9464248153
 40
0.9572731887
 40
0.9680333181
 40
0.9787264597
 40
0.9893745517
 40
1.0
 40
1.0
 40
1.0
 40
1.0
 10
15.0813473886
 20
12.8582505428
 30
0.0
 10
15.0913088624
 20
12.8582505428
 30
0.0
 10
15.1113327446
 20
12.8580313525
 30
0.0
 10
15.1414982291
 20
12.8570574371
 30
0.0
 10
15.1719188011
 20
12.8554376393
 30
0.0
 10
15.2025624757
 20
12.8531737108
 30
0.0
 10
15.2333975306
 20
12.8502679661
 30
0.0
 10
15.2643918104
 20
12.8467234462
 30
0.0
 10
15.295513084
 20
12.8425438359
 30
0.0
 10
15.3267289188
 20
12.8377334943
 30
0.0
 10
15.3580069643
 20
12.8322974152
 30
0.0
 10
15.3998222312
 20
12.8242086102
 30
0.0
 10
15.4520313754
 20
12.8125672771
 30
0.0
 10
15.5142980885
 20
12.7962301423
 30
0.0
 10
15.5760340586
 20
12.7775682426
 30
0.0
 10
15.6369816268
 20
12.7566594392
 30
0.0
 10
15.6869812232
 20
12.7374054817
 30
0.0
 10
15.7263717105
 20
12.7209485877
 30
0.0
 10
15.755516817
 20
12.7081200331
 30
0.0
 10
15.7842775704
 20
12.6948007241
 30
0.0
 10
15.8126241611
 20
12.6810044613
 30
0.0
 10
15.8405270515
 20
12.6667456218
 30
0.0
 10
15.8679572079
 20
12.6520390405
 30
0.0
 10
15.8948860764
 20
12.6369000204
 30
0.0
 10
15.921285631
 20
12.6213443148
 30
0.0
 10
15.9471284
 20
12.6053881134
 30
0.0
 10
15.9723874912
 20
12.589048018
 30
0.0
 10
15.9970366197
 20
12.5723410268
 30
0.0
 10
16.0210501343
 20
12.5552845161
 30
0.0
 10
16.0444030465
 20
12.5378962224
 30
0.0
 10
16.0670710614
 20
12.5201942305
 30
0.0
 10
16.0890305968
 20
12.5021969451
 30
0.0
 10
16.1102588064
 20
12.4839230732
 30
0.0
 10
16.130733603
 20
12.4653916041
 30
0.0
 10
16.1504336808
 20
12.4466217875
 30
0.0
 10
16.1693385454
 20
12.4276331211
 30
0.0
 10
16.1874285289
 20
12.4084453229
 30
0.0
 10
16.2046848062
 20
12.3890783097
 30
0.0
 10
16.2210894135
 20
12.3695521774
 30
0.0
 10
16.2366252645
 20
12.3498871773
 30
0.0
 10
16.2512761737
 20
12.3301037005
 30
0.0
 10
16.265026872
 20
12.3102222554
 30
0.0
 10
16.2778630122
 20
12.2902634427
 30
0.0
 10
16.2897711826
 20
12.2702479374
 30
0.0
 10
16.3007389163
 20
12.250196468
 30
0.0
 10
16.310754706
 20
12.2301297978
 30
0.0
 10
16.3198080212
 20
12.2100687104
 30
0.0
 10
16.3278893054
 20
12.1900339864
 30
0.0
 10
16.3349899837
 20
12.1700463892
 30
0.0
 10
16.3411024719
 20
12.1501266504
 30
0.0
 10
16.3462201827
 20
12.1302954541
 30
0.0
 10
16.3503375519
 20
12.1105734277
 30
0.0
 10
16.3534500359
 20
12.0909811232
 30
0.0
 10
16.3555541218
 20
12.0715390061
 30
0.0
 10
16.3566473418
 20
12.0522674385
 30
0.0
 10
16.356728288
 20
12.0331866685
 30
0.0
 10
16.3557966341
 20
12.0143167846
 30
0.0
 10
16.353853175
 20
11.9956777772
 30
0.0
 10
16.3508997299
 20
11.9772891876
 30
0.0
 10
16.3469395273
 20
11.9591712662
 30
0.0
 10
16.3436292175
 20
11.9472798807
 30
0.0
 10
16.3418100993
 20
11.9413932031
 30
0.0
  0
SPLINE
  5
2EE
100
AcDbEntity
  8
LAYER_FEATURE
100
AcDbSpline
 62
7
  6
CONTINUOUS
 70
0
 71
3
 72
15
 73
11
 74
0
 42
0.0000001
 43
0.0000001
 44
0.0000000001
 40
0.0
 40
0.0
 40
0.0
 40
0.0
 40
0.1190302099
 40
0.2390393232
 40
0.3604445133
 40
0.483625362
 40
0.6089165139
 40
0.7365994725
 40
0.8669049115
 40
1.0
 40
1.0
 40
1.0
 40
1.0
 10
15.0881334495
 20
12.4117991133
 30
0.0
 10
15.0876887411
 20
12.4130123744
 30
0.0
 10
15.0869051975
 20
12.415490574
 30
0.0
 10
15.0860603511
 20
12.4193161944
 30
0.0
 10
15.0855455682
 20
12.4232456215
 30
0.0
 10
15.0853629644
 20
12.4272615232
 30
0.0
 10
15.0855130351
 20
12.4313467438
 30
0.0
 10
15.0859948794
 20
12.4354839001
 30
0.0
 10
15.086806145
 20
12.4396551214
 30
0.0
 10
15.0875561608
 20
12.4424174582
 30
0.0
 10
15.087982759
 20
12.4437979302
 30
0.0
  0
SPLINE
  5
2EF
100
AcDbEntity
  8
02___PRT_ALL_AXES
100
AcDbSpline
 62
7
  6
CONTINUOUS
 70
0
 71
3
 72
35
 73
31
 74
0
 42
0.0000001
 43
0.0000001
 44
0.0000000001
 40
0.0
 40
0.0
 40
0.0
 40
0.0
 40
0.0237350246
 40
0.0477061517
 40
0.0720517489
 40
0.0968953093
 40
0.1223417768
 40
0.1484753172
 40
0.1753583155
 40
0.2030315976
 40
0.231515358
 40
0.2608108228
 40
0.2909021664
 40
0.3217587288
 40
0.3533372502
 40
0.3855840873
 40
0.4184373605
 40
0.4518288878
 40
0.4856860081
 40
0.5199331442
 40
0.5544931904
 40
0.5892887322
 40
0.6592592188
 40
0.7292743064
 40
0.798789231
 40
0.8673236436
 40
0.901108587
 40
0.9345054516
 40
0.9674792329
 40
1.0
 40
1.0
 40
1.0
 40
1.0
 10
15.0860783874
 20
12.4154524354
 30
0.0
 10
15.085525461
 20
12.4165791913
 30
0.0
 10
15.0845272367
 20
12.4189013856
 30
0.0
 10
15.0833740193
 20
12.4225388305
 30
0.0
 10
15.0825637583
 20
12.426327753
 30
0.0
 10
15.0820990605
 20
12.4302524798
 30
0.0
 10
15.0819807186
 20
12.4342970659
 30
0.0
 10
15.082208146
 20
12.438444583
 30
0.0
 10
15.0827793252
 20
12.4426773295
 30
0.0
 10
15.083690868
 20
12.4469767879
 30
0.0
 10
15.0849380235
 20
12.4513236877
 30
0.0
 10
15.0865147003
 20
12.4556980701
 30
0.0
 10
15.0884134882
 20
12.4600793965
 30
0.0
 10
15.0906256987
 20
12.4644466716
 30
0.0
 10
15.0931414127
 20
12.4687785874
 30
0.0
 10
15.0959495458
 20
12.4730536702
 30
0.0
 10
15.0990379138
 20
12.4772504305
 30
0.0
 10
15.1023933022
 20
12.4813475026
 30
0.0
 10
15.1060015443
 20
12.485323792
 30
0.0
 10
15.109847525
 20
12.4891585536
 30
0.0
 10
15.1139154422
 20
12.4928316908
 30
0.0
 10
15.1196223176
 20
12.497495249
 30
0.0
 10
15.1272059823
 20
12.5028071844
 30
0.0
 10
15.1368866347
 20
12.5082324934
 30
0.0
 10
15.1470071626
 20
12.5125993581
 30
0.0
 10
15.1557097628
 20
12.5152837746
 30
0.0
 10
15.1627270871
 20
12.5168039064
 30
0.0
 10
15.1679633307
 20
12.5176204781
 30
0.0
 10
15.1731725118
 20
12.5181134632
 30
0.0
 10
15.1766368088
 20
12.5182251403
 30
0.0
 10
15.1783565124
 20
12.5182251403
 30
0.0
  0
SPLINE
  5
2F0
100
AcDbEntity
  8
LAYER_FEATURE
100
AcDbSpline
 62
7
  6
CONTINUOUS
 70
0
 71
3
 72
48
 73
44
 74
0
 42
0.0000001
 43
0.0000001
 44
0.0000000001
 40
0.0
 40
0.0
 40
0.0
 40
0.0
 40
0.0290937842
 40
0.0572902374
 40
0.0710904709
 40
0.0847099942
 40
0.0981685985
 40
0.111488351
 40
0.124693285
 40
0.1378092327
 40
0.150863401
 40
0.1638839864
 40
0.1768997316
 40
0.1899394522
 40
0.2030315728
 40
0.2162036935
 40
0.2294821342
 40
0.2428915864
 40
0.2564548027
 40
0.2701922771
 40
0.2841221362
 40
0.2982599261
 40
0.3271973552
 40
0.3570880349
 40
0.3879619396
 40
0.419810241
 40
0.4525890747
 40
0.4862238838
 40
0.5206139338
 40
0.55563683
 40
0.5911529473
 40
0.6270097813
 40
0.6630461946
 40
0.6990965758
 40
0.7349949637
 40
0.7705791795
 40
0.8056949836
 40
0.8402002954
 40
0.8739695078
 40
0.9068979145
 40
0.9389063832
 40
0.9699450795
 40
1.0
 40
1.0
 40
1.0
 40
1.0
 10
15.0980854726
 20
12.4539923337
 30
0.0
 10
15.097574367
 20
12.4523383951
 30
0.0
 10
15.0967358744
 20
12.4490264306
 30
0.0
 10
15.0961630918
 20
12.4448252626
 30
0.0
 10
15.0960129444
 20
12.4415176648
 30
0.0
 10
15.0960518392
 20
12.439084059
 30
0.0
 10
15.0962414172
 20
12.4366862154
 30
0.0
 10
15.096581258
 20
12.4343298705
 30
0.0
 10
15.0970706139
 20
12.4320207776
 30
0.0
 10
15.0977082807
 20
12.4297645456
 30
0.0
 10
15.0984927866
 20
12.427566693
 30
0.0
 10
15.0994222044
 20
12.4254325755
 30
0.0
 10
15.1004942727
 20
12.4233673984
 30
0.0
 10
15.1017064061
 20
12.4213762185
 30
0.0
 10
15.1030555869
 20
12.4194638535
 30
0.0
 10
15.1045385469
 20
12.4176349747
 30
0.0
 10
15.1061516323
 20
12.4158939997
 30
0.0
 10
15.1078908798
 20
12.4142451154
 30
0.0
 10
15.1097520746
 20
12.4126923215
 30
0.0
 10
15.1117306213
 20
12.4112393042
 30
0.0
 10
15.1138218058
 20
12.4098895356
 30
0.0
 10
15.1167756986
 20
12.4082191437
 30
0.0
 10
15.1207329095
 20
12.4064097971
 30
0.0
 10
15.1258040329
 20
12.4047160761
 30
0.0
 10
15.1311869741
 20
12.4034972603
 30
0.0
 10
15.1368297546
 20
12.4027643911
 30
0.0
 10
15.1426786349
 20
12.4025237115
 30
0.0
 10
15.1486778143
 20
12.4027770554
 30
0.0
 10
15.1547701063
 20
12.4035216611
 30
0.0
 10
15.1608973947
 20
12.4047501978
 30
0.0
 10
15.1670011966
 20
12.4064507706
 30
0.0
 10
15.1730232181
 20
12.4086070262
 30
0.0
 10
15.1789059158
 20
12.4111982991
 30
0.0
 10
15.1845930532
 20
12.4141998006
 30
0.0
 10
15.1900302454
 20
12.4175828519
 30
0.0
 10
15.1951654942
 20
12.4213151483
 30
0.0
 10
15.1999496749
 20
12.4253611005
 30
0.0
 10
15.2043369969
 20
12.4296821762
 30
0.0
 10
15.2082854249
 20
12.4342373149
 30
0.0
 10
15.2117570482
 20
12.4389832187
 30
0.0
 10
15.2147184501
 20
12.4438751294
 30
0.0
 10
15.2171406957
 20
12.4488659601
 30
0.0
 10
15.2184006846
 20
12.4522837559
 30
0.0
 10
15.2189286751
 20
12.4539923337
 30
0.0
  0
SPLINE
  5
2F1
100
AcDbEntity
  8
LAYER_FEATURE
100
AcDbSpline
 62
7
  6
CONTINUOUS
 70
0
 71
3
 72
23
 73
19
 74
0
 42
0.0000001
 43
0.0000001
 44
0.0000000001
 40
0.0
 40
0.0
 40
0.0
 40
0.0
 40
0.0549084683
 40
0.1116144743
 40
0.1700919154
 40
0.2302502056
 40
0.2919445326
 40
0.3549836729
 40
0.4191381541
 40
0.4841483935
 40
0.5497326125
 40
0.6155945094
 40
0.6814308885
 40
0.7469391822
 40
0.811825017
 40
0.8439521421
 40
0.8758210882
 40
1.0
 40
1.0
 40
1.0
 40
1.0
 10
15.087982759
 20
12.4437979302
 30
0.0
 10
15.0886427461
 20
12.4459336494
 30
0.0
 10
15.0902177382
 20
12.4502058951
 30
0.0
 10
15.0932455298
 20
12.4564444391
 30
0.0
 10
15.09694729
 20
12.462559328
 30
0.0
 10
15.101286825
 20
12.4684916993
 30
0.0
 10
15.1062223564
 20
12.4741856277
 30
0.0
 10
15.1117065067
 20
12.479586974
 30
0.0
 10
15.1176867334
 20
12.4846444132
 30
0.0
 10
15.1241057915
 20
12.4893097877
 30
0.0
 10
15.1309022916
 20
12.4935385912
 30
0.0
 10
15.1380112011
 20
12.4972904712
 30
0.0
 10
15.1453646039
 20
12.5005295805
 30
0.0
 10
15.1528920095
 20
12.5032248529
 30
0.0
 10
15.1592716694
 20
12.5050023002
 30
0.0
 10
15.1643978623
 20
12.5061276977
 30
0.0
 10
15.1719364983
 20
12.5074885383
 30
0.0
 10
15.1783037707
 20
12.5080307368
 30
0.0
 10
15.183359199
 20
12.5080307368
 30
0.0
  0
SPLINE
  5
2F2
100
AcDbEntity
  8
LAYER_FEATURE
100
AcDbSpline
 62
7
  6
CONTINUOUS
 70
0
 71
3
 72
20
 73
16
 74
0
 42
0.0000001
 43
0.0000001
 44
0.0000000001
 40
0.0
 40
0.0
 40
0.0
 40
0.0
 40
0.1404106771
 40
0.2089195121
 40
0.2762372159
 40
0.4071809763
 40
0.5333191384
 40
0.5946987187
 40
0.6550093431
 40
0.7143305052
 40
0.772758642
 40
0.8304062576
 40
0.8874005731
 40
0.9438816483
 40
1.0
 40
1.0
 40
1.0
 40
1.0
 10
15.183359199
 20
12.5080307368
 30
0.0
 10
15.1861547248
 20
12.5080307368
 30
0.0
 10
15.1903186008
 20
12.507834339
 30
0.0
 10
15.1957778643
 20
12.507152084
 30
0.0
 10
15.201008155
 20
12.5062155434
 30
0.0
 10
15.207266052
 20
12.5045605983
 30
0.0
 10
15.213178421
 20
12.5022227654
 30
0.0
 10
15.2175740487
 20
12.4999745704
 30
0.0
 10
15.2206699179
 20
12.4981242816
 30
0.0
 10
15.2235841538
 20
12.4961006618
 30
0.0
 10
15.2263075074
 20
12.4939100245
 30
0.0
 10
15.2288311393
 20
12.4915593116
 30
0.0
 10
15.2311469132
 20
12.4890559113
 30
0.0
 10
15.2332471525
 20
12.4864080316
 30
0.0
 10
15.2345022728
 20
12.4845472963
 30
0.0
 10
15.2350904652
 20
12.4835973593
 30
0.0
  0
SPLINE
  5
2F3
100
AcDbEntity
  8
LAYER_FEATURE
100
AcDbSpline
 62
7
  6
CONTINUOUS
 70
0
 71
3
 72
48
 73
44
 74
0
 42
0.0000001
 43
0.0000001
 44
0.0000000001
 40
0.0
 40
0.0
 40
0.0
 40
0.0
 40
0.0300549205
 40
0.0610936168
 40
0.0931020855
 40
0.1260304922
 40
0.1597997046
 40
0.1943050164
 40
0.2294208205
 40
0.2650050363
 40
0.3009034242
 40
0.3369538054
 40
0.3729902187
 40
0.4088470527
 40
0.44436317
 40
0.4793860662
 40
0.5137761162
 40
0.5474109253
 40
0.580189759
 40
0.6120380604
 40
0.6429119651
 40
0.6728026448
 40
0.7017400739
 40
0.7158778638
 40
0.7298077229
 40
0.7435451973
 40
0.7571084136
 40
0.7705178658
 40
0.7837963065
 40
0.7969684272
 40
0.8100605478
 40
0.8231002684
 40
0.8361160136
 40
0.849136599
 40
0.8621907673
 40
0.875306715
 40
0.888511649
 40
0.9018314015
 40
0.9152900058
 40
0.9289095291
 40
0.9427097626
 40
0.9709062158
 40
1.0
 40
1.0
 40
1.0
 40
1.0
 10
15.0980854726
 20
12.4539923337
 30
0.0
 10
15.0986134631
 20
12.4557009115
 30
0.0
 10
15.099873452
 20
12.4591187073
 30
0.0
 10
15.1022956976
 20
12.464109538
 30
0.0
 10
15.1052570995
 20
12.4690014487
 30
0.0
 10
15.1087287228
 20
12.4737473525
 30
0.0
 10
15.1126771508
 20
12.4783024912
 30
0.0
 10
15.1170644728
 20
12.4826235669
 30
0.0
 10
15.1218486535
 20
12.4866695191
 30
0.0
 10
15.1269839023
 20
12.4904018155
 30
0.0
 10
15.1324210945
 20
12.4937848667
 30
0.0
 10
15.1381082319
 20
12.4967863683
 30
0.0
 10
15.1439909296
 20
12.4993776412
 30
0.0
 10
15.1500129511
 20
12.5015338967
 30
0.0
 10
15.156116753
 20
12.5032344696
 30
0.0
 10
15.1622440414
 20
12.5044630062
 30
0.0
 10
15.1683363334
 20
12.505207612
 30
0.0
 10
15.1743355128
 20
12.5054609559
 30
0.0
 10
15.1801843932
 20
12.5052202763
 30
0.0
 10
15.1858271736
 20
12.5044874071
 30
0.0
 10
15.1912101148
 20
12.5032685913
 30
0.0
 10
15.1962812382
 20
12.5015748703
 30
0.0
 10
15.2002384491
 20
12.4997655237
 30
0.0
 10
15.2031923419
 20
12.4980951318
 30
0.0
 10
15.2052835265
 20
12.4967453632
 30
0.0
 10
15.2072620731
 20
12.4952923459
 30
0.0
 10
15.2091232679
 20
12.493739552
 30
0.0
 10
15.2108625155
 20
12.4920906676
 30
0.0
 10
15.2124756009
 20
12.4903496927
 30
0.0
 10
15.2139585608
 20
12.4885208139
 30
0.0
 10
15.2153077416
 20
12.4866084489
 30
0.0
 10
15.216519875
 20
12.484617269
 30
0.0
 10
15.2175919433
 20
12.4825520918
 30
0.0
 10
15.2185213611
 20
12.4804179744
 30
0.0
 10
15.2193058671
 20
12.4782201218
 30
0.0
 10
15.2199435338
 20
12.4759638898
 30
0.0
 10
15.2204328897
 20
12.4736547968
 30
0.0
 10
15.2207727306
 20
12.4712984519
 30
0.0
 10
15.2209623085
 20
12.4689006084
 30
0.0
 10
15.2210012033
 20
12.4664670026
 30
0.0
 10
15.2208510559
 20
12.4631594048
 30
0.0
 10
15.2202782733
 20
12.4589582368
 30
0.0
 10
15.2194397807
 20
12.4556462723
 30
0.0
 10
15.2189286751
 20
12.4539923337
 30
0.0
  0
SPLINE
  5
2F4
100
AcDbEntity
  8
LAYER_FEATURE
100
AcDbSpline
 62
7
  6
CONTINUOUS
 70
0
 71
3
 72
11
 73
7
 74
0
 42
0.0000001
 43
0.0000001
 44
0.0000000001
 40
0.0
 40
0.0
 40
0.0
 40
0.0
 40
0.2447712534
 40
0.4916872573
 40
0.7428382597
 40
1.0
 40
1.0
 40
1.0
 40
1.0
 10
16.4363972547
 20
12.6315295592
 30
0.0
 10
16.4364602195
 20
12.6317333073
 30
0.0
 10
16.4365632262
 20
12.6321502591
 30
0.0
 10
16.4366460374
 20
12.6327934647
 30
0.0
 10
16.4366571675
 20
12.6334526269
 30
0.0
 10
16.4366174469
 20
12.6338946382
 30
0.0
 10
16.4365863229
 20
12.6341165164
 30
0.0
  0
SPLINE
  5
2F5
100
AcDbEntity
  8
LAYER_FEATURE
100
AcDbSpline
 62
7
  6
CONTINUOUS
 70
0
 71
3
 72
22
 73
18
 74
0
 42
0.0000001
 43
0.0000001
 44
0.0000000001
 40
0.0
 40
0.0
 40
0.0
 40
0.0
 40
0.1381197978
 40
0.2053664405
 40
0.2714549011
 40
0.3364371411
 40
0.4003725798
 40
0.4633278459
 40
0.5253764074
 40
0.5865986107
 40
0.6470813122
 40
0.7069174445
 40
0.7662054997
 40
0.8250488571
 40
0.883554961
 40
0.9418344168
 40
1.0
 40
1.0
 40
1.0
 40
1.0
 10
16.0390142187
 20
12.2248906709
 30
0.0
 10
16.0434153346
 20
12.2159221396
 30
0.0
 10
16.0494797251
 20
12.2023410687
 30
0.0
 10
16.0563963542
 20
12.1839611349
 30
0.0
 10
16.0608938814
 20
12.1703354519
 30
0.0
 10
16.0647423637
 20
12.156761326
 30
0.0
 10
16.0679381649
 20
12.1432513447
 30
0.0
 10
16.0704780461
 20
12.129818531
 30
0.0
 10
16.072359413
 20
12.1164757165
 30
0.0
 10
16.0735803207
 20
12.1032357231
 30
0.0
 10
16.0741394536
 20
12.0901112888
 30
0.0
 10
16.0740361151
 20
12.0771150789
 30
0.0
 10
16.0732702606
 20
12.0642596582
 30
0.0
 10
16.0718425435
 20
12.0515575256
 30
0.0
 10
16.0697542122
 20
12.0390208982
 30
0.0
 10
16.0670073472
 20
12.0266624456
 30
0.0
 10
16.0647377471
 20
12.0185464911
 30
0.0
 10
16.0634956059
 20
12.0145269206
 30
0.0
  0
SPLINE
  5
2F6
100
AcDbEntity
  8
LAYER_FEATURE
100
AcDbSpline
 62
7
  6
CONTINUOUS
 70
0
 71
3
 72
13
 73
9
 74
0
 42
0.0000001
 43
0.0000001
 44
0.0000000001
 40
0.0
 40
0.0
 40
0.0
 40
0.0
 40
0.1171382947
 40
0.2351065166
 40
0.3547068435
 40
0.476683945
 40
0.7301241242
 40
1.0
 40
1.0
 40
1.0
 40
1.0
 10
16.4014905667
 20
12.7476009189
 30
0.0
 10
16.4015471423
 20
12.7477839883
 30
0.0
 10
16.4016417555
 20
12.7481575828
 30
0.0
 10
16.4017259466
 20
12.7487326204
 30
0.0
 10
16.401752378
 20
12.7493211566
 30
0.0
 10
16.4017101186
 20
12.7501308971
 30
0.0
 10
16.4015062577
 20
12.7511725873
 30
0.0
 10
16.4012041174
 20
12.7519775922
 30
0.0
 10
16.4010206491
 20
12.7523791188
 30
0.0
  0
SPLINE
  5
2F7
100
AcDbEntity
  8
LAYER_FEATURE
100
AcDbSpline
 62
7
  6
CONTINUOUS
 70
0
 71
3
 72
66
 73
62
 74
0
 42
0.0000001
 43
0.0000001
 44
0.0000000001
 40
0.0
 40
0.0
 40
0.0
 40
0.0
 40
0.017178901
 40
0.0345307647
 40
0.0520448452
 40
0.0697107135
 40
0.0875171985
 40
0.1054529495
 40
0.1235062925
 40
0.1416652975
 40
0.159917808
 40
0.1782514655
 40
0.2151103379
 40
0.2521417322
 40
0.2892423763
 40
0.3263084234
 40
0.3632363133
 40
0.3816171919
 40
0.3999252739
 40
0.4181480824
 40
0.436273323
 40
0.4542889113
 40
0.4721830016
 40
0.4899440164
 40
0.5075606771
 40
0.5250220355
 40
0.5423175043
 40
0.5594368896
 40
0.576370424
 40
0.5931088024
 40
0.6096432197
 40
0.6259654062
 40
0.6420676671
 40
0.6579429225
 40
0.6735847504
 40
0.6889874332
 40
0.7041460037
 40
0.7190562919
 40
0.7337149761
 40
0.7481196355
 40
0.762268807
 40
0.7761620418
 40
0.7897999613
 40
0.8031843155
 40
0.8163180417
 40
0.8292053235
 40
0.8418516467
 40
0.8542638489
 40
0.8664501639
 40
0.8784202578
 40
0.8901852544
 40
0.9017577467
 40
0.9131517873
 40
0.9243828583
 40
0.9354678172
 40
0.9464248153
 40
0.9572731887
 40
0.9680333181
 40
0.9787264597
 40
0.9893745517
 40
1.0
 40
1.0
 40
1.0
 40
1.0
 10
15.250793815
 20
13.4065793795
 30
0.0
 10
15.2607552888
 20
13.4065793795
 30
0.0
 10
15.280779171
 20
13.4063601893
 30
0.0
 10
15.3109446554
 20
13.4053862739
 30
0.0
 10
15.3413652275
 20
13.403766476
 30
0.0
 10
15.3720089021
 20
13.4015025476
 30
0.0
 10
15.402843957
 20
13.3985968028
 30
0.0
 10
15.4338382367
 20
13.395052283
 30
0.0
 10
15.4649595104
 20
13.3908726726
 30
0.0
 10
15.4961753451
 20
13.3860623311
 30
0.0
 10
15.5274533907
 20
13.380626252
 30
0.0
 10
15.5692686576
 20
13.3725374469
 30
0.0
 10
15.6214778018
 20
13.3608961138
 30
0.0
 10
15.6837445149
 20
13.3445589791
 30
0.0
 10
15.745480485
 20
13.3258970794
 30
0.0
 10
15.8064280532
 20
13.3049882759
 30
0.0
 10
15.8564276496
 20
13.2857343185
 30
0.0
 10
15.8958181369
 20
13.2692774244
 30
0.0
 10
15.9249632434
 20
13.2564488699
 30
0.0
 10
15.9537239968
 20
13.2431295608
 30
0.0
 10
15.9820705875
 20
13.229333298
 30
0.0
 10
16.0099734779
 20
13.2150744585
 30
0.0
 10
16.0374036343
 20
13.2003678772
 30
0.0
 10
16.0643325028
 20
13.1852288571
 30
0.0
 10
16.0907320574
 20
13.1696731515
 30
0.0
 10
16.1165748264
 20
13.1537169502
 30
0.0
 10
16.1418339176
 20
13.1373768547
 30
0.0
 10
16.1664830461
 20
13.1206698635
 30
0.0
 10
16.1904965607
 20
13.1036133528
 30
0.0
 10
16.2138494729
 20
13.0862250592
 30
0.0
 10
16.2365174878
 20
13.0685230673
 30
0.0
 10
16.2584770232
 20
13.0505257819
 30
0.0
 10
16.2797052328
 20
13.03225191
 30
0.0
 10
16.3001800294
 20
13.0137204408
 30
0.0
 10
16.3198801072
 20
12.9949506243
 30
0.0
 10
16.3387849718
 20
12.9759619578
 30
0.0
 10
16.3568749553
 20
12.9567741596
 30
0.0
 10
16.3741312325
 20
12.9374071465
 30
0.0
 10
16.3905358399
 20
12.9178810142
 30
0.0
 10
16.4060716909
 20
12.8982160141
 30
0.0
 10
16.4207226001
 20
12.8784325372
 30
0.0
 10
16.4344732983
 20
12.8585510921
 30
0.0
 10
16.4473094386
 20
12.8385922794
 30
0.0
 10
16.4592176089
 20
12.8185767742
 30
0.0
 10
16.4701853427
 20
12.7985253048
 30
0.0
 10
16.4802011324
 20
12.7784586345
 30
0.0
 10
16.4892544476
 20
12.7583975472
 30
0.0
 10
16.4973357317
 20
12.7383628231
 30
0.0
 10
16.5044364101
 20
12.718375226
 30
0.0
 10
16.5105488982
 20
12.6984554871
 30
0.0
 10
16.5156666091
 20
12.6786242909
 30
0.0
 10
16.5197839783
 20
12.6589022644
 30
0.0
 10
16.5228964623
 20
12.6393099599
 30
0.0
 10
16.5250005481
 20
12.6198678428
 30
0.0
 10
16.5260937682
 20
12.6005962753
 30
0.0
 10
16.5261747144
 20
12.5815155052
 30
0.0
 10
16.5252430605
 20
12.5626456214
 30
0.0
 10
16.5232996014
 20
12.5440066139
 30
0.0
 10
16.5203461563
 20
12.5256180243
 30
0.0
 10
16.5163859537
 20
12.5075001029
 30
0.0
 10
16.5130756439
 20
12.4956087175
 30
0.0
 10
16.5112565257
 20
12.4897220399
 30
0.0
  0
SPLINE
  5
2F8
100
AcDbEntity
  8
LAYER_FEATURE
100
AcDbSpline
 62
7
  6
CONTINUOUS
 70
0
 71
3
 72
49
 73
45
 74
0
 42
0.0000001
 43
0.0000001
 44
0.0000000001
 40
0.0
 40
0.0
 40
0.0
 40
0.0
 40
0.0405565317
 40
0.0805700925
 40
0.1200112589
 40
0.1588532296
 40
0.1970711243
 40
0.2346426425
 40
0.2715480682
 40
0.3077705465
 40
0.3432962795
 40
0.3781147634
 40
0.4122190276
 40
0.4456058858
 40
0.4782761958
 40
0.5102351238
 40
0.5414924108
 40
0.5720626334
 40
0.6019654506
 40
0.6166752843
 40
0.63122809
 40
0.6598764744
 40
0.6879489344
 40
0.7154872044
 40
0.7425386434
 40
0.7691560754
 40
0.7823215255
 40
0.795400632
 40
0.8084013791
 40
0.8213320056
 40
0.8342009879
 40
0.8470170143
 40
0.8597889556
 40
0.8725258412
 40
0.8852368224
 40
0.8979311469
 40
0.9106181204
 40
0.9233070768
 40
0.9360073423
 40
0.9487282013
 40
0.9614788655
 40
0.9742684375
 40
0.9871058833
 40
1.0
 40
1.0
 40
1.0
 40
1.0
 10
15.2676202969
 20
13.3403754592
 30
0.0
 10
15.2569287625
 20
13.3403754592
 30
0.0
 10
15.2356877468
 20
13.3401057074
 30
0.0
 10
15.2040707297
 20
13.3388741942
 30
0.0
 10
15.1729490645
 20
13.3368201397
 30
0.0
 10
15.1423676531
 20
13.3339464932
 30
0.0
 10
15.1123701857
 20
13.3302573194
 30
0.0
 10
15.0829996586
 20
13.3257578772
 30
0.0
 10
15.0542981138
 20
13.3204545556
 30
0.0
 10
15.0263066447
 20
13.3143548905
 30
0.0
 10
14.9990653185
 20
13.3074675375
 30
0.0
 10
14.9726131268
 20
13.2998022629
 30
0.0
 10
14.9469879306
 20
13.2913699232
 30
0.0
 10
14.922226414
 20
13.2821824495
 30
0.0
 10
14.8983640251
 20
13.2722528196
 30
0.0
 10
14.8754349737
 20
13.2615950652
 30
0.0
 10
14.853472044
 20
13.2502241512
 30
0.0
 10
14.8325070859
 20
13.2381563145
 30
0.0
 10
14.8158020838
 20
13.2274749679
 30
0.0
 10
14.8029775673
 20
13.2185952335
 30
0.0
 10
14.7906450967
 20
13.2095942536
 30
0.0
 10
14.7758920001
 20
13.1979442651
 30
0.0
 10
14.7592050917
 20
13.1832674232
 30
0.0
 10
14.7436519501
 20
13.1679875972
 30
0.0
 10
14.7292559436
 20
13.1521271104
 30
0.0
 10
14.7182001413
 20
13.1383937063
 30
0.0
 10
14.7099682373
 20
13.1271471378
 30
0.0
 10
14.7041177612
 20
13.1186122116
 30
0.0
 10
14.6985709561
 20
13.1099503702
 30
0.0
 10
14.6933297612
 20
13.101164641
 30
0.0
 10
14.6883961059
 20
13.092258205
 30
0.0
 10
14.6837717549
 20
13.0832342747
 30
0.0
 10
14.679458422
 20
13.0740960873
 30
0.0
 10
14.6754576256
 20
13.0648469602
 30
0.0
 10
14.6717708746
 20
13.0554902066
 30
0.0
 10
14.6683994394
 20
13.0460292308
 30
0.0
 10
14.6653446118
 20
13.036467425
 30
0.0
 10
14.662607424
 20
13.026808267
 30
0.0
 10
14.6601889329
 20
13.017055228
 30
0.0
 10
14.6580899458
 20
13.007211846
 30
0.0
 10
14.6563112687
 20
12.9972816759
 30
0.0
 10
14.6548534945
 20
12.9872682769
 30
0.0
 10
14.6537171724
 20
12.9771753961
 30
0.0
 10
14.6531754821
 20
12.9704123158
 30
0.0
 10
14.6529580023
 20
12.9670201263
 30
0.0
  0
SPLINE
  5
2F9
100
AcDbEntity
  8
LAYER_FEATURE
100
AcDbSpline
 62
7
  6
CONTINUOUS
 70
0
 71
3
 72
71
 73
67
 74
0
 42
0.0000001
 43
0.0000001
 44
0.0000000001
 40
0.0
 40
0.0
 40
0.0
 40
0.0
 40
0.0175309876
 40
0.0352494009
 40
0.0531428497
 40
0.0711990766
 40
0.0894050493
 40
0.1077474863
 40
0.1262127201
 40
0.1447867861
 40
0.1634554513
 40
0.1822042525
 40
0.2010185342
 40
0.2198834844
 40
0.2387841707
 40
0.2577055763
 40
0.2766326353
 40
0.2955502687
 40
0.3144434201
 40
0.3332970903
 40
0.3520963737
 40
0.3708264936
 40
0.3894728389
 40
0.408021001
 40
0.4264568107
 40
0.4447663754
 40
0.4629361179
 40
0.4809528156
 40
0.4988036411
 40
0.5164762044
 40
0.533958595
 40
0.5512394258
 40
0.5683078789
 40
0.5851537532
 40
0.6017675142
 40
0.6181403472
 40
0.6342642107
 40
0.650131893
 40
0.6657370712
 40
0.6810743744
 40
0.6961394484
 40
0.710929026
 40
0.7254409978
 40
0.7396744851
 40
0.7536299158
 40
0.7673091015
 40
0.7807153149
 40
0.793853367
 40
0.8067296805
 40
0.8193523562
 40
0.8317312308
 40
0.8438779223
 40
0.8558058583
 40
0.8675302828
 40
0.8790682362
 40
0.8904385014
 40
0.9016615147
 40
0.9127592358
 40
0.9237549782
 40
0.9346731973
 40
0.9455392431
 40
0.95637908
 40
0.9672189853
 40
0.9780852351
 40
0.9890037913
 40
1.0
 40
1.0
 40
1.0
 40
1.0
 10
15.2676202969
 20
13.3403754592
 30
0.0
 10
15.2774527154
 20
13.3403754592
 30
0.0
 10
15.2972233868
 20
13.3401445336
 30
0.0
 10
15.3270137958
 20
13.3391193426
 30
0.0
 10
15.3570682106
 20
13.3374145959
 30
0.0
 10
15.3873507201
 20
13.3350323736
 30
0.0
 10
15.4178256248
 20
13.3319754579
 30
0.0
 10
15.4484567824
 20
13.32824749
 30
0.0
 10
15.4792079394
 20
13.3238528746
 30
0.0
 10
15.5100426753
 20
13.3187968196
 30
0.0
 10
15.540924475
 20
13.3130853151
 30
0.0
 10
15.5718167656
 20
13.3067251262
 30
0.0
 10
15.6026829606
 20
13.2997237856
 30
0.0
 10
15.6334865036
 20
13.2920895847
 30
0.0
 10
15.6641909113
 20
13.2838315633
 30
0.0
 10
15.6947598172
 20
13.2749595004
 30
0.0
 10
15.725157016
 20
13.2654839069
 30
0.0
 10
15.7553465056
 20
13.2554160066
 30
0.0
 10
15.7852925303
 20
13.2447677244
 30
0.0
 10
15.8149596223
 20
13.2335516715
 30
0.0
 10
15.8443126443
 20
13.2217811309
 30
0.0
 10
15.8733168309
 20
13.2094700404
 30
0.0
 10
15.9019378322
 20
13.1966329819
 30
0.0
 10
15.9301417537
 20
13.1832851594
 30
0.0
 10
15.9578951958
 20
13.16944238
 30
0.0
 10
15.9851652927
 20
13.1551210353
 30
0.0
 10
16.011919752
 20
13.1403380818
 30
0.0
 10
16.0381268923
 20
13.1251110199
 30
0.0
 10
16.0637556826
 20
13.1094578752
 30
0.0
 10
16.0887757809
 20
13.0933971785
 30
0.0
 10
16.1131575668
 20
13.0769479386
 30
0.0
 10
16.136872177
 20
13.0601296209
 30
0.0
 10
16.1598915384
 20
13.0429621231
 30
0.0
 10
16.1821884014
 20
13.0254657518
 30
0.0
 10
16.2037363722
 20
13.007661197
 30
0.0
 10
16.224509948
 20
12.9895695114
 30
0.0
 10
16.244484543
 20
12.9712120801
 30
0.0
 10
16.2636365157
 20
12.9526105946
 30
0.0
 10
16.2819431955
 20
12.9337870271
 30
0.0
 10
16.2993829085
 20
12.9147636034
 30
0.0
 10
16.3159350008
 20
12.895562775
 30
0.0
 10
16.3315798658
 20
12.8762071951
 30
0.0
 10
16.3462989643
 20
12.8567196908
 30
0.0
 10
16.3600748402
 20
12.8371232329
 30
0.0
 10
16.3728911377
 20
12.8174409113
 30
0.0
 10
16.384732617
 20
12.7976959087
 30
0.0
 10
16.3955851683
 20
12.7779114747
 30
0.0
 10
16.4054358254
 20
12.758110902
 30
0.0
 10
16.4142727836
 20
12.7383175061
 30
0.0
 10
16.4220854028
 20
12.7185545998
 30
0.0
 10
16.4288642177
 20
12.6988454753
 30
0.0
 10
16.4346009476
 20
12.6792133861
 30
0.0
 10
16.4392885087
 20
12.6596815308
 30
0.0
 10
16.4429210256
 20
12.6402730366
 30
0.0
 10
16.4454938557
 20
12.6210109454
 30
0.0
 10
16.4470036027
 20
12.6019181946
 30
0.0
 10
16.447448134
 20
12.5830175974
 30
0.0
 10
16.4468266041
 20
12.5643318192
 30
0.0
 10
16.4451394773
 20
12.5458833468
 30
0.0
 10
16.4423885472
 20
12.5276944507
 30
0.0
 10
16.4385769608
 20
12.5097871452
 30
0.0
 10
16.4337092183
 20
12.4921831166
 30
0.0
 10
16.4277912108
 20
12.4749037506
 30
0.0
 10
16.4208300362
 20
12.4579697837
 30
0.0
 10
16.4128346325
 20
12.4414023627
 30
0.0
 10
16.406846076
 20
12.430659397
 30
0.0
 10
16.4036891439
 20
12.4253613127
 30
0.0
  0
SPLINE
  5
2FA
100
AcDbEntity
  8
LAYER_FEATURE
100
AcDbSpline
 62
7
  6
CONTINUOUS
 70
0
 71
3
 72
15
 73
11
 74
0
 42
0.0000001
 43
0.0000001
 44
0.0000000001
 40
0.0
 40
0.0
 40
0.0
 40
0.0
 40
0.1275534829
 40
0.255225728
 40
0.3825842636
 40
0.5091995166
 40
0.6346502438
 40
0.7585248942
 40
0.8804339194
 40
1.0
 40
1.0
 40
1.0
 40
1.0
 10
16.3792755417
 20
12.6757216085
 30
0.0
 10
16.3805853441
 20
12.6752410572
 30
0.0
 10
16.3832261598
 20
12.6743330402
 30
0.0
 10
16.3872364937
 20
12.6731338702
 30
0.0
 10
16.3912824145
 20
12.6721013102
 30
0.0
 10
16.3953435072
 20
12.671240571
 30
0.0
 10
16.3993993684
 20
12.6705559849
 30
0.0
 10
16.4034296768
 20
12.6700509679
 30
0.0
 10
16.4074140433
 20
12.6697280956
 30
0.0
 10
16.4100547488
 20
12.6696343366
 30
0.0
 10
16.41136247
 20
12.6696192148
 30
0.0
  0
SPLINE
  5
2FB
100
AcDbEntity
  8
LAYER_FEATURE
100
AcDbSpline
 62
7
  6
CONTINUOUS
 70
0
 71
3
 72
16
 73
12
 74
0
 42
0.0000001
 43
0.0000001
 44
0.0000000001
 40
0.0
 40
0.0
 40
0.0
 40
0.0
 40
0.1108157401
 40
0.223252972
 40
0.3388194156
 40
0.4588194179
 40
0.5208475183
 40
0.5843522919
 40
0.7160730905
 40
0.854551144
 40
1.0
 40
1.0
 40
1.0
 40
1.0
 10
16.3300700739
 20
12.8642302196
 30
0.0
 10
16.3301518142
 20
12.8644947144
 30
0.0
 10
16.3302767216
 20
12.8650407682
 30
0.0
 10
16.3303423391
 20
12.8658874797
 30
0.0
 10
16.3302868197
 20
12.8667577929
 30
0.0
 10
16.3301418955
 20
12.8674891279
 30
0.0
 10
16.3299690821
 20
12.8680779568
 30
0.0
 10
16.3297526868
 20
12.8686834365
 30
0.0
 10
16.3294068659
 20
12.8694438485
 30
0.0
 10
16.3288843662
 20
12.870342832
 30
0.0
 10
16.3284736263
 20
12.8709223689
 30
0.0
 10
16.32825185
 20
12.8712101947
 30
0.0
  0
SPLINE
  5
2FC
100
AcDbEntity
  8
LAYER_FEATURE
100
AcDbSpline
 62
7
  6
CONTINUOUS
 70
0
 71
3
 72
10
 73
6
 74
0
 42
0.0000001
 43
0.0000001
 44
0.0000000001
 40
0.0
 40
0.0
 40
0.0
 40
0.0
 40
0.2721090773
 40
0.5288555597
 40
1.0
 40
1.0
 40
1.0
 40
1.0
 10
15.8845944825
 20
12.010756273
 30
0.0
 10
15.884093754
 20
12.0101563804
 30
0.0
 10
15.8830810788
 20
12.0090220027
 30
0.0
 10
15.8810094564
 20
12.0070319361
 30
0.0
 10
15.8793187812
 20
12.005773887
 30
0.0
 10
15.8781493166
 20
12.0050935255
 30
0.0
  0
SPLINE
  5
2FD
100
AcDbEntity
  8
LAYER_FEATURE
100
AcDbSpline
 62
7
  6
CONTINUOUS
 70
0
 71
3
 72
19
 73
15
 74
0
 42
0.0000001
 43
0.0000001
 44
0.0000000001
 40
0.0
 40
0.0
 40
0.0
 40
0.0
 40
0.12647141
 40
0.2553333345
 40
0.3851702598
 40
0.5145340611
 40
0.5786005304
 40
0.6420158371
 40
0.7046114822
 40
0.7662261267
 40
0.8267077951
 40
0.8859134258
 40
0.9437174108
 40
1.0
 40
1.0
 40
1.0
 40
1.0
 10
16.3094543196
 20
12.7975280567
 30
0.0
 10
16.3116182419
 20
12.7963385903
 30
0.0
 10
16.3160857359
 20
12.7941128755
 30
0.0
 10
16.3230577958
 20
12.7912765941
 30
0.0
 10
16.3302740458
 20
12.7889452962
 30
0.0
 10
16.3364126167
 20
12.7874504202
 30
0.0
 10
16.3413452193
 20
12.7865407458
 30
0.0
 10
16.3450188888
 20
12.7860077682
 30
0.0
 10
16.3486629964
 20
12.7856241269
 30
0.0
 10
16.3522625117
 20
12.7853914101
 30
0.0
 10
16.3558024782
 20
12.7853105976
 30
0.0
 10
16.3592683272
 20
12.7853820019
 30
0.0
 10
16.3626455404
 20
12.7856053766
 30
0.0
 10
16.3648596676
 20
12.7858585233
 30
0.0
 10
16.3659478847
 20
12.7860112972
 30
0.0
  0
SPLINE
  5
2FE
100
AcDbEntity
  8
LAYER_FEATURE
100
AcDbSpline
 62
7
  6
CONTINUOUS
 70
0
 71
3
 72
17
 73
13
 74
0
 42
0.0000001
 43
0.0000001
 44
0.0000000001
 40
0.0
 40
0.0
 40
0.0
 40
0.0
 40
0.0521853279
 40
0.1047000908
 40
0.1578636325
 40
0.2119757569
 40
0.3240072253
 40
0.4426907291
 40
0.5692293356
 40
0.7042655673
 40
0.8479448601
 40
1.0
 40
1.0
 40
1.0
 40
1.0
 10
16.2252571964
 20
12.9763202007
 30
0.0
 10
16.2253105781
 20
12.9764929332
 30
0.0
 10
16.2254008149
 20
12.9768449568
 30
0.0
 10
16.2254848671
 20
12.9773861736
 30
0.0
 10
16.2255175282
 20
12.9779396398
 30
0.0
 10
16.2254923055
 20
12.9786999122
 30
0.0
 10
16.2253267193
 20
12.9796779734
 30
0.0
 10
16.2249271835
 20
12.980854106
 30
0.0
 10
16.2243312292
 20
12.9820332776
 30
0.0
 10
16.2235470233
 20
12.9832015825
 30
0.0
 10
16.2225846711
 20
12.9843454806
 30
0.0
 10
16.2218517076
 20
12.9850637201
 30
0.0
 10
16.2214602715
 20
12.9854162559
 30
0.0
  0
SPLINE
  5
2FF
100
AcDbEntity
  8
LAYER_FEATURE
100
AcDbSpline
 62
7
  6
CONTINUOUS
 70
0
 71
3
 72
23
 73
19
 74
0
 42
0.0000001
 43
0.0000001
 44
0.0000000001
 40
0.0
 40
0.0
 40
0.0
 40
0.0
 40
0.060454874
 40
0.1228202548
 40
0.1867898625
 40
0.2520263429
 40
0.3181689666
 40
0.3848408501
 40
0.4516558837
 40
0.5182254975
 40
0.5841653637
 40
0.6491021734
 40
0.7126806204
 40
0.7745707676
 40
0.8344758509
 40
0.8921412226
 40
0.9473624945
 40
1.0
 40
1.0
 40
1.0
 40
1.0
 10
16.2072888766
 20
12.9182226785
 30
0.0
 10
16.2085889404
 20
12.917197341
 30
0.0
 10
16.2113021595
 20
12.9152041741
 30
0.0
 10
16.2156096044
 20
12.9124386832
 30
0.0
 10
16.2201877901
 20
12.9098695838
 30
0.0
 10
16.2249971323
 20
12.9075191238
 30
0.0
 10
16.2299963431
 20
12.9054074551
 30
0.0
 10
16.2351423856
 20
12.9035527636
 30
0.0
 10
16.2403909655
 20
12.9019710078
 30
0.0
 10
16.2456968961
 20
12.9006758052
 30
0.0
 10
16.2510145068
 20
12.8996783037
 30
0.0
 10
16.2562980482
 20
12.8989870892
 30
0.0
 10
16.2615020972
 20
12.8986081158
 30
0.0
 10
16.2665819796
 20
12.8985446695
 30
0.0
 10
16.2714941168
 20
12.8987973305
 30
0.0
 10
16.2761966094
 20
12.8993641133
 30
0.0
 10
16.2806488679
 20
12.9002402022
 30
0.0
 10
16.2834954607
 20
12.9010457853
 30
0.0
 10
16.2848630222
 20
12.9015019656
 30
0.0
  0
SPLINE
  5
300
100
AcDbEntity
  8
LAYER_FEATURE
100
AcDbSpline
 62
7
  6
CONTINUOUS
 70
0
 71
3
 72
20
 73
16
 74
0
 42
0.0000001
 43
0.0000001
 44
0.0000000001
 40
0.0
 40
0.0
 40
0.0
 40
0.0
 40
0.0493530243
 40
0.0991794142
 40
0.1499307445
 40
0.2020174995
 40
0.2557953424
 40
0.311557901
 40
0.3695324599
 40
0.4298824004
 40
0.4927107302
 40
0.5580634118
 40
0.6962216341
 40
0.8438951083
 40
1.0
 40
1.0
 40
1.0
 40
1.0
 10
16.0916327597
 20
13.0789719923
 30
0.0
 10
16.0916987113
 20
13.0791854022
 30
0.0
 10
16.0918054527
 20
13.0796227198
 30
0.0
 10
16.0918868461
 20
13.0802979038
 30
0.0
 10
16.0918895763
 20
13.0809903556
 30
0.0
 10
16.0918137753
 20
13.0816964969
 30
0.0
 10
16.0916600388
 20
13.0824129456
 30
0.0
 10
16.0914292439
 20
13.0831362911
 30
0.0
 10
16.0911226653
 20
13.0838631771
 30
0.0
 10
16.0907418607
 20
13.0845902441
 30
0.0
 10
16.0902886687
 20
13.085314158
 30
0.0
 10
16.0895777147
 20
13.0862886539
 30
0.0
 10
16.0885145069
 20
13.0874761243
 30
0.0
 10
16.0870181365
 20
13.0888085026
 30
0.0
 10
16.0859030412
 20
13.0896170044
 30
0.0
 10
16.0853132178
 20
13.0900059496
 30
0.0
  0
SPLINE
  5
301
100
AcDbEntity
  8
02___PRT_ALL_AXES
100
AcDbSpline
 62
7
  6
CONTINUOUS
 70
0
 71
3
 72
39
 73
35
 74
0
 42
0.0000001
 43
0.0000001
 44
0.0000000001
 40
0.0
 40
0.0
 40
0.0
 40
0.0
 40
0.0396653822
 40
0.0788626144
 40
0.1175692044
 40
0.1557638045
 40
0.1934266657
 40
0.2305396238
 40
0.2670862409
 40
0.3030519232
 40
0.3384240485
 40
0.3731921003
 40
0.4073478087
 40
0.4408852949
 40
0.4738012214
 40
0.5060949478
 40
0.5377686915
 40
0.5688276897
 40
0.5992803579
 40
0.6291384468
 40
0.6584171905
 40
0.6871354426
 40
0.7153157888
 40
0.7429846317
 40
0.7701722379
 40
0.7969127399
 40
0.8232440796
 40
0.8492078822
 40
0.8748492569
 40
0.9002165151
 40
0.9253608057
 40
0.9503356668
 40
0.9751965029
 40
1.0
 40
1.0
 40
1.0
 40
1.0
 10
15.1213498932
 20
12.3337516531
 30
0.0
 10
15.1152584907
 20
12.3337516531
 30
0.0
 10
15.1031470965
 20
12.3336150674
 30
0.0
 10
15.0851011758
 20
12.3329924911
 30
0.0
 10
15.0673004884
 20
12.3319540955
 30
0.0
 10
15.0497652281
 20
12.3305010395
 30
0.0
 10
15.0325151586
 20
12.3286349551
 30
0.0
 10
15.0155697468
 20
12.326357935
 30
0.0
 10
14.9989481061
 20
12.3236725345
 30
0.0
 10
14.9826689847
 20
12.3205817648
 30
0.0
 10
14.9667507423
 20
12.3170890898
 30
0.0
 10
14.9512113302
 20
12.3131984206
 30
0.0
 10
14.9360682712
 20
12.3089141132
 30
0.0
 10
14.9213386407
 20
12.3042409605
 30
0.0
 10
14.9070390489
 20
12.2991841854
 30
0.0
 10
14.8931856242
 20
12.2937494344
 30
0.0
 10
14.8797939954
 20
12.2879427715
 30
0.0
 10
14.8668792762
 20
12.2817706718
 30
0.0
 10
14.8544560515
 20
12.2752400117
 30
0.0
 10
14.8425383643
 20
12.2683580626
 30
0.0
 10
14.8311397033
 20
12.2611324828
 30
0.0
 10
14.8202729891
 20
12.2535713141
 30
0.0
 10
14.8099505646
 20
12.2456829733
 30
0.0
 10
14.8001841847
 20
12.2374762476
 30
0.0
 10
14.7909850054
 20
12.2289602896
 30
0.0
 10
14.7823635719
 20
12.2201446152
 30
0.0
 10
14.7743298042
 20
12.2110391025
 30
0.0
 10
14.7668929848
 20
12.2016539854
 30
0.0
 10
14.7600617433
 20
12.1919998556
 30
0.0
 10
14.7538440343
 20
12.182087641
 30
0.0
 10
14.7482471314
 20
12.1719286591
 30
0.0
 10
14.743277541
 20
12.1615343873
 30
0.0
 10
14.7389412303
 20
12.1509172471
 30
0.0
 10
14.7364745865
 20
12.1436947137
 30
0.0
 10
14.73534997
 20
12.1400554519
 30
0.0
  0
SPLINE
  5
302
100
AcDbEntity
  8
LAYER_FEATURE
100
AcDbSpline
 62
7
  6
CONTINUOUS
 70
0
 71
3
 72
32
 73
28
 74
0
 42
0.0000001
 43
0.0000001
 44
0.0000000001
 40
0.0
 40
0.0
 40
0.0
 40
0.0
 40
0.0279687757
 40
0.0568015949
 40
0.0864653269
 40
0.1169177617
 40
0.1481087223
 40
0.1799810283
 40
0.2124713643
 40
0.2455110692
 40
0.3129306699
 40
0.3816251391
 40
0.4509284466
 40
0.520156575
 40
0.5886276891
 40
0.6556824946
 40
0.6884902269
 40
0.7207179202
 40
0.7522991627
 40
0.7831731798
 40
0.8132857363
 40
0.8425900763
 40
0.8710478236
 40
0.8986301516
 40
0.9253189979
 40
0.9511075989
 40
1.0
 40
1.0
 40
1.0
 40
1.0
 10
16.0772025742
 20
13.0323897033
 30
0.0
 10
16.0778267535
 20
13.0316572611
 30
0.0
 10
16.0791362873
 20
13.0302049979
 30
0.0
 10
16.0812410832
 20
13.028100809
 30
0.0
 10
16.0835093468
 20
13.0260444308
 30
0.0
 10
16.0859326725
 20
13.0240434577
 30
0.0
 10
16.088502196
 20
13.0221051737
 30
0.0
 10
16.0912084773
 20
13.0202366904
 30
0.0
 10
16.0940416307
 20
13.0184448223
 30
0.0
 10
16.0980007179
 20
13.0161514324
 30
0.0
 10
16.1031996133
 20
13.0135223132
 30
0.0
 10
16.1097243395
 20
13.010790546
 30
0.0
 10
16.1164826242
 20
13.0085002702
 30
0.0
 10
16.1233757536
 20
13.0066849949
 30
0.0
 10
16.1303030106
 20
13.0053711972
 30
0.0
 10
16.1360623958
 20
13.0047052632
 30
0.0
 10
16.140600706
 20
13.0044440058
 30
0.0
 10
16.143925401
 20
13.0043841497
 30
0.0
 10
16.1471832527
 20
13.0044591584
 30
0.0
 10
16.1503623655
 20
13.0046687826
 30
0.0
 10
16.1534510782
 20
13.0050122662
 30
0.0
 10
16.156438076
 20
13.0054883662
 30
0.0
 10
16.1593124584
 20
13.0060953854
 30
0.0
 10
16.1620636074
 20
13.0068311084
 30
0.0
 10
16.1646818222
 20
13.0076930959
 30
0.0
 10
16.1679235846
 20
13.0089829784
 30
0.0
 10
16.1702191242
 20
13.0101618261
 30
0.0
 10
16.1716516802
 20
13.0110437235
 30
0.0
  0
SPLINE
  5
303
100
AcDbEntity
  8
LAYER_FEATURE
100
AcDbSpline
 62
7
  6
CONTINUOUS
 70
0
 71
3
 72
22
 73
18
 74
0
 42
0.0000001
 43
0.0000001
 44
0.0000000001
 40
0.0
 40
0.0
 40
0.0
 40
0.0
 40
0.0470020198
 40
0.094639944
 40
0.1435082885
 40
0.1941270704
 40
0.2469205898
 40
0.3022084949
 40
0.3602071836
 40
0.4210368834
 40
0.4847312469
 40
0.5512475993
 40
0.6204773673
 40
0.6922564707
 40
0.7663728522
 40
0.8425696857
 40
1.0
 40
1.0
 40
1.0
 40
1.0
 10
15.9350367926
 20
13.1676992185
 30
0.0
 10
15.9351153263
 20
13.1679533532
 30
0.0
 10
15.9352367876
 20
13.1684771982
 30
0.0
 10
15.9353067281
 20
13.1692888281
 30
0.0
 10
15.9352648781
 20
13.1701228452
 30
0.0
 10
15.9351119122
 20
13.1709731418
 30
0.0
 10
15.9348493359
 20
13.1718340088
 30
0.0
 10
15.9344792996
 20
13.1726997749
 30
0.0
 10
15.934004541
 20
13.1735648452
 30
0.0
 10
15.9334283755
 20
13.1744236413
 30
0.0
 10
15.9327547108
 20
13.1752706065
 30
0.0
 10
15.9319880712
 20
13.176100238
 30
0.0
 10
15.9311335622
 20
13.1769071183
 30
0.0
 10
15.930196868
 20
13.177685931
 30
0.0
 10
15.9291841665
 20
13.1784315555
 30
0.0
 10
15.9277260346
 20
13.1793850291
 30
0.0
 10
15.9265626526
 20
13.1800195526
 30
0.0
 10
15.9257609686
 20
13.1804082042
 30
0.0
  0
SPLINE
  5
304
100
AcDbEntity
  8
LAYER_FEATURE
100
AcDbSpline
 62
7
  6
CONTINUOUS
 70
0
 71
3
 72
39
 73
35
 74
0
 42
0.0000001
 43
0.0000001
 44
0.0000000001
 40
0.0
 40
0.0
 40
0.0
 40
0.0
 40
0.0256297607
 40
0.0524013711
 40
0.0803302041
 40
0.1094055101
 40
0.13959361
 40
0.1708408737
 40
0.2030764326
 40
0.2362146307
 40
0.2701572446
 40
0.3047955083
 40
0.340011982
 40
0.3756822994
 40
0.4116768228
 40
0.4478622327
 40
0.4841030724
 40
0.5202632694
 40
0.5562076483
 40
0.591803455
 40
0.6269219079
 40
0.6614397981
 40
0.6952411593
 40
0.7282190354
 40
0.7602773753
 40
0.7913330912
 40
0.8213183188
 40
0.8501829133
 40
0.8778972209
 40
0.904455072
 40
0.9298770981
 40
0.9542137095
 40
0.977548698
 40
1.0
 40
1.0
 40
1.0
 40
1.0
 10
15.9248705656
 20
13.1349071006
 30
0.0
 10
15.9253270249
 20
13.1339729442
 30
0.0
 10
15.9263479149
 20
13.1321048464
 30
0.0
 10
15.9281407539
 20
13.1293799089
 30
0.0
 10
15.9302179927
 20
13.126686362
 30
0.0
 10
15.932567842
 20
13.1240391972
 30
0.0
 10
15.9351772659
 20
13.1214528027
 30
0.0
 10
15.9380317597
 20
13.1189414118
 30
0.0
 10
15.9411154842
 20
13.1165188606
 30
0.0
 10
15.9444113205
 20
13.1141985431
 30
0.0
 10
15.947900964
 20
13.1119933135
 30
0.0
 10
15.9515650222
 20
13.1099154097
 30
0.0
 10
15.9553831219
 20
13.1079763769
 30
0.0
 10
15.9593340231
 20
13.1061869984
 30
0.0
 10
15.9633957385
 20
13.1045572309
 30
0.0
 10
15.9675456585
 20
13.1030961469
 30
0.0
 10
15.9717606782
 20
13.1018118809
 30
0.0
 10
15.9760173297
 20
13.1007115833
 30
0.0
 10
15.9802919146
 20
13.0998013796
 30
0.0
 10
15.984560639
 20
13.0990863366
 30
0.0
 10
15.9887997496
 20
13.0985704344
 30
0.0
 10
15.9929856687
 20
13.0982565463
 30
0.0
 10
15.997095129
 20
13.0981464256
 30
0.0
 10
16.0011053072
 20
13.0982407001
 30
0.0
 10
16.0049939535
 20
13.0985388757
 30
0.0
 10
16.0087395182
 20
13.0990393483
 30
0.0
 10
16.0123212707
 20
13.0997394263
 30
0.0
 10
16.0157194118
 20
13.1006353629
 30
0.0
 10
16.0189151648
 20
13.1017223968
 30
0.0
 10
16.0218908737
 20
13.1029948097
 30
0.0
 10
16.0246299939
 20
13.1044459385
 30
0.0
 10
16.0271173115
 20
13.1060683738
 30
0.0
 10
16.0293383215
 20
13.1078533544
 30
0.0
 10
16.0306560813
 20
13.1091688579
 30
0.0
 10
16.0312617376
 20
13.1098490705
 30
0.0
  0
SPLINE
  5
305
100
AcDbEntity
  8
LAYER_FEATURE
100
AcDbSpline
 62
7
  6
CONTINUOUS
 70
0
 71
3
 72
23
 73
19
 74
0
 42
0.0000001
 43
0.0000001
 44
0.0000000001
 40
0.0
 40
0.0
 40
0.0
 40
0.0
 40
0.0451650935
 40
0.0911478287
 40
0.1386954549
 40
0.1884321148
 40
0.2408306962
 40
0.2962079277
 40
0.3547337337
 40
0.4164477064
 40
0.4812773757
 40
0.5490556762
 40
0.6195368702
 40
0.6924100851
 40
0.7673131366
 40
0.8438386407
 40
0.9215567231
 40
1.0
 40
1.0
 40
1.0
 40
1.0
 10
15.7623132891
 20
13.2386240743
 30
0.0
 10
15.7624044183
 20
13.238918991
 30
0.0
 10
15.7625387887
 20
13.239530721
 30
0.0
 10
15.762588345
 20
13.2404811839
 30
0.0
 10
15.7624871647
 20
13.2414587991
 30
0.0
 10
15.7622370755
 20
13.2424539921
 30
0.0
 10
15.7618412612
 20
13.2434579754
 30
0.0
 10
15.7613038923
 20
13.2444620559
 30
0.0
 10
15.7606301322
 20
13.2454576513
 30
0.0
 10
15.7598261622
 20
13.246436207
 30
0.0
 10
15.7588992122
 20
13.2473892415
 30
0.0
 10
15.7578575585
 20
13.2483084218
 30
0.0
 10
15.7567104847
 20
13.2491856467
 30
0.0
 10
15.7554682157
 20
13.2500131522
 30
0.0
 10
15.754141847
 20
13.2507835549
 30
0.0
 10
15.7527432004
 20
13.2514900245
 30
0.0
 10
15.751284859
 20
13.2521261736
 30
0.0
 10
15.7502840447
 20
13.2524986884
 30
0.0
 10
15.7497767227
 20
13.2526720073
 30
0.0
  0
SPLINE
  5
306
100
AcDbEntity
  8
LAYER_FEATURE
100
AcDbSpline
 62
7
  6
CONTINUOUS
 70
0
 71
3
 72
11
 73
7
 74
0
 42
0.0000001
 43
0.0000001
 44
0.0000000001
 40
0.0
 40
0.0
 40
0.0
 40
0.0
 40
0.2266030879
 40
0.4675638788
 40
0.7248878529
 40
1.0
 40
1.0
 40
1.0
 40
1.0
 10
15.8771469881
 20
12.1655799916
 30
0.0
 10
15.877807271
 20
12.1652526382
 30
0.0
 10
15.879125057
 20
12.1644844603
 30
0.0
 10
15.8810127348
 20
12.1630647906
 30
0.0
 10
15.8828602829
 20
12.1613523246
 30
0.0
 10
15.884021132
 20
12.1600642628
 30
0.0
 10
15.8845944828
 20
12.1593773638
 30
0.0
  0
SPLINE
  5
307
100
AcDbEntity
  8
LAYER_FEATURE
100
AcDbSpline
 62
7
  6
CONTINUOUS
 70
0
 71
3
 72
42
 73
38
 74
0
 42
0.0000001
 43
0.0000001
 44
0.0000000001
 40
0.0
 40
0.0
 40
0.0
 40
0.0
 40
0.0235712636
 40
0.0482696438
 40
0.0742553292
 40
0.1016285088
 40
0.1304345494
 40
0.160670562
 40
0.1922921103
 40
0.2252194745
 40
0.2593432689
 40
0.2945294344
 40
0.330623691
 40
0.3674555519
 40
0.4048420092
 40
0.4425909834
 40
0.4805046121
 40
0.5183824416
 40
0.5560245778
 40
0.5932348492
 40
0.6298240273
 40
0.6656131654
 40
0.7004371222
 40
0.7341483532
 40
0.7666210658
 40
0.7977558469
 40
0.8274848753
 40
0.8557777865
 40
0.8826481254
 40
0.908160107
 40
0.9324348305
 40
0.9441692755
 40
0.9556680084
 40
0.9669631037
 40
0.978090706
 40
0.9890901155
 40
1.0
 40
1.0
 40
1.0
 40
1.0
 10
15.7569137038
 20
13.2211935872
 30
0.0
 10
15.7570518336
 20
13.2201177007
 30
0.0
 10
15.7574896601
 20
13.2179321502
 30
0.0
 10
15.7585787061
 20
13.2146851478
 30
0.0
 10
15.7601032464
 20
13.2114247688
 30
0.0
 10
15.7620500775
 20
13.2081764708
 30
0.0
 10
15.7644033609
 20
13.2049644671
 30
0.0
 10
15.7671444255
 20
13.201813162
 30
0.0
 10
15.7702517867
 20
13.1987465867
 30
0.0
 10
15.7737011902
 20
13.195788319
 30
0.0
 10
15.7774657349
 20
13.1929612275
 30
0.0
 10
15.7815160458
 20
13.1902872645
 30
0.0
 10
15.7858204893
 20
13.1877872603
 30
0.0
 10
15.7903454145
 20
13.1854807346
 30
0.0
 10
15.7950554181
 20
13.1833857243
 30
0.0
 10
15.7999136261
 20
13.1815186292
 30
0.0
 10
15.8048819889
 20
13.1798940726
 30
0.0
 10
15.8099215868
 20
13.178524782
 30
0.0
 10
15.8149929431
 20
13.1774214834
 30
0.0
 10
15.8200563431
 20
13.1765928165
 30
0.0
 10
15.8250721558
 20
13.1760452704
 30
0.0
 10
15.8300011556
 20
13.1757831385
 30
0.0
 10
15.8348048407
 20
13.1758084962
 30
0.0
 10
15.8394457459
 20
13.1761212022
 30
0.0
 10
15.8438877453
 20
13.1767189293
 30
0.0
 10
15.8480963317
 20
13.1775972197
 30
0.0
 10
15.8520388835
 20
13.1787495923
 30
0.0
 10
15.8556848245
 20
13.1801676135
 30
0.0
 10
15.8590059061
 20
13.1818412098
 30
0.0
 10
15.8619757048
 20
13.1837581859
 30
0.0
 10
15.8641630234
 20
13.185568354
 30
0.0
 10
15.8657029548
 20
13.1871222118
 30
0.0
 10
15.8667432499
 20
13.1883249917
 30
0.0
 10
15.8676795249
 20
13.1895757104
 30
0.0
 10
15.8685099198
 20
13.1908720096
 30
0.0
 10
15.8692325665
 20
13.1922111591
 30
0.0
 10
15.8696427958
 20
13.1931334511
 30
0.0
 10
15.8698289085
 20
13.1935997389
 30
0.0
  0
SPLINE
  5
308
100
AcDbEntity
  8
LAYER_FEATURE
100
AcDbSpline
 62
7
  6
CONTINUOUS
 70
0
 71
3
 72
25
 73
21
 74
0
 42
0.0000001
 43
0.0000001
 44
0.0000000001
 40
0.0
 40
0.0
 40
0.0
 40
0.0
 40
0.0218724479
 40
0.043878345
 40
0.0661374163
 40
0.0887707451
 40
0.1355493055
 40
0.1849777155
 40
0.2375549229
 40
0.2935624849
 40
0.3530881244
 40
0.416054932
 40
0.4822500358
 40
0.5513501405
 40
0.6229436871
 40
0.6965501051
 40
0.7716370273
 40
0.8476356562
 40
0.9239560482
 40
1.0
 40
1.0
 40
1.0
 40
1.0
 10
15.5810110962
 20
13.2886468026
 30
0.0
 10
15.5810628715
 20
13.288814368
 30
0.0
 10
15.5811508872
 20
13.2891556529
 30
0.0
 10
15.5812346731
 20
13.2896800447
 30
0.0
 10
15.581270096
 20
13.2902160673
 30
0.0
 10
15.5812526886
 20
13.2909517513
 30
0.0
 10
15.5811050521
 20
13.2918980186
 30
0.0
 10
15.5807382385
 20
13.2930376051
 30
0.0
 10
15.5801857179
 20
13.2941817967
 30
0.0
 10
15.5794547025
 20
13.2953178137
 30
0.0
 10
15.5785540245
 20
13.296433315
 30
0.0
 10
15.577494179
 20
13.2975159237
 30
0.0
 10
15.5762873793
 20
13.2985534976
 30
0.0
 10
15.5749474991
 20
13.2995342638
 30
0.0
 10
15.573489958
 20
13.3004470087
 30
0.0
 10
15.5719315569
 20
13.3012812417
 30
0.0
 10
15.5702902975
 20
13.302027338
 30
0.0
 10
15.5685851283
 20
13.3026766824
 30
0.0
 10
15.5668358726
 20
13.3032217388
 30
0.0
 10
15.5656483478
 20
13.3035127122
 30
0.0
 10
15.5650518362
 20
13.3036390842
 30
0.0
  0
SPLINE
  5
309
100
AcDbEntity
  8
02___PRT_ALL_AXES
100
AcDbSpline
 62
7
  6
CONTINUOUS
 70
0
 71
3
 72
22
 73
18
 74
0
 42
0.0000001
 43
0.0000001
 44
0.0000000001
 40
0.0
 40
0.0
 40
0.0
 40
0.0
 40
0.0522001782
 40
0.1045840806
 40
0.1574710644
 40
0.2111703452
 40
0.265974746
 40
0.3221553959
 40
0.3799580349
 40
0.4396009593
 40
0.5012735827
 40
0.5651373627
 40
0.699890634
 40
0.7710238164
 40
0.844731758
 40
0.9210566816
 40
1.0
 40
1.0
 40
1.0
 40
1.0
 10
15.8841793401
 20
12.1670668175
 30
0.0
 10
15.8846958623
 20
12.1670668166
 30
0.0
 10
15.8857313706
 20
12.1670187244
 30
0.0
 10
15.887276543
 20
12.1668020101
 30
0.0
 10
15.8888098478
 20
12.1664410925
 30
0.0
 10
15.8903272468
 20
12.1659367002
 30
0.0
 10
15.8918250422
 20
12.1652898039
 30
0.0
 10
15.8932996005
 20
12.1645016226
 30
0.0
 10
15.8947474853
 20
12.163573661
 30
0.0
 10
15.8961653181
 20
12.1625075735
 30
0.0
 10
15.8975500154
 20
12.1613052883
 30
0.0
 10
15.8993804128
 20
12.1594911936
 30
0.0
 10
15.9010963086
 20
12.1574373504
 30
0.0
 10
15.9026975527
 20
12.1551803643
 30
0.0
 10
15.9038733557
 20
12.153333461
 30
0.0
 10
15.9049996776
 20
12.1513667065
 30
0.0
 10
15.9057044319
 20
12.1500008838
 30
0.0
 10
15.9060485602
 20
12.1492996241
 30
0.0
  0
SPLINE
  5
30A
100
AcDbEntity
  8
LAYER_FEATURE
100
AcDbSpline
 62
7
  6
CONTINUOUS
 70
0
 71
3
 72
44
 73
40
 74
0
 42
0.0000001
 43
0.0000001
 44
0.0000000001
 40
0.0
 40
0.0
 40
0.0
 40
0.0
 40
0.0109889791
 40
0.0220309265
 40
0.0331718291
 40
0.0444570698
 40
0.0559281686
 40
0.0676231067
 40
0.0918034928
 40
0.1172344625
 40
0.1440668379
 40
0.1723851487
 40
0.2022146438
 40
0.2335292521
 40
0.2662593142
 40
0.3002986014
 40
0.3355105253
 40
0.3717336504
 40
0.4087866227
 40
0.4464726407
 40
0.4845836043
 40
0.5229040427
 40
0.5612149109
 40
0.5992973294
 40
0.6369363196
 40
0.6739246059
 40
0.7100665593
 40
0.7451823721
 40
0.7791125796
 40
0.8117230221
 40
0.8429103962
 40
0.8726085436
 40
0.9007955431
 40
0.9275014911
 40
0.952816459
 40
0.9650051398
 40
0.9769108335
 40
0.9885641858
 40
1.0
 40
1.0
 40
1.0
 40
1.0
 10
15.5807467342
 20
13.2878213017
 30
0.0
 10
15.5805976114
 20
13.2873228907
 30
0.0
 10
15.5803388844
 20
13.2863111215
 30
0.0
 10
15.580072957
 20
13.2847617659
 30
0.0
 10
15.5799292001
 20
13.2831821946
 30
0.0
 10
15.579907904
 20
13.2815760242
 30
0.0
 10
15.5800090027
 20
13.2799466311
 30
0.0
 10
15.5803098352
 20
13.2777237545
 30
0.0
 10
15.5810023694
 20
13.2748954182
 30
0.0
 10
15.5823031012
 20
13.271509292
 30
0.0
 10
15.5840697281
 20
13.2681196901
 30
0.0
 10
15.5862861222
 20
13.2647546721
 30
0.0
 10
15.5889330057
 20
13.2614414561
 30
0.0
 10
15.5919878219
 20
13.2582072609
 30
0.0
 10
15.5954247552
 20
13.2550788206
 30
0.0
 10
15.5992148281
 20
13.2520822015
 30
0.0
 10
15.6033260794
 20
13.2492425037
 30
0.0
 10
15.6077238054
 20
13.2465836109
 30
0.0
 10
15.6123708449
 20
13.244127952
 30
0.0
 10
15.6172278921
 20
13.2418962827
 30
0.0
 10
15.622253834
 20
13.23990749
 30
0.0
 10
15.6274061067
 20
13.2381784194
 30
0.0
 10
15.6326410635
 20
13.2367237174
 30
0.0
 10
15.6379143583
 20
13.2355557046
 30
0.0
 10
15.6431813331
 20
13.2346842721
 30
0.0
 10
15.64839741
 20
13.2341168004
 30
0.0
 10
15.6535184821
 20
13.2338581035
 30
0.0
 10
15.6585013031
 20
13.2339104044
 30
0.0
 10
15.6633038693
 20
13.2342733346
 30
0.0
 10
15.6678857833
 20
13.2349439753
 30
0.0
 10
15.672208608
 20
13.2359169565
 30
0.0
 10
15.676236111
 20
13.2371845329
 30
0.0
 10
15.6799346696
 20
13.2387369146
 30
0.0
 10
15.6832727639
 20
13.2405618595
 30
0.0
 10
15.685762056
 20
13.2423209788
 30
0.0
 10
15.6875338816
 20
13.2438503902
 30
0.0
 10
15.6887390243
 20
13.2450405346
 30
0.0
 10
15.6898342378
 20
13.2462853929
 30
0.0
 10
15.6904951318
 20
13.2471575671
 30
0.0
 10
15.6908054312
 20
13.2476012149
 30
0.0
  0
SPLINE
  5
30B
100
AcDbEntity
  8
02___PRT_ALL_AXES
100
AcDbSpline
 62
7
  6
CONTINUOUS
 70
0
 71
3
 72
39
 73
35
 74
0
 42
0.0000001
 43
0.0000001
 44
0.0000000001
 40
0.0
 40
0.0
 40
0.0
 40
0.0
 40
0.0248034973
 40
0.0496643335
 40
0.0746391947
 40
0.0997834851
 40
0.1251507427
 40
0.1507921168
 40
0.1767559198
 40
0.2030872608
 40
0.2298277638
 40
0.2570153696
 40
0.284684211
 40
0.312864556
 40
0.3415828085
 40
0.3708615539
 40
0.4007196437
 40
0.4311723119
 40
0.4622313094
 40
0.493905052
 40
0.5261987774
 40
0.5591147045
 40
0.5926521923
 40
0.6268079021
 40
0.6615759537
 40
0.6969480775
 40
0.7329137579
 40
0.7694603751
 40
0.8065733377
 40
0.8442361876
 40
0.8824308336
 40
0.9211372865
 40
0.9603348127
 40
1.0
 40
1.0
 40
1.0
 40
1.0
 10
14.8096643314
 20
12.3805368131
 30
0.0
 10
14.8107889468
 20
12.3841760752
 30
0.0
 10
14.8132555937
 20
12.3913986077
 30
0.0
 10
14.8175919046
 20
12.4020157478
 30
0.0
 10
14.8225614957
 20
12.4124100191
 30
0.0
 10
14.8281583982
 20
12.4225690011
 30
0.0
 10
14.8343761058
 20
12.4324812162
 30
0.0
 10
14.8412073452
 20
12.4421353473
 30
0.0
 10
14.8486441654
 20
12.451520464
 30
0.0
 10
14.856677935
 20
12.4606259755
 30
0.0
 10
14.86529937
 20
12.4694416487
 30
0.0
 10
14.8744985488
 20
12.477957607
 30
0.0
 10
14.884264927
 20
12.486164334
 30
0.0
 10
14.8945873501
 20
12.4940526759
 30
0.0
 10
14.9054540645
 20
12.5016138445
 30
0.0
 10
14.9168527271
 20
12.5088394227
 30
0.0
 10
14.9287704149
 20
12.5157213713
 30
0.0
 10
14.9411936396
 20
12.5222520313
 30
0.0
 10
14.9541083583
 20
12.5284241315
 30
0.0
 10
14.9674999862
 20
12.534230795
 30
0.0
 10
14.9813534102
 20
12.5396655471
 30
0.0
 10
14.9956530022
 20
12.5447223218
 30
0.0
 10
15.0103826337
 20
12.5493954734
 30
0.0
 10
15.0255256934
 20
12.5536797796
 30
0.0
 10
15.0410651053
 20
12.5575704486
 30
0.0
 10
15.0569833468
 20
12.5610631251
 30
0.0
 10
15.0732624673
 20
12.5641538964
 30
0.0
 10
15.0898841084
 20
12.5668392971
 30
0.0
 10
15.1068295194
 20
12.5691163143
 30
0.0
 10
15.1240795947
 20
12.5709824006
 30
0.0
 10
15.1416148397
 20
12.5724354502
 30
0.0
 10
15.1594155575
 20
12.5734738577
 30
0.0
 10
15.1774614727
 20
12.5740964237
 30
0.0
 10
15.189572882
 20
12.5742330143
 30
0.0
 10
15.1956642545
 20
12.5742330143
 30
0.0
  0
SPLINE
  5
30C
100
AcDbEntity
  8
02___PRT_ALL_AXES
100
AcDbSpline
 62
7
  6
CONTINUOUS
 70
0
 71
3
 72
56
 73
52
 74
0
 42
0.0000001
 43
0.0000001
 44
0.0000000001
 40
0.0
 40
0.0
 40
0.0
 40
0.0
 40
0.0345294132
 40
0.0697081291
 40
0.1054492283
 40
0.1416605161
 40
0.1782456822
 40
0.2151052099
 40
0.2521372626
 40
0.2892385663
 40
0.3263052722
 40
0.3632338187
 40
0.3999217931
 40
0.4362688034
 40
0.4721773729
 40
0.5075538498
 40
0.5423093677
 40
0.5594290573
 40
0.5763628928
 40
0.5931015688
 40
0.60963628
 40
0.6259587567
 40
0.6420613039
 40
0.6579368415
 40
0.6735789474
 40
0.6889819041
 40
0.7041407441
 40
0.7190512973
 40
0.7337102421
 40
0.7481151576
 40
0.7622645807
 40
0.7761580625
 40
0.7897962244
 40
0.8031808165
 40
0.8163147763
 40
0.8292022871
 40
0.8418488351
 40
0.854261258
 40
0.8664477897
 40
0.8784180964
 40
0.8901833021
 40
0.9017560001
 40
0.9131502433
 40
0.924381514
 40
0.93546667
 40
0.9464238628
 40
0.9572724291
 40
0.9680327498
 40
0.9787260815
 40
0.9893743628
 40
1.0
 40
1.0
 40
1.0
 40
1.0
 10
15.1956642545
 20
12.5742330143
 30
0.0
 10
15.2075473727
 20
12.5742330143
 30
0.0
 10
15.2315399182
 20
12.5737055168
 30
0.0
 10
15.2677655386
 20
12.5713918499
 30
0.0
 10
15.304444147
 20
12.5675574213
 30
0.0
 10
15.3414226156
 20
12.5622181596
 30
0.0
 10
15.3785476575
 20
12.5553962597
 30
0.0
 10
15.4156650214
 20
12.5471200419
 30
0.0
 10
15.4526205544
 20
12.5374238903
 30
0.0
 10
15.4892607351
 20
12.5263480884
 30
0.0
 10
15.5254333471
 20
12.5139386337
 30
0.0
 10
15.5609881247
 20
12.5002470942
 30
0.0
 10
15.5957773848
 20
12.4853303306
 30
0.0
 10
15.6296566053
 20
12.4692503073
 30
0.0
 10
15.6624852276
 20
12.4520737321
 30
0.0
 10
15.6941265421
 20
12.4338721152
 30
0.0
 10
15.7195225135
 20
12.4178326445
 30
0.0
 10
15.7391257791
 20
12.4045457468
 30
0.0
 10
15.753377843
 20
12.3944226695
 30
0.0
 10
15.7672377851
 20
12.3841027273
 30
0.0
 10
15.7806912549
 20
12.3735965924
 30
0.0
 10
15.7937242384
 20
12.3629152043
 30
0.0
 10
15.806323181
 20
12.3520696611
 30
0.0
 10
15.8184749727
 20
12.3410712342
 30
0.0
 10
15.8301669689
 20
12.3299313481
 30
0.0
 10
15.841387006
 20
12.3186615745
 30
0.0
 10
15.8521234112
 20
12.3072736163
 30
0.0
 10
15.8623650118
 20
12.295779294
 30
0.0
 10
15.8721011463
 20
12.2841905345
 30
0.0
 10
15.8813216738
 20
12.2725193569
 30
0.0
 10
15.8900169884
 20
12.2607778634
 30
0.0
 10
15.8981780278
 20
12.2489782257
 30
0.0
 10
15.9057962771
 20
12.2371326704
 30
0.0
 10
15.9128637762
 20
12.225253468
 30
0.0
 10
15.9193731262
 20
12.2133529209
 30
0.0
 10
15.9253174973
 20
12.2014433522
 30
0.0
 10
15.9306906399
 20
12.1895370968
 30
0.0
 10
15.9354868821
 20
12.1776464881
 30
0.0
 10
15.9397011347
 20
12.1657838492
 30
0.0
 10
15.9433288964
 20
12.1539614842
 30
0.0
 10
15.9463662578
 20
12.1421916692
 30
0.0
 10
15.9488099164
 20
12.1304866465
 30
0.0
 10
15.9506571756
 20
12.1188586138
 30
0.0
 10
15.9519059506
 20
12.1073197173
 30
0.0
 10
15.9525547767
 20
12.0958820419
 30
0.0
 10
15.9526028183
 20
12.0845576049
 30
0.0
 10
15.9520498817
 20
12.0733583288
 30
0.0
 10
15.9508964387
 20
12.0622960779
 30
0.0
 10
15.949143569
 20
12.05138245
 30
0.0
 10
15.9467931888
 20
12.0406294637
 30
0.0
 10
15.9448285199
 20
12.0335719264
 30
0.0
 10
15.9437488733
 20
12.0300781832
 30
0.0
  0
SPLINE
  5
30D
100
AcDbEntity
  8
LAYER_CUT_FEAT
100
AcDbSpline
 62
7
  6
CONTINUOUS
 70
0
 71
3
 72
22
 73
18
 74
0
 42
0.0000001
 43
0.0000001
 44
0.0000000001
 40
0.0
 40
0.0
 40
0.0
 40
0.0
 40
0.1381197978
 40
0.2053664405
 40
0.2714549011
 40
0.3364371411
 40
0.4003725799
 40
0.4633278459
 40
0.5253764074
 40
0.5865986107
 40
0.6470813122
 40
0.7069174445
 40
0.7662054998
 40
0.8250488571
 40
0.883554961
 40
0.9418344168
 40
1.0
 40
1.0
 40
1.0
 40
1.0
 10
16.0329625606
 20
12.2053074982
 30
0.0
 10
16.0373636765
 20
12.1963389668
 30
0.0
 10
16.043428067
 20
12.182757896
 30
0.0
 10
16.0503446961
 20
12.1643779622
 30
0.0
 10
16.0548422233
 20
12.1507522791
 30
0.0
 10
16.0586907057
 20
12.1371781533
 30
0.0
 10
16.0618865068
 20
12.123668172
 30
0.0
 10
16.064426388
 20
12.1102353583
 30
0.0
 10
16.0663077549
 20
12.0968925437
 30
0.0
 10
16.0675286626
 20
12.0836525504
 30
0.0
 10
16.0680877955
 20
12.070528116
 30
0.0
 10
16.067984457
 20
12.0575319062
 30
0.0
 10
16.0672186025
 20
12.0446764854
 30
0.0
 10
16.0657908854
 20
12.0319743528
 30
0.0
 10
16.0637025541
 20
12.0194377255
 30
0.0
 10
16.0609556891
 20
12.0070792728
 30
0.0
 10
16.058686089
 20
11.9989633184
 30
0.0
 10
16.0574439478
 20
11.9949437479
 30
0.0
  0
SPLINE
  5
30E
100
AcDbEntity
  8
LAYER_CHAMFER_FEAT
100
AcDbSpline
 62
7
  6
CONTINUOUS
 70
0
 71
3
 72
42
 73
38
 74
0
 42
0.0000001
 43
0.0000001
 44
0.0000000001
 40
0.0
 40
0.0
 40
0.0
 40
0.0
 40
0.0106262449
 40
0.0212751356
 40
0.0319690782
 40
0.0427300144
 40
0.0535792026
 40
0.0645370193
 40
0.0868474333
 40
0.1098090037
 40
0.133539819
 40
0.158134743
 40
0.183665404
 40
0.2101811335
 40
0.2377104756
 40
0.2662629724
 40
0.2958310291
 40
0.3263917376
 40
0.3579085954
 40
0.390333096
 40
0.4236061875
 40
0.4576596078
 40
0.4924171132
 40
0.5277956148
 40
0.5637062395
 40
0.6000553311
 40
0.6367454047
 40
0.6736760633
 40
0.7107448883
 40
0.747848313
 40
0.7848824803
 40
0.8217441211
 40
0.8583313605
 40
0.8945447747
 40
0.9302877874
 40
0.9654688271
 40
1.0
 40
1.0
 40
1.0
 40
1.0
 10
15.187503386
 20
12.0164194357
 30
0.0
 10
15.1872759975
 20
12.0156836007
 30
0.0
 10
15.1868621968
 20
12.0141971806
 30
0.0
 10
15.1863671841
 20
12.0119324384
 30
0.0
 10
15.1859979953
 20
12.0096338633
 30
0.0
 10
15.1857550646
 20
12.0073039982
 30
0.0
 10
15.185638619
 20
12.0049452196
 30
0.0
 10
15.185652134
 20
12.001746433
 30
0.0
 10
15.185992239
 20
11.9976773584
 30
0.0
 10
15.1869038005
 20
11.9927522904
 30
0.0
 10
15.1883162802
 20
11.9877749827
 30
0.0
 10
15.1902229215
 20
11.9827663722
 30
0.0
 10
15.1926150919
 20
11.9777468178
 30
0.0
 10
15.1954823683
 20
11.9727367825
 30
0.0
 10
15.1988125341
 20
11.9677566398
 30
0.0
 10
15.2025915895
 20
11.9628266869
 30
0.0
 10
15.2068037665
 20
11.9579670662
 30
0.0
 10
15.2114315599
 20
11.9531976914
 30
0.0
 10
15.2164557738
 20
11.9485381598
 30
0.0
 10
15.2218555835
 20
11.944007664
 30
0.0
 10
15.2276086095
 20
11.9396249035
 30
0.0
 10
15.2336910033
 20
11.935407998
 30
0.0
 10
15.2400775423
 20
11.931374405
 30
0.0
 10
15.2467417325
 20
11.9275408404
 30
0.0
 10
15.2536559177
 20
11.9239232043
 30
0.0
 10
15.2607913946
 20
11.9205365095
 30
0.0
 10
15.2681185337
 20
11.9173948167
 30
0.0
 10
15.2756069033
 20
11.9145111736
 30
0.0
 10
15.283225398
 20
11.911897558
 30
0.0
 10
15.2909423688
 20
11.9095648279
 30
0.0
 10
15.298725758
 20
11.9075226727
 30
0.0
 10
15.3065432302
 20
11.9057795787
 30
0.0
 10
15.3143623228
 20
11.9043427794
 30
0.0
 10
15.3221505364
 20
11.9032182568
 30
0.0
 10
15.3298756173
 20
11.9024106574
 30
0.0
 10
15.3375052742
 20
11.9019233731
 30
0.0
 10
15.3425584707
 20
11.9018122704
 30
0.0
 10
15.345061218
 20
11.9018122704
 30
0.0
  0
SPLINE
  5
30F
100
AcDbEntity
  8
02___PRT_ALL_AXES
100
AcDbSpline
 62
7
  6
CONTINUOUS
 70
0
 71
3
 72
24
 73
20
 74
0
 42
0.0000001
 43
0.0000001
 44
0.0000000001
 40
0.0
 40
0.0
 40
0.0
 40
0.0
 40
0.0689896443
 40
0.1370358495
 40
0.2041168129
 40
0.2702297349
 40
0.3353779552
 40
0.3995772764
 40
0.4628536056
 40
0.5252432278
 40
0.5867926199
 40
0.6475580364
 40
0.7076052655
 40
0.7373878735
 40
0.7670198248
 40
0.8258644313
 40
0.8842416869
 40
0.9422513261
 40
1.0
 40
1.0
 40
1.0
 40
1.0
 10
15.1783565124
 20
12.5182251403
 30
0.0
 10
15.1798799829
 20
12.5182251403
 30
0.0
 10
15.1829068736
 20
12.5181386937
 30
0.0
 10
15.187399587
 20
12.5177442394
 30
0.0
 10
15.1917975862
 20
12.5170877397
 30
0.0
 10
15.1960837603
 20
12.5161725166
 30
0.0
 10
15.2002417022
 20
12.5150030238
 30
0.0
 10
15.2042553189
 20
12.5135850102
 30
0.0
 10
15.208109067
 20
12.511925336
 30
0.0
 10
15.2117879576
 20
12.5100319764
 30
0.0
 10
15.2152776618
 20
12.5079138756
 30
0.0
 10
15.2185643806
 20
12.5055810383
 30
0.0
 10
15.2211307245
 20
12.5034608865
 30
0.0
 10
15.2230674816
 20
12.501668955
 30
0.0
 10
15.2249167109
 20
12.4998242654
 30
0.0
 10
15.2270812259
 20
12.4974048634
 30
0.0
 10
15.229434008
 20
12.4943278898
 30
0.0
 10
15.2315266345
 20
12.4910972911
 30
0.0
 10
15.2327445765
 20
12.4888462615
 30
0.0
 10
15.2333063708
 20
12.4877014357
 30
0.0
  0
SPLINE
  5
310
100
AcDbEntity
  8
02___PRT_ALL_AXES
100
AcDbSpline
 62
7
  6
CONTINUOUS
 70
0
 71
3
 72
48
 73
44
 74
0
 42
0.0000001
 43
0.0000001
 44
0.0000000001
 40
0.0
 40
0.0
 40
0.0
 40
0.0
 40
0.0287473812
 40
0.0591494574
 40
0.0911470698
 40
0.1246535612
 40
0.1595593078
 40
0.1957347296
 40
0.2330332402
 40
0.2712937347
 40
0.3103426823
 40
0.3499960341
 40
0.3900607186
 40
0.4303362797
 40
0.4706163528
 40
0.5106900899
 40
0.5503439055
 40
0.5893634091
 40
0.6275355977
 40
0.6646514173
 40
0.7005086111
 40
0.7349149134
 40
0.7676915175
 40
0.7986769045
 40
0.8134539813
 40
0.8277327829
 40
0.8414999967
 40
0.8547443482
 40
0.8674567571
 40
0.8796307419
 40
0.8912625454
 40
0.9023517456
 40
0.9129014193
 40
0.9229190351
 40
0.9324167417
 40
0.94141253
 40
0.9499307305
 40
0.9580034142
 40
0.9729682738
 40
0.9799853741
 40
0.9867766593
 40
0.9934201256
 40
1.0
 40
1.0
 40
1.0
 40
1.0
 10
15.9060485602
 20
12.1492996241
 30
0.0
 10
15.9067123895
 20
12.1479468822
 30
0.0
 10
15.9079707006
 20
12.1451098539
 30
0.0
 10
15.9096127116
 20
12.1406201295
 30
0.0
 10
15.9110553542
 20
12.1358016227
 30
0.0
 10
15.9122927575
 20
12.1306836693
 30
0.0
 10
15.9133214879
 20
12.1252969186
 30
0.0
 10
15.9141401962
 20
12.1196736135
 30
0.0
 10
15.9147495975
 20
12.1138471802
 30
0.0
 10
15.9151522928
 20
12.1078520367
 30
0.0
 10
15.9153525964
 20
12.1017233745
 30
0.0
 10
15.9153563371
 20
12.095496996
 30
0.0
 10
15.9151706516
 20
12.0892091636
 30
0.0
 10
15.9148037781
 20
12.0828964721
 30
0.0
 10
15.9142648509
 20
12.076595723
 30
0.0
 10
15.9135637015
 20
12.0703437966
 30
0.0
 10
15.9127106671
 20
12.0641775039
 30
0.0
 10
15.911716407
 20
12.0581334042
 30
0.0
 10
15.9105917246
 20
12.0522475904
 30
0.0
 10
15.9093474014
 20
12.0465554346
 30
0.0
 10
15.9079940367
 20
12.0410913159
 30
0.0
 10
15.9065419079
 20
12.0358882762
 30
0.0
 10
15.9050008222
 20
12.0309778445
 30
0.0
 10
15.9036293717
 20
12.0270950716
 30
0.0
 10
15.9024905453
 20
12.0241609559
 30
0.0
 10
15.901633027
 20
12.022086353
 30
0.0
 10
15.9007595683
 20
12.0201058945
 30
0.0
 10
15.8998710775
 20
12.0182225027
 30
0.0
 10
15.8989684254
 20
12.0164389396
 30
0.0
 10
15.8980524427
 20
12.0147577966
 30
0.0
 10
15.8971238959
 20
12.0131814979
 30
0.0
 10
15.8961835262
 20
12.0117122902
 30
0.0
 10
15.8952319917
 20
12.0103522575
 30
0.0
 10
15.8942699441
 20
12.0091033039
 30
0.0
 10
15.8932979054
 20
12.0079671742
 30
0.0
 10
15.8923164945
 20
12.0069454898
 30
0.0
 10
15.8913258675
 20
12.006039563
 30
0.0
 10
15.890027032
 20
12.005014147
 30
0.0
 10
15.888674863
 20
12.0041859136
 30
0.0
 10
15.8872822281
 20
12.0036007141
 30
0.0
 10
15.8862529859
 20
12.0032928792
 30
0.0
 10
15.8852180558
 20
12.0031079092
 30
0.0
 10
15.8845242358
 20
12.0030668168
 30
0.0
 10
15.8841793401
 20
12.0030668176
 30
0.0
  0
SPLINE
  5
311
100
AcDbEntity
  8
LAYER_CHAMFER_FEAT
100
AcDbSpline
 62
7
  6
CONTINUOUS
 70
0
 71
3
 72
27
 73
23
 74
0
 42
0.0000001
 43
0.0000001
 44
0.0000000001
 40
0.0
 40
0.0
 40
0.0
 40
0.0
 40
0.0248063952
 40
0.0496701434
 40
0.074647917
 40
0.099795159
 40
0.1251653699
 40
0.150809759
 40
0.1767765796
 40
0.2031110182
 40
0.2570287964
 40
0.3128695384
 40
0.3708599427
 40
0.4311658584
 40
0.4938953698
 40
0.5591032371
 40
0.6267959449
 40
0.6969367449
 40
0.7694507392
 40
0.8442289274
 40
0.9211336396
 40
1.0
 40
1.0
 40
1.0
 40
1.0
 10
15.4263585832
 20
11.9426075972
 30
0.0
 10
15.4261217237
 20
11.9418411137
 30
0.0
 10
15.4256022221
 20
11.9403199358
 30
0.0
 10
15.4246889118
 20
11.9380838149
 30
0.0
 10
15.4236422607
 20
11.9358946157
 30
0.0
 10
15.4224634503
 20
11.9337549933
 30
0.0
 10
15.4211539239
 20
11.9316673184
 30
0.0
 10
15.4197151534
 20
11.9296340338
 30
0.0
 10
15.41814883
 20
11.927657348
 30
0.0
 10
15.4158752639
 20
11.9250804512
 30
0.0
 10
15.4127105947
 20
11.922010133
 30
0.0
 10
15.4084665698
 20
11.9186188453
 30
0.0
 10
15.4037655376
 20
11.915505268
 30
0.0
 10
15.3986293389
 20
11.9126829568
 30
0.0
 10
15.3930811774
 20
11.9101638022
 30
0.0
 10
15.3871460364
 20
11.9079585834
 30
0.0
 10
15.3808505219
 20
11.9060767692
 30
0.0
 10
15.3742228233
 20
11.9045264981
 30
0.0
 10
15.3672926407
 20
11.9033145232
 30
0.0
 10
15.3600909689
 20
11.9024461307
 30
0.0
 10
15.3526503248
 20
11.9019251451
 30
0.0
 10
15.3476117803
 20
11.9018122704
 30
0.0
 10
15.345061218
 20
11.9018122704
 30
0.0
  0
SPLINE
  5
312
100
AcDbEntity
  8
LAYER_FEATURE
100
AcDbSpline
 62
7
  6
CONTINUOUS
 70
0
 71
3
 72
77
 73
73
 74
0
 42
0.0000001
 43
0.0000001
 44
0.0000000001
 40
0.0
 40
0.0
 40
0.0
 40
0.0
 40
0.0053541179
 40
0.0107129252
 40
0.0160810906
 40
0.0214632434
 40
0.0268639516
 40
0.032287707
 40
0.0377389026
 40
0.0432218218
 40
0.0487406174
 40
0.0542993041
 40
0.0655501203
 40
0.0770047199
 40
0.0886891118
 40
0.1006262807
 40
0.1128361124
 40
0.1190492014
 40
0.1253364879
 40
0.1381389499
 40
0.1512553804
 40
0.1646937387
 40
0.1784593033
 40
0.1925548263
 40
0.206980693
 40
0.22173508
 40
0.2368141101
 40
0.2522120012
 40
0.2679212088
 40
0.2839325611
 40
0.3002353867
 40
0.3168176351
 40
0.3336659914
 40
0.3507659839
 40
0.3681020865
 40
0.3856578167
 40
0.403415828
 40
0.421358
 40
0.439465524
 40
0.4577189861
 40
0.4760984477
 40
0.4945835247
 40
0.513153464
 40
0.531787219
 40
0.5504635244
 40
0.5691609698
 40
0.5878580732
 40
0.6065333534
 40
0.6251654035
 40
0.6437329641
 40
0.6622149969
 40
0.6805907593
 40
0.69883988
 40
0.7169424362
 40
0.7348790318
 40
0.7526308788
 40
0.7701798799
 40
0.787508715
 40
0.8046009305
 40
0.8214410322
 40
0.8380145838
 40
0.8543083088
 40
0.8703101989
 40
0.8860096287
 40
0.901397476
 40
0.9164662501
 40
0.9312102282
 40
0.9456255937
 40
0.9597105979
 40
0.9734656811
 40
0.9868937137
 40
1.0
 40
1.0
 40
1.0
 40
1.0
 10
14.702020915
 20
12.4352544212
 30
0.0
 10
14.7028511176
 20
12.4379409579
 30
0.0
 10
14.7046095111
 20
12.4432868822
 30
0.0
 10
14.7075367961
 20
12.4512107043
 30
0.0
 10
14.7107529859
 20
12.4590377603
 30
0.0
 10
14.7142567115
 20
12.4667645151
 30
0.0
 10
14.7180464059
 20
12.4743877106
 30
0.0
 10
14.7221204788
 20
12.4819040306
 30
0.0
 10
14.7264771215
 20
12.4893102831
 30
0.0
 10
14.7311144692
 20
12.4966032431
 30
0.0
 10
14.7360305567
 20
12.5037798889
 30
0.0
 10
14.7429813218
 20
12.5132265404
 30
0.0
 10
14.7523734076
 20
12.5247362437
 30
0.0
 10
14.7646759323
 20
12.5379750268
 30
0.0
 10
14.7780350526
 20
12.550675529
 30
0.0
 10
14.7924268342
 20
12.5628157288
 30
0.0
 10
14.8051855845
 20
12.5723930888
 30
0.0
 10
14.815871866
 20
12.579758439
 30
0.0
 10
14.8270104473
 20
12.5870079628
 30
0.0
 10
14.8415425049
 20
12.5956782337
 30
0.0
 10
14.8598000252
 20
12.6053849665
 30
0.0
 10
14.8789499717
 20
12.6144403212
 30
0.0
 10
14.8989593189
 20
12.6228289461
 30
0.0
 10
14.919794025
 20
12.6305368413
 30
0.0
 10
14.9414185484
 20
12.6375510567
 30
0.0
 10
14.9637960455
 20
12.6438598077
 30
0.0
 10
14.9868883851
 20
12.649452474
 30
0.0
 10
15.0106562187
 20
12.6543196296
 30
0.0
 10
15.0350590412
 20
12.6584530612
 30
0.0
 10
15.0600552579
 20
12.6618457869
 30
0.0
 10
15.0856022536
 20
12.6644920718
 30
0.0
 10
15.1116564648
 20
12.6663874414
 30
0.0
 10
15.1381734533
 20
12.6675286917
 30
0.0
 10
15.1651079827
 20
12.6679138975
 30
0.0
 10
15.1924140952
 20
12.6675424177
 30
0.0
 10
15.2200451914
 20
12.6664148981
 30
0.0
 10
15.2479541099
 20
12.6645332715
 30
0.0
 10
15.2760932086
 20
12.6619007557
 30
0.0
 10
15.3044144469
 20
12.6585218489
 30
0.0
 10
15.3328694683
 20
12.6544023229
 30
0.0
 10
15.3614096837
 20
12.6495492134
 30
0.0
 10
15.3899863552
 20
12.6439708089
 30
0.0
 10
15.4185506796
 20
12.6376766362
 30
0.0
 10
15.4470538728
 20
12.6306774452
 30
0.0
 10
15.4754472533
 20
12.6229851898
 30
0.0
 10
15.5036823263
 20
12.614613008
 30
0.0
 10
15.5317108668
 20
12.6055751992
 30
0.0
 10
15.5594850027
 20
12.5958871999
 30
0.0
 10
15.5869572968
 20
12.5855655569
 30
0.0
 10
15.6140808285
 20
12.5746278989
 30
0.0
 10
15.6408092743
 20
12.5630929061
 30
0.0
 10
15.6670969875
 20
12.5509802774
 30
0.0
 10
15.6928990763
 20
12.538310697
 30
0.0
 10
15.7181714811
 20
12.5251057979
 30
0.0
 10
15.7428710496
 20
12.5113881244
 30
0.0
 10
15.7669556115
 20
12.4971810928
 30
0.0
 10
15.7903840498
 20
12.4825089502
 30
0.0
 10
15.8131163718
 20
12.4673967324
 30
0.0
 10
15.835113777
 20
12.4518702193
 30
0.0
 10
15.8563387228
 20
12.4359558897
 30
0.0
 10
15.8767549884
 20
12.4196808744
 30
0.0
 10
15.8963277356
 20
12.4030729078
 30
0.0
 10
15.9150235671
 20
12.3861602787
 30
0.0
 10
15.9328105812
 20
12.3689717794
 30
0.0
 10
15.9496584236
 20
12.351536655
 30
0.0
 10
15.9655383374
 20
12.3338845496
 30
0.0
 10
15.9804232011
 20
12.3160454595
 30
0.0
 10
15.9942875889
 20
12.2980496589
 30
0.0
 10
16.0071077479
 20
12.2799277285
 30
0.0
 10
16.0188618098
 20
12.2617102105
 30
0.0
 10
16.0295292519
 20
12.2434286028
 30
0.0
 10
16.0359818793
 20
12.2310699288
 30
0.0
 10
16.0390142187
 20
12.2248906709
 30
0.0
  0
SPLINE
  5
313
100
AcDbEntity
  8
LAYER_CUT_FEAT
100
AcDbSpline
 62
7
  6
CONTINUOUS
 70
0
 71
3
 72
77
 73
73
 74
0
 42
0.0000001
 43
0.0000001
 44
0.0000000001
 40
0.0
 40
0.0
 40
0.0
 40
0.0
 40
0.0053541179
 40
0.0107129252
 40
0.0160810906
 40
0.0214632434
 40
0.0268639516
 40
0.0322877071
 40
0.0377389026
 40
0.0432218218
 40
0.0487406174
 40
0.0542993041
 40
0.0655501203
 40
0.0770047199
 40
0.0886891118
 40
0.1006262807
 40
0.1128361124
 40
0.1190492014
 40
0.1253364879
 40
0.1381389499
 40
0.1512553804
 40
0.1646937387
 40
0.1784593033
 40
0.1925548263
 40
0.206980693
 40
0.22173508
 40
0.2368141101
 40
0.2522120012
 40
0.2679212088
 40
0.2839325611
 40
0.3002353866
 40
0.3168176351
 40
0.3336659914
 40
0.3507659839
 40
0.3681020865
 40
0.3856578166
 40
0.403415828
 40
0.421358
 40
0.439465524
 40
0.4577189861
 40
0.4760984477
 40
0.4945835247
 40
0.513153464
 40
0.5317872189
 40
0.5504635243
 40
0.5691609698
 40
0.5878580732
 40
0.6065333534
 40
0.6251654035
 40
0.6437329641
 40
0.6622149969
 40
0.6805907593
 40
0.69883988
 40
0.7169424361
 40
0.7348790318
 40
0.7526308787
 40
0.7701798799
 40
0.787508715
 40
0.8046009304
 40
0.8214410322
 40
0.8380145838
 40
0.8543083088
 40
0.8703101989
 40
0.8860096286
 40
0.9013974759
 40
0.9164662501
 40
0.9312102282
 40
0.9456255937
 40
0.9597105979
 40
0.9734656811
 40
0.9868937137
 40
1.0
 40
1.0
 40
1.0
 40
1.0
 10
14.6959692569
 20
12.4156712484
 30
0.0
 10
14.6967994595
 20
12.4183577851
 30
0.0
 10
14.698557853
 20
12.4237037095
 30
0.0
 10
14.701485138
 20
12.4316275316
 30
0.0
 10
14.7047013279
 20
12.4394545875
 30
0.0
 10
14.7082050534
 20
12.4471813424
 30
0.0
 10
14.7119947478
 20
12.4548045379
 30
0.0
 10
14.7160688207
 20
12.4623208578
 30
0.0
 10
14.7204254634
 20
12.4697271104
 30
0.0
 10
14.7250628111
 20
12.4770200704
 30
0.0
 10
14.7299788986
 20
12.4841967162
 30
0.0
 10
14.7369296637
 20
12.4936433677
 30
0.0
 10
14.7463217495
 20
12.505153071
 30
0.0
 10
14.7586242743
 20
12.518391854
 30
0.0
 10
14.7719833945
 20
12.5310923562
 30
0.0
 10
14.7863751761
 20
12.5432325561
 30
0.0
 10
14.7991339264
 20
12.552809916
 30
0.0
 10
14.8098202079
 20
12.5601752662
 30
0.0
 10
14.8209587893
 20
12.5674247901
 30
0.0
 10
14.8354908468
 20
12.576095061
 30
0.0
 10
14.8537483671
 20
12.5858017937
 30
0.0
 10
14.8728983136
 20
12.5948571484
 30
0.0
 10
14.8929076608
 20
12.6032457733
 30
0.0
 10
14.9137423669
 20
12.6109536686
 30
0.0
 10
14.9353668903
 20
12.617967884
 30
0.0
 10
14.9577443875
 20
12.6242766349
 30
0.0
 10
14.980836727
 20
12.6298693012
 30
0.0
 10
15.0046045606
 20
12.6347364569
 30
0.0
 10
15.0290073831
 20
12.6388698885
 30
0.0
 10
15.0540035998
 20
12.6422626142
 30
0.0
 10
15.0795505955
 20
12.6449088991
 30
0.0
 10
15.1056048067
 20
12.6468042686
 30
0.0
 10
15.1321217952
 20
12.6479455189
 30
0.0
 10
15.1590563246
 20
12.6483307247
 30
0.0
 10
15.1863624371
 20
12.647959245
 30
0.0
 10
15.2139935333
 20
12.6468317254
 30
0.0
 10
15.2419024518
 20
12.6449500987
 30
0.0
 10
15.2700415505
 20
12.6423175829
 30
0.0
 10
15.2983627888
 20
12.6389386762
 30
0.0
 10
15.3268178102
 20
12.6348191502
 30
0.0
 10
15.3553580256
 20
12.6299660407
 30
0.0
 10
15.3839346971
 20
12.6243876361
 30
0.0
 10
15.4124990215
 20
12.6180934635
 30
0.0
 10
15.4410022147
 20
12.6110942725
 30
0.0
 10
15.4693955952
 20
12.6034020171
 30
0.0
 10
15.4976306682
 20
12.5950298352
 30
0.0
 10
15.5256592087
 20
12.5859920265
 30
0.0
 10
15.5534333446
 20
12.5763040272
 30
0.0
 10
15.5809056387
 20
12.5659823842
 30
0.0
 10
15.6080291703
 20
12.5550447262
 30
0.0
 10
15.6347576162
 20
12.5435097333
 30
0.0
 10
15.6610453294
 20
12.5313971047
 30
0.0
 10
15.6868474182
 20
12.5187275243
 30
0.0
 10
15.7121198229
 20
12.5055226252
 30
0.0
 10
15.7368193915
 20
12.4918049517
 30
0.0
 10
15.7609039533
 20
12.4775979201
 30
0.0
 10
15.7843323917
 20
12.4629257775
 30
0.0
 10
15.8070647137
 20
12.4478135597
 30
0.0
 10
15.8290621189
 20
12.4322870466
 30
0.0
 10
15.8502870646
 20
12.416372717
 30
0.0
 10
15.8707033302
 20
12.4000977017
 30
0.0
 10
15.8902760775
 20
12.3834897351
 30
0.0
 10
15.908971909
 20
12.3665771059
 30
0.0
 10
15.9267589231
 20
12.3493886066
 30
0.0
 10
15.9436067655
 20
12.3319534822
 30
0.0
 10
15.9594866793
 20
12.3143013769
 30
0.0
 10
15.974371543
 20
12.2964622868
 30
0.0
 10
15.9882359308
 20
12.2784664862
 30
0.0
 10
16.0010560898
 20
12.2603445557
 30
0.0
 10
16.0128101517
 20
12.2421270378
 30
0.0
 10
16.0234775938
 20
12.2238454301
 30
0.0
 10
16.0299302212
 20
12.2114867561
 30
0.0
 10
16.0329625606
 20
12.2053074982
 30
0.0
  0
SPLINE
  5
314
100
AcDbEntity
  8
LAYER_CHAMFER_FEAT
100
AcDbSpline
 62
7
  6
CONTINUOUS
 70
0
 71
3
 72
58
 73
54
 74
0
 42
0.0000001
 43
0.0000001
 44
0.0000000001
 40
0.0
 40
0.0
 40
0.0
 40
0.0
 40
0.0157590574
 40
0.031149595
 40
0.046167928
 40
0.0608131562
 40
0.0750873129
 40
0.0889956442
 40
0.1157430555
 40
0.1286206256
 40
0.1411894936
 40
0.1534737149
 40
0.1655013823
 40
0.1773045136
 40
0.1889187702
 40
0.2003831057
 40
0.2117392218
 40
0.2230308673
 40
0.234303056
 40
0.2456011873
 40
0.2569701501
 40
0.2684534485
 40
0.2800924173
 40
0.2919255812
 40
0.3039881037
 40
0.3163114305
 40
0.3289231017
 40
0.3418466023
 40
0.355101393
 40
0.3687030399
 40
0.3826632935
 40
0.3969903072
 40
0.4116888854
 40
0.4267606271
 40
0.4422041883
 40
0.4580155339
 40
0.4741880705
 40
0.4907128934
 40
0.5075790026
 40
0.5247734091
 40
0.5422813512
 40
0.5781667113
 40
0.6150917176
 40
0.6528891707
 40
0.6913766564
 40
0.7303602335
 40
0.7696379621
 40
0.8090032483
 40
0.8482481226
 40
0.8871665097
 40
0.9255575417
 40
0.9632285242
 40
1.0
 40
1.0
 40
1.0
 40
1.0
 10
15.22105483
 20
12.0501170978
 30
0.0
 10
15.2193988828
 20
12.049727656
 30
0.0
 10
15.2161400333
 20
12.0488951517
 30
0.0
 10
15.2113641192
 20
12.0474665506
 30
0.0
 10
15.2067667171
 20
12.0458753632
 30
0.0
 10
15.2023570009
 20
12.0441247492
 30
0.0
 10
15.1981433139
 20
12.0422178836
 30
0.0
 10
15.1928675251
 20
12.0395080025
 30
0.0
 10
15.1879343328
 20
12.0364716799
 30
0.0
 10
15.183411619
 20
12.0331072517
 30
0.0
 10
15.1802954879
 20
12.0304804095
 30
0.0
 10
15.1774193624
 20
12.0277236821
 30
0.0
 10
15.1747889198
 20
12.0248423015
 30
0.0
 10
15.1724095349
 20
12.021841914
 30
0.0
 10
15.1702861188
 20
12.0187283771
 30
0.0
 10
15.16842308
 20
12.0155078624
 30
0.0
 10
15.1668242771
 20
12.0121868243
 30
0.0
 10
15.1654930772
 20
12.0087719499
 30
0.0
 10
15.1644322353
 20
12.0052701835
 30
0.0
 10
15.163643883
 20
12.0016886739
 30
0.0
 10
15.1631296043
 20
11.9980347191
 30
0.0
 10
15.1628903307
 20
11.9943157562
 30
0.0
 10
15.1629263766
 20
11.9905393066
 30
0.0
 10
15.1632375364
 20
11.986712954
 30
0.0
 10
15.1638229966
 20
11.9828443266
 30
0.0
 10
15.1646813914
 20
11.9789410739
 30
0.0
 10
15.1658108866
 20
11.9750108801
 30
0.0
 10
15.1672090895
 20
11.9710614378
 30
0.0
 10
15.168873101
 20
11.9671004453
 30
0.0
 10
15.1707995746
 20
11.9631356286
 30
0.0
 10
15.1729846297
 20
11.9591746971
 30
0.0
 10
15.1754239006
 20
11.9552253463
 30
0.0
 10
15.1781125799
 20
11.9512952774
 30
0.0
 10
15.1810453469
 20
11.9473921358
 30
0.0
 10
15.1842164154
 20
11.9435235191
 30
0.0
 10
15.1876195723
 20
11.9396969918
 30
0.0
 10
15.1912481196
 20
11.9359200169
 30
0.0
 10
15.1950949285
 20
11.9321999636
 30
0.0
 10
15.1991524576
 20
11.9285441389
 30
0.0
 10
15.2034127705
 20
11.9249596425
 30
0.0
 10
15.2094012374
 20
11.9202464193
 30
0.0
 10
15.2173464049
 20
11.9145844787
 30
0.0
 10
15.2274677399
 20
11.9082389174
 30
0.0
 10
15.2381752224
 20
11.9023360825
 30
0.0
 10
15.2493849174
 20
11.8969222414
 30
0.0
 10
15.2610092824
 20
11.8920396243
 30
0.0
 10
15.2729573895
 20
11.8877264324
 30
0.0
 10
15.2851357771
 20
11.8840164192
 30
0.0
 10
15.2974491698
 20
11.8809385926
 30
0.0
 10
15.3098012054
 20
11.8785170287
 30
0.0
 10
15.3220954274
 20
11.876770699
 30
0.0
 10
15.3342352144
 20
11.8757132132
 30
0.0
 10
15.3422726808
 20
11.875469704
 30
0.0
 10
15.3462420094
 20
11.875469704
 30
0.0
  0
SPLINE
  5
315
100
AcDbEntity
  8
LAYER_FEATURE
100
AcDbSpline
 62
7
  6
CONTINUOUS
 70
0
 71
3
 72
24
 73
20
 74
0
 42
0.0000001
 43
0.0000001
 44
0.0000000001
 40
0.0
 40
0.0
 40
0.0
 40
0.0
 40
0.021556276
 40
0.0434595448
 40
0.088670986
 40
0.1364153505
 40
0.1872092278
 40
0.2413508928
 40
0.2989424528
 40
0.3599191754
 40
0.4240785417
 40
0.4911062332
 40
0.5605986512
 40
0.6320824819
 40
0.705032036
 40
0.7788850345
 40
0.8530573937
 40
0.9269574504
 40
1.0
 40
1.0
 40
1.0
 40
1.0
 10
16.4370967932
 20
12.5429949504
 30
0.0
 10
16.437121107
 20
12.5431727857
 30
0.0
 10
16.4371532168
 20
12.5435338592
 30
0.0
 10
16.4371514409
 20
12.5442730053
 30
0.0
 10
16.4370209935
 20
12.5452255439
 30
0.0
 10
16.4366704406
 20
12.5463745478
 30
0.0
 10
16.4361300955
 20
12.547529462
 30
0.0
 10
16.4354072507
 20
12.5486771357
 30
0.0
 10
16.4345108473
 20
12.5498048997
 30
0.0
 10
16.4334515417
 20
12.5509000347
 30
0.0
 10
16.4322417685
 20
12.5519500507
 30
0.0
 10
16.4308956894
 20
12.5529428258
 30
0.0
 10
16.4294290764
 20
12.5538668079
 30
0.0
 10
16.4278591451
 20
12.554711184
 30
0.0
 10
16.4262043525
 20
12.5554660384
 30
0.0
 10
16.4244841874
 20
12.5561224861
 30
0.0
 10
16.4227188884
 20
12.5566727973
 30
0.0
 10
16.4209293644
 20
12.5571104706
 30
0.0
 10
16.4197238754
 20
12.5573255683
 30
0.0
 10
16.4191219429
 20
12.5574126109
 30
0.0
  0
SPLINE
  5
316
100
AcDbEntity
  8
LAYER_FEATURE
100
AcDbSpline
 62
7
  6
CONTINUOUS
 70
0
 71
3
 72
23
 73
19
 74
0
 42
0.0000001
 43
0.0000001
 44
0.0000000001
 40
0.0
 40
0.0
 40
0.0
 40
0.0
 40
0.0452223161
 40
0.0933153763
 40
0.1445788914
 40
0.1991238418
 40
0.2569001789
 40
0.3177246329
 40
0.3813057067
 40
0.4472653549
 40
0.5151578002
 40
0.5844861773
 40
0.6547176516
 40
0.7252975473
 40
0.7956629137
 40
0.8652558854
 40
0.9335371685
 40
1.0
 40
1.0
 40
1.0
 40
1.0
 10
16.4326356514
 20
12.6570460202
 30
0.0
 10
16.4325565457
 20
12.6574337248
 30
0.0
 10
16.4323267404
 20
12.6582211577
 30
0.0
 10
16.4318012358
 20
12.6593757686
 30
0.0
 10
16.4310925472
 20
12.6605245727
 30
0.0
 10
16.4302095437
 20
12.6616543538
 30
0.0
 10
16.4291627239
 20
12.6627525438
 30
0.0
 10
16.4279643876
 20
12.6638065838
 30
0.0
 10
16.4266285614
 20
12.6648043289
 30
0.0
 10
16.4251708956
 20
12.6657341712
 30
0.0
 10
16.4236084979
 20
12.6665852345
 30
0.0
 10
16.4219597362
 20
12.6673475261
 30
0.0
 10
16.4202440201
 20
12.6680120757
 30
0.0
 10
16.4184815602
 20
12.6685710544
 30
0.0
 10
16.416693137
 20
12.6690178743
 30
0.0
 10
16.4148997873
 20
12.6693472715
 30
0.0
 10
16.4131227553
 20
12.6695553626
 30
0.0
 10
16.4119439767
 20
12.6696124906
 30
0.0
 10
16.41136247
 20
12.6696192148
 30
0.0
  0
SPLINE
  5
317
100
AcDbEntity
  8
LAYER_FEATURE
100
AcDbSpline
 62
7
  6
CONTINUOUS
 70
0
 71
3
 72
23
 73
19
 74
0
 42
0.0000001
 43
0.0000001
 44
0.0000000001
 40
0.0
 40
0.0
 40
0.0
 40
0.0
 40
0.0494464304
 40
0.1020715106
 40
0.1578380913
 40
0.2165778194
 40
0.2780156208
 40
0.3417909625
 40
0.4074762895
 40
0.4745933027
 40
0.5426277123
 40
0.611042994
 40
0.6792935696
 40
0.7468377642
 40
0.8131508576
 40
0.8777385673
 40
0.9401513493
 40
1.0
 40
1.0
 40
1.0
 40
1.0
 10
16.389589657
 20
12.7758320775
 30
0.0
 10
16.3893844207
 20
12.7762283844
 30
0.0
 10
16.3889067552
 20
12.7770192431
 30
0.0
 10
16.3880372986
 20
12.7781508351
 30
0.0
 10
16.3870030184
 20
12.7792520381
 30
0.0
 10
16.385816214
 20
12.7803100149
 30
0.0
 10
16.3844907372
 20
12.78131266
 30
0.0
 10
16.3830421269
 20
12.7822482932
 30
0.0
 10
16.3814873785
 20
12.783105981
 30
0.0
 10
16.3798447689
 20
12.7838756533
 30
0.0
 10
16.3781336328
 20
12.784548255
 30
0.0
 10
16.3763741283
 20
12.7851158623
 30
0.0
 10
16.3745869922
 20
12.7855717861
 30
0.0
 10
16.3727932788
 20
12.7859106538
 30
0.0
 10
16.3710141222
 20
12.7861284753
 30
0.0
 10
16.3692703957
 20
12.7862226751
 30
0.0
 10
16.3675827317
 20
12.7861921472
 30
0.0
 10
16.366482825
 20
12.786086397
 30
0.0
 10
16.3659478847
 20
12.7860112972
 30
0.0
  0
SPLINE
  5
318
100
AcDbEntity
  8
LAYER_FEATURE
100
AcDbSpline
 62
7
  6
CONTINUOUS
 70
0
 71
3
 72
23
 73
19
 74
0
 42
0.0000001
 43
0.0000001
 44
0.0000000001
 40
0.0
 40
0.0
 40
0.0
 40
0.0
 40
0.0550312981
 40
0.1130268551
 40
0.1737216061
 40
0.2367642214
 40
0.3017355801
 40
0.368165049
 40
0.4355452049
 40
0.5033455311
 40
0.5710255141
 40
0.6380474908
 40
0.7038895666
 40
0.7680589316
 40
0.830105955
 40
0.8896395267
 40
0.9463442288
 40
1.0
 40
1.0
 40
1.0
 40
1.0
 10
16.3098401266
 20
12.8941616015
 30
0.0
 10
16.3095191198
 20
12.8945464272
 30
0.0
 10
16.3088188253
 20
12.8953032458
 30
0.0
 10
16.3076437136
 20
12.8963650063
 30
0.0
 10
16.3063286628
 20
12.8973724998
 30
0.0
 10
16.3048892209
 20
12.8983138489
 30
0.0
 10
16.3033422352
 20
12.8991780995
 30
0.0
 10
16.3017058999
 20
12.8999550952
 30
0.0
 10
16.2999994708
 20
12.9006356991
 30
0.0
 10
16.298243051
 20
12.9012118929
 30
0.0
 10
16.2964573393
 20
12.9016768866
 30
0.0
 10
16.2946633775
 20
12.9020252007
 30
0.0
 10
16.2928822921
 20
12.9022527326
 30
0.0
 10
16.2911350247
 20
12.9023567975
 30
0.0
 10
16.2894421014
 20
12.9023361594
 30
0.0
 10
16.2878232678
 20
12.9021909874
 30
0.0
 10
16.2862976327
 20
12.9019229473
 30
0.0
 10
16.2853265241
 20
12.9016565768
 30
0.0
 10
16.2848630222
 20
12.9015019656
 30
0.0
  0
SPLINE
  5
319
100
AcDbEntity
  8
LAYER_FEATURE
100
AcDbSpline
 62
7
  6
CONTINUOUS
 70
0
 71
3
 72
37
 73
33
 74
0
 42
0.0000001
 43
0.0000001
 44
0.0000000001
 40
0.0
 40
0.0
 40
0.0
 40
0.0
 40
0.0938201899
 40
0.1387506489
 40
0.1822969378
 40
0.224423867
 40
0.2650999622
 40
0.3043002713
 40
0.3420093124
 40
0.3782201997
 40
0.4129364704
 40
0.4461729348
 40
0.4779578336
 40
0.5083341008
 40
0.5373615268
 40
0.5651186796
 40
0.5917047988
 40
0.6172415996
 40
0.6418739329
 40
0.6657699275
 40
0.6891187658
 40
0.712127226
 40
0.735013593
 40
0.7580005357
 40
0.7813071824
 40
0.8051415515
 40
0.8296949511
 40
0.881571107
 40
0.9092101022
 40
0.9381108628
 40
0.9683535553
 40
1.0
 40
1.0
 40
1.0
 40
1.0
 10
15.8661883752
 20
12.1258444314
 30
0.0
 10
15.8666188077
 20
12.1272373115
 30
0.0
 10
15.8673038436
 20
12.1292829591
 30
0.0
 10
15.8683126508
 20
12.1319302462
 30
0.0
 10
15.869089496
 20
12.1338054636
 30
0.0
 10
15.8698961201
 20
12.1355958064
 30
0.0
 10
15.8707311223
 20
12.1372982278
 30
0.0
 10
15.8715930921
 20
12.1389097473
 30
0.0
 10
15.8724805117
 20
12.1404275926
 30
0.0
 10
15.8733918925
 20
12.1418491369
 30
0.0
 10
15.8743256621
 20
12.1431719435
 30
0.0
 10
15.8752802667
 20
12.1443937194
 30
0.0
 10
15.8762540954
 20
12.1455123647
 30
0.0
 10
15.8772455492
 20
12.1465259303
 30
0.0
 10
15.8782530014
 20
12.1474326392
 30
0.0
 10
15.8792748184
 20
12.1482308654
 30
0.0
 10
15.8803093531
 20
12.1489191176
 30
0.0
 10
15.88135491
 20
12.1494960591
 30
0.0
 10
15.8824097563
 20
12.1499604484
 30
0.0
 10
15.8834720418
 20
12.1503112429
 30
0.0
 10
15.8845398238
 20
12.1505475085
 30
0.0
 10
15.8856110086
 20
12.150668639
 30
0.0
 10
15.8866834151
 20
12.1506742189
 30
0.0
 10
15.8877548213
 20
12.1505642936
 30
0.0
 10
15.8888230079
 20
12.1503391314
 30
0.0
 10
15.8898859666
 20
12.1499993861
 30
0.0
 10
15.8913193236
 20
12.149383737
 30
0.0
 10
15.8927112852
 20
12.1485429988
 30
0.0
 10
15.8940468075
 20
12.1475147619
 30
0.0
 10
15.8950558495
 20
12.1466183955
 30
0.0
 10
15.896048874
 20
12.1456151577
 30
0.0
 10
15.8966846138
 20
12.1448927719
 30
0.0
 10
15.8969997298
 20
12.144515249
 30
0.0
  0
SPLINE
  5
31A
100
AcDbEntity
  8
LAYER_FEATURE
100
AcDbSpline
 62
7
  6
CONTINUOUS
 70
0
 71
3
 72
23
 73
19
 74
0
 42
0.0000001
 43
0.0000001
 44
0.0000000001
 40
0.0
 40
0.0
 40
0.0
 40
0.0
 40
0.0613560116
 40
0.1251243981
 40
0.1908848807
 40
0.258163689
 40
0.3264485981
 40
0.3952028854
 40
0.4638786492
 40
0.531929847
 40
0.5988253809
 40
0.6640625587
 40
0.7271813105
 40
0.7877796297
 40
0.8455308176
 40
0.9002032042
 40
0.9516829485
 40
1.0
 40
1.0
 40
1.0
 40
1.0
 10
16.1968724974
 20
13.0068630242
 30
0.0
 10
16.1964517637
 20
13.0072186046
 30
0.0
 10
16.1955631435
 20
13.0079081395
 30
0.0
 10
16.194133038
 20
13.0088550887
 30
0.0
 10
16.1925939121
 20
13.0097258513
 30
0.0
 10
16.190963977
 20
13.0105101092
 30
0.0
 10
16.1892623803
 20
13.0111986659
 30
0.0
 10
16.1875091756
 20
13.0117834032
 30
0.0
 10
16.1857250212
 20
13.0122574323
 30
0.0
 10
16.1839309421
 20
13.0126151668
 30
0.0
 10
16.1821480664
 20
13.0128523929
 30
0.0
 10
16.1803973639
 20
13.0129663133
 30
0.0
 10
16.1786993883
 20
13.0129555726
 30
0.0
 10
16.1770740089
 20
13.0128202449
 30
0.0
 10
16.1755402091
 20
13.012561826
 30
0.0
 10
16.1741157204
 20
13.0121830645
 30
0.0
 10
16.1728173555
 20
13.0116881796
 30
0.0
 10
16.1720210926
 20
13.0112711379
 30
0.0
 10
16.1716516802
 20
13.0110437235
 30
0.0
  0
SPLINE
  5
31B
100
AcDbEntity
  8
02___PRT_ALL_AXES
100
AcDbSpline
 62
7
  6
CONTINUOUS
 70
0
 71
3
 72
56
 73
52
 74
0
 42
0.0000001
 43
0.0000001
 44
0.0000000001
 40
0.0
 40
0.0
 40
0.0
 40
0.0
 40
0.0345293594
 40
0.0697081243
 40
0.1054492282
 40
0.1416605154
 40
0.178245682
 40
0.2151052093
 40
0.2521372622
 40
0.2892385658
 40
0.3263052719
 40
0.3632338183
 40
0.3999217925
 40
0.4362688035
 40
0.4721773722
 40
0.5075538496
 40
0.5423093679
 40
0.5594290568
 40
0.5763628918
 40
0.5931015683
 40
0.6096362803
 40
0.6259587572
 40
0.6420613037
 40
0.6579368405
 40
0.6735789466
 40
0.6889819042
 40
0.7041407447
 40
0.7190512976
 40
0.7337102414
 40
0.7481151567
 40
0.7622645806
 40
0.776158063
 40
0.7897962249
 40
0.8031808162
 40
0.8163147754
 40
0.8292022868
 40
0.8418488355
 40
0.8542612585
 40
0.8664477897
 40
0.8784180958
 40
0.8901833018
 40
0.9017560003
 40
0.9131502437
 40
0.9243815142
 40
0.9354666697
 40
0.9464238626
 40
0.9572724292
 40
0.96803275
 40
0.9787260816
 40
0.9893743628
 40
1.0
 40
1.0
 40
1.0
 40
1.0
 10
15.1213498932
 20
12.3337516531
 30
0.0
 10
15.133232993
 20
12.3337516531
 30
0.0
 10
15.1572255368
 20
12.3332241549
 30
0.0
 10
15.1934511575
 20
12.330910492
 30
0.0
 10
15.2301297841
 20
12.3270760599
 30
0.0
 10
15.2671082547
 20
12.3217368014
 30
0.0
 10
15.3042332958
 20
12.3149148974
 30
0.0
 10
15.3413506604
 20
12.3066386823
 30
0.0
 10
15.3783061936
 20
12.2969425312
 30
0.0
 10
15.4149463732
 20
12.2858667254
 30
0.0
 10
15.4511189871
 20
12.2734572755
 30
0.0
 10
15.4866737637
 20
12.2597657331
 30
0.0
 10
15.5214630235
 20
12.2448489687
 30
0.0
 10
15.555342246
 20
12.2287689493
 30
0.0
 10
15.5881708658
 20
12.2115923692
 30
0.0
 10
15.619812182
 20
12.193390755
 30
0.0
 10
15.6452081542
 20
12.1773512854
 30
0.0
 10
15.6648114181
 20
12.1640643856
 30
0.0
 10
15.6790634812
 20
12.1539413074
 30
0.0
 10
15.6929234245
 20
12.1436213663
 30
0.0
 10
15.7063768958
 20
12.1331152324
 30
0.0
 10
15.7194098796
 20
12.1224338444
 30
0.0
 10
15.7320088209
 20
12.1115883003
 30
0.0
 10
15.7441606109
 20
12.1005898722
 30
0.0
 10
15.7558526078
 20
12.0894499866
 30
0.0
 10
15.7670726467
 20
12.078180214
 30
0.0
 10
15.7778090528
 20
12.0667922561
 30
0.0
 10
15.7880506526
 20
12.0552979334
 30
0.0
 10
15.797786785
 20
12.0437091728
 30
0.0
 10
15.8070073122
 20
12.0320379951
 30
0.0
 10
15.8157026287
 20
12.0202965024
 30
0.0
 10
15.8238636695
 20
12.008496865
 30
0.0
 10
15.8314819185
 20
11.9966513096
 30
0.0
 10
15.8385494158
 20
11.9847721067
 30
0.0
 10
15.8450587643
 20
11.9728715591
 30
0.0
 10
15.8510031371
 20
11.9609619909
 30
0.0
 10
15.8563762814
 20
11.9490557357
 30
0.0
 10
15.8611725238
 20
11.937165127
 30
0.0
 10
15.865386775
 20
11.9253024878
 30
0.0
 10
15.8690145346
 20
11.9134801225
 30
0.0
 10
15.8720518971
 20
11.9017103078
 30
0.0
 10
15.8744955577
 20
11.8900052851
 30
0.0
 10
15.8763428175
 20
11.8783772522
 30
0.0
 10
15.8775915913
 20
11.8668383557
 30
0.0
 10
15.8782404153
 20
11.8554006805
 30
0.0
 10
15.8782884572
 20
11.8440762435
 30
0.0
 10
15.8777355227
 20
11.8328769672
 30
0.0
 10
15.8765820806
 20
11.821814716
 30
0.0
 10
15.8748292102
 20
11.810901088
 30
0.0
 10
15.872478827
 20
11.8001481025
 30
0.0
 10
15.8705141599
 20
11.7930905647
 30
0.0
 10
15.8694345121
 20
11.7895968219
 30
0.0
  0
SPLINE
  5
31C
100
AcDbEntity
  8
LAYER_FEATURE
100
AcDbSpline
 62
7
  6
CONTINUOUS
 70
0
 71
3
 72
23
 73
19
 74
0
 42
0.0000001
 43
0.0000001
 44
0.0000000001
 40
0.0
 40
0.0
 40
0.0
 40
0.0
 40
0.0680100552
 40
0.1376343445
 40
0.2083446007
 40
0.2795860491
 40
0.3507912487
 40
0.4213936168
 40
0.4908409748
 40
0.5586094554
 40
0.6242181591
 40
0.6872450365
 40
0.7473445885
 40
0.8042680763
 40
0.8578868848
 40
0.9082191948
 40
0.9554586093
 40
1.0
 40
1.0
 40
1.0
 40
1.0
 10
16.0556239968
 20
13.1090107526
 30
0.0
 10
16.0551235939
 20
13.1093216965
 30
0.0
 10
16.0540881092
 20
13.1099149335
 30
0.0
 10
16.0524647485
 20
13.1107063653
 30
0.0
 10
16.0507680957
 20
13.111402832
 30
0.0
 10
16.0490182401
 20
13.1119960673
 30
0.0
 10
16.0472357744
 20
13.1124790973
 30
0.0
 10
16.0454417111
 20
13.1128462255
 30
0.0
 10
16.0436571776
 20
13.1130931282
 30
0.0
 10
16.0419031668
 20
13.1132168949
 30
0.0
 10
16.0402002732
 20
13.1132160545
 30
0.0
 10
16.0385684353
 20
13.1130905723
 30
0.0
 10
16.0370266944
 20
13.112841821
 30
0.0
 10
16.03559296
 20
13.1124724958
 30
0.0
 10
16.0342838774
 20
13.1119865596
 30
0.0
 10
16.0331145872
 20
13.1113889215
 30
0.0
 10
16.0320992725
 20
13.1106859619
 30
0.0
 10
16.03151832
 20
13.1101372383
 30
0.0
 10
16.0312617376
 20
13.1098490705
 30
0.0
  0
SPLINE
  5
31D
100
AcDbEntity
  8
LAYER_CHAMFER_FEAT
100
AcDbSpline
 62
7
  6
CONTINUOUS
 70
0
 71
3
 72
41
 73
37
 74
0
 42
0.0000001
 43
0.0000001
 44
0.0000000001
 40
0.0
 40
0.0
 40
0.0
 40
0.0
 40
0.0357356909
 40
0.0703751109
 40
0.103908812
 40
0.1363418897
 40
0.1676954307
 40
0.1829811116
 40
0.1980128765
 40
0.2273415241
 40
0.2557632288
 40
0.2833751326
 40
0.3102943928
 40
0.3366569659
 40
0.3626151852
 40
0.3883340571
 40
0.4139864217
 40
0.4397473416
 40
0.465788262
 40
0.4922715401
 40
0.5193458574
 40
0.5471428176
 40
0.5757748268
 40
0.590436317
 40
0.6053394773
 40
0.6358981849
 40
0.6675088689
 40
0.7002057049
 40
0.7340057975
 40
0.7689106089
 40
0.8049074148
 40
0.8419706216
 40
0.8800633918
 40
0.9191378518
 40
0.9591388717
 40
1.0
 40
1.0
 40
1.0
 40
1.0
 10
15.4176678105
 20
11.9893590923
 30
0.0
 10
15.4191572588
 20
11.9877291353
 30
0.0
 10
15.4220114241
 20
11.9844457011
 30
0.0
 10
15.4259598979
 20
11.9793793063
 30
0.0
 10
15.4294972232
 20
11.9742633385
 30
0.0
 10
15.4326112954
 20
11.9691149254
 30
0.0
 10
15.4348638567
 20
11.9647749771
 30
0.0
 10
15.4364385712
 20
11.9613043279
 30
0.0
 10
15.4378393104
 20
11.9578948565
 30
0.0
 10
15.4393162303
 20
11.9536422683
 30
0.0
 10
15.4406458677
 20
11.9485323388
 30
0.0
 10
15.4415133096
 20
11.9434742879
 30
0.0
 10
15.4419148888
 20
11.9384852635
 30
0.0
 10
15.4418485667
 20
11.9335822538
 30
0.0
 10
15.4413139665
 20
11.9287822793
 30
0.0
 10
15.4403125167
 20
11.9241022262
 30
0.0
 10
15.4388475347
 20
11.9195586915
 30
0.0
 10
15.4369242442
 20
11.9151677695
 30
0.0
 10
15.4345496968
 20
11.9109448469
 30
0.0
 10
15.4317326423
 20
11.9069044646
 30
0.0
 10
15.428483298
 20
11.9030602051
 30
0.0
 10
15.424813421
 20
11.899424851
 30
0.0
 10
15.4214418695
 20
11.8966014627
 30
0.0
 10
15.4185544607
 20
11.8944572521
 30
0.0
 10
15.4154894134
 20
11.8923569381
 30
0.0
 10
15.4114139246
 20
11.889885172
 30
0.0
 10
15.4062016631
 20
11.8871948235
 30
0.0
 10
15.4006443564
 20
11.8847640552
 30
0.0
 10
15.3947606617
 20
11.8826007846
 30
0.0
 10
15.388570045
 20
11.8807119333
 30
0.0
 10
15.3820930465
 20
11.8791036149
 30
0.0
 10
15.3753511226
 20
11.8777810306
 30
0.0
 10
15.3683666631
 20
11.8767485078
 30
0.0
 10
15.3611627484
 20
11.8760093691
 30
0.0
 10
15.3537635023
 20
11.8755660895
 30
0.0
 10
15.3487666822
 20
11.875469704
 30
0.0
 10
15.3462420094
 20
11.875469704
 30
0.0
  0
SPLINE
  5
31E
100
AcDbEntity
  8
LAYER_FEATURE
100
AcDbSpline
 62
7
  6
CONTINUOUS
 70
0
 71
3
 72
53
 73
49
 74
0
 42
0.0000001
 43
0.0000001
 44
0.0000000001
 40
0.0
 40
0.0
 40
0.0
 40
0.0
 40
0.0357017213
 40
0.0730196377
 40
0.1117596317
 40
0.1517098412
 40
0.1926450431
 40
0.2343291296
 40
0.2765181182
 40
0.3189627753
 40
0.3614112507
 40
0.4036116546
 40
0.4453146393
 40
0.4862760135
 40
0.5262594273
 40
0.5650391797
 40
0.6024032204
 40
0.6381564512
 40
0.6721244831
 40
0.6883928692
 40
0.7041613734
 40
0.7194162327
 40
0.7341459699
 40
0.7483417483
 40
0.761997653
 40
0.7751110208
 40
0.7876829512
 40
0.7997186421
 40
0.8112281562
 40
0.8222267934
 40
0.8327360886
 40
0.8427842036
 40
0.8524069964
 40
0.861648253
 40
0.8705603987
 40
0.879204105
 40
0.8876479241
 40
0.8959666874
 40
0.90423957
 40
0.9125473584
 40
0.9209695766
 40
0.929581853
 40
0.9384536024
 40
0.9571982823
 40
0.9671861416
 40
0.9776306918
 40
0.9885612103
 40
1.0
 40
1.0
 40
1.0
 40
1.0
 10
15.8661883752
 20
12.1258444314
 30
0.0
 10
15.8657343863
 20
12.1243753228
 30
0.0
 10
15.8648801125
 20
12.1213472657
 30
0.0
 10
15.8637772483
 20
12.1166605239
 30
0.0
 10
15.86283012
 20
12.1117533809
 30
0.0
 10
15.862045434
 20
12.1066601129
 30
0.0
 10
15.8614286985
 20
12.1014161661
 30
0.0
 10
15.8609842634
 20
12.0960581136
 30
0.0
 10
15.8607152583
 20
12.0906233374
 30
0.0
 10
15.8606235799
 20
12.0851497712
 30
0.0
 10
15.8607098742
 20
12.0796756261
 30
0.0
 10
15.8609735329
 20
12.074239117
 30
0.0
 10
15.8614126977
 20
12.0688781897
 30
0.0
 10
15.8620242741
 20
12.0636302493
 30
0.0
 10
15.862803954
 20
12.0585318866
 30
0.0
 10
15.8637462483
 20
12.0536186282
 30
0.0
 10
15.8648445338
 20
12.0489246191
 30
0.0
 10
15.8660910952
 20
12.0444825636
 30
0.0
 10
15.8672624859
 20
12.0409672789
 30
0.0
 10
15.8682707647
 20
12.0383089474
 30
0.0
 10
15.8690474331
 20
12.0364256758
 30
0.0
 10
15.8698540552
 20
12.0346274093
 30
0.0
 10
15.870689253
 20
12.032917269
 30
0.0
 10
15.8715515715
 20
12.0312982243
 30
0.0
 10
15.8724395229
 20
12.0297730812
 30
0.0
 10
15.8733515886
 20
12.0283444837
 30
0.0
 10
15.8742862006
 20
12.0270148971
 30
0.0
 10
15.8752417942
 20
12.0257866316
 30
0.0
 10
15.8762167438
 20
12.0246618007
 30
0.0
 10
15.8772094593
 20
12.0236423856
 30
0.0
 10
15.8782182785
 20
12.0227301545
 30
0.0
 10
15.879241595
 20
12.021926785
 30
0.0
 10
15.8802777111
 20
12.0212337309
 30
0.0
 10
15.8813249708
 20
12.020652408
 30
0.0
 10
15.8823815851
 20
12.0201839861
 30
0.0
 10
15.8834457425
 20
12.0198296197
 30
0.0
 10
15.8845154524
 20
12.019590138
 30
0.0
 10
15.8855886406
 20
12.0194662883
 30
0.0
 10
15.886663098
 20
12.0194583558
 30
0.0
 10
15.8877365894
 20
12.0195664477
 30
0.0
 10
15.8888068955
 20
12.0197901536
 30
0.0
 10
15.8898719641
 20
12.0201289591
 30
0.0
 10
15.891308213
 20
12.0207438666
 30
0.0
 10
15.8927029947
 20
12.021584857
 30
0.0
 10
15.8940411147
 20
12.0226140944
 30
0.0
 10
15.8950521571
 20
12.0235116462
 30
0.0
 10
15.8960470951
 20
12.0245165062
 30
0.0
 10
15.8966840343
 20
12.0252401599
 30
0.0
 10
15.8969997303
 20
12.0256183835
 30
0.0
  0
SPLINE
  5
31F
100
AcDbEntity
  8
LAYER_FEATURE
100
AcDbSpline
 62
7
  6
CONTINUOUS
 70
0
 71
3
 72
25
 73
21
 74
0
 42
0.0000001
 43
0.0000001
 44
0.0000000001
 40
0.0
 40
0.0
 40
0.0
 40
0.0
 40
0.0744875824
 40
0.1495823177
 40
0.2246864292
 40
0.2992019182
 40
0.3725448322
 40
0.4441598845
 40
0.5135358288
 40
0.5802220813
 40
0.6438472073
 40
0.7041399928
 40
0.760953798
 40
0.8142944255
 40
0.8643502604
 40
0.9115200639
 40
0.9342289391
 40
0.9564709995
 40
0.9783575106
 40
1.0
 40
1.0
 40
1.0
 40
1.0
 10
15.8922678621
 20
13.1961404408
 30
0.0
 10
15.8917108298
 20
13.1963938396
 30
0.0
 10
15.890575427
 20
13.196866588
 30
0.0
 10
15.8888290995
 20
13.1974682565
 30
0.0
 10
15.8870484414
 20
13.1979602572
 30
0.0
 10
15.8852545303
 20
13.1983367504
 30
0.0
 10
15.8834684704
 20
13.198593312
 30
0.0
 10
15.881711281
 20
13.1987269154
 30
0.0
 10
15.8800035958
 20
13.1987359758
 30
0.0
 10
15.8783654153
 20
13.1986203453
 30
0.0
 10
15.8768158596
 20
13.1983812865
 30
0.0
 10
15.8753729379
 20
13.1980213957
 30
0.0
 10
15.8740533907
 20
13.1975445312
 30
0.0
 10
15.8728725117
 20
13.1969555618
 30
0.0
 10
15.8718444425
 20
13.1962606515
 30
0.0
 10
15.8711162208
 20
13.1955900599
 30
0.0
 10
15.8706284558
 20
13.1950103066
 30
0.0
 10
15.8703125897
 20
13.1945602094
 30
0.0
 10
15.8700433366
 20
13.1940908878
 30
0.0
 10
15.8698948211
 20
13.1937648769
 30
0.0
 10
15.8698289085
 20
13.1935997389
 30
0.0
  0
SPLINE
  5
320
100
AcDbEntity
  8
LAYER_FEATURE
100
AcDbSpline
 62
7
  6
CONTINUOUS
 70
0
 71
3
 72
25
 73
21
 74
0
 42
0.0000001
 43
0.0000001
 44
0.0000000001
 40
0.0
 40
0.0
 40
0.0
 40
0.0
 40
0.077866552
 40
0.1552799124
 40
0.2317331418
 40
0.3067486582
 40
0.3798723067
 40
0.4506933184
 40
0.5188529943
 40
0.5840594911
 40
0.646102828
 40
0.7048725569
 40
0.7603775227
 40
0.8127670635
 40
0.8623509458
 40
0.9096121418
 40
0.9325890818
 40
0.9552433161
 40
0.9776775058
 40
1.0
 40
1.0
 40
1.0
 40
1.0
 10
15.7139435402
 20
13.2644441035
 30
0.0
 10
15.7134100024
 20
13.2646124491
 30
0.0
 10
15.712336305
 20
13.2649181933
 30
0.0
 10
15.7107108579
 20
13.2652828651
 30
0.0
 10
15.7090871922
 20
13.2655497696
 30
0.0
 10
15.7074811294
 20
13.2657163236
 30
0.0
 10
15.7059081634
 20
13.2657808979
 30
0.0
 10
15.7043834993
 20
13.2657428619
 30
0.0
 10
15.7029218218
 20
13.2656025426
 30
0.0
 10
15.7015371758
 20
13.2653612224
 30
0.0
 10
15.7002428267
 20
13.265021089
 30
0.0
 10
15.6990511513
 20
13.2645851702
 30
0.0
 10
15.6979735845
 20
13.2640572846
 30
0.0
 10
15.697020569
 20
13.2634418854
 30
0.0
 10
15.6962017778
 20
13.2627443797
 30
0.0
 10
15.695632998
 20
13.2620930903
 30
0.0
 10
15.6952577295
 20
13.2615403782
 30
0.0
 10
15.6950170971
 20
13.2611139433
 30
0.0
 10
15.6948153795
 20
13.2606729919
 30
0.0
 10
15.694707092
 20
13.2603696959
 30
0.0
 10
15.6946597381
 20
13.2602164601
 30
0.0
  0
SPLINE
  5
321
100
AcDbEntity
  8
LAYER_FEATURE
100
AcDbSpline
 62
7
  6
CONTINUOUS
 70
0
 71
3
 72
22
 73
18
 74
0
 42
0.0000001
 43
0.0000001
 44
0.0000000001
 40
0.0
 40
0.0
 40
0.0
 40
0.0
 40
0.1573106357
 40
0.2336963726
 40
0.3081091075
 40
0.3802489673
 40
0.4498621031
 40
0.5167437734
 40
0.580748271
 40
0.6417998442
 40
0.6999042284
 40
0.7551615796
 40
0.8077784735
 40
0.8580770603
 40
0.9064980774
 40
0.9535928345
 40
1.0
 40
1.0
 40
1.0
 40
1.0
 10
15.5284446597
 20
13.3109365426
 30
0.0
 10
15.5275163786
 20
13.3111099795
 30
0.0
 10
15.5261229918
 20
13.3112997611
 30
0.0
 10
15.524275443
 20
13.3114001607
 30
0.0
 10
15.52293634
 20
13.3113974609
 30
0.0
 10
15.5216403438
 20
13.3113174806
 30
0.0
 10
15.5203968182
 20
13.3111607824
 30
0.0
 10
15.5192147973
 20
13.3109284659
 30
0.0
 10
15.518102834
 20
13.3106221422
 30
0.0
 10
15.5170689751
 20
13.3102439122
 30
0.0
 10
15.5161207182
 20
13.3097963251
 30
0.0
 10
15.5152649922
 20
13.3092823693
 30
0.0
 10
15.5145081609
 20
13.3087054443
 30
0.0
 10
15.5138560616
 20
13.3080694136
 30
0.0
 10
15.5133139723
 20
13.3073785825
 30
0.0
 10
15.5128866495
 20
13.3066382207
 30
0.0
 10
15.5126801522
 20
13.3061136226
 30
0.0
 10
15.5125978988
 20
13.3058474575
 30
0.0
  0
SPLINE
  5
322
100
AcDbEntity
  8
LAYER_FEATURE
100
AcDbSpline
 62
7
  6
CONTINUOUS
 70
0
 71
3
 72
39
 73
35
 74
0
 42
0.0000001
 43
0.0000001
 44
0.0000000001
 40
0.0
 40
0.0
 40
0.0
 40
0.0
 40
0.0221507912
 40
0.0451225894
 40
0.0690786811
 40
0.0941402797
 40
0.1203876547
 40
0.1478632082
 40
0.1765753735
 40
0.2065027143
 40
0.2375978524
 40
0.2697910768
 40
0.3029935987
 40
0.3371004765
 40
0.3719932608
 40
0.4075424113
 40
0.4436095373
 40
0.4800495049
 40
0.516712449
 40
0.5534457215
 40
0.5900958036
 40
0.6265102071
 40
0.662539388
 40
0.6980386995
 40
0.7328704105
 40
0.7669058229
 40
0.8000275243
 40
0.8321318229
 40
0.8631314128
 40
0.8929583264
 40
0.9215672174
 40
0.9354105235
 40
0.9489446608
 40
1.0
 40
1.0
 40
1.0
 40
1.0
 10
15.3993034653
 20
13.3174631589
 30
0.0
 10
15.3993315751
 20
13.316528232
 30
0.0
 10
15.3995131789
 20
13.3146256573
 30
0.0
 10
15.4001380139
 20
13.3117701645
 30
0.0
 10
15.401114232
 20
13.3088851864
 30
0.0
 10
15.4024347501
 20
13.3059889046
 30
0.0
 10
15.4040907033
 20
13.3030985514
 30
0.0
 10
15.4060714404
 20
13.3002315329
 30
0.0
 10
15.40836451
 20
13.2974051035
 30
0.0
 10
15.410955658
 20
13.2946363792
 30
0.0
 10
15.4138288572
 20
13.2919422089
 30
0.0
 10
15.4169663667
 20
13.2893390647
 30
0.0
 10
15.4203488177
 20
13.2868429216
 30
0.0
 10
15.4239553194
 20
13.2844691426
 30
0.0
 10
15.4277635824
 20
13.2822323696
 30
0.0
 10
15.4317500542
 20
13.2801464219
 30
0.0
 10
15.4358900653
 20
13.2782242018
 30
0.0
 10
15.4401579843
 20
13.276477608
 30
0.0
 10
15.4445273784
 20
13.2749174573
 30
0.0
 10
15.4489711815
 20
13.2735534142
 30
0.0
 10
15.4534618642
 20
13.272393929
 30
0.0
 10
15.4579716092
 20
13.2714461839
 30
0.0
 10
15.4624724871
 20
13.2707160489
 30
0.0
 10
15.4669366344
 20
13.270208046
 30
0.0
 10
15.4713364308
 20
13.2699253244
 30
0.0
 10
15.4756446749
 20
13.269869645
 30
0.0
 10
15.4798347614
 20
13.2700413773
 30
0.0
 10
15.4838808359
 20
13.2704395059
 30
0.0
 10
15.487758008
 20
13.2710616599
 30
0.0
 10
15.4914423238
 20
13.271904123
 30
0.0
 10
15.4943645753
 20
13.2727951939
 30
0.0
 10
15.4965821368
 20
13.2736169159
 30
0.0
 10
15.4996379581
 20
13.27489266
 30
0.0
 10
15.5020537793
 20
13.2762053958
 30
0.0
 10
15.5038281953
 20
13.2774298517
 30
0.0
  0
SPLINE
  5
323
100
AcDbEntity
  8
LAYER_FEATURE
100
AcDbSpline
 62
7
  6
CONTINUOUS
 70
0
 71
3
 72
23
 73
19
 74
0
 42
0.0000001
 43
0.0000001
 44
0.0000000001
 40
0.0
 40
0.0
 40
0.0
 40
0.0
 40
0.0438853959
 40
0.0901836122
 40
0.1394181003
 40
0.1918982797
 40
0.2477399172
 40
0.3068934716
 40
0.3691726051
 40
0.4342798276
 40
0.5018287441
 40
0.571363362
 40
0.6423751635
 40
0.7143186093
 40
0.7866256219
 40
0.8587194877
 40
0.9300285457
 40
1.0
 40
1.0
 40
1.0
 40
1.0
 10
15.3993034653
 20
13.3174631589
 30
0.0
 10
15.399292201
 20
13.3178378077
 30
0.0
 10
15.3991989209
 20
13.3186068386
 30
0.0
 10
15.3988659279
 20
13.319754561
 30
0.0
 10
15.3983425362
 20
13.3209095283
 30
0.0
 10
15.3976359203
 20
13.3220583699
 30
0.0
 10
15.3967548634
 20
13.3231884724
 30
0.0
 10
15.3957098635
 20
13.324287089
 30
0.0
 10
15.3945131943
 20
13.3253417097
 30
0.0
 10
15.3931788646
 20
13.3263401693
 30
0.0
 10
15.3917225065
 20
13.3272708568
 30
0.0
 10
15.3901612119
 20
13.3281228855
 30
0.0
 10
15.3885133361
 20
13.3288862519
 30
0.0
 10
15.3867982751
 20
13.3295519735
 30
0.0
 10
15.3850362427
 20
13.3301122067
 30
0.0
 10
15.3832479735
 20
13.330560352
 30
0.0
 10
15.3814546529
 20
13.3308911184
 30
0.0
 10
15.3802552396
 20
13.3310324901
 30
0.0
 10
15.3796596731
 20
13.3310819288
 30
0.0
  0
SPLINE
  5
324
100
AcDbEntity
  8
LAYER_FEATURE
100
AcDbSpline
 62
7
  6
CONTINUOUS
 70
0
 71
3
 72
22
 73
18
 74
0
 42
0.0000001
 43
0.0000001
 44
0.0000000001
 40
0.0
 40
0.0
 40
0.0
 40
0.0
 40
0.1567683346
 40
0.2322033618
 40
0.3053995599
 40
0.3761982424
 40
0.4444761451
 40
0.5101546964
 40
0.5732035459
 40
0.6336469657
 40
0.6915707529
 40
0.7471297907
 40
0.8005520892
 40
0.8521412451
 40
0.9022753021
 40
0.9513973923
 40
1.0
 40
1.0
 40
1.0
 40
1.0
 10
15.3438784118
 20
13.3335858157
 30
0.0
 10
15.3431185942
 20
13.3336289943
 30
0.0
 10
15.3419890429
 20
13.3336420397
 30
0.0
 10
15.3405091458
 20
13.3335446838
 30
0.0
 10
15.3394509498
 20
13.3334174249
 30
0.0
 10
15.3384359986
 20
13.3332356909
 30
0.0
 10
15.3374695535
 20
13.3330003842
 30
0.0
 10
15.3365566791
 20
13.3327126819
 30
0.0
 10
15.3357021277
 20
13.3323740397
 30
0.0
 10
15.3349103679
 20
13.3319861369
 30
0.0
 10
15.334185577
 20
13.3315508604
 30
0.0
 10
15.3335316033
 20
13.3310703643
 30
0.0
 10
15.3329519958
 20
13.330547005
 30
0.0
 10
15.3324500243
 20
13.3299833844
 30
0.0
 10
15.3320285774
 20
13.3293823767
 30
0.0
 10
15.3316902311
 20
13.3287473365
 30
0.0
 10
15.3315210722
 20
13.3283024968
 30
0.0
 10
15.3314514071
 20
13.328077071
 30
0.0
  0
SPLINE
  5
325
100
AcDbEntity
  8
LAYER_FEATURE
100
AcDbSpline
 62
7
  6
CONTINUOUS
 70
0
 71
3
 72
36
 73
32
 74
0
 42
0.0000001
 43
0.0000001
 44
0.0000000001
 40
0.0
 40
0.0
 40
0.0
 40
0.0
 40
0.0478542156
 40
0.0731973579
 40
0.0995090015
 40
0.1267933134
 40
0.1550391868
 40
0.1842210601
 40
0.2143007535
 40
0.2452289764
 40
0.2769466863
 40
0.3093863507
 40
0.3424730928
 40
0.3761257517
 40
0.4102579109
 40
0.4447788536
 40
0.4795944643
 40
0.5497092643
 40
0.6198262096
 40
0.6546444985
 40
0.6891691638
 40
0.7233060424
 40
0.7569643706
 40
0.7900576943
 40
0.8225048091
 40
0.8542307587
 40
0.885167903
 40
0.9152570855
 40
0.9444489139
 40
0.9727051103
 40
1.0
 40
1.0
 40
1.0
 40
1.0
 10
15.2242203856
 20
13.3222985851
 30
0.0
 10
15.2248002803
 20
13.3206606991
 30
0.0
 10
15.2259125208
 20
13.3182306365
 30
0.0
 10
15.2277647593
 20
13.3151268485
 30
0.0
 10
15.2293999831
 20
13.3127699805
 30
0.0
 10
15.2312470343
 20
13.3104399508
 30
0.0
 10
15.233298373
 20
13.3081458602
 30
0.0
 10
15.2355453363
 20
13.3058973524
 30
0.0
 10
15.2379785327
 20
13.3037037162
 30
0.0
 10
15.2405877754
 20
13.3015740888
 30
0.0
 10
15.2433621499
 20
13.2995173444
 30
0.0
 10
15.2462900467
 20
13.2975420716
 30
0.0
 10
15.2493592089
 20
13.2956565313
 30
0.0
 10
15.2525567835
 20
13.2938686093
 30
0.0
 10
15.2558693589
 20
13.2921857996
 30
0.0
 10
15.2592831015
 20
13.2906151197
 30
0.0
 10
15.2639609769
 20
13.2886749108
 30
0.0
 10
15.2699653356
 20
13.2865720603
 30
0.0
 10
15.2761086785
 20
13.284918319
 30
0.0
 10
15.2810654897
 20
13.2838790447
 30
0.0
 10
15.2847703401
 20
13.2832483387
 30
0.0
 10
15.2884550899
 20
13.2827672689
 30
0.0
 10
15.2921043562
 20
13.2824378506
 30
0.0
 10
15.2957028358
 20
13.2822614646
 30
0.0
 10
15.2992354664
 20
13.2822388546
 30
0.0
 10
15.302687463
 20
13.2823701257
 30
0.0
 10
15.3060443933
 20
13.282654749
 30
0.0
 10
15.3092922165
 20
13.2830915592
 30
0.0
 10
15.3124174198
 20
13.2836787818
 30
0.0
 10
15.3154068038
 20
13.2844139712
 30
0.0
 10
15.317334888
 20
13.285011295
 30
0.0
 10
15.3182715371
 20
13.2853350832
 30
0.0
  0
SPLINE
  5
326
100
AcDbEntity
  8
LAYER_FEATURE
100
AcDbSpline
 62
7
  6
CONTINUOUS
 70
0
 71
3
 72
23
 73
19
 74
0
 42
0.0000001
 43
0.0000001
 44
0.0000000001
 40
0.0
 40
0.0
 40
0.0
 40
0.0
 40
0.0969100172
 40
0.1231783604
 40
0.1502542158
 40
0.2067665777
 40
0.2662963878
 40
0.3285658333
 40
0.3932102133
 40
0.4597966647
 40
0.5278406884
 40
0.5968211247
 40
0.6661941114
 40
0.7354064536
 40
0.8039087629
 40
0.8711686896
 40
0.9366845869
 40
1.0
 40
1.0
 40
1.0
 40
1.0
 10
15.2242203856
 20
13.3222985851
 30
0.0
 10
15.2239324909
 20
13.3231117305
 30
0.0
 10
15.2234065885
 20
13.3240926716
 30
0.0
 10
15.2226246272
 20
13.3251770024
 30
0.0
 10
15.2220113141
 20
13.3259393698
 30
0.0
 10
15.2211387878
 20
13.3268702789
 30
0.0
 10
15.2199536951
 20
13.3279288161
 30
0.0
 10
15.2186297199
 20
13.3289321676
 30
0.0
 10
15.2171824354
 20
13.3298686353
 30
0.0
 10
15.2156288062
 20
13.3307272795
 30
0.0
 10
15.2139871
 20
13.3314980185
 30
0.0
 10
15.212276639
 20
13.3321717848
 30
0.0
 10
15.2105175749
 20
13.3327406411
 30
0.0
 10
15.2087306349
 20
13.3331978834
 30
0.0
 10
15.206936886
 20
13.3335381243
 30
0.0
 10
15.2051574091
 20
13.3337573543
 30
0.0
 10
15.203413276
 20
13.3338529939
 30
0.0
 10
15.2022654255
 20
13.3338332029
 30
0.0
 10
15.2017027604
 20
13.3338011573
 30
0.0
  0
SPLINE
  5
327
100
AcDbEntity
  8
LAYER_FEATURE
100
AcDbSpline
 62
7
  6
CONTINUOUS
 70
0
 71
3
 72
18
 73
14
 74
0
 42
0.0000001
 43
0.0000001
 44
0.0000000001
 40
0.0
 40
0.0
 40
0.0
 40
0.0
 40
0.1535296311
 40
0.2985253079
 40
0.4345096191
 40
0.5614555342
 40
0.6799041272
 40
0.7363399648
 40
0.7911587484
 40
0.8446197012
 40
0.8970210886
 40
0.9486955339
 40
1.0
 40
1.0
 40
1.0
 40
1.0
 10
15.1683112272
 20
13.3314020407
 30
0.0
 10
15.1677347827
 20
13.3313518781
 30
0.0
 10
15.1666172661
 20
13.3312063552
 30
0.0
 10
15.1650189297
 20
13.3308374143
 30
0.0
 10
15.1635645144
 20
13.3303281588
 30
0.0
 10
15.1622744862
 20
13.3296849565
 30
0.0
 10
15.1613362715
 20
13.3290326627
 30
0.0
 10
15.1606928695
 20
13.328452023
 30
0.0
 10
15.1602699733
 20
13.3279963729
 30
0.0
 10
15.1599006697
 20
13.3275152821
 30
0.0
 10
15.1595863937
 20
13.3270103782
 30
0.0
 10
15.1593283658
 20
13.3264836034
 30
0.0
 10
15.1591943284
 20
13.3261184944
 30
0.0
 10
15.1591372372
 20
13.3259337587
 30
0.0
  0
SPLINE
  5
328
100
AcDbEntity
  8
LAYER_FEATURE
100
AcDbSpline
 62
7
  6
CONTINUOUS
 70
0
 71
3
 72
24
 73
20
 74
0
 42
0.0000001
 43
0.0000001
 44
0.0000000001
 40
0.0
 40
0.0
 40
0.0
 40
0.0
 40
0.0515209397
 40
0.0783804623
 40
0.1059535597
 40
0.1631482985
 40
0.2229050049
 40
0.284938067
 40
0.3489032777
 40
0.414410667
 40
0.4810358494
 40
0.5483305039
 40
0.6158324058
 40
0.6830750763
 40
0.7495973538
 40
0.8149531164
 40
0.8787212661
 40
0.9405163176
 40
1.0
 40
1.0
 40
1.0
 40
1.0
 10
15.0633659991
 20
13.3027942693
 30
0.0
 10
15.0642096401
 20
13.3015267321
 30
0.0
 10
15.0655985572
 20
13.2996666207
 30
0.0
 10
15.0676422824
 20
13.2972934322
 30
0.0
 10
15.069905223
 20
13.294891501
 30
0.0
 10
15.0730315242
 20
13.2919737827
 30
0.0
 10
15.0771684548
 20
13.2886700127
 30
0.0
 10
15.0816939789
 20
13.2855548534
 30
0.0
 10
15.0865618348
 20
13.2826600342
 30
0.0
 10
15.0917224817
 20
13.28001495
 30
0.0
 10
15.0971232551
 20
13.2776465917
 30
0.0
 10
15.1027090018
 20
13.2755791282
 30
0.0
 10
15.1084226472
 20
13.2738336818
 30
0.0
 10
15.1142058013
 20
13.2724280974
 30
0.0
 10
15.1199993864
 20
13.2713767397
 30
0.0
 10
15.1257442087
 20
13.2706903346
 30
0.0
 10
15.1313818042
 20
13.2703759184
 30
0.0
 10
15.1368543116
 20
13.2704367051
 30
0.0
 10
15.1404302353
 20
13.2707332563
 30
0.0
 10
15.1421750125
 20
13.2709480574
 30
0.0
  0
SPLINE
  5
329
100
AcDbEntity
  8
LAYER_FEATURE
100
AcDbSpline
 62
7
  6
CONTINUOUS
 70
0
 71
3
 72
23
 73
19
 74
0
 42
0.0000001
 43
0.0000001
 44
0.0000000001
 40
0.0
 40
0.0
 40
0.0
 40
0.0
 40
0.0519668862
 40
0.1070622459
 40
0.1651296911
 40
0.2259047911
 40
0.2890364665
 40
0.3541055246
 40
0.4206409898
 40
0.4881348671
 40
0.5560558727
 40
0.6238625586
 40
0.6910161847
 40
0.7569936571
 40
0.8213008623
 40
0.8834867748
 40
0.9431588097
 40
1.0
 40
1.0
 40
1.0
 40
1.0
 10
15.0633659991
 20
13.3027942693
 30
0.0
 10
15.0631042692
 20
13.3031875081
 30
0.0
 10
15.062517463
 20
13.3039666556
 30
0.0
 10
15.061497781
 20
13.3050709695
 30
0.0
 10
15.0603242479
 20
13.3061334307
 30
0.0
 10
15.0590107547
 20
13.3071415765
 30
0.0
 10
15.0575726421
 20
13.3080837623
 30
0.0
 10
15.0560267956
 20
13.3089489567
 30
0.0
 10
15.0543913803
 20
13.3097270116
 30
0.0
 10
15.0526856453
 20
13.3104087726
 30
0.0
 10
15.050929684
 20
13.3109862093
 30
0.0
 10
15.0491441899
 20
13.3114525165
 30
0.0
 10
15.0473502037
 20
13.3118021999
 30
0.0
 10
15.0455688469
 20
13.3120311391
 30
0.0
 10
15.0438210853
 20
13.3121366382
 30
0.0
 10
15.0421273766
 20
13.3121174257
 30
0.0
 10
15.040507741
 20
13.3119737202
 30
0.0
 10
15.0394627824
 20
13.3117912028
 30
0.0
 10
15.0389586692
 20
13.3116779263
 30
0.0
  0
SPLINE
  5
32A
100
AcDbEntity
  8
LAYER_FEATURE
100
AcDbSpline
 62
7
  6
CONTINUOUS
 70
0
 71
3
 72
15
 73
11
 74
0
 42
0.0000001
 43
0.0000001
 44
0.0000000001
 40
0.0
 40
0.0
 40
0.0
 40
0.0
 40
0.1476415765
 40
0.2877631303
 40
0.4204750906
 40
0.5462220822
 40
0.6657640958
 40
0.7802226827
 40
0.8910565283
 40
1.0
 40
1.0
 40
1.0
 40
1.0
 10
15.0094162343
 20
13.3044806591
 30
0.0
 10
15.0090203822
 20
13.3043765013
 30
0.0
 10
15.0082565895
 20
13.3041419409
 30
0.0
 10
15.007176868
 20
13.3036977769
 30
0.0
 10
15.0062015491
 20
13.3031736694
 30
0.0
 10
15.0053391769
 20
13.3025737131
 30
0.0
 10
15.0045974641
 20
13.3019024612
 30
0.0
 10
15.0039834445
 20
13.3011651364
 30
0.0
 10
15.0035034998
 20
13.300368236
 30
0.0
 10
15.0032755275
 20
13.2997997653
 30
0.0
 10
15.0031863463
 20
13.2995111933
 30
0.0
  0
SPLINE
  5
32B
100
AcDbEntity
  8
LAYER_FEATURE
100
AcDbSpline
 62
7
  6
CONTINUOUS
 70
0
 71
3
 72
23
 73
19
 74
0
 42
0.0000001
 43
0.0000001
 44
0.0000000001
 40
0.0
 40
0.0
 40
0.0
 40
0.0
 40
0.0552393292
 40
0.1123036202
 40
0.1710597156
 40
0.2313539401
 40
0.2930108429
 40
0.3558389868
 40
0.4196329105
 40
0.4841763156
 40
0.5492446307
 40
0.6146076333
 40
0.680031961
 40
0.745283602
 40
0.810130374
 40
0.8743444256
 40
0.9377047872
 40
1.0
 40
1.0
 40
1.0
 40
1.0
 10
14.9237704143
 20
13.2598026439
 30
0.0
 10
14.9246241379
 20
13.2589430134
 30
0.0
 10
14.9264140443
 20
13.2572485132
 30
0.0
 10
14.9292814127
 20
13.2548263097
 30
0.0
 10
14.9323618953
 20
13.2524930742
 30
0.0
 10
14.9356390238
 20
13.250261239
 30
0.0
 10
14.9390955128
 20
13.2481425617
 30
0.0
 10
14.9427130293
 20
13.2461482591
 30
0.0
 10
14.9464724103
 20
13.2442888935
 30
0.0
 10
14.950353721
 20
13.2425743201
 30
0.0
 10
14.9543363773
 20
13.241013632
 30
0.0
 10
14.9583992517
 20
13.2396151083
 30
0.0
 10
14.962520788
 20
13.2383861692
 30
0.0
 10
14.9666791209
 20
13.2373333352
 30
0.0
 10
14.9708521799
 20
13.2364621924
 30
0.0
 10
14.9750178633
 20
13.2357773613
 30
0.0
 10
14.9791539581
 20
13.2352824775
 30
0.0
 10
14.9819035272
 20
13.2350789899
 30
0.0
 10
14.9832680919
 20
13.2350104677
 30
0.0
  0
SPLINE
  5
32C
100
AcDbEntity
  8
LAYER_FEATURE
100
AcDbSpline
 62
7
  6
CONTINUOUS
 70
0
 71
3
 72
23
 73
19
 74
0
 42
0.0000001
 43
0.0000001
 44
0.0000000001
 40
0.0
 40
0.0
 40
0.0
 40
0.0
 40
0.0579595825
 40
0.1186568538
 40
0.1817461829
 40
0.2468123017
 40
0.3133868196
 40
0.3809631215
 40
0.4490101913
 40
0.5169857984
 40
0.5843494047
 40
0.6505751127
 40
0.7151649825
 40
0.7776630919
 40
0.8376708013
 40
0.8948637983
 40
0.9490115834
 40
1.0
 40
1.0
 40
1.0
 40
1.0
 10
14.9237704143
 20
13.2598026439
 30
0.0
 10
14.9233999271
 20
13.2601756945
 30
0.0
 10
14.9226057344
 20
13.2609045572
 30
0.0
 10
14.9213028759
 20
13.2619173716
 30
0.0
 10
14.9198740256
 20
13.262865221
 30
0.0
 10
14.9183360806
 20
13.2637368974
 30
0.0
 10
14.9167070761
 20
13.2645222118
 30
0.0
 10
14.9150061937
 20
13.2652119166
 30
0.0
 10
14.9132534659
 20
13.265797891
 30
0.0
 10
14.9114695487
 20
13.2662732286
 30
0.0
 10
14.9096754636
 20
13.2666323284
 30
0.0
 10
14.9078923387
 20
13.2668709599
 30
0.0
 10
14.9061411494
 20
13.2669863108
 30
0.0
 10
14.9044424472
 20
13.2669770046
 30
0.0
 10
14.9028161403
 20
13.2668431143
 30
0.0
 10
14.9012811207
 20
13.266586067
 30
0.0
 10
14.8998554904
 20
13.266208779
 30
0.0
 10
14.8989617013
 20
13.2658693404
 30
0.0
 10
14.8985400972
 20
13.2656791271
 30
0.0
  0
SPLINE
  5
32D
100
AcDbEntity
  8
LAYER_FEATURE
100
AcDbSpline
 62
7
  6
CONTINUOUS
 70
0
 71
3
 72
15
 73
11
 74
0
 42
0.0000001
 43
0.0000001
 44
0.0000000001
 40
0.0
 40
0.0
 40
0.0
 40
0.0
 40
0.1397170344
 40
0.2741483515
 40
0.4036227027
 40
0.5286862408
 40
0.6500082045
 40
0.7683786793
 40
0.8847102007
 40
1.0
 40
1.0
 40
1.0
 40
1.0
 10
14.8741379068
 20
13.2539982645
 30
0.0
 10
14.8739036702
 20
13.2538793914
 30
0.0
 10
14.8734525275
 20
13.2536288586
 30
0.0
 10
14.8728208724
 20
13.2532067453
 30
0.0
 10
14.8722505148
 20
13.2527474081
 30
0.0
 10
14.8717441726
 20
13.2522528648
 30
0.0
 10
14.8713041651
 20
13.251725242
 30
0.0
 10
14.8709326895
 20
13.2511667821
 30
0.0
 10
14.8706316112
 20
13.2505801652
 30
0.0
 10
14.8704785348
 20
13.2501712539
 30
0.0
 10
14.870414537
 20
13.2499641677
 30
0.0
  0
SPLINE
  5
32E
100
AcDbEntity
  8
LAYER_FEATURE
100
AcDbSpline
 62
7
  6
CONTINUOUS
 70
0
 71
3
 72
15
 73
11
 74
0
 42
0.0000001
 43
0.0000001
 44
0.0000000001
 40
0.0
 40
0.0
 40
0.0
 40
0.0
 40
0.1180332361
 40
0.2392577146
 40
0.3631199829
 40
0.4890170072
 40
0.6163149945
 40
0.7443571516
 40
0.872475292
 40
1.0
 40
1.0
 40
1.0
 40
1.0
 10
14.8115346282
 20
13.195202649
 30
0.0
 10
14.8128257936
 20
13.1942612662
 30
0.0
 10
14.8155030043
 20
13.1924340927
 30
0.0
 10
14.8197186942
 20
13.1899008194
 30
0.0
 10
14.8241615716
 20
13.1875536456
 30
0.0
 10
14.8287971105
 20
13.1854108642
 30
0.0
 10
14.8335894626
 20
13.1834890106
 30
0.0
 10
14.8385015688
 20
13.181802967
 30
0.0
 10
14.8434952157
 20
13.1803658203
 30
0.0
 10
14.8468669699
 20
13.1795778003
 30
0.0
 10
14.8485576475
 20
13.1792284143
 30
0.0
  0
SPLINE
  5
32F
100
AcDbEntity
  8
LAYER_FEATURE
100
AcDbSpline
 62
7
  6
CONTINUOUS
 70
0
 71
3
 72
23
 73
19
 74
0
 42
0.0000001
 43
0.0000001
 44
0.0000000001
 40
0.0
 40
0.0
 40
0.0
 40
0.0
 40
0.0644898044
 40
0.1310418627
 40
0.1991797952
 40
0.2683868759
 40
0.338120272
 40
0.407824599
 40
0.4769451603
 40
0.5449412053
 40
0.6112995363
 40
0.6755488448
 40
0.7372752409
 40
0.7961395557
 40
0.8518970921
 40
0.9044204562
 40
0.9537256322
 40
1.0
 40
1.0
 40
1.0
 40
1.0
 10
14.8115346282
 20
13.195202649
 30
0.0
 10
14.8110734775
 20
13.1955388719
 30
0.0
 10
14.8101097918
 20
13.1961861617
 30
0.0
 10
14.8085799193
 20
13.1970642182
 30
0.0
 10
14.8069574304
 20
13.1978567444
 30
0.0
 10
14.805261531
 20
13.1985543391
 30
0.0
 10
14.8035121655
 20
13.1991488085
 30
0.0
 10
14.8017299577
 20
13.1996331409
 30
0.0
 10
14.7999359073
 20
13.2000016307
 30
0.0
 10
14.7981511442
 20
13.2002499364
 30
0.0
 10
14.7963966641
 20
13.2003751317
 30
0.0
 10
14.7946930667
 20
13.200375728
 30
0.0
 10
14.7930603024
 20
13.2002516768
 30
0.0
 10
14.7915174142
 20
13.2000043256
 30
0.0
 10
14.7900823603
 20
13.1996363882
 30
0.0
 10
14.7887716826
 20
13.1991516992
 30
0.0
 10
14.7876009435
 20
13.1985555468
 30
0.0
 10
14.7869019979
 20
13.1980731595
 30
0.0
 10
14.7865840098
 20
13.197815128
 30
0.0
  0
SPLINE
  5
330
100
AcDbEntity
  8
LAYER_FEATURE
100
AcDbSpline
 62
7
  6
CONTINUOUS
 70
0
 71
3
 72
11
 73
7
 74
0
 42
0.0000001
 43
0.0000001
 44
0.0000000001
 40
0.0
 40
0.0
 40
0.0
 40
0.0
 40
0.2605621588
 40
0.5122872767
 40
0.7577479624
 40
1.0
 40
1.0
 40
1.0
 40
1.0
 10
14.7683885567
 20
13.1821611797
 30
0.0
 10
14.7681791709
 20
13.1819700453
 30
0.0
 10
14.7677886359
 20
13.1815700795
 30
0.0
 10
14.7672905525
 20
13.1809101756
 30
0.0
 10
14.7668955135
 20
13.1802064726
 30
0.0
 10
14.7667023991
 20
13.1797099556
 30
0.0
 10
14.7666245746
 20
13.1794581245
 30
0.0
  0
SPLINE
  5
331
100
AcDbEntity
  8
LAYER_FEATURE
100
AcDbSpline
 62
7
  6
CONTINUOUS
 70
0
 71
3
 72
23
 73
19
 74
0
 42
0.0000001
 43
0.0000001
 44
0.0000000001
 40
0.0
 40
0.0
 40
0.0
 40
0.0
 40
0.0711421363
 40
0.1434463553
 40
0.2163466375
 40
0.2892627296
 40
0.3616140041
 40
0.4328333091
 40
0.5023811556
 40
0.5697606321
 40
0.6345335254
 40
0.6963382423
 40
0.754910234
 40
0.8101055993
 40
0.8619281033
 40
0.9105584298
 40
0.9563812346
 40
1.0
 40
1.0
 40
1.0
 40
1.0
 10
14.7315638832
 20
13.1118176146
 30
0.0
 10
14.7310336549
 20
13.1121027658
 30
0.0
 10
14.7299447542
 20
13.1126416581
 30
0.0
 10
14.7282540145
 20
13.1133470658
 30
0.0
 10
14.7265081273
 20
13.1139499929
 30
0.0
 10
14.7247277648
 20
13.1144432825
 30
0.0
 10
14.722933881
 20
13.1148211354
 30
0.0
 10
14.7211476119
 20
13.1150790967
 30
0.0
 10
14.7193899715
 20
13.1152141273
 30
0.0
 10
14.7176816013
 20
13.1152246246
 30
0.0
 10
14.7160425104
 20
13.1151104253
 30
0.0
 10
14.7144918288
 20
13.1148727732
 30
0.0
 10
14.7130475855
 20
13.1145142591
 30
0.0
 10
14.7117265164
 20
13.114038696
 30
0.0
 10
14.7105440002
 20
13.1134510493
 30
0.0
 10
14.7095139582
 20
13.1127571025
 30
0.0
 10
14.7086494547
 20
13.1119642412
 30
0.0
 10
14.7081820341
 20
13.11136305
 30
0.0
 10
14.7079834252
 20
13.1110519115
 30
0.0
  0
SPLINE
  5
332
100
AcDbEntity
  8
LAYER_FEATURE
100
AcDbSpline
 62
7
  6
CONTINUOUS
 70
0
 71
3
 72
15
 73
11
 74
0
 42
0.0000001
 43
0.0000001
 44
0.0000000001
 40
0.0
 40
0.0
 40
0.0
 40
0.0
 40
0.1481532435
 40
0.2886594078
 40
0.4216159585
 40
0.5474323295
 40
0.6668692973
 40
0.7810622986
 40
0.8915025005
 40
1.0
 40
1.0
 40
1.0
 40
1.0
 10
14.6727333828
 20
13.0147040996
 30
0.0
 10
14.6723248982
 20
13.0146025189
 30
0.0
 10
14.6715365636
 20
13.0143719361
 30
0.0
 10
14.6704212576
 20
13.0139298831
 30
0.0
 10
14.669413464
 20
13.0134041353
 30
0.0
 10
14.6685223493
 20
13.0127988789
 30
0.0
 10
14.6677561882
 20
13.0121189183
 30
0.0
 10
14.6671225604
 20
13.011369693
 30
0.0
 10
14.6666282649
 20
13.0105580466
 30
0.0
 10
14.666394514
 20
13.009977976
 30
0.0
 10
14.6663034992
 20
13.009683461
 30
0.0
  0
SPLINE
  5
333
100
AcDbEntity
  8
LAYER_FEATURE
100
AcDbSpline
 62
7
  6
CONTINUOUS
 70
0
 71
3
 72
39
 73
35
 74
0
 42
0.0000001
 43
0.0000001
 44
0.0000000001
 40
0.0
 40
0.0
 40
0.0
 40
0.0
 40
0.0396651873
 40
0.0788627135
 40
0.1175691664
 40
0.1557638124
 40
0.1934266623
 40
0.2305396249
 40
0.2670862421
 40
0.3030519225
 40
0.3384240463
 40
0.3731920979
 40
0.4073478077
 40
0.4408852955
 40
0.4738012226
 40
0.506094948
 40
0.5377686906
 40
0.5688276881
 40
0.5992803563
 40
0.6291384461
 40
0.6584171915
 40
0.687135444
 40
0.715315789
 40
0.7429846304
 40
0.7701722362
 40
0.7969127392
 40
0.8232440802
 40
0.8492078832
 40
0.8748492573
 40
0.9002165149
 40
0.9253608053
 40
0.9503356665
 40
0.9751965027
 40
1.0
 40
1.0
 40
1.0
 40
1.0
 10
15.0716647357
 20
12.8269174664
 30
0.0
 10
15.0614012605
 20
12.8269174664
 30
0.0
 10
15.0409945052
 20
12.8266873222
 30
0.0
 10
15.0105885823
 20
12.8256383483
 30
0.0
 10
14.9805957975
 20
12.8238887148
 30
0.0
 10
14.9510503132
 20
12.8214404425
 30
0.0
 10
14.9219853168
 20
12.8182962363
 30
0.0
 10
14.8934336556
 20
12.8144596446
 30
0.0
 10
14.8654275206
 20
12.8099349594
 30
0.0
 10
14.8379985054
 20
12.8047272572
 30
0.0
 10
14.8111775425
 20
12.7988423768
 30
0.0
 10
14.7849948771
 20
12.7922869108
 30
0.0
 10
14.7594800334
 20
12.7850681977
 30
0.0
 10
14.7346617833
 20
12.7771943114
 30
0.0
 10
14.7105681151
 20
12.7686740507
 30
0.0
 10
14.6872262045
 20
12.7595169284
 30
0.0
 10
14.6646623832
 20
12.749733165
 30
0.0
 10
14.6429021158
 20
12.7393336703
 30
0.0
 10
14.6219699765
 20
12.7283300308
 30
0.0
 10
14.6018896263
 20
12.7167344982
 30
0.0
 10
14.5826837922
 20
12.7045599772
 30
0.0
 10
14.564374248
 20
12.6918200134
 30
0.0
 10
14.5469817913
 20
12.6785287885
 30
0.0
 10
14.5305262256
 20
12.6647011104
 30
0.0
 10
14.5150263457
 20
12.6503524022
 30
0.0
 10
14.5004999178
 20
12.6354986984
 30
0.0
 10
14.4869636588
 20
12.6201566403
 30
0.0
 10
14.474433212
 20
12.6043434698
 30
0.0
 10
14.4629231204
 20
12.5880770315
 30
0.0
 10
14.4524467808
 20
12.5713757423
 30
0.0
 10
14.4430164479
 20
12.5542586709
 30
0.0
 10
14.4346430846
 20
12.5367451554
 30
0.0
 10
14.4273367478
 20
12.5188561243
 30
0.0
 10
14.4231806453
 20
12.506686735
 30
0.0
 10
14.4212857584
 20
12.5005548695
 30
0.0
  0
SPLINE
  5
334
100
AcDbEntity
  8
LAYER_FEATURE
100
AcDbSpline
 62
7
  6
CONTINUOUS
 70
0
 71
3
 72
39
 73
35
 74
0
 42
0.0000001
 43
0.0000001
 44
0.0000000001
 40
0.0
 40
0.0
 40
0.0
 40
0.0
 40
0.0396651873
 40
0.0788627135
 40
0.1175691664
 40
0.1557638124
 40
0.1934266623
 40
0.2305396249
 40
0.2670862421
 40
0.3030519225
 40
0.3384240463
 40
0.3731920979
 40
0.4073478077
 40
0.4408852955
 40
0.4738012226
 40
0.506094948
 40
0.5377686906
 40
0.5688276881
 40
0.5992803563
 40
0.6291384461
 40
0.6584171915
 40
0.687135444
 40
0.715315789
 40
0.7429846304
 40
0.7701722362
 40
0.7969127392
 40
0.8232440802
 40
0.8492078832
 40
0.8748492573
 40
0.9002165149
 40
0.9253608053
 40
0.9503356665
 40
0.9751965027
 40
1.0
 40
1.0
 40
1.0
 40
1.0
 10
15.250793815
 20
13.4065793795
 30
0.0
 10
15.2405303398
 20
13.4065793795
 30
0.0
 10
15.2201235845
 20
13.4063492353
 30
0.0
 10
15.1897176616
 20
13.4053002614
 30
0.0
 10
15.1597248768
 20
13.4035506279
 30
0.0
 10
15.1301793925
 20
13.4011023556
 30
0.0
 10
15.1011143962
 20
13.3979581495
 30
0.0
 10
15.0725627349
 20
13.3941215577
 30
0.0
 10
15.0445565999
 20
13.3895968725
 30
0.0
 10
15.0171275847
 20
13.3843891703
 30
0.0
 10
14.9903066218
 20
13.3785042899
 30
0.0
 10
14.9641239564
 20
13.3719488239
 30
0.0
 10
14.9386091127
 20
13.3647301109
 30
0.0
 10
14.9137908626
 20
13.3568562245
 30
0.0
 10
14.8896971944
 20
13.3483359639
 30
0.0
 10
14.8663552838
 20
13.3391788415
 30
0.0
 10
14.8437914625
 20
13.3293950782
 30
0.0
 10
14.8220311952
 20
13.3189955834
 30
0.0
 10
14.8010990558
 20
13.307991944
 30
0.0
 10
14.7810187056
 20
13.2963964113
 30
0.0
 10
14.7618128716
 20
13.2842218903
 30
0.0
 10
14.7435033273
 20
13.2714819265
 30
0.0
 10
14.7261108706
 20
13.2581907017
 30
0.0
 10
14.7096553049
 20
13.2443630235
 30
0.0
 10
14.694155425
 20
13.2300143154
 30
0.0
 10
14.6796289971
 20
13.2151606116
 30
0.0
 10
14.6660927382
 20
13.1998185534
 30
0.0
 10
14.6535622914
 20
13.1840053829
 30
0.0
 10
14.6420521997
 20
13.1677389447
 30
0.0
 10
14.6315758601
 20
13.1510376555
 30
0.0
 10
14.6221455272
 20
13.133920584
 30
0.0
 10
14.6137721639
 20
13.1164070686
 30
0.0
 10
14.6064658271
 20
13.0985180374
 30
0.0
 10
14.6023097246
 20
13.0863486481
 30
0.0
 10
14.6004148377
 20
13.0802167827
 30
0.0
  0
SPLINE
  5
335
100
AcDbEntity
  8
LAYER_FEATURE
100
AcDbSpline
 62
7
  6
CONTINUOUS
 70
0
 71
3
 72
86
 73
82
 74
0
 42
0.0000001
 43
0.0000001
 44
0.0000000001
 40
0.0
 40
0.0
 40
0.0
 40
0.0
 40
0.0181848425
 40
0.0366307863
 40
0.0553136822
 40
0.0742079602
 40
0.0932871252
 40
0.1125237675
 40
0.1318897441
 40
0.1513563124
 40
0.1708942709
 40
0.1904740945
 40
0.2100660702
 40
0.22964043
 40
0.2491674849
 40
0.2686177593
 40
0.2879621259
 40
0.3071719419
 40
0.3262191886
 40
0.3450766124
 40
0.3637178716
 40
0.3821176872
 40
0.4002519998
 40
0.4180981319
 40
0.4356349598
 40
0.4528430948
 40
0.4697050746
 40
0.4862055692
 40
0.5023315974
 40
0.5180727591
 40
0.5334214827
 40
0.5483732877
 40
0.5629270621
 40
0.5770853495
 40
0.5908546409
 40
0.6042456587
 40
0.617273624
 40
0.6299584819
 40
0.6423250629
 40
0.6483990647
 40
0.6544050821
 40
0.6603475978
 40
0.6662313843
 40
0.6720614965
 40
0.6778432484
 40
0.6835822031
 40
0.6892841443
 40
0.6949550539
 40
0.7006010839
 40
0.7062285229
 40
0.7118437657
 40
0.7174532755
 40
0.7230635485
 40
0.7286810767
 40
0.7343123108
 40
0.7399636227
 40
0.7456412735
 40
0.7513513763
 40
0.75709987
 40
0.7628924886
 40
0.7687347369
 40
0.7746318729
 40
0.7805888824
 40
0.7866104745
 40
0.7927010604
 40
0.8051035671
 40
0.8178275219
 40
0.8243185924
 40
0.8308987052
 40
0.8443334409
 40
0.8511931415
 40
0.858149233
 40
0.8723537034
 40
0.8869541576
 40
0.9019526947
 40
0.9173477927
 40
0.9331345952
 40
0.9493051857
 40
0.9658488486
 40
0.9827523096
 40
1.0
 40
1.0
 40
1.0
 40
1.0
 10
15.1005945338
 20
12.7998798915
 30
0.0
 10
15.1142020435
 20
12.7998798915
 30
0.0
 10
15.1416142802
 20
12.7994369044
 30
0.0
 10
15.1829647645
 20
12.7974804455
 30
0.0
 10
15.2247665013
 20
12.7942314622
 30
0.0
 10
15.2669246828
 20
12.789697264
 30
0.0
 10
15.309344296
 20
12.7838881088
 30
0.0
 10
15.3519295881
 20
12.7768171002
 30
0.0
 10
15.3945844574
 20
12.7685001988
 30
0.0
 10
15.4372126261
 20
12.758956179
 30
0.0
 10
15.4797178739
 20
12.7482065861
 30
0.0
 10
15.5220042522
 20
12.7362756856
 30
0.0
 10
15.5639763046
 20
12.7231904095
 30
0.0
 10
15.6055392826
 20
12.7089802953
 30
0.0
 10
15.6465993617
 20
12.6936774179
 30
0.0
 10
15.6870638573
 20
12.6773163232
 30
0.0
 10
15.7268414334
 20
12.6599339431
 30
0.0
 10
15.7658423105
 20
12.64156951
 30
0.0
 10
15.8039784685
 20
12.6222644668
 30
0.0
 10
15.8411638469
 20
12.6020623713
 30
0.0
 10
15.8773145396
 20
12.5810087945
 30
0.0
 10
15.912348989
 20
12.5591512203
 30
0.0
 10
15.9461881682
 20
12.5365389298
 30
0.0
 10
15.9787557572
 20
12.5132228846
 30
0.0
 10
16.0099783139
 20
12.4892556071
 30
0.0
 10
16.0397854376
 20
12.4646910564
 30
0.0
 10
16.068109924
 20
12.4395844983
 30
0.0
 10
16.0948879163
 20
12.4139923791
 30
0.0
 10
16.1200590382
 20
12.3879721858
 30
0.0
 10
16.1435665159
 20
12.3615823082
 30
0.0
 10
16.1653572902
 20
12.3348819009
 30
0.0
 10
16.1853821154
 20
12.3079307466
 30
0.0
 10
16.2035956439
 20
12.2807891165
 30
0.0
 10
16.2199565022
 20
12.2535176563
 30
0.0
 10
16.2344273492
 20
12.2261772266
 30
0.0
 10
16.2469748975
 20
12.1988289253
 30
0.0
 10
16.2575700264
 20
12.1715335423
 30
0.0
 10
16.2661875558
 20
12.1443531398
 30
0.0
 10
16.2717368041
 20
12.1217124741
 30
0.0
 10
16.2751479904
 20
12.1037369146
 30
0.0
 10
16.2771866952
 20
12.0904027486
 30
0.0
 10
16.2787194988
 20
12.0771443211
 30
0.0
 10
16.2797454994
 20
12.0639689712
 30
0.0
 10
16.2802641013
 20
12.0508842256
 30
0.0
 10
16.2802749023
 20
12.0378975026
 30
0.0
 10
16.2797779019
 20
12.0250161944
 30
0.0
 10
16.2787733076
 20
12.012247635
 30
0.0
 10
16.2772616548
 20
11.9995991053
 30
0.0
 10
16.275243801
 20
11.9870778177
 30
0.0
 10
16.2727208191
 20
11.9746909308
 30
0.0
 10
16.269694192
 20
11.9624455088
 30
0.0
 10
16.2661655831
 20
11.9503485608
 30
0.0
 10
16.2621370385
 20
11.93840699
 30
0.0
 10
16.2576108601
 20
11.9266276156
 30
0.0
 10
16.2525896203
 20
11.9150171721
 30
0.0
 10
16.2470762518
 20
11.9035822576
 30
0.0
 10
16.2410738701
 20
11.8923294119
 30
0.0
 10
16.2345859782
 20
11.8812650085
 30
0.0
 10
16.2276162766
 20
11.8703953477
 30
0.0
 10
16.2201687752
 20
11.8597265905
 30
0.0
 10
16.2122477706
 20
11.8492647625
 30
0.0
 10
16.2038577566
 20
11.8390158015
 30
0.0
 10
16.1950036149
 20
11.828985481
 30
0.0
 10
16.1856902387
 20
11.8191793873
 30
0.0
 10
16.1725893762
 20
11.8063344725
 30
0.0
 10
16.1550593953
 20
11.7908661019
 30
0.0
 10
16.1363081895
 20
11.7764109243
 30
0.0
 10
16.1204841762
 20
11.76535303
 30
0.0
 10
16.1038843617
 20
11.7544930838
 30
0.0
 10
16.086566765
 20
11.7442437685
 30
0.0
 10
16.0685970488
 20
11.7346016651
 30
0.0
 10
16.049854919
 20
11.7251964666
 30
0.0
 10
16.0254629468
 20
11.7141598319
 30
0.0
 10
15.9949460425
 20
11.7021629575
 30
0.0
 10
15.9630488689
 20
11.6913479951
 30
0.0
 10
15.9298438044
 20
11.681739087
 30
0.0
 10
15.8954053984
 20
11.6733574289
 30
0.0
 10
15.8598112333
 20
11.6662216362
 30
0.0
 10
15.8231412658
 20
11.6603475507
 30
0.0
 10
15.7854786308
 20
11.6557482702
 30
0.0
 10
15.7600113764
 20
11.653559997
 30
0.0
 10
15.7471355363
 20
11.6526745489
 30
0.0
  0
SPLINE
  5
336
100
AcDbEntity
  8
LAYER_FEATURE
100
AcDbSpline
 62
7
  6
CONTINUOUS
 70
0
 71
3
 72
37
 73
33
 74
0
 42
0.0000001
 43
0.0000001
 44
0.0000000001
 40
0.0
 40
0.0
 40
0.0
 40
0.0
 40
0.0760933998
 40
0.1135640111
 40
0.1506297882
 40
0.1872766316
 40
0.2234913742
 40
0.2592619104
 40
0.2945770414
 40
0.3294266239
 40
0.3638016046
 40
0.397694084
 40
0.4310974013
 40
0.4640061746
 40
0.4964163747
 40
0.5283254224
 40
0.5597322354
 40
0.5906373001
 40
0.6210427766
 40
0.6509525568
 40
0.6803723277
 40
0.7377658034
 40
0.7657689317
 40
0.7933243636
 40
0.8204478773
 40
0.8471574081
 40
0.873473079
 40
0.8994172214
 40
0.9250143351
 40
0.9502910456
 40
0.9752760502
 40
1.0
 40
1.0
 40
1.0
 40
1.0
 10
15.1005945338
 20
12.7998798915
 30
0.0
 10
15.0847463164
 20
12.7998798915
 30
0.0
 10
15.0610902867
 20
12.7994348012
 30
0.0
 10
15.0297537239
 20
12.7979103365
 30
0.0
 10
15.0066503032
 20
12.7963181312
 30
0.0
 10
14.9838453016
 20
12.7942725724
 30
0.0
 10
14.9613566412
 20
12.7917752619
 30
0.0
 10
14.9392022099
 20
12.7888281703
 30
0.0
 10
14.9173995471
 20
12.7854336198
 30
0.0
 10
14.8959659378
 20
12.781594306
 30
0.0
 10
14.8749183714
 20
12.7773132484
 30
0.0
 10
14.8542735311
 20
12.7725938157
 30
0.0
 10
14.8340477734
 20
12.7674397486
 30
0.0
 10
14.8142571278
 20
12.7618551055
 30
0.0
 10
14.794917284
 20
12.755844271
 30
0.0
 10
14.7760435607
 20
12.7494119972
 30
0.0
 10
14.7576509233
 20
12.7425633543
 30
0.0
 10
14.7397539279
 20
12.7353036948
 30
0.0
 10
14.7223668716
 20
12.7276388038
 30
0.0
 10
14.7055031246
 20
12.7195744915
 30
0.0
 10
14.6839144301
 20
12.70839159
 30
0.0
 10
14.6632259956
 20
12.6963544445
 30
0.0
 10
14.6435471053
 20
12.6834567041
 30
0.0
 10
14.6294938138
 20
12.6734972447
 30
0.0
 10
14.6160381659
 20
12.6631811911
 30
0.0
 10
14.6031906492
 20
12.6525164778
 30
0.0
 10
14.5909616158
 20
12.6415115216
 30
0.0
 10
14.5793608228
 20
12.6301749849
 30
0.0
 10
14.5683976063
 20
12.618515832
 30
0.0
 10
14.5580807385
 20
12.6065431509
 30
0.0
 10
14.5484187806
 20
12.5942667943
 30
0.0
 10
14.5423896289
 20
12.5858451416
 30
0.0
 10
14.5394904733
 20
12.5815894907
 30
0.0
  0
SPLINE
  5
337
100
AcDbEntity
  8
LAYER_FEATURE
100
AcDbSpline
 62
7
  6
CONTINUOUS
 70
0
 71
3
 72
40
 73
36
 74
0
 42
0.0000001
 43
0.0000001
 44
0.0000000001
 40
0.0
 40
0.0
 40
0.0
 40
0.0
 40
0.0267910444
 40
0.0533237033
 40
0.0796624896
 40
0.1058743608
 40
0.1320279095
 40
0.1581924894
 40
0.1844373098
 40
0.210830536
 40
0.2374384324
 40
0.2643245805
 40
0.2915491958
 40
0.3191685618
 40
0.3472345897
 40
0.3757944993
 40
0.4048906168
 40
0.4345602748
 40
0.449621537
 40
0.4648378827
 40
0.4957466614
 40
0.5273112482
 40
0.5595495296
 40
0.5924749126
 40
0.6260965332
 40
0.660419475
 40
0.6954449927
 40
0.7311707346
 40
0.7675909613
 40
0.8046967579
 40
0.8424762377
 40
0.8809147387
 40
0.9199950116
 40
0.959697398
 40
1.0
 40
1.0
 40
1.0
 40
1.0
 10
14.5394904733
 20
12.5815894907
 30
0.0
 10
14.5358251303
 20
12.5762091584
 30
0.0
 10
14.5288433977
 20
12.5652824823
 30
0.0
 10
14.5194214599
 20
12.5483590778
 30
0.0
 10
14.511119779
 20
12.5310137183
 30
0.0
 10
14.5039500389
 20
12.5132699955
 30
0.0
 10
14.4979217357
 20
12.4951511921
 30
0.0
 10
14.4930429359
 20
12.4766813914
 30
0.0
 10
14.4893200395
 20
12.4578851011
 30
0.0
 10
14.4867578245
 20
12.4387872658
 30
0.0
 10
14.4853594351
 20
12.4194131765
 30
0.0
 10
14.4851264023
 20
12.3997884138
 30
0.0
 10
14.4860586627
 20
12.3799387933
 30
0.0
 10
14.4881545937
 20
12.3598903144
 30
0.0
 10
14.4914110362
 20
12.3396691533
 30
0.0
 10
14.4958233621
 20
12.3193015261
 30
0.0
 10
14.5013853547
 20
12.2988140879
 30
0.0
 10
14.5069442207
 20
12.2817490572
 30
0.0
 10
14.5119481847
 20
12.2680671541
 30
0.0
 10
14.5173816193
 20
12.2542259801
 30
0.0
 10
14.5248871464
 20
12.2368959575
 30
0.0
 10
14.5349580716
 20
12.2161938099
 30
0.0
 10
14.5461267722
 20
12.1955042703
 30
0.0
 10
14.5583785201
 20
12.174854253
 30
0.0
 10
14.5716973821
 20
12.1542702352
 30
0.0
 10
14.5860660309
 20
12.1337787247
 30
0.0
 10
14.6014658181
 20
12.1134060915
 30
0.0
 10
14.6178767779
 20
12.0931785729
 30
0.0
 10
14.6352776531
 20
12.0731222303
 30
0.0
 10
14.6536459158
 20
12.0532629195
 30
0.0
 10
14.6729577976
 20
12.03362625
 30
0.0
 10
14.6931882972
 20
12.014237569
 30
0.0
 10
14.7143112941
 20
11.9951218621
 30
0.0
 10
14.7362992648
 20
11.9763039742
 30
0.0
 10
14.7514057911
 20
11.9640624517
 30
0.0
 10
14.759093856
 20
11.9579956357
 30
0.0
  0
SPLINE
  5
338
100
AcDbEntity
  8
LAYER_FEATURE
100
AcDbSpline
 62
7
  6
CONTINUOUS
 70
0
 71
3
 72
66
 73
62
 74
0
 42
0.0000001
 43
0.0000001
 44
0.0000000001
 40
0.0
 40
0.0
 40
0.0
 40
0.0
 40
0.017178901
 40
0.0345307647
 40
0.0520448452
 40
0.0697107135
 40
0.0875171985
 40
0.1054529495
 40
0.1235062925
 40
0.1416652975
 40
0.159917808
 40
0.1782514655
 40
0.2151103379
 40
0.2521417322
 40
0.2892423763
 40
0.3263084234
 40
0.3632363133
 40
0.3816171919
 40
0.3999252739
 40
0.4181480824
 40
0.436273323
 40
0.4542889113
 40
0.4721830016
 40
0.4899440164
 40
0.5075606771
 40
0.5250220355
 40
0.5423175043
 40
0.5594368896
 40
0.576370424
 40
0.5931088024
 40
0.6096432197
 40
0.6259654062
 40
0.6420676671
 40
0.6579429225
 40
0.6735847504
 40
0.6889874332
 40
0.7041460037
 40
0.7190562919
 40
0.7337149761
 40
0.7481196355
 40
0.762268807
 40
0.7761620418
 40
0.7897999613
 40
0.8031843155
 40
0.8163180417
 40
0.8292053235
 40
0.8418516467
 40
0.8542638489
 40
0.8664501639
 40
0.8784202578
 40
0.8901852544
 40
0.9017577467
 40
0.9131517873
 40
0.9243828583
 40
0.9354678172
 40
0.9464248153
 40
0.9572731887
 40
0.9680333181
 40
0.9787264597
 40
0.9893745517
 40
1.0
 40
1.0
 40
1.0
 40
1.0
 10
15.0716647357
 20
12.8269174664
 30
0.0
 10
15.0816262094
 20
12.8269174664
 30
0.0
 10
15.1016500916
 20
12.8266982761
 30
0.0
 10
15.1318155761
 20
12.8257243607
 30
0.0
 10
15.1622361482
 20
12.8241045629
 30
0.0
 10
15.1928798228
 20
12.8218406345
 30
0.0
 10
15.2237148777
 20
12.8189348897
 30
0.0
 10
15.2547091574
 20
12.8153903698
 30
0.0
 10
15.285830431
 20
12.8112107595
 30
0.0
 10
15.3170462658
 20
12.806400418
 30
0.0
 10
15.3483243114
 20
12.8009643388
 30
0.0
 10
15.3901395783
 20
12.7928755338
 30
0.0
 10
15.4423487225
 20
12.7812342007
 30
0.0
 10
15.5046154356
 20
12.764897066
 30
0.0
 10
15.5663514057
 20
12.7462351662
 30
0.0
 10
15.6272989738
 20
12.7253263628
 30
0.0
 10
15.6772985703
 20
12.7060724054
 30
0.0
 10
15.7166890576
 20
12.6896155113
 30
0.0
 10
15.7458341641
 20
12.6767869567
 30
0.0
 10
15.7745949174
 20
12.6634676477
 30
0.0
 10
15.8029415082
 20
12.6496713849
 30
0.0
 10
15.8308443986
 20
12.6354125454
 30
0.0
 10
15.8582745549
 20
12.6207059641
 30
0.0
 10
15.8852034235
 20
12.605566944
 30
0.0
 10
15.9116029781
 20
12.5900112384
 30
0.0
 10
15.9374457471
 20
12.574055037
 30
0.0
 10
15.9627048383
 20
12.5577149416
 30
0.0
 10
15.9873539667
 20
12.5410079504
 30
0.0
 10
16.0113674814
 20
12.5239514397
 30
0.0
 10
16.0347203935
 20
12.506563146
 30
0.0
 10
16.0573884085
 20
12.4888611541
 30
0.0
 10
16.0793479439
 20
12.4708638688
 30
0.0
 10
16.1005761535
 20
12.4525899968
 30
0.0
 10
16.1210509501
 20
12.4340585277
 30
0.0
 10
16.1407510279
 20
12.4152887111
 30
0.0
 10
16.1596558925
 20
12.3963000447
 30
0.0
 10
16.1777458759
 20
12.3771122465
 30
0.0
 10
16.1950021532
 20
12.3577452334
 30
0.0
 10
16.2114067606
 20
12.338219101
 30
0.0
 10
16.2269426116
 20
12.318554101
 30
0.0
 10
16.2415935208
 20
12.2987706241
 30
0.0
 10
16.255344219
 20
12.278889179
 30
0.0
 10
16.2681803593
 20
12.2589303663
 30
0.0
 10
16.2800885296
 20
12.2389148611
 30
0.0
 10
16.2910562634
 20
12.2188633917
 30
0.0
 10
16.301072053
 20
12.1987967214
 30
0.0
 10
16.3101253683
 20
12.178735634
 30
0.0
 10
16.3182066524
 20
12.15870091
 30
0.0
 10
16.3253073308
 20
12.1387133128
 30
0.0
 10
16.3314198189
 20
12.118793574
 30
0.0
 10
16.3365375298
 20
12.0989623778
 30
0.0
 10
16.340654899
 20
12.0792403513
 30
0.0
 10
16.343767383
 20
12.0596480468
 30
0.0
 10
16.3458714688
 20
12.0402059297
 30
0.0
 10
16.3469646889
 20
12.0209343622
 30
0.0
 10
16.3470456351
 20
12.0018535921
 30
0.0
 10
16.3461139811
 20
11.9829837082
 30
0.0
 10
16.3441705221
 20
11.9643447008
 30
0.0
 10
16.3412170769
 20
11.9459561112
 30
0.0
 10
16.3372568744
 20
11.9278381898
 30
0.0
 10
16.3339465646
 20
11.9159468043
 30
0.0
 10
16.3321274463
 20
11.9100601268
 30
0.0
  0
ENDSEC
  0
SECTION
  2
OBJECTS
  0
DICTIONARY
  5
C
100
AcDbDictionary
280
0
281
1
  3
ACAD_GROUP
350
D
  3
ACAD_MLINESTYLE
350
17
  3
ACAD_LAYOUT
350
1A
  3
ACAD_PLOTSETTINGS
350
19
  3
ACAD_PLOTSTYLENAME
350
E
  0
DICTIONARY
  5
D
102
{ACAD_REACTORS
330
C
102
}
100
AcDbDictionary
280
0
281
1
  0
ACDBDICTIONARYWDFLT
  5
E
102
{ACAD_REACTORS
330
C
102
}
100
AcDbDictionary
281
1
  3
Normal
350
F
100
AcDbDictionaryWithDefault
340
F
  0
DICTIONARY
  5
17
102
{ACAD_REACTORS
330
C
102
}
100
AcDbDictionary
280
0
281
1
  3
Standard
350
18
  0
DICTIONARY
  5
19
102
{ACAD_REACTORS
330
C
102
}
100
AcDbDictionary
281
1
  0
DICTIONARY
  5
1A
102
{ACAD_REACTORS
330
C
102
}
100
AcDbDictionary
281
1
  3
Model
350
339
  3
Layout1
350
33A
  0
ACDBPLACEHOLDER
  5
F
102
{ACAD_REACTORS
330
E
102
}
  0
MLINESTYLE
  5
18
102
{ACAD_REACTORS
330
17
102
}
100
AcDbMlineStyle
  2
STANDARD
 70
0
  3

 62
256
 51
90.0
 52
90.0
 71
2
 49
0.5
 62
256
  6
BYLAYER
 49
-0.5
 62
256
  6
BYLAYER
  0
LAYOUT
  5
339
102
{ACAD_REACTORS
330
1A
102
}
100
AcDbPlotSettings
  1

  2
none_device
  4
ANSI_C_(22.00_x_17.00_Inches)
  6

 40
0.0
 41
0.0
 42
0.0
 43
0.0
 44
558.8
 45
431.8
 46
0.0
 47
0.0
 48
0.0
 49
0.0
140
0.0
141
0.0
142
1.0
143
1.0
 70
1024
 72
0
 73
0
 74
0
  7

 75
0
147
1.0
148
0.0
149
0.0
100
AcDbLayout
  1
Model
 70
0
 71
0
 10
0.0
 20
0.0
 11
22.0
 21
17.0
 12
0.0
 22
0.0
 32
0.0
 14
0.0
 24
0.0
 34
0.0
 15
0.0
 25
0.0
 35
0.0
146
0.0
 13
0.0
 23
0.0
 33
0.0
 16
1.0
 26
0.0
 36
0.0
 17
0.0
 27
1.0
 37
0.0
 76
0
330
222
345
0
346
0
  0
LAYOUT
  5
33A
102
{ACAD_REACTORS
330
1A
102
}
100
AcDbPlotSettings
  1

  2
none_device
  4
ANSI_C_(22.00_x_17.00_Inches)
  6

 40
0.0
 41
0.0
 42
0.0
 43
0.0
 44
558.8
 45
431.8
 46
0.0
 47
0.0
 48
0.0
 49
0.0
140
0.0
141
0.0
142
1.0
143
1.0
 70
0
 72
0
 73
0
 74
0
  7

 75
0
147
1.0
148
0.0
149
0.0
100
AcDbLayout
  1
Layout1
 70
0
 71
1
 10
0.0
 20
0.0
 11
22.0
 21
17.0
 12
0.0
 22
0.0
 32
0.0
 14
0.0
 24
0.0
 34
0.0
 15
0.0
 25
0.0
 35
0.0
146
0.0
 13
0.0
 23
0.0
 33
0.0
 16
1.0
 26
0.0
 36
0.0
 17
0.0
 27
1.0
 37
0.0
 76
0
330
223
345
0
346
0
  0
ENDSEC
  0
EOF