999
DXF file: _cgs_temp_output.dxf
999
Pro/ENGINEER 2016360 by Parametric Technology Corporation
  0
SECTION
  2
HEADER
  9
$ACADVER
  1
AC1021
  9
$DWGCODEPAGE
  3
ANSI_1252
  9
$EXTMAX
 10
22.0
 20
17.0
 30
0.0
  9
$EXTMIN
 10
0.0
 20
0.0
 30
0.0
  9
$LIMMIN
 10
0.0
 20
0.0
  9
$LIMMAX
 10
22.0
 20
17.0
  9
$VIEWCTR
 10
11.0
 20
8.5
  9
$VIEWSIZE
 40
17.0
  9
$CLAYER
  8
0
  9
$LTSCALE
 40
1.21
  9
$CELTYPE
  6
BYLAYER
  9
$DIMSCALE
 40
1.0
  9
$DIMASZ
 40
0.1875
  9
$DIMEXO
 40
0.0625
  9
$DIMDLI
 40
0.836
  9
$DIMEXE
 40
0.125
  9
$DIMCEN
 40
0.198
  9
$DIMLFAC
 40
1.0
  9
$DIMBLK
  1
_CLOSED
  9
$DIMALT
 70
0
  9
$DIMALTF
 40
25.4
  9
$DIMTXT
 40
0.15625
  9
$DIMTOL
 70
0
  9
$DIMLIM
 70
0
  9
$DIMTFAC
 40
1.0
  9
$DIMGAP
 40
0.09
  9
$DIMDSEP
 70
46
  9
$AUNITS
 70
0
  9
$PDMODE
 70
3
  9
$PDSIZE
 40
0.3125
  9
$HANDSEED
  5
2D2
  9
$TILEMODE
 70
1
  9
$MEASUREMENT
 70
0
  9
$INSUNITS
 70
1
  0
ENDSEC
  0
SECTION
  2
CLASSES
  0
CLASS
  1
ACDBDICTIONARYWDFLT
  2
AcDbDictionaryWithDefault
  3
AutoCAD 2000
 90
0
 91
1
280
0
281
0
  0
CLASS
  1
ACDBPLACEHOLDER
  2
AcDbPlaceHolder
  3
AutoCAD 2000
 90
0
 91
1
280
0
281
0
  0
CLASS
  1
LAYOUT
  2
AcDbLayout
  3
AutoCAD 2000
 90
0
 91
0
280
0
281
0
  0
ENDSEC
  0
SECTION
  2
TABLES
  0
TABLE
  2
VPORT
  5
8
100
AcDbSymbolTable
 70
2
  0
VPORT
  5
1F4
100
AcDbSymbolTableRecord
100
AcDbViewportTableRecord
  2
*ACTIVE
 70
0
 10
0.0
 20
0.0
 11
1.0
 21
1.0
 12
11.0
 22
8.5
 13
0.0
 23
0.0
 14
1.0
 24
1.0
 15
0.0
 25
0.0
 16
0.0
 26
0.0
 36
1.0
 17
0.0
 27
0.0
 37
0.0
 40
17.0
 41
1.2941176471
 42
50.0
 43
0.0
 44
0.0
 50
0.0
 51
0.0
 71
0
 72
100
 73
1
 74
1
 75
0
 76
0
 77
0
 78
0
  0
ENDTAB
  0
TABLE
  2
LTYPE
  5
5
100
AcDbSymbolTable
 70
6
  0
LTYPE
  5
14
100
AcDbSymbolTableRecord
100
AcDbLinetypeTableRecord
  2
BYBLOCK
 70
0
  3

 72
65
 73
0
 40
0.0
  0
LTYPE
  5
15
100
AcDbSymbolTableRecord
100
AcDbLinetypeTableRecord
  2
BYLAYER
 70
0
  3

 72
65
 73
0
 40
0.0
  0
LTYPE
  5
16
100
AcDbSymbolTableRecord
100
AcDbLinetypeTableRecord
  2
CONTINUOUS
 70
64
  3
Solid line
 72
65
 73
0
 40
0.0
  0
LTYPE
  5
1F5
100
AcDbSymbolTableRecord
100
AcDbLinetypeTableRecord
  2
CENTER
 70
64
  3
____ _ ____ _ ____ _ ____ _ ____ _ ____ _ ____
 72
65
 73
4
 40
0.6
 49
0.375
 74
0
 49
-0.075
 74
0
 49
0.075
 74
0
 49
-0.075
 74
0
  0
LTYPE
  5
1F6
100
AcDbSymbolTableRecord
100
AcDbLinetypeTableRecord
  2
HIDDEN
 70
64
  3
- - - - - - - - - - - - - - - - - - - -
 72
65
 73
2
 40
0.2
 49
0.1
 74
0
 49
-0.1
 74
0
  0
LTYPE
  5
1F7
100
AcDbSymbolTableRecord
100
AcDbLinetypeTableRecord
  2
PHANTOM
 70
64
  3
_____ _ _ _____ _ _ _____ _ _ _____
 72
65
 73
6
 40
0.8
 49
0.45
 74
0
 49
-0.05
 74
0
 49
0.1
 74
0
 49
-0.05
 74
0
 49
0.1
 74
0
 49
-0.05
 74
0
  0
LTYPE
  5
1F8
100
AcDbSymbolTableRecord
100
AcDbLinetypeTableRecord
  2
DOT
 70
64
  3
. . . . . . . . . . . . . . . . . . . .
 72
65
 73
2
 40
0.2
 49
0.1
 74
0
 49
-0.1
 74
0
  0
LTYPE
  5
1F9
100
AcDbSymbolTableRecord
100
AcDbLinetypeTableRecord
  2
DASHED
 70
64
  3
- - - - - - - - - - - - - - - - - - - -
 72
65
 73
2
 40
0.2
 49
0.1
 74
0
 49
-0.1
 74
0
  0
ENDTAB
  0
TABLE
  2
LAYER
  5
2
100
AcDbSymbolTable
 70
36
  0
LAYER
  5
10
100
AcDbSymbolTableRecord
100
AcDbLayerTableRecord
  2
0
 70
0
 62
7
  6
CONTINUOUS
370
-3
390
F
  0
LAYER
  5
1FA
100
AcDbSymbolTableRecord
100
AcDbLayerTableRecord
  2
DEFAULT_1
 70
0
 62
7
  6
CENTER
370
-3
390
F
  0
LAYER
  5
1FB
100
AcDbSymbolTableRecord
100
AcDbLayerTableRecord
  2
DEFAULT_2
 70
0
 62
8
  6
HIDDEN
370
-3
390
F
  0
LAYER
  5
1FC
100
AcDbSymbolTableRecord
100
AcDbLayerTableRecord
  2
DEFAULT_3
 70
0
 62
7
  6
PHANTOM
370
-3
390
F
  0
LAYER
  5
1FD
100
AcDbSymbolTableRecord
100
AcDbLayerTableRecord
  2
01_ALL_DTM_PLN
 70
0
 62
7
  6
CONTINUOUS
370
-3
390
F
  0
LAYER
  5
1FE
100
AcDbSymbolTableRecord
100
AcDbLayerTableRecord
  2
01__ASM_ALL_DTM_PLN
 70
0
 62
7
  6
CONTINUOUS
370
-3
390
F
  0
LAYER
  5
1FF
100
AcDbSymbolTableRecord
100
AcDbLayerTableRecord
  2
01__ASM_DEF_DTM_PLN
 70
0
 62
7
  6
CONTINUOUS
370
-3
390
F
  0
LAYER
  5
200
100
AcDbSymbolTableRecord
100
AcDbLayerTableRecord
  2
01___PRT_ALL_DTM_PLN
 70
0
 62
7
  6
CONTINUOUS
370
-3
390
F
  0
LAYER
  5
201
100
AcDbSymbolTableRecord
100
AcDbLayerTableRecord
  2
01___PRT_DEF_DTM_PLN
 70
0
 62
7
  6
CONTINUOUS
370
-3
390
F
  0
LAYER
  5
202
100
AcDbSymbolTableRecord
100
AcDbLayerTableRecord
  2
02_ALL_AXES
 70
0
 62
7
  6
CONTINUOUS
370
-3
390
F
  0
LAYER
  5
203
100
AcDbSymbolTableRecord
100
AcDbLayerTableRecord
  2
02__ASM_ALL_AXES
 70
0
 62
7
  6
CONTINUOUS
370
-3
390
F
  0
LAYER
  5
204
100
AcDbSymbolTableRecord
100
AcDbLayerTableRecord
  2
02___PRT_ALL_AXES
 70
0
 62
7
  6
CONTINUOUS
370
-3
390
F
  0
LAYER
  5
205
100
AcDbSymbolTableRecord
100
AcDbLayerTableRecord
  2
03_ALL_CURVES
 70
0
 62
7
  6
CONTINUOUS
370
-3
390
F
  0
LAYER
  5
206
100
AcDbSymbolTableRecord
100
AcDbLayerTableRecord
  2
03__ASM_ALL_CURVES
 70
0
 62
7
  6
CONTINUOUS
370
-3
390
F
  0
LAYER
  5
207
100
AcDbSymbolTableRecord
100
AcDbLayerTableRecord
  2
03___PRT_ALL_CURVES
 70
0
 62
7
  6
CONTINUOUS
370
-3
390
F
  0
LAYER
  5
208
100
AcDbSymbolTableRecord
100
AcDbLayerTableRecord
  2
04_ALL_DTM_PNT
 70
0
 62
7
  6
CONTINUOUS
370
-3
390
F
  0
LAYER
  5
209
100
AcDbSymbolTableRecord
100
AcDbLayerTableRecord
  2
04__ASM_ALL_DTM_PNT
 70
0
 62
7
  6
CONTINUOUS
370
-3
390
F
  0
LAYER
  5
20A
100
AcDbSymbolTableRecord
100
AcDbLayerTableRecord
  2
04___PRT_ALL_DTM_PNT
 70
0
 62
7
  6
CONTINUOUS
370
-3
390
F
  0
LAYER
  5
20B
100
AcDbSymbolTableRecord
100
AcDbLayerTableRecord
  2
05_ALL_DTM_CSYS
 70
0
 62
7
  6
CONTINUOUS
370
-3
390
F
  0
LAYER
  5
20C
100
AcDbSymbolTableRecord
100
AcDbLayerTableRecord
  2
05__ASM_ALL_DTM_CSYS
 70
0
 62
7
  6
CONTINUOUS
370
-3
390
F
  0
LAYER
  5
20D
100
AcDbSymbolTableRecord
100
AcDbLayerTableRecord
  2
05__ASM_DEF_DTM_CSYS
 70
0
 62
7
  6
CONTINUOUS
370
-3
390
F
  0
LAYER
  5
20E
100
AcDbSymbolTableRecord
100
AcDbLayerTableRecord
  2
05___PRT_ALL_DTM_CSYS
 70
0
 62
7
  6
CONTINUOUS
370
-3
390
F
  0
LAYER
  5
20F
100
AcDbSymbolTableRecord
100
AcDbLayerTableRecord
  2
05___PRT_DEF_DTM_CSYS
 70
0
 62
7
  6
CONTINUOUS
370
-3
390
F
  0
LAYER
  5
210
100
AcDbSymbolTableRecord
100
AcDbLayerTableRecord
  2
06_ALL_SURFS
 70
0
 62
7
  6
CONTINUOUS
370
-3
390
F
  0
LAYER
  5
211
100
AcDbSymbolTableRecord
100
AcDbLayerTableRecord
  2
06__ASM_ALL_SURFS
 70
0
 62
7
  6
CONTINUOUS
370
-3
390
F
  0
LAYER
  5
212
100
AcDbSymbolTableRecord
100
AcDbLayerTableRecord
  2
06___PRT_ALL_SURFS
 70
0
 62
7
  6
CONTINUOUS
370
-3
390
F
  0
LAYER
  5
213
100
AcDbSymbolTableRecord
100
AcDbLayerTableRecord
  2
07__ASM_ALL_SKELETONS
 70
0
 62
7
  6
CONTINUOUS
370
-3
390
F
  0
LAYER
  5
214
100
AcDbSymbolTableRecord
100
AcDbLayerTableRecord
  2
LAYER_AXIS
 70
0
 62
7
  6
CONTINUOUS
370
-3
390
F
  0
LAYER
  5
215
100
AcDbSymbolTableRecord
100
AcDbLayerTableRecord
  2
LAYER_CHAMFER_FEAT
 70
0
 62
7
  6
CONTINUOUS
370
-3
390
F
  0
LAYER
  5
216
100
AcDbSymbolTableRecord
100
AcDbLayerTableRecord
  2
LAYER_CUT_FEAT
 70
0
 62
7
  6
CONTINUOUS
370
-3
390
F
  0
LAYER
  5
217
100
AcDbSymbolTableRecord
100
AcDbLayerTableRecord
  2
LAYER_DATUM
 70
0
 62
7
  6
CONTINUOUS
370
-3
390
F
  0
LAYER
  5
218
100
AcDbSymbolTableRecord
100
AcDbLayerTableRecord
  2
LAYER_DIM
 70
0
 62
7
  6
CONTINUOUS
370
-3
390
F
  0
LAYER
  5
219
100
AcDbSymbolTableRecord
100
AcDbLayerTableRecord
  2
LAYER_FEATURE
 70
0
 62
7
  6
CONTINUOUS
370
-3
390
F
  0
LAYER
  5
21A
100
AcDbSymbolTableRecord
100
AcDbLayerTableRecord
  2
LAYER_GEOM_FEAT
 70
0
 62
7
  6
CONTINUOUS
370
-3
390
F
  0
LAYER
  5
21B
100
AcDbSymbolTableRecord
100
AcDbLayerTableRecord
  2
LAYER_NOGEOM_FEAT
 70
0
 62
7
  6
CONTINUOUS
370
-3
390
F
  0
LAYER
  5
21C
100
AcDbSymbolTableRecord
100
AcDbLayerTableRecord
  2
LAYER_PARAMETER_DIM
 70
0
 62
7
  6
CONTINUOUS
370
-3
390
F
  0
LAYER
  5
21D
100
AcDbSymbolTableRecord
100
AcDbLayerTableRecord
  2
LAYER_PROTRUSION_FEAT
 70
0
 62
7
  6
CONTINUOUS
370
-3
390
F
  0
LAYER
  5
21E
100
AcDbSymbolTableRecord
100
AcDbLayerTableRecord
  2
LAYER_QUILT
 70
0
 62
7
  6
CONTINUOUS
370
-3
390
F
  0
LAYER
  5
21F
100
AcDbSymbolTableRecord
100
AcDbLayerTableRecord
  2
LAYER_ROUND_FEAT
 70
0
 62
7
  6
CONTINUOUS
370
-3
390
F
  0
ENDTAB
  0
TABLE
  2
STYLE
  5
3
100
AcDbSymbolTable
 70
1
  0
STYLE
  5
11
100
AcDbSymbolTableRecord
100
AcDbTextStyleTableRecord
  2
STANDARD
 70
0
 40
0.0
 41
0.8
 50
0.0
 71
0
 42
0.2
  3
txt
  4

  0
STYLE
  5
220
100
AcDbSymbolTableRecord
100
AcDbTextStyleTableRecord
  2
TEXTSTYLE_1
 70
0
 40
0.0
 41
0.8
 50
0.0
 71
0
 42
0.2
  3
gdt
  4

  0
ENDTAB
  0
TABLE
  2
VIEW
  5
6
100
AcDbSymbolTable
 70
0
  0
ENDTAB
  0
TABLE
  2
UCS
  5
7
100
AcDbSymbolTable
 70
0
  0
ENDTAB
  0
TABLE
  2
APPID
  5
9
100
AcDbSymbolTable
 70
1
  0
APPID
  5
221
100
AcDbSymbolTableRecord
100
AcDbRegAppTableRecord
  2
ACAD
 70
0
  0
ENDTAB
  0
TABLE
  2
BLOCK_RECORD
  5
1
100
AcDbSymbolTable
 70
0
  0
BLOCK_RECORD
  5
222
100
AcDbSymbolTableRecord
100
AcDbBlockTableRecord
  2
*Model_Space
  0
BLOCK_RECORD
  5
223
100
AcDbSymbolTableRecord
100
AcDbBlockTableRecord
  2
*Paper_Space
  0
ENDTAB
  0
TABLE
  2
DIMSTYLE
  5
A
100
AcDbSymbolTable
 70
1
100
AcDbDimStyleTable
 71
0
  0
DIMSTYLE
105
224
100
AcDbSymbolTableRecord
100
AcDbDimStyleTableRecord
  2
STANDARD
 70
0
  3

  4

 40
1.0
 41
0.1875
 42
0.0625
 43
0.38
 44
0.125
 45
0.0
 46
0.0
 47
0.0001
 48
0.0001
140
0.15625
141
0.09
142
0.0
143
25.4
144
1.0
145
0.0
146
1.0
147
0.09
 71
0.0
 72
0.0
 73
1
 74
1
 75
0
 76
0
 77
0
 78
4
 79
1
170
0
171
3
172
0
173
0
174
0
175
0
176
0
177
0
178
0
270
2
179
4
271
4
272
4
273
2
274
2
275
0
280
0
281
0
282
0
283
1
284
4
285
0
286
0
287
3
288
0
340
11
278
46
  0
ENDTAB
  0
ENDSEC
  0
SECTION
  2
BLOCKS
  0
BLOCK
  5
20
100
AcDbEntity
  8
0
100
AcDbBlockBegin
  2
*Model_Space
 70
0
 10
0.0
 20
0.0
 30
0.0
  3
*Model_Space
  1

  0
ENDBLK
  5
21
100
AcDbEntity
  8
0
100
AcDbBlockEnd
  0
BLOCK
  5
1C
100
AcDbEntity
  8
0
100
AcDbBlockBegin
  2
*Paper_Space
 70
0
 10
0.0
 20
0.0
 30
0.0
  3
*Paper_Space
  1

  0
ENDBLK
  5
1D
100
AcDbEntity
  8
0
100
AcDbBlockEnd
  0
ENDSEC
  0
SECTION
  2
ENTITIES
  0
MTEXT
  5
225
100
AcDbEntity
  8
0
100
AcDbMText
 62
7
  6
CONTINUOUS
  7
STANDARD
 71
1
 72
1
 10
15.9560215477
 20
0.9479130325
 30
0.0
 11
1.0
 21
0.0
 31
0.0
 44
0.9
  1
SCALE: 1:0.500
 40
0.3
 41
3.36
  0
LINE
  5
226
100
AcDbEntity
  8
0
100
AcDbLine
 62
7
  6
CONTINUOUS
 10
0.0
 20
0.0
 11
0.0
 21
17.0
  0
LINE
  5
227
100
AcDbEntity
  8
0
100
AcDbLine
 62
7
  6
CONTINUOUS
 10
0.0
 20
0.0
 11
22.0
 21
0.0
  0
LINE
  5
228
100
AcDbEntity
  8
0
100
AcDbLine
 62
7
  6
CONTINUOUS
 10
0.0
 20
17.0
 11
22.0
 21
17.0
  0
LINE
  5
229
100
AcDbEntity
  8
0
100
AcDbLine
 62
7
  6
CONTINUOUS
 10
22.0
 20
0.0
 11
22.0
 21
17.0
  0
LINE
  5
22A
100
AcDbEntity
  8
LAYER_FEATURE
100
AcDbLine
 62
7
  6
CONTINUOUS
 10
6.6783672762
 20
3.9888698968
 11
6.6162507053
 21
3.9888698968
  0
LINE
  5
22B
100
AcDbEntity
  8
LAYER_FEATURE
100
AcDbLine
 62
7
  6
CONTINUOUS
 10
5.5823672762
 20
3.9888698968
 11
5.644483847
 21
3.9888698968
  0
LINE
  5
22C
100
AcDbEntity
  8
02___PRT_ALL_AXES
100
AcDbLine
 62
7
  6
CONTINUOUS
 10
5.6778672762
 20
4.1441198968
 11
6.5828672762
 21
4.1441198968
  0
LINE
  5
22D
100
AcDbEntity
  8
LAYER_FEATURE
100
AcDbLine
 62
7
  6
CONTINUOUS
 10
5.5823672762
 20
7.0513698968
 11
5.5823672762
 21
3.9888698968
  0
LINE
  5
22E
100
AcDbEntity
  8
LAYER_FEATURE
100
AcDbLine
 62
7
  6
CONTINUOUS
 10
5.644483847
 20
7.0513698968
 11
5.644483847
 21
3.9888698968
  0
LINE
  5
22F
100
AcDbEntity
  8
LAYER_FEATURE
100
AcDbLine
 62
7
  6
CONTINUOUS
 10
5.6778672762
 20
6.9267812429
 11
5.6778672762
 21
4.1134585506
  0
LINE
  5
230
100
AcDbEntity
  8
LAYER_FEATURE
100
AcDbLine
 62
7
  6
CONTINUOUS
 10
5.644483847
 20
3.9888698968
 11
5.6778672762
 21
4.1134585506
  0
LINE
  5
231
100
AcDbEntity
  8
LAYER_FEATURE
100
AcDbLine
 62
7
  6
CONTINUOUS
 10
5.644483847
 20
7.0513698968
 11
5.6778672762
 21
6.9267812429
  0
LINE
  5
232
100
AcDbEntity
  8
LAYER_FEATURE
100
AcDbLine
 62
7
  6
CONTINUOUS
 10
6.6162507053
 20
7.0513698968
 11
6.5828672762
 21
6.9267812429
  0
LINE
  5
233
100
AcDbEntity
  8
LAYER_FEATURE
100
AcDbLine
 62
7
  6
CONTINUOUS
 10
6.6162507053
 20
3.9888698968
 11
6.5828672762
 21
4.1134585506
  0
LINE
  5
234
100
AcDbEntity
  8
LAYER_FEATURE
100
AcDbLine
 62
7
  6
CONTINUOUS
 10
6.5828672762
 20
6.9267812429
 11
6.5828672762
 21
4.1134585506
  0
LINE
  5
235
100
AcDbEntity
  8
LAYER_FEATURE
100
AcDbLine
 62
7
  6
CONTINUOUS
 10
6.6162507053
 20
7.0513698968
 11
6.6162507053
 21
3.9888698968
  0
LINE
  5
236
100
AcDbEntity
  8
LAYER_FEATURE
100
AcDbLine
 62
7
  6
CONTINUOUS
 10
6.6783672762
 20
7.0513698968
 11
6.6783672762
 21
3.9888698968
  0
LINE
  5
237
100
AcDbEntity
  8
LAYER_FEATURE
100
AcDbLine
 62
7
  6
CONTINUOUS
 10
5.6778672762
 20
6.5971099516
 11
6.5828672762
 21
6.5971099516
  0
LINE
  5
238
100
AcDbEntity
  8
LAYER_CUT_FEAT
100
AcDbLine
 62
7
  6
CONTINUOUS
 10
5.6778672762
 20
6.600423193
 11
6.5828672762
 21
6.600423193
  0
LINE
  5
239
100
AcDbEntity
  8
LAYER_FEATURE
100
AcDbLine
 62
7
  6
CONTINUOUS
 10
5.6778672762
 20
6.7235021796
 11
6.5828672762
 21
6.7235021796
  0
LINE
  5
23A
100
AcDbEntity
  8
LAYER_FEATURE
100
AcDbLine
 62
7
  6
CONTINUOUS
 10
5.6778672762
 20
6.7434966473
 11
6.5828672762
 21
6.7434966473
  0
LINE
  5
23B
100
AcDbEntity
  8
LAYER_CUT_FEAT
100
AcDbLine
 62
7
  6
CONTINUOUS
 10
5.6778672762
 20
6.7449931459
 11
6.5828672762
 21
6.7449931459
  0
LINE
  5
23C
100
AcDbEntity
  8
LAYER_FEATURE
100
AcDbLine
 62
7
  6
CONTINUOUS
 10
5.6778672762
 20
6.8305571282
 11
6.5828672762
 21
6.8305571282
  0
LINE
  5
23D
100
AcDbEntity
  8
LAYER_FEATURE
100
AcDbLine
 62
7
  6
CONTINUOUS
 10
5.6778672762
 20
6.8428696606
 11
6.5828672762
 21
6.8428696606
  0
LINE
  5
23E
100
AcDbEntity
  8
LAYER_CUT_FEAT
100
AcDbLine
 62
7
  6
CONTINUOUS
 10
5.6778672762
 20
6.8432474145
 11
6.5828672762
 21
6.8432474145
  0
LINE
  5
23F
100
AcDbEntity
  8
LAYER_FEATURE
100
AcDbLine
 62
7
  6
CONTINUOUS
 10
5.6778672762
 20
6.8872527089
 11
6.5828672762
 21
6.8872527089
  0
LINE
  5
240
100
AcDbEntity
  8
LAYER_FEATURE
100
AcDbLine
 62
7
  6
CONTINUOUS
 10
5.6778672762
 20
6.8914101423
 11
6.5828672762
 21
6.8914101423
  0
LINE
  5
241
100
AcDbEntity
  8
LAYER_FEATURE
100
AcDbLine
 62
7
  6
CONTINUOUS
 10
6.6783672762
 20
7.0513698968
 11
6.6162507053
 21
7.0513698968
  0
LINE
  5
242
100
AcDbEntity
  8
LAYER_FEATURE
100
AcDbLine
 62
7
  6
CONTINUOUS
 10
5.5823672762
 20
7.0513698968
 11
5.644483847
 21
7.0513698968
  0
LINE
  5
243
100
AcDbEntity
  8
LAYER_FEATURE
100
AcDbLine
 62
7
  6
CONTINUOUS
 10
5.5228720839
 20
11.0687977814
 11
5.5849886547
 21
11.0687977814
  0
LINE
  5
244
100
AcDbEntity
  8
LAYER_FEATURE
100
AcDbLine
 62
7
  6
CONTINUOUS
 10
6.556755513
 20
11.0687977814
 11
6.6188720839
 21
11.0687977814
  0
LINE
  5
245
100
AcDbEntity
  8
02___PRT_ALL_AXES
100
AcDbLine
 62
7
  6
CONTINUOUS
 10
5.6183720839
 20
11.2240477814
 11
6.5233720839
 21
11.2240477814
  0
LINE
  5
246
100
AcDbEntity
  8
LAYER_FEATURE
100
AcDbLine
 62
7
  6
CONTINUOUS
 10
5.6183720839
 20
11.7436200717
 11
6.5233720839
 21
11.7436200717
  0
LINE
  5
247
100
AcDbEntity
  8
LAYER_FEATURE
100
AcDbLine
 62
7
  6
CONTINUOUS
 10
6.5233720839
 20
11.875390763
 11
5.6183720839
 21
11.875390763
  0
LINE
  5
248
100
AcDbEntity
  8
LAYER_CUT_FEAT
100
AcDbLine
 62
7
  6
CONTINUOUS
 10
5.6183720839
 20
11.9240420934
 11
6.5233720839
 21
11.9240420934
  0
LINE
  5
249
100
AcDbEntity
  8
LAYER_FEATURE
100
AcDbLine
 62
7
  6
CONTINUOUS
 10
5.6183720839
 20
11.9327794085
 11
6.5233720839
 21
11.9327794085
  0
LINE
  5
24A
100
AcDbEntity
  8
LAYER_FEATURE
100
AcDbLine
 62
7
  6
CONTINUOUS
 10
5.5228720839
 20
11.0687977814
 11
5.5228720839
 21
14.1312977814
  0
LINE
  5
24B
100
AcDbEntity
  8
LAYER_FEATURE
100
AcDbLine
 62
7
  6
CONTINUOUS
 10
5.6183720839
 20
11.9701864266
 11
6.5233720839
 21
11.9701864266
  0
LINE
  5
24C
100
AcDbEntity
  8
LAYER_FEATURE
100
AcDbLine
 62
7
  6
CONTINUOUS
 10
5.5849886547
 20
11.0687977814
 11
5.5849886547
 21
14.1312977814
  0
LINE
  5
24D
100
AcDbEntity
  8
LAYER_FEATURE
100
AcDbLine
 62
7
  6
CONTINUOUS
 10
5.6183720839
 20
11.1933864352
 11
5.6183720839
 21
14.0067091276
  0
LINE
  5
24E
100
AcDbEntity
  8
LAYER_FEATURE
100
AcDbLine
 62
7
  6
CONTINUOUS
 10
6.5233720839
 20
12.0903607465
 11
5.6183720839
 21
12.0903607465
  0
LINE
  5
24F
100
AcDbEntity
  8
LAYER_FEATURE
100
AcDbLine
 62
7
  6
CONTINUOUS
 10
6.5233720839
 20
12.1457935185
 11
5.6183720839
 21
12.1457935185
  0
LINE
  5
250
100
AcDbEntity
  8
LAYER_CUT_FEAT
100
AcDbLine
 62
7
  6
CONTINUOUS
 10
5.6183720839
 20
12.1682328183
 11
6.5233720839
 21
12.1682328183
  0
LINE
  5
251
100
AcDbEntity
  8
LAYER_FEATURE
100
AcDbLine
 62
7
  6
CONTINUOUS
 10
5.6183720839
 20
12.1803690203
 11
6.5233720839
 21
12.1803690203
  0
LINE
  5
252
100
AcDbEntity
  8
LAYER_FEATURE
100
AcDbLine
 62
7
  6
CONTINUOUS
 10
5.6183720839
 20
12.2209580001
 11
6.5233720839
 21
12.2209580001
  0
LINE
  5
253
100
AcDbEntity
  8
LAYER_FEATURE
100
AcDbLine
 62
7
  6
CONTINUOUS
 10
6.5233720839
 20
12.3249177169
 11
5.6183720839
 21
12.3249177169
  0
LINE
  5
254
100
AcDbEntity
  8
LAYER_FEATURE
100
AcDbLine
 62
7
  6
CONTINUOUS
 10
6.5233720839
 20
12.3837648337
 11
5.6183720839
 21
12.3837648337
  0
LINE
  5
255
100
AcDbEntity
  8
LAYER_FEATURE
100
AcDbLine
 62
7
  6
CONTINUOUS
 10
5.6183720839
 20
12.4440866514
 11
6.5233720839
 21
12.4440866514
  0
LINE
  5
256
100
AcDbEntity
  8
LAYER_FEATURE
100
AcDbLine
 62
7
  6
CONTINUOUS
 10
5.6183720839
 20
12.4862977814
 11
6.5233720839
 21
12.4862977814
  0
LINE
  5
257
100
AcDbEntity
  8
LAYER_FEATURE
100
AcDbLine
 62
7
  6
CONTINUOUS
 10
5.5849886547
 20
11.0687977814
 11
5.6183720839
 21
11.1933864352
  0
LINE
  5
258
100
AcDbEntity
  8
LAYER_FEATURE
100
AcDbLine
 62
7
  6
CONTINUOUS
 10
6.5233720839
 20
12.5700477814
 11
5.6183720839
 21
12.5700477814
  0
LINE
  5
259
100
AcDbEntity
  8
LAYER_FEATURE
100
AcDbLine
 62
7
  6
CONTINUOUS
 10
5.5849886547
 20
14.1312977814
 11
5.6183720839
 21
14.0067091276
  0
LINE
  5
25A
100
AcDbEntity
  8
LAYER_FEATURE
100
AcDbLine
 62
7
  6
CONTINUOUS
 10
6.5233720839
 20
14.0067091276
 11
6.556755513
 21
14.1312977814
  0
LINE
  5
25B
100
AcDbEntity
  8
LAYER_FEATURE
100
AcDbLine
 62
7
  6
CONTINUOUS
 10
6.5233720839
 20
12.6300477814
 11
5.6183720839
 21
12.6300477814
  0
LINE
  5
25C
100
AcDbEntity
  8
LAYER_FEATURE
100
AcDbLine
 62
7
  6
CONTINUOUS
 10
5.6183720839
 20
12.7137977814
 11
6.5233720839
 21
12.7137977814
  0
LINE
  5
25D
100
AcDbEntity
  8
LAYER_FEATURE
100
AcDbLine
 62
7
  6
CONTINUOUS
 10
6.5233720839
 20
11.1933864352
 11
6.556755513
 21
11.0687977814
  0
LINE
  5
25E
100
AcDbEntity
  8
LAYER_FEATURE
100
AcDbLine
 62
7
  6
CONTINUOUS
 10
6.5233720839
 20
11.1933864352
 11
6.5233720839
 21
14.0067091276
  0
LINE
  5
25F
100
AcDbEntity
  8
LAYER_FEATURE
100
AcDbLine
 62
7
  6
CONTINUOUS
 10
6.556755513
 20
11.0687977814
 11
6.556755513
 21
14.1312977814
  0
LINE
  5
260
100
AcDbEntity
  8
LAYER_FEATURE
100
AcDbLine
 62
7
  6
CONTINUOUS
 10
6.6188720839
 20
11.0687977814
 11
6.6188720839
 21
14.1312977814
  0
LINE
  5
261
100
AcDbEntity
  8
02___PRT_ALL_AXES
100
AcDbLine
 62
7
  6
CONTINUOUS
 10
5.6183720839
 20
13.9760477814
 11
6.5233720839
 21
13.9760477814
  0
LINE
  5
262
100
AcDbEntity
  8
LAYER_FEATURE
100
AcDbLine
 62
7
  6
CONTINUOUS
 10
5.5228720839
 20
14.1312977814
 11
5.5849886547
 21
14.1312977814
  0
LINE
  5
263
100
AcDbEntity
  8
LAYER_FEATURE
100
AcDbLine
 62
7
  6
CONTINUOUS
 10
6.556755513
 20
14.1312977814
 11
6.6188720839
 21
14.1312977814
  0
LINE
  5
264
100
AcDbEntity
  8
LAYER_FEATURE
100
AcDbLine
 62
7
  6
CONTINUOUS
 10
14.9663437352
 20
10.9795549929
 11
15.0235568856
 21
10.9795549929
  0
LINE
  5
265
100
AcDbEntity
  8
LAYER_FEATURE
100
AcDbLine
 62
7
  6
CONTINUOUS
 10
15.9186134341
 20
10.9795549929
 11
15.9758265846
 21
10.9795549929
  0
LINE
  5
266
100
AcDbEntity
  8
02___PRT_ALL_AXES
100
AcDbLine
 62
7
  6
CONTINUOUS
 10
15.0543050601
 20
11.1348049929
 11
15.6572533523
 21
11.1348049929
  0
LINE
  5
267
100
AcDbEntity
  8
LAYER_FEATURE
100
AcDbLine
 62
7
  6
CONTINUOUS
 10
14.6663674791
 20
13.2815482428
 11
14.6773820709
 21
13.3171914747
  0
LINE
  5
268
100
AcDbEntity
  8
LAYER_FEATURE
100
AcDbLine
 62
7
  6
CONTINUOUS
 10
14.5645360299
 20
12.5837476901
 11
14.5664439465
 21
12.6435473211
  0
LINE
  5
269
100
AcDbEntity
  8
LAYER_FEATURE
100
AcDbLine
 62
7
  6
CONTINUOUS
 10
14.5794883888
 20
12.8277100028
 11
14.585902728
 21
12.8854047749
  0
LINE
  5
26A
100
AcDbEntity
  8
LAYER_FEATURE
100
AcDbLine
 62
7
  6
CONTINUOUS
 10
14.6126876861
 20
13.0594938337
 11
14.6233619484
 21
13.1128665692
  0
LINE
  5
26B
100
AcDbEntity
  8
02___PRT_ALL_AXES
100
AcDbLine
 62
7
  6
CONTINUOUS
 10
15.9286703809
 20
11.4366181755
 11
15.8820527857
 21
11.4460276605
  0
LINE
  5
26C
100
AcDbEntity
  8
LAYER_FEATURE
100
AcDbLine
 62
7
  6
CONTINUOUS
 10
14.5490511666
 20
12.6923573936
 11
14.5299038906
 21
12.7169638666
  0
LINE
  5
26D
100
AcDbEntity
  8
LAYER_FEATURE
100
AcDbLine
 62
7
  6
CONTINUOUS
 10
14.5238297625
 20
12.5265831107
 11
14.5442813749
 21
12.5428583161
  0
LINE
  5
26E
100
AcDbEntity
  8
LAYER_FEATURE
100
AcDbLine
 62
7
  6
CONTINUOUS
 10
14.572552332
 20
12.9419903891
 11
14.5556423624
 21
12.9757164344
  0
LINE
  5
26F
100
AcDbEntity
  8
LAYER_FEATURE
100
AcDbLine
 62
7
  6
CONTINUOUS
 10
14.6145669846
 20
13.1750531716
 11
14.600544162
 21
13.2166027162
  0
LINE
  5
270
100
AcDbEntity
  8
LAYER_FEATURE
100
AcDbLine
 62
7
  6
CONTINUOUS
 10
14.6734805249
 20
13.3825892691
 11
14.6628837384
 21
13.4303655873
  0
LINE
  5
271
100
AcDbEntity
  8
LAYER_FEATURE
100
AcDbLine
 62
7
  6
CONTINUOUS
 10
14.5184656965
 20
12.5094098756
 11
15.3223600163
 21
12.5094098756
  0
LINE
  5
272
100
AcDbEntity
  8
LAYER_FEATURE
100
AcDbLine
 62
7
  6
CONTINUOUS
 10
15.3230462538
 20
12.5837476901
 11
14.5645360299
 21
12.5837476901
  0
LINE
  5
273
100
AcDbEntity
  8
LAYER_FEATURE
100
AcDbLine
 62
7
  6
CONTINUOUS
 10
15.3246131837
 20
12.6435473211
 11
14.5664439465
 21
12.6435473211
  0
LINE
  5
274
100
AcDbEntity
  8
LAYER_FEATURE
100
AcDbLine
 62
7
  6
CONTINUOUS
 10
14.5256998805
 20
12.7361501431
 11
15.3289101606
 21
12.7361501431
  0
LINE
  5
275
100
AcDbEntity
  8
LAYER_FEATURE
100
AcDbLine
 62
7
  6
CONTINUOUS
 10
14.5286557101
 20
12.7778808275
 11
15.3315670842
 21
12.7778808275
  0
LINE
  5
276
100
AcDbEntity
  8
LAYER_FEATURE
100
AcDbLine
 62
7
  6
CONTINUOUS
 10
15.3353091824
 20
12.8277100028
 11
14.5794883888
 21
12.8277100028
  0
LINE
  5
277
100
AcDbEntity
  8
LAYER_FEATURE
100
AcDbLine
 62
7
  6
CONTINUOUS
 10
15.3405145637
 20
12.8854047749
 11
14.585902728
 21
12.8854047749
  0
LINE
  5
278
100
AcDbEntity
  8
LAYER_FEATURE
100
AcDbLine
 62
7
  6
CONTINUOUS
 10
14.5352213878
 20
12.7920368006
 11
14.556516484
 21
12.7977534588
  0
LINE
  5
279
100
AcDbEntity
  8
LAYER_FEATURE
100
AcDbLine
 62
7
  6
CONTINUOUS
 10
14.5529767462
 20
12.9966401718
 11
15.3531847531
 21
12.9966401718
  0
LINE
  5
27A
100
AcDbEntity
  8
LAYER_FEATURE
100
AcDbLine
 62
7
  6
CONTINUOUS
 10
14.5590461335
 20
13.0360882048
 11
15.358567023
 21
13.0360882048
  0
LINE
  5
27B
100
AcDbEntity
  8
LAYER_CUT_FEAT
100
AcDbLine
 62
7
  6
CONTINUOUS
 10
14.5658563273
 20
13.0467663917
 11
15.3600477067
 21
13.0467663917
  0
LINE
  5
27C
100
AcDbEntity
  8
LAYER_FEATURE
100
AcDbLine
 62
7
  6
CONTINUOUS
 10
15.3620059228
 20
13.0594938337
 11
14.6126876861
 21
13.0594938337
  0
LINE
  5
27D
100
AcDbEntity
  8
LAYER_FEATURE
100
AcDbLine
 62
7
  6
CONTINUOUS
 10
15.3704251237
 20
13.1128665692
 11
14.6233619484
 21
13.1128665692
  0
LINE
  5
27E
100
AcDbEntity
  8
LAYER_FEATURE
100
AcDbLine
 62
7
  6
CONTINUOUS
 10
14.5995193778
 20
13.2384598269
 11
15.3940762324
 21
13.2384598269
  0
LINE
  5
27F
100
AcDbEntity
  8
LAYER_FEATURE
100
AcDbLine
 62
7
  6
CONTINUOUS
 10
14.6084690796
 20
13.274109243
 11
15.4017721783
 21
13.274109243
  0
LINE
  5
280
100
AcDbEntity
  8
0
100
AcDbLine
 62
7
  6
CONTINUOUS
 10
14.6144660832
 20
13.2815482428
 11
15.4034825796
 21
13.2815482428
  0
LINE
  5
281
100
AcDbEntity
  8
LAYER_FEATURE
100
AcDbLine
 62
7
  6
CONTINUOUS
 10
15.4117227173
 20
13.3171914747
 11
14.6773820709
 21
13.3171914747
  0
LINE
  5
282
100
AcDbEntity
  8
02___PRT_ALL_AXES
100
AcDbLine
 62
7
  6
CONTINUOUS
 10
15.9286703809
 20
13.5849918104
 11
15.8820426857
 21
13.5755802867
  0
LINE
  5
283
100
AcDbEntity
  8
LAYER_FEATURE
100
AcDbLine
 62
7
  6
CONTINUOUS
 10
14.6635391682
 20
13.4523161149
 11
15.4484528845
 21
13.4523161149
  0
LINE
  5
284
100
AcDbEntity
  8
02___PRT_ALL_AXES
100
AcDbLine
 62
7
  6
CONTINUOUS
 10
15.0543050601
 20
13.8868049929
 11
15.6572339222
 21
13.8868049929
  0
LINE
  5
285
100
AcDbEntity
  8
LAYER_FEATURE
100
AcDbLine
 62
7
  6
CONTINUOUS
 10
14.9663437352
 20
14.0420549929
 11
15.0235568856
 21
14.0420549929
  0
LINE
  5
286
100
AcDbEntity
  8
LAYER_FEATURE
100
AcDbLine
 62
7
  6
CONTINUOUS
 10
15.9186134341
 20
14.0420549929
 11
15.9758265846
 21
14.0420549929
  0
CIRCLE
  5
287
100
AcDbEntity
  8
LAYER_FEATURE
100
AcDbCircle
 62
7
  6
CONTINUOUS
 10
15.5603552569
 20
5.4606247044
 40
1.53125
  0
CIRCLE
  5
288
100
AcDbEntity
  8
LAYER_FEATURE
100
AcDbCircle
 62
7
  6
CONTINUOUS
 10
15.5603552569
 20
5.4606247044
 40
1.4066613462
  0
CIRCLE
  5
289
100
AcDbEntity
  8
02___PRT_ALL_AXES
100
AcDbCircle
 62
7
  6
CONTINUOUS
 10
15.5603552569
 20
5.4606247044
 40
1.0775
  0
CIRCLE
  5
28A
100
AcDbEntity
  8
LAYER_CHAMFER_FEAT
100
AcDbCircle
 62
7
  6
CONTINUOUS
 10
15.5603552569
 20
5.4606247044
 40
1.01
  0
CIRCLE
  5
28B
100
AcDbEntity
  8
LAYER_CHAMFER_FEAT
100
AcDbCircle
 62
7
  6
CONTINUOUS
 10
15.5603552569
 20
5.4606247044
 40
0.98
  0
ARC
  5
28C
100
AcDbEntity
  8
02___PRT_ALL_AXES
100
AcDbCircle
 62
7
  6
CONTINUOUS
 10
15.5603552569
 20
5.4606247044
 40
0.6875
100
AcDbArc
 50
153.9499278124
 51
231.0500721876
  0
ARC
  5
28D
100
AcDbEntity
  8
02___PRT_ALL_AXES
100
AcDbCircle
 62
7
  6
CONTINUOUS
 10
15.5603552569
 20
5.4606247044
 40
0.6875
100
AcDbArc
 50
58.9499278124
 51
136.0500721876
  0
ARC
  5
28E
100
AcDbEntity
  8
LAYER_CUT_FEAT
100
AcDbCircle
 62
7
  6
CONTINUOUS
 10
15.5603552569
 20
5.4606247044
 40
0.6875
100
AcDbArc
 50
248.9499278124
 51
41.0500721876
  0
ARC
  5
28F
100
AcDbEntity
  8
02___PRT_ALL_AXES
100
AcDbCircle
 62
7
  6
CONTINUOUS
 10
15.5603552569
 20
5.4606247044
 40
0.6656478713
100
AcDbArc
 50
135.5426864311
 51
154.4573135689
  0
ARC
  5
290
100
AcDbEntity
  8
LAYER_CUT_FEAT
100
AcDbCircle
 62
7
  6
CONTINUOUS
 10
15.5603552569
 20
5.4606247044
 40
0.6437957425
100
AcDbArc
 50
59.5897023119
 51
230.4102976881
  0
ARC
  5
291
100
AcDbEntity
  8
LAYER_CUT_FEAT
100
AcDbCircle
 62
7
  6
CONTINUOUS
 10
15.5603552569
 20
5.4606247044
 40
0.6437957425
100
AcDbArc
 50
249.5897023119
 51
40.4102976881
  0
ARC
  5
292
100
AcDbEntity
  8
LAYER_CUT_FEAT
100
AcDbCircle
 62
7
  6
CONTINUOUS
 10
15.9821846258
 20
5.9633413702
 40
0.109375
100
AcDbArc
 50
308.6898214686
 51
151.3101785314
  0
ARC
  5
293
100
AcDbEntity
  8
02___PRT_ALL_AXES
100
AcDbCircle
 62
7
  6
CONTINUOUS
 10
15.2322302569
 20
4.8922955332
 40
0.109375
100
AcDbArc
 50
138.6898214686
 51
341.3101785314
  0
ARC
  5
294
100
AcDbEntity
  8
02___PRT_ALL_AXES
100
AcDbCircle
 62
7
  6
CONTINUOUS
 10
15.0227867279
 20
5.8370342408
 40
0.109375
100
AcDbArc
 50
55.1836503003
 51
234.8163496997
  0
ARC
  5
295
100
AcDbEntity
  8
LAYER_FEATURE
100
AcDbCircle
 62
7
  6
CONTINUOUS
 10
17.90489441
 20
12.5177681583
 40
3.3862436946
100
AcDbArc
 50
175.5945127772
 51
176.3023760911
  0
ARC
  5
296
100
AcDbEntity
  8
LAYER_FEATURE
100
AcDbCircle
 62
7
  6
CONTINUOUS
 10
17.4582615726
 20
12.5698303921
 40
2.9364683738
100
AcDbArc
 50
170.8638038282
 51
171.6425688917
  0
ARC
  5
297
100
AcDbEntity
  8
LAYER_FEATURE
100
AcDbCircle
 62
7
  6
CONTINUOUS
 10
16.8250828969
 20
12.6986854654
 40
2.2900850069
100
AcDbArc
 50
165.447475077
 51
166.3670769197
  0
ARC
  5
298
100
AcDbEntity
  8
LAYER_FEATURE
100
AcDbCircle
 62
7
  6
CONTINUOUS
 10
15.8867415161
 20
13.4162829753
 40
0.1718555878
100
AcDbArc
 50
77.6058726101
 51
79.9588586919
  0
ARC
  5
299
100
AcDbEntity
  8
LAYER_FEATURE
100
AcDbCircle
 62
7
  6
CONTINUOUS
 10
15.8868608879
 20
11.6047270524
 40
0.1712439953
100
AcDbArc
 50
279.9735510136
 51
282.4089173718
  0
ARC
  5
29A
100
AcDbEntity
  8
02___PRT_ALL_AXES
100
AcDbCircle
 62
7
  6
CONTINUOUS
 10
15.9620125669
 20
11.6015201392
 40
0.1682389935
100
AcDbArc
 50
258.5692471786
 51
264.2560662484
  0
ARC
  5
29B
100
AcDbEntity
  8
02___PRT_ALL_AXES
100
AcDbCircle
 62
7
  6
CONTINUOUS
 10
15.9620124942
 20
13.4200913232
 40
0.1682375246
100
AcDbArc
 50
95.7578603725
 51
101.4308286598
  0
ARC
  5
29C
100
AcDbEntity
  8
LAYER_FEATURE
100
AcDbCircle
 62
7
  6
CONTINUOUS
 10
15.9450779983
 20
11.5969643631
 40
0.1634093692
100
AcDbArc
 50
270.0001444145
 51
271.8747681875
  0
ARC
  5
29D
100
AcDbEntity
  8
LAYER_FEATURE
100
AcDbCircle
 62
7
  6
CONTINUOUS
 10
15.9450783667
 20
13.4246555516
 40
0.1633994403
100
AcDbArc
 50
88.0086465281
 51
89.9999847755
  0
SPLINE
  5
29E
100
AcDbEntity
  8
02___PRT_ALL_AXES
100
AcDbSpline
 62
7
  6
CONTINUOUS
 70
0
 71
3
 72
38
 73
34
 74
0
 42
0.0000001
 43
0.0000001
 44
0.0000000001
 40
0.0
 40
0.0
 40
0.0
 40
0.0
 40
0.0890744959
 40
0.1323243235
 40
0.1746851801
 40
0.2161365289
 40
0.256659786
 40
0.2962385399
 40
0.3348584596
 40
0.3725075828
 40
0.4091764515
 40
0.4448583391
 40
0.4795495239
 40
0.5132494904
 40
0.54596123
 40
0.5776916164
 40
0.608451702
 40
0.6382570974
 40
0.6671284461
 40
0.6950918316
 40
0.722179212
 40
0.7484289312
 40
0.7738861521
 40
0.7986032103
 40
0.8226399443
 40
0.8460638655
 40
0.8689500782
 40
0.8913809974
 40
0.9134457682
 40
0.935239307
 40
0.9568610459
 40
0.9784133982
 40
1.0
 40
1.0
 40
1.0
 40
1.0
 10
16.2902327505
 20
11.8410202521
 30
0.0
 10
16.2852242918
 20
11.8248128737
 30
0.0
 10
16.277382181
 20
11.8008565708
 30
0.0
 10
16.2661594598
 20
11.7695376459
 30
0.0
 10
16.2575627685
 20
11.746916379
 30
0.0
 10
16.2487115116
 20
11.7249523853
 30
0.0
 10
16.2396132235
 20
11.7036644265
 30
0.0
 10
16.2302757339
 20
11.6830708211
 30
0.0
 10
16.2207070381
 20
11.6631892202
 30
0.0
 10
16.2109153532
 20
11.6440366712
 30
0.0
 10
16.200909049
 20
11.6256295965
 30
0.0
 10
16.1906966661
 20
11.6079837738
 30
0.0
 10
16.1802869353
 20
11.5911143039
 30
0.0
 10
16.169688715
 20
11.5750356309
 30
0.0
 10
16.1589109885
 20
11.5597615308
 30
0.0
 10
16.1479629028
 20
11.5453050649
 30
0.0
 10
16.1368537044
 20
11.5316786105
 30
0.0
 10
16.125592721
 20
11.5188938705
 30
0.0
 10
16.1141894065
 20
11.5069618224
 30
0.0
 10
16.1026532959
 20
11.4958927497
 30
0.0
 10
16.0909939771
 20
11.4856962795
 30
0.0
 10
16.0792211378
 20
11.476381342
 30
0.0
 10
16.0673445619
 20
11.4679561821
 30
0.0
 10
16.0553741092
 20
11.4604284248
 30
0.0
 10
16.043319772
 20
11.4538050429
 30
0.0
 10
16.0311917256
 20
11.4480923117
 30
0.0
 10
16.0190003239
 20
11.4432958656
 30
0.0
 10
16.0067561664
 20
11.4394206424
 30
0.0
 10
15.9944701191
 20
11.436470736
 30
0.0
 10
15.9821533885
 20
11.434449396
 30
0.0
 10
15.9698171144
 20
11.4333589853
 30
0.0
 10
15.957473757
 20
11.4332006664
 30
0.0
 10
15.9492652435
 20
11.4337155987
 30
0.0
 10
15.9451747512
 20
11.4341258535
 30
0.0
  0
SPLINE
  5
29F
100
AcDbEntity
  8
LAYER_CHAMFER_FEAT
100
AcDbSpline
 62
7
  6
CONTINUOUS
 70
0
 71
3
 72
15
 73
11
 74
0
 42
0.0000001
 43
0.0000001
 44
0.0000000001
 40
0.0
 40
0.0
 40
0.0
 40
0.0
 40
0.1375057385
 40
0.2714667876
 40
0.401848656
 40
0.5286396109
 40
0.6518353119
 40
0.7714434053
 40
0.8874860018
 40
1.0
 40
1.0
 40
1.0
 40
1.0
 10
15.7170631526
 20
11.7196448142
 30
0.0
 10
15.7200323369
 20
11.7135942526
 30
0.0
 10
15.726034605
 20
11.7017173173
 30
0.0
 10
15.7353565085
 20
11.6843639574
 30
0.0
 10
15.744872451
 20
11.6677182332
 30
0.0
 10
15.7545741513
 20
11.651794637
 30
0.0
 10
15.7644534401
 20
11.6366065826
 30
0.0
 10
15.7745020144
 20
11.6221669867
 30
0.0
 10
15.7847111933
 20
11.6084884371
 30
0.0
 10
15.7917263501
 20
11.599750363
 30
0.0
 10
15.7952602716
 20
11.5955165545
 30
0.0
  0
SPLINE
  5
2A0
100
AcDbEntity
  8
LAYER_FEATURE
100
AcDbSpline
 62
7
  6
CONTINUOUS
 70
0
 71
3
 72
23
 73
19
 74
0
 42
0.0000001
 43
0.0000001
 44
0.0000000001
 40
0.0
 40
0.0
 40
0.0
 40
0.0
 40
0.0538233809
 40
0.107888012
 40
0.1624311698
 40
0.2176824489
 40
0.2738605548
 40
0.3311706779
 40
0.3898025779
 40
0.4499294295
 40
0.511707231
 40
0.5752746864
 40
0.6407536382
 40
0.7082497405
 40
0.7778532188
 40
0.8496398682
 40
0.9236721234
 40
1.0
 40
1.0
 40
1.0
 40
1.0
 10
15.0235568856
 20
14.0420549843
 30
0.0
 10
15.0291974264
 20
14.0420549788
 30
0.0
 10
15.0405080856
 20
14.0416422085
 30
0.0
 10
15.0574431467
 20
14.0397866812
 30
0.0
 10
15.0743496067
 20
14.0366963513
 30
0.0
 10
15.0912118099
 20
14.0323744431
 30
0.0
 10
15.1080158911
 20
14.026825294
 30
0.0
 10
15.1247478965
 20
14.0200543152
 30
0.0
 10
15.1413943124
 20
14.0120679087
 30
0.0
 10
15.1579418587
 20
14.0028733219
 30
0.0
 10
15.1743774857
 20
13.9924786362
 30
0.0
 10
15.1906883631
 20
13.9808928085
 30
0.0
 10
15.206861799
 20
13.9681255842
 30
0.0
 10
15.2228852089
 20
13.9541874996
 30
0.0
 10
15.2387461241
 20
13.9390899852
 30
0.0
 10
15.2544322522
 20
13.9228452233
 30
0.0
 10
15.2699310934
 20
13.9054665882
 30
0.0
 10
15.2799761987
 20
13.89332097
 30
0.0
 10
15.2849669481
 20
13.8870699211
 30
0.0
  0
SPLINE
  5
2A1
100
AcDbEntity
  8
LAYER_FEATURE
100
AcDbSpline
 62
7
  6
CONTINUOUS
 70
0
 71
3
 72
23
 73
19
 74
0
 42
0.0000001
 43
0.0000001
 44
0.0000000001
 40
0.0
 40
0.0
 40
0.0
 40
0.0
 40
0.0538153273
 40
0.1078721658
 40
0.1624080576
 40
0.2176528382
 40
0.2738254065
 40
0.3311311481
 40
0.3897600029
 40
0.4498852354
 40
0.511662919
 40
0.5752318747
 40
0.6407139579
 40
0.7082147915
 40
0.7778246432
 40
0.8496192976
 40
0.9236610927
 40
1.0
 40
1.0
 40
1.0
 40
1.0
 10
15.0235568856
 20
10.9795550015
 30
0.0
 10
15.0292009693
 20
10.979554996
 30
0.0
 10
15.0405187684
 20
10.9799683208
 30
0.0
 10
15.0574644838
 20
10.9818261527
 30
0.0
 10
15.0743815405
 20
10.9849203788
 30
0.0
 10
15.0912542476
 20
10.9892477417
 30
0.0
 10
15.1080687264
 20
10.9948038494
 30
0.0
 10
15.1248109948
 20
11.0015833004
 30
0.0
 10
15.1414674974
 20
11.0095797122
 30
0.0
 10
15.158024946
 20
11.0187857755
 30
0.0
 10
15.1744702808
 20
11.0291933759
 30
0.0
 10
15.1907906156
 20
11.0407935891
 30
0.0
 10
15.2069732491
 20
11.0535766191
 30
0.0
 10
15.2230055973
 20
11.0675318766
 30
0.0
 10
15.2388751429
 20
11.0826479386
 30
0.0
 10
15.2545695657
 20
11.0989125972
 30
0.0
 10
15.2700763691
 20
11.1163124164
 30
0.0
 10
15.2801263921
 20
11.1284726769
 30
0.0
 10
15.2851195413
 20
11.1347312514
 30
0.0
  0
SPLINE
  5
2A2
100
AcDbEntity
  8
LAYER_FEATURE
100
AcDbSpline
 62
7
  6
CONTINUOUS
 70
0
 71
3
 72
68
 73
64
 74
0
 42
0.0000001
 43
0.0000001
 44
0.0000000001
 40
0.0
 40
0.0
 40
0.0
 40
0.0
 40
0.0038448265
 40
0.0076962392
 40
0.0115607831
 40
0.0154449202
 40
0.0193549915
 40
0.0232971829
 40
0.0272774884
 40
0.0313016907
 40
0.0395020789
 40
0.0479412181
 40
0.0566557572
 40
0.0656777061
 40
0.0750344918
 40
0.0847491527
 40
0.0948406176
 40
0.1053240294
 40
0.1162110792
 40
0.1275103338
 40
0.1392275419
 40
0.1513659152
 40
0.163926381
 40
0.1769078068
 40
0.1903071987
 40
0.2041198767
 40
0.2183396291
 40
0.232958849
 40
0.2479686547
 40
0.2633589967
 40
0.2791187536
 40
0.2952358175
 40
0.3116971723
 40
0.3284889642
 40
0.3455965666
 40
0.3630046406
 40
0.3806971914
 40
0.3986576209
 40
0.4168687774
 40
0.4353130026
 40
0.4539721773
 40
0.4728277646
 40
0.4918608519
 40
0.5110521918
 40
0.549830236
 40
0.5890037206
 40
0.6284105861
 40
0.6678870956
 40
0.7072690133
 40
0.7463927805
 40
0.7850966971
 40
0.8042419852
 40
0.823223137
 40
0.8420210026
 40
0.8606167789
 40
0.8789920514
 40
0.8971288359
 40
0.9150096254
 40
0.9326174244
 40
0.9499358349
 40
0.9669489951
 40
0.9836419142
 40
1.0
 40
1.0
 40
1.0
 40
1.0
 10
15.9758265846
 20
14.0420549921
 30
0.0
 10
15.9793081579
 20
14.0420549949
 30
0.0
 10
15.9862782824
 20
14.0418981232
 30
0.0
 10
15.9967263591
 20
14.0411925733
 30
0.0
 10
16.0071680329
 20
14.0400168976
 30
0.0
 10
16.0175997241
 20
14.038371526
 30
0.0
 10
16.028018239
 20
14.0362570264
 30
0.0
 10
16.0384202335
 20
14.0336741005
 30
0.0
 10
16.0488026533
 20
14.0306235917
 30
0.0
 10
16.0627009576
 20
14.0259052072
 30
0.0
 10
16.0800376784
 20
14.0188085361
 30
0.0
 10
16.1005718309
 20
14.0084936107
 30
0.0
 10
16.1209445361
 20
13.9963407639
 30
0.0
 10
16.141130689
 20
13.9823670052
 30
0.0
 10
16.1611070266
 20
13.9665907054
 30
0.0
 10
16.1808502219
 20
13.9490320897
 30
0.0
 10
16.2003372901
 20
13.9297131647
 30
0.0
 10
16.2195454079
 20
13.9086578181
 30
0.0
 10
16.2384519522
 20
13.8858918632
 30
0.0
 10
16.2570345127
 20
13.8614430791
 30
0.0
 10
16.2752709326
 20
13.8353412283
 30
0.0
 10
16.2931393519
 20
13.8076180581
 30
0.0
 10
16.3106182536
 20
13.7783072885
 30
0.0
 10
16.3276865089
 20
13.7474445872
 30
0.0
 10
16.3443234203
 20
13.7150675381
 30
0.0
 10
16.360508763
 20
13.6812156011
 30
0.0
 10
16.3762228196
 20
13.6459300653
 30
0.0
 10
16.391446415
 20
13.6092539989
 30
0.0
 10
16.4061609478
 20
13.5712321959
 30
0.0
 10
16.4203484194
 20
13.5319111201
 30
0.0
 10
16.433991461
 20
13.4913388471
 30
0.0
 10
16.4470733589
 20
13.4495650031
 30
0.0
 10
16.4595780781
 20
13.4066407029
 30
0.0
 10
16.4714902844
 20
13.3626184864
 30
0.0
 10
16.4827953666
 20
13.3175522526
 30
0.0
 10
16.4934794545
 20
13.2714971917
 30
0.0
 10
16.5035294368
 20
13.2245097155
 30
0.0
 10
16.5129329783
 20
13.176647387
 30
0.0
 10
16.5216785355
 20
13.1279688487
 30
0.0
 10
16.5297553706
 20
13.0785337524
 30
0.0
 10
16.5371535697
 20
13.0284026726
 30
0.0
 10
16.5438640356
 20
12.9776370827
 30
0.0
 10
16.5498785755
 20
12.9262990845
 30
0.0
 10
16.5569842552
 20
12.8569326586
 30
0.0
 10
16.5640629431
 20
12.7692400908
 30
0.0
 10
16.5696556337
 20
12.6631036145
 30
0.0
 10
16.5723478147
 20
12.5562210599
 30
0.0
 10
16.5721262393
 20
12.4491163301
 30
0.0
 10
16.568991996
 20
12.342313439
 30
0.0
 10
16.5629605138
 20
12.2363358994
 30
0.0
 10
16.5555182611
 20
12.1488277577
 30
0.0
 10
16.5481243419
 20
12.0796481858
 30
0.0
 10
16.5418974195
 20
12.0284775345
 30
0.0
 10
16.5349769873
 20
11.9778982845
 30
0.0
 10
16.5273714934
 20
11.9279723083
 30
0.0
 10
16.51909029
 20
11.8787608271
 30
0.0
 10
16.5101435423
 20
11.8303241375
 30
0.0
 10
16.5005422337
 20
11.7827216
 30
0.0
 10
16.4902981521
 20
11.736011514
 30
0.0
 10
16.4794238707
 20
11.6902511624
 30
0.0
 10
16.467932719
 20
11.6454964325
 30
0.0
 10
16.4558388552
 20
11.6018024823
 30
0.0
 10
16.4472953239
 20
11.5731169953
 30
0.0
 10
16.4429219429
 20
11.558964729
 30
0.0
  0
SPLINE
  5
2A3
100
AcDbEntity
  8
LAYER_FEATURE
100
AcDbSpline
 62
7
  6
CONTINUOUS
 70
0
 71
3
 72
39
 73
35
 74
0
 42
0.0000001
 43
0.0000001
 44
0.0000000001
 40
0.0
 40
0.0
 40
0.0
 40
0.0
 40
0.0212769805
 40
0.0426477427
 40
0.0642045486
 40
0.0860367268
 40
0.1082294314
 40
0.1308626295
 40
0.1540103791
 40
0.1777403604
 40
0.2021136227
 40
0.2271845602
 40
0.2530010567
 40
0.2796047186
 40
0.307031172
 40
0.3353104562
 40
0.3644674123
 40
0.3945220379
 40
0.4254898696
 40
0.4573823626
 40
0.4902072078
 40
0.5239686095
 40
0.5586675988
 40
0.5943022926
 40
0.630868091
 40
0.6683578902
 40
0.7067623015
 40
0.7460698034
 40
0.7862668444
 40
0.8273381134
 40
0.8692665
 40
0.9120330868
 40
0.9556186933
 40
1.0
 40
1.0
 40
1.0
 40
1.0
 10
15.9758265846
 20
10.9795549938
 30
0.0
 10
15.9814197743
 20
10.9795549983
 30
0.0
 10
15.9926349946
 20
10.9799608553
 30
0.0
 10
16.0094276873
 20
10.9817852639
 30
0.0
 10
16.0261925312
 20
10.9848238014
 30
0.0
 10
16.0429142647
 20
10.9890733898
 30
0.0
 10
16.0595793685
 20
10.9945298361
 30
0.0
 10
16.0761742431
 20
11.0011878848
 30
0.0
 10
16.0926856923
 20
11.0090413799
 30
0.0
 10
16.1091007427
 20
11.0180833271
 30
0.0
 10
16.1254066716
 20
11.0283058747
 30
0.0
 10
16.1415909439
 20
11.0397003697
 30
0.0
 10
16.1576411594
 20
11.0522573946
 30
0.0
 10
16.1735450331
 20
11.0659667373
 30
0.0
 10
16.1892904125
 20
11.0808173447
 30
0.0
 10
16.2048652288
 20
11.0967973674
 30
0.0
 10
16.220257495
 20
11.1138941454
 30
0.0
 10
16.2354553462
 20
11.1320941619
 30
0.0
 10
16.2504470359
 20
11.1513830575
 30
0.0
 10
16.2652209248
 20
11.1717456533
 30
0.0
 10
16.2797655027
 20
11.1931659375
 30
0.0
 10
16.2940694378
 20
11.2156270469
 30
0.0
 10
16.3081215468
 20
11.2391113099
 30
0.0
 10
16.3219108065
 20
11.2636002568
 30
0.0
 10
16.3354263979
 20
11.2890746074
 30
0.0
 10
16.3486577107
 20
11.3155142921
 30
0.0
 10
16.361594329
 20
11.3428984864
 30
0.0
 10
16.3742260475
 20
11.3712056114
 30
0.0
 10
16.3865429311
 20
11.4004133469
 30
0.0
 10
16.3985352588
 20
11.4304986587
 30
0.0
 10
16.4101935308
 20
11.4614377571
 30
0.0
 10
16.4215086415
 20
11.4932064301
 30
0.0
 10
16.4324714832
 20
11.525779267
 30
0.0
 10
16.4394773676
 20
11.5478180793
 30
0.0
 10
16.4429219429
 20
11.558964729
 30
0.0
  0
SPLINE
  5
2A4
100
AcDbEntity
  8
LAYER_FEATURE
100
AcDbSpline
 62
7
  6
CONTINUOUS
 70
0
 71
3
 72
38
 73
34
 74
0
 42
0.0000001
 43
0.0000001
 44
0.0000000001
 40
0.0
 40
0.0
 40
0.0
 40
0.0
 40
0.0879641079
 40
0.1307308265
 40
0.1726592503
 40
0.2137306976
 40
0.2539278694
 40
0.293235471
 40
0.3316400158
 40
0.3691299389
 40
0.4056958375
 40
0.4413306486
 40
0.4760297536
 40
0.509791252
 40
0.5426162024
 40
0.5745087982
 40
0.6054767238
 40
0.6355314475
 40
0.6646884901
 40
0.6929678638
 40
0.7203944107
 40
0.7469981463
 40
0.7728147243
 40
0.7978857502
 40
0.8222590804
 40
0.8459891341
 40
0.8691369646
 40
0.8917702291
 40
0.9139630012
 40
0.9357952514
 40
0.9573521237
 40
0.9787229526
 40
1.0
 40
1.0
 40
1.0
 40
1.0
 10
15.6164720593
 20
13.1804343312
 30
0.0
 10
15.6212750322
 20
13.1959767572
 30
0.0
 10
15.6287829221
 20
13.2189645751
 30
0.0
 10
15.6394967912
 20
13.2490455005
 30
0.0
 10
15.6476985641
 20
13.2708115373
 30
0.0
 10
15.6561352632
 20
13.2919768378
 30
0.0
 10
15.6648003184
 20
13.31252479
 30
0.0
 10
15.6736868736
 20
13.3324391328
 30
0.0
 10
15.6827879077
 20
13.3517041966
 30
0.0
 10
15.6920962663
 20
13.3703047881
 30
0.0
 10
15.701604635
 20
13.3882262467
 30
0.0
 10
15.7113055141
 20
13.4054544734
 30
0.0
 10
15.7211913109
 20
13.4219758961
 30
0.0
 10
15.731254284
 20
13.4377775101
 30
0.0
 10
15.7414865391
 20
13.4528469002
 30
0.0
 10
15.7518801186
 20
13.4671721962
 30
0.0
 10
15.76242693
 20
13.4807421281
 30
0.0
 10
15.7731187676
 20
13.4935460293
 30
0.0
 10
15.7839473889
 20
13.5055737826
 30
0.0
 10
15.7949044319
 20
13.5168158913
 30
0.0
 10
15.8059814579
 20
13.5272634546
 30
0.0
 10
15.8171700055
 20
13.5369081052
 30
0.0
 10
15.8284614955
 20
13.5457421001
 30
0.0
 10
15.8398472856
 20
13.5537582597
 30
0.0
 10
15.8513186828
 20
13.5609499111
 30
0.0
 10
15.8628668395
 20
13.5673110085
 30
0.0
 10
15.8744828031
 20
13.5728360435
 30
0.0
 10
15.8861574736
 20
13.577520034
 30
0.0
 10
15.8978815448
 20
13.5813586933
 30
0.0
 10
15.9096454506
 20
13.5843483402
 30
0.0
 10
15.9214396922
 20
13.5864859702
 30
0.0
 10
15.9332535222
 20
13.5877694615
 30
0.0
 10
15.9411435441
 20
13.5880549875
 30
0.0
 10
15.9450784101
 20
13.5880549919
 30
0.0
  0
SPLINE
  5
2A5
100
AcDbEntity
  8
LAYER_FEATURE
100
AcDbSpline
 62
7
  6
CONTINUOUS
 70
0
 71
3
 72
59
 73
55
 74
0
 42
0.0000001
 43
0.0000001
 44
0.0000000001
 40
0.0
 40
0.0
 40
0.0
 40
0.0
 40
0.0163582395
 40
0.0330514558
 40
0.0500647934
 40
0.0673834334
 40
0.0849914544
 40
0.1028724708
 40
0.1210094882
 40
0.1393849946
 40
0.1767780303
 40
0.2149039356
 40
0.2536083443
 40
0.2927326087
 40
0.3321150275
 40
0.3715920385
 40
0.4109994055
 40
0.4501733877
 40
0.4889519252
 40
0.5271758263
 40
0.5646899948
 40
0.6013446976
 40
0.6193053552
 40
0.6369981297
 40
0.654406424
 40
0.6715142439
 40
0.6883062503
 40
0.7047678149
 40
0.7208850829
 40
0.7366450396
 40
0.752035578
 40
0.7670455761
 40
0.7816649827
 40
0.7958849142
 40
0.8096977656
 40
0.823097327
 40
0.8360789191
 40
0.8486395468
 40
0.8607780748
 40
0.8724954308
 40
0.8837948283
 40
0.894682017
 40
0.9051655631
 40
0.9152571563
 40
0.9249719389
 40
0.9343288424
 40
0.9433509064
 40
0.9520655578
 40
0.9605048055
 40
0.9687052977
 40
0.9767081836
 40
0.9845587207
 40
0.9923056011
 40
1.0
 40
1.0
 40
1.0
 40
1.0
 10
15.6164720593
 20
13.1804343312
 30
0.0
 10
15.6133953513
 20
13.1704781005
 30
0.0
 10
15.6073848897
 20
13.1502975474
 30
0.0
 10
15.5988767256
 20
13.1195584152
 30
0.0
 10
15.5907925823
 20
13.0880729696
 30
0.0
 10
15.5831424128
 20
13.0558801173
 30
0.0
 10
15.5759355921
 20
13.0230190876
 30
0.0
 10
15.5691809828
 20
12.9895302305
 30
0.0
 10
15.5628868268
 20
12.9554544697
 30
0.0
 10
15.5550739099
 20
12.9090251265
 30
0.0
 10
15.5465311658
 20
12.8498139671
 30
0.0
 10
15.538284196
 20
12.7775084116
 30
0.0
 10
15.5320236932
 20
12.703896996
 30
0.0
 10
15.5277804887
 20
12.6293404665
 30
0.0
 10
15.5255755229
 20
12.5542036151
 30
0.0
 10
15.5254196396
 20
12.4788543065
 30
0.0
 10
15.527313613
 20
12.4036614183
 30
0.0
 10
15.5312481231
 20
12.3289930471
 30
0.0
 10
15.5372037529
 20
12.2552147271
 30
0.0
 10
15.5451511742
 20
12.1826873585
 30
0.0
 10
15.5550512266
 20
12.1117663259
 30
0.0
 10
15.5649535907
 20
12.0539070053
 30
0.0
 10
15.5738340385
 20
12.0087064793
 30
0.0
 10
15.5809043425
 20
11.9756502585
 30
0.0
 10
15.5884206996
 20
11.9432500693
 30
0.0
 10
15.5963739424
 20
11.9115455102
 30
0.0
 10
15.6047542983
 20
11.8805754311
 30
0.0
 10
15.613551495
 20
11.850377747
 30
0.0
 10
15.6227547454
 20
11.8209894226
 30
0.0
 10
15.6323527652
 20
11.7924464153
 30
0.0
 10
15.6423337954
 20
11.7647836359
 30
0.0
 10
15.6526856173
 20
11.7380349067
 30
0.0
 10
15.6633955702
 20
11.7122329184
 30
0.0
 10
15.6744505721
 20
11.6874091872
 30
0.0
 10
15.6858371286
 20
11.6635940088
 30
0.0
 10
15.6975413664
 20
11.6408164262
 30
0.0
 10
15.7095490565
 20
11.6191041982
 30
0.0
 10
15.7218456388
 20
11.5984837678
 30
0.0
 10
15.7344162541
 20
11.5789802336
 30
0.0
 10
15.7472457637
 20
11.5606173177
 30
0.0
 10
15.7603187855
 20
11.5434173505
 30
0.0
 10
15.7736197317
 20
11.5274012679
 30
0.0
 10
15.7871328369
 20
11.5125886136
 30
0.0
 10
15.8008421868
 20
11.4989975529
 30
0.0
 10
15.8147317321
 20
11.4866448931
 30
0.0
 10
15.8287852804
 20
11.4755461122
 30
0.0
 10
15.8429864801
 20
11.465715419
 30
0.0
 10
15.8573187568
 20
11.4571657946
 30
0.0
 10
15.8717651944
 20
11.4499090108
 30
0.0
 10
15.8863084519
 20
11.4439555987
 30
0.0
 10
15.9009304106
 20
11.4393147161
 30
0.0
 10
15.9156127735
 20
11.4359939568
 30
0.0
 10
15.9303344871
 20
11.433999085
 30
0.0
 10
15.9401768044
 20
11.4335549884
 30
0.0
 10
15.9450784101
 20
11.4335549939
 30
0.0
  0
SPLINE
  5
2A6
100
AcDbEntity
  8
LAYER_FEATURE
100
AcDbSpline
 62
7
  6
CONTINUOUS
 70
0
 71
3
 72
68
 73
64
 74
0
 42
0.0000001
 43
0.0000001
 44
0.0000000001
 40
0.0
 40
0.0
 40
0.0
 40
0.0
 40
0.0163580858
 40
0.0330510049
 40
0.0500641651
 40
0.0673825756
 40
0.0849903746
 40
0.1028711641
 40
0.1210079486
 40
0.1393832211
 40
0.1579789974
 40
0.176776863
 40
0.1957580148
 40
0.2149033029
 40
0.2536072195
 40
0.2927309867
 40
0.3321129044
 40
0.3715894139
 40
0.4109962794
 40
0.450169764
 40
0.4889478082
 40
0.5081391481
 40
0.5271722354
 40
0.5460278227
 40
0.5646869974
 40
0.5831312226
 40
0.6013423791
 40
0.6193028086
 40
0.6369953594
 40
0.6544034334
 40
0.6715110358
 40
0.6883028277
 40
0.7047641825
 40
0.7208812464
 40
0.7366410033
 40
0.7520313453
 40
0.767041151
 40
0.7816603709
 40
0.7958801233
 40
0.8096928013
 40
0.8230921932
 40
0.836073619
 40
0.8486340848
 40
0.8607724581
 40
0.8724896662
 40
0.8837889208
 40
0.8946759706
 40
0.9051593824
 40
0.9152508473
 40
0.9249655082
 40
0.9343222939
 40
0.9433442428
 40
0.9520587819
 40
0.9604979211
 40
0.9686983093
 40
0.9727225116
 40
0.9767028171
 40
0.9806450085
 40
0.9845550798
 40
0.9884392169
 40
0.9923037608
 40
0.9961551735
 40
1.0
 40
1.0
 40
1.0
 40
1.0
 10
15.4515180758
 20
13.4626452568
 30
0.0
 10
15.4471446948
 20
13.4484929905
 30
0.0
 10
15.4386011636
 20
13.4198075035
 30
0.0
 10
15.4265072997
 20
13.3761135533
 30
0.0
 10
15.415016148
 20
13.3313588234
 30
0.0
 10
15.4041418666
 20
13.2855984718
 30
0.0
 10
15.3938977851
 20
13.2388883858
 30
0.0
 10
15.3842964764
 20
13.1912858483
 30
0.0
 10
15.3753497287
 20
13.1428491587
 30
0.0
 10
15.3670685253
 20
13.0936376775
 30
0.0
 10
15.3594630314
 20
13.0437117014
 30
0.0
 10
15.3525425993
 20
12.9931324513
 30
0.0
 10
15.3463156768
 20
12.9419618001
 30
0.0
 10
15.3389217576
 20
12.8727822281
 30
0.0
 10
15.331479505
 20
12.7852740864
 30
0.0
 10
15.3254480228
 20
12.6792965468
 30
0.0
 10
15.3223137795
 20
12.5724936557
 30
0.0
 10
15.322092204
 20
12.4653889259
 30
0.0
 10
15.3247843851
 20
12.3585063713
 30
0.0
 10
15.3303770756
 20
12.2523698951
 30
0.0
 10
15.3374557636
 20
12.1646773273
 30
0.0
 10
15.3445614432
 20
12.0953109013
 30
0.0
 10
15.3505759831
 20
12.0439729031
 30
0.0
 10
15.357286449
 20
11.9932073132
 30
0.0
 10
15.3646846482
 20
11.9430762334
 30
0.0
 10
15.3727614832
 20
11.8936411372
 30
0.0
 10
15.3815070405
 20
11.8449625988
 30
0.0
 10
15.3909105819
 20
11.7971002703
 30
0.0
 10
15.4009605642
 20
11.7501127941
 30
0.0
 10
15.4116446521
 20
11.7040577332
 30
0.0
 10
15.4229497344
 20
11.6589914994
 30
0.0
 10
15.4348619406
 20
11.6149692829
 30
0.0
 10
15.4473666598
 20
11.5720449828
 30
0.0
 10
15.4604485577
 20
11.5302711387
 30
0.0
 10
15.4740915993
 20
11.4896988657
 30
0.0
 10
15.4882790709
 20
11.45037779
 30
0.0
 10
15.5029936037
 20
11.4123559869
 30
0.0
 10
15.5182171992
 20
11.3756799205
 30
0.0
 10
15.5339312558
 20
11.3403943847
 30
0.0
 10
15.5501165984
 20
11.3065424477
 30
0.0
 10
15.5667535098
 20
11.2741653986
 30
0.0
 10
15.5838217651
 20
11.2433026974
 30
0.0
 10
15.6013006669
 20
11.2139919277
 30
0.0
 10
15.6191690861
 20
11.1862687576
 30
0.0
 10
15.637405506
 20
11.1601669067
 30
0.0
 10
15.6559880665
 20
11.1357181226
 30
0.0
 10
15.6748946108
 20
11.1129521677
 30
0.0
 10
15.6941027286
 20
11.0918968211
 30
0.0
 10
15.7135897969
 20
11.0725778961
 30
0.0
 10
15.7333329922
 20
11.0550192804
 30
0.0
 10
15.7533093297
 20
11.0392429807
 30
0.0
 10
15.7734954826
 20
11.0252692219
 30
0.0
 10
15.7938681879
 20
11.0131163751
 30
0.0
 10
15.8144023404
 20
11.0028014497
 30
0.0
 10
15.8317390611
 20
10.9957047786
 30
0.0
 10
15.8456373654
 20
10.9909863941
 30
0.0
 10
15.8560197852
 20
10.9879358853
 30
0.0
 10
15.8664217797
 20
10.9853529594
 30
0.0
 10
15.8768402946
 20
10.9832384598
 30
0.0
 10
15.8872719858
 20
10.9815930882
 30
0.0
 10
15.8977136597
 20
10.9804174125
 30
0.0
 10
15.9081617364
 20
10.9797118626
 30
0.0
 10
15.9151318608
 20
10.9795549909
 30
0.0
 10
15.9186134341
 20
10.9795549938
 30
0.0
  0
SPLINE
  5
2A7
100
AcDbEntity
  8
02___PRT_ALL_AXES
100
AcDbSpline
 62
7
  6
CONTINUOUS
 70
0
 71
3
 72
61
 73
57
 74
0
 42
0.0000001
 43
0.0000001
 44
0.0000000001
 40
0.0
 40
0.0
 40
0.0
 40
0.0
 40
0.0077651591
 40
0.0155249179
 40
0.0233341369
 40
0.0312464005
 40
0.0393127296
 40
0.047580538
 40
0.0560928927
 40
0.0648880854
 40
0.0694030089
 40
0.0740007313
 40
0.0834568233
 40
0.0932814564
 40
0.1034941281
 40
0.1141103396
 40
0.1251419579
 40
0.136597567
 40
0.1484827941
 40
0.1608006103
 40
0.1735516007
 40
0.1867342021
 40
0.2003449131
 40
0.2143784781
 40
0.2288280478
 40
0.2436853221
 40
0.2589406788
 40
0.2745832855
 40
0.2906011996
 40
0.3069814582
 40
0.3237101581
 40
0.3407725301
 40
0.3581530092
 40
0.3758352977
 40
0.3938024247
 40
0.412036801
 40
0.430520271
 40
0.468158198
 40
0.5065626951
 40
0.5455729994
 40
0.5850236938
 40
0.6247460404
 40
0.664569279
 40
0.7043218998
 40
0.7438329174
 40
0.7829331441
 40
0.8214564795
 40
0.8592412404
 40
0.8778082629
 40
0.8961327317
 40
0.9141963032
 40
0.9319811747
 40
0.9494701841
 40
0.9666466828
 40
0.9834950982
 40
1.0
 40
1.0
 40
1.0
 40
1.0
 10
15.9451341386
 20
13.5874800498
 30
0.0
 10
15.9500994863
 20
13.5879792712
 30
0.0
 10
15.9600781354
 20
13.588527605
 30
0.0
 10
15.9750839203
 20
13.5879736006
 30
0.0
 10
15.990071416
 20
13.586042543
 30
0.0
 10
16.005017721
 20
13.5827379485
 30
0.0
 10
16.0199026231
 20
13.5780658892
 30
0.0
 10
16.0347063023
 20
13.5720343088
 30
0.0
 10
16.04940945
 20
13.5646531218
 30
0.0
 10
16.0614574847
 20
13.5574498318
 30
0.0
 10
16.071022346
 20
13.5510464185
 30
0.0
 10
16.0807148685
 20
13.5440815936
 30
0.0
 10
16.0927378708
 20
13.5345281322
 30
0.0
 10
16.1068613806
 20
13.5218723913
 30
0.0
 10
16.1207972803
 20
13.5079354351
 30
0.0
 10
16.1345282535
 20
13.4927354337
 30
0.0
 10
16.1480376961
 20
13.4762915645
 30
0.0
 10
16.1613090003
 20
13.458624611
 30
0.0
 10
16.1743258006
 20
13.4397568222
 30
0.0
 10
16.1870719439
 20
13.4197119527
 30
0.0
 10
16.1995315409
 20
13.3985152371
 30
0.0
 10
16.2116889979
 20
13.3761933742
 30
0.0
 10
16.2235290501
 20
13.3527744993
 30
0.0
 10
16.2350367908
 20
13.3282881547
 30
0.0
 10
16.2461977047
 20
13.3027652578
 30
0.0
 10
16.2569976923
 20
13.2762380602
 30
0.0
 10
16.2674230903
 20
13.2487401038
 30
0.0
 10
16.277460695
 20
13.220306176
 30
0.0
 10
16.287097783
 20
13.1909722655
 30
0.0
 10
16.2963221284
 20
13.1607755156
 30
0.0
 10
16.3051220244
 20
13.1297541783
 30
0.0
 10
16.313486302
 20
13.0979475643
 30
0.0
 10
16.3214043387
 20
13.0653959915
 30
0.0
 10
16.3288660801
 20
13.0321407224
 30
0.0
 10
16.3358620313
 20
12.9982239481
 30
0.0
 10
16.3423833537
 20
12.9636885919
 30
0.0
 10
16.3504829573
 20
12.9165925458
 30
0.0
 10
16.3593432632
 20
12.8564829973
 30
0.0
 10
16.3679025168
 20
12.7830292782
 30
0.0
 10
16.3744079463
 20
12.7081958504
 30
0.0
 10
16.378826367
 20
12.6323623284
 30
0.0
 10
16.3811352448
 20
12.5559127818
 30
0.0
 10
16.3813227875
 20
12.4792346553
 30
0.0
 10
16.3793880322
 20
12.4027165061
 30
0.0
 10
16.3753408672
 20
12.3267461319
 30
0.0
 10
16.3692019397
 20
12.2517083109
 30
0.0
 10
16.3610025525
 20
12.1779837048
 30
0.0
 10
16.3524385517
 20
12.1176046691
 30
0.0
 10
16.3445719253
 20
12.0702603784
 30
0.0
 10
16.3382202922
 20
12.0355169673
 30
0.0
 10
16.3313910293
 20
12.0013767568
 30
0.0
 10
16.3240927687
 20
11.9678829344
 30
0.0
 10
16.316334797
 20
11.9350780644
 30
0.0
 10
16.3081269572
 20
11.9030035596
 30
0.0
 10
16.2994797125
 20
11.8717004095
 30
0.0
 10
16.293364466
 20
11.8511544872
 30
0.0
 10
16.2902327505
 20
11.8410202521
 30
0.0
  0
SPLINE
  5
2A8
100
AcDbEntity
  8
LAYER_CHAMFER_FEAT
100
AcDbSpline
 62
7
  6
CONTINUOUS
 70
0
 71
3
 72
53
 73
49
 74
0
 42
0.0000001
 43
0.0000001
 44
0.0000000001
 40
0.0
 40
0.0
 40
0.0
 40
0.0
 40
0.0101614613
 40
0.0206687265
 40
0.0315254947
 40
0.0427337814
 40
0.0542940601
 40
0.0662053953
 40
0.0784655811
 40
0.0910712491
 40
0.1040179502
 40
0.1173002533
 40
0.1309118303
 40
0.1448455165
 40
0.1590933668
 40
0.1736467279
 40
0.1884962888
 40
0.2036321147
 40
0.2190436989
 40
0.23472001
 40
0.2668192431
 40
0.2998333671
 40
0.3336585434
 40
0.3681855721
 40
0.4033007751
 40
0.4388868232
 40
0.4748235168
 40
0.5109885608
 40
0.5472583017
 40
0.5835084707
 40
0.6196149143
 40
0.6554543265
 40
0.6909049897
 40
0.7258475275
 40
0.7601656683
 40
0.7937470597
 40
0.8264840849
 40
0.8582747847
 40
0.8737857307
 40
0.889024945
 40
0.9039817215
 40
0.9186459081
 40
0.9330079529
 40
0.9470589714
 40
0.9607907354
 40
0.9741957014
 40
0.9872675853
 40
1.0
 40
1.0
 40
1.0
 40
1.0
 10
15.7952602705
 20
13.4260934373
 30
0.0
 10
15.7914193826
 20
13.4214918589
 30
0.0
 10
15.7838002165
 20
13.4119692442
 30
0.0
 10
15.772741663
 20
13.3970139577
 30
0.0
 10
15.7618741007
 20
13.3811647488
 30
0.0
 10
15.7512085959
 20
13.3644378308
 30
0.0
 10
15.7407556941
 20
13.3468498921
 30
0.0
 10
15.7305258364
 20
13.3284186227
 30
0.0
 10
15.7205292548
 20
13.3091625217
 30
0.0
 10
15.7107759891
 20
13.2891009298
 30
0.0
 10
15.7012758217
 20
13.2682540225
 30
0.0
 10
15.6920382986
 20
13.2466427752
 30
0.0
 10
15.6830727271
 20
13.2242889319
 30
0.0
 10
15.6743881475
 20
13.2012149973
 30
0.0
 10
15.6659933006
 20
13.1774442211
 30
0.0
 10
15.6578966563
 20
13.1530005568
 30
0.0
 10
15.6501063968
 20
13.1279086319
 30
0.0
 10
15.6426303941
 20
13.1021937649
 30
0.0
 10
15.6354761387
 20
13.0758818285
 30
0.0
 10
15.6263038552
 20
13.0397545606
 30
0.0
 10
15.6157151912
 20
12.9932816795
 30
0.0
 10
15.6044978669
 20
12.9360007736
 30
0.0
 10
15.5947170306
 20
12.8770052954
 30
0.0
 10
15.5864123277
 20
12.8165333421
 30
0.0
 10
15.5796174155
 20
12.7548284655
 30
0.0
 10
15.5743598674
 20
12.6921394448
 30
0.0
 10
15.5706609731
 20
12.6287190477
 30
0.0
 10
15.5685357743
 20
12.5648230471
 30
0.0
 10
15.5679928503
 20
12.5007091605
 30
0.0
 10
15.5690344384
 20
12.4366359965
 30
0.0
 10
15.5716562893
 20
12.3728619974
 30
0.0
 10
15.5758477788
 20
12.3096443807
 30
0.0
 10
15.5815919133
 20
12.2472380908
 30
0.0
 10
15.5888653773
 20
12.1858947343
 30
0.0
 10
15.5976387122
 20
12.1258616128
 30
0.0
 10
15.6078763196
 20
12.0673804667
 30
0.0
 10
15.619536737
 20
12.0106872991
 30
0.0
 10
15.6304878785
 20
11.9647535083
 30
0.0
 10
15.6399426974
 20
11.9290933412
 30
0.0
 10
15.6473004218
 20
11.9031542443
 30
0.0
 10
15.6549751802
 20
11.8778286199
 30
0.0
 10
15.6629592889
 20
11.8531419481
 30
0.0
 10
15.6712446578
 20
11.8291191186
 30
0.0
 10
15.6798229361
 20
11.8057843332
 30
0.0
 10
15.6886854631
 20
11.7831611663
 30
0.0
 10
15.6978233608
 20
11.7612721912
 30
0.0
 10
15.7072273182
 20
11.7401398361
 30
0.0
 10
15.7137544878
 20
11.726387164
 30
0.0
 10
15.7170631526
 20
11.7196448142
 30
0.0
  0
SPLINE
  5
2A9
100
AcDbEntity
  8
LAYER_CHAMFER_FEAT
100
AcDbSpline
 62
7
  6
CONTINUOUS
 70
0
 71
3
 72
20
 73
16
 74
0
 42
0.0000001
 43
0.0000001
 44
0.0000000001
 40
0.0
 40
0.0
 40
0.0
 40
0.0
 40
0.1464864579
 40
0.2167971364
 40
0.2852309789
 40
0.4167570746
 40
0.5418539644
 40
0.6023033291
 40
0.6615192519
 40
0.7196511263
 40
0.7768596434
 40
0.8333157083
 40
0.8891991239
 40
0.9446966552
 40
1.0
 40
1.0
 40
1.0
 40
1.0
 10
15.7847816506
 20
11.6087341633
 30
0.0
 10
15.790499342
 20
11.6025006757
 30
0.0
 10
15.79927791
 20
11.5935548949
 30
0.0
 10
15.8114876877
 20
11.5824955899
 30
0.0
 10
15.8234762902
 20
11.5724981686
 30
0.0
 10
15.8386503812
 20
11.5614054255
 30
0.0
 10
15.8544260915
 20
11.5520467043
 30
0.0
 10
15.8671242928
 20
11.545827356
 30
0.0
 10
15.876584034
 20
11.5418235329
 30
0.0
 10
15.8860813468
 20
11.5384307131
 30
0.0
 10
15.8956103701
 20
11.5356512076
 30
0.0
 10
15.9051648602
 20
11.5334871827
 30
0.0
 10
15.9147386863
 20
11.5319401957
 30
0.0
 10
15.9243249817
 20
11.5310115579
 30
0.0
 10
15.930724906
 20
11.5308049903
 30
0.0
 10
15.9339183094
 20
11.5308049957
 30
0.0
  0
SPLINE
  5
2AA
100
AcDbEntity
  8
LAYER_CHAMFER_FEAT
100
AcDbSpline
 62
7
  6
CONTINUOUS
 70
0
 71
3
 72
21
 73
17
 74
0
 42
0.0000001
 43
0.0000001
 44
0.0000000001
 40
0.0
 40
0.0
 40
0.0
 40
0.0
 40
0.0552159709
 40
0.1106287753
 40
0.1664326646
 40
0.2228168785
 40
0.2799633897
 40
0.3380451814
 40
0.3972246067
 40
0.4576525494
 40
0.5827558697
 40
0.6477108542
 40
0.7143937593
 40
0.7828940163
 40
0.853289475
 40
1.0
 40
1.0
 40
1.0
 40
1.0
 10
15.9339183094
 20
13.4908049901
 30
0.0
 10
15.9307006003
 20
13.4908049846
 30
0.0
 10
15.9242517624
 20
13.4905952765
 30
0.0
 10
15.9145924211
 20
13.4896523789
 30
0.0
 10
15.9049458361
 20
13.4880817512
 30
0.0
 10
15.8953190669
 20
13.4858845879
 30
0.0
 10
15.8857183391
 20
13.4830626614
 30
0.0
 10
15.8761501108
 20
13.4796180717
 30
0.0
 10
15.8666202339
 20
13.4755532548
 30
0.0
 10
15.8538275045
 20
13.4692387114
 30
0.0
 10
15.8412736316
 20
13.4617321851
 30
0.0
 10
15.8290088041
 20
13.4531573718
 30
0.0
 10
15.8197616958
 20
13.4460428904
 30
0.0
 10
15.8105889533
 20
13.4383312026
 30
0.0
 10
15.7982964603
 20
13.4271053011
 30
0.0
 10
15.7894623295
 20
13.4180270982
 30
0.0
 10
15.783709789
 20
13.4117022971
 30
0.0
  0
SPLINE
  5
2AB
100
AcDbEntity
  8
LAYER_FEATURE
100
AcDbSpline
 62
7
  6
CONTINUOUS
 70
0
 71
3
 72
39
 73
35
 74
0
 42
0.0000001
 43
0.0000001
 44
0.0000000001
 40
0.0
 40
0.0
 40
0.0
 40
0.0
 40
0.0443813067
 40
0.0879669132
 40
0.1307335
 40
0.1726618866
 40
0.2137331556
 40
0.2539301966
 40
0.2932376985
 40
0.3316421098
 40
0.369131909
 40
0.4056977074
 40
0.4413324012
 40
0.4760313905
 40
0.5097927922
 40
0.5426176374
 40
0.5745101304
 40
0.6054779621
 40
0.6355325877
 40
0.6646895438
 40
0.692968828
 40
0.7203952814
 40
0.7469989433
 40
0.7728154398
 40
0.7978863773
 40
0.8222596396
 40
0.8459896209
 40
0.8691373705
 40
0.8917705686
 40
0.9139632732
 40
0.9357954514
 40
0.9573522573
 40
0.9787230195
 40
1.0
 40
1.0
 40
1.0
 40
1.0
 10
15.4515180758
 20
13.4626452568
 30
0.0
 10
15.4549626511
 20
13.4737919065
 30
0.0
 10
15.4619685355
 20
13.4958307188
 30
0.0
 10
15.4729313773
 20
13.5284035557
 30
0.0
 10
15.4842464879
 20
13.5601722287
 30
0.0
 10
15.4959047599
 20
13.5911113271
 30
0.0
 10
15.5078970877
 20
13.621196639
 30
0.0
 10
15.5202139713
 20
13.6504043744
 30
0.0
 10
15.5328456898
 20
13.6787114994
 30
0.0
 10
15.545782308
 20
13.7060956937
 30
0.0
 10
15.5590136208
 20
13.7325353785
 30
0.0
 10
15.5725292122
 20
13.758009729
 30
0.0
 10
15.5863184719
 20
13.7824986759
 30
0.0
 10
15.6003705809
 20
13.8059829389
 30
0.0
 10
15.6146745161
 20
13.8284440483
 30
0.0
 10
15.6292190939
 20
13.8498643326
 30
0.0
 10
15.6439929828
 20
13.8702269283
 30
0.0
 10
15.6589846726
 20
13.8895158239
 30
0.0
 10
15.6741825238
 20
13.9077158405
 30
0.0
 10
15.6895747899
 20
13.9248126184
 30
0.0
 10
15.7051496063
 20
13.9407926411
 30
0.0
 10
15.7208949856
 20
13.9556432485
 30
0.0
 10
15.7367988593
 20
13.9693525912
 30
0.0
 10
15.7528490749
 20
13.9819096161
 30
0.0
 10
15.7690333471
 20
13.9933041111
 30
0.0
 10
15.785339276
 20
14.0035266587
 30
0.0
 10
15.8017543265
 20
14.0125686059
 30
0.0
 10
15.8182657756
 20
14.020422101
 30
0.0
 10
15.8348606503
 20
14.0270801497
 30
0.0
 10
15.851525754
 20
14.032536596
 30
0.0
 10
15.8682474875
 20
14.0367861844
 30
0.0
 10
15.8850123314
 20
14.0398247219
 30
0.0
 10
15.9018050241
 20
14.0416491306
 30
0.0
 10
15.9130202444
 20
14.0420549875
 30
0.0
 10
15.9186134341
 20
14.0420549921
 30
0.0
  0
SPLINE
  5
2AC
100
AcDbEntity
  8
LAYER_FEATURE
100
AcDbSpline
 62
7
  6
CONTINUOUS
 70
0
 71
3
 72
67
 73
63
 74
0
 42
0.0000001
 43
0.0000001
 44
0.0000000001
 40
0.0
 40
0.0
 40
0.0
 40
0.0
 40
0.0163581013
 40
0.0330510694
 40
0.0500642491
 40
0.0673826926
 40
0.0849905208
 40
0.1028713409
 40
0.1210081566
 40
0.1393834611
 40
0.15797927
 40
0.1767771682
 40
0.1957583526
 40
0.2149036734
 40
0.2536076561
 40
0.292731491
 40
0.3321134768
 40
0.371590054
 40
0.4109969877
 40
0.45017054
 40
0.4889486503
 40
0.5081400228
 40
0.5271731428
 40
0.546028763
 40
0.5646879707
 40
0.5831322282
 40
0.601343416
 40
0.6193038759
 40
0.6369964566
 40
0.65440456
 40
0.6715121917
 40
0.6883040129
 40
0.7047653969
 40
0.720882489
 40
0.7366422729
 40
0.7520326412
 40
0.7670424724
 40
0.7816617173
 40
0.7958814943
 40
0.8096941963
 40
0.8230936114
 40
0.8360750592
 40
0.8486355463
 40
0.8607739405
 40
0.872491169
 40
0.8837904436
 40
0.8946775128
 40
0.905160943
 40
0.9152524249
 40
0.9249671014
 40
0.9343239024
 40
0.9433458667
 40
0.9520604213
 40
0.9604995757
 40
0.9686999787
 40
0.9767027777
 40
0.9806449746
 40
0.9845550535
 40
0.9884391969
 40
0.9923037475
 40
0.9961551669
 40
1.0
 40
1.0
 40
1.0
 40
1.0
 10
14.4992483769
 20
13.4626452568
 30
0.0
 10
14.4948749992
 20
13.4484930015
 30
0.0
 10
14.4863314678
 20
13.4198075074
 30
0.0
 10
14.4742376015
 20
13.3761135601
 30
0.0
 10
14.4627464501
 20
13.3313588175
 30
0.0
 10
14.4518721681
 20
13.2855984732
 30
0.0
 10
14.441628086
 20
13.2388883857
 30
0.0
 10
14.4320267763
 20
13.1912858496
 30
0.0
 10
14.4230800279
 20
13.14284916
 30
0.0
 10
14.4147988254
 20
13.0936376779
 30
0.0
 10
14.4071933339
 20
13.0437117003
 30
0.0
 10
14.4002729031
 20
12.9931324495
 30
0.0
 10
14.3940459805
 20
12.9419617985
 30
0.0
 10
14.3866520597
 20
12.8727822277
 30
0.0
 10
14.3792098028
 20
12.7852740869
 30
0.0
 10
14.3731783206
 20
12.6792965473
 30
0.0
 10
14.3700440852
 20
12.5724936557
 30
0.0
 10
14.3698225088
 20
12.4653889258
 30
0.0
 10
14.3725146825
 20
12.3585063709
 30
0.0
 10
14.3781073728
 20
12.2523698947
 30
0.0
 10
14.3851860666
 20
12.1646773282
 30
0.0
 10
14.3922917482
 20
12.0953109037
 30
0.0
 10
14.3983062877
 20
12.0439729054
 30
0.0
 10
14.4050167512
 20
11.9932073142
 30
0.0
 10
14.4124149474
 20
11.9430762324
 30
0.0
 10
14.420491781
 20
11.8936411347
 30
0.0
 10
14.4292373392
 20
11.8449625965
 30
0.0
 10
14.4386408823
 20
11.7971002696
 30
0.0
 10
14.4486908664
 20
11.7501127953
 30
0.0
 10
14.4593749554
 20
11.704057736
 30
0.0
 10
14.4706800377
 20
11.6589915025
 30
0.0
 10
14.482592243
 20
11.6149692848
 30
0.0
 10
14.4950969602
 20
11.5720449825
 30
0.0
 10
14.5081788573
 20
11.5302711371
 30
0.0
 10
14.5218218995
 20
11.4896988643
 30
0.0
 10
14.5360093718
 20
11.4503777896
 30
0.0
 10
14.5507239052
 20
11.4123559876
 30
0.0
 10
14.5659475008
 20
11.3756799217
 30
0.0
 10
14.5816615572
 20
11.3403943856
 30
0.0
 10
14.5978468994
 20
11.306542448
 30
0.0
 10
14.6144838105
 20
11.2741653988
 30
0.0
 10
14.6315520664
 20
11.2433026985
 30
0.0
 10
14.6490309686
 20
11.2139919299
 30
0.0
 10
14.666899388
 20
11.18626876
 30
0.0
 10
14.6851358075
 20
11.1601669081
 30
0.0
 10
14.7037183675
 20
11.135718122
 30
0.0
 10
14.7226249109
 20
11.1129521648
 30
0.0
 10
14.7418330284
 20
11.0918968167
 30
0.0
 10
14.7613200955
 20
11.0725778939
 30
0.0
 10
14.7810632981
 20
11.0550192822
 30
0.0
 10
14.8010396176
 20
11.0392429912
 30
0.0
 10
14.8212258372
 20
11.0252692165
 30
0.0
 10
14.8415983041
 20
11.0131164247
 30
0.0
 10
14.8621333017
 20
11.0028012884
 30
0.0
 10
14.8828049973
 20
10.9943389595
 30
0.0
 10
14.900214411
 20
10.9888136817
 30
0.0
 10
14.9141519952
 20
10.9853530231
 30
0.0
 10
14.9245706163
 20
10.9832384332
 30
0.0
 10
14.9350022819
 20
10.981593099
 30
0.0
 10
14.9454439622
 20
10.9804174146
 30
0.0
 10
14.9558920366
 20
10.9797118506
 30
0.0
 10
14.9628621619
 20
10.9795550049
 30
0.0
 10
14.9663437352
 20
10.9795550015
 30
0.0
  0
SPLINE
  5
2AD
100
AcDbEntity
  8
LAYER_FEATURE
100
AcDbSpline
 62
7
  6
CONTINUOUS
 70
0
 71
3
 72
39
 73
35
 74
0
 42
0.0000001
 43
0.0000001
 44
0.0000000001
 40
0.0
 40
0.0
 40
0.0
 40
0.0
 40
0.0443812481
 40
0.0879669295
 40
0.1307335086
 40
0.172661876
 40
0.2137331571
 40
0.2539301992
 40
0.2932376968
 40
0.3316421073
 40
0.369131911
 40
0.4056977099
 40
0.4413323968
 40
0.4760313903
 40
0.5097927974
 40
0.5426176342
 40
0.5745101269
 40
0.6054779669
 40
0.6355325892
 40
0.664689538
 40
0.6929688298
 40
0.7203952869
 40
0.7469989387
 40
0.7728154376
 40
0.7978863828
 40
0.8222596394
 40
0.8459896168
 40
0.869137373
 40
0.8917705712
 40
0.9139632708
 40
0.935795451
 40
0.9573522592
 40
0.9787230199
 40
1.0
 40
1.0
 40
1.0
 40
1.0
 10
14.4992483769
 20
13.4626452568
 30
0.0
 10
14.5026929476
 20
13.4737918918
 30
0.0
 10
14.5096988353
 20
13.4958307075
 30
0.0
 10
14.5206616749
 20
13.5284035474
 30
0.0
 10
14.5319767884
 20
13.5601722329
 30
0.0
 10
14.5436350636
 20
13.5911113259
 30
0.0
 10
14.5556273888
 20
13.6211966369
 30
0.0
 10
14.56794427
 20
13.650404376
 30
0.0
 10
14.5805759917
 20
13.6787114983
 30
0.0
 10
14.5935126118
 20
13.7060956915
 30
0.0
 10
14.6067439203
 20
13.7325353796
 30
0.0
 10
14.6202595101
 20
13.7580097305
 30
0.0
 10
14.634048778
 20
13.7824986722
 30
0.0
 10
14.6481008826
 20
13.8059829383
 30
0.0
 10
14.662404811
 20
13.8284440525
 30
0.0
 10
14.6769493989
 20
13.849864329
 30
0.0
 10
14.6917232878
 20
13.8702269243
 30
0.0
 10
14.7067149684
 20
13.8895158286
 30
0.0
 10
14.721912823
 20
13.9077158418
 30
0.0
 10
14.7373050982
 20
13.9248126103
 30
0.0
 10
14.7528799056
 20
13.9407926427
 30
0.0
 10
14.7686252798
 20
13.9556432567
 30
0.0
 10
14.7845291669
 20
13.9693525823
 30
0.0
 10
14.8005793786
 20
13.9819096112
 30
0.0
 10
14.8167636411
 20
13.9933041226
 30
0.0
 10
14.8330695783
 20
14.0035266568
 30
0.0
 10
14.8494846333
 20
14.0125685928
 30
0.0
 10
14.8659960729
 20
14.0204221091
 30
0.0
 10
14.8825909487
 20
14.0270801583
 30
0.0
 10
14.8992560593
 20
14.0325365806
 30
0.0
 10
14.9159777883
 20
14.036786182
 30
0.0
 10
14.9327426305
 20
14.0398247394
 30
0.0
 10
14.9495353263
 20
14.0416491164
 30
0.0
 10
14.9607505456
 20
14.0420549898
 30
0.0
 10
14.9663437352
 20
14.0420549843
 30
0.0
  0
SPLINE
  5
2AE
100
AcDbEntity
  8
LAYER_FEATURE
100
AcDbSpline
 62
7
  6
CONTINUOUS
 70
0
 71
3
 72
11
 73
7
 74
0
 42
0.0000001
 43
0.0000001
 44
0.0000000001
 40
0.0
 40
0.0
 40
0.0
 40
0.0
 40
0.2222263449
 40
0.4626091013
 40
0.7218105371
 40
1.0
 40
1.0
 40
1.0
 40
1.0
 10
14.6034704673
 20
13.0467632516
 30
0.0
 10
14.6043264637
 20
13.0475598644
 30
0.0
 10
14.6060117691
 20
13.0493236999
 30
0.0
 10
14.6083621645
 20
13.0523130041
 30
0.0
 10
14.6106204311
 20
13.0557308481
 30
0.0
 10
14.6120084455
 20
13.0581971725
 30
0.0
 10
14.6126876861
 20
13.0594938337
 30
0.0
  0
SPLINE
  5
2AF
100
AcDbEntity
  8
LAYER_FEATURE
100
AcDbSpline
 62
7
  6
CONTINUOUS
 70
0
 71
3
 72
20
 73
16
 74
0
 42
0.0000001
 43
0.0000001
 44
0.0000000001
 40
0.0
 40
0.0
 40
0.0
 40
0.0
 40
0.0390944158
 40
0.079185914
 40
0.1211955657
 40
0.165885858
 40
0.2138469448
 40
0.2655013941
 40
0.3211271891
 40
0.3808796769
 40
0.44481323
 40
0.512903213
 40
0.6610815564
 40
0.8241085274
 40
1.0
 40
1.0
 40
1.0
 40
1.0
 10
14.5658563273
 20
13.0467663773
 30
0.0
 10
14.5656809051
 20
13.0467663899
 30
0.0
 10
14.565324831
 20
13.0467346568
 30
0.0
 10
14.5647972569
 20
13.0465930983
 30
0.0
 10
14.5642763016
 20
13.0463589722
 30
0.0
 10
14.5637645314
 20
13.0460343815
 30
0.0
 10
14.5632639646
 20
13.0456213594
 30
0.0
 10
14.5627764721
 20
13.0451221757
 30
0.0
 10
14.5623039671
 20
13.044539196
 30
0.0
 10
14.5618484108
 20
13.0438750946
 30
0.0
 10
14.5614117007
 20
13.0431329052
 30
0.0
 10
14.5608411323
 20
13.0420117989
 30
0.0
 10
14.5601958883
 20
13.0404336117
 30
0.0
 10
14.5595457595
 20
13.0383447557
 30
0.0
 10
14.5592009142
 20
13.0368621292
 30
0.0
 10
14.5590461335
 20
13.0360882048
 30
0.0
  0
SPLINE
  5
2B0
100
AcDbEntity
  8
LAYER_FEATURE
100
AcDbSpline
 62
7
  6
CONTINUOUS
 70
0
 71
3
 72
17
 73
13
 74
0
 42
0.0000001
 43
0.0000001
 44
0.0000000001
 40
0.0
 40
0.0
 40
0.0
 40
0.0
 40
0.0426455307
 40
0.0860340479
 40
0.130862184
 40
0.1777466722
 40
0.2795083499
 40
0.3943797033
 40
0.5238234907
 40
0.668238905
 40
0.8272721358
 40
1.0
 40
1.0
 40
1.0
 40
1.0
 10
14.6144660832
 20
13.2815482282
 30
0.0
 10
14.6143222372
 20
13.2815482265
 30
0.0
 10
14.6140316137
 20
13.2815270779
 30
0.0
 10
14.6135991099
 20
13.2814322931
 30
0.0
 10
14.6131699772
 20
13.2812750573
 30
0.0
 10
14.6125887472
 20
13.2809751157
 30
0.0
 10
14.6118757143
 20
13.2804329921
 30
0.0
 10
14.6110828616
 20
13.2795703102
 30
0.0
 10
14.6103349484
 20
13.278489241
 30
0.0
 10
14.6096397682
 20
13.2772025174
 30
0.0
 10
14.6090049567
 20
13.2757252404
 30
0.0
 10
14.6086410972
 20
13.2746658919
 30
0.0
 10
14.6084690796
 20
13.274109243
 30
0.0
  0
SPLINE
  5
2B1
100
AcDbEntity
  8
LAYER_CHAMFER_FEAT
100
AcDbSpline
 62
7
  6
CONTINUOUS
 70
0
 71
3
 72
40
 73
36
 74
0
 42
0.0000001
 43
0.0000001
 44
0.0000000001
 40
0.0
 40
0.0
 40
0.0
 40
0.0
 40
0.0439502436
 40
0.0865555957
 40
0.1278039622
 40
0.1676916619
 40
0.206219936
 40
0.2433975227
 40
0.2792409182
 40
0.3137752553
 40
0.3470352773
 40
0.3790663196
 40
0.4099253816
 40
0.4396821303
 40
0.4684198093
 40
0.4962359384
 40
0.5232426489
 40
0.5495664656
 40
0.5753473471
 40
0.6007368961
 40
0.6258956972
 40
0.650989882
 40
0.6761871668
 40
0.7016527425
 40
0.7275454119
 40
0.7540143118
 40
0.781196431
 40
0.8092150309
 40
0.8235746416
 40
0.8381829121
 40
0.8681862289
 40
0.8993090574
 40
0.9316180479
 40
0.9651674205
 40
1.0
 40
1.0
 40
1.0
 40
1.0
 10
16.2060371258
 20
13.3019651716
 30
0.0
 10
16.2025367545
 20
13.3090981784
 30
0.0
 10
16.1954484078
 20
13.3230515549
 30
0.0
 10
16.184372381
 20
13.3433328772
 30
0.0
 10
16.1730294467
 20
13.3626193554
 30
0.0
 10
16.1614332655
 20
13.3808877614
 30
0.0
 10
16.149597337
 20
13.398116537
 30
0.0
 10
16.1375355805
 20
13.4142851731
 30
0.0
 10
16.1252620574
 20
13.4293744801
 30
0.0
 10
16.1127909979
 20
13.4433664967
 30
0.0
 10
16.1001367776
 20
13.4562444999
 30
0.0
 10
16.0873138863
 20
13.4679929791
 30
0.0
 10
16.0743369502
 20
13.4785976325
 30
0.0
 10
16.0612207298
 20
13.4880453141
 30
0.0
 10
16.047980164
 20
13.496323986
 30
0.0
 10
16.0346304498
 20
13.5034226936
 30
0.0
 10
16.0211871575
 20
13.5093315864
 30
0.0
 10
16.007666368
 20
13.5140420164
 30
0.0
 10
15.9940847689
 20
13.5175466535
 30
0.0
 10
15.9804597113
 20
13.5198397127
 30
0.0
 10
15.966809151
 20
13.5209172065
 30
0.0
 10
15.9531514649
 20
13.5207772158
 30
0.0
 10
15.9395051544
 20
13.519420007
 30
0.0
 10
15.9258885133
 20
13.5168479881
 30
0.0
 10
15.9123193941
 20
13.513065574
 30
0.0
 10
15.898814917
 20
13.5080788637
 30
0.0
 10
15.885391949
 20
13.501895727
 30
0.0
 10
15.874377614
 20
13.4958034297
 30
0.0
 10
15.865628754
 20
13.4903602173
 30
0.0
 10
15.8567678927
 20
13.4844286638
 30
0.0
 10
15.8457667684
 20
13.4762613764
 30
0.0
 10
15.8328242174
 20
13.4653927223
 30
0.0
 10
15.8200386976
 20
13.453383139
 30
0.0
 10
15.8074255117
 20
13.4402478484
 30
0.0
 10
15.7992955344
 20
13.4309278881
 30
0.0
 10
15.7952602705
 20
13.4260934373
 30
0.0
  0
SPLINE
  5
2B2
100
AcDbEntity
  8
LAYER_FEATURE
100
AcDbSpline
 62
7
  6
CONTINUOUS
 70
0
 71
3
 72
99
 73
95
 74
0
 42
0.0000001
 43
0.0000001
 44
0.0000000001
 40
0.0
 40
0.0
 40
0.0
 40
0.0
 40
0.0178412071
 40
0.0361831519
 40
0.0549943238
 40
0.0742409385
 40
0.0938874902
 40
0.1138968377
 40
0.1342304219
 40
0.1548484491
 40
0.1757100653
 40
0.1967735239
 40
0.2179963484
 40
0.2393354938
 40
0.2607475032
 40
0.2821886636
 40
0.3036151592
 40
0.3249832258
 40
0.3462493049
 40
0.367370198
 40
0.388303223
 40
0.4090063738
 40
0.4294384831
 40
0.4495593875
 40
0.4693300999
 40
0.4887129906
 40
0.5076719791
 40
0.526172735
 40
0.5441828959
 40
0.5616723064
 40
0.5786132867
 40
0.5949809318
 40
0.6107534497
 40
0.6184110076
 40
0.6259132495
 40
0.6332585109
 40
0.6404454203
 40
0.6474728993
 40
0.6543401936
 40
0.6610469005
 40
0.6675929778
 40
0.673978793
 40
0.6802051366
 40
0.686273259
 40
0.6921849161
 40
0.6979423874
 40
0.7035485368
 40
0.7090068425
 40
0.7143214394
 40
0.7245373784
 40
0.7294529549
 40
0.7342488484
 40
0.738933111
 40
0.7435146696
 40
0.7480033129
 40
0.7524096819
 40
0.7567452282
 40
0.7610221427
 40
0.7652532713
 40
0.7694519891
 40
0.7736320618
 40
0.7778074851
 40
0.781992312
 40
0.7862004788
 40
0.7904456363
 40
0.7947409961
 40
0.799099192
 40
0.8035321769
 40
0.8080511314
 40
0.8126664113
 40
0.8173875178
 40
0.822223075
 40
0.8322653857
 40
0.837487551
 40
0.8428503033
 40
0.8483582374
 40
0.8540152668
 40
0.8598246554
 40
0.8657890608
 40
0.8719105884
 40
0.8781908109
 40
0.8846308237
 40
0.8912312714
 40
0.8979923736
 40
0.9049139714
 40
0.9119955335
 40
0.9192361955
 40
0.9266347807
 40
0.9341898098
 40
0.9418995372
 40
0.9497619477
 40
0.9659350457
 40
0.9826889852
 40
1.0
 40
1.0
 40
1.0
 40
1.0
 10
15.5159878074
 20
13.3851997077
 30
0.0
 10
15.5103339553
 20
13.3669038355
 30
0.0
 10
15.4994016845
 20
13.329631607
 30
0.0
 10
15.4843102638
 20
13.2725597248
 30
0.0
 10
15.4703256556
 20
13.2136550566
 30
0.0
 10
15.457481772
 20
13.1530596162
 30
0.0
 10
15.4458095492
 20
13.0909189194
 30
0.0
 10
15.4353371694
 20
13.027382387
 30
0.0
 10
15.4260898977
 20
12.9626028027
 30
0.0
 10
15.4180900581
 20
12.8967359881
 30
0.0
 10
15.4113569662
 20
12.8299404022
 30
0.0
 10
15.4059068856
 20
12.7623767634
 30
0.0
 10
15.4017529717
 20
12.6942076573
 30
0.0
 10
15.3989052519
 20
12.6255971401
 30
0.0
 10
15.3973706031
 20
12.5567103386
 30
0.0
 10
15.3971527355
 20
12.4877130501
 30
0.0
 10
15.3982521784
 20
12.4187713403
 30
0.0
 10
15.4006662702
 20
12.3500511402
 30
0.0
 10
15.4043891801
 20
12.2817178423
 30
0.0
 10
15.4094119193
 20
12.2139359012
 30
0.0
 10
15.4157223657
 20
12.146868433
 30
0.0
 10
15.4233052795
 20
12.0806768172
 30
0.0
 10
15.4321423481
 20
12.0155203034
 30
0.0
 10
15.4422122373
 20
11.9515556256
 30
0.0
 10
15.4534906442
 20
11.8889366195
 30
0.0
 10
15.4659503563
 20
11.8278138439
 30
0.0
 10
15.4795613082
 20
11.7683342044
 30
0.0
 10
15.4942906746
 20
11.7106406001
 30
0.0
 10
15.5101029599
 20
11.6548715518
 30
0.0
 10
15.5269600826
 20
11.6011609268
 30
0.0
 10
15.5448215307
 20
11.5496373405
 30
0.0
 10
15.5636442706
 20
11.5004247369
 30
0.0
 10
15.5802530386
 20
11.4610589953
 30
0.0
 10
15.5940042289
 20
11.4308381429
 30
0.0
 10
15.6044275827
 20
11.4090456255
 30
0.0
 10
15.6150559996
 20
11.3879163228
 30
0.0
 10
15.6258831306
 20
11.3674628518
 30
0.0
 10
15.6369024884
 20
11.3476975143
 30
0.0
 10
15.6481074851
 20
11.3286321744
 30
0.0
 10
15.6594913843
 20
11.3102782572
 30
0.0
 10
15.6710474269
 20
11.2926467965
 30
0.0
 10
15.6827686831
 20
11.2757483499
 30
0.0
 10
15.6946481783
 20
11.2595930591
 30
0.0
 10
15.7066788706
 20
11.2441906284
 30
0.0
 10
15.7188535669
 20
11.2295502865
 30
0.0
 10
15.7311651397
 20
11.2156808208
 30
0.0
 10
15.7436061341
 20
11.2025906984
 30
0.0
 10
15.7561697509
 20
11.1902873042
 30
0.0
 10
15.7728529307
 20
11.1751432766
 30
0.0
 10
15.7899686538
 20
11.1613582776
 30
0.0
 10
15.8074958311
 20
11.1490888443
 30
0.0
 10
15.8205582772
 20
11.1408240345
 30
0.0
 10
15.833697451
 20
11.1333845411
 30
0.0
 10
15.8469058439
 20
11.1267749001
 30
0.0
 10
15.8601755177
 20
11.1209995398
 30
0.0
 10
15.8734984973
 20
11.1160623259
 30
0.0
 10
15.8868666486
 20
11.1119666144
 30
0.0
 10
15.9002717502
 20
11.1087153613
 30
0.0
 10
15.9137054099
 20
11.1063108456
 30
0.0
 10
15.9271591495
 20
11.1047548665
 30
0.0
 10
15.940624387
 20
11.1040486069
 30
0.0
 10
15.9540924857
 20
11.1041925379
 30
0.0
 10
15.9675547941
 20
11.1051866283
 30
0.0
 10
15.9810026918
 20
11.1070300712
 30
0.0
 10
15.9944276297
 20
11.1097215081
 30
0.0
 10
16.0078211442
 20
11.1132590076
 30
0.0
 10
16.0211749269
 20
11.117639972
 30
0.0
 10
16.0344807499
 20
11.1228614017
 30
0.0
 10
16.047730575
 20
11.1289197108
 30
0.0
 10
16.0609163707
 20
11.1358108043
 30
0.0
 10
16.0740305933
 20
11.1435304375
 30
0.0
 10
16.0916300499
 20
11.1550652924
 30
0.0
 10
16.1088343554
 20
11.1681369508
 30
0.0
 10
16.125614115
 20
11.1825861399
 30
0.0
 10
16.1382545262
 20
11.1943648082
 30
0.0
 10
16.1507771726
 20
11.2069351702
 30
0.0
 10
16.1631752419
 20
11.2202901584
 30
0.0
 10
16.175441249
 20
11.2344215842
 30
0.0
 10
16.1875680128
 20
11.2493209688
 30
0.0
 10
16.1995482878
 20
11.2649793838
 30
0.0
 10
16.2113750002
 20
11.2813874077
 30
0.0
 10
16.2230410953
 20
11.2985352072
 30
0.0
 10
16.2345396057
 20
11.316412503
 30
0.0
 10
16.2458637027
 20
11.3350085519
 30
0.0
 10
16.2570065746
 20
11.3543122186
 30
0.0
 10
16.2679615822
 20
11.3743119037
 30
0.0
 10
16.2787221581
 20
11.3949956033
 30
0.0
 10
16.2892818306
 20
11.4163509125
 30
0.0
 10
16.2996342861
 20
11.4383649758
 30
0.0
 10
16.3097733299
 20
11.4610246373
 30
0.0
 10
16.323124686
 20
11.4923747277
 30
0.0
 10
16.339214862
 20
11.5331013246
 30
0.0
 10
16.3573989265
 20
11.5838734347
 30
0.0
 10
16.3686831779
 20
11.6186581097
 30
0.0
 10
16.3741690129
 20
11.6364102781
 30
0.0
  0
SPLINE
  5
2B3
100
AcDbEntity
  8
LAYER_FEATURE
100
AcDbSpline
 62
7
  6
CONTINUOUS
 70
0
 71
3
 72
68
 73
64
 74
0
 42
0.0000001
 43
0.0000001
 44
0.0000000001
 40
0.0
 40
0.0
 40
0.0
 40
0.0
 40
0.0163580858
 40
0.0330510049
 40
0.0500641651
 40
0.0673825756
 40
0.0849903746
 40
0.1028711641
 40
0.1210079486
 40
0.1393832211
 40
0.1579789974
 40
0.176776863
 40
0.1957580148
 40
0.2149033029
 40
0.2536072195
 40
0.2927309867
 40
0.3321129044
 40
0.3715894139
 40
0.4109962794
 40
0.450169764
 40
0.4889478082
 40
0.5081391481
 40
0.5271722354
 40
0.5460278227
 40
0.5646869974
 40
0.5831312226
 40
0.6013423791
 40
0.6193028086
 40
0.6369953594
 40
0.6544034334
 40
0.6715110358
 40
0.6883028277
 40
0.7047641825
 40
0.7208812464
 40
0.7366410033
 40
0.7520313453
 40
0.767041151
 40
0.7816603709
 40
0.7958801233
 40
0.8096928013
 40
0.8230921932
 40
0.836073619
 40
0.8486340848
 40
0.8607724581
 40
0.8724896662
 40
0.8837889208
 40
0.8946759706
 40
0.9051593824
 40
0.9152508473
 40
0.9249655082
 40
0.9343222939
 40
0.9433442428
 40
0.9520587819
 40
0.9604979211
 40
0.9686983093
 40
0.9727225116
 40
0.9767028171
 40
0.9806450085
 40
0.9845550798
 40
0.9884392169
 40
0.9923037608
 40
0.9961551735
 40
1.0
 40
1.0
 40
1.0
 40
1.0
 10
15.5087312263
 20
13.4626452568
 30
0.0
 10
15.5043578453
 20
13.4484929905
 30
0.0
 10
15.495814314
 20
13.4198075035
 30
0.0
 10
15.4837204502
 20
13.3761135533
 30
0.0
 10
15.4722292985
 20
13.3313588234
 30
0.0
 10
15.4613550171
 20
13.2855984718
 30
0.0
 10
15.4511109355
 20
13.2388883858
 30
0.0
 10
15.4415096269
 20
13.1912858483
 30
0.0
 10
15.4325628791
 20
13.1428491587
 30
0.0
 10
15.4242816758
 20
13.0936376775
 30
0.0
 10
15.4166761819
 20
13.0437117014
 30
0.0
 10
15.4097557497
 20
12.9931324513
 30
0.0
 10
15.4035288273
 20
12.9419618001
 30
0.0
 10
15.3961349081
 20
12.8727822281
 30
0.0
 10
15.3886926554
 20
12.7852740864
 30
0.0
 10
15.3826611732
 20
12.6792965468
 30
0.0
 10
15.3795269299
 20
12.5724936557
 30
0.0
 10
15.3793053545
 20
12.4653889259
 30
0.0
 10
15.3819975355
 20
12.3585063713
 30
0.0
 10
15.3875902261
 20
12.2523698951
 30
0.0
 10
15.394668914
 20
12.1646773273
 30
0.0
 10
15.4017745937
 20
12.0953109013
 30
0.0
 10
15.4077891336
 20
12.0439729031
 30
0.0
 10
15.4144995995
 20
11.9932073132
 30
0.0
 10
15.4218977986
 20
11.9430762334
 30
0.0
 10
15.4299746337
 20
11.8936411372
 30
0.0
 10
15.4387201909
 20
11.8449625988
 30
0.0
 10
15.4481237324
 20
11.7971002703
 30
0.0
 10
15.4581737147
 20
11.7501127941
 30
0.0
 10
15.4688578026
 20
11.7040577332
 30
0.0
 10
15.4801628848
 20
11.6589914994
 30
0.0
 10
15.4920750911
 20
11.6149692829
 30
0.0
 10
15.5045798103
 20
11.5720449828
 30
0.0
 10
15.5176617082
 20
11.5302711387
 30
0.0
 10
15.5313047498
 20
11.4896988657
 30
0.0
 10
15.5454922214
 20
11.45037779
 30
0.0
 10
15.5602067542
 20
11.4123559869
 30
0.0
 10
15.5754303496
 20
11.3756799205
 30
0.0
 10
15.5911444062
 20
11.3403943847
 30
0.0
 10
15.6073297489
 20
11.3065424477
 30
0.0
 10
15.6239666603
 20
11.2741653986
 30
0.0
 10
15.6410349156
 20
11.2433026974
 30
0.0
 10
15.6585138173
 20
11.2139919277
 30
0.0
 10
15.6763822366
 20
11.1862687576
 30
0.0
 10
15.6946186565
 20
11.1601669067
 30
0.0
 10
15.713201217
 20
11.1357181226
 30
0.0
 10
15.7321077613
 20
11.1129521677
 30
0.0
 10
15.7513158791
 20
11.0918968211
 30
0.0
 10
15.7708029473
 20
11.0725778961
 30
0.0
 10
15.7905461426
 20
11.0550192804
 30
0.0
 10
15.8105224802
 20
11.0392429807
 30
0.0
 10
15.8307086331
 20
11.0252692219
 30
0.0
 10
15.8510813383
 20
11.0131163751
 30
0.0
 10
15.8716154908
 20
11.0028014497
 30
0.0
 10
15.8889522116
 20
10.9957047786
 30
0.0
 10
15.9028505159
 20
10.9909863941
 30
0.0
 10
15.9132329357
 20
10.9879358853
 30
0.0
 10
15.9236349302
 20
10.9853529594
 30
0.0
 10
15.9340534451
 20
10.9832384598
 30
0.0
 10
15.9444851363
 20
10.9815930882
 30
0.0
 10
15.9549268101
 20
10.9804174125
 30
0.0
 10
15.9653748868
 20
10.9797118626
 30
0.0
 10
15.9723450113
 20
10.9795549909
 30
0.0
 10
15.9758265846
 20
10.9795549938
 30
0.0
  0
SPLINE
  5
2B4
100
AcDbEntity
  8
LAYER_CHAMFER_FEAT
100
AcDbSpline
 62
7
  6
CONTINUOUS
 70
0
 71
3
 72
27
 73
23
 74
0
 42
0.0000001
 43
0.0000001
 44
0.0000000001
 40
0.0
 40
0.0
 40
0.0
 40
0.0
 40
0.0835110577
 40
0.1639083838
 40
0.2411670739
 40
0.3152835292
 40
0.3862765985
 40
0.4541914483
 40
0.5191027214
 40
0.5811185505
 40
0.6403847035
 40
0.6970888353
 40
0.7514643415
 40
0.8037931652
 40
0.8292988681
 40
0.8544212618
 40
0.8792091165
 40
0.9037137711
 40
0.9279888831
 40
0.952090044
 40
0.9760743646
 40
1.0
 40
1.0
 40
1.0
 40
1.0
 10
16.1711433063
 20
13.2784653643
 30
0.0
 10
16.1670416818
 20
13.2868235962
 30
0.0
 10
16.1587167509
 20
13.3030957709
 30
0.0
 10
16.1456000817
 20
13.326573351
 30
0.0
 10
16.1321111687
 20
13.3486213506
 30
0.0
 10
16.118273397
 20
13.3692010933
 30
0.0
 10
16.1041102913
 20
13.3882769565
 30
0.0
 10
16.0896458238
 20
13.4058157667
 30
0.0
 10
16.0749042003
 20
13.4217869459
 30
0.0
 10
16.0599098033
 20
13.4361624206
 30
0.0
 10
16.0446873006
 20
13.4489164689
 30
0.0
 10
16.0292611603
 20
13.4600257494
 30
0.0
 10
16.0136577056
 20
13.4694685048
 30
0.0
 10
16.0004138974
 20
13.4759884989
 30
0.0
 10
15.9897808581
 20
13.4803216464
 30
0.0
 10
15.9818478734
 20
13.4831177953
 30
0.0
 10
15.9738932055
 20
13.4854860991
 30
0.0
 10
15.9659202418
 20
13.4874254496
 30
0.0
 10
15.9579326492
 20
13.4889348635
 30
0.0
 10
15.9499339631
 20
13.4900135792
 30
0.0
 10
15.9419281497
 20
13.4906610186
 30
0.0
 10
15.9365857046
 20
13.4908049946
 30
0.0
 10
15.9339183094
 20
13.4908049901
 30
0.0
  0
SPLINE
  5
2B5
100
AcDbEntity
  8
02___PRT_ALL_AXES
100
AcDbSpline
 62
7
  6
CONTINUOUS
 70
0
 71
3
 72
20
 73
16
 74
0
 42
0.0000001
 43
0.0000001
 44
0.0000000001
 40
0.0
 40
0.0
 40
0.0
 40
0.0
 40
0.0489315107
 40
0.100513482
 40
0.1546269416
 40
0.2111268299
 40
0.2698458274
 40
0.3305975507
 40
0.3931792922
 40
0.4573744325
 40
0.5229546123
 40
0.589681741
 40
0.7255751397
 40
0.8630377994
 40
1.0
 40
1.0
 40
1.0
 40
1.0
 10
15.6766379903
 20
11.8147034397
 30
0.0
 10
15.677402031
 20
11.8162548827
 30
0.0
 10
15.6788829824
 20
11.8194859468
 30
0.0
 10
15.6809174001
 20
11.8245600236
 30
0.0
 10
15.6828160603
 20
11.8299706997
 30
0.0
 10
15.6845704784
 20
11.8356939618
 30
0.0
 10
15.6861728941
 20
11.8417046264
 30
0.0
 10
15.6876161695
 20
11.8479761114
 30
0.0
 10
15.6888938766
 20
11.8544806689
 30
0.0
 10
15.6900003044
 20
11.8611894642
 30
0.0
 10
15.6909305504
 20
11.8680728063
 30
0.0
 10
15.69193632
 20
11.877499256
 30
0.0
 10
15.6927221361
 20
11.8894993274
 30
0.0
 10
15.6929155593
 20
11.9040057232
 30
0.0
 10
15.6925434975
 20
11.9137028046
 30
0.0
 10
15.6922289995
 20
11.9185331968
 30
0.0
  0
SPLINE
  5
2B6
100
AcDbEntity
  8
02___PRT_ALL_AXES
100
AcDbSpline
 62
7
  6
CONTINUOUS
 70
0
 71
3
 72
56
 73
52
 74
0
 42
0.0000001
 43
0.0000001
 44
0.0000000001
 40
0.0
 40
0.0
 40
0.0
 40
0.0
 40
0.0077385621
 40
0.0156305722
 40
0.0237167552
 40
0.0320341336
 40
0.0494812588
 40
0.0586740301
 40
0.0682058499
 40
0.0780941098
 40
0.0883528501
 40
0.0989930436
 40
0.1100228701
 40
0.1214479849
 40
0.1332717637
 40
0.1454955222
 40
0.1581187109
 40
0.1711390862
 40
0.1845528699
 40
0.1983548882
 40
0.2125386926
 40
0.227096665
 40
0.242020111
 40
0.2572993503
 40
0.2729237951
 40
0.2888820194
 40
0.30516182
 40
0.3217502729
 40
0.338633792
 40
0.3557981793
 40
0.3732286709
 40
0.4088252495
 40
0.4452968507
 40
0.4825091828
 40
0.520322667
 40
0.5585935519
 40
0.5971749679
 40
0.6359179542
 40
0.6746724733
 40
0.7132884097
 40
0.7516165733
 40
0.7895097053
 40
0.8268235098
 40
0.8634176957
 40
0.899157086
 40
0.9166662358
 40
0.9339139181
 40
0.9508852318
 40
0.9675656802
 40
0.9839418095
 40
1.0
 40
1.0
 40
1.0
 40
1.0
 10
15.9286703809
 20
11.4366181758
 30
0.0
 10
15.9239206813
 20
11.4375768776
 30
0.0
 10
15.9144047632
 20
11.439920765
 30
0.0
 10
15.9003074797
 20
11.4446358123
 30
0.0
 10
15.8862844337
 20
11.4505723526
 30
0.0
 10
15.8674132437
 20
11.4602565445
 30
0.0
 10
15.8490398745
 20
11.4722888857
 30
0.0
 10
15.8312691623
 20
11.4863427986
 30
0.0
 10
15.8178579467
 20
11.4982371783
 30
0.0
 10
15.8046149752
 20
11.5112850142
 30
0.0
 10
15.7915531344
 20
11.5254723621
 30
0.0
 10
15.7786872429
 20
11.5407827172
 30
0.0
 10
15.7660313922
 20
11.5571987483
 30
0.0
 10
15.753599685
 20
11.5747018027
 30
0.0
 10
15.7414059977
 20
11.5932720492
 30
0.0
 10
15.7294640139
 20
11.6128884448
 30
0.0
 10
15.7177871824
 20
11.6335287545
 30
0.0
 10
15.706388683
 20
11.6551695591
 30
0.0
 10
15.695281417
 20
11.6777862896
 30
0.0
 10
15.684477983
 20
11.7013532553
 30
0.0
 10
15.6739906576
 20
11.7258436715
 30
0.0
 10
15.6638313753
 20
11.7512296848
 30
0.0
 10
15.6540116997
 20
11.777482401
 30
0.0
 10
15.6445428218
 20
11.804571927
 30
0.0
 10
15.6354355415
 20
11.8324674074
 30
0.0
 10
15.626700255
 20
11.8611370597
 30
0.0
 10
15.6183469389
 20
11.8905482054
 30
0.0
 10
15.6103851241
 20
11.920667314
 30
0.0
 10
15.6028239192
 20
11.9514600157
 30
0.0
 10
15.5956719099
 20
11.9828912678
 30
0.0
 10
15.586629564
 20
12.0259029809
 30
0.0
 10
15.5764288856
 20
12.0810164188
 30
0.0
 10
15.5660231172
 20
12.1486562177
 30
0.0
 10
15.5574161608
 20
12.217947188
 30
0.0
 10
15.5506474801
 20
12.2885731213
 30
0.0
 10
15.5457481237
 20
12.3602122913
 30
0.0
 10
15.5427405882
 20
12.432538084
 30
0.0
 10
15.541638644
 20
12.5052207523
 30
0.0
 10
15.5424473785
 20
12.5779288833
 30
0.0
 10
15.545163058
 20
12.6503309465
 30
0.0
 10
15.5497732285
 20
12.7220968414
 30
0.0
 10
15.5562567496
 20
12.7928993662
 30
0.0
 10
15.5645838532
 20
12.8624159738
 30
0.0
 10
15.5747163737
 20
12.9303294149
 30
0.0
 10
15.5846927468
 20
12.9857026822
 30
0.0
 10
15.5935594159
 20
13.0289457443
 30
0.0
 10
15.6005841117
 20
13.0605658851
 30
0.0
 10
15.6080205646
 20
13.0915583508
 30
0.0
 10
15.6158603394
 20
13.121888062
 30
0.0
 10
15.6240944335
 20
13.1515200698
 30
0.0
 10
15.6298988717
 20
13.1709831586
 30
0.0
 10
15.6328675279
 20
13.1805897337
 30
0.0
  0
SPLINE
  5
2B7
100
AcDbEntity
  8
LAYER_CUT_FEAT
100
AcDbSpline
 62
7
  6
CONTINUOUS
 70
0
 71
3
 72
53
 73
49
 74
0
 42
0.0000001
 43
0.0000001
 44
0.0000000001
 40
0.0
 40
0.0
 40
0.0
 40
0.0
 40
0.0098553204
 40
0.0200874817
 40
0.0307045745
 40
0.0417120861
 40
0.0531131386
 40
0.0649087341
 40
0.0770979739
 40
0.0896782292
 40
0.1026452917
 40
0.1159935373
 40
0.1297160525
 40
0.1438047269
 40
0.1582503598
 40
0.1730427622
 40
0.188170828
 40
0.203622592
 40
0.235444182
 40
0.2683988082
 40
0.3023663746
 40
0.3372184857
 40
0.3728198099
 40
0.4090293356
 40
0.4457015786
 40
0.4826877028
 40
0.5198366428
 40
0.55699618
 40
0.5940140207
 40
0.6307388737
 40
0.6670215306
 40
0.7027159679
 40
0.7376804904
 40
0.7717788937
 40
0.8048817475
 40
0.8368677087
 40
0.8524072544
 40
0.8676265625
 40
0.8825134542
 40
0.8970565805
 40
0.9112454825
 40
0.9250706745
 40
0.9385237368
 40
0.9515974291
 40
0.9642857349
 40
0.9765839547
 40
0.9884893956
 40
1.0
 40
1.0
 40
1.0
 40
1.0
 10
15.6565493085
 20
13.1482704322
 30
0.0
 10
15.6594809478
 20
13.1452297296
 30
0.0
 10
15.6652993247
 20
13.1388790414
 30
0.0
 10
15.6737325662
 20
13.1287717917
 30
0.0
 10
15.6820232796
 20
13.117919076
 30
0.0
 10
15.6901613968
 20
13.1063342303
 30
0.0
 10
15.6981374036
 20
13.0940310574
 30
0.0
 10
15.7059418188
 20
13.0810243372
 30
0.0
 10
15.7135653465
 20
13.067329652
 30
0.0
 10
15.7209988673
 20
13.0529634323
 30
0.0
 10
15.7282334932
 20
13.0379429401
 30
0.0
 10
15.7352605406
 20
13.0222862273
 30
0.0
 10
15.7420715477
 20
13.0060121152
 30
0.0
 10
15.7486583186
 20
12.9891401926
 30
0.0
 10
15.7550129284
 20
12.9716907776
 30
0.0
 10
15.7611276924
 20
12.9536849024
 30
0.0
 10
15.766995275
 20
12.9351442083
 30
0.0
 10
15.7745534695
 20
12.9094889444
 30
0.0
 10
15.7833113831
 20
12.8762299843
 30
0.0
 10
15.792629205
 20
12.8349407413
 30
0.0
 10
15.8008106663
 20
12.7920887047
 30
0.0
 10
15.807816067
 20
12.7478806012
 30
0.0
 10
15.8136114182
 20
12.7025292183
 30
0.0
 10
15.818168611
 20
12.6562531608
 30
0.0
 10
15.8214654878
 20
12.609275531
 30
0.0
 10
15.823486079
 20
12.561822895
 30
0.0
 10
15.8242205326
 20
12.5141241451
 30
0.0
 10
15.8236653167
 20
12.4664093833
 30
0.0
 10
15.8218231024
 20
12.4189087896
 30
0.0
 10
15.8187028482
 20
12.3718514924
 30
0.0
 10
15.8143197078
 20
12.3254644474
 30
0.0
 10
15.8086949441
 20
12.2799713054
 30
0.0
 10
15.8018558916
 20
12.2355913649
 30
0.0
 10
15.7938356866
 20
12.1925382684
 30
0.0
 10
15.7846732881
 20
12.1510197232
 30
0.0
 10
15.7760420126
 20
12.1175505762
 30
0.0
 10
15.7685819777
 20
12.0917134063
 30
0.0
 10
15.7627844036
 20
12.0730279569
 30
0.0
 10
15.7567376552
 20
12.0548711715
 30
0.0
 10
15.7504489848
 20
12.0372648752
 30
0.0
 10
15.7439259882
 20
12.020230299
 30
0.0
 10
15.7371765135
 20
12.0037879621
 30
0.0
 10
15.7302087072
 20
11.9879576433
 30
0.0
 10
15.7230309427
 20
11.9727583797
 30
0.0
 10
15.7156518523
 20
11.9582085026
 30
0.0
 10
15.708080214
 20
11.9443252985
 30
0.0
 10
15.700325247
 20
11.9311258319
 30
0.0
 10
15.6949483561
 20
11.9226492196
 30
0.0
 10
15.6922289995
 20
11.9185331968
 30
0.0
  0
SPLINE
  5
2B8
100
AcDbEntity
  8
LAYER_CHAMFER_FEAT
100
AcDbSpline
 62
7
  6
CONTINUOUS
 70
0
 71
3
 72
79
 73
75
 74
0
 42
0.0000001
 43
0.0000001
 44
0.0000000001
 40
0.0
 40
0.0
 40
0.0
 40
0.0
 40
0.0113884777
 40
0.0222283802
 40
0.0325469694
 40
0.0423804738
 40
0.0517750303
 40
0.0607873862
 40
0.0651724049
 40
0.0694881097
 40
0.0737445445
 40
0.0779522932
 40
0.0821224201
 40
0.0862663633
 40
0.0903958368
 40
0.094522706
 40
0.0986588638
 40
0.1028161063
 40
0.1070060052
 40
0.1112398024
 40
0.1155283002
 40
0.1198817896
 40
0.1243099708
 40
0.1288219195
 40
0.138127622
 40
0.1478607795
 40
0.1580698033
 40
0.1687930145
 40
0.180059551
 40
0.1918903743
 40
0.204299256
 40
0.2172936843
 40
0.2308756629
 40
0.245042401
 40
0.2597869017
 40
0.2750984611
 40
0.2909630926
 40
0.3073638888
 40
0.3242813323
 40
0.3416935662
 40
0.3595766301
 40
0.3779046708
 40
0.3966501312
 40
0.415783922
 40
0.4352755799
 40
0.4550934154
 40
0.4752046514
 40
0.4955755552
 40
0.5161715649
 40
0.5369574117
 40
0.5578972389
 40
0.5789547176
 40
0.6000931619
 40
0.6212756411
 40
0.642465092
 40
0.6636244306
 40
0.6847166633
 40
0.705704999
 40
0.7265529612
 40
0.7472245022
 40
0.7676841185
 40
0.7878969682
 40
0.8078289925
 40
0.8274470397
 40
0.8467189958
 40
0.8656139197
 40
0.8841021877
 40
0.9021556475
 40
0.9197477838
 40
0.9368539025
 40
0.9534513262
 40
0.9695196386
 40
0.9850408921
 40
1.0
 40
1.0
 40
1.0
 40
1.0
 10
15.7952602716
 20
11.5955165545
 30
0.0
 10
15.8005265869
 20
11.5892072547
 30
0.0
 10
15.8111585532
 20
11.5771804503
 30
0.0
 10
15.8278238857
 20
11.5606058531
 30
0.0
 10
15.8447744926
 20
11.5459840463
 30
0.0
 10
15.8619781712
 20
11.533347226
 30
0.0
 10
15.8794010383
 20
11.522724435
 30
0.0
 10
15.8942123249
 20
11.5155060588
 30
0.0
 10
15.9061036531
 20
11.5108036123
 30
0.0
 10
15.9149717102
 20
11.5078249041
 30
0.0
 10
15.923864665
 20
11.5053645039
 30
0.0
 10
15.932778044
 20
11.5034238628
 30
0.0
 10
15.9417070051
 20
11.5020040793
 30
0.0
 10
15.9506467691
 20
11.501106136
 30
0.0
 10
15.9595924687
 20
11.5007304795
 30
0.0
 10
15.9685392369
 20
11.5008774595
 30
0.0
 10
15.9774821977
 20
11.5015468724
 30
0.0
 10
15.9864164798
 20
11.5027384059
 30
0.0
 10
15.9953372668
 20
11.5044512204
 30
0.0
 10
16.0042397505
 20
11.5066843601
 30
0.0
 10
16.0131192345
 20
11.509436403
 30
0.0
 10
16.0219709766
 20
11.5127057733
 30
0.0
 10
16.0307905654
 20
11.5164906204
 30
0.0
 10
16.0426212983
 20
11.5222803208
 30
0.0
 10
16.0573282503
 20
11.5308501454
 30
0.0
 10
16.0745818644
 20
11.543048307
 30
0.0
 10
16.0915907591
 20
11.5572383993
 30
0.0
 10
16.1083214634
 20
11.5733889024
 30
0.0
 10
16.1247425716
 20
11.59146605
 30
0.0
 10
16.1408223378
 20
11.6114325384
 30
0.0
 10
16.1565293895
 20
11.6332476154
 30
0.0
 10
16.171832652
 20
11.6568668873
 30
0.0
 10
16.1867015432
 20
11.6822423105
 30
0.0
 10
16.2011060969
 20
11.709322212
 30
0.0
 10
16.2150170966
 20
11.7380513588
 30
0.0
 10
16.2284061877
 20
11.7683710542
 30
0.0
 10
16.2412459788
 20
11.8002192542
 30
0.0
 10
16.25351013
 20
11.8335306971
 30
0.0
 10
16.2651734305
 20
11.8682370433
 30
0.0
 10
16.2762118682
 20
11.9042670228
 30
0.0
 10
16.286602692
 20
11.9415465888
 30
0.0
 10
16.2963244675
 20
11.9799990773
 30
0.0
 10
16.3053571281
 20
12.019545371
 30
0.0
 10
16.3136820211
 20
12.0601040672
 30
0.0
 10
16.3212819495
 20
12.101591651
 30
0.0
 10
16.3281412101
 20
12.1439226709
 30
0.0
 10
16.3342456275
 20
12.1870099187
 30
0.0
 10
16.3395825845
 20
12.230764612
 30
0.0
 10
16.3441410493
 20
12.2750965803
 30
0.0
 10
16.3479115983
 20
12.3199144528
 30
0.0
 10
16.3508864368
 20
12.3651258487
 30
0.0
 10
16.3530594145
 20
12.4106375699
 30
0.0
 10
16.3544260388
 20
12.4563557942
 30
0.0
 10
16.3549834844
 20
12.5021862709
 30
0.0
 10
16.3547305987
 20
12.548034516
 30
0.0
 10
16.3536679046
 20
12.5938060087
 30
0.0
 10
16.3517975991
 20
12.6394063874
 30
0.0
 10
16.3491235491
 20
12.684741646
 30
0.0
 10
16.3456512829
 20
12.729718329
 30
0.0
 10
16.3413879789
 20
12.7742437258
 30
0.0
 10
16.3363424506
 20
12.8182260635
 30
0.0
 10
16.3305251277
 20
12.8615746982
 30
0.0
 10
16.3239480345
 20
12.9042003036
 30
0.0
 10
16.316624764
 20
12.9460150585
 30
0.0
 10
16.3085704489
 20
12.9869328296
 30
0.0
 10
16.299801729
 20
13.0268693532
 30
0.0
 10
16.2903367145
 20
13.0657424122
 30
0.0
 10
16.2801949452
 20
13.1034720107
 30
0.0
 10
16.269397349
 20
13.1399805405
 30
0.0
 10
16.2579661815
 20
13.1751929622
 30
0.0
 10
16.2459250107
 20
13.2090369052
 30
0.0
 10
16.2332985267
 20
13.2414430562
 30
0.0
 10
16.2201129272
 20
13.2723444295
 30
0.0
 10
16.2107928086
 20
13.292274109
 30
0.0
 10
16.2060371258
 20
13.3019651716
 30
0.0
  0
SPLINE
  5
2B9
100
AcDbEntity
  8
02___PRT_ALL_AXES
100
AcDbSpline
 62
7
  6
CONTINUOUS
 70
0
 71
3
 72
35
 73
31
 74
0
 42
0.0000001
 43
0.0000001
 44
0.0000000001
 40
0.0
 40
0.0
 40
0.0
 40
0.0
 40
0.0855262569
 40
0.1681654401
 40
0.247790144
 40
0.3242902334
 40
0.3613419142
 40
0.3975811631
 40
0.4330006577
 40
0.4675948526
 40
0.5013600126
 40
0.5342943842
 40
0.5663983986
 40
0.5976747289
 40
0.6281285999
 40
0.657767898
 40
0.6866034013
 40
0.7146490748
 40
0.7419222023
 40
0.7684437561
 40
0.7942385873
 40
0.8193356824
 40
0.8437684763
 40
0.8675749699
 40
0.8907979926
 40
0.9134852638
 40
0.9356893968
 40
0.9574678565
 40
0.9788826529
 40
1.0
 40
1.0
 40
1.0
 40
1.0
 10
15.6328675279
 20
13.1805897337
 30
0.0
 10
15.6372599197
 20
13.194803519
 30
0.0
 10
15.646305419
 20
13.2226272361
 30
0.0
 10
15.6609266949
 20
13.2631817362
 30
0.0
 10
15.6763378371
 20
13.3017578086
 30
0.0
 10
15.6899462816
 20
13.3324912328
 30
0.0
 10
15.7012132002
 20
13.3559866416
 30
0.0
 10
15.7097450184
 20
13.3728639778
 30
0.0
 10
15.7184427057
 20
13.3891735764
 30
0.0
 10
15.7273005918
 20
13.4049047892
 30
0.0
 10
15.7363128702
 20
13.4200472724
 30
0.0
 10
15.7454736674
 20
13.4345910819
 30
0.0
 10
15.7547769635
 20
13.4485266933
 30
0.0
 10
15.7642167352
 20
13.4618449399
 30
0.0
 10
15.7737868095
 20
13.4745371003
 30
0.0
 10
15.7834809763
 20
13.4865948424
 30
0.0
 10
15.7932929768
 20
13.4980102282
 30
0.0
 10
15.8032164286
 20
13.5087757804
 30
0.0
 10
15.8132449742
 20
13.5188843701
 30
0.0
 10
15.8233721364
 20
13.5283293331
 30
0.0
 10
15.8335914127
 20
13.5371043981
 30
0.0
 10
15.8438962776
 20
13.5452036652
 30
0.0
 10
15.8542800878
 20
13.5526217136
 30
0.0
 10
15.8647362192
 20
13.5593534323
 30
0.0
 10
15.8752579226
 20
13.5653941733
 30
0.0
 10
15.8858384013
 20
13.5707396822
 30
0.0
 10
15.896470736
 20
13.5753860385
 30
0.0
 10
15.9071480548
 20
13.5793298947
 30
0.0
 10
15.9178626653
 20
13.5825680711
 30
0.0
 10
15.9250697081
 20
13.5842650323
 30
0.0
 10
15.9286703811
 20
13.5849918028
 30
0.0
  0
SPLINE
  5
2BA
100
AcDbEntity
  8
LAYER_CHAMFER_FEAT
100
AcDbSpline
 62
7
  6
CONTINUOUS
 70
0
 71
3
 72
67
 73
63
 74
0
 42
0.0000001
 43
0.0000001
 44
0.0000000001
 40
0.0
 40
0.0
 40
0.0
 40
0.0
 40
0.0038601977
 40
0.0077284265
 40
0.0116126573
 40
0.0155207363
 40
0.0194603365
 40
0.0234388976
 40
0.0315392197
 40
0.0398773704
 40
0.0485010478
 40
0.0574517756
 40
0.0667648665
 40
0.076469648
 40
0.086589851
 40
0.0971440797
 40
0.1081463068
 40
0.119606357
 40
0.1315303545
 40
0.1439211275
 40
0.1567785671
 40
0.170099941
 40
0.1838801673
 40
0.1981120508
 40
0.2127864922
 40
0.2278926694
 40
0.2434181958
 40
0.2593492613
 40
0.2756707567
 40
0.2923663857
 40
0.3094187663
 40
0.3268095224
 40
0.3445193708
 40
0.3625282007
 40
0.3808151481
 40
0.399358666
 40
0.4181365913
 40
0.4371262092
 40
0.4563043146
 40
0.4951298847
 40
0.5344213452
 40
0.5739813667
 40
0.6136102717
 40
0.6531077831
 40
0.6922747688
 40
0.7309149934
 40
0.7499781057
 40
0.7688381815
 40
0.7874723147
 40
0.8058581279
 40
0.8239738352
 40
0.8417983079
 40
0.8593111439
 40
0.8764927403
 40
0.8933243708
 40
0.9097882697
 40
0.9258677241
 40
0.9415471586
 40
0.9568122884
 40
0.9716500991
 40
0.9860493435
 40
1.0
 40
1.0
 40
1.0
 40
1.0
 10
15.9339183094
 20
11.5308049957
 30
0.0
 10
15.9363744577
 20
11.5308049999
 30
0.0
 10
15.941292733
 20
11.530927027
 30
0.0
 10
15.9486640328
 20
11.5314758202
 30
0.0
 10
15.9560298094
 20
11.5323902817
 30
0.0
 10
15.963386954
 20
11.5336699014
 30
0.0
 10
15.9707328449
 20
11.5353143097
 30
0.0
 10
15.9805659513
 20
11.5380077269
 30
0.0
 10
15.9928441674
 20
11.5423102471
 30
0.0
 10
16.0073905119
 20
11.5488894902
 30
0.0
 10
16.0218190736
 20
11.556903958
 30
0.0
 10
16.0361081888
 20
11.5663393972
 30
0.0
 10
16.0502380219
 20
11.5771802594
 30
0.0
 10
16.0641887476
 20
11.5894093853
 30
0.0
 10
16.0779408651
 20
11.6030080177
 30
0.0
 10
16.0914750102
 20
11.6179556848
 30
0.0
 10
16.1047719781
 20
11.6342301354
 30
0.0
 10
16.1178127385
 20
11.6518072857
 30
0.0
 10
16.1305784816
 20
11.6706611925
 30
0.0
 10
16.1430506681
 20
11.690764048
 30
0.0
 10
16.1552110816
 20
11.7120861932
 30
0.0
 10
16.1670418775
 20
11.7345961443
 30
0.0
 10
16.1785256299
 20
11.7582606286
 30
0.0
 10
16.189645377
 20
11.7830446282
 30
0.0
 10
16.2003846556
 20
11.8089114323
 30
0.0
 10
16.2107275372
 20
11.835822694
 30
0.0
 10
16.220658659
 20
11.8637384879
 30
0.0
 10
16.2301632535
 20
11.8926173721
 30
0.0
 10
16.2392271752
 20
11.9224164513
 30
0.0
 10
16.2478369247
 20
11.9530914428
 30
0.0
 10
16.2559796728
 20
11.9845967433
 30
0.0
 10
16.2636432837
 20
12.0168854981
 30
0.0
 10
16.2708163314
 20
12.0499096742
 30
0.0
 10
16.2774881187
 20
12.0836201346
 30
0.0
 10
16.2836486931
 20
12.1179667094
 30
0.0
 10
16.2892888667
 20
12.1528982835
 30
0.0
 10
16.2944002116
 20
12.1883628298
 30
0.0
 10
16.2989751456
 20
12.2243076516
 30
0.0
 10
16.304372406
 20
12.2730001295
 30
0.0
 10
16.3097193068
 20
12.3346864279
 30
0.0
 10
16.3138821821
 20
12.4094569252
 30
0.0
 10
16.3157924548
 20
12.484830359
 30
0.0
 10
16.3154386938
 20
12.5603580662
 30
0.0
 10
16.3128230246
 20
12.6355913289
 30
0.0
 10
16.3079611037
 20
12.7100823214
 30
0.0
 10
16.3020357294
 20
12.7714443669
 30
0.0
 10
16.2961807311
 20
12.8198084565
 30
0.0
 10
16.2912698548
 20
12.8554595574
 30
0.0
 10
16.2858272421
 20
12.8905973131
 30
0.0
 10
16.2798609657
 20
12.9251695165
 30
0.0
 10
16.2733799398
 20
12.9591246798
 30
0.0
 10
16.2663938289
 20
12.9924122747
 30
0.0
 10
16.2589130531
 20
13.0249827661
 30
0.0
 10
16.2509487666
 20
13.056787698
 30
0.0
 10
16.2425128406
 20
13.0877797645
 30
0.0
 10
16.233617848
 20
13.117912887
 30
0.0
 10
16.2242770382
 20
13.1471422721
 30
0.0
 10
16.2145043175
 20
13.1754245191
 30
0.0
 10
16.204314229
 20
13.2027175642
 30
0.0
 10
16.1937218758
 20
13.2289810887
 30
0.0
 10
16.1827431232
 20
13.2541757014
 30
0.0
 10
16.1750537651
 20
13.2704966872
 30
0.0
 10
16.1711433063
 20
13.2784653643
 30
0.0
  0
SPLINE
  5
2BB
100
AcDbEntity
  8
LAYER_FEATURE
100
AcDbSpline
 62
7
  6
CONTINUOUS
 70
0
 71
3
 72
37
 73
33
 74
0
 42
0.0000001
 43
0.0000001
 44
0.0000000001
 40
0.0
 40
0.0
 40
0.0
 40
0.0
 40
0.0221621976
 40
0.0444049941
 40
0.0668079109
 40
0.0894483752
 40
0.1124007886
 40
0.1357357923
 40
0.159519637
 40
0.183813759
 40
0.2086745531
 40
0.2341531905
 40
0.2871290481
 40
0.3147171483
 40
0.343077428
 40
0.3722368095
 40
0.4022180559
 40
0.4330400941
 40
0.4647181866
 40
0.4972642803
 40
0.5306872238
 40
0.5649929458
 40
0.6001847665
 40
0.6362634988
 40
0.6732276688
 40
0.7110737169
 40
0.7497960268
 40
0.7893872304
 40
0.8298382704
 40
0.8711381502
 40
0.913274808
 40
1.0
 40
1.0
 40
1.0
 40
1.0
 10
15.0543050601
 20
13.8868049926
 30
0.0
 10
15.0497415549
 20
13.88680499
 30
0.0
 10
15.040595128
 20
13.8865045379
 30
0.0
 10
15.0268956336
 20
13.8851537283
 30
0.0
 10
15.0132146244
 20
13.8829036296
 30
0.0
 10
14.9995623088
 20
13.8797560238
 30
0.0
 10
14.9859477398
 20
13.8757134811
 30
0.0
 10
14.9723801231
 20
13.8707790834
 30
0.0
 10
14.958868386
 20
13.8649565524
 30
0.0
 10
14.9454214268
 20
13.8582502547
 30
0.0
 10
14.9320475933
 20
13.850664709
 30
0.0
 10
14.9140938312
 20
13.8392385051
 30
0.0
 10
14.8965519253
 20
13.826173786
 30
0.0
 10
14.8794575615
 20
13.8116469373
 30
0.0
 10
14.8665772498
 20
13.7997557134
 30
0.0
 10
14.8538210267
 20
13.7870252765
 30
0.0
 10
14.8411963127
 20
13.7734634174
 30
0.0
 10
14.8287113926
 20
13.7590791072
 30
0.0
 10
14.8163741605
 20
13.7438816974
 30
0.0
 10
14.8041925518
 20
13.727881069
 30
0.0
 10
14.7921744083
 20
13.7110876006
 30
0.0
 10
14.7803274299
 20
13.6935122212
 30
0.0
 10
14.7686592941
 20
13.6751663198
 30
0.0
 10
14.7571775256
 20
13.6560618173
 30
0.0
 10
14.745889537
 20
13.6362111274
 30
0.0
 10
14.7348026808
 20
13.6156271286
 30
0.0
 10
14.723924109
 20
13.5943232156
 30
0.0
 10
14.7132608882
 20
13.5723132073
 30
0.0
 10
14.7028200061
 20
13.5496114686
 30
0.0
 10
14.6926081107
 20
13.5262326648
 30
0.0
 10
14.6791780476
 20
13.4938684771
 30
0.0
 10
14.6696677747
 20
13.469089477
 30
0.0
 10
14.6635391682
 20
13.4523161149
 30
0.0
  0
LINE
  5
2BC
100
AcDbEntity
  8
02___PRT_ALL_AXES
100
AcDbLine
 62
7
  6
CONTINUOUS
 10
15.6420475194
 20
11.9224968849
 11
15.6922289995
 21
11.9185331968
  0
SPLINE
  5
2BD
100
AcDbEntity
  8
LAYER_FEATURE
100
AcDbSpline
 62
7
  6
CONTINUOUS
 70
0
 71
3
 72
99
 73
95
 74
0
 42
0.0000001
 43
0.0000001
 44
0.0000000001
 40
0.0
 40
0.0
 40
0.0
 40
0.0
 40
0.0173110148
 40
0.0340649543
 40
0.0502380523
 40
0.0581004628
 40
0.0658101902
 40
0.0733652193
 40
0.0807638045
 40
0.0880044665
 40
0.0950860286
 40
0.1020076264
 40
0.1087687286
 40
0.1153691763
 40
0.1218091891
 40
0.1280894116
 40
0.1342109392
 40
0.1401753446
 40
0.1459847332
 40
0.1516417626
 40
0.1571496967
 40
0.162512449
 40
0.1677346143
 40
0.177776925
 40
0.1826124822
 40
0.1873335887
 40
0.1919488686
 40
0.1964678231
 40
0.200900808
 40
0.2052590039
 40
0.2095543637
 40
0.2137995212
 40
0.218007688
 40
0.2221925149
 40
0.2263679382
 40
0.2305480109
 40
0.2347467287
 40
0.2389778573
 40
0.2432547718
 40
0.2475903181
 40
0.2519966871
 40
0.2564853304
 40
0.261066889
 40
0.2657511516
 40
0.2705470451
 40
0.2754626216
 40
0.2856785606
 40
0.2909931575
 40
0.2964514632
 40
0.3020576126
 40
0.3078150839
 40
0.313726741
 40
0.3197948634
 40
0.326021207
 40
0.3324070222
 40
0.3389530995
 40
0.3456598064
 40
0.3525271007
 40
0.3595545797
 40
0.3667414891
 40
0.3740867505
 40
0.3815889924
 40
0.3892465503
 40
0.4050190682
 40
0.4213867133
 40
0.4383276936
 40
0.4558171041
 40
0.473827265
 40
0.4923280209
 40
0.5112870094
 40
0.5306699001
 40
0.5504406125
 40
0.5705615169
 40
0.5909936262
 40
0.611696777
 40
0.632629802
 40
0.6537506951
 40
0.6750167742
 40
0.6963848408
 40
0.7178113364
 40
0.7392524968
 40
0.7606645062
 40
0.7820036516
 40
0.8032264761
 40
0.8242899347
 40
0.8451515509
 40
0.8657695781
 40
0.8861031623
 40
0.9061125098
 40
0.9257590615
 40
0.9450056762
 40
0.9638168481
 40
0.9821587929
 40
1.0
 40
1.0
 40
1.0
 40
1.0
 10
15.5159878074
 20
13.3851997077
 30
0.0
 10
15.5214736423
 20
13.4029518761
 30
0.0
 10
15.5327578937
 20
13.4377365511
 30
0.0
 10
15.5509419583
 20
13.4885086613
 30
0.0
 10
15.5670321343
 20
13.5292352581
 30
0.0
 10
15.5803834904
 20
13.5605853485
 30
0.0
 10
15.5905225342
 20
13.58324501
 30
0.0
 10
15.6008749897
 20
13.6052590733
 30
0.0
 10
15.6114346622
 20
13.6266143825
 30
0.0
 10
15.6221952381
 20
13.6472980821
 30
0.0
 10
15.6331502457
 20
13.6672977672
 30
0.0
 10
15.6442931176
 20
13.6866014339
 30
0.0
 10
15.6556172146
 20
13.7051974828
 30
0.0
 10
15.6671157249
 20
13.7230747786
 30
0.0
 10
15.67878182
 20
13.7402225781
 30
0.0
 10
15.6906085325
 20
13.756630602
 30
0.0
 10
15.7025888074
 20
13.772289017
 30
0.0
 10
15.7147155712
 20
13.7871884016
 30
0.0
 10
15.7269815784
 20
13.8013198274
 30
0.0
 10
15.7393796476
 20
13.8146748156
 30
0.0
 10
15.7519022941
 20
13.8272451776
 30
0.0
 10
15.7645427053
 20
13.839023846
 30
0.0
 10
15.7813224649
 20
13.853473035
 30
0.0
 10
15.7985267704
 20
13.8665446934
 30
0.0
 10
15.816126227
 20
13.8780795483
 30
0.0
 10
15.8292404496
 20
13.8857991816
 30
0.0
 10
15.8424262453
 20
13.892690275
 30
0.0
 10
15.8556760704
 20
13.8987485841
 30
0.0
 10
15.8689818934
 20
13.9039700138
 30
0.0
 10
15.8823356761
 20
13.9083509782
 30
0.0
 10
15.8957291906
 20
13.9118884777
 30
0.0
 10
15.9091541285
 20
13.9145799146
 30
0.0
 10
15.9226020262
 20
13.9164233576
 30
0.0
 10
15.9360643345
 20
13.9174174479
 30
0.0
 10
15.9495324333
 20
13.9175613789
 30
0.0
 10
15.9629976708
 20
13.9168551193
 30
0.0
 10
15.9764514104
 20
13.9152991402
 30
0.0
 10
15.98988507
 20
13.9128946245
 30
0.0
 10
16.0032901716
 20
13.9096433714
 30
0.0
 10
16.016658323
 20
13.9055476599
 30
0.0
 10
16.0299813025
 20
13.900610446
 30
0.0
 10
16.0432509764
 20
13.8948350858
 30
0.0
 10
16.0564593693
 20
13.8882254447
 30
0.0
 10
16.0695985431
 20
13.8807859514
 30
0.0
 10
16.0826609892
 20
13.8725211415
 30
0.0
 10
16.1001881664
 20
13.8602517083
 30
0.0
 10
16.1173038896
 20
13.8464667093
 30
0.0
 10
16.1339870694
 20
13.8313226816
 30
0.0
 10
16.1465506862
 20
13.8190192874
 30
0.0
 10
16.1589916806
 20
13.805929165
 30
0.0
 10
16.1713032534
 20
13.7920596993
 30
0.0
 10
16.1834779497
 20
13.7774193575
 30
0.0
 10
16.195508642
 20
13.7620169267
 30
0.0
 10
16.2073881372
 20
13.7458616359
 30
0.0
 10
16.2191093934
 20
13.7289631893
 30
0.0
 10
16.230665436
 20
13.7113317286
 30
0.0
 10
16.2420493352
 20
13.6929778114
 30
0.0
 10
16.2532543319
 20
13.6739124715
 30
0.0
 10
16.2642736896
 20
13.654147134
 30
0.0
 10
16.2751008207
 20
13.633693663
 30
0.0
 10
16.2857292376
 20
13.6125643604
 30
0.0
 10
16.2961525913
 20
13.5907718429
 30
0.0
 10
16.3099037817
 20
13.5605509905
 30
0.0
 10
16.3265125497
 20
13.5211852489
 30
0.0
 10
16.3453352896
 20
13.4719726453
 30
0.0
 10
16.3631967377
 20
13.420449059
 30
0.0
 10
16.3800538603
 20
13.366738434
 30
0.0
 10
16.3958661457
 20
13.3109693857
 30
0.0
 10
16.4105955121
 20
13.2532757814
 30
0.0
 10
16.4242064639
 20
13.1937961419
 30
0.0
 10
16.4366661761
 20
13.1326733663
 30
0.0
 10
16.447944583
 20
13.0700543603
 30
0.0
 10
16.4580144722
 20
13.0060896824
 30
0.0
 10
16.4668515407
 20
12.9409331686
 30
0.0
 10
16.4744344545
 20
12.8747415528
 30
0.0
 10
16.480744901
 20
12.8076740846
 30
0.0
 10
16.4857676402
 20
12.7398921435
 30
0.0
 10
16.4894905501
 20
12.6715588457
 30
0.0
 10
16.4919046419
 20
12.6028386455
 30
0.0
 10
16.4930040848
 20
12.5338969357
 30
0.0
 10
16.4927862172
 20
12.4648996472
 30
0.0
 10
16.4912515683
 20
12.3960128457
 30
0.0
 10
16.4884038485
 20
12.3274023285
 30
0.0
 10
16.4842499347
 20
12.2592332225
 30
0.0
 10
16.4787998541
 20
12.1916695836
 30
0.0
 10
16.4720667621
 20
12.1248739978
 30
0.0
 10
16.4640669226
 20
12.0590071831
 30
0.0
 10
16.4548196508
 20
11.9942275988
 30
0.0
 10
16.444347271
 20
11.9306910664
 30
0.0
 10
16.4326750483
 20
11.8685503697
 30
0.0
 10
16.4198311647
 20
11.8079549292
 30
0.0
 10
16.4058465565
 20
11.749050261
 30
0.0
 10
16.3907551358
 20
11.6919783788
 30
0.0
 10
16.379822865
 20
11.6547061503
 30
0.0
 10
16.3741690129
 20
11.6364102781
 30
0.0
  0
SPLINE
  5
2BE
100
AcDbEntity
  8
LAYER_FEATURE
100
AcDbSpline
 62
7
  6
CONTINUOUS
 70
0
 71
3
 72
39
 73
35
 74
0
 42
0.0000001
 43
0.0000001
 44
0.0000000001
 40
0.0
 40
0.0
 40
0.0
 40
0.0
 40
0.0443813067
 40
0.0879669132
 40
0.1307335
 40
0.1726618866
 40
0.2137331556
 40
0.2539301966
 40
0.2932376985
 40
0.3316421098
 40
0.369131909
 40
0.4056977074
 40
0.4413324012
 40
0.4760313905
 40
0.5097927922
 40
0.5426176374
 40
0.5745101304
 40
0.6054779621
 40
0.6355325877
 40
0.6646895438
 40
0.692968828
 40
0.7203952814
 40
0.7469989433
 40
0.7728154398
 40
0.7978863773
 40
0.8222596396
 40
0.8459896209
 40
0.8691373705
 40
0.8917705686
 40
0.9139632732
 40
0.9357954514
 40
0.9573522573
 40
0.9787230195
 40
1.0
 40
1.0
 40
1.0
 40
1.0
 10
15.5087312263
 20
13.4626452568
 30
0.0
 10
15.5121758016
 20
13.4737919065
 30
0.0
 10
15.519181686
 20
13.4958307188
 30
0.0
 10
15.5301445277
 20
13.5284035557
 30
0.0
 10
15.5414596384
 20
13.5601722287
 30
0.0
 10
15.5531179104
 20
13.5911113271
 30
0.0
 10
15.5651102381
 20
13.621196639
 30
0.0
 10
15.5774271217
 20
13.6504043744
 30
0.0
 10
15.5900588402
 20
13.6787114994
 30
0.0
 10
15.6029954585
 20
13.7060956937
 30
0.0
 10
15.6162267713
 20
13.7325353785
 30
0.0
 10
15.6297423627
 20
13.758009729
 30
0.0
 10
15.6435316224
 20
13.7824986759
 30
0.0
 10
15.6575837314
 20
13.8059829389
 30
0.0
 10
15.6718876665
 20
13.8284440483
 30
0.0
 10
15.6864322444
 20
13.8498643326
 30
0.0
 10
15.7012061333
 20
13.8702269283
 30
0.0
 10
15.716197823
 20
13.8895158239
 30
0.0
 10
15.7313956742
 20
13.9077158405
 30
0.0
 10
15.7467879404
 20
13.9248126184
 30
0.0
 10
15.7623627567
 20
13.9407926411
 30
0.0
 10
15.7781081361
 20
13.9556432485
 30
0.0
 10
15.7940120098
 20
13.9693525912
 30
0.0
 10
15.8100622253
 20
13.9819096161
 30
0.0
 10
15.8262464975
 20
13.9933041111
 30
0.0
 10
15.8425524265
 20
14.0035266587
 30
0.0
 10
15.8589674769
 20
14.0125686059
 30
0.0
 10
15.8754789261
 20
14.020422101
 30
0.0
 10
15.8920738007
 20
14.0270801497
 30
0.0
 10
15.9087389045
 20
14.032536596
 30
0.0
 10
15.925460638
 20
14.0367861844
 30
0.0
 10
15.9422254819
 20
14.0398247219
 30
0.0
 10
15.9590181746
 20
14.0416491306
 30
0.0
 10
15.9702333949
 20
14.0420549875
 30
0.0
 10
15.9758265846
 20
14.0420549921
 30
0.0
  0
SPLINE
  5
2BF
100
AcDbEntity
  8
LAYER_FEATURE
100
AcDbSpline
 62
7
  6
CONTINUOUS
 70
0
 71
3
 72
67
 73
63
 74
0
 42
0.0000001
 43
0.0000001
 44
0.0000000001
 40
0.0
 40
0.0
 40
0.0
 40
0.0
 40
0.0163581013
 40
0.0330510694
 40
0.0500642491
 40
0.0673826926
 40
0.0849905208
 40
0.1028713409
 40
0.1210081566
 40
0.1393834611
 40
0.15797927
 40
0.1767771682
 40
0.1957583526
 40
0.2149036734
 40
0.2536076561
 40
0.292731491
 40
0.3321134768
 40
0.371590054
 40
0.4109969877
 40
0.45017054
 40
0.4889486503
 40
0.5081400228
 40
0.5271731428
 40
0.546028763
 40
0.5646879707
 40
0.5831322282
 40
0.601343416
 40
0.6193038759
 40
0.6369964566
 40
0.65440456
 40
0.6715121917
 40
0.6883040129
 40
0.7047653969
 40
0.720882489
 40
0.7366422729
 40
0.7520326412
 40
0.7670424724
 40
0.7816617173
 40
0.7958814943
 40
0.8096941963
 40
0.8230936114
 40
0.8360750592
 40
0.8486355463
 40
0.8607739405
 40
0.872491169
 40
0.8837904436
 40
0.8946775128
 40
0.905160943
 40
0.9152524249
 40
0.9249671014
 40
0.9343239024
 40
0.9433458667
 40
0.9520604213
 40
0.9604995757
 40
0.9686999787
 40
0.9767027777
 40
0.9806449746
 40
0.9845550535
 40
0.9884391969
 40
0.9923037475
 40
0.9961551669
 40
1.0
 40
1.0
 40
1.0
 40
1.0
 10
14.5564615274
 20
13.4626452568
 30
0.0
 10
14.5520881497
 20
13.4484930015
 30
0.0
 10
14.5435446183
 20
13.4198075074
 30
0.0
 10
14.531450752
 20
13.3761135601
 30
0.0
 10
14.5199596006
 20
13.3313588175
 30
0.0
 10
14.5090853185
 20
13.2855984732
 30
0.0
 10
14.4988412365
 20
13.2388883857
 30
0.0
 10
14.4892399267
 20
13.1912858496
 30
0.0
 10
14.4802931784
 20
13.14284916
 30
0.0
 10
14.4720119759
 20
13.0936376779
 30
0.0
 10
14.4644064844
 20
13.0437117003
 30
0.0
 10
14.4574860535
 20
12.9931324495
 30
0.0
 10
14.451259131
 20
12.9419617985
 30
0.0
 10
14.4438652102
 20
12.8727822277
 30
0.0
 10
14.4364229532
 20
12.7852740869
 30
0.0
 10
14.4303914711
 20
12.6792965473
 30
0.0
 10
14.4272572357
 20
12.5724936557
 30
0.0
 10
14.4270356592
 20
12.4653889258
 30
0.0
 10
14.429727833
 20
12.3585063709
 30
0.0
 10
14.4353205233
 20
12.2523698947
 30
0.0
 10
14.442399217
 20
12.1646773282
 30
0.0
 10
14.4495048987
 20
12.0953109037
 30
0.0
 10
14.4555194382
 20
12.0439729054
 30
0.0
 10
14.4622299017
 20
11.9932073142
 30
0.0
 10
14.4696280979
 20
11.9430762324
 30
0.0
 10
14.4777049315
 20
11.8936411347
 30
0.0
 10
14.4864504896
 20
11.8449625965
 30
0.0
 10
14.4958540328
 20
11.7971002696
 30
0.0
 10
14.5059040168
 20
11.7501127953
 30
0.0
 10
14.5165881058
 20
11.704057736
 30
0.0
 10
14.5278931882
 20
11.6589915025
 30
0.0
 10
14.5398053935
 20
11.6149692848
 30
0.0
 10
14.5523101106
 20
11.5720449825
 30
0.0
 10
14.5653920078
 20
11.5302711371
 30
0.0
 10
14.5790350499
 20
11.4896988643
 30
0.0
 10
14.5932225223
 20
11.4503777896
 30
0.0
 10
14.6079370557
 20
11.4123559876
 30
0.0
 10
14.6231606513
 20
11.3756799217
 30
0.0
 10
14.6388747076
 20
11.3403943856
 30
0.0
 10
14.6550600498
 20
11.306542448
 30
0.0
 10
14.6716969609
 20
11.2741653988
 30
0.0
 10
14.6887652169
 20
11.2433026985
 30
0.0
 10
14.7062441191
 20
11.2139919299
 30
0.0
 10
14.7241125384
 20
11.18626876
 30
0.0
 10
14.742348958
 20
11.1601669081
 30
0.0
 10
14.7609315179
 20
11.135718122
 30
0.0
 10
14.7798380614
 20
11.1129521648
 30
0.0
 10
14.7990461789
 20
11.0918968167
 30
0.0
 10
14.818533246
 20
11.0725778939
 30
0.0
 10
14.8382764486
 20
11.0550192822
 30
0.0
 10
14.8582527681
 20
11.0392429912
 30
0.0
 10
14.8784389877
 20
11.0252692165
 30
0.0
 10
14.8988114545
 20
11.0131164247
 30
0.0
 10
14.9193464522
 20
11.0028012884
 30
0.0
 10
14.9400181478
 20
10.9943389595
 30
0.0
 10
14.9574275615
 20
10.9888136817
 30
0.0
 10
14.9713651457
 20
10.9853530231
 30
0.0
 10
14.9817837668
 20
10.9832384332
 30
0.0
 10
14.9922154324
 20
10.981593099
 30
0.0
 10
15.0026571127
 20
10.9804174146
 30
0.0
 10
15.013105187
 20
10.9797118506
 30
0.0
 10
15.0200753123
 20
10.9795550049
 30
0.0
 10
15.0235568856
 20
10.9795550015
 30
0.0
  0
SPLINE
  5
2C0
100
AcDbEntity
  8
LAYER_FEATURE
100
AcDbSpline
 62
7
  6
CONTINUOUS
 70
0
 71
3
 72
39
 73
35
 74
0
 42
0.0000001
 43
0.0000001
 44
0.0000000001
 40
0.0
 40
0.0
 40
0.0
 40
0.0
 40
0.0468771692
 40
0.0927096402
 40
0.1374624893
 40
0.1811054028
 40
0.2236101617
 40
0.2649523168
 40
0.3051109968
 40
0.3440694007
 40
0.3818151614
 40
0.4183407861
 40
0.4536441632
 40
0.4877291323
 40
0.5206061285
 40
0.5522929121
 40
0.582815365
 40
0.6122083564
 40
0.6405166646
 40
0.6677959144
 40
0.6941134723
 40
0.7195492149
 40
0.7441960407
 40
0.7681599811
 40
0.7915597558
 40
0.8145256275
 40
0.8371974694
 40
0.8597220641
 40
0.8822497815
 40
0.9049309139
 40
0.9279120192
 40
0.9513326226
 40
0.9753225448
 40
1.0
 40
1.0
 40
1.0
 40
1.0
 10
14.6252144573
 20
13.3851997077
 30
0.0
 10
14.629104039
 20
13.3977863985
 30
0.0
 10
14.6370437027
 20
13.422603793
 30
0.0
 10
14.649584091
 20
13.4591460572
 30
0.0
 10
14.6626095368
 20
13.4945516988
 30
0.0
 10
14.6761042601
 20
13.5287780406
 30
0.0
 10
14.6900522245
 20
13.5617843341
 30
0.0
 10
14.7044367128
 20
13.5935310787
 30
0.0
 10
14.7192405778
 20
13.6239803845
 30
0.0
 10
14.7344461741
 20
13.6530959176
 30
0.0
 10
14.7500354213
 20
13.6808429687
 30
0.0
 10
14.7659898321
 20
13.7071884827
 30
0.0
 10
14.7822905465
 20
13.7321010925
 30
0.0
 10
14.7989183693
 20
13.7555511467
 30
0.0
 10
14.8158538117
 20
13.7775107293
 30
0.0
 10
14.8330771237
 20
13.7979536772
 30
0.0
 10
14.8505683345
 20
13.8168555756
 30
0.0
 10
14.8683072879
 20
13.8341937349
 30
0.0
 10
14.8862736582
 20
13.8499471568
 30
0.0
 10
14.904446946
 20
13.8640964869
 30
0.0
 10
14.922806443
 20
13.8766239579
 30
0.0
 10
14.9413311446
 20
13.8875133505
 30
0.0
 10
14.9599996209
 20
13.8967499795
 30
0.0
 10
14.9787898515
 20
13.9043207312
 30
0.0
 10
14.9976790444
 20
13.9102142072
 30
0.0
 10
15.0166435046
 20
13.914420979
 30
0.0
 10
15.0356586178
 20
13.9169339304
 30
0.0
 10
15.054699007
 20
13.9177486273
 30
0.0
 10
15.0737388556
 20
13.9168636122
 30
0.0
 10
15.0927523848
 20
13.9142804719
 30
0.0
 10
15.1117141635
 20
13.9100037971
 30
0.0
 10
15.13059992
 20
13.9040406348
 30
0.0
 10
15.149384815
 20
13.896401126
 30
0.0
 10
15.1616379163
 20
13.8902917029
 30
0.0
 10
15.1677312339
 20
13.8869799384
 30
0.0
  0
SPLINE
  5
2C1
100
AcDbEntity
  8
LAYER_FEATURE
100
AcDbSpline
 62
7
  6
CONTINUOUS
 70
0
 71
3
 72
76
 73
72
 74
0
 42
0.0000001
 43
0.0000001
 44
0.0000000001
 40
0.0
 40
0.0
 40
0.0
 40
0.0
 40
0.017084327
 40
0.0345489529
 40
0.0523756597
 40
0.070545493
 40
0.0890384558
 40
0.1078337968
 40
0.1269099974
 40
0.1462448732
 40
0.1658156294
 40
0.1855989287
 40
0.2055709517
 40
0.2257074573
 40
0.2459838412
 40
0.2663751933
 40
0.307400813
 40
0.3485822224
 40
0.3897148058
 40
0.4101994931
 40
0.4305955354
 40
0.4508777633
 40
0.471021254
 40
0.4910013879
 40
0.5107939057
 40
0.5303749672
 40
0.5497212112
 40
0.5688098172
 40
0.5876185692
 40
0.6061259222
 40
0.6243110719
 40
0.6421540277
 40
0.659635691
 40
0.6767379391
 40
0.6934437154
 40
0.7097371278
 40
0.7256035579
 40
0.7410297808
 40
0.7560041003
 40
0.7705165007
 40
0.7845588197
 40
0.7981249451
 40
0.811211041
 40
0.8238158066
 40
0.8359407741
 40
0.8475906492
 40
0.8587736962
 40
0.86950217
 40
0.8797927853
 40
0.8896672123
 40
0.8944573138
 40
0.8991540318
 40
0.9082833158
 40
0.9170957366
 40
0.9256368179
 40
0.9298225825
 40
0.9339603656
 40
0.9380574701
 40
0.942121483
 40
0.9461602241
 40
0.9501816992
 40
0.9541940425
 40
0.9582054572
 40
0.9622241532
 40
0.9662582866
 40
0.9703158955
 40
0.9744048491
 40
0.9785327874
 40
0.9827070858
 40
0.9912206415
 40
1.0
 40
1.0
 40
1.0
 40
1.0
 10
14.6252144573
 20
13.3851997077
 30
0.0
 10
14.620819217
 20
13.3709767047
 30
0.0
 10
14.6122529914
 20
13.3421136042
 30
0.0
 10
14.6001961019
 20
13.2980936671
 30
0.0
 10
14.588803398
 20
13.2529210017
 30
0.0
 10
14.5780916534
 20
13.2066620386
 30
0.0
 10
14.5680765546
 20
13.1593842964
 30
0.0
 10
14.5587727887
 20
13.1111569995
 30
0.0
 10
14.550194003
 20
13.0620507016
 30
0.0
 10
14.5423527796
 20
13.0121372783
 30
0.0
 10
14.5352606222
 20
12.9614897868
 30
0.0
 10
14.5289279361
 20
12.9101823722
 30
0.0
 10
14.5233640093
 20
12.8582901382
 30
0.0
 10
14.5185770187
 20
12.8058891013
 30
0.0
 10
14.5145739388
 20
12.7530558348
 30
0.0
 10
14.510281309
 20
12.6819986207
 30
0.0
 10
14.5069187454
 20
12.5926467115
 30
0.0
 10
14.5060826597
 20
12.4851614505
 30
0.0
 10
14.5080517879
 20
12.39559354
 30
0.0
 10
14.511231847
 20
12.3241988148
 30
0.0
 10
14.5144086038
 20
12.2709963352
 30
0.0
 10
14.5183753899
 20
12.2181451483
 30
0.0
 10
14.523126431
 20
12.1657224878
 30
0.0
 10
14.5286547439
 20
12.1138051525
 30
0.0
 10
14.5349522206
 20
12.0624691449
 30
0.0
 10
14.5420096211
 20
12.0117896247
 30
0.0
 10
14.5498165918
 20
11.9618407808
 30
0.0
 10
14.5583616798
 20
11.9126957255
 30
0.0
 10
14.5676323504
 20
11.8644263851
 30
0.0
 10
14.5776150066
 20
11.8171033939
 30
0.0
 10
14.5882950093
 20
11.7707959889
 30
0.0
 10
14.5996567005
 20
11.725571907
 30
0.0
 10
14.6116834272
 20
11.6814972834
 30
0.0
 10
14.6243575677
 20
11.6386365533
 30
0.0
 10
14.6376605606
 20
11.5970523542
 30
0.0
 10
14.6515729348
 20
11.5568054323
 30
0.0
 10
14.6660743425
 20
11.5179545505
 30
0.0
 10
14.6811435951
 20
11.4805563993
 30
0.0
 10
14.6967587019
 20
11.444665511
 30
0.0
 10
14.712896912
 20
11.410334178
 30
0.0
 10
14.72953476
 20
11.3776123741
 30
0.0
 10
14.7466481167
 20
11.3465476824
 30
0.0
 10
14.7642122448
 20
11.3171852304
 30
0.0
 10
14.7822018613
 20
11.2895676326
 30
0.0
 10
14.8005911966
 20
11.2637349522
 30
0.0
 10
14.8193540911
 20
11.2397246522
 30
0.0
 10
14.8384639717
 20
11.217571665
 30
0.0
 10
14.857894249
 20
11.1973081485
 30
0.0
 10
14.8776172001
 20
11.1789644707
 30
0.0
 10
14.8944424386
 20
11.165162789
 30
0.0
 10
14.9080185237
 20
11.1551420806
 30
0.0
 10
14.9214023384
 20
11.1459717863
 30
0.0
 10
14.9382737149
 20
11.1357106666
 30
0.0
 10
14.9588931225
 20
11.1252958637
 30
0.0
 10
14.9763226946
 20
11.1182639842
 30
0.0
 10
14.9902938133
 20
11.1136943049
 30
0.0
 10
15.0007271903
 20
11.1108019048
 30
0.0
 10
15.0111807031
 20
11.1084232332
 30
0.0
 10
15.0216506172
 20
11.1065590973
 30
0.0
 10
15.0321329377
 20
11.1052103395
 30
0.0
 10
15.0426237015
 20
11.1043775053
 30
0.0
 10
15.0531189159
 20
11.1040609335
 30
0.0
 10
15.0636145817
 20
11.1042607984
 30
0.0
 10
15.0741067029
 20
11.1049769507
 30
0.0
 10
15.0845912755
 20
11.1062091725
 30
0.0
 10
15.095064348
 20
11.1079568507
 30
0.0
 10
15.1055218986
 20
11.1102193439
 30
0.0
 10
15.1159601941
 20
11.1129957002
 30
0.0
 10
15.129936906
 20
11.1174094629
 30
0.0
 10
15.1473757081
 20
11.1242459884
 30
0.0
 10
15.1609051488
 20
11.1309235024
 30
0.0
 10
15.1676279935
 20
11.1345739649
 30
0.0
  0
SPLINE
  5
2C2
100
AcDbEntity
  8
LAYER_FEATURE
100
AcDbSpline
 62
7
  6
CONTINUOUS
 70
0
 71
3
 72
15
 73
11
 74
0
 42
0.0000001
 43
0.0000001
 44
0.0000000001
 40
0.0
 40
0.0
 40
0.0
 40
0.0
 40
0.1232686976
 40
0.2518076674
 40
0.3832749815
 40
0.5152192146
 40
0.6451786479
 40
0.7707562063
 40
0.8896979195
 40
1.0
 40
1.0
 40
1.0
 40
1.0
 10
14.5995193778
 20
13.2384598269
 30
0.0
 10
14.5993413207
 20
13.2375695175
 30
0.0
 10
14.5990427417
 20
13.2357373625
 30
0.0
 10
14.5987641481
 20
13.2329265063
 30
0.0
 10
14.5986490087
 20
13.230040227
 30
0.0
 10
14.5986999702
 20
13.2271416913
 30
0.0
 10
14.5989158666
 20
13.2242941995
 30
0.0
 10
14.5992918729
 20
13.2215597921
 30
0.0
 10
14.5998194588
 20
13.21899815
 30
0.0
 10
14.6002843654
 20
13.217372492
 30
0.0
 10
14.600544162
 20
13.2166027162
 30
0.0
  0
SPLINE
  5
2C3
100
AcDbEntity
  8
LAYER_FEATURE
100
AcDbSpline
 62
7
  6
CONTINUOUS
 70
0
 71
3
 72
15
 73
11
 74
0
 42
0.0000001
 43
0.0000001
 44
0.0000000001
 40
0.0
 40
0.0
 40
0.0
 40
0.0
 40
0.1339971147
 40
0.2672232602
 40
0.398742551
 40
0.5276345156
 40
0.6530141539
 40
0.7740424196
 40
0.889938198
 40
1.0
 40
1.0
 40
1.0
 40
1.0
 10
14.6233619484
 20
13.1128665692
 30
0.0
 10
14.6233809921
 20
13.1156837079
 30
0.0
 10
14.6233191462
 20
13.1213029668
 30
0.0
 10
14.6229279347
 20
13.1296788586
 30
0.0
 10
14.6222416588
 20
13.1379282315
 30
0.0
 10
14.6212660671
 20
13.1459823543
 30
0.0
 10
14.6200093848
 20
13.1537742491
 30
0.0
 10
14.6184821496
 20
13.1612392801
 30
0.0
 10
14.6166972861
 20
13.1683153252
 30
0.0
 10
14.6153069385
 20
13.1728606925
 30
0.0
 10
14.6145669846
 20
13.1750531716
 30
0.0
  0
SPLINE
  5
2C4
100
AcDbEntity
  8
LAYER_FEATURE
100
AcDbSpline
 62
7
  6
CONTINUOUS
 70
0
 71
3
 72
15
 73
11
 74
0
 42
0.0000001
 43
0.0000001
 44
0.0000000001
 40
0.0
 40
0.0
 40
0.0
 40
0.0
 40
0.1343690706
 40
0.2709529618
 40
0.4072132278
 40
0.5406071851
 40
0.6686918996
 40
0.7892063743
 40
0.9001662638
 40
1.0
 40
1.0
 40
1.0
 40
1.0
 10
14.5529767462
 20
12.9966401718
 30
0.0
 10
14.5528711491
 20
12.9956903618
 30
0.0
 10
14.5527179104
 20
12.9937680158
 30
0.0
 10
14.5526561188
 20
12.9908709783
 30
0.0
 10
14.5527604189
 20
12.9879819715
 30
0.0
 10
14.5530285137
 20
12.9851641742
 30
0.0
 10
14.5534543512
 20
12.9824790137
 30
0.0
 10
14.5540284642
 20
12.9799845674
 30
0.0
 10
14.5547378992
 20
12.9777348717
 30
0.0
 10
14.5553241166
 20
12.9763511589
 30
0.0
 10
14.5556423624
 20
12.9757164344
 30
0.0
  0
SPLINE
  5
2C5
100
AcDbEntity
  8
LAYER_FEATURE
100
AcDbSpline
 62
7
  6
CONTINUOUS
 70
0
 71
3
 72
15
 73
11
 74
0
 42
0.0000001
 43
0.0000001
 44
0.0000000001
 40
0.0
 40
0.0
 40
0.0
 40
0.0
 40
0.1414930451
 40
0.2800069826
 40
0.4145974598
 40
0.5443656796
 40
0.6684819554
 40
0.7862003006
 40
0.8968767731
 40
1.0
 40
1.0
 40
1.0
 40
1.0
 10
14.585902728
 20
12.8854047749
 30
0.0
 10
14.5857088761
 20
12.8881561291
 30
0.0
 10
14.5852266047
 20
12.8935945397
 30
0.0
 10
14.5842089691
 20
12.9016140521
 30
0.0
 10
14.582911666
 20
12.9093617419
 30
0.0
 10
14.5813455722
 20
12.9167732094
 30
0.0
 10
14.5795238531
 20
12.9237870343
 30
0.0
 10
14.5774616707
 20
12.9303454376
 30
0.0
 10
14.5751763868
 20
12.9363941016
 30
0.0
 10
14.5734533295
 20
12.940193397
 30
0.0
 10
14.572552332
 20
12.9419903891
 30
0.0
  0
SPLINE
  5
2C6
100
AcDbEntity
  8
LAYER_FEATURE
100
AcDbSpline
 62
7
  6
CONTINUOUS
 70
0
 71
3
 72
20
 73
16
 74
0
 42
0.0000001
 43
0.0000001
 44
0.0000000001
 40
0.0
 40
0.0
 40
0.0
 40
0.0
 40
0.0440071079
 40
0.0895174713
 40
0.13689001
 40
0.1864384407
 40
0.2929563694
 40
0.3503527855
 40
0.4106453864
 40
0.473907434
 40
0.540178565
 40
0.6094704533
 40
0.6817698357
 40
0.8352006844
 40
1.0
 40
1.0
 40
1.0
 40
1.0
 10
14.556516484
 20
12.7977534588
 30
0.0
 10
14.5570698358
 20
12.7979020058
 30
0.0
 10
14.5581792437
 20
12.7982677885
 30
0.0
 10
14.5598068832
 20
12.799000715
 30
0.0
 10
14.5614184491
 20
12.7999236671
 30
0.0
 10
14.5635930431
 20
12.8014407057
 30
0.0
 10
14.5656673464
 20
12.803308432
 30
0.0
 10
14.567638299
 20
12.8054628404
 30
0.0
 10
14.5691220843
 20
12.8072946662
 30
0.0
 10
14.5705712328
 20
12.8092979142
 30
0.0
 10
14.5719830998
 20
12.8114687241
 30
0.0
 10
14.5733547897
 20
12.8138025603
 30
0.0
 10
14.5751621956
 20
12.8171928012
 30
0.0
 10
14.577290865
 20
12.8218152903
 30
0.0
 10
14.5787757179
 20
12.8256862418
 30
0.0
 10
14.5794883888
 20
12.8277100028
 30
0.0
  0
SPLINE
  5
2C7
100
AcDbEntity
  8
LAYER_FEATURE
100
AcDbSpline
 62
7
  6
CONTINUOUS
 70
0
 71
3
 72
20
 73
16
 74
0
 42
0.0000001
 43
0.0000001
 44
0.0000000001
 40
0.0
 40
0.0
 40
0.0
 40
0.0
 40
0.036797865
 40
0.0759340278
 40
0.118079149
 40
0.1637322073
 40
0.2132119693
 40
0.2666938685
 40
0.3242379619
 40
0.3858118659
 40
0.4513095838
 40
0.520561594
 40
0.6693831399
 40
0.8300927633
 40
1.0
 40
1.0
 40
1.0
 40
1.0
 10
14.5352213878
 20
12.7920368006
 30
0.0
 10
14.5350284788
 20
12.7919850142
 30
0.0
 10
14.5346396936
 20
12.7918409963
 30
0.0
 10
14.5340807203
 20
12.7915227225
 30
0.0
 10
14.5335343173
 20
12.7910997362
 30
0.0
 10
14.5330031088
 20
12.7905750397
 30
0.0
 10
14.5324892718
 20
12.7899516339
 30
0.0
 10
14.5319953001
 20
12.7892328367
 30
0.0
 10
14.5315236124
 20
12.7884224896
 30
0.0
 10
14.5310766452
 20
12.7875249087
 30
0.0
 10
14.5306567839
 20
12.7865448896
 30
0.0
 10
14.5301233384
 20
12.7851004736
 30
0.0
 10
14.5295468278
 20
12.7831240748
 30
0.0
 10
14.5290096187
 20
12.7805757302
 30
0.0
 10
14.5287576162
 20
12.7787974381
 30
0.0
 10
14.5286557101
 20
12.7778808275
 30
0.0
  0
SPLINE
  5
2C8
100
AcDbEntity
  8
LAYER_FEATURE
100
AcDbSpline
 62
7
  6
CONTINUOUS
 70
0
 71
3
 72
17
 73
13
 74
0
 42
0.0000001
 43
0.0000001
 44
0.0000000001
 40
0.0
 40
0.0
 40
0.0
 40
0.0
 40
0.1462408988
 40
0.2912467438
 40
0.4323373764
 40
0.5669462124
 40
0.6927397171
 40
0.8077227775
 40
0.8606824601
 40
0.9104227638
 40
0.9568733771
 40
1.0
 40
1.0
 40
1.0
 40
1.0
 10
14.5256998805
 20
12.7361501431
 30
0.0
 10
14.5256688624
 20
12.735177946
 30
0.0
 10
14.5256632736
 20
12.733239514
 30
0.0
 10
14.5258207123
 20
12.7303666618
 30
0.0
 10
14.5261403608
 20
12.7275849566
 30
0.0
 10
14.5266150782
 20
12.7249549301
 30
0.0
 10
14.5272342665
 20
12.7225337711
 30
0.0
 10
14.5278757031
 20
12.7206849328
 30
0.0
 10
14.5284572763
 20
12.7193582645
 30
0.0
 10
14.5289082871
 20
12.7184739183
 30
0.0
 10
14.5293836002
 20
12.7176776351
 30
0.0
 10
14.5297277318
 20
12.717190251
 30
0.0
 10
14.5299038906
 20
12.7169638666
 30
0.0
  0
SPLINE
  5
2C9
100
AcDbEntity
  8
LAYER_FEATURE
100
AcDbSpline
 62
7
  6
CONTINUOUS
 70
0
 71
3
 72
15
 73
11
 74
0
 42
0.0000001
 43
0.0000001
 44
0.0000000001
 40
0.0
 40
0.0
 40
0.0
 40
0.0
 40
0.1497452242
 40
0.2939548085
 40
0.4317176684
 40
0.5622128046
 40
0.6847413886
 40
0.7987528863
 40
0.9038810229
 40
1.0
 40
1.0
 40
1.0
 40
1.0
 10
14.5664439465
 20
12.6435473211
 30
0.0
 10
14.5660479759
 20
12.6461279576
 30
0.0
 10
14.5651706838
 20
12.6511792178
 30
0.0
 10
14.5635660052
 20
12.6585357068
 30
0.0
 10
14.5617078177
 20
12.6654859129
 30
0.0
 10
14.5596116106
 20
12.6719724003
 30
0.0
 10
14.5572948299
 20
12.6779418877
 30
0.0
 10
14.5547762477
 20
12.6833460187
 30
0.0
 10
14.5520766103
 20
12.6881405446
 30
0.0
 10
14.5500803397
 20
12.6910347866
 30
0.0
 10
14.5490511666
 20
12.6923573936
 30
0.0
  0
SPLINE
  5
2CA
100
AcDbEntity
  8
LAYER_FEATURE
100
AcDbSpline
 62
7
  6
CONTINUOUS
 70
0
 71
3
 72
18
 73
14
 74
0
 42
0.0000001
 43
0.0000001
 44
0.0000000001
 40
0.0
 40
0.0
 40
0.0
 40
0.0
 40
0.0910561292
 40
0.1401198151
 40
0.1916448808
 40
0.2456843924
 40
0.3022641559
 40
0.3613872471
 40
0.4230364079
 40
0.553737459
 40
0.6939321126
 40
0.8429580204
 40
1.0
 40
1.0
 40
1.0
 40
1.0
 10
14.5442813749
 20
12.5428583161
 30
0.0
 10
14.545382491
 20
12.5437345742
 30
0.0
 10
14.5469678004
 20
12.5452238302
 30
0.0
 10
14.5489269732
 20
12.5474459921
 30
0.0
 10
14.5504008959
 20
12.5493288897
 30
0.0
 10
14.5518393423
 20
12.5513819811
 30
0.0
 10
14.5532396397
 20
12.5536013806
 30
0.0
 10
14.5545989254
 20
12.5559824139
 30
0.0
 10
14.5563877732
 20
12.5594336423
 30
0.0
 10
14.5584914295
 20
12.5641277333
 30
0.0
 10
14.5607630071
 20
12.5702107841
 30
0.0
 10
14.5628101831
 20
12.5768000166
 30
0.0
 10
14.5639857076
 20
12.5813839024
 30
0.0
 10
14.5645360299
 20
12.5837476901
 30
0.0
  0
SPLINE
  5
2CB
100
AcDbEntity
  8
LAYER_FEATURE
100
AcDbSpline
 62
7
  6
CONTINUOUS
 70
0
 71
3
 72
18
 73
14
 74
0
 42
0.0000001
 43
0.0000001
 44
0.0000000001
 40
0.0
 40
0.0
 40
0.0
 40
0.0
 40
0.0392232437
 40
0.0817555041
 40
0.1277775369
 40
0.1773841064
 40
0.2305738201
 40
0.2872734693
 40
0.4105968515
 40
0.5458273833
 40
0.6908476493
 40
0.8431530628
 40
1.0
 40
1.0
 40
1.0
 40
1.0
 10
14.5238297625
 20
12.5265831107
 30
0.0
 10
14.5236413857
 20
12.5264332022
 30
0.0
 10
14.5232692666
 20
12.5260944639
 30
0.0
 10
14.522749017
 20
12.525505997
 30
0.0
 10
14.5222476449
 20
12.5248207694
 30
0.0
 10
14.5217677532
 20
12.5240426239
 30
0.0
 10
14.5213116518
 20
12.5231756431
 30
0.0
 10
14.5207220748
 20
12.5218705114
 30
0.0
 10
14.5200697772
 20
12.5200452726
 30
0.0
 10
14.5194367856
 20
12.5176480428
 30
0.0
 10
14.5189470314
 20
12.5150364758
 30
0.0
 10
14.5186113928
 20
12.5122674168
 30
0.0
 10
14.518496396
 20
12.5103720853
 30
0.0
 10
14.5184656965
 20
12.5094098756
 30
0.0
  0
SPLINE
  5
2CC
100
AcDbEntity
  8
LAYER_FEATURE
100
AcDbSpline
 62
7
  6
CONTINUOUS
 70
0
 71
3
 72
52
 73
48
 74
0
 42
0.0000001
 43
0.0000001
 44
0.0000000001
 40
0.0
 40
0.0
 40
0.0
 40
0.0
 40
0.0428821681
 40
0.0856748119
 40
0.1282911136
 40
0.1706443037
 40
0.2126488
 40
0.2542202056
 40
0.2952757048
 40
0.3357343806
 40
0.3755175539
 40
0.414549138
 40
0.4527560111
 40
0.4900684161
 40
0.5264203841
 40
0.5617501948
 40
0.5960008884
 40
0.6291208389
 40
0.6610644121
 40
0.6917927129
 40
0.706691767
 40
0.7212759653
 40
0.7355427643
 40
0.7494902386
 40
0.7631171061
 40
0.7764228169
 40
0.7894075575
 40
0.802072344
 40
0.8144190724
 40
0.8264505683
 40
0.8381706991
 40
0.8495844042
 40
0.8606978136
 40
0.8715183196
 40
0.8820546503
 40
0.8923169933
 40
0.9023170371
 40
0.9120680829
 40
0.930878946
 40
0.939979653
 40
0.9489015479
 40
0.9576664455
 40
0.9662977369
 40
0.974820236
 40
0.9832599905
 40
0.9916440143
 40
1.0
 40
1.0
 40
1.0
 40
1.0
 10
14.5184656965
 20
12.5094098756
 30
0.0
 10
14.5184745769
 20
12.4869180961
 30
0.0
 10
14.5189211783
 20
12.4419804745
 30
0.0
 10
14.5208768316
 20
12.3747160334
 30
0.0
 10
14.5241132339
 20
12.3077785066
 30
0.0
 10
14.5286226157
 20
12.2413289923
 30
0.0
 10
14.5343940845
 20
12.1755271948
 30
0.0
 10
14.5414137346
 20
12.1105312506
 30
0.0
 10
14.549664633
 20
12.0464973374
 30
0.0
 10
14.5591268836
 20
11.9835792991
 30
0.0
 10
14.569777675
 20
11.9219282683
 30
0.0
 10
14.5815913372
 20
11.861692299
 30
0.0
 10
14.5945394088
 20
11.8030160018
 30
0.0
 10
14.6085906975
 20
11.746040182
 30
0.0
 10
14.6237113715
 20
11.6909014985
 30
0.0
 10
14.6398650583
 20
11.6377321061
 30
0.0
 10
14.6570129248
 20
11.5866594007
 30
0.0
 10
14.6751138691
 20
11.5378054257
 30
0.0
 10
14.6941243699
 20
11.4912875167
 30
0.0
 10
14.7108544606
 20
11.4541888535
 30
0.0
 10
14.7246765854
 20
11.4257912046
 30
0.0
 10
14.7351349516
 20
11.4053641637
 30
0.0
 10
14.7457852083
 20
11.3856016493
 30
0.0
 10
14.7566210328
 20
11.3665154442
 30
0.0
 10
14.7676359687
 20
11.3481170226
 30
0.0
 10
14.7788233942
 20
11.3304173824
 30
0.0
 10
14.7901766717
 20
11.3134271475
 30
0.0
 10
14.8016890268
 20
11.2971564904
 30
0.0
 10
14.813353596
 20
11.2816151476
 30
0.0
 10
14.8251634967
 20
11.2668124609
 30
0.0
 10
14.8371116831
 20
11.2527572722
 30
0.0
 10
14.8491911291
 20
11.2394580471
 30
0.0
 10
14.8613946985
 20
11.2269227706
 30
0.0
 10
14.8737151743
 20
11.2151589936
 30
0.0
 10
14.8861454172
 20
11.2041738405
 30
0.0
 10
14.8986778654
 20
11.1939740646
 30
0.0
 10
14.911305997
 20
11.1845655247
 30
0.0
 10
14.928056646
 20
11.1732215503
 30
0.0
 10
14.9451834372
 20
11.1632997517
 30
0.0
 10
14.9626173535
 20
11.1549582345
 30
0.0
 10
14.9756079777
 20
11.1495862637
 30
0.0
 10
14.9886476996
 20
11.1450344673
 30
0.0
 10
15.0017289743
 20
11.1413057189
 30
0.0
 10
15.0148435688
 20
11.1384027942
 30
0.0
 10
15.027983465
 20
11.1363276968
 30
0.0
 10
15.0411396624
 20
11.1350820426
 30
0.0
 10
15.0499223292
 20
11.134804996
 30
0.0
 10
15.0543050601
 20
11.1348050008
 30
0.0
  0
SPLINE
  5
2CD
100
AcDbEntity
  8
LAYER_FEATURE
100
AcDbSpline
 62
7
  6
CONTINUOUS
 70
0
 71
3
 72
15
 73
11
 74
0
 42
0.0000001
 43
0.0000001
 44
0.0000000001
 40
0.0
 40
0.0
 40
0.0
 40
0.0
 40
0.1126204601
 40
0.233296856
 40
0.3599530997
 40
0.4902911285
 40
0.6218950407
 40
0.7523079002
 40
0.8791063589
 40
1.0
 40
1.0
 40
1.0
 40
1.0
 10
14.6635391682
 20
13.4523161149
 30
0.0
 10
14.6632934086
 20
13.4515208365
 30
0.0
 10
14.6628572742
 20
13.449850367
 30
0.0
 10
14.6623728038
 20
13.4472325122
 30
0.0
 10
14.6620427367
 20
13.44445886
 30
0.0
 10
14.6618745681
 20
13.4415900002
 30
0.0
 10
14.661872055
 20
13.4386884908
 30
0.0
 10
14.6620352734
 20
13.4358176937
 30
0.0
 10
14.6623604919
 20
13.4330404265
 30
0.0
 10
14.6626902549
 20
13.4312379206
 30
0.0
 10
14.6628837384
 20
13.4303655873
 30
0.0
  0
SPLINE
  5
2CE
100
AcDbEntity
  8
LAYER_FEATURE
100
AcDbSpline
 62
7
  6
CONTINUOUS
 70
0
 71
3
 72
15
 73
11
 74
0
 42
0.0000001
 43
0.0000001
 44
0.0000000001
 40
0.0
 40
0.0
 40
0.0
 40
0.0
 40
0.127054225
 40
0.2553208736
 40
0.3838964072
 40
0.5118681719
 40
0.6383329915
 40
0.7624062911
 40
0.8832317214
 40
1.0
 40
1.0
 40
1.0
 40
1.0
 10
14.6773820709
 20
13.3171914747
 30
0.0
 10
14.6776165621
 20
13.3199661282
 30
0.0
 10
14.6779840757
 20
13.3255511799
 30
0.0
 10
14.6782344414
 20
13.3339626914
 30
0.0
 10
14.6781857701
 20
13.3423980045
 30
0.0
 10
14.6778384369
 20
13.3507867774
 30
0.0
 10
14.6771953787
 20
13.3590591688
 30
0.0
 10
14.6762619948
 20
13.3671463652
 30
0.0
 10
14.6750462007
 20
13.3749809492
 30
0.0
 10
14.6740346697
 20
13.3800908703
 30
0.0
 10
14.6734805249
 20
13.3825892691
 30
0.0
  0
SPLINE
  5
2CF
100
AcDbEntity
  8
LAYER_FEATURE
100
AcDbSpline
 62
7
  6
CONTINUOUS
 70
0
 71
3
 72
39
 73
35
 74
0
 42
0.0000001
 43
0.0000001
 44
0.0000000001
 40
0.0
 40
0.0
 40
0.0
 40
0.0
 40
0.0443812481
 40
0.0879669295
 40
0.1307335086
 40
0.172661876
 40
0.2137331571
 40
0.2539301992
 40
0.2932376968
 40
0.3316421073
 40
0.369131911
 40
0.4056977099
 40
0.4413323968
 40
0.4760313903
 40
0.5097927974
 40
0.5426176342
 40
0.5745101269
 40
0.6054779669
 40
0.6355325892
 40
0.664689538
 40
0.6929688298
 40
0.7203952869
 40
0.7469989387
 40
0.7728154376
 40
0.7978863828
 40
0.8222596394
 40
0.8459896168
 40
0.869137373
 40
0.8917705712
 40
0.9139632708
 40
0.935795451
 40
0.9573522592
 40
0.9787230199
 40
1.0
 40
1.0
 40
1.0
 40
1.0
 10
14.5564615274
 20
13.4626452568
 30
0.0
 10
14.5599060981
 20
13.4737918918
 30
0.0
 10
14.5669119858
 20
13.4958307075
 30
0.0
 10
14.5778748254
 20
13.5284035474
 30
0.0
 10
14.5891899389
 20
13.5601722329
 30
0.0
 10
14.6008482141
 20
13.5911113259
 30
0.0
 10
14.6128405393
 20
13.6211966369
 30
0.0
 10
14.6251574205
 20
13.650404376
 30
0.0
 10
14.6377891422
 20
13.6787114983
 30
0.0
 10
14.6507257623
 20
13.7060956915
 30
0.0
 10
14.6639570708
 20
13.7325353796
 30
0.0
 10
14.6774726605
 20
13.7580097305
 30
0.0
 10
14.6912619284
 20
13.7824986722
 30
0.0
 10
14.7053140331
 20
13.8059829383
 30
0.0
 10
14.7196179615
 20
13.8284440525
 30
0.0
 10
14.7341625494
 20
13.849864329
 30
0.0
 10
14.7489364382
 20
13.8702269243
 30
0.0
 10
14.7639281189
 20
13.8895158286
 30
0.0
 10
14.7791259735
 20
13.9077158418
 30
0.0
 10
14.7945182487
 20
13.9248126103
 30
0.0
 10
14.8100930561
 20
13.9407926427
 30
0.0
 10
14.8258384302
 20
13.9556432567
 30
0.0
 10
14.8417423174
 20
13.9693525823
 30
0.0
 10
14.8577925291
 20
13.9819096112
 30
0.0
 10
14.8739767915
 20
13.9933041226
 30
0.0
 10
14.8902827288
 20
14.0035266568
 30
0.0
 10
14.9066977837
 20
14.0125685928
 30
0.0
 10
14.9232092234
 20
14.0204221091
 30
0.0
 10
14.9398040992
 20
14.0270801583
 30
0.0
 10
14.9564692098
 20
14.0325365806
 30
0.0
 10
14.9731909388
 20
14.036786182
 30
0.0
 10
14.9899557809
 20
14.0398247394
 30
0.0
 10
15.0067484768
 20
14.0416491164
 30
0.0
 10
15.017963696
 20
14.0420549898
 30
0.0
 10
15.0235568856
 20
14.0420549843
 30
0.0
  0
ENDSEC
  0
SECTION
  2
OBJECTS
  0
DICTIONARY
  5
C
100
AcDbDictionary
280
0
281
1
  3
ACAD_GROUP
350
D
  3
ACAD_MLINESTYLE
350
17
  3
ACAD_LAYOUT
350
1A
  3
ACAD_PLOTSETTINGS
350
19
  3
ACAD_PLOTSTYLENAME
350
E
  0
DICTIONARY
  5
D
102
{ACAD_REACTORS
330
C
102
}
100
AcDbDictionary
280
0
281
1
  0
ACDBDICTIONARYWDFLT
  5
E
102
{ACAD_REACTORS
330
C
102
}
100
AcDbDictionary
281
1
  3
Normal
350
F
100
AcDbDictionaryWithDefault
340
F
  0
DICTIONARY
  5
17
102
{ACAD_REACTORS
330
C
102
}
100
AcDbDictionary
280
0
281
1
  3
Standard
350
18
  0
DICTIONARY
  5
19
102
{ACAD_REACTORS
330
C
102
}
100
AcDbDictionary
281
1
  0
DICTIONARY
  5
1A
102
{ACAD_REACTORS
330
C
102
}
100
AcDbDictionary
281
1
  3
Model
350
2D0
  3
Layout1
350
2D1
  0
ACDBPLACEHOLDER
  5
F
102
{ACAD_REACTORS
330
E
102
}
  0
MLINESTYLE
  5
18
102
{ACAD_REACTORS
330
17
102
}
100
AcDbMlineStyle
  2
STANDARD
 70
0
  3

 62
256
 51
90.0
 52
90.0
 71
2
 49
0.5
 62
256
  6
BYLAYER
 49
-0.5
 62
256
  6
BYLAYER
  0
LAYOUT
  5
2D0
102
{ACAD_REACTORS
330
1A
102
}
100
AcDbPlotSettings
  1

  2
none_device
  4
ANSI_C_(22.00_x_17.00_Inches)
  6

 40
0.0
 41
0.0
 42
0.0
 43
0.0
 44
558.8
 45
431.8
 46
0.0
 47
0.0
 48
0.0
 49
0.0
140
0.0
141
0.0
142
1.0
143
1.0
 70
1024
 72
0
 73
0
 74
0
  7

 75
0
147
1.0
148
0.0
149
0.0
100
AcDbLayout
  1
Model
 70
0
 71
0
 10
0.0
 20
0.0
 11
22.0
 21
17.0
 12
0.0
 22
0.0
 32
0.0
 14
0.0
 24
0.0
 34
0.0
 15
0.0
 25
0.0
 35
0.0
146
0.0
 13
0.0
 23
0.0
 33
0.0
 16
1.0
 26
0.0
 36
0.0
 17
0.0
 27
1.0
 37
0.0
 76
0
330
222
345
0
346
0
  0
LAYOUT
  5
2D1
102
{ACAD_REACTORS
330
1A
102
}
100
AcDbPlotSettings
  1

  2
none_device
  4
ANSI_C_(22.00_x_17.00_Inches)
  6

 40
0.0
 41
0.0
 42
0.0
 43
0.0
 44
558.8
 45
431.8
 46
0.0
 47
0.0
 48
0.0
 49
0.0
140
0.0
141
0.0
142
1.0
143
1.0
 70
0
 72
0
 73
0
 74
0
  7

 75
0
147
1.0
148
0.0
149
0.0
100
AcDbLayout
  1
Layout1
 70
0
 71
1
 10
0.0
 20
0.0
 11
22.0
 21
17.0
 12
0.0
 22
0.0
 32
0.0
 14
0.0
 24
0.0
 34
0.0
 15
0.0
 25
0.0
 35
0.0
146
0.0
 13
0.0
 23
0.0
 33
0.0
 16
1.0
 26
0.0
 36
0.0
 17
0.0
 27
1.0
 37
0.0
 76
0
330
223
345
0
346
0
  0
ENDSEC
  0
EOF