999
DXF file: _cgs_temp_output.dxf
999
Pro/ENGINEER 2016360 by Parametric Technology Corporation
  0
SECTION
  2
HEADER
  9
$ACADVER
  1
AC1021
  9
$DWGCODEPAGE
  3
ANSI_1252
  9
$EXTMAX
 10
22.0
 20
17.0
 30
0.0
  9
$EXTMIN
 10
0.0
 20
0.0
 30
0.0
  9
$LIMMIN
 10
0.0
 20
0.0
  9
$LIMMAX
 10
22.0
 20
17.0
  9
$VIEWCTR
 10
11.0
 20
8.5
  9
$VIEWSIZE
 40
17.0
  9
$CLAYER
  8
0
  9
$LTSCALE
 40
1.21
  9
$CELTYPE
  6
BYLAYER
  9
$DIMSCALE
 40
1.0
  9
$DIMASZ
 40
0.1875
  9
$DIMEXO
 40
0.0625
  9
$DIMDLI
 40
0.836
  9
$DIMEXE
 40
0.125
  9
$DIMCEN
 40
0.198
  9
$DIMLFAC
 40
1.0
  9
$DIMBLK
  1
_CLOSED
  9
$DIMALT
 70
0
  9
$DIMALTF
 40
25.4
  9
$DIMTXT
 40
0.15625
  9
$DIMTOL
 70
0
  9
$DIMLIM
 70
0
  9
$DIMTFAC
 40
1.0
  9
$DIMGAP
 40
0.09
  9
$DIMDSEP
 70
46
  9
$AUNITS
 70
0
  9
$PDMODE
 70
3
  9
$PDSIZE
 40
0.3125
  9
$HANDSEED
  5
35E
  9
$TILEMODE
 70
1
  9
$MEASUREMENT
 70
0
  9
$INSUNITS
 70
1
  0
ENDSEC
  0
SECTION
  2
CLASSES
  0
CLASS
  1
ACDBDICTIONARYWDFLT
  2
AcDbDictionaryWithDefault
  3
AutoCAD 2000
 90
0
 91
1
280
0
281
0
  0
CLASS
  1
ACDBPLACEHOLDER
  2
AcDbPlaceHolder
  3
AutoCAD 2000
 90
0
 91
1
280
0
281
0
  0
CLASS
  1
LAYOUT
  2
AcDbLayout
  3
AutoCAD 2000
 90
0
 91
0
280
0
281
0
  0
ENDSEC
  0
SECTION
  2
TABLES
  0
TABLE
  2
VPORT
  5
8
100
AcDbSymbolTable
 70
2
  0
VPORT
  5
1F4
100
AcDbSymbolTableRecord
100
AcDbViewportTableRecord
  2
*ACTIVE
 70
0
 10
0.0
 20
0.0
 11
1.0
 21
1.0
 12
11.0
 22
8.5
 13
0.0
 23
0.0
 14
1.0
 24
1.0
 15
0.0
 25
0.0
 16
0.0
 26
0.0
 36
1.0
 17
0.0
 27
0.0
 37
0.0
 40
17.0
 41
1.2941176471
 42
50.0
 43
0.0
 44
0.0
 50
0.0
 51
0.0
 71
0
 72
100
 73
1
 74
1
 75
0
 76
0
 77
0
 78
0
  0
ENDTAB
  0
TABLE
  2
LTYPE
  5
5
100
AcDbSymbolTable
 70
6
  0
LTYPE
  5
14
100
AcDbSymbolTableRecord
100
AcDbLinetypeTableRecord
  2
BYBLOCK
 70
0
  3

 72
65
 73
0
 40
0.0
  0
LTYPE
  5
15
100
AcDbSymbolTableRecord
100
AcDbLinetypeTableRecord
  2
BYLAYER
 70
0
  3

 72
65
 73
0
 40
0.0
  0
LTYPE
  5
16
100
AcDbSymbolTableRecord
100
AcDbLinetypeTableRecord
  2
CONTINUOUS
 70
64
  3
Solid line
 72
65
 73
0
 40
0.0
  0
LTYPE
  5
1F5
100
AcDbSymbolTableRecord
100
AcDbLinetypeTableRecord
  2
CENTER
 70
64
  3
____ _ ____ _ ____ _ ____ _ ____ _ ____ _ ____
 72
65
 73
4
 40
0.6
 49
0.375
 74
0
 49
-0.075
 74
0
 49
0.075
 74
0
 49
-0.075
 74
0
  0
LTYPE
  5
1F6
100
AcDbSymbolTableRecord
100
AcDbLinetypeTableRecord
  2
HIDDEN
 70
64
  3
- - - - - - - - - - - - - - - - - - - -
 72
65
 73
2
 40
0.2
 49
0.1
 74
0
 49
-0.1
 74
0
  0
LTYPE
  5
1F7
100
AcDbSymbolTableRecord
100
AcDbLinetypeTableRecord
  2
PHANTOM
 70
64
  3
_____ _ _ _____ _ _ _____ _ _ _____
 72
65
 73
6
 40
0.8
 49
0.45
 74
0
 49
-0.05
 74
0
 49
0.1
 74
0
 49
-0.05
 74
0
 49
0.1
 74
0
 49
-0.05
 74
0
  0
LTYPE
  5
1F8
100
AcDbSymbolTableRecord
100
AcDbLinetypeTableRecord
  2
DOT
 70
64
  3
. . . . . . . . . . . . . . . . . . . .
 72
65
 73
2
 40
0.2
 49
0.1
 74
0
 49
-0.1
 74
0
  0
LTYPE
  5
1F9
100
AcDbSymbolTableRecord
100
AcDbLinetypeTableRecord
  2
DASHED
 70
64
  3
- - - - - - - - - - - - - - - - - - - -
 72
65
 73
2
 40
0.2
 49
0.1
 74
0
 49
-0.1
 74
0
  0
ENDTAB
  0
TABLE
  2
LAYER
  5
2
100
AcDbSymbolTable
 70
36
  0
LAYER
  5
10
100
AcDbSymbolTableRecord
100
AcDbLayerTableRecord
  2
0
 70
0
 62
7
  6
CONTINUOUS
370
-3
390
F
  0
LAYER
  5
1FA
100
AcDbSymbolTableRecord
100
AcDbLayerTableRecord
  2
DEFAULT_1
 70
0
 62
7
  6
CENTER
370
-3
390
F
  0
LAYER
  5
1FB
100
AcDbSymbolTableRecord
100
AcDbLayerTableRecord
  2
DEFAULT_2
 70
0
 62
8
  6
HIDDEN
370
-3
390
F
  0
LAYER
  5
1FC
100
AcDbSymbolTableRecord
100
AcDbLayerTableRecord
  2
DEFAULT_3
 70
0
 62
7
  6
PHANTOM
370
-3
390
F
  0
LAYER
  5
1FD
100
AcDbSymbolTableRecord
100
AcDbLayerTableRecord
  2
01_ALL_DTM_PLN
 70
0
 62
7
  6
CONTINUOUS
370
-3
390
F
  0
LAYER
  5
1FE
100
AcDbSymbolTableRecord
100
AcDbLayerTableRecord
  2
01__ASM_ALL_DTM_PLN
 70
0
 62
7
  6
CONTINUOUS
370
-3
390
F
  0
LAYER
  5
1FF
100
AcDbSymbolTableRecord
100
AcDbLayerTableRecord
  2
01__ASM_DEF_DTM_PLN
 70
0
 62
7
  6
CONTINUOUS
370
-3
390
F
  0
LAYER
  5
200
100
AcDbSymbolTableRecord
100
AcDbLayerTableRecord
  2
01___PRT_ALL_DTM_PLN
 70
0
 62
7
  6
CONTINUOUS
370
-3
390
F
  0
LAYER
  5
201
100
AcDbSymbolTableRecord
100
AcDbLayerTableRecord
  2
01___PRT_DEF_DTM_PLN
 70
0
 62
7
  6
CONTINUOUS
370
-3
390
F
  0
LAYER
  5
202
100
AcDbSymbolTableRecord
100
AcDbLayerTableRecord
  2
02_ALL_AXES
 70
0
 62
7
  6
CONTINUOUS
370
-3
390
F
  0
LAYER
  5
203
100
AcDbSymbolTableRecord
100
AcDbLayerTableRecord
  2
02__ASM_ALL_AXES
 70
0
 62
7
  6
CONTINUOUS
370
-3
390
F
  0
LAYER
  5
204
100
AcDbSymbolTableRecord
100
AcDbLayerTableRecord
  2
02___PRT_ALL_AXES
 70
0
 62
7
  6
CONTINUOUS
370
-3
390
F
  0
LAYER
  5
205
100
AcDbSymbolTableRecord
100
AcDbLayerTableRecord
  2
03_ALL_CURVES
 70
0
 62
7
  6
CONTINUOUS
370
-3
390
F
  0
LAYER
  5
206
100
AcDbSymbolTableRecord
100
AcDbLayerTableRecord
  2
03__ASM_ALL_CURVES
 70
0
 62
7
  6
CONTINUOUS
370
-3
390
F
  0
LAYER
  5
207
100
AcDbSymbolTableRecord
100
AcDbLayerTableRecord
  2
03___PRT_ALL_CURVES
 70
0
 62
7
  6
CONTINUOUS
370
-3
390
F
  0
LAYER
  5
208
100
AcDbSymbolTableRecord
100
AcDbLayerTableRecord
  2
04_ALL_DTM_PNT
 70
0
 62
7
  6
CONTINUOUS
370
-3
390
F
  0
LAYER
  5
209
100
AcDbSymbolTableRecord
100
AcDbLayerTableRecord
  2
04__ASM_ALL_DTM_PNT
 70
0
 62
7
  6
CONTINUOUS
370
-3
390
F
  0
LAYER
  5
20A
100
AcDbSymbolTableRecord
100
AcDbLayerTableRecord
  2
04___PRT_ALL_DTM_PNT
 70
0
 62
7
  6
CONTINUOUS
370
-3
390
F
  0
LAYER
  5
20B
100
AcDbSymbolTableRecord
100
AcDbLayerTableRecord
  2
05_ALL_DTM_CSYS
 70
0
 62
7
  6
CONTINUOUS
370
-3
390
F
  0
LAYER
  5
20C
100
AcDbSymbolTableRecord
100
AcDbLayerTableRecord
  2
05__ASM_ALL_DTM_CSYS
 70
0
 62
7
  6
CONTINUOUS
370
-3
390
F
  0
LAYER
  5
20D
100
AcDbSymbolTableRecord
100
AcDbLayerTableRecord
  2
05__ASM_DEF_DTM_CSYS
 70
0
 62
7
  6
CONTINUOUS
370
-3
390
F
  0
LAYER
  5
20E
100
AcDbSymbolTableRecord
100
AcDbLayerTableRecord
  2
05___PRT_ALL_DTM_CSYS
 70
0
 62
7
  6
CONTINUOUS
370
-3
390
F
  0
LAYER
  5
20F
100
AcDbSymbolTableRecord
100
AcDbLayerTableRecord
  2
05___PRT_DEF_DTM_CSYS
 70
0
 62
7
  6
CONTINUOUS
370
-3
390
F
  0
LAYER
  5
210
100
AcDbSymbolTableRecord
100
AcDbLayerTableRecord
  2
06_ALL_SURFS
 70
0
 62
7
  6
CONTINUOUS
370
-3
390
F
  0
LAYER
  5
211
100
AcDbSymbolTableRecord
100
AcDbLayerTableRecord
  2
06__ASM_ALL_SURFS
 70
0
 62
7
  6
CONTINUOUS
370
-3
390
F
  0
LAYER
  5
212
100
AcDbSymbolTableRecord
100
AcDbLayerTableRecord
  2
06___PRT_ALL_SURFS
 70
0
 62
7
  6
CONTINUOUS
370
-3
390
F
  0
LAYER
  5
213
100
AcDbSymbolTableRecord
100
AcDbLayerTableRecord
  2
07__ASM_ALL_SKELETONS
 70
0
 62
7
  6
CONTINUOUS
370
-3
390
F
  0
LAYER
  5
214
100
AcDbSymbolTableRecord
100
AcDbLayerTableRecord
  2
COLOR2
 70
0
 62
7
  6
CONTINUOUS
370
-3
390
F
  0
LAYER
  5
215
100
AcDbSymbolTableRecord
100
AcDbLayerTableRecord
  2
NONE
 70
0
 62
7
  6
CONTINUOUS
370
-3
390
F
  0
LAYER
  5
216
100
AcDbSymbolTableRecord
100
AcDbLayerTableRecord
  2
NONE_1
 70
0
 62
7
  6
CONTINUOUS
370
-3
390
F
  0
LAYER
  5
217
100
AcDbSymbolTableRecord
100
AcDbLayerTableRecord
  2
NONE_2
 70
0
 62
7
  6
CONTINUOUS
370
-3
390
F
  0
LAYER
  5
218
100
AcDbSymbolTableRecord
100
AcDbLayerTableRecord
  2
NONE_3
 70
0
 62
7
  6
CONTINUOUS
370
-3
390
F
  0
LAYER
  5
219
100
AcDbSymbolTableRecord
100
AcDbLayerTableRecord
  2
NONE_4
 70
0
 62
7
  6
CONTINUOUS
370
-3
390
F
  0
LAYER
  5
21A
100
AcDbSymbolTableRecord
100
AcDbLayerTableRecord
  2
NONE_5
 70
0
 62
7
  6
CONTINUOUS
370
-3
390
F
  0
LAYER
  5
21B
100
AcDbSymbolTableRecord
100
AcDbLayerTableRecord
  2
REXNORD-STANDARD_DUTY_BALL_BEAR
 70
0
 62
7
  6
CONTINUOUS
370
-3
390
F
  0
LAYER
  5
21C
100
AcDbSymbolTableRecord
100
AcDbLayerTableRecord
  2
_3324
 70
0
 62
7
  6
CONTINUOUS
370
-3
390
F
  0
LAYER
  5
21D
100
AcDbSymbolTableRecord
100
AcDbLayerTableRecord
  2
_3324_1
 70
0
 62
7
  6
CONTINUOUS
370
-3
390
F
  0
LAYER
  5
21E
100
AcDbSymbolTableRecord
100
AcDbLayerTableRecord
  2
_4081
 70
0
 62
7
  6
CONTINUOUS
370
-3
390
F
  0
LAYER
  5
21F
100
AcDbSymbolTableRecord
100
AcDbLayerTableRecord
  2
_4081_1
 70
0
 62
7
  6
CONTINUOUS
370
-3
390
F
  0
LAYER
  5
220
100
AcDbSymbolTableRecord
100
AcDbLayerTableRecord
  2
_6543
 70
0
 62
7
  6
CONTINUOUS
370
-3
390
F
  0
LAYER
  5
221
100
AcDbSymbolTableRecord
100
AcDbLayerTableRecord
  2
_6543_1
 70
0
 62
7
  6
CONTINUOUS
370
-3
390
F
  0
LAYER
  5
222
100
AcDbSymbolTableRecord
100
AcDbLayerTableRecord
  2
_798
 70
0
 62
7
  6
CONTINUOUS
370
-3
390
F
  0
LAYER
  5
223
100
AcDbSymbolTableRecord
100
AcDbLayerTableRecord
  2
_798_1
 70
0
 62
7
  6
CONTINUOUS
370
-3
390
F
  0
LAYER
  5
224
100
AcDbSymbolTableRecord
100
AcDbLayerTableRecord
  2
_8964
 70
0
 62
7
  6
CONTINUOUS
370
-3
390
F
  0
LAYER
  5
225
100
AcDbSymbolTableRecord
100
AcDbLayerTableRecord
  2
_8964_1
 70
0
 62
7
  6
CONTINUOUS
370
-3
390
F
  0
LAYER
  5
226
100
AcDbSymbolTableRecord
100
AcDbLayerTableRecord
  2
_9227
 70
0
 62
7
  6
CONTINUOUS
370
-3
390
F
  0
LAYER
  5
227
100
AcDbSymbolTableRecord
100
AcDbLayerTableRecord
  2
_960
 70
0
 62
7
  6
CONTINUOUS
370
-3
390
F
  0
LAYER
  5
228
100
AcDbSymbolTableRecord
100
AcDbLayerTableRecord
  2
_960_1
 70
0
 62
7
  6
CONTINUOUS
370
-3
390
F
  0
LAYER
  5
229
100
AcDbSymbolTableRecord
100
AcDbLayerTableRecord
  2
___SHELL
 70
0
 62
7
  6
CONTINUOUS
370
-3
390
F
  0
ENDTAB
  0
TABLE
  2
STYLE
  5
3
100
AcDbSymbolTable
 70
1
  0
STYLE
  5
11
100
AcDbSymbolTableRecord
100
AcDbTextStyleTableRecord
  2
STANDARD
 70
0
 40
0.0
 41
0.8
 50
0.0
 71
0
 42
0.2
  3
txt
  4

  0
STYLE
  5
22A
100
AcDbSymbolTableRecord
100
AcDbTextStyleTableRecord
  2
TEXTSTYLE_1
 70
0
 40
0.0
 41
0.8
 50
0.0
 71
0
 42
0.2
  3
gdt
  4

  0
ENDTAB
  0
TABLE
  2
VIEW
  5
6
100
AcDbSymbolTable
 70
0
  0
ENDTAB
  0
TABLE
  2
UCS
  5
7
100
AcDbSymbolTable
 70
0
  0
ENDTAB
  0
TABLE
  2
APPID
  5
9
100
AcDbSymbolTable
 70
1
  0
APPID
  5
22B
100
AcDbSymbolTableRecord
100
AcDbRegAppTableRecord
  2
ACAD
 70
0
  0
ENDTAB
  0
TABLE
  2
BLOCK_RECORD
  5
1
100
AcDbSymbolTable
 70
0
  0
BLOCK_RECORD
  5
22C
100
AcDbSymbolTableRecord
100
AcDbBlockTableRecord
  2
*Model_Space
  0
BLOCK_RECORD
  5
22D
100
AcDbSymbolTableRecord
100
AcDbBlockTableRecord
  2
*Paper_Space
  0
BLOCK_RECORD
  5
22E
100
AcDbSymbolTableRecord
100
AcDbBlockTableRecord
  2
_NONE
  0
ENDTAB
  0
TABLE
  2
DIMSTYLE
  5
A
100
AcDbSymbolTable
 70
1
100
AcDbDimStyleTable
 71
0
  0
DIMSTYLE
105
22F
100
AcDbSymbolTableRecord
100
AcDbDimStyleTableRecord
  2
STANDARD
 70
0
  3

  4

 40
1.0
 41
0.1875
 42
0.0625
 43
0.38
 44
0.125
 45
0.0
 46
0.0
 47
0.0001
 48
0.0001
140
0.15625
141
0.09
142
0.0
143
25.4
144
1.0
145
0.0
146
1.0
147
0.09
 71
0.0
 72
0.0
 73
1
 74
1
 75
0
 76
0
 77
0
 78
4
 79
1
170
0
171
3
172
0
173
0
174
0
175
0
176
0
177
0
178
0
270
2
179
4
271
4
272
4
273
2
274
2
275
0
280
0
281
0
282
0
283
1
284
4
285
0
286
0
287
3
288
0
340
11
278
46
  0
ENDTAB
  0
ENDSEC
  0
SECTION
  2
BLOCKS
  0
BLOCK
  5
20
100
AcDbEntity
  8
0
100
AcDbBlockBegin
  2
*Model_Space
 70
0
 10
0.0
 20
0.0
 30
0.0
  3
*Model_Space
  1

  0
ENDBLK
  5
21
100
AcDbEntity
  8
0
100
AcDbBlockEnd
  0
BLOCK
  5
1C
100
AcDbEntity
  8
0
100
AcDbBlockBegin
  2
*Paper_Space
 70
0
 10
0.0
 20
0.0
 30
0.0
  3
*Paper_Space
  1

  0
ENDBLK
  5
1D
100
AcDbEntity
  8
0
100
AcDbBlockEnd
  0
BLOCK
  5
230
100
AcDbEntity
  8
0
100
AcDbBlockBegin
  2
_NONE
 70
64
 10
0.0
 20
0.0
  3
_NONE
  1

  0
ENDBLK
  5
231
100
AcDbEntity
  8
0
  6
BYBLOCK
 62
0
100
AcDbBlockEnd
  0
ENDSEC
  0
SECTION
  2
ENTITIES
  0
MTEXT
  5
232
100
AcDbEntity
  8
0
100
AcDbMText
 62
7
  6
CONTINUOUS
  7
STANDARD
 71
1
 72
1
 10
15.9560215477
 20
0.9479130325
 30
0.0
 11
1.0
 21
0.0
 31
0.0
 44
0.9
  1
SCALE: 1:1.000
 40
0.3
 41
3.36
  0
LEADER
  5
233
100
AcDbEntity
  8
0
100
AcDbLeader
 62
2
  6
CONTINUOUS
  3
STANDARD
 71
1
 72
0
 73
0
 75
0
 40
0.15625
 41
1.5
 76
3
 10
4.0053672762
 20
4.8482448968
 30
0.0
 10
10.753425556
 20
3.0293179925
 30
0.0
 10
11.003425556
 20
3.0293179925
 30
0.0
340
234
1001
ACAD
1000
DSTYLE
1002
{
1070
77
1070
0
1070
341
1005
22E
1002
}
  0
MTEXT
  5
234
102
{ACAD_REACTORS
330
233
102
}
100
AcDbEntity
  8
0
100
AcDbMText
 62
2
  6
CONTINUOUS
  7
STANDARD
 71
1
 72
1
 10
11.003425556
 20
3.1074429925
 30
0.0
 11
1.0
 21
0.0
 31
0.0
 44
0.9
  1
 0.375 BOLTS
 40
0.15625
 41
1.5
  0
LINE
  5
235
100
AcDbEntity
  8
0
100
AcDbLine
 62
7
  6
CONTINUOUS
 10
0.0
 20
0.0
 11
0.0
 21
17.0
  0
LINE
  5
236
100
AcDbEntity
  8
0
100
AcDbLine
 62
7
  6
CONTINUOUS
 10
0.0
 20
0.0
 11
22.0
 21
0.0
  0
LINE
  5
237
100
AcDbEntity
  8
0
100
AcDbLine
 62
7
  6
CONTINUOUS
 10
0.0
 20
17.0
 11
22.0
 21
17.0
  0
LINE
  5
238
100
AcDbEntity
  8
0
100
AcDbLine
 62
7
  6
CONTINUOUS
 10
22.0
 20
0.0
 11
22.0
 21
17.0
  0
LINE
  5
239
100
AcDbEntity
  8
0
100
AcDbLine
 62
7
  6
CONTINUOUS
 10
3.8178672762
 20
4.7982448968
 11
3.8178672762
 21
4.3482448968
  0
LINE
  5
23A
100
AcDbEntity
  8
0
100
AcDbLine
 62
7
  6
CONTINUOUS
 10
4.6616172762
 20
4.7982448968
 11
4.6616172762
 21
4.3482448968
  0
LINE
  5
23B
100
AcDbEntity
  8
0
100
AcDbLine
 62
7
  6
CONTINUOUS
 10
4.9426578612
 20
4.3482448968
 11
4.9426578612
 21
4.3682448968
  0
LINE
  5
23C
100
AcDbEntity
  8
0
100
AcDbLine
 62
7
  6
CONTINUOUS
 10
4.6616172762
 20
4.8482448968
 11
5.040018873
 21
5.9205233035
  0
LINE
  5
23D
100
AcDbEntity
  8
0
100
AcDbLine
 62
7
  6
CONTINUOUS
 10
3.8178672762
 20
4.3482448968
 11
4.9426578612
 21
4.3482448968
  0
LINE
  5
23E
100
AcDbEntity
  8
0
100
AcDbLine
 62
7
  6
CONTINUOUS
 10
7.3180766911
 20
4.3482448968
 11
8.4428672762
 21
4.3482448968
  0
LINE
  5
23F
100
AcDbEntity
  8
0
100
AcDbLine
 62
7
  6
CONTINUOUS
 10
7.3180769226
 20
4.3682448968
 11
4.9426576298
 21
4.3682448968
  0
LINE
  5
240
100
AcDbEntity
  8
0
100
AcDbLine
 62
7
  6
CONTINUOUS
 10
8.3928672762
 20
4.8482448968
 11
7.5299142553
 21
4.8482448968
  0
LINE
  5
241
100
AcDbEntity
  8
0
100
AcDbLine
 62
7
  6
CONTINUOUS
 10
3.8678672762
 20
4.8482448968
 11
4.730820297
 21
4.8482448968
  0
LINE
  5
242
100
AcDbEntity
  8
0
100
AcDbLine
 62
7
  6
CONTINUOUS
 10
6.8897082027
 20
6.5247254867
 11
6.8331396602
 21
6.4681569442
  0
LINE
  5
243
100
AcDbEntity
  8
0
100
AcDbLine
 62
7
  6
CONTINUOUS
 10
6.8595711443
 20
6.4417254601
 11
6.8524489129
 21
6.4346032288
  0
LINE
  5
244
100
AcDbEntity
  8
0
100
AcDbLine
 62
7
  6
CONTINUOUS
 10
6.8905495761
 20
6.4107470283
 11
6.9471181186
 21
6.4673155708
  0
LINE
  5
245
100
AcDbEntity
  8
0
100
AcDbLine
 62
7
  6
CONTINUOUS
 10
7.0619379503
 20
6.3524957391
 11
7.0053694078
 21
6.2959271967
  0
LINE
  5
246
100
AcDbEntity
  8
0
100
AcDbLine
 62
7
  6
CONTINUOUS
 10
7.0312376254
 20
6.2598385507
 11
7.0363478396
 21
6.2649487649
  0
LINE
  5
247
100
AcDbEntity
  8
0
100
AcDbLine
 62
7
  6
CONTINUOUS
 10
7.1193478661
 20
6.2950858233
 11
7.0627793236
 21
6.2385172808
  0
LINE
  5
248
100
AcDbEntity
  8
0
100
AcDbLine
 62
7
  6
CONTINUOUS
 10
7.3180766911
 20
4.3682448968
 11
7.3180766911
 21
4.3482448968
  0
LINE
  5
249
100
AcDbEntity
  8
0
100
AcDbLine
 62
7
  6
CONTINUOUS
 10
6.8331396602
 20
6.4681569442
 11
6.8905495761
 21
6.4107470283
  0
LINE
  5
24A
100
AcDbEntity
  8
0
100
AcDbLine
 62
7
  6
CONTINUOUS
 10
7.0053694078
 20
6.2959271967
 11
7.0627793236
 21
6.2385172808
  0
LINE
  5
24B
100
AcDbEntity
  8
0
100
AcDbLine
 62
7
  6
CONTINUOUS
 10
7.5991172762
 20
4.8482448968
 11
7.2207156793
 21
5.9205233035
  0
LINE
  5
24C
100
AcDbEntity
  8
0
100
AcDbLine
 62
7
  6
CONTINUOUS
 10
7.1193478661
 20
6.2950858233
 11
6.8897082027
 21
6.5247254867
  0
LINE
  5
24D
100
AcDbEntity
  8
0
100
AcDbLine
 62
7
  6
CONTINUOUS
 10
7.1741783952
 20
6.4099609217
 11
7.0045833011
 21
6.5795560158
  0
LINE
  5
24E
100
AcDbEntity
  8
0
100
AcDbLine
 62
7
  6
CONTINUOUS
 10
7.5991172762
 20
4.3482448968
 11
7.5991172762
 21
4.7982448968
  0
LINE
  5
24F
100
AcDbEntity
  8
0
100
AcDbLine
 62
7
  6
CONTINUOUS
 10
7.2122406514
 20
6.5751918651
 11
7.1698142445
 21
6.617618272
  0
LINE
  5
250
100
AcDbEntity
  8
0
100
AcDbLine
 62
7
  6
CONTINUOUS
 10
8.4428672762
 20
4.3482448968
 11
8.4428672762
 21
4.7982448968
  0
LINE
  5
251
100
AcDbEntity
  8
0
100
AcDbLine
 62
7
  6
CONTINUOUS
 10
3.7583720839
 20
12.2672352814
 11
3.7583720839
 21
13.4797352814
  0
LINE
  5
252
100
AcDbEntity
  8
0
100
AcDbLine
 62
7
  6
CONTINUOUS
 10
4.6021220839
 20
12.3051032596
 11
4.6021220839
 21
12.4544225702
  0
LINE
  5
253
100
AcDbEntity
  8
0
100
AcDbLine
 62
7
  6
CONTINUOUS
 10
4.6021220839
 20
13.2925479926
 11
4.6021220839
 21
13.4418673031
  0
LINE
  5
254
100
AcDbEntity
  8
0
100
AcDbLine
 62
7
  6
CONTINUOUS
 10
4.9146220839
 20
11.7953602814
 11
4.9146220839
 21
12.4359852814
  0
LINE
  5
255
100
AcDbEntity
  8
0
100
AcDbLine
 62
7
  6
CONTINUOUS
 10
5.5808720839
 20
13.3266102814
 11
5.5708720839
 21
13.3166102814
  0
LINE
  5
256
100
AcDbEntity
  8
0
100
AcDbLine
 62
7
  6
CONTINUOUS
 10
7.1021220839
 20
11.6703602814
 11
5.0396220839
 21
11.6703602814
  0
LINE
  5
257
100
AcDbEntity
  8
0
100
AcDbLine
 62
7
  6
CONTINUOUS
 10
4.6021220839
 20
12.2172352814
 11
4.8161987824
 21
12.4102539686
  0
LINE
  5
258
100
AcDbEntity
  8
0
100
AcDbLine
 62
7
  6
CONTINUOUS
 10
5.5708720839
 20
13.3109852814
 11
5.5708720839
 21
13.3166102814
  0
LINE
  5
259
100
AcDbEntity
  8
0
100
AcDbLine
 62
7
  6
CONTINUOUS
 10
8.3333720839
 20
12.2172352814
 11
7.5396220839
 21
12.2172352814
  0
LINE
  5
25A
100
AcDbEntity
  8
0
100
AcDbLine
 62
7
  6
CONTINUOUS
 10
3.8083720839
 20
12.2172352814
 11
4.6021220839
 21
12.2172352814
  0
LINE
  5
25B
100
AcDbEntity
  8
0
100
AcDbLine
 62
7
  6
CONTINUOUS
 10
4.8831624374
 20
12.4359852814
 11
7.2585819617
 21
12.4359852814
  0
LINE
  5
25C
100
AcDbEntity
  8
0
100
AcDbLine
 62
7
  6
CONTINUOUS
 10
4.8161989927
 20
13.3367164045
 11
4.6021220839
 21
13.5297352814
  0
LINE
  5
25D
100
AcDbEntity
  8
0
100
AcDbLine
 62
7
  6
CONTINUOUS
 10
8.0083720839
 20
12.6859852814
 11
7.6333720839
 21
12.6859852814
  0
LINE
  5
25E
100
AcDbEntity
  8
0
100
AcDbLine
 62
7
  6
CONTINUOUS
 10
4.5083720839
 20
12.6859852814
 11
4.1333720839
 21
12.6859852814
  0
LINE
  5
25F
100
AcDbEntity
  8
0
100
AcDbLine
 62
7
  6
CONTINUOUS
 10
6.8310543838
 20
12.7328602814
 11
7.0024427579
 21
12.7328602814
  0
LINE
  5
260
100
AcDbEntity
  8
0
100
AcDbLine
 62
7
  6
CONTINUOUS
 10
7.3255453853
 20
13.3367165941
 11
7.5396220839
 21
13.5297352814
  0
LINE
  5
261
100
AcDbEntity
  8
0
100
AcDbLine
 62
7
  6
CONTINUOUS
 10
6.9853305462
 20
12.975519258
 11
6.9886287972
 21
12.9782564186
  0
LINE
  5
262
100
AcDbEntity
  8
0
100
AcDbLine
 62
7
  6
CONTINUOUS
 10
6.8302130104
 20
12.8734852814
 11
6.7736444679
 21
12.8734852814
  0
LINE
  5
263
100
AcDbEntity
  8
0
100
AcDbLine
 62
7
  6
CONTINUOUS
 10
6.5708720839
 20
13.3166102814
 11
6.5708720839
 21
13.3109852814
  0
LINE
  5
264
100
AcDbEntity
  8
0
100
AcDbLine
 62
7
  6
CONTINUOUS
 10
7.0024427579
 20
13.0141102814
 11
6.8310543838
 21
13.0141102814
  0
LINE
  5
265
100
AcDbEntity
  8
0
100
AcDbLine
 62
7
  6
CONTINUOUS
 10
4.1333720839
 20
13.0609852814
 11
4.5083720839
 21
13.0609852814
  0
LINE
  5
266
100
AcDbEntity
  8
0
100
AcDbLine
 62
7
  6
CONTINUOUS
 10
7.6333720839
 20
13.0609852814
 11
8.0083720839
 21
13.0609852814
  0
LINE
  5
267
100
AcDbEntity
  8
0
100
AcDbLine
 62
7
  6
CONTINUOUS
 10
6.8310543838
 20
13.0141102814
 11
6.7736444679
 21
12.8734852814
  0
LINE
  5
268
100
AcDbEntity
  8
0
100
AcDbLine
 62
7
  6
CONTINUOUS
 10
6.8302130104
 20
12.8734852814
 11
6.8876229263
 21
13.0141102814
  0
LINE
  5
269
100
AcDbEntity
  8
0
100
AcDbLine
 62
7
  6
CONTINUOUS
 10
7.0115521187
 20
12.755173567
 11
7.0024427579
 21
12.7328602814
  0
LINE
  5
26A
100
AcDbEntity
  8
0
100
AcDbLine
 62
7
  6
CONTINUOUS
 10
7.2585817303
 20
13.3109852814
 11
4.883162206
 21
13.3109852814
  0
LINE
  5
26B
100
AcDbEntity
  8
0
100
AcDbLine
 62
7
  6
CONTINUOUS
 10
5.5708720839
 20
13.3166102814
 11
6.5708720839
 21
13.3166102814
  0
LINE
  5
26C
100
AcDbEntity
  8
0
100
AcDbLine
 62
7
  6
CONTINUOUS
 10
6.5608720839
 20
13.3266102814
 11
5.5808720839
 21
13.3266102814
  0
LINE
  5
26D
100
AcDbEntity
  8
0
100
AcDbLine
 62
7
  6
CONTINUOUS
 10
6.9886287972
 20
12.7687141441
 11
6.9853305462
 21
12.7714513048
  0
LINE
  5
26E
100
AcDbEntity
  8
0
100
AcDbLine
 62
7
  6
CONTINUOUS
 10
7.5396220839
 20
12.2172352814
 11
7.325545175
 21
12.4102541582
  0
LINE
  5
26F
100
AcDbEntity
  8
0
100
AcDbLine
 62
7
  6
CONTINUOUS
 10
6.7736444679
 20
12.8734852814
 11
6.8310543838
 21
12.7328602814
  0
LINE
  5
270
100
AcDbEntity
  8
0
100
AcDbLine
 62
7
  6
CONTINUOUS
 10
6.8876229263
 20
12.7328602814
 11
6.8302130104
 21
12.8734852814
  0
LINE
  5
271
100
AcDbEntity
  8
0
100
AcDbLine
 62
7
  6
CONTINUOUS
 10
3.8083720839
 20
13.5297352814
 11
4.6021220839
 21
13.5297352814
  0
LINE
  5
272
100
AcDbEntity
  8
0
100
AcDbLine
 62
7
  6
CONTINUOUS
 10
7.5396220839
 20
13.5297352814
 11
8.3333720839
 21
13.5297352814
  0
LINE
  5
273
100
AcDbEntity
  8
0
100
AcDbLine
 62
7
  6
CONTINUOUS
 10
6.5708720839
 20
13.3166102814
 11
6.5608720839
 21
13.3266102814
  0
LINE
  5
274
100
AcDbEntity
  8
0
100
AcDbLine
 62
7
  6
CONTINUOUS
 10
7.0024427579
 20
13.0141102814
 11
7.0114400145
 21
12.9920715937
  0
LINE
  5
275
100
AcDbEntity
  8
0
100
AcDbLine
 62
7
  6
CONTINUOUS
 10
7.2271220839
 20
11.7953602814
 11
7.2271220839
 21
12.4359852814
  0
LINE
  5
276
100
AcDbEntity
  8
0
100
AcDbLine
 62
7
  6
CONTINUOUS
 10
7.5396220839
 20
13.4418673031
 11
7.5396220839
 21
13.2925479926
  0
LINE
  5
277
100
AcDbEntity
  8
0
100
AcDbLine
 62
7
  6
CONTINUOUS
 10
7.5396220839
 20
12.4544225702
 11
7.5396220839
 21
12.3051032596
  0
LINE
  5
278
100
AcDbEntity
  8
0
100
AcDbLine
 62
7
  6
CONTINUOUS
 10
8.3833720839
 20
13.4797352814
 11
8.3833720839
 21
12.2672352814
  0
LINE
  5
279
100
AcDbEntity
  8
0
100
AcDbLine
 62
7
  6
CONTINUOUS
 10
15.1775427569
 20
4.2887497044
 11
16.4900427569
 21
4.2887497044
  0
LINE
  5
27A
100
AcDbEntity
  8
0
100
AcDbLine
 62
7
  6
CONTINUOUS
 10
15.1775427569
 20
4.3199997044
 11
14.7556677569
 21
4.3199997044
  0
LINE
  5
27B
100
AcDbEntity
  8
0
100
AcDbLine
 62
7
  6
CONTINUOUS
 10
14.6306677569
 20
6.5074997044
 11
14.6306677569
 21
4.4450002783
  0
LINE
  5
27C
100
AcDbEntity
  8
0
100
AcDbLine
 62
7
  6
CONTINUOUS
 10
15.6931677569
 20
6.4078203785
 11
15.7152064446
 21
6.4168176351
  0
LINE
  5
27D
100
AcDbEntity
  8
0
100
AcDbLine
 62
7
  6
CONTINUOUS
 10
15.9744177569
 20
6.2930005468
 11
15.8337927569
 21
6.235590631
  0
LINE
  5
27E
100
AcDbEntity
  8
0
100
AcDbLine
 62
7
  6
CONTINUOUS
 10
15.2275427569
 20
4.7887497044
 11
16.4400427569
 21
4.7887497044
  0
LINE
  5
27F
100
AcDbEntity
  8
0
100
AcDbLine
 62
7
  6
CONTINUOUS
 10
15.8337927569
 20
6.1790220885
 11
15.9744177569
 21
6.2364320043
  0
LINE
  5
280
100
AcDbEntity
  8
0
100
AcDbLine
 62
7
  6
CONTINUOUS
 10
15.1775427569
 20
4.2887497044
 11
15.1775427569
 21
4.7387497044
  0
LINE
  5
281
100
AcDbEntity
  8
0
100
AcDbLine
 62
7
  6
CONTINUOUS
 10
15.9385638942
 20
6.3940064178
 11
15.9358267335
 21
6.3907081668
  0
LINE
  5
282
100
AcDbEntity
  8
0
100
AcDbLine
 62
7
  6
CONTINUOUS
 10
15.3962927569
 20
6.6324900139
 11
15.3962927569
 21
5.464936859
  0
LWPOLYLINE
  5
283
100
AcDbEntity
  8
0
100
AcDbPolyline
 62
7
  6
CONTINUOUS
 90
4
 70
0
 10
15.3962927769
 20
5.4649231596
 10
15.3921410387
 20
5.3708722932
 10
15.3795188532
 20
5.2804948648
 10
15.3621560177
 20
5.2114195032
  0
LINE
  5
284
100
AcDbEntity
  8
0
100
AcDbLine
 62
7
  6
CONTINUOUS
 10
15.3621524188
 20
5.2114082728
 11
15.227670147
 21
4.7887497044
  0
LINE
  5
285
100
AcDbEntity
  8
0
100
AcDbLine
 62
7
  6
CONTINUOUS
 10
15.6931677569
 20
6.4078203785
 11
15.6931677569
 21
6.2364320043
  0
LINE
  5
286
100
AcDbEntity
  8
0
100
AcDbLine
 62
7
  6
CONTINUOUS
 10
15.8337927569
 20
6.235590631
 11
15.8337927569
 21
6.1790220885
  0
LINE
  5
287
100
AcDbEntity
  8
0
100
AcDbLine
 62
7
  6
CONTINUOUS
 10
15.9744177569
 20
6.2364320043
 11
15.9744177569
 21
6.4078203785
  0
LINE
  5
288
100
AcDbEntity
  8
0
100
AcDbLine
 62
7
  6
CONTINUOUS
 10
16.2769177569
 20
5.9762497044
 11
16.2712927569
 21
5.9762497044
  0
LINE
  5
289
100
AcDbEntity
  8
0
100
AcDbLine
 62
7
  6
CONTINUOUS
 10
16.2712928044
 20
5.4645440284
 11
16.2712927569
 21
6.5924997044
  0
LINE
  5
28A
100
AcDbEntity
  8
0
100
AcDbLine
 62
7
  6
CONTINUOUS
 10
16.4399153669
 20
4.7887497044
 11
16.3054330951
 21
5.2114082728
  0
LWPOLYLINE
  5
28B
100
AcDbEntity
  8
0
100
AcDbPolyline
 62
7
  6
CONTINUOUS
 90
4
 70
0
 10
16.3054293419
 20
5.2114199843
 10
16.2881833138
 20
5.2798992085
 10
16.2755055821
 20
5.3701920298
 10
16.2712928068
 20
5.4645518873
  0
LINE
  5
28C
100
AcDbEntity
  8
0
100
AcDbLine
 62
7
  6
CONTINUOUS
 10
16.2769177569
 20
5.9762497044
 11
16.2769177569
 21
5.3601342961
  0
LINE
  5
28D
100
AcDbEntity
  8
0
100
AcDbLine
 62
7
  6
CONTINUOUS
 10
16.2869177569
 20
5.2889127059
 11
16.2869177569
 21
5.9662369159
  0
LINE
  5
28E
100
AcDbEntity
  8
0
100
AcDbLine
 62
7
  6
CONTINUOUS
 10
15.6931677569
 20
6.2364320043
 11
15.8337927569
 21
6.1790220885
  0
LINE
  5
28F
100
AcDbEntity
  8
0
100
AcDbLine
 62
7
  6
CONTINUOUS
 10
15.7317587803
 20
6.3907081668
 11
15.7290216197
 21
6.3940064178
  0
LINE
  5
290
100
AcDbEntity
  8
0
100
AcDbLine
 62
7
  6
CONTINUOUS
 10
15.8337927569
 20
6.235590631
 11
15.6931677569
 21
6.2930005468
  0
LINE
  5
291
100
AcDbEntity
  8
0
100
AcDbLine
 62
7
  6
CONTINUOUS
 10
16.2869177569
 20
5.9662497044
 11
16.2769177569
 21
5.9762497044
  0
LINE
  5
292
100
AcDbEntity
  8
0
100
AcDbLine
 62
7
  6
CONTINUOUS
 10
16.4900427569
 20
4.7387497044
 11
16.4900427569
 21
4.2887497044
  0
LINE
  5
293
100
AcDbEntity
  8
0
100
AcDbLine
 62
7
  6
CONTINUOUS
 10
15.9521044713
 20
6.4169297392
 11
15.9744177569
 21
6.4078203785
  0
LINE
  5
294
100
AcDbEntity
  8
0
100
AcDbLine
 62
7
  6
CONTINUOUS
 10
15.3962927569
 20
6.6324997044
 11
14.7556677569
 21
6.6324997044
  0
LINE
  5
295
100
AcDbEntity
  8
0
100
AcDbLine
 62
7
  6
CONTINUOUS
 10
15.4362927569
 20
6.6324997044
 11
16.2312927569
 21
6.6324997044
  0
LINE
  5
296
100
AcDbEntity
  8
0
100
AcDbLine
 62
7
  6
CONTINUOUS
 10
13.2654389305
 20
11.5583815965
 11
13.1281700905
 21
11.8381060822
  0
LINE
  5
297
100
AcDbEntity
  8
0
100
AcDbLine
 62
7
  6
CONTINUOUS
 10
13.125285631
 20
11.8748955862
 11
13.4187910481
 21
12.8246794641
  0
LINE
  5
298
100
AcDbEntity
  8
0
100
AcDbLine
 62
7
  6
CONTINUOUS
 10
13.6151939065
 20
12.2192318594
 11
13.6731744431
 21
12.4068569448
  0
LINE
  5
299
100
AcDbEntity
  8
0
100
AcDbLine
 62
7
  6
CONTINUOUS
 10
13.892045521
 20
11.8209668721
 11
14.029314361
 21
11.5412423864
  0
LINE
  5
29A
100
AcDbEntity
  8
0
100
AcDbLine
 62
7
  6
CONTINUOUS
 10
13.9681321364
 20
12.7921367585
 11
13.8130583979
 21
12.290317957
  0
LINE
  5
29B
100
AcDbEntity
  8
0
100
AcDbLine
 62
7
  6
CONTINUOUS
 10
13.9778147893
 20
12.8234698349
 11
14.1702575164
 21
13.446214728
  0
LINE
  5
29C
100
AcDbEntity
  8
0
100
AcDbLine
 62
7
  6
CONTINUOUS
 10
17.4660231949
 20
11.5412423864
 11
16.7349310309
 21
11.5412423864
  0
LINE
  5
29D
100
AcDbEntity
  8
0
100
AcDbLine
 62
7
  6
CONTINUOUS
 10
14.029314361
 20
11.5412423864
 11
13.298222197
 21
11.5412423864
  0
LINE
  5
29E
100
AcDbEntity
  8
0
100
AcDbLine
 62
7
  6
CONTINUOUS
 10
16.5229268943
 20
11.7250273473
 11
16.0587697473
 21
11.7250273473
  0
LINE
  5
29F
100
AcDbEntity
  8
0
100
AcDbLine
 62
7
  6
CONTINUOUS
 10
15.5764603274
 20
13.4082227013
 11
15.5416130232
 21
13.3730591314
  0
LINE
  5
2A0
100
AcDbEntity
  8
0
100
AcDbLine
 62
7
  6
CONTINUOUS
 10
15.5764603274
 20
13.4082227013
 11
15.6808913662
 21
13.482691472
  0
LINE
  5
2A1
100
AcDbEntity
  8
0
100
AcDbLine
 62
7
  6
CONTINUOUS
 10
15.5779629085
 20
13.2272172088
 11
15.6128102127
 21
13.2623807787
  0
LINE
  5
2A2
100
AcDbEntity
  8
0
100
AcDbLine
 62
7
  6
CONTINUOUS
 10
15.8580221756
 20
13.2654763974
 11
15.7535911368
 21
13.1910076267
  0
LINE
  5
2A3
100
AcDbEntity
  8
0
100
AcDbLine
 62
7
  6
CONTINUOUS
 10
15.7187438326
 20
13.1558440568
 11
15.8231748714
 21
13.2303128275
  0
LINE
  5
2A4
100
AcDbEntity
  8
0
100
AcDbLine
 62
7
  6
CONTINUOUS
 10
15.7535911368
 20
13.1910076267
 11
15.7187438326
 21
13.1558440568
  0
LINE
  5
2A5
100
AcDbEntity
  8
0
100
AcDbLine
 62
7
  6
CONTINUOUS
 10
15.8580221756
 20
13.2654763974
 11
15.8231748714
 21
13.2303128275
  0
LINE
  5
2A6
100
AcDbEntity
  8
0
100
AcDbLine
 62
7
  6
CONTINUOUS
 10
17.1276260276
 20
12.2192318594
 11
16.7822281548
 21
12.2192318594
  0
LINE
  5
2A7
100
AcDbEntity
  8
0
100
AcDbLine
 62
7
  6
CONTINUOUS
 10
13.7987770478
 20
12.2192318594
 11
13.5585146758
 21
12.2192318594
  0
LINE
  5
2A8
100
AcDbEntity
  8
0
100
AcDbLine
 62
7
  6
CONTINUOUS
 10
13.7001298582
 20
12.4093777892
 11
13.8498506688
 21
12.4093777892
  0
LINE
  5
2A9
100
AcDbEntity
  8
0
100
AcDbLine
 62
7
  6
CONTINUOUS
 10
16.9238433372
 20
12.4093777892
 11
17.26924121
 21
12.4093777892
  0
LINE
  5
2AA
100
AcDbEntity
  8
0
100
AcDbLine
 62
7
  6
CONTINUOUS
 10
13.6492895471
 20
12.5129794506
 11
13.8818660036
 21
12.5129794506
  0
LINE
  5
2AB
100
AcDbEntity
  8
0
100
AcDbLine
 62
7
  6
CONTINUOUS
 10
16.8730030261
 20
12.5129794506
 11
17.2184008989
 21
12.5129794506
  0
LINE
  5
2AC
100
AcDbEntity
  8
0
100
AcDbLine
 62
7
  6
CONTINUOUS
 10
14.029314361
 20
11.5412423864
 11
14.1038954548
 21
11.5874759676
  0
LINE
  5
2AD
100
AcDbEntity
  8
0
100
AcDbLine
 62
7
  6
CONTINUOUS
 10
15.661817718
 20
13.4078889326
 11
15.6615661784
 21
13.414660209
  0
LINE
  5
2AE
100
AcDbEntity
  8
0
100
AcDbLine
 62
7
  6
CONTINUOUS
 10
17.6343630882
 20
12.8599170955
 11
16.8922038349
 21
12.8599170955
  0
LINE
  5
2AF
100
AcDbEntity
  8
0
100
AcDbLine
 62
7
  6
CONTINUOUS
 10
13.9890778447
 20
12.8599170955
 11
13.4665620903
 21
12.8599170955
  0
LINE
  5
2B0
100
AcDbEntity
  8
0
100
AcDbLine
 62
7
  6
CONTINUOUS
 10
16.5844763625
 20
11.6924394152
 11
16.7349310309
 21
11.5412423864
  0
LINE
  5
2B1
100
AcDbEntity
  8
0
100
AcDbLine
 62
7
  6
CONTINUOUS
 10
16.5434360544
 20
11.891213716
 11
16.5337738043
 21
11.9009236408
  0
LINE
  5
2B2
100
AcDbEntity
  8
0
100
AcDbLine
 62
7
  6
CONTINUOUS
 10
15.5416130232
 20
13.3730591314
 11
15.5779629085
 21
13.2272172088
  0
LINE
  5
2B3
100
AcDbEntity
  8
0
100
AcDbLine
 62
7
  6
CONTINUOUS
 10
15.6128102127
 20
13.2623807787
 11
15.5764603274
 21
13.4082227013
  0
LINE
  5
2B4
100
AcDbEntity
  8
0
100
AcDbLine
 62
7
  6
CONTINUOUS
 10
15.8504873035
 20
13.295707586
 11
15.8580221756
 21
13.2654763974
  0
LINE
  5
2B5
100
AcDbEntity
  8
0
100
AcDbLine
 62
7
  6
CONTINUOUS
 10
15.7187438326
 20
13.1558440568
 11
15.5779629085
 21
13.2272172088
  0
LINE
  5
2B6
100
AcDbEntity
  8
0
100
AcDbLine
 62
7
  6
CONTINUOUS
 10
15.6128102127
 20
13.2623807787
 11
15.7535911368
 21
13.1910076267
  0
LINE
  5
2B7
100
AcDbEntity
  8
0
100
AcDbLine
 62
7
  6
CONTINUOUS
 10
16.5229266812
 20
11.7250273473
 11
16.5290275185
 21
11.7125951479
  0
LINE
  5
2B8
100
AcDbEntity
  8
0
100
AcDbLine
 62
7
  6
CONTINUOUS
 10
16.7349310309
 20
11.5412423864
 11
16.5976621909
 21
11.8209668721
  0
LINE
  5
2B9
100
AcDbEntity
  8
0
100
AcDbLine
 62
7
  6
CONTINUOUS
 10
16.1775428387
 20
12.109377212
 11
16.0224691003
 21
11.6075584105
  0
LINE
  5
2BA
100
AcDbEntity
  8
0
100
AcDbLine
 62
7
  6
CONTINUOUS
 10
16.8815739082
 20
12.3212003293
 11
17.0238162186
 21
12.4093777892
  0
LINE
  5
2BB
100
AcDbEntity
  8
0
100
AcDbLine
 62
7
  6
CONTINUOUS
 10
15.7955517362
 20
13.2818797348
 11
15.7887213857
 21
13.2820735537
  0
LINE
  5
2BC
100
AcDbEntity
  8
0
100
AcDbLine
 62
7
  6
CONTINUOUS
 10
15.6818434064
 20
13.4822088064
 11
15.6808913662
 21
13.482691472
  0
LINE
  5
2BD
100
AcDbEntity
  8
0
100
AcDbLine
 62
7
  6
CONTINUOUS
 10
16.8689321645
 20
12.8373341056
 11
16.5671095791
 21
12.9962782985
  0
LWPOLYLINE
  5
2BE
100
AcDbEntity
  8
0
100
AcDbPolyline
 62
7
  6
CONTINUOUS
 90
3
 70
0
 10
16.5670684184
 20
12.996296296
 10
16.5175315079
 20
13.0270025782
 10
16.4586055844
 20
13.072860845
  0
LINE
  5
2BF
100
AcDbEntity
  8
0
100
AcDbLine
 62
7
  6
CONTINUOUS
 10
16.4586055844
 20
13.072860845
 11
16.4004595513
 21
13.1262768059
  0
LINE
  5
2C0
100
AcDbEntity
  8
0
100
AcDbLine
 62
7
  6
CONTINUOUS
 10
16.400458864
 20
13.1262776825
 11
16.1592768894
 21
13.3642176471
  0
LINE
  5
2C1
100
AcDbEntity
  8
0
100
AcDbLine
 62
7
  6
CONTINUOUS
 10
16.8788522686
 20
12.8113345876
 11
16.8427070921
 21
12.6943687535
  0
LINE
  5
2C2
100
AcDbEntity
  8
0
100
AcDbLine
 62
7
  6
CONTINUOUS
 10
16.6398251525
 20
12.0378425565
 11
16.603679976
 21
11.9208767224
  0
LINE
  5
2C3
100
AcDbEntity
  8
0
100
AcDbLine
 62
7
  6
CONTINUOUS
 10
17.8165185108
 20
12.5522197453
 11
17.6792496708
 21
12.831944231
  0
LINE
  5
2C4
100
AcDbEntity
  8
0
100
AcDbLine
 62
7
  6
CONTINUOUS
 10
17.8176849779
 20
12.5301926098
 11
17.5241795607
 21
11.5804087319
  0
CIRCLE
  5
2C5
100
AcDbEntity
  8
0
100
AcDbCircle
 62
7
  6
CONTINUOUS
 10
6.1303672762
 20
5.5357448968
 40
1.15625
  0
ARC
  5
2C6
100
AcDbEntity
  8
0
100
AcDbCircle
 62
7
  6
CONTINUOUS
 10
7.1415299733
 20
6.504481187
 40
0.1
100
AcDbArc
 50
289.0555202273
 51
45.0
  0
ARC
  5
2C7
100
AcDbEntity
  8
0
100
AcDbCircle
 62
7
  6
CONTINUOUS
 10
7.0991035664
 20
6.5469075938
 40
0.1
100
AcDbArc
 50
45.0000000001
 51
160.9444797724
  0
ARC
  5
2C8
100
AcDbEntity
  8
0
100
AcDbCircle
 62
7
  6
CONTINUOUS
 10
7.203884639
 20
6.3144751161
 40
0.1
100
AcDbArc
 50
107.2812514849
 51
182.2960852275
  0
ARC
  5
2C9
100
AcDbEntity
  8
0
100
AcDbCircle
 62
7
  6
CONTINUOUS
 10
6.9090974955
 20
6.6092622596
 40
0.1
100
AcDbArc
 50
267.7039147722
 51
342.7187485154
  0
ARC
  5
2CA
100
AcDbEntity
  8
0
100
AcDbCircle
 62
7
  6
CONTINUOUS
 10
8.3928672762
 20
4.7982448968
 40
0.05
100
AcDbArc
 50
0.0
 51
90.0
  0
ARC
  5
2CB
100
AcDbEntity
  8
0
100
AcDbCircle
 62
7
  6
CONTINUOUS
 10
3.8678672762
 20
4.7982448968
 40
0.05
100
AcDbArc
 50
90.0
 51
180.0
  0
ARC
  5
2CC
100
AcDbEntity
  8
0
100
AcDbCircle
 62
7
  6
CONTINUOUS
 10
4.6021220839
 20
12.8734852814
 40
0.4190627112
100
AcDbArc
 50
270.0
 51
90.0
  0
ARC
  5
2CD
100
AcDbEntity
  8
0
100
AcDbCircle
 62
7
  6
CONTINUOUS
 10
7.5396220839
 20
12.8734852814
 40
0.4190627112
100
AcDbArc
 50
90.0
 51
165.7499218174
  0
ARC
  5
2CE
100
AcDbEntity
  8
0
100
AcDbCircle
 62
7
  6
CONTINUOUS
 10
7.5396220839
 20
12.8734852814
 40
0.4190627112
100
AcDbArc
 50
194.2978408956
 51
270.0
  0
ARC
  5
2CF
100
AcDbEntity
  8
0
100
AcDbCircle
 62
7
  6
CONTINUOUS
 10
7.6333720839
 20
12.8734852814
 40
0.1875
100
AcDbArc
 50
90.0
 51
270.0
  0
ARC
  5
2D0
100
AcDbEntity
  8
0
100
AcDbCircle
 62
7
  6
CONTINUOUS
 10
8.0083720839
 20
12.8734852814
 40
0.1875
100
AcDbArc
 50
270.0
 51
90.0
  0
ARC
  5
2D1
100
AcDbEntity
  8
0
100
AcDbCircle
 62
7
  6
CONTINUOUS
 10
4.5083720839
 20
12.8734852814
 40
0.1875
100
AcDbArc
 50
270.0
 51
90.0
  0
ARC
  5
2D2
100
AcDbEntity
  8
0
100
AcDbCircle
 62
7
  6
CONTINUOUS
 10
4.1333720839
 20
12.8734852814
 40
0.1875
100
AcDbArc
 50
90.0
 51
270.0
  0
ARC
  5
2D3
100
AcDbEntity
  8
0
100
AcDbCircle
 62
7
  6
CONTINUOUS
 10
5.0396220839
 20
11.7953602814
 40
0.125
100
AcDbArc
 50
180.0
 51
270.0
  0
ARC
  5
2D4
100
AcDbEntity
  8
0
100
AcDbCircle
 62
7
  6
CONTINUOUS
 10
7.1021220839
 20
11.7953602814
 40
0.125
100
AcDbArc
 50
270.0
 51
360.0
  0
ARC
  5
2D5
100
AcDbEntity
  8
0
100
AcDbCircle
 62
7
  6
CONTINUOUS
 10
6.9260620311
 20
12.9119236259
 40
0.108018029
100
AcDbArc
 50
44.512838243
 51
46.2205965802
  0
ARC
  5
2D6
100
AcDbEntity
  8
0
100
AcDbCircle
 62
7
  6
CONTINUOUS
 10
6.9263925727
 20
12.8347131072
 40
0.107548305
100
AcDbArc
 50
313.7753104746
 51
315.5882963204
  0
ARC
  5
2D7
100
AcDbEntity
  8
0
100
AcDbCircle
 62
7
  6
CONTINUOUS
 10
7.2585814988
 20
12.3359852814
 40
0.1
100
AcDbArc
 50
47.9609638749
 51
89.9998673941
  0
ARC
  5
2D8
100
AcDbEntity
  8
0
100
AcDbCircle
 62
7
  6
CONTINUOUS
 10
4.8831626689
 20
12.3359852814
 40
0.1
100
AcDbArc
 50
90.0001326059
 51
132.0390361251
  0
ARC
  5
2D9
100
AcDbEntity
  8
0
100
AcDbCircle
 62
7
  6
CONTINUOUS
 10
4.8831626689
 20
13.4109852814
 40
0.1
100
AcDbArc
 50
227.9609638749
 51
269.9998673941
  0
ARC
  5
2DA
100
AcDbEntity
  8
0
100
AcDbCircle
 62
7
  6
CONTINUOUS
 10
7.2585814988
 20
13.4109852814
 40
0.1
100
AcDbArc
 50
270.0001326059
 51
312.0390361251
  0
ARC
  5
2DB
100
AcDbEntity
  8
0
100
AcDbCircle
 62
7
  6
CONTINUOUS
 10
6.8893248619
 20
12.9389650237
 40
0.0795843105
100
AcDbArc
 50
99.7105199676
 51
106.9521971026
  0
ARC
  5
2DC
100
AcDbEntity
  8
0
100
AcDbCircle
 62
7
  6
CONTINUOUS
 10
6.8892910539
 20
12.8078962238
 40
0.0794708756
100
AcDbArc
 50
253.0856232051
 51
260.682902538
  0
ARC
  5
2DD
100
AcDbEntity
  8
0
100
AcDbCircle
 62
7
  6
CONTINUOUS
 10
6.8885073392
 20
12.9440098967
 40
0.0744738397
100
AcDbArc
 50
90.9554447742
 51
99.7452256323
  0
ARC
  5
2DE
100
AcDbEntity
  8
0
100
AcDbCircle
 62
7
  6
CONTINUOUS
 10
6.8885095186
 20
12.8029103669
 40
0.0744242744
100
AcDbArc
 50
260.6552056122
 51
269.0543777254
  0
ARC
  5
2DF
100
AcDbEntity
  8
0
100
AcDbCircle
 62
7
  6
CONTINUOUS
 10
6.8884628684
 20
12.8013319514
 40
0.0728453068
100
AcDbArc
 50
269.0705761283
 51
270.0003843897
  0
ARC
  5
2E0
100
AcDbEntity
  8
0
100
AcDbCircle
 62
7
  6
CONTINUOUS
 10
6.8884574098
 20
12.9456518721
 40
0.0728312635
100
AcDbArc
 50
89.9949512011
 51
90.9377105526
  0
ARC
  5
2E1
100
AcDbEntity
  8
0
100
AcDbCircle
 62
7
  6
CONTINUOUS
 10
6.8884371164
 20
12.9470993533
 40
0.0713928938
100
AcDbArc
 50
72.2686980501
 51
80.3206362235
  0
ARC
  5
2E2
100
AcDbEntity
  8
0
100
AcDbCircle
 62
7
  6
CONTINUOUS
 10
6.8885040624
 20
12.9472499519
 40
0.0712331948
100
AcDbArc
 50
80.3533505074
 51
90.0323625741
  0
ARC
  5
2E3
100
AcDbEntity
  8
0
100
AcDbCircle
 62
7
  6
CONTINUOUS
 10
6.888527018
 20
12.7995086076
 40
0.0710219916
100
AcDbArc
 50
269.9486426644
 51
287.7868067463
  0
ARC
  5
2E4
100
AcDbEntity
  8
0
100
AcDbCircle
 62
7
  6
CONTINUOUS
 10
8.3333720839
 20
12.2672352814
 40
0.05
100
AcDbArc
 50
270.0
 51
360.0
  0
ARC
  5
2E5
100
AcDbEntity
  8
0
100
AcDbCircle
 62
7
  6
CONTINUOUS
 10
8.3333720839
 20
13.4797352814
 40
0.05
100
AcDbArc
 50
0.0
 51
90.0
  0
ARC
  5
2E6
100
AcDbEntity
  8
0
100
AcDbCircle
 62
7
  6
CONTINUOUS
 10
3.8083720839
 20
12.2672352814
 40
0.05
100
AcDbArc
 50
180.0
 51
270.0
  0
ARC
  5
2E7
100
AcDbEntity
  8
0
100
AcDbCircle
 62
7
  6
CONTINUOUS
 10
3.8083720839
 20
13.4797352814
 40
0.05
100
AcDbArc
 50
90.0
 51
180.0
  0
ARC
  5
2E8
100
AcDbEntity
  8
0
100
AcDbCircle
 62
7
  6
CONTINUOUS
 10
14.7556677569
 20
4.4449997044
 40
0.125
100
AcDbArc
 50
180.0
 51
270.0
  0
ARC
  5
2E9
100
AcDbEntity
  8
0
100
AcDbCircle
 62
7
  6
CONTINUOUS
 10
14.7556677569
 20
6.5074997044
 40
0.125
100
AcDbArc
 50
90.0
 51
180.0
  0
ARC
  5
2EA
100
AcDbEntity
  8
0
100
AcDbCircle
 62
7
  6
CONTINUOUS
 10
15.7953544124
 20
6.3314396517
 40
0.108018029
100
AcDbArc
 50
134.5128382427
 51
136.2205965806
  0
ARC
  5
2EB
100
AcDbEntity
  8
0
100
AcDbCircle
 62
7
  6
CONTINUOUS
 10
15.8725649311
 20
6.3317701933
 40
0.107548305
100
AcDbArc
 50
43.7753104744
 51
45.5882963205
  0
ARC
  5
2EC
100
AcDbEntity
  8
0
100
AcDbCircle
 62
7
  6
CONTINUOUS
 10
15.769477867
 20
6.2949732284
 40
0.0807786733
100
AcDbArc
 50
189.9111540677
 51
196.9029882819
  0
ARC
  5
2ED
100
AcDbEntity
  8
0
100
AcDbCircle
 62
7
  6
CONTINUOUS
 10
15.8982192467
 20
6.2949418203
 40
0.080660584
100
AcDbArc
 50
343.1289335278
 51
350.542099905
  0
ARC
  5
2EE
100
AcDbEntity
  8
0
100
AcDbCircle
 62
7
  6
CONTINUOUS
 10
15.764050506
 20
6.2939606576
 40
0.0752580531
100
AcDbArc
 50
181.0063269081
 51
189.8629645958
  0
ARC
  5
2EF
100
AcDbEntity
  8
0
100
AcDbCircle
 62
7
  6
CONTINUOUS
 10
15.9036725353
 20
6.29395662
 40
0.0751195713
100
AcDbArc
 50
350.5998446205
 51
359.0061606646
  0
ARC
  5
2F0
100
AcDbEntity
  8
0
100
AcDbCircle
 62
7
  6
CONTINUOUS
 10
15.7616488196
 20
6.2938423714
 40
0.0728546995
100
AcDbArc
 50
180.0010959699
 51
180.9464886522
  0
ARC
  5
2F1
100
AcDbEntity
  8
0
100
AcDbCircle
 62
7
  6
CONTINUOUS
 10
15.9059546583
 20
6.2938487726
 40
0.0728359529
100
AcDbArc
 50
359.0598474024
 51
359.9942385693
  0
ARC
  5
2F2
100
AcDbEntity
  8
0
100
AcDbCircle
 62
7
  6
CONTINUOUS
 10
15.7603687848
 20
6.2938596235
 40
0.0715746671
100
AcDbArc
 50
170.4732348095
 51
180.0149259131
  0
ARC
  5
2F3
100
AcDbEntity
  8
0
100
AcDbCircle
 62
7
  6
CONTINUOUS
 10
15.759854962
 20
6.2938937275
 40
0.0710623048
100
AcDbArc
 50
162.2627943036
 51
170.4317855598
  0
ARC
  5
2F4
100
AcDbEntity
  8
0
100
AcDbCircle
 62
7
  6
CONTINUOUS
 10
15.9078328395
 20
6.2939144546
 40
0.0709578089
100
AcDbArc
 50
359.9410502772
 51
17.7870909809
  0
ARC
  5
2F5
100
AcDbEntity
  8
0
100
AcDbCircle
 62
7
  6
CONTINUOUS
 10
15.2275427569
 20
4.7387497044
 40
0.05
100
AcDbArc
 50
89.9826263879
 51
180.0
  0
ARC
  5
2F6
100
AcDbEntity
  8
0
100
AcDbCircle
 62
7
  6
CONTINUOUS
 10
16.4400427569
 20
4.7387497044
 40
0.05
100
AcDbArc
 50
0.0
 51
90.0
  0
ARC
  5
2F7
100
AcDbEntity
  8
0
100
AcDbCircle
 62
7
  6
CONTINUOUS
 10
16.2312927569
 20
6.5924997044
 40
0.04
100
AcDbArc
 50
0.0000000001
 51
90.0
  0
ARC
  5
2F8
100
AcDbEntity
  8
0
100
AcDbCircle
 62
7
  6
CONTINUOUS
 10
15.4362927569
 20
6.5924997044
 40
0.04
100
AcDbArc
 50
90.0
 51
180.0
  0
ARC
  5
2F9
100
AcDbEntity
  8
0
100
AcDbCircle
 62
7
  6
CONTINUOUS
 10
14.3658672906
 20
12.7035559371
 40
0.4061577115
100
AcDbArc
 50
162.8280861233
 51
165.1334143151
  0
ARC
  5
2FA
100
AcDbEntity
  8
0
100
AcDbCircle
 62
7
  6
CONTINUOUS
 10
16.654357707
 20
12.2736451464
 40
0.3130401644
100
AcDbArc
 50
162.8206892156
 51
164.8601442075
  0
ARC
  5
2FB
100
AcDbEntity
  8
0
100
AcDbCircle
 62
7
  6
CONTINUOUS
 10
15.7845958604
 20
13.4153131512
 40
0.1230314147
100
AcDbArc
 50
162.877240139
 51
180.3040768729
  0
ARC
  5
2FC
100
AcDbEntity
  8
0
100
AcDbCircle
 62
7
  6
CONTINUOUS
 10
15.686292309
 20
13.3558445359
 40
0.1072643917
100
AcDbArc
 50
98.2125280403
 51
101.2828892379
  0
ARC
  5
2FD
100
AcDbEntity
  8
0
100
AcDbCircle
 62
7
  6
CONTINUOUS
 10
15.7550687618
 20
13.2994035943
 40
0.0873973953
100
AcDbArc
 50
305.4887018463
 51
314.9085246331
  0
ARC
  5
2FE
100
AcDbEntity
  8
0
100
AcDbCircle
 62
7
  6
CONTINUOUS
 10
15.7554593401
 20
13.2989898365
 40
0.0868286198
100
AcDbArc
 50
314.9187409954
 51
318.1776756989
  0
ARC
  5
2FF
100
AcDbEntity
  8
0
100
AcDbCircle
 62
7
  6
CONTINUOUS
 10
15.7212576577
 20
13.2562539006
 40
0.0854154039
100
AcDbArc
 50
315.313487962
 51
325.06717989
  0
ARC
  5
300
100
AcDbEntity
  8
0
100
AcDbCircle
 62
7
  6
CONTINUOUS
 10
13.1730605146
 20
11.86013356
 40
0.0500034126
100
AcDbArc
 50
162.8293029163
 51
206.1369262365
  0
ARC
  5
301
100
AcDbEntity
  8
0
100
AcDbCircle
 62
7
  6
CONTINUOUS
 10
17.6343630837
 20
12.8099170884
 40
0.0500000071
100
AcDbArc
 50
26.1385183124
 51
89.9999949121
  0
ARC
  5
302
100
AcDbEntity
  8
0
100
AcDbCircle
 62
7
  6
CONTINUOUS
 10
13.4665612888
 20
12.8099184232
 40
0.0499980504
100
AcDbArc
 50
90.0124362707
 51
162.8288110042
  0
SPLINE
  5
303
100
AcDbEntity
  8
0
100
AcDbSpline
 62
7
  6
CONTINUOUS
 70
0
 71
3
 72
25
 73
21
 74
0
 42
0.0000001
 43
0.0000001
 44
0.0000000001
 40
0.0
 40
0.0
 40
0.0
 40
0.0
 40
0.0623672525
 40
0.1247420896
 40
0.1871206295
 40
0.2495075045
 40
0.311904242
 40
0.3743026849
 40
0.4055234567
 40
0.4367418155
 40
0.4991373147
 40
0.5303527126
 40
0.561563963
 40
0.6239618499
 40
0.6863883239
 40
0.7488872835
 40
0.8114780421
 40
0.8742178916
 40
0.9371176598
 40
1.0
 40
1.0
 40
1.0
 40
1.0
 10
6.9886287972
 20
12.9782564186
 30
0.0
 10
6.9931252156
 20
12.9817976247
 30
0.0
 10
7.0026398532
 20
12.9882465835
 30
0.0
 10
7.0181501663
 20
12.9957516477
 30
0.0
 10
7.0346019286
 20
13.0008976183
 30
0.0
 10
7.0516369783
 20
13.003545911
 30
0.0
 10
7.0688775032
 20
13.0036347657
 30
0.0
 10
7.0831021112
 20
13.0015588217
 30
0.0
 10
7.094193885
 20
12.9986552316
 30
0.0
 10
7.1050382776
 20
12.9949353368
 30
0.0
 10
7.1154412291
 20
12.9900236921
 30
0.0
 10
7.1252140546
 20
12.9840329253
 30
0.0
 10
7.1345280258
 20
12.9773491684
 30
0.0
 10
7.1452458508
 20
12.967775325
 30
0.0
 10
7.1563798833
 20
12.9546079421
 30
0.0
 10
7.1656456212
 20
12.9400461532
 30
0.0
 10
7.1729328072
 20
12.9243721811
 30
0.0
 10
7.1781758934
 20
12.9078644483
 30
0.0
 10
7.1813287936
 20
12.8908111361
 30
0.0
 10
7.182034781
 20
12.8792560044
 30
0.0
 10
7.182034781
 20
12.8734852814
 30
0.0
  0
SPLINE
  5
304
100
AcDbEntity
  8
0
100
AcDbSpline
 62
7
  6
CONTINUOUS
 70
0
 71
3
 72
27
 73
23
 74
0
 42
0.0000001
 43
0.0000001
 44
0.0000000001
 40
0.0
 40
0.0
 40
0.0
 40
0.0
 40
0.062880419
 40
0.1257799903
 40
0.1885084412
 40
0.2510786404
 40
0.3135505617
 40
0.3447733272
 40
0.3759863922
 40
0.4383515846
 40
0.5007141631
 40
0.5630832171
 40
0.6254627923
 40
0.6566786665
 40
0.6878996283
 40
0.7191259224
 40
0.7503537323
 40
0.7815793898
 40
0.8128034897
 40
0.8752096448
 40
0.9376122442
 40
1.0
 40
1.0
 40
1.0
 40
1.0
 10
7.182034781
 20
12.8734852814
 30
0.0
 10
7.182034781
 20
12.8677142517
 30
0.0
 10
7.1813282863
 20
12.856158364
 30
0.0
 10
7.1781756461
 20
12.8391048837
 30
0.0
 10
7.1729326643
 20
12.8225983795
 30
0.0
 10
7.1656479771
 20
12.8069289151
 30
0.0
 10
7.1579242034
 20
12.7947897804
 30
0.0
 10
7.1508187181
 20
12.7857836212
 30
0.0
 10
7.1431157032
 20
12.7772963343
 30
0.0
 10
7.1324095299
 20
12.7677211994
 30
0.0
 10
7.1180587062
 20
12.7581855567
 30
0.0
 10
7.1024786537
 20
12.7508206063
 30
0.0
 10
7.0887216957
 20
12.7466632746
 30
0.0
 10
7.0774476727
 20
12.7445844527
 30
0.0
 10
7.0688925673
 20
12.7436624088
 30
0.0
 10
7.0602919675
 20
12.7433818376
 30
0.0
 10
7.0516938779
 20
12.7437413815
 30
0.0
 10
7.0431462888
 20
12.7447424437
 30
0.0
 10
7.0318885351
 20
12.7469261443
 30
0.0
 10
7.0181633981
 20
12.751211036
 30
0.0
 10
7.0026476209
 20
12.7587212351
 30
0.0
 10
6.9931270702
 20
12.7651714774
 30
0.0
 10
6.9886287972
 20
12.7687141441
 30
0.0
  0
SPLINE
  5
305
100
AcDbEntity
  8
0
100
AcDbSpline
 62
7
  6
CONTINUOUS
 70
0
 71
3
 72
13
 73
9
 74
0
 42
0.0000001
 43
0.0000001
 44
0.0000000001
 40
0.0
 40
0.0
 40
0.0
 40
0.0
 40
0.1170102759
 40
0.2368859071
 40
0.3593768151
 40
0.4841843619
 40
0.7393548751
 40
1.0
 40
1.0
 40
1.0
 40
1.0
 10
6.8166970054
 20
12.7660564344
 30
0.0
 10
6.8142505686
 20
12.7689480189
 30
0.0
 10
6.8095420887
 20
12.7750131515
 30
0.0
 10
6.8031638287
 20
12.7847553577
 30
0.0
 10
6.797435034
 20
12.795182822
 30
0.0
 10
6.7906897803
 20
12.8099976083
 30
0.0
 10
6.784220011
 20
12.8297802155
 30
0.0
 10
6.7813298272
 20
12.8462901054
 30
0.0
 10
6.7804567021
 20
12.8546819558
 30
0.0
  0
SPLINE
  5
306
100
AcDbEntity
  8
0
100
AcDbSpline
 62
7
  6
CONTINUOUS
 70
0
 71
3
 72
13
 73
9
 74
0
 42
0.0000001
 43
0.0000001
 44
0.0000000001
 40
0.0
 40
0.0
 40
0.0
 40
0.0
 40
0.2367190952
 40
0.3592102934
 40
0.4840123262
 40
0.6108224991
 40
0.7393375912
 40
1.0
 40
1.0
 40
1.0
 40
1.0
 10
6.8166838476
 20
12.9808973583
 30
0.0
 10
6.8117399556
 20
12.9750500595
 30
0.0
 10
6.8049803266
 20
12.9655189029
 30
0.0
 10
6.7974376133
 20
12.9517890825
 30
0.0
 10
6.7924157548
 20
12.9407655567
 30
0.0
 10
6.7881559054
 20
12.9292187377
 30
0.0
 10
6.7835188768
 20
12.9131745677
 30
0.0
 10
6.7813366186
 20
12.9007195541
 30
0.0
 10
6.780461778
 20
12.8923333441
 30
0.0
  0
SPLINE
  5
307
100
AcDbEntity
  8
0
100
AcDbSpline
 62
7
  6
CONTINUOUS
 70
0
 71
3
 72
15
 73
11
 74
0
 42
0.0000001
 43
0.0000001
 44
0.0000000001
 40
0.0
 40
0.0
 40
0.0
 40
0.0
 40
0.1105346387
 40
0.2231081216
 40
0.3391028717
 40
0.4597832905
 40
0.5860414401
 40
0.7183093071
 40
0.8565616466
 40
1.0
 40
1.0
 40
1.0
 40
1.0
 10
6.9450328421
 20
13.0141102814
 30
0.0
 10
6.940691838
 20
13.0141102814
 30
0.0
 10
6.9319097937
 20
13.013283689
 30
0.0
 10
6.9190302119
 20
13.0096391941
 30
0.0
 10
6.9066258971
 20
13.0036326217
 30
0.0
 10
6.8949152307
 20
12.9954086505
 30
0.0
 10
6.8840901881
 20
12.9851091106
 30
0.0
 10
6.8743149073
 20
12.9729182346
 30
0.0
 10
6.8657687098
 20
12.9590459611
 30
0.0
 10
6.8610471272
 20
12.9490131343
 30
0.0
 10
6.8589179683
 20
12.9437977814
 30
0.0
  0
SPLINE
  5
308
100
AcDbEntity
  8
0
100
AcDbSpline
 62
7
  6
CONTINUOUS
 70
0
 71
3
 72
13
 73
9
 74
0
 42
0.0000001
 43
0.0000001
 44
0.0000000001
 40
0.0
 40
0.0
 40
0.0
 40
0.0
 40
0.2652033411
 40
0.5179314533
 40
0.6407289411
 40
0.7616864859
 40
0.8812766752
 40
1.0
 40
1.0
 40
1.0
 40
1.0
 10
7.0007979417
 20
12.9899136141
 30
0.0
 10
6.9968235692
 20
12.9937212889
 30
0.0
 10
6.9884629143
 20
13.0005678622
 30
0.0
 10
6.9767762475
 20
13.0070833162
 30
0.0
 10
6.9671224952
 20
13.0107288485
 30
0.0
 10
6.9598226688
 20
13.0126732488
 30
0.0
 10
6.9524466077
 20
13.013846736
 30
0.0
 10
6.9474968128
 20
13.0141102814
 30
0.0
 10
6.9450328421
 20
13.0141102814
 30
0.0
  0
SPLINE
  5
309
100
AcDbEntity
  8
0
100
AcDbSpline
 62
7
  6
CONTINUOUS
 70
0
 71
3
 72
10
 73
6
 74
0
 42
0.0000001
 43
0.0000001
 44
0.0000000001
 40
0.0
 40
0.0
 40
0.0
 40
0.0
 40
0.2427936407
 40
0.6177858724
 40
1.0
 40
1.0
 40
1.0
 40
1.0
 10
6.8589179683
 20
12.9437977814
 30
0.0
 10
6.8567169829
 20
12.9384064902
 30
0.0
 10
6.8518503967
 20
12.9243806868
 30
0.0
 10
6.8468489924
 20
12.9008386277
 30
0.0
 10
6.845595951
 20
12.8826524582
 30
0.0
 10
6.845595951
 20
12.8734852814
 30
0.0
  0
SPLINE
  5
30A
100
AcDbEntity
  8
0
100
AcDbSpline
 62
7
  6
CONTINUOUS
 70
0
 71
3
 72
9
 73
5
 74
0
 42
0.0000001
 43
0.0000001
 44
0.0000000001
 40
0.0
 40
0.0
 40
0.0
 40
0.0
 40
0.2496947535
 40
1.0
 40
1.0
 40
1.0
 40
1.0
 10
4.640368741
 20
13.4797049626
 30
0.0
 10
4.641274964
 20
13.4797023962
 30
0.0
 10
4.6449036906
 20
13.4795581904
 30
0.0
 10
4.6485045015
 20
13.4789174417
 30
0.0
 10
4.6511385429
 20
13.4782266741
 30
0.0
  0
SPLINE
  5
30B
100
AcDbEntity
  8
0
100
AcDbSpline
 62
7
  6
CONTINUOUS
 70
0
 71
3
 72
9
 73
5
 74
0
 42
0.0000001
 43
0.0000001
 44
0.0000000001
 40
0.0
 40
0.0
 40
0.0
 40
0.0
 40
0.4999928866
 40
1.0
 40
1.0
 40
1.0
 40
1.0
 10
4.6511385429
 20
13.4782266741
 30
0.0
 10
4.654863084
 20
13.477249927
 30
0.0
 10
4.6621193601
 20
13.4744297885
 30
0.0
 10
4.6684653035
 20
13.4699180231
 30
0.0
 10
4.6713251047
 20
13.467339531
 30
0.0
  0
SPLINE
  5
30C
100
AcDbEntity
  8
0
100
AcDbSpline
 62
7
  6
CONTINUOUS
 70
0
 71
3
 72
18
 73
14
 74
0
 42
0.0000001
 43
0.0000001
 44
0.0000000001
 40
0.0
 40
0.0
 40
0.0
 40
0.0
 40
0.1248356642
 40
0.1874353953
 40
0.2500269922
 40
0.3750047088
 40
0.5000027273
 40
0.5625551945
 40
0.6250290269
 40
0.7498890411
 40
0.8125378082
 40
0.8752021918
 40
1.0
 40
1.0
 40
1.0
 40
1.0
 10
4.6021220839
 20
13.4418673031
 30
0.0
 10
4.6021221926
 20
13.4443603268
 30
0.0
 10
4.6024677906
 20
13.4481162312
 30
0.0
 10
4.6036303328
 20
13.4529783868
 30
0.0
 10
4.6052725048
 20
13.4577045993
 30
0.0
 10
4.608200176
 20
13.4632692748
 30
0.0
 10
4.6122104812
 20
13.4681139443
 30
0.0
 10
4.615955601
 20
13.47142811
 30
0.0
 10
4.6200248421
 20
13.4743307438
 30
0.0
 10
4.6245231368
 20
13.476581626
 30
0.0
 10
4.6292606112
 20
13.4781840341
 30
0.0
 10
4.6341204853
 20
13.4793570508
 30
0.0
 10
4.6378764833
 20
13.4797271799
 30
0.0
 10
4.640368741
 20
13.479720122
 30
0.0
  0
SPLINE
  5
30D
100
AcDbEntity
  8
0
100
AcDbSpline
 62
7
  6
CONTINUOUS
 70
0
 71
3
 72
18
 73
14
 74
0
 42
0.0000001
 43
0.0000001
 44
0.0000000001
 40
0.0
 40
0.0
 40
0.0
 40
0.0
 40
0.1248203419
 40
0.1874858606
 40
0.2501341945
 40
0.3750121779
 40
0.4374917423
 40
0.5000445514
 40
0.6250350152
 40
0.7499930211
 40
0.8125765664
 40
0.8751699306
 40
1.0
 40
1.0
 40
1.0
 40
1.0
 10
7.5015385698
 20
13.4797049983
 30
0.0
 10
7.5040244568
 20
13.4797025033
 30
0.0
 10
7.5077693181
 20
13.4793265316
 30
0.0
 10
7.5126144681
 20
13.478148124
 30
0.0
 10
7.5173348678
 20
13.4765362791
 30
0.0
 10
7.5218122378
 20
13.4742735639
 30
0.0
 10
7.5258625144
 20
13.4713674165
 30
0.0
 10
7.5295893666
 20
13.4680534407
 30
0.0
 10
7.533579735
 20
13.463215612
 30
0.0
 10
7.5364899097
 20
13.4576621638
 30
0.0
 10
7.5381222151
 20
13.4529478495
 30
0.0
 10
7.5392783273
 20
13.4480986997
 30
0.0
 10
7.5396220839
 20
13.4443533851
 30
0.0
 10
7.5396220839
 20
13.4418673031
 30
0.0
  0
SPLINE
  5
30E
100
AcDbEntity
  8
0
100
AcDbSpline
 62
7
  6
CONTINUOUS
 70
0
 71
3
 72
9
 73
5
 74
0
 42
0.0000001
 43
0.0000001
 44
0.0000000001
 40
0.0
 40
0.0
 40
0.0
 40
0.0
 40
0.500010927
 40
1.0
 40
1.0
 40
1.0
 40
1.0
 10
7.470419063
 20
13.467339531
 30
0.0
 10
7.4732809039
 20
13.4699198254
 30
0.0
 10
7.4796317185
 20
13.4744341955
 30
0.0
 10
7.4868938441
 20
13.4772549948
 30
0.0
 10
7.4906214665
 20
13.4782304872
 30
0.0
  0
SPLINE
  5
30F
100
AcDbEntity
  8
0
100
AcDbSpline
 62
7
  6
CONTINUOUS
 70
0
 71
3
 72
9
 73
5
 74
0
 42
0.0000001
 43
0.0000001
 44
0.0000000001
 40
0.0
 40
0.0
 40
0.0
 40
0.0
 40
0.2506780544
 40
1.0
 40
1.0
 40
1.0
 40
1.0
 10
7.4906214665
 20
13.4782304872
 30
0.0
 10
7.4915132927
 20
13.4784638718
 30
0.0
 10
7.4950946972
 20
13.479297372
 30
0.0
 10
7.4987829711
 20
13.479707764
 30
0.0
 10
7.5015385698
 20
13.4797049983
 30
0.0
  0
SPLINE
  5
310
100
AcDbEntity
  8
0
100
AcDbSpline
 62
7
  6
CONTINUOUS
 70
0
 71
3
 72
10
 73
6
 74
0
 42
0.0000001
 43
0.0000001
 44
0.0000000001
 40
0.0
 40
0.0
 40
0.0
 40
0.0
 40
0.2553454147
 40
0.6335354937
 40
1.0
 40
1.0
 40
1.0
 40
1.0
 10
6.845595951
 20
12.8734852814
 30
0.0
 10
6.845595951
 20
12.8673610881
 30
0.0
 10
6.8462986105
 20
12.8521592665
 30
0.0
 10
6.8501727166
 20
12.828411522
 30
0.0
 10
6.855595937
 20
12.8113100629
 30
0.0
 10
6.8589179683
 20
12.8031727814
 30
0.0
  0
SPLINE
  5
311
100
AcDbEntity
  8
0
100
AcDbSpline
 62
7
  6
CONTINUOUS
 70
0
 71
3
 72
13
 73
9
 74
0
 42
0.0000001
 43
0.0000001
 44
0.0000000001
 40
0.0
 40
0.0
 40
0.0
 40
0.0
 40
0.1187233248
 40
0.2383135141
 40
0.3592710589
 40
0.4820685467
 40
0.7347966589
 40
1.0
 40
1.0
 40
1.0
 40
1.0
 10
6.9450328421
 20
12.7328602814
 30
0.0
 10
6.9474968128
 20
12.7328602814
 30
0.0
 10
6.9524466077
 20
12.7331238268
 30
0.0
 10
6.9598226688
 20
12.7342973139
 30
0.0
 10
6.9671224952
 20
12.7362417142
 30
0.0
 10
6.9767762475
 20
12.7398872465
 30
0.0
 10
6.9884629143
 20
12.7464027006
 30
0.0
 10
6.9968235692
 20
12.7532492739
 30
0.0
 10
7.0007979417
 20
12.7570569486
 30
0.0
  0
SPLINE
  5
312
100
AcDbEntity
  8
0
100
AcDbSpline
 62
7
  6
CONTINUOUS
 70
0
 71
3
 72
14
 73
10
 74
0
 42
0.0000001
 43
0.0000001
 44
0.0000000001
 40
0.0
 40
0.0
 40
0.0
 40
0.0
 40
0.1348852082
 40
0.2689342014
 40
0.4007762581
 40
0.5294805881
 40
0.6543086608
 40
0.7746473402
 40
1.0
 40
1.0
 40
1.0
 40
1.0
 10
6.9450881088
 20
12.8734852814
 30
0.0
 10
6.9450881088
 20
12.8785564785
 30
0.0
 10
6.9455456092
 20
12.8886731277
 30
0.0
 10
6.9475731604
 20
12.9036238253
 30
0.0
 10
6.9509294607
 20
12.9180978
 30
0.0
 10
6.9555481613
 20
12.9318541838
 30
0.0
 10
6.9613701874
 20
12.9446811821
 30
0.0
 10
6.9703838396
 20
12.9599216606
 30
0.0
 10
6.9789498303
 20
12.9699452365
 30
0.0
 10
6.9853306163
 20
12.9755190975
 30
0.0
  0
SPLINE
  5
313
100
AcDbEntity
  8
0
100
AcDbSpline
 62
7
  6
CONTINUOUS
 70
0
 71
3
 72
14
 73
10
 74
0
 42
0.0000001
 43
0.0000001
 44
0.0000000001
 40
0.0
 40
0.0
 40
0.0
 40
0.0
 40
0.2253526598
 40
0.3456913392
 40
0.4705194119
 40
0.5992237419
 40
0.7310657986
 40
0.8651147918
 40
1.0
 40
1.0
 40
1.0
 40
1.0
 10
6.9853306163
 20
12.7714514653
 30
0.0
 10
6.9789498303
 20
12.7770253263
 30
0.0
 10
6.9703838396
 20
12.7870489022
 30
0.0
 10
6.9613701874
 20
12.8022893807
 30
0.0
 10
6.9555481613
 20
12.8151163789
 30
0.0
 10
6.9509294607
 20
12.8288727628
 30
0.0
 10
6.9475731604
 20
12.8433467375
 30
0.0
 10
6.9455456092
 20
12.8582974351
 30
0.0
 10
6.9450881088
 20
12.8684140842
 30
0.0
 10
6.9450881088
 20
12.8734852814
 30
0.0
  0
SPLINE
  5
314
100
AcDbEntity
  8
0
100
AcDbSpline
 62
7
  6
CONTINUOUS
 70
0
 71
3
 72
18
 73
14
 74
0
 42
0.0000001
 43
0.0000001
 44
0.0000000001
 40
0.0
 40
0.0
 40
0.0
 40
0.0
 40
0.1248355496
 40
0.1874354949
 40
0.2500272527
 40
0.3750048312
 40
0.5000027087
 40
0.5625552138
 40
0.6250290829
 40
0.7498890787
 40
0.8125378244
 40
0.875202198
 40
1.0
 40
1.0
 40
1.0
 40
1.0
 10
7.5396220839
 20
12.3051032596
 30
0.0
 10
7.5396220839
 20
12.3026102374
 30
0.0
 10
7.5392764684
 20
12.298854314
 30
0.0
 10
7.5381138363
 20
12.2939921756
 30
0.0
 10
7.5364716281
 20
12.2892659707
 30
0.0
 10
7.5335439885
 20
12.283701282
 30
0.0
 10
7.5295336861
 20
12.2788566095
 30
0.0
 10
7.5257885624
 20
12.2755424479
 30
0.0
 10
7.521719317
 20
12.2726398153
 30
0.0
 10
7.517221021
 20
12.2703889324
 30
0.0
 10
7.5124835454
 20
12.2687865254
 30
0.0
 10
7.5076236698
 20
12.2676135107
 30
0.0
 10
7.5038676707
 20
12.2672433832
 30
0.0
 10
7.5013754123
 20
12.2672504419
 30
0.0
  0
SPLINE
  5
315
100
AcDbEntity
  8
0
100
AcDbSpline
 62
7
  6
CONTINUOUS
 70
0
 71
3
 72
9
 73
5
 74
0
 42
0.0000001
 43
0.0000001
 44
0.0000000001
 40
0.0
 40
0.0
 40
0.0
 40
0.0
 40
0.249694756
 40
1.0
 40
1.0
 40
1.0
 40
1.0
 10
7.5013754123
 20
12.2672656024
 30
0.0
 10
7.5004691895
 20
12.267268169
 30
0.0
 10
7.4968404637
 20
12.2674123755
 30
0.0
 10
7.4932396538
 20
12.268053124
 30
0.0
 10
7.490605613
 20
12.2687438917
 30
0.0
  0
SPLINE
  5
316
100
AcDbEntity
  8
0
100
AcDbSpline
 62
7
  6
CONTINUOUS
 70
0
 71
3
 72
9
 73
5
 74
0
 42
0.0000001
 43
0.0000001
 44
0.0000000001
 40
0.0
 40
0.0
 40
0.0
 40
0.0
 40
0.4999928868
 40
1.0
 40
1.0
 40
1.0
 40
1.0
 10
7.490605613
 20
12.2687438917
 30
0.0
 10
7.486881074
 20
12.2697206388
 30
0.0
 10
7.4796248025
 20
12.2725407778
 30
0.0
 10
7.4732788627
 20
12.277052541
 30
0.0
 10
7.470419063
 20
12.2796310317
 30
0.0
  0
SPLINE
  5
317
100
AcDbEntity
  8
0
100
AcDbSpline
 62
7
  6
CONTINUOUS
 70
0
 71
3
 72
9
 73
5
 74
0
 42
0.0000001
 43
0.0000001
 44
0.0000000001
 40
0.0
 40
0.0
 40
0.0
 40
0.0
 40
0.5000109271
 40
1.0
 40
1.0
 40
1.0
 40
1.0
 10
4.6713251047
 20
12.2796310317
 30
0.0
 10
4.6684632627
 20
12.2770507363
 30
0.0
 10
4.6621124453
 20
12.2725363644
 30
0.0
 10
4.6548503159
 20
12.2697155656
 30
0.0
 10
4.6511226919
 20
12.2687400731
 30
0.0
  0
SPLINE
  5
318
100
AcDbEntity
  8
0
100
AcDbSpline
 62
7
  6
CONTINUOUS
 70
0
 71
3
 72
9
 73
5
 74
0
 42
0.0000001
 43
0.0000001
 44
0.0000000001
 40
0.0
 40
0.0
 40
0.0
 40
0.0
 40
0.2506780577
 40
1.0
 40
1.0
 40
1.0
 40
1.0
 10
4.6511226919
 20
12.2687400731
 30
0.0
 10
4.6502308656
 20
12.2685066886
 30
0.0
 10
4.6466494606
 20
12.2676731885
 30
0.0
 10
4.642961186
 20
12.2672627964
 30
0.0
 10
4.6402055868
 20
12.2672655627
 30
0.0
  0
SPLINE
  5
319
100
AcDbEntity
  8
0
100
AcDbSpline
 62
7
  6
CONTINUOUS
 70
0
 71
3
 72
18
 73
14
 74
0
 42
0.0000001
 43
0.0000001
 44
0.0000000001
 40
0.0
 40
0.0
 40
0.0
 40
0.0
 40
0.1248203406
 40
0.1874858602
 40
0.2501341951
 40
0.3750121777
 40
0.4374917413
 40
0.5000445503
 40
0.625035015
 40
0.7499930211
 40
0.8125765663
 40
0.8751699305
 40
1.0
 40
1.0
 40
1.0
 40
1.0
 10
4.6402055868
 20
12.2672655627
 30
0.0
 10
4.6377197003
 20
12.2672680582
 30
0.0
 10
4.6339748398
 20
12.2676440315
 30
0.0
 10
4.6291296912
 20
12.268822441
 30
0.0
 10
4.6244092929
 20
12.2704342871
 30
0.0
 10
4.619931924
 20
12.2726970026
 30
0.0
 10
4.6158816486
 20
12.27560315
 30
0.0
 10
4.6121547975
 20
12.2789171258
 30
0.0
 10
4.6081644306
 20
12.2837549542
 30
0.0
 10
4.6052542569
 20
12.2893084016
 30
0.0
 10
4.6036219521
 20
12.2940227152
 30
0.0
 10
4.6024658403
 20
12.2988718641
 30
0.0
 10
4.6021220839
 20
12.3026171781
 30
0.0
 10
4.6021220839
 20
12.3051032596
 30
0.0
  0
SPLINE
  5
31A
100
AcDbEntity
  8
0
100
AcDbSpline
 62
7
  6
CONTINUOUS
 70
0
 71
3
 72
15
 73
11
 74
0
 42
0.0000001
 43
0.0000001
 44
0.0000000001
 40
0.0
 40
0.0
 40
0.0
 40
0.0
 40
0.1434383534
 40
0.2816906929
 40
0.4139585599
 40
0.5402167095
 40
0.6608971283
 40
0.7768918784
 40
0.8894653613
 40
1.0
 40
1.0
 40
1.0
 40
1.0
 10
6.8589179683
 20
12.8031727814
 30
0.0
 10
6.8610471272
 20
12.7979574285
 30
0.0
 10
6.8657687098
 20
12.7879246016
 30
0.0
 10
6.8743149073
 20
12.7740523281
 30
0.0
 10
6.8840901881
 20
12.7618614521
 30
0.0
 10
6.8949152307
 20
12.7515619122
 30
0.0
 10
6.9066258971
 20
12.743337941
 30
0.0
 10
6.9190302119
 20
12.7373313686
 30
0.0
 10
6.9319097937
 20
12.7336868737
 30
0.0
 10
6.940691838
 20
12.7328602814
 30
0.0
 10
6.9450328421
 20
12.7328602814
 30
0.0
  0
SPLINE
  5
31B
100
AcDbEntity
  8
0
100
AcDbSpline
 62
7
  6
CONTINUOUS
 70
0
 71
3
 72
27
 73
23
 74
0
 42
0.0000001
 43
0.0000001
 44
0.0000000001
 40
0.0
 40
0.0
 40
0.0
 40
0.0
 40
0.062880419
 40
0.1257799903
 40
0.1885084412
 40
0.2510786404
 40
0.3135505617
 40
0.3447733272
 40
0.3759863922
 40
0.4383515846
 40
0.5007141631
 40
0.5630832171
 40
0.6254627923
 40
0.6566786665
 40
0.6878996283
 40
0.7191259224
 40
0.7503537323
 40
0.7815793898
 40
0.8128034897
 40
0.8752096448
 40
0.9376122442
 40
1.0
 40
1.0
 40
1.0
 40
1.0
 10
15.8337927569
 20
6.5874124015
 30
0.0
 10
15.8395637866
 20
6.5874124015
 30
0.0
 10
15.8511196743
 20
6.5867059068
 30
0.0
 10
15.8681731546
 20
6.5835532667
 30
0.0
 10
15.8846796588
 20
6.5783102849
 30
0.0
 10
15.9003491232
 20
6.5710255977
 30
0.0
 10
15.9124882579
 20
6.563301824
 30
0.0
 10
15.9214944172
 20
6.5561963387
 30
0.0
 10
15.929981704
 20
6.5484933238
 30
0.0
 10
15.9395568389
 20
6.5377871505
 30
0.0
 10
15.9490924816
 20
6.5234363268
 30
0.0
 10
15.956457432
 20
6.5078562743
 30
0.0
 10
15.9606147637
 20
6.4940993163
 30
0.0
 10
15.9626935856
 20
6.4828252933
 30
0.0
 10
15.9636156295
 20
6.4742701879
 30
0.0
 10
15.9638962007
 20
6.4656695881
 30
0.0
 10
15.9635366568
 20
6.4570714985
 30
0.0
 10
15.9625355946
 20
6.4485239093
 30
0.0
 10
15.960351894
 20
6.4372661557
 30
0.0
 10
15.9560670023
 20
6.4235410187
 30
0.0
 10
15.9485568032
 20
6.4080252414
 30
0.0
 10
15.9421065609
 20
6.3985046908
 30
0.0
 10
15.9385638942
 20
6.3940064178
 30
0.0
  0
SPLINE
  5
31C
100
AcDbEntity
  8
0
100
AcDbSpline
 62
7
  6
CONTINUOUS
 70
0
 71
3
 72
25
 73
21
 74
0
 42
0.0000001
 43
0.0000001
 44
0.0000000001
 40
0.0
 40
0.0
 40
0.0
 40
0.0
 40
0.0623672525
 40
0.1247420896
 40
0.1871206295
 40
0.2495075045
 40
0.311904242
 40
0.3743026849
 40
0.4055234567
 40
0.4367418155
 40
0.4991373147
 40
0.5303527126
 40
0.561563963
 40
0.6239618499
 40
0.6863883239
 40
0.7488872835
 40
0.8114780421
 40
0.8742178916
 40
0.9371176598
 40
1.0
 40
1.0
 40
1.0
 40
1.0
 10
15.7290216197
 20
6.3940064178
 30
0.0
 10
15.7254804136
 20
6.3985028362
 30
0.0
 10
15.7190314548
 20
6.4080174738
 30
0.0
 10
15.7115263906
 20
6.4235277869
 30
0.0
 10
15.70638042
 20
6.4399795492
 30
0.0
 10
15.7037321273
 20
6.4570145989
 30
0.0
 10
15.7036432726
 20
6.4742551238
 30
0.0
 10
15.7057192166
 20
6.4884797318
 30
0.0
 10
15.7086228067
 20
6.4995715056
 30
0.0
 10
15.7123427015
 20
6.5104158982
 30
0.0
 10
15.7172543462
 20
6.5208188496
 30
0.0
 10
15.723245113
 20
6.5305916752
 30
0.0
 10
15.7299288699
 20
6.5399056464
 30
0.0
 10
15.7395027133
 20
6.5506234714
 30
0.0
 10
15.7526700962
 20
6.5617575039
 30
0.0
 10
15.7672318851
 20
6.5710232418
 30
0.0
 10
15.7829058572
 20
6.5783104278
 30
0.0
 10
15.79941359
 20
6.583553514
 30
0.0
 10
15.8164669022
 20
6.5867064142
 30
0.0
 10
15.8280220339
 20
6.5874124015
 30
0.0
 10
15.8337927569
 20
6.5874124015
 30
0.0
  0
SPLINE
  5
31D
100
AcDbEntity
  8
0
100
AcDbSpline
 62
7
  6
CONTINUOUS
 70
0
 71
3
 72
13
 73
9
 74
0
 42
0.0000001
 43
0.0000001
 44
0.0000000001
 40
0.0
 40
0.0
 40
0.0
 40
0.0
 40
0.2606564882
 40
0.5158253488
 40
0.6406351511
 40
0.7631277285
 40
0.8829998142
 40
1.0
 40
1.0
 40
1.0
 40
1.0
 10
15.8526307487
 20
6.1858381733
 30
0.0
 10
15.8610226111
 20
6.1867130771
 30
0.0
 10
15.8775319219
 20
6.1896065599
 30
0.0
 10
15.8973129663
 20
6.1960809702
 30
0.0
 10
15.9121261757
 20
6.2028290365
 30
0.0
 10
15.9225523429
 20
6.2085597193
 30
0.0
 10
15.9322926875
 20
6.2149397054
 30
0.0
 10
15.9383560758
 20
6.219649479
 30
0.0
 10
15.9412466336
 20
6.2220965041
 30
0.0
  0
SPLINE
  5
31E
100
AcDbEntity
  8
0
100
AcDbSpline
 62
7
  6
CONTINUOUS
 70
0
 71
3
 72
13
 73
9
 74
0
 42
0.0000001
 43
0.0000001
 44
0.0000000001
 40
0.0
 40
0.0
 40
0.0
 40
0.0
 40
0.2606418233
 40
0.515809181
 40
0.6406186413
 40
0.7631116531
 40
0.8829880414
 40
1.0
 40
1.0
 40
1.0
 40
1.0
 10
15.8150307166
 20
6.1858299515
 30
0.0
 10
15.8066358422
 20
6.1867014127
 30
0.0
 10
15.7901197688
 20
6.189589222
 30
0.0
 10
15.7703293214
 20
6.1960580411
 30
0.0
 10
15.7555084553
 20
6.2028036945
 30
0.0
 10
15.7450763465
 20
6.2085329992
 30
0.0
 10
15.7353301612
 20
6.2149128916
 30
0.0
 10
15.7292624864
 20
6.2196225866
 30
0.0
 10
15.7263696707
 20
6.2220696979
 30
0.0
  0
SPLINE
  5
31F
100
AcDbEntity
  8
0
100
AcDbSpline
 62
7
  6
CONTINUOUS
 70
0
 71
3
 72
15
 73
11
 74
0
 42
0.0000001
 43
0.0000001
 44
0.0000000001
 40
0.0
 40
0.0
 40
0.0
 40
0.0
 40
0.1105346387
 40
0.2231081216
 40
0.3391028717
 40
0.4597832905
 40
0.5860414401
 40
0.7183093071
 40
0.8565616466
 40
1.0
 40
1.0
 40
1.0
 40
1.0
 10
15.6931677569
 20
6.3504104627
 30
0.0
 10
15.6931677569
 20
6.3460694585
 30
0.0
 10
15.6939943493
 20
6.3372874143
 30
0.0
 10
15.6976388442
 20
6.3244078325
 30
0.0
 10
15.7036454166
 20
6.3120035177
 30
0.0
 10
15.7118693878
 20
6.3002928513
 30
0.0
 10
15.7221689277
 20
6.2894678086
 30
0.0
 10
15.7343598037
 20
6.2796925279
 30
0.0
 10
15.7482320772
 20
6.2711463304
 30
0.0
 10
15.758264904
 20
6.2664247478
 30
0.0
 10
15.7634802569
 20
6.2642955889
 30
0.0
  0
SPLINE
  5
320
100
AcDbEntity
  8
0
100
AcDbSpline
 62
7
  6
CONTINUOUS
 70
0
 71
3
 72
30
 73
26
 74
0
 42
0.0000001
 43
0.0000001
 44
0.0000000001
 40
0.0
 40
0.0
 40
0.0
 40
0.0
 40
0.0613869319
 40
0.1229256314
 40
0.1847112102
 40
0.2468331904
 40
0.3094460266
 40
0.3409523502
 40
0.3725850279
 40
0.4043317106
 40
0.4361622187
 40
0.468055157
 40
0.4999865589
 40
0.5319189956
 40
0.5638138571
 40
0.5956447077
 40
0.6273899491
 40
0.6590207275
 40
0.6905256701
 40
0.7219109397
 40
0.7531696447
 40
0.8152918555
 40
0.8770745438
 40
0.938612502
 40
1.0
 40
1.0
 40
1.0
 40
1.0
 10
15.6537211395
 20
5.8610281112
 30
0.0
 10
15.6589332829
 20
5.8680566211
 30
0.0
 10
15.6699428949
 20
5.8817194145
 30
0.0
 10
15.6882602603
 20
5.9006847804
 30
0.0
 10
15.7084604384
 20
5.9178104533
 30
0.0
 10
15.7305477881
 20
5.9327119582
 30
0.0
 10
15.7504285067
 20
5.9428887411
 30
0.0
 10
15.7670992735
 20
5.9495044416
 30
0.0
 10
15.7799826531
 20
5.9536558731
 30
0.0
 10
15.7931611537
 20
5.9569406426
 30
0.0
 10
15.8065703134
 20
5.9593246306
 30
0.0
 10
15.8201404766
 20
5.9607639187
 30
0.0
 10
15.8337928507
 20
5.9612393572
 30
0.0
 10
15.8474452368
 20
5.9607587114
 30
0.0
 10
15.8610157419
 20
5.9593193534
 30
0.0
 10
15.8744256583
 20
5.956939416
 30
0.0
 10
15.8876049343
 20
5.9536589534
 30
0.0
 10
15.9004877842
 20
5.949508993
 30
0.0
 10
15.9130183384
 20
5.9445322395
 30
0.0
 10
15.9251575613
 20
5.9387889991
 30
0.0
 10
15.940742049
 20
5.930201464
 30
0.0
 10
15.9591236051
 20
5.9178050747
 30
0.0
 10
15.97932573
 20
5.9006853584
 30
0.0
 10
15.9976433296
 20
5.8817198667
 30
0.0
 10
16.0086521829
 20
5.8680566859
 30
0.0
 10
16.0138643744
 20
5.8610281112
 30
0.0
  0
SPLINE
  5
321
100
AcDbEntity
  8
0
100
AcDbSpline
 62
7
  6
CONTINUOUS
 70
0
 71
3
 72
14
 73
10
 74
0
 42
0.0000001
 43
0.0000001
 44
0.0000000001
 40
0.0
 40
0.0
 40
0.0
 40
0.0
 40
0.1348852082
 40
0.2689342014
 40
0.4007762581
 40
0.5294805881
 40
0.6543086608
 40
0.7746473402
 40
1.0
 40
1.0
 40
1.0
 40
1.0
 10
15.8337927569
 20
6.3504657294
 30
0.0
 10
15.8287215598
 20
6.3504657294
 30
0.0
 10
15.8186049106
 20
6.3509232298
 30
0.0
 10
15.803654213
 20
6.352950781
 30
0.0
 10
15.7891802383
 20
6.3563070813
 30
0.0
 10
15.7754238545
 20
6.3609257819
 30
0.0
 10
15.7625968562
 20
6.366747808
 30
0.0
 10
15.7473563777
 20
6.3757614602
 30
0.0
 10
15.7373328018
 20
6.3843274509
 30
0.0
 10
15.7317589408
 20
6.3907082369
 30
0.0
  0
SPLINE
  5
322
100
AcDbEntity
  8
0
100
AcDbSpline
 62
7
  6
CONTINUOUS
 70
0
 71
3
 72
10
 73
6
 74
0
 42
0.0000001
 43
0.0000001
 44
0.0000000001
 40
0.0
 40
0.0
 40
0.0
 40
0.0
 40
0.2427936407
 40
0.6177858724
 40
1.0
 40
1.0
 40
1.0
 40
1.0
 10
15.7634802569
 20
6.2642955889
 30
0.0
 10
15.7688715481
 20
6.2620946035
 30
0.0
 10
15.7828973515
 20
6.2572280172
 30
0.0
 10
15.8064394106
 20
6.252226613
 30
0.0
 10
15.8246255801
 20
6.2509735716
 30
0.0
 10
15.8337927569
 20
6.2509735716
 30
0.0
  0
SPLINE
  5
323
100
AcDbEntity
  8
0
100
AcDbSpline
 62
7
  6
CONTINUOUS
 70
0
 71
3
 72
14
 73
10
 74
0
 42
0.0000001
 43
0.0000001
 44
0.0000000001
 40
0.0
 40
0.0
 40
0.0
 40
0.0
 40
0.2253526598
 40
0.3456913392
 40
0.4705194119
 40
0.5992237419
 40
0.7310657986
 40
0.8651147918
 40
1.0
 40
1.0
 40
1.0
 40
1.0
 10
15.935826573
 20
6.3907082369
 30
0.0
 10
15.930252712
 20
6.3843274509
 30
0.0
 10
15.9202291361
 20
6.3757614602
 30
0.0
 10
15.9049886576
 20
6.366747808
 30
0.0
 10
15.8921616594
 20
6.3609257819
 30
0.0
 10
15.8784052755
 20
6.3563070813
 30
0.0
 10
15.8639313008
 20
6.352950781
 30
0.0
 10
15.8489806032
 20
6.3509232298
 30
0.0
 10
15.8388639541
 20
6.3504657294
 30
0.0
 10
15.8337927569
 20
6.3504657294
 30
0.0
  0
SPLINE
  5
324
100
AcDbEntity
  8
0
100
AcDbSpline
 62
7
  6
CONTINUOUS
 70
0
 71
3
 72
10
 73
6
 74
0
 42
0.0000001
 43
0.0000001
 44
0.0000000001
 40
0.0
 40
0.0
 40
0.0
 40
0.0
 40
0.2553454147
 40
0.6335354937
 40
1.0
 40
1.0
 40
1.0
 40
1.0
 10
15.8337927569
 20
6.2509735716
 30
0.0
 10
15.8399169502
 20
6.2509735716
 30
0.0
 10
15.8551187718
 20
6.2516762311
 30
0.0
 10
15.8788665163
 20
6.2555503372
 30
0.0
 10
15.8959679754
 20
6.2609735576
 30
0.0
 10
15.9041052569
 20
6.2642955889
 30
0.0
  0
SPLINE
  5
325
100
AcDbEntity
  8
0
100
AcDbSpline
 62
7
  6
CONTINUOUS
 70
0
 71
3
 72
13
 73
9
 74
0
 42
0.0000001
 43
0.0000001
 44
0.0000000001
 40
0.0
 40
0.0
 40
0.0
 40
0.0
 40
0.2652033411
 40
0.5179314533
 40
0.6407289411
 40
0.7616864859
 40
0.8812766752
 40
1.0
 40
1.0
 40
1.0
 40
1.0
 10
15.7173644242
 20
6.4061755623
 30
0.0
 10
15.7135567494
 20
6.4022011898
 30
0.0
 10
15.7067101762
 20
6.3938405349
 30
0.0
 10
15.7001947221
 20
6.3821538681
 30
0.0
 10
15.6965491898
 20
6.3725001158
 30
0.0
 10
15.6946047895
 20
6.3652002894
 30
0.0
 10
15.6934313024
 20
6.3578242283
 30
0.0
 10
15.6931677569
 20
6.3528744334
 30
0.0
 10
15.6931677569
 20
6.3504104627
 30
0.0
  0
SPLINE
  5
326
100
AcDbEntity
  8
0
100
AcDbSpline
 62
7
  6
CONTINUOUS
 70
0
 71
3
 72
13
 73
9
 74
0
 42
0.0000001
 43
0.0000001
 44
0.0000000001
 40
0.0
 40
0.0
 40
0.0
 40
0.0
 40
0.1187233248
 40
0.2383135141
 40
0.3592710589
 40
0.4820685467
 40
0.7347966589
 40
1.0
 40
1.0
 40
1.0
 40
1.0
 10
15.9744177569
 20
6.3504104627
 30
0.0
 10
15.9744177569
 20
6.3528744334
 30
0.0
 10
15.9741542115
 20
6.3578242283
 30
0.0
 10
15.9729807244
 20
6.3652002894
 30
0.0
 10
15.9710363241
 20
6.3725001158
 30
0.0
 10
15.9673907918
 20
6.3821538681
 30
0.0
 10
15.9608753377
 20
6.3938405349
 30
0.0
 10
15.9540287644
 20
6.4022011898
 30
0.0
 10
15.9502210897
 20
6.4061755623
 30
0.0
  0
SPLINE
  5
327
100
AcDbEntity
  8
0
100
AcDbSpline
 62
7
  6
CONTINUOUS
 70
0
 71
3
 72
15
 73
11
 74
0
 42
0.0000001
 43
0.0000001
 44
0.0000000001
 40
0.0
 40
0.0
 40
0.0
 40
0.0
 40
0.1434383534
 40
0.2816906929
 40
0.4139585599
 40
0.5402167095
 40
0.6608971283
 40
0.7768918784
 40
0.8894653613
 40
1.0
 40
1.0
 40
1.0
 40
1.0
 10
15.9041052569
 20
6.2642955889
 30
0.0
 10
15.9093206098
 20
6.2664247478
 30
0.0
 10
15.9193534367
 20
6.2711463304
 30
0.0
 10
15.9332257102
 20
6.2796925279
 30
0.0
 10
15.9454165862
 20
6.2894678086
 30
0.0
 10
15.9557161261
 20
6.3002928513
 30
0.0
 10
15.9639400973
 20
6.3120035177
 30
0.0
 10
15.9699466697
 20
6.3244078325
 30
0.0
 10
15.9735911646
 20
6.3372874143
 30
0.0
 10
15.9744177569
 20
6.3460694585
 30
0.0
 10
15.9744177569
 20
6.3504104627
 30
0.0
  0
SPLINE
  5
328
100
AcDbEntity
  8
0
100
AcDbSpline
 62
7
  6
CONTINUOUS
 70
0
 71
3
 72
49
 73
45
 74
0
 42
0.0000001
 43
0.0000001
 44
0.0000000001
 40
0.0
 40
0.0
 40
0.0
 40
0.0
 40
0.0107120886
 40
0.0214616452
 40
0.032285467
 40
0.0432189446
 40
0.054295883
 40
0.0655478396
 40
0.0770034805
 40
0.0886888831
 40
0.1006272746
 40
0.1128382585
 40
0.1253385658
 40
0.1381422846
 40
0.1512599983
 40
0.1646994696
 40
0.1925569317
 40
0.221734268
 40
0.236814883
 40
0.2522142562
 40
0.2839335209
 40
0.3002379657
 40
0.3168216808
 40
0.3507698395
 40
0.3856616085
 40
0.4213621928
 40
0.4577236814
 40
0.4945889036
 40
0.5317933729
 40
0.5691678512
 40
0.6065409873
 40
0.643741244
 40
0.6805997203
 40
0.7169517911
 40
0.7526405832
 40
0.7875184779
 40
0.8214502355
 40
0.8543168857
 40
0.8860172069
 40
0.9164711503
 40
0.9312156695
 40
0.9456327247
 40
0.973474734
 40
1.0
 40
1.0
 40
1.0
 40
1.0
 10
13.968133006
 20
12.7921364897
 30
0.0
 10
13.9708280891
 20
12.8008583127
 30
0.0
 10
13.9768615246
 20
12.8181438041
 30
0.0
 10
13.9877870715
 20
12.8434193801
 30
0.0
 10
14.0005733206
 20
12.8680203764
 30
0.0
 10
14.015194977
 20
12.8919032741
 30
0.0
 10
14.0316288065
 20
12.9150256149
 30
0.0
 10
14.049845436
 20
12.9373471058
 30
0.0
 10
14.0698098421
 20
12.9588319708
 30
0.0
 10
14.0914883277
 20
12.9794429399
 30
0.0
 10
14.1148446167
 20
12.9991433156
 30
0.0
 10
14.1398355431
 20
13.0179028485
 30
0.0
 10
14.1664183003
 20
13.0356901951
 30
0.0
 10
14.1945489372
 20
13.0524726798
 30
0.0
 10
14.224178159
 20
13.0682247256
 30
0.0
 10
14.2661116517
 20
13.0880550773
 30
0.0
 10
14.3220950753
 20
13.1100175839
 30
0.0
 10
14.3809972673
 20
13.1277699384
 30
0.0
 10
14.4304174022
 20
13.1397377263
 30
0.0
 10
14.4823545122
 20
13.1503735121
 30
0.0
 10
14.535840058
 20
13.1584709985
 30
0.0
 10
14.5906110067
 20
13.1641440791
 30
0.0
 10
14.6474261296
 20
13.1682782894
 30
0.0
 10
14.7202387711
 20
13.1703091863
 30
0.0
 10
14.8093350603
 20
13.1678340697
 30
0.0
 10
14.9002238808
 20
13.1604761881
 30
0.0
 10
14.9922859529
 20
13.1482893499
 30
0.0
 10
15.0848961066
 20
13.1313564849
 30
0.0
 10
15.1774235217
 20
13.1097896996
 30
0.0
 10
15.2692397724
 20
13.0837404182
 30
0.0
 10
15.3597188634
 20
13.05338178
 30
0.0
 10
15.448245683
 20
13.0189222741
 30
0.0
 10
15.5342183829
 20
12.980597537
 30
0.0
 10
15.6170505825
 20
12.9386645054
 30
0.0
 10
15.6961812223
 20
12.8934126272
 30
0.0
 10
15.7710708492
 20
12.8451456964
 30
0.0
 10
15.8412114745
 20
12.7941920662
 30
0.0
 10
15.9061296154
 20
12.7408969443
 30
0.0
 10
15.9653779183
 20
12.6856175548
 30
0.0
 10
16.0101746214
 20
12.6377031428
 30
0.0
 10
16.0427300203
 20
12.5986862421
 30
0.0
 10
16.0723845091
 20
12.5601965886
 30
0.0
 10
16.1053307952
 20
12.5116288877
 30
0.0
 10
16.1278559927
 20
12.4710498042
 30
0.0
 10
16.1378142619
 20
12.4507569852
 30
0.0
  0
SPLINE
  5
329
100
AcDbEntity
  8
0
100
AcDbSpline
 62
7
  6
CONTINUOUS
 70
0
 71
3
 72
15
 73
11
 74
0
 42
0.0000001
 43
0.0000001
 44
0.0000000001
 40
0.0
 40
0.0
 40
0.0
 40
0.0
 40
0.1381135504
 40
0.2714885587
 40
0.4004246559
 40
0.5254201103
 40
0.6471125164
 40
0.7662285382
 40
0.8835680925
 40
1.0
 40
1.0
 40
1.0
 40
1.0
 10
16.1378142619
 20
12.4507569852
 30
0.0
 10
16.1449542785
 20
12.436207161
 30
0.0
 10
16.1579562496
 20
12.4070826448
 30
0.0
 10
16.1736748281
 20
12.3627469025
 30
0.0
 10
16.1851776846
 20
12.3187158606
 30
0.0
 10
16.1924141415
 20
12.2751700391
 30
0.0
 10
16.1953478113
 20
12.2322742438
 30
0.0
 10
16.193963114
 20
12.1901935127
 30
0.0
 10
16.1882604784
 20
12.1491022287
 30
0.0
 10
16.1815757176
 20
12.1224314909
 30
0.0
 10
16.177541969
 20
12.1093774807
 30
0.0
  0
SPLINE
  5
32A
100
AcDbEntity
  8
0
100
AcDbSpline
 62
7
  6
CONTINUOUS
 70
0
 71
3
 72
15
 73
11
 74
0
 42
0.0000001
 43
0.0000001
 44
0.0000000001
 40
0.0
 40
0.0
 40
0.0
 40
0.0
 40
0.1314296908
 40
0.2602464591
 40
0.386838848
 40
0.5115916005
 40
0.634938802
 40
0.757179934
 40
0.8786572154
 40
1.0
 40
1.0
 40
1.0
 40
1.0
 10
13.8557031424
 20
11.8938703451
 30
0.0
 10
13.8478202302
 20
11.9099340312
 30
0.0
 10
13.8333851105
 20
11.942337421
 30
0.0
 10
13.8158665581
 20
11.9920668124
 30
0.0
 10
13.802903494
 20
12.0422450461
 30
0.0
 10
13.7946820268
 20
12.0926673135
 30
0.0
 10
13.7914050673
 20
12.1430627741
 30
0.0
 10
13.7931744851
 20
12.1930946004
 30
0.0
 10
13.8001071407
 20
12.2423992173
 30
0.0
 10
13.8081808092
 20
12.2745340741
 30
0.0
 10
13.8130583979
 20
12.290317957
 30
0.0
  0
SPLINE
  5
32B
100
AcDbEntity
  8
0
100
AcDbSpline
 62
7
  6
CONTINUOUS
 70
0
 71
3
 72
44
 73
40
 74
0
 42
0.0000001
 43
0.0000001
 44
0.0000000001
 40
0.0
 40
0.0
 40
0.0
 40
0.0
 40
0.0124632485
 40
0.0249168296
 40
0.037392533
 40
0.0499184677
 40
0.0625115076
 40
0.0751830946
 40
0.087943943
 40
0.1008131894
 40
0.1138099613
 40
0.1269499557
 40
0.1537179424
 40
0.1812457775
 40
0.2096264919
 40
0.2389252723
 40
0.2691748282
 40
0.3003772695
 40
0.3325040969
 40
0.3655002397
 40
0.3992869973
 40
0.4337648734
 40
0.4688188284
 40
0.5043191632
 40
0.5401272967
 40
0.5760973858
 40
0.6120805355
 40
0.647927169
 40
0.6834910492
 40
0.7186317186
 40
0.7532181203
 40
0.7871321617
 40
0.8202709392
 40
0.852553466
 40
0.8839191857
 40
0.9143322297
 40
0.9437927526
 40
0.9723408042
 40
1.0
 40
1.0
 40
1.0
 40
1.0
 10
16.0224691003
 20
11.6075584105
 30
0.0
 10
16.0193066541
 20
11.5973247308
 30
0.0
 10
16.0122714234
 20
11.5770778218
 30
0.0
 10
15.9996418298
 20
11.5475014393
 30
0.0
 10
15.984991326
 20
11.5188103912
 30
0.0
 10
15.9683716891
 20
11.4910749365
 30
0.0
 10
15.9498642977
 20
11.4643581221
 30
0.0
 10
15.9295524053
 20
11.4387291152
 30
0.0
 10
15.9075105862
 20
11.4142527316
 30
0.0
 10
15.883825043
 20
11.3909651394
 30
0.0
 10
15.8585747545
 20
11.3688867232
 30
0.0
 10
15.822703728
 20
11.3409157626
 30
0.0
 10
15.7741585809
 20
11.3090488204
 30
0.0
 10
15.7111139852
 20
11.2760566865
 30
0.0
 10
15.6433526285
 20
11.2480514226
 30
0.0
 10
15.5713013454
 20
11.2250096902
 30
0.0
 10
15.4953663373
 20
11.2069138969
 30
0.0
 10
15.4159664172
 20
11.1937501904
 30
0.0
 10
15.333539632
 20
11.1855086286
 30
0.0
 10
15.2485514273
 20
11.1821712443
 30
0.0
 10
15.1614948814
 20
11.1837145003
 30
0.0
 10
15.0728883734
 20
11.1900910038
 30
0.0
 10
14.9832734621
 20
11.2012420083
 30
0.0
 10
14.893207216
 20
11.2170763373
 30
0.0
 10
14.8032595653
 20
11.2374847963
 30
0.0
 10
14.7140048803
 20
11.2623300799
 30
0.0
 10
14.6260162947
 20
11.2914475569
 30
0.0
 10
14.5398621472
 20
11.3246556263
 30
0.0
 10
14.4560951785
 20
11.3617420904
 30
0.0
 10
14.3752535831
 20
11.4024848551
 30
0.0
 10
14.2978504407
 20
11.4466410091
 30
0.0
 10
14.2243733886
 20
11.4939589632
 30
0.0
 10
14.1552803706
 20
11.5441835513
 30
0.0
 10
14.0909978012
 20
11.5970567481
 30
0.0
 10
14.0319276615
 20
11.6523295603
 30
0.0
 10
13.9784359981
 20
11.7097543305
 30
0.0
 10
13.9308737791
 20
11.7691210751
 30
0.0
 10
13.8896099841
 20
11.8301950207
 30
0.0
 10
13.8661752337
 20
11.8725304667
 30
0.0
 10
13.8557031424
 20
11.8938703451
 30
0.0
  0
SPLINE
  5
32C
100
AcDbEntity
  8
0
100
AcDbSpline
 62
7
  6
CONTINUOUS
 70
0
 71
3
 72
33
 73
29
 74
0
 42
0.0000001
 43
0.0000001
 44
0.0000000001
 40
0.0
 40
0.0
 40
0.0
 40
0.0
 40
0.0622836547
 40
0.0934788465
 40
0.1246672219
 40
0.155850924
 40
0.1870344657
 40
0.2182219627
 40
0.2494104956
 40
0.2806024641
 40
0.3118017123
 40
0.3430048007
 40
0.3742197894
 40
0.4054541229
 40
0.436707851
 40
0.4992335313
 40
0.5618764695
 40
0.5932708069
 40
0.624681476
 40
0.6874447599
 40
0.7501407196
 40
0.7814769087
 40
0.8127785473
 40
0.844043356
 40
0.8752788476
 40
0.9064947748
 40
0.9377089357
 40
1.0
 40
1.0
 40
1.0
 40
1.0
 10
15.6670176734
 20
13.4515360574
 30
0.0
 10
15.6694589427
 20
13.4594360076
 30
0.0
 10
15.6743683801
 20
13.4709606799
 30
0.0
 10
15.6831518928
 20
13.4850124023
 30
0.0
 10
15.6908178334
 20
13.4948175623
 30
0.0
 10
15.6994603362
 20
13.5037685581
 30
0.0
 10
15.7089972258
 20
13.5117608433
 30
0.0
 10
15.71931476
 20
13.5187161566
 30
0.0
 10
15.7303004232
 20
13.524562343
 30
0.0
 10
15.7418360006
 20
13.5292334365
 30
0.0
 10
15.7537895777
 20
13.5327026578
 30
0.0
 10
15.7660378124
 20
13.5349344484
 30
0.0
 10
15.7784521601
 20
13.5359200327
 30
0.0
 10
15.790910481
 20
13.5356733703
 30
0.0
 10
15.8074128717
 20
13.5337104558
 30
0.0
 10
15.8275954463
 20
13.528276709
 30
0.0
 10
15.8464116407
 20
13.5191549024
 30
0.0
 10
15.8602810933
 20
13.5098995849
 30
0.0
 10
15.8732628372
 20
13.4994097652
 30
0.0
 10
15.887627471
 20
13.4841652593
 30
0.0
 10
15.8989941204
 20
13.4665784633
 30
0.0
 10
15.9060178944
 20
13.4514723632
 30
0.0
 10
15.910201242
 20
13.439708828
 30
0.0
 10
15.9132515065
 20
13.4276158438
 30
0.0
 10
15.915119676
 20
13.4152961664
 30
0.0
 10
15.9157794243
 20
13.4028569499
 30
0.0
 10
15.9150103854
 20
13.3862992414
 30
0.0
 10
15.9125625408
 20
13.3740147958
 30
0.0
 10
15.9101209811
 20
13.3661139057
 30
0.0
  0
SPLINE
  5
32D
100
AcDbEntity
  8
0
100
AcDbSpline
 62
7
  6
CONTINUOUS
 70
0
 71
3
 72
17
 73
13
 74
0
 42
0.0000001
 43
0.0000001
 44
0.0000000001
 40
0.0
 40
0.0
 40
0.0
 40
0.0
 40
0.1249359604
 40
0.1874811867
 40
0.2500141673
 40
0.3749535717
 40
0.4999015618
 40
0.6248549471
 40
0.749824333
 40
0.8123842401
 40
0.8749630644
 40
1.0
 40
1.0
 40
1.0
 40
1.0
 10
15.9101209811
 20
13.3661139057
 30
0.0
 10
15.9082502847
 20
13.3600603298
 30
0.0
 10
15.9047154059
 20
13.3511778495
 30
0.0
 10
15.8986607228
 20
13.3400265357
 30
0.0
 10
15.8917304427
 20
13.3293941249
 30
0.0
 10
15.8815059997
 20
13.3171940831
 30
0.0
 10
15.8670549999
 20
13.3047197946
 30
0.0
 10
15.8508034144
 20
13.2947020523
 30
0.0
 10
15.8360965105
 20
13.2886091245
 30
0.0
 10
15.8238776384
 20
13.2851626022
 30
0.0
 10
15.8114252178
 20
13.2826834043
 30
0.0
 10
15.8018928183
 20
13.2819094294
 30
0.0
 10
15.7955517362
 20
13.2818797348
 30
0.0
  0
SPLINE
  5
32E
100
AcDbEntity
  8
0
100
AcDbSpline
 62
7
  6
CONTINUOUS
 70
0
 71
3
 72
18
 73
14
 74
0
 42
0.0000001
 43
0.0000001
 44
0.0000000001
 40
0.0
 40
0.0
 40
0.0
 40
0.0
 40
0.0563355619
 40
0.1128605543
 40
0.1697626303
 40
0.2272182918
 40
0.2853925853
 40
0.3444367274
 40
0.4655305692
 40
0.5913466475
 40
0.7223664086
 40
0.8587441307
 40
1.0
 40
1.0
 40
1.0
 40
1.0
 10
16.6592926612
 20
12.2835047561
 30
0.0
 10
16.6605014067
 20
12.2810408144
 30
0.0
 10
16.6631322659
 20
12.2762041547
 30
0.0
 10
16.6676879736
 20
12.2692907385
 30
0.0
 10
16.6728373959
 20
12.2627374586
 30
0.0
 10
16.6785590323
 20
12.2565680638
 30
0.0
 10
16.6848330008
 20
12.2508056166
 30
0.0
 10
16.6939788691
 20
12.2436384984
 30
0.0
 10
16.7067294119
 20
12.2358074183
 30
0.0
 10
16.7236630641
 20
12.2284442431
 30
0.0
 10
16.7421171156
 20
12.2231214972
 30
0.0
 10
16.7618090444
 20
12.2199235566
 30
0.0
 10
16.7753466856
 20
12.2192318594
 30
0.0
 10
16.7822281548
 20
12.2192318594
 30
0.0
  0
SPLINE
  5
32F
100
AcDbEntity
  8
0
100
AcDbSpline
 62
7
  6
CONTINUOUS
 70
0
 71
3
 72
9
 73
5
 74
0
 42
0.0000001
 43
0.0000001
 44
0.0000000001
 40
0.0
 40
0.0
 40
0.0
 40
0.0
 40
0.245754078
 40
1.0
 40
1.0
 40
1.0
 40
1.0
 10
16.7008469353
 20
12.2400209518
 30
0.0
 10
16.7010846851
 20
12.241892427
 30
0.0
 10
16.7022258102
 20
12.2494849592
 30
0.0
 10
16.7040475054
 20
12.2569721798
 30
0.0
 10
16.7057569652
 20
12.2625039936
 30
0.0
  0
SPLINE
  5
330
100
AcDbEntity
  8
0
100
AcDbSpline
 62
7
  6
CONTINUOUS
 70
0
 71
3
 72
11
 73
7
 74
0
 42
0.0000001
 43
0.0000001
 44
0.0000000001
 40
0.0
 40
0.0
 40
0.0
 40
0.0
 40
0.2720502337
 40
0.5290677804
 40
0.7709701748
 40
1.0
 40
1.0
 40
1.0
 40
1.0
 10
16.5290275185
 20
11.7125951479
 30
0.0
 10
16.5345082865
 20
11.7125951479
 30
0.0
 10
16.5451909874
 20
11.7117839393
 30
0.0
 10
16.5603317078
 20
11.7079526398
 30
0.0
 10
16.5736686974
 20
11.7016174228
 30
0.0
 10
16.5812217724
 20
11.6957100883
 30
0.0
 10
16.5844763625
 20
11.6924394152
 30
0.0
  0
SPLINE
  5
331
100
AcDbEntity
  8
0
100
AcDbSpline
 62
7
  6
CONTINUOUS
 70
0
 71
3
 72
15
 73
11
 74
0
 42
0.0000001
 43
0.0000001
 44
0.0000000001
 40
0.0
 40
0.0
 40
0.0
 40
0.0
 40
0.1242834758
 40
0.2533972171
 40
0.3848453028
 40
0.5164025774
 40
0.6456768474
 40
0.7087959342
 40
0.7705888578
 40
1.0
 40
1.0
 40
1.0
 40
1.0
 10
17.4660231949
 20
11.5412423864
 30
0.0
 10
17.4691034301
 20
11.5412423864
 30
0.0
 10
17.475392012
 20
11.5417814115
 30
0.0
 10
17.484696393
 20
11.5440198783
 30
0.0
 10
17.4937523902
 20
11.54763771
 30
0.0
 10
17.5022119268
 20
11.5524923827
 30
0.0
 10
17.5085637789
 20
11.5574527969
 30
0.0
 10
17.5130571954
 20
11.5618800629
 30
0.0
 10
17.5188077039
 20
11.568507928
 30
0.0
 10
17.5225008687
 20
11.5749764824
 30
0.0
 10
17.5241795607
 20
11.5804087319
 30
0.0
  0
SPLINE
  5
332
100
AcDbEntity
  8
0
100
AcDbSpline
 62
7
  6
CONTINUOUS
 70
0
 71
3
 72
11
 73
7
 74
0
 42
0.0000001
 43
0.0000001
 44
0.0000000001
 40
0.0
 40
0.0
 40
0.0
 40
0.0
 40
0.2640340299
 40
0.5170418852
 40
0.7609842547
 40
1.0
 40
1.0
 40
1.0
 40
1.0
 10
17.8176849779
 20
12.5301926098
 30
0.0
 10
17.8182713735
 20
12.5320901868
 30
0.0
 10
17.8191272007
 20
12.5359057849
 30
0.0
 10
17.8193920951
 20
12.541655703
 30
0.0
 10
17.8185733049
 20
12.547166776
 30
0.0
 10
17.8173105247
 20
12.5506056712
 30
0.0
 10
17.8165183129
 20
12.552219651
 30
0.0
  0
SPLINE
  5
333
100
AcDbEntity
  8
0
100
AcDbSpline
 62
7
  6
CONTINUOUS
 70
0
 71
3
 72
9
 73
5
 74
0
 42
0.0000001
 43
0.0000001
 44
0.0000000001
 40
0.0
 40
0.0
 40
0.0
 40
0.0
 40
0.4989179631
 40
1.0
 40
1.0
 40
1.0
 40
1.0
 10
15.7819850238
 20
13.1961874521
 30
0.0
 10
15.7787642246
 20
13.1929373015
 30
0.0
 10
15.7717561671
 20
13.1869468858
 30
0.0
 10
15.7638498804
 20
13.1822079723
 30
0.0
 10
15.7597319027
 20
13.1801680435
 30
0.0
  0
SPLINE
  5
334
100
AcDbEntity
  8
0
100
AcDbSpline
 62
7
  6
CONTINUOUS
 70
0
 71
3
 72
9
 73
5
 74
0
 42
0.0000001
 43
0.0000001
 44
0.0000000001
 40
0.0
 40
0.0
 40
0.0
 40
0.0
 40
0.2479752596
 40
1.0
 40
1.0
 40
1.0
 40
1.0
 10
15.7597319027
 20
13.1801680435
 30
0.0
 10
15.758681057
 20
13.1796474846
 30
0.0
 10
15.7544009293
 20
13.1776347295
 30
0.0
 10
15.7499573936
 20
13.1759716821
 30
0.0
 10
15.7465601909
 20
13.1749193974
 30
0.0
  0
SPLINE
  5
335
100
AcDbEntity
  8
0
100
AcDbSpline
 62
7
  6
CONTINUOUS
 70
0
 71
3
 72
9
 73
5
 74
0
 42
0.0000001
 43
0.0000001
 44
0.0000000001
 40
0.0
 40
0.0
 40
0.0
 40
0.0
 40
0.4905025134
 40
1.0
 40
1.0
 40
1.0
 40
1.0
 10
15.6765484356
 20
13.1763939988
 30
0.0
 10
15.6664805769
 20
13.1793714325
 30
0.0
 10
15.6465208486
 20
13.1874651374
 30
0.0
 10
15.6282523567
 20
13.1988264889
 30
0.0
 10
15.6194884984
 20
13.2053168027
 30
0.0
  0
SPLINE
  5
336
100
AcDbEntity
  8
0
100
AcDbSpline
 62
7
  6
CONTINUOUS
 70
0
 71
3
 72
13
 73
9
 74
0
 42
0.0000001
 43
0.0000001
 44
0.0000000001
 40
0.0
 40
0.0
 40
0.0
 40
0.0
 40
0.2630743748
 40
0.3914867622
 40
0.5176190976
 40
0.7628386494
 40
0.8823592422
 40
1.0
 40
1.0
 40
1.0
 40
1.0
 10
15.568764374
 20
13.2608547621
 30
0.0
 10
15.5649831121
 20
13.2672251428
 30
0.0
 10
15.5599672235
 20
13.27709457
 30
0.0
 10
15.5548156864
 20
13.2907416371
 30
0.0
 10
15.5508461788
 20
13.3042538282
 30
0.0
 10
15.5485273498
 20
13.3179577647
 30
0.0
 10
15.5480219395
 20
13.3315457192
 30
0.0
 10
15.5483780968
 20
13.3382262551
 30
0.0
 10
15.5487088372
 20
13.3415224261
 30
0.0
  0
SPLINE
  5
337
100
AcDbEntity
  8
0
100
AcDbSpline
 62
7
  6
CONTINUOUS
 70
0
 71
3
 72
13
 73
9
 74
0
 42
0.0000001
 43
0.0000001
 44
0.0000000001
 40
0.0
 40
0.0
 40
0.0
 40
0.0
 40
0.2416488655
 40
0.3656481925
 40
0.4911822551
 40
0.7451133404
 40
0.8727450298
 40
1.0
 40
1.0
 40
1.0
 40
1.0
 10
16.7080715294
 20
12.2675507987
 30
0.0
 10
16.7228559201
 20
12.2679355776
 30
0.0
 10
16.7452181957
 20
12.2701912246
 30
0.0
 10
16.7746845439
 20
12.2762150998
 30
0.0
 10
16.8044187764
 20
12.2843695975
 30
0.0
 10
16.8335056259
 20
12.2954799887
 30
0.0
 10
16.8614268226
 20
12.3093013835
 30
0.0
 10
16.8749543786
 20
12.3170968154
 30
0.0
 10
16.8815739082
 20
12.3212003293
 30
0.0
  0
SPLINE
  5
338
100
AcDbEntity
  8
0
100
AcDbSpline
 62
7
  6
CONTINUOUS
 70
0
 71
3
 72
18
 73
14
 74
0
 42
0.0000001
 43
0.0000001
 44
0.0000000001
 40
0.0
 40
0.0
 40
0.0
 40
0.0
 40
0.0563355619
 40
0.1128605543
 40
0.1697626303
 40
0.2272182918
 40
0.2853925853
 40
0.3444367274
 40
0.4655305692
 40
0.5913466475
 40
0.7223664086
 40
0.8587441307
 40
1.0
 40
1.0
 40
1.0
 40
1.0
 10
13.4355791822
 20
12.2835047561
 30
0.0
 10
13.4367879277
 20
12.2810408144
 30
0.0
 10
13.4394187869
 20
12.2762041547
 30
0.0
 10
13.4439744945
 20
12.2692907385
 30
0.0
 10
13.4491239168
 20
12.2627374586
 30
0.0
 10
13.4548455533
 20
12.2565680638
 30
0.0
 10
13.4611195218
 20
12.2508056166
 30
0.0
 10
13.4702653901
 20
12.2436384984
 30
0.0
 10
13.4830159328
 20
12.2358074183
 30
0.0
 10
13.4999495851
 20
12.2284442431
 30
0.0
 10
13.5184036366
 20
12.2231214972
 30
0.0
 10
13.5380955654
 20
12.2199235566
 30
0.0
 10
13.5516332066
 20
12.2192318594
 30
0.0
 10
13.5585146758
 20
12.2192318594
 30
0.0
  0
SPLINE
  5
339
100
AcDbEntity
  8
0
100
AcDbSpline
 62
7
  6
CONTINUOUS
 70
0
 71
3
 72
9
 73
5
 74
0
 42
0.0000001
 43
0.0000001
 44
0.0000000001
 40
0.0
 40
0.0
 40
0.0
 40
0.0
 40
0.245754078
 40
1.0
 40
1.0
 40
1.0
 40
1.0
 10
13.4771334563
 20
12.2400209518
 30
0.0
 10
13.4773712061
 20
12.241892427
 30
0.0
 10
13.4785123312
 20
12.2494849592
 30
0.0
 10
13.4803340264
 20
12.2569721798
 30
0.0
 10
13.4820434862
 20
12.2625039936
 30
0.0
  0
SPLINE
  5
33A
100
AcDbEntity
  8
0
100
AcDbSpline
 62
7
  6
CONTINUOUS
 70
0
 71
3
 72
15
 73
11
 74
0
 42
0.0000001
 43
0.0000001
 44
0.0000000001
 40
0.0
 40
0.0
 40
0.0
 40
0.0
 40
0.1127784282
 40
0.2270860552
 40
0.344224796
 40
0.4653167524
 40
0.5911991537
 40
0.7224073401
 40
0.858881044
 40
1.0
 40
1.0
 40
1.0
 40
1.0
 10
13.2654391284
 20
11.5583816908
 30
0.0
 10
13.2660844933
 20
11.5570668832
 30
0.0
 10
13.2676137371
 20
11.5545257858
 30
0.0
 10
13.2705344704
 20
11.5511164969
 30
0.0
 10
13.2740431398
 20
11.5481457455
 30
0.0
 10
13.2780879252
 20
11.5456639116
 30
0.0
 10
13.282604875
 20
11.5436977028
 30
0.0
 10
13.2875298712
 20
11.5422811297
 30
0.0
 10
13.2927811342
 20
11.5414282884
 30
0.0
 10
13.296389483
 20
11.5412423864
 30
0.0
 10
13.298222197
 20
11.5412423864
 30
0.0
  0
SPLINE
  5
33B
100
AcDbEntity
  8
0
100
AcDbSpline
 62
7
  6
CONTINUOUS
 70
0
 71
3
 72
16
 73
12
 74
0
 42
0.0000001
 43
0.0000001
 44
0.0000000001
 40
0.0
 40
0.0
 40
0.0
 40
0.0
 40
0.0614389925
 40
0.1243432416
 40
0.2532222249
 40
0.3845524448
 40
0.515994042
 40
0.6451479438
 40
0.7698506863
 40
0.8884617274
 40
1.0
 40
1.0
 40
1.0
 40
1.0
 10
17.1276260276
 20
12.2192318594
 30
0.0
 10
17.1333418474
 20
12.2192318594
 30
0.0
 10
17.1449150484
 20
12.2197236124
 30
0.0
 10
17.1683183153
 20
12.222579414
 30
0.0
 10
17.1976592287
 20
12.2296539868
 30
0.0
 10
17.2316038838
 20
12.2432153909
 30
0.0
 10
17.2633431909
 20
12.2614101067
 30
0.0
 10
17.2916816474
 20
12.2835666735
 30
0.0
 10
17.3155685492
 20
12.3088696255
 30
0.0
 10
17.3340862112
 20
12.3363851393
 30
0.0
 10
17.3426487126
 20
12.3561915601
 30
0.0
 10
17.3457123996
 20
12.366105655
 30
0.0
  0
SPLINE
  5
33C
100
AcDbEntity
  8
0
100
AcDbSpline
 62
7
  6
CONTINUOUS
 70
0
 71
3
 72
14
 73
10
 74
0
 42
0.0000001
 43
0.0000001
 44
0.0000000001
 40
0.0
 40
0.0
 40
0.0
 40
0.0
 40
0.2640966488
 40
0.3918604383
 40
0.5169364325
 40
0.6397510525
 40
0.7608190775
 40
0.8807065102
 40
1.0
 40
1.0
 40
1.0
 40
1.0
 10
17.3457123996
 20
12.366105655
 30
0.0
 10
17.3479138941
 20
12.3732296939
 30
0.0
 10
17.3503564853
 20
12.3840917018
 30
0.0
 10
17.3516416769
 20
12.3986450858
 30
0.0
 10
17.3515933006
 20
12.4092678463
 30
0.0
 10
17.3505462329
 20
12.4196484356
 30
0.0
 10
17.3485069343
 20
12.4297325276
 30
0.0
 10
17.3454822534
 20
12.4394613317
 30
0.0
 10
17.3428198086
 20
12.4456827157
 30
0.0
 10
17.3413363925
 20
12.4487065539
 30
0.0
  0
SPLINE
  5
33D
100
AcDbEntity
  8
0
100
AcDbSpline
 62
7
  6
CONTINUOUS
 70
0
 71
3
 72
12
 73
8
 74
0
 42
0.0000001
 43
0.0000001
 44
0.0000000001
 40
0.0
 40
0.0
 40
0.0
 40
0.0
 40
0.2621415719
 40
0.5181374754
 40
0.7652649574
 40
0.8844714305
 40
1.0
 40
1.0
 40
1.0
 40
1.0
 10
16.8490944472
 20
12.8478082265
 30
0.0
 10
16.8526187456
 20
12.8495790093
 30
0.0
 10
16.8597262274
 20
12.8528081859
 30
0.0
 10
16.8706027888
 20
12.8566322607
 30
0.0
 10
16.8797380402
 20
12.8588021222
 30
0.0
 10
16.8869324191
 20
12.8597428727
 30
0.0
 10
16.8904656059
 20
12.8599171486
 30
0.0
 10
16.8922038364
 20
12.8599170968
 30
0.0
  0
SPLINE
  5
33E
100
AcDbEntity
  8
0
100
AcDbSpline
 62
7
  6
CONTINUOUS
 70
0
 71
3
 72
39
 73
35
 74
0
 42
0.0000001
 43
0.0000001
 44
0.0000000001
 40
0.0
 40
0.0
 40
0.0
 40
0.0
 40
0.0312501937
 40
0.0634584159
 40
0.0965321111
 40
0.1303911549
 40
0.1649554226
 40
0.200127332
 40
0.2357976658
 40
0.2718525403
 40
0.3081740799
 40
0.3446415124
 40
0.4175041001
 40
0.4894755684
 40
0.5596193468
 40
0.5937471602
 40
0.6271120476
 40
0.6596331743
 40
0.6912404928
 40
0.7218805913
 40
0.7515157594
 40
0.7801279967
 40
0.8077208597
 40
0.8343199226
 40
0.8599763668
 40
0.8847662274
 40
0.8968706248
 40
0.9087991149
 40
0.9321844698
 40
0.9550648725
 40
0.9663700297
 40
0.977611664
 40
0.9888134693
 40
1.0
 40
1.0
 40
1.0
 40
1.0
 10
16.1592768894
 20
13.3642176471
 30
0.0
 10
16.142512078
 20
13.3807571031
 30
0.0
 10
16.1074489663
 20
13.4133230885
 30
0.0
 10
16.0514671637
 20
13.4598302174
 30
0.0
 10
15.9915544179
 20
13.5045222693
 30
0.0
 10
15.9280307381
 20
13.5471807923
 30
0.0
 10
15.8612080034
 20
13.5876029592
 30
0.0
 10
15.7914214832
 20
13.6256014463
 30
0.0
 10
15.7190213834
 20
13.6609836455
 30
0.0
 10
15.644377355
 20
13.6935736961
 30
0.0
 10
15.5678666762
 20
13.7232104615
 30
0.0
 10
15.4639279246
 20
13.7585700231
 30
0.0
 10
15.3319357754
 20
13.7945247304
 30
0.0
 10
15.1724393222
 20
13.8239634974
 30
0.0
 10
15.0400332184
 20
13.8366838659
 30
0.0
 10
14.9363100146
 20
13.8393259234
 30
0.0
 10
14.8609274975
 20
13.8375708083
 30
0.0
 10
14.7876262045
 20
13.8321047577
 30
0.0
 10
14.7167619055
 20
13.8229354676
 30
0.0
 10
14.6486781533
 20
13.8100949752
 30
0.0
 10
14.5837021213
 20
13.793621482
 30
0.0
 10
14.5221460256
 20
13.7735649188
 30
0.0
 10
14.4643074901
 20
13.7499866142
 30
0.0
 10
14.4104736697
 20
13.7229509047
 30
0.0
 10
14.3609254518
 20
13.6925426605
 30
0.0
 10
14.3231342989
 20
13.6642332672
 30
0.0
 10
14.295425211
 20
13.6400050948
 30
0.0
 10
14.2697714061
 20
13.6151088374
 30
0.0
 10
14.2407850927
 20
13.5820739281
 30
0.0
 10
14.216010983
 20
13.5463261045
 30
0.0
 10
14.1991246049
 20
13.5165259938
 30
0.0
 10
14.1879472547
 20
13.4936621948
 30
0.0
 10
14.1782332736
 20
13.4702376438
 30
0.0
 10
14.1727465088
 20
13.4542691104
 30
0.0
 10
14.1702575164
 20
13.446214728
 30
0.0
  0
SPLINE
  5
33F
100
AcDbEntity
  8
0
100
AcDbSpline
 62
7
  6
CONTINUOUS
 70
0
 71
3
 72
16
 73
12
 74
0
 42
0.0000001
 43
0.0000001
 44
0.0000000001
 40
0.0
 40
0.0
 40
0.0
 40
0.0
 40
0.1115382726
 40
0.2301493137
 40
0.3548520562
 40
0.484005958
 40
0.6154475552
 40
0.7467777751
 40
0.8756567584
 40
0.9385610075
 40
1.0
 40
1.0
 40
1.0
 40
1.0
 10
13.4820434862
 20
12.2625039936
 30
0.0
 10
13.4851071732
 20
12.2724180885
 30
0.0
 10
13.4936696746
 20
12.2922245093
 30
0.0
 10
13.5121873366
 20
12.3197400231
 30
0.0
 10
13.5360742384
 20
12.3450429751
 30
0.0
 10
13.5644126949
 20
12.367199542
 30
0.0
 10
13.596152002
 20
12.3853942577
 30
0.0
 10
13.6300966571
 20
12.3989556618
 30
0.0
 10
13.6594375705
 20
12.4060302347
 30
0.0
 10
13.6828408374
 20
12.4088860362
 30
0.0
 10
13.6944140384
 20
12.4093777892
 30
0.0
 10
13.7001298582
 20
12.4093777892
 30
0.0
  0
SPLINE
  5
340
100
AcDbEntity
  8
0
100
AcDbSpline
 62
7
  6
CONTINUOUS
 70
0
 71
3
 72
11
 73
7
 74
0
 42
0.0000001
 43
0.0000001
 44
0.0000000001
 40
0.0
 40
0.0
 40
0.0
 40
0.0
 40
0.2657269582
 40
0.5213105575
 40
0.765890822
 40
1.0
 40
1.0
 40
1.0
 40
1.0
 10
17.26924121
 20
12.4093777892
 30
0.0
 10
17.2767284731
 20
12.4093777892
 30
0.0
 10
17.2914332067
 20
12.4085616184
 30
0.0
 10
17.3127347592
 20
12.4047698753
 30
0.0
 10
17.3325075005
 20
12.3984718213
 30
0.0
 10
17.3446912252
 20
12.3925451429
 30
0.0
 10
17.3503729507
 20
12.3891939826
 30
0.0
  0
SPLINE
  5
341
100
AcDbEntity
  8
0
100
AcDbSpline
 62
7
  6
CONTINUOUS
 70
0
 71
3
 72
16
 73
12
 74
0
 42
0.0000001
 43
0.0000001
 44
0.0000000001
 40
0.0
 40
0.0
 40
0.0
 40
0.0
 40
0.1115382726
 40
0.2301493137
 40
0.3548520562
 40
0.484005958
 40
0.6154475552
 40
0.7467777751
 40
0.8756567584
 40
0.9385610075
 40
1.0
 40
1.0
 40
1.0
 40
1.0
 10
16.7057569652
 20
12.2625039936
 30
0.0
 10
16.7088206522
 20
12.2724180885
 30
0.0
 10
16.7173831536
 20
12.2922245093
 30
0.0
 10
16.7359008156
 20
12.3197400231
 30
0.0
 10
16.7597877174
 20
12.3450429751
 30
0.0
 10
16.7881261739
 20
12.367199542
 30
0.0
 10
16.819865481
 20
12.3853942577
 30
0.0
 10
16.8538101361
 20
12.3989556618
 30
0.0
 10
16.8831510495
 20
12.4060302347
 30
0.0
 10
16.9065543164
 20
12.4088860362
 30
0.0
 10
16.9181275174
 20
12.4093777892
 30
0.0
 10
16.9238433372
 20
12.4093777892
 30
0.0
  0
SPLINE
  5
342
100
AcDbEntity
  8
0
100
AcDbSpline
 62
7
  6
CONTINUOUS
 70
0
 71
3
 72
18
 73
14
 74
0
 42
0.0000001
 43
0.0000001
 44
0.0000000001
 40
0.0
 40
0.0
 40
0.0
 40
0.0
 40
0.0563355619
 40
0.1128605543
 40
0.1697626303
 40
0.2272182918
 40
0.2853925853
 40
0.3444367274
 40
0.4655305692
 40
0.5913466475
 40
0.7223664086
 40
0.8587441307
 40
1.0
 40
1.0
 40
1.0
 40
1.0
 10
17.3413363925
 20
12.4487065539
 30
0.0
 10
17.340127647
 20
12.4511704956
 30
0.0
 10
17.3374967878
 20
12.4560071553
 30
0.0
 10
17.3329410801
 20
12.4629205715
 30
0.0
 10
17.3277916578
 20
12.4694738514
 30
0.0
 10
17.3220700213
 20
12.4756432462
 30
0.0
 10
17.3157960528
 20
12.4814056934
 30
0.0
 10
17.3066501846
 20
12.4885728116
 30
0.0
 10
17.2938996418
 20
12.4964038917
 30
0.0
 10
17.2769659896
 20
12.503767067
 30
0.0
 10
17.2585119381
 20
12.5090898128
 30
0.0
 10
17.2388200093
 20
12.5122877534
 30
0.0
 10
17.2252823681
 20
12.5129794506
 30
0.0
 10
17.2184008989
 20
12.5129794506
 30
0.0
  0
SPLINE
  5
343
100
AcDbEntity
  8
0
100
AcDbSpline
 62
7
  6
CONTINUOUS
 70
0
 71
3
 72
23
 73
19
 74
0
 42
0.0000001
 43
0.0000001
 44
0.0000000001
 40
0.0
 40
0.0
 40
0.0
 40
0.0
 40
0.0548768672
 40
0.1116051155
 40
0.1700855296
 40
0.23023096
 40
0.2919185278
 40
0.3549532296
 40
0.4191027915
 40
0.484106192
 40
0.5496839051
 40
0.6155403121
 40
0.6813726741
 40
0.7468731459
 40
0.8117450061
 40
0.8757329396
 40
0.9385864901
 40
1.0
 40
1.0
 40
1.0
 40
1.0
 10
16.355283805
 20
12.366105655
 30
0.0
 10
16.3586550286
 20
12.3770149388
 30
0.0
 10
16.3667089901
 20
12.3988463755
 30
0.0
 10
16.3821758508
 20
12.4307336008
 30
0.0
 10
16.4010991953
 20
12.4619874682
 30
0.0
 10
16.4232752266
 20
12.4923055228
 30
0.0
 10
16.4485004646
 20
12.5214002883
 30
0.0
 10
16.4765241227
 20
12.549007193
 30
0.0
 10
16.5070886147
 20
12.5748505947
 30
0.0
 10
16.539891138
 20
12.598695491
 30
0.0
 10
16.5746260982
 20
12.6203039164
 30
0.0
 10
16.6109548815
 20
12.6394812144
 30
0.0
 10
16.6485360607
 20
12.6560306708
 30
0.0
 10
16.687002484
 20
12.6698083281
 30
0.0
 10
16.7259942385
 20
12.6806705378
 30
0.0
 10
16.7651427983
 20
12.6885222702
 30
0.0
 10
16.8040616679
 20
12.6932718606
 30
0.0
 10
16.8299287021
 20
12.6943687535
 30
0.0
 10
16.8427070921
 20
12.6943687535
 30
0.0
  0
SPLINE
  5
344
100
AcDbEntity
  8
0
100
AcDbSpline
 62
7
  6
CONTINUOUS
 70
0
 71
3
 72
16
 73
12
 74
0
 42
0.0000001
 43
0.0000001
 44
0.0000000001
 40
0.0
 40
0.0
 40
0.0
 40
0.0
 40
0.0614389925
 40
0.1243432416
 40
0.2532222249
 40
0.3845524448
 40
0.515994042
 40
0.6451479438
 40
0.7698506863
 40
0.8884617274
 40
1.0
 40
1.0
 40
1.0
 40
1.0
 10
16.8730030261
 20
12.5129794506
 30
0.0
 10
16.8672872063
 20
12.5129794506
 30
0.0
 10
16.8557140053
 20
12.5124876976
 30
0.0
 10
16.8323107384
 20
12.509631896
 30
0.0
 10
16.802969825
 20
12.5025573232
 30
0.0
 10
16.7690251699
 20
12.4889959191
 30
0.0
 10
16.7372858628
 20
12.4708012033
 30
0.0
 10
16.7089474063
 20
12.4486446365
 30
0.0
 10
16.6850605045
 20
12.4233416845
 30
0.0
 10
16.6665428425
 20
12.3958261707
 30
0.0
 10
16.6579803411
 20
12.3760197499
 30
0.0
 10
16.6549166541
 20
12.366105655
 30
0.0
  0
SPLINE
  5
345
100
AcDbEntity
  8
0
100
AcDbSpline
 62
7
  6
CONTINUOUS
 70
0
 71
3
 72
14
 73
10
 74
0
 42
0.0000001
 43
0.0000001
 44
0.0000000001
 40
0.0
 40
0.0
 40
0.0
 40
0.0
 40
0.2640966488
 40
0.3918604383
 40
0.5169364325
 40
0.6397510525
 40
0.7608190775
 40
0.8807065102
 40
1.0
 40
1.0
 40
1.0
 40
1.0
 10
16.6549166541
 20
12.366105655
 30
0.0
 10
16.6527151596
 20
12.3589816161
 30
0.0
 10
16.6502725684
 20
12.3481196082
 30
0.0
 10
16.6489873768
 20
12.3335662242
 30
0.0
 10
16.6490357531
 20
12.3229434637
 30
0.0
 10
16.6500828208
 20
12.3125628744
 30
0.0
 10
16.6521221194
 20
12.3024787824
 30
0.0
 10
16.6551468002
 20
12.2927499783
 30
0.0
 10
16.6578092451
 20
12.2865285943
 30
0.0
 10
16.6592926612
 20
12.2835047561
 30
0.0
  0
SPLINE
  5
346
100
AcDbEntity
  8
0
100
AcDbSpline
 62
7
  6
CONTINUOUS
 70
0
 71
3
 72
15
 73
11
 74
0
 42
0.0000001
 43
0.0000001
 44
0.0000000001
 40
0.0
 40
0.0
 40
0.0
 40
0.0
 40
0.1285012329
 40
0.2524481049
 40
0.3734590055
 40
0.4933826865
 40
0.6143797873
 40
0.7383732827
 40
0.8667420239
 40
1.0
 40
1.0
 40
1.0
 40
1.0
 10
16.8689264373
 20
12.837327894
 30
0.0
 10
16.8700805917
 20
12.8367230018
 30
0.0
 10
16.8722646813
 20
12.835361124
 30
0.0
 10
16.8750863395
 20
12.8328045625
 30
0.0
 10
16.8773341434
 20
12.8298368908
 30
0.0
 10
16.8789501424
 20
12.8265157242
 30
0.0
 10
16.8799113968
 20
12.8229200511
 30
0.0
 10
16.8802139501
 20
12.8191264982
 30
0.0
 10
16.879870022
 20
12.8152157118
 30
0.0
 10
16.8792512352
 20
12.8126256441
 30
0.0
 10
16.8788522686
 20
12.8113345876
 30
0.0
  0
SPLINE
  5
347
100
AcDbEntity
  8
0
100
AcDbSpline
 62
7
  6
CONTINUOUS
 70
0
 71
3
 72
16
 73
12
 74
0
 42
0.0000001
 43
0.0000001
 44
0.0000000001
 40
0.0
 40
0.0
 40
0.0
 40
0.0
 40
0.1113702302
 40
0.2298459639
 40
0.3545755669
 40
0.4839899273
 40
0.6155541086
 40
0.7467724277
 40
0.8117335783
 40
0.8758444449
 40
1.0
 40
1.0
 40
1.0
 40
1.0
 10
16.603679976
 20
11.9208767224
 30
0.0
 10
16.6030576289
 20
11.9188628066
 30
0.0
 10
16.6013491812
 20
11.9148285293
 30
0.0
 10
16.5976388676
 20
11.9091974997
 30
0.0
 10
16.5927992298
 20
11.9040234765
 30
0.0
 10
16.5870117104
 20
11.8995270638
 30
0.0
 10
16.580507919
 20
11.8958913439
 30
0.0
 10
16.574682074
 20
11.893695839
 30
0.0
 10
16.5699164824
 20
11.8924342356
 30
0.0
 10
16.5652089529
 20
11.8915235891
 30
0.0
 10
16.5616394283
 20
11.8912199273
 30
0.0
 10
16.5592895662
 20
11.8912255917
 30
0.0
  0
SPLINE
  5
348
100
AcDbEntity
  8
0
100
AcDbSpline
 62
7
  6
CONTINUOUS
 70
0
 71
3
 72
14
 73
10
 74
0
 42
0.0000001
 43
0.0000001
 44
0.0000000001
 40
0.0
 40
0.0
 40
0.0
 40
0.0
 40
0.137752347
 40
0.2717337456
 40
0.4019773518
 40
0.5284054719
 40
0.6511352919
 40
0.7704717165
 40
1.0
 40
1.0
 40
1.0
 40
1.0
 10
16.5592932361
 20
11.8912374673
 30
0.0
 10
16.5580092829
 20
11.8912405623
 30
0.0
 10
16.5554751626
 20
11.891369413
 30
0.0
 10
16.5517624262
 20
11.8919064985
 30
0.0
 10
16.5482123987
 20
11.8927357422
 30
0.0
 10
16.5448458272
 20
11.8938326876
 30
0.0
 10
16.5416891436
 20
11.8952022867
 30
0.0
 10
16.5378543288
 20
11.8973609316
 30
0.0
 10
16.5352828459
 20
11.8994071535
 30
0.0
 10
16.5337738043
 20
11.9009236408
 30
0.0
  0
SPLINE
  5
349
100
AcDbEntity
  8
0
100
AcDbSpline
 62
7
  6
CONTINUOUS
 70
0
 71
3
 72
30
 73
26
 74
0
 42
0.0000001
 43
0.0000001
 44
0.0000000001
 40
0.0
 40
0.0
 40
0.0
 40
0.0
 40
0.1528304182
 40
0.2292573928
 40
0.3048518549
 40
0.3789415593
 40
0.4151655252
 40
0.4507049235
 40
0.4854628879
 40
0.5193415571
 40
0.5522655804
 40
0.5841919418
 40
0.6151010479
 40
0.6449913705
 40
0.6739020629
 40
0.7018997365
 40
0.7290538984
 40
0.7554624701
 40
0.7812444972
 40
0.8065012783
 40
0.8313266921
 40
0.8558319309
 40
0.9041857108
 40
0.9521242444
 40
1.0
 40
1.0
 40
1.0
 40
1.0
 10
16.0220560902
 20
12.8915896578
 30
0.0
 10
16.0156866856
 20
12.9085886287
 30
0.0
 10
16.0069824158
 20
12.9344369971
 30
0.0
 10
15.9980625734
 20
12.9695488101
 30
0.0
 10
15.9930781264
 20
12.9959603199
 30
0.0
 10
15.9906400948
 20
13.0179364867
 30
0.0
 10
15.9899209082
 20
13.0352519432
 30
0.0
 10
15.990039355
 20
13.0479100209
 30
0.0
 10
15.9908402548
 20
13.0602647934
 30
0.0
 10
15.9923395045
 20
13.0722425389
 30
0.0
 10
15.9945612097
 20
13.083766579
 30
0.0
 10
15.997506393
 20
13.0947633677
 30
0.0
 10
16.0011492316
 20
13.1051691581
 30
0.0
 10
16.0054755358
 20
13.1149206282
 30
0.0
 10
16.0104504203
 20
13.1239654819
 30
0.0
 10
16.0160170783
 20
13.1322706199
 30
0.0
 10
16.0221296772
 20
13.1398043076
 30
0.0
 10
16.0287334299
 20
13.1465473953
 30
0.0
 10
16.0357605149
 20
13.1525043273
 30
0.0
 10
16.0431505496
 20
13.1576824362
 30
0.0
 10
16.0508486537
 20
13.1620923504
 30
0.0
 10
16.0613961931
 20
13.1669567596
 30
0.0
 10
16.0751482376
 20
13.1712903789
 30
0.0
 10
16.0921370767
 20
13.1738570453
 30
0.0
 10
16.1035551717
 20
13.1739851846
 30
0.0
 10
16.109234639
 20
13.173699545
 30
0.0
  0
SPLINE
  5
34A
100
AcDbEntity
  8
0
100
AcDbSpline
 62
7
  6
CONTINUOUS
 70
0
 71
3
 72
16
 73
12
 74
0
 42
0.0000001
 43
0.0000001
 44
0.0000000001
 40
0.0
 40
0.0
 40
0.0
 40
0.0
 40
0.0614389925
 40
0.1243432416
 40
0.2532222249
 40
0.3845524448
 40
0.515994042
 40
0.6451479438
 40
0.7698506863
 40
0.8884617274
 40
1.0
 40
1.0
 40
1.0
 40
1.0
 10
13.6492895471
 20
12.5129794506
 30
0.0
 10
13.6435737273
 20
12.5129794506
 30
0.0
 10
13.6320005263
 20
12.5124876976
 30
0.0
 10
13.6085972594
 20
12.509631896
 30
0.0
 10
13.5792563459
 20
12.5025573232
 30
0.0
 10
13.5453116909
 20
12.4889959191
 30
0.0
 10
13.5135723838
 20
12.4708012033
 30
0.0
 10
13.4852339273
 20
12.4486446365
 30
0.0
 10
13.4613470255
 20
12.4233416845
 30
0.0
 10
13.4428293634
 20
12.3958261707
 30
0.0
 10
13.4342668621
 20
12.3760197499
 30
0.0
 10
13.4312031751
 20
12.366105655
 30
0.0
  0
SPLINE
  5
34B
100
AcDbEntity
  8
0
100
AcDbSpline
 62
7
  6
CONTINUOUS
 70
0
 71
3
 72
14
 73
10
 74
0
 42
0.0000001
 43
0.0000001
 44
0.0000000001
 40
0.0
 40
0.0
 40
0.0
 40
0.0
 40
0.2640966488
 40
0.3918604383
 40
0.5169364325
 40
0.6397510525
 40
0.7608190775
 40
0.8807065102
 40
1.0
 40
1.0
 40
1.0
 40
1.0
 10
13.4312031751
 20
12.366105655
 30
0.0
 10
13.4290016806
 20
12.3589816161
 30
0.0
 10
13.4265590894
 20
12.3481196082
 30
0.0
 10
13.4252738978
 20
12.3335662242
 30
0.0
 10
13.4253222741
 20
12.3229434637
 30
0.0
 10
13.4263693418
 20
12.3125628744
 30
0.0
 10
13.4284086404
 20
12.3024787824
 30
0.0
 10
13.4314333212
 20
12.2927499783
 30
0.0
 10
13.4340957661
 20
12.2865285943
 30
0.0
 10
13.4355791822
 20
12.2835047561
 30
0.0
  0
SPLINE
  5
34C
100
AcDbEntity
  8
0
100
AcDbSpline
 62
7
  6
CONTINUOUS
 70
0
 71
3
 72
17
 73
13
 74
0
 42
0.0000001
 43
0.0000001
 44
0.0000000001
 40
0.0
 40
0.0
 40
0.0
 40
0.0
 40
0.1184419
 40
0.1797933192
 40
0.242337697
 40
0.3701127917
 40
0.5000276826
 40
0.6299390572
 40
0.7577068509
 40
0.8202476637
 40
0.8815906807
 40
1.0
 40
1.0
 40
1.0
 40
1.0
 10
15.7887212224
 20
13.2820744683
 30
0.0
 10
15.781106467
 20
13.2825398704
 30
0.0
 10
15.7695888468
 20
13.2844883082
 30
0.0
 10
15.7547058725
 20
13.2892384841
 30
0.0
 10
15.7397531058
 20
13.295552895
 30
0.0
 10
15.7218879655
 20
13.3060808236
 30
0.0
 10
15.7026951721
 20
13.3222197856
 30
0.0
 10
15.6863921154
 20
13.3412727452
 30
0.0
 10
15.675711711
 20
13.3590461736
 30
0.0
 10
15.6692710731
 20
13.3739436857
 30
0.0
 10
15.6643949795
 20
13.3887827429
 30
0.0
 10
15.6623468302
 20
13.4002804955
 30
0.0
 10
15.6618174963
 20
13.4078889703
 30
0.0
  0
SPLINE
  5
34D
100
AcDbEntity
  8
0
100
AcDbSpline
 62
7
  6
CONTINUOUS
 70
0
 71
3
 72
10
 73
6
 74
0
 42
0.0000001
 43
0.0000001
 44
0.0000000001
 40
0.0
 40
0.0
 40
0.0
 40
0.0
 40
0.2466387857
 40
0.4949468038
 40
1.0
 40
1.0
 40
1.0
 40
1.0
 10
15.8201654376
 20
13.2410905261
 30
0.0
 10
15.8223120975
 20
13.2434896475
 30
0.0
 10
15.8263551207
 20
13.2485500718
 30
0.0
 10
15.8333429627
 20
13.259595609
 30
0.0
 10
15.8372147441
 20
13.2687401504
 30
0.0
 10
15.8391611081
 20
13.2750385867
 30
0.0
  0
SPLINE
  5
34E
100
AcDbEntity
  8
0
100
AcDbSpline
 62
7
  6
CONTINUOUS
 70
0
 71
3
 72
9
 73
5
 74
0
 42
0.0000001
 43
0.0000001
 44
0.0000000001
 40
0.0
 40
0.0
 40
0.0
 40
0.0
 40
0.2468272247
 40
1.0
 40
1.0
 40
1.0
 40
1.0
 10
15.8391611081
 20
13.2750385867
 30
0.0
 10
15.8395942579
 20
13.2764402598
 30
0.0
 10
15.8412217198
 20
13.2821578466
 30
0.0
 10
15.8423430928
 20
13.2880176088
 30
0.0
 10
15.8429128085
 20
13.2924578635
 30
0.0
  0
SPLINE
  5
34F
100
AcDbEntity
  8
0
100
AcDbSpline
 62
7
  6
CONTINUOUS
 70
0
 71
3
 72
15
 73
11
 74
0
 42
0.0000001
 43
0.0000001
 44
0.0000000001
 40
0.0
 40
0.0
 40
0.0
 40
0.0
 40
0.1195353491
 40
0.242195709
 40
0.3671256024
 40
0.4936214206
 40
0.6209670698
 40
0.748404216
 40
0.8751099548
 40
1.0
 40
1.0
 40
1.0
 40
1.0
 10
15.5946352701
 20
13.33530174
 30
0.0
 10
15.5960255462
 20
13.3297237158
 30
0.0
 10
15.5995372203
 20
13.3185852493
 30
0.0
 10
15.6067201306
 20
13.3024193253
 30
0.0
 10
15.6157942026
 20
13.2868443092
 30
0.0
 10
15.626582624
 20
13.2721263212
 30
0.0
 10
15.6389140064
 20
13.2585123702
 30
0.0
 10
15.6525786119
 20
13.2462208518
 30
0.0
 10
15.6673462254
 20
13.2354818658
 30
0.0
 10
15.6778436174
 20
13.2294101251
 30
0.0
 10
15.6832006748
 20
13.2266942027
 30
0.0
  0
SPLINE
  5
350
100
AcDbEntity
  8
0
100
AcDbSpline
 62
7
  6
CONTINUOUS
 70
0
 71
3
 72
11
 73
7
 74
0
 42
0.0000001
 43
0.0000001
 44
0.0000000001
 40
0.0
 40
0.0
 40
0.0
 40
0.0
 40
0.2560418527
 40
0.5076813337
 40
0.7554732281
 40
1.0
 40
1.0
 40
1.0
 40
1.0
 10
15.6653056784
 20
13.4610358429
 30
0.0
 10
15.6619508673
 20
13.4603657063
 30
0.0
 10
15.6553585034
 20
13.4587107858
 30
0.0
 10
15.6458570705
 20
13.4552498985
 30
0.0
 10
15.6369110966
 20
13.4508749169
 30
0.0
 10
15.6313360039
 20
13.4473540192
 30
0.0
 10
15.6286758468
 20
13.4454570867
 30
0.0
  0
SPLINE
  5
351
100
AcDbEntity
  8
0
100
AcDbSpline
 62
7
  6
CONTINUOUS
 70
0
 71
3
 72
11
 73
7
 74
0
 42
0.0000001
 43
0.0000001
 44
0.0000000001
 40
0.0
 40
0.0
 40
0.0
 40
0.0
 40
0.2475563892
 40
0.4951048955
 40
0.7451640518
 40
1.0
 40
1.0
 40
1.0
 40
1.0
 10
15.6286758468
 20
13.4454570867
 30
0.0
 10
15.6247490002
 20
13.44265689
 30
0.0
 10
15.6173428705
 20
13.4363955201
 30
0.0
 10
15.6079286646
 20
13.4252586181
 30
0.0
 10
15.600411324
 20
13.4125994099
 30
0.0
 10
15.5967872427
 20
13.4034039974
 30
0.0
 10
15.5953213949
 20
13.3986605121
 30
0.0
  0
SPLINE
  5
352
100
AcDbEntity
  8
0
100
AcDbSpline
 62
7
  6
CONTINUOUS
 70
0
 71
3
 72
11
 73
7
 74
0
 42
0.0000001
 43
0.0000001
 44
0.0000000001
 40
0.0
 40
0.0
 40
0.0
 40
0.0
 40
0.2385075079
 40
0.4844003853
 40
0.7382436042
 40
1.0
 40
1.0
 40
1.0
 40
1.0
 10
15.5953213949
 20
13.3986605121
 30
0.0
 10
15.5938168184
 20
13.3937917008
 30
0.0
 10
15.5915275104
 20
13.3836517494
 30
0.0
 10
15.5903000729
 20
13.3678768634
 30
0.0
 10
15.5912485876
 20
13.3515885482
 30
0.0
 10
15.5932827084
 20
13.3407284473
 30
0.0
 10
15.5946352701
 20
13.33530174
 30
0.0
  0
SPLINE
  5
353
100
AcDbEntity
  8
0
100
AcDbSpline
 62
7
  6
CONTINUOUS
 70
0
 71
3
 72
14
 73
10
 74
0
 42
0.0000001
 43
0.0000001
 44
0.0000000001
 40
0.0
 40
0.0
 40
0.0
 40
0.0
 40
0.1374586345
 40
0.2719302812
 40
0.5286995133
 40
0.6513590959
 40
0.7704114718
 40
0.8864307951
 40
1.0
 40
1.0
 40
1.0
 40
1.0
 10
15.6832006748
 20
13.2266942027
 30
0.0
 10
15.6884588059
 20
13.2240284339
 30
0.0
 10
15.6991602315
 20
13.2193142185
 30
0.0
 10
15.720830809
 20
13.2125448356
 30
0.0
 10
15.7429810309
 20
13.2097386277
 30
0.0
 10
15.7643507327
 20
13.2114372909
 30
0.0
 10
15.7793716149
 20
13.2148416249
 30
0.0
 10
15.7933297011
 20
13.2203614982
 30
0.0
 10
15.8018409525
 20
13.2254141068
 30
0.0
 10
15.8058066562
 20
13.2282420121
 30
0.0
  0
ELLIPSE
  5
354
100
AcDbEntity
  8
0
100
AcDbEllipse
 62
7
  6
CONTINUOUS
 10
7.543662361
 20
4.7982448968
 30
0.0
 11
0.0554549152
 21
0.0
 31
0.0
 40
0.9016333331
 41
6.2831853072
 42
7.853981634
  0
ELLIPSE
  5
355
100
AcDbEntity
  8
0
100
AcDbEllipse
 62
7
  6
CONTINUOUS
 10
4.7170721913
 20
4.7982448968
 30
0.0
 11
0.0554549152
 21
-0.0
 31
0.0
 40
0.9016333331
 41
1.5707963268
 42
3.1415926536
  0
ELLIPSE
  5
356
100
AcDbEntity
  8
0
100
AcDbEllipse
 62
7
  6
CONTINUOUS
 10
15.8337927569
 20
4.7887497044
 30
0.0
 11
-0.0
 21
1.1875
 31
0.0
 40
0.3528949147
 41
-1.5707963268
 42
-0.4441614933
  0
ELLIPSE
  5
357
100
AcDbEntity
  8
0
100
AcDbEllipse
 62
7
  6
CONTINUOUS
 10
15.8337927569
 20
4.7887497044
 30
0.0
 11
-0.0
 21
1.1875
 31
0.0
 40
0.3528949147
 41
0.4441614933
 42
1.5707963268
  0
ELLIPSE
  5
358
100
AcDbEntity
  8
0
100
AcDbEllipse
 62
7
  6
CONTINUOUS
 10
16.5586881478
 20
11.8601332176
 30
0.0
 11
-0.0412065349
 21
0.0496289481
 31
0.0
 40
0.147551623
 41
-2.5926998486
 42
-1.0219035218
  0
ELLIPSE
  5
359
100
AcDbEntity
  8
0
100
AcDbEllipse
 62
7
  6
CONTINUOUS
 10
16.7412661223
 20
12.366105655
 30
0.0
 11
-0.7219138052
 21
0.7815796304
 31
0.0
 40
0.2831142053
 41
-1.4081294931
 42
-0.2814946596
  0
ELLIPSE
  5
35A
100
AcDbEntity
  8
0
100
AcDbEllipse
 62
7
  6
CONTINUOUS
 10
16.7412661223
 20
12.366105655
 30
0.0
 11
-0.7219138052
 21
0.7815796304
 31
0.0
 40
0.2831142053
 41
0.606828327
 42
1.7334631605
  0
ELLIPSE
  5
35B
100
AcDbEntity
  8
0
100
AcDbEllipse
 62
7
  6
CONTINUOUS
 10
13.9552261965
 20
11.8601332176
 30
0.0
 11
0.0621835711
 21
0.0409123955
 31
0.0
 40
0.46223263
 41
2.7182682018
 42
3.0832361042
  0
ENDSEC
  0
SECTION
  2
OBJECTS
  0
DICTIONARY
  5
C
100
AcDbDictionary
280
0
281
1
  3
ACAD_GROUP
350
D
  3
ACAD_MLINESTYLE
350
17
  3
ACAD_LAYOUT
350
1A
  3
ACAD_PLOTSETTINGS
350
19
  3
ACAD_PLOTSTYLENAME
350
E
  0
DICTIONARY
  5
D
102
{ACAD_REACTORS
330
C
102
}
100
AcDbDictionary
280
0
281
1
  0
ACDBDICTIONARYWDFLT
  5
E
102
{ACAD_REACTORS
330
C
102
}
100
AcDbDictionary
281
1
  3
Normal
350
F
100
AcDbDictionaryWithDefault
340
F
  0
DICTIONARY
  5
17
102
{ACAD_REACTORS
330
C
102
}
100
AcDbDictionary
280
0
281
1
  3
Standard
350
18
  0
DICTIONARY
  5
19
102
{ACAD_REACTORS
330
C
102
}
100
AcDbDictionary
281
1
  0
DICTIONARY
  5
1A
102
{ACAD_REACTORS
330
C
102
}
100
AcDbDictionary
281
1
  3
Model
350
35C
  3
Layout1
350
35D
  0
ACDBPLACEHOLDER
  5
F
102
{ACAD_REACTORS
330
E
102
}
  0
MLINESTYLE
  5
18
102
{ACAD_REACTORS
330
17
102
}
100
AcDbMlineStyle
  2
STANDARD
 70
0
  3

 62
256
 51
90.0
 52
90.0
 71
2
 49
0.5
 62
256
  6
BYLAYER
 49
-0.5
 62
256
  6
BYLAYER
  0
LAYOUT
  5
35C
102
{ACAD_REACTORS
330
1A
102
}
100
AcDbPlotSettings
  1

  2
none_device
  4
ANSI_C_(22.00_x_17.00_Inches)
  6

 40
0.0
 41
0.0
 42
0.0
 43
0.0
 44
558.8
 45
431.8
 46
0.0
 47
0.0
 48
0.0
 49
0.0
140
0.0
141
0.0
142
1.0
143
1.0
 70
1024
 72
0
 73
0
 74
0
  7

 75
0
147
1.0
148
0.0
149
0.0
100
AcDbLayout
  1
Model
 70
0
 71
0
 10
0.0
 20
0.0
 11
22.0
 21
17.0
 12
0.0
 22
0.0
 32
0.0
 14
0.0
 24
0.0
 34
0.0
 15
0.0
 25
0.0
 35
0.0
146
0.0
 13
0.0
 23
0.0
 33
0.0
 16
1.0
 26
0.0
 36
0.0
 17
0.0
 27
1.0
 37
0.0
 76
0
330
22C
345
0
346
0
  0
LAYOUT
  5
35D
102
{ACAD_REACTORS
330
1A
102
}
100
AcDbPlotSettings
  1

  2
none_device
  4
ANSI_C_(22.00_x_17.00_Inches)
  6

 40
0.0
 41
0.0
 42
0.0
 43
0.0
 44
558.8
 45
431.8
 46
0.0
 47
0.0
 48
0.0
 49
0.0
140
0.0
141
0.0
142
1.0
143
1.0
 70
0
 72
0
 73
0
 74
0
  7

 75
0
147
1.0
148
0.0
149
0.0
100
AcDbLayout
  1
Layout1
 70
0
 71
1
 10
0.0
 20
0.0
 11
22.0
 21
17.0
 12
0.0
 22
0.0
 32
0.0
 14
0.0
 24
0.0
 34
0.0
 15
0.0
 25
0.0
 35
0.0
146
0.0
 13
0.0
 23
0.0
 33
0.0
 16
1.0
 26
0.0
 36
0.0
 17
0.0
 27
1.0
 37
0.0
 76
0
330
22D
345
0
346
0
  0
ENDSEC
  0
EOF