999
DXF file: _cgs_temp_output.dxf
999
Pro/ENGINEER 2016360 by Parametric Technology Corporation
  0
SECTION
  2
HEADER
  9
$ACADVER
  1
AC1021
  9
$DWGCODEPAGE
  3
ANSI_1252
  9
$EXTMAX
 10
22.0
 20
17.0
 30
0.0
  9
$EXTMIN
 10
0.0
 20
0.0
 30
0.0
  9
$LIMMIN
 10
0.0
 20
0.0
  9
$LIMMAX
 10
22.0
 20
17.0
  9
$VIEWCTR
 10
11.0
 20
8.5
  9
$VIEWSIZE
 40
17.0
  9
$CLAYER
  8
0
  9
$LTSCALE
 40
1.21
  9
$CELTYPE
  6
BYLAYER
  9
$DIMSCALE
 40
1.0
  9
$DIMASZ
 40
0.1875
  9
$DIMEXO
 40
0.0625
  9
$DIMDLI
 40
0.836
  9
$DIMEXE
 40
0.125
  9
$DIMCEN
 40
0.198
  9
$DIMLFAC
 40
1.0
  9
$DIMBLK
  1
_CLOSED
  9
$DIMALT
 70
0
  9
$DIMALTF
 40
25.4
  9
$DIMTXT
 40
0.15625
  9
$DIMTOL
 70
0
  9
$DIMLIM
 70
0
  9
$DIMTFAC
 40
1.0
  9
$DIMGAP
 40
0.09
  9
$DIMDSEP
 70
46
  9
$AUNITS
 70
0
  9
$PDMODE
 70
3
  9
$PDSIZE
 40
0.3125
  9
$HANDSEED
  5
3F4
  9
$TILEMODE
 70
1
  9
$MEASUREMENT
 70
0
  9
$INSUNITS
 70
1
  0
ENDSEC
  0
SECTION
  2
CLASSES
  0
CLASS
  1
ACDBDICTIONARYWDFLT
  2
AcDbDictionaryWithDefault
  3
AutoCAD 2000
 90
0
 91
1
280
0
281
0
  0
CLASS
  1
ACDBPLACEHOLDER
  2
AcDbPlaceHolder
  3
AutoCAD 2000
 90
0
 91
1
280
0
281
0
  0
CLASS
  1
LAYOUT
  2
AcDbLayout
  3
AutoCAD 2000
 90
0
 91
0
280
0
281
0
  0
ENDSEC
  0
SECTION
  2
TABLES
  0
TABLE
  2
VPORT
  5
8
100
AcDbSymbolTable
 70
2
  0
VPORT
  5
1F4
100
AcDbSymbolTableRecord
100
AcDbViewportTableRecord
  2
*ACTIVE
 70
0
 10
0.0
 20
0.0
 11
1.0
 21
1.0
 12
11.0
 22
8.5
 13
0.0
 23
0.0
 14
1.0
 24
1.0
 15
0.0
 25
0.0
 16
0.0
 26
0.0
 36
1.0
 17
0.0
 27
0.0
 37
0.0
 40
17.0
 41
1.2941176471
 42
50.0
 43
0.0
 44
0.0
 50
0.0
 51
0.0
 71
0
 72
100
 73
1
 74
1
 75
0
 76
0
 77
0
 78
0
  0
ENDTAB
  0
TABLE
  2
LTYPE
  5
5
100
AcDbSymbolTable
 70
6
  0
LTYPE
  5
14
100
AcDbSymbolTableRecord
100
AcDbLinetypeTableRecord
  2
BYBLOCK
 70
0
  3

 72
65
 73
0
 40
0.0
  0
LTYPE
  5
15
100
AcDbSymbolTableRecord
100
AcDbLinetypeTableRecord
  2
BYLAYER
 70
0
  3

 72
65
 73
0
 40
0.0
  0
LTYPE
  5
16
100
AcDbSymbolTableRecord
100
AcDbLinetypeTableRecord
  2
CONTINUOUS
 70
64
  3
Solid line
 72
65
 73
0
 40
0.0
  0
LTYPE
  5
1F5
100
AcDbSymbolTableRecord
100
AcDbLinetypeTableRecord
  2
CENTER
 70
64
  3
____ _ ____ _ ____ _ ____ _ ____ _ ____ _ ____
 72
65
 73
4
 40
0.6
 49
0.375
 74
0
 49
-0.075
 74
0
 49
0.075
 74
0
 49
-0.075
 74
0
  0
LTYPE
  5
1F6
100
AcDbSymbolTableRecord
100
AcDbLinetypeTableRecord
  2
HIDDEN
 70
64
  3
- - - - - - - - - - - - - - - - - - - -
 72
65
 73
2
 40
0.2
 49
0.1
 74
0
 49
-0.1
 74
0
  0
LTYPE
  5
1F7
100
AcDbSymbolTableRecord
100
AcDbLinetypeTableRecord
  2
PHANTOM
 70
64
  3
_____ _ _ _____ _ _ _____ _ _ _____
 72
65
 73
6
 40
0.8
 49
0.45
 74
0
 49
-0.05
 74
0
 49
0.1
 74
0
 49
-0.05
 74
0
 49
0.1
 74
0
 49
-0.05
 74
0
  0
LTYPE
  5
1F8
100
AcDbSymbolTableRecord
100
AcDbLinetypeTableRecord
  2
DOT
 70
64
  3
. . . . . . . . . . . . . . . . . . . .
 72
65
 73
2
 40
0.2
 49
0.1
 74
0
 49
-0.1
 74
0
  0
LTYPE
  5
1F9
100
AcDbSymbolTableRecord
100
AcDbLinetypeTableRecord
  2
DASHED
 70
64
  3
- - - - - - - - - - - - - - - - - - - -
 72
65
 73
2
 40
0.2
 49
0.1
 74
0
 49
-0.1
 74
0
  0
ENDTAB
  0
TABLE
  2
LAYER
  5
2
100
AcDbSymbolTable
 70
36
  0
LAYER
  5
10
100
AcDbSymbolTableRecord
100
AcDbLayerTableRecord
  2
0
 70
0
 62
7
  6
CONTINUOUS
370
-3
390
F
  0
LAYER
  5
1FA
100
AcDbSymbolTableRecord
100
AcDbLayerTableRecord
  2
DEFAULT_1
 70
0
 62
7
  6
CENTER
370
-3
390
F
  0
LAYER
  5
1FB
100
AcDbSymbolTableRecord
100
AcDbLayerTableRecord
  2
DEFAULT_2
 70
0
 62
8
  6
HIDDEN
370
-3
390
F
  0
LAYER
  5
1FC
100
AcDbSymbolTableRecord
100
AcDbLayerTableRecord
  2
DEFAULT_3
 70
0
 62
7
  6
PHANTOM
370
-3
390
F
  0
LAYER
  5
1FD
100
AcDbSymbolTableRecord
100
AcDbLayerTableRecord
  2
01_ALL_DTM_PLN
 70
0
 62
7
  6
CONTINUOUS
370
-3
390
F
  0
LAYER
  5
1FE
100
AcDbSymbolTableRecord
100
AcDbLayerTableRecord
  2
01__ASM_ALL_DTM_PLN
 70
0
 62
7
  6
CONTINUOUS
370
-3
390
F
  0
LAYER
  5
1FF
100
AcDbSymbolTableRecord
100
AcDbLayerTableRecord
  2
01__ASM_DEF_DTM_PLN
 70
0
 62
7
  6
CONTINUOUS
370
-3
390
F
  0
LAYER
  5
200
100
AcDbSymbolTableRecord
100
AcDbLayerTableRecord
  2
01___PRT_ALL_DTM_PLN
 70
0
 62
7
  6
CONTINUOUS
370
-3
390
F
  0
LAYER
  5
201
100
AcDbSymbolTableRecord
100
AcDbLayerTableRecord
  2
01___PRT_DEF_DTM_PLN
 70
0
 62
7
  6
CONTINUOUS
370
-3
390
F
  0
LAYER
  5
202
100
AcDbSymbolTableRecord
100
AcDbLayerTableRecord
  2
02_ALL_AXES
 70
0
 62
7
  6
CONTINUOUS
370
-3
390
F
  0
LAYER
  5
203
100
AcDbSymbolTableRecord
100
AcDbLayerTableRecord
  2
02__ASM_ALL_AXES
 70
0
 62
7
  6
CONTINUOUS
370
-3
390
F
  0
LAYER
  5
204
100
AcDbSymbolTableRecord
100
AcDbLayerTableRecord
  2
02___PRT_ALL_AXES
 70
0
 62
7
  6
CONTINUOUS
370
-3
390
F
  0
LAYER
  5
205
100
AcDbSymbolTableRecord
100
AcDbLayerTableRecord
  2
03_ALL_CURVES
 70
0
 62
7
  6
CONTINUOUS
370
-3
390
F
  0
LAYER
  5
206
100
AcDbSymbolTableRecord
100
AcDbLayerTableRecord
  2
03__ASM_ALL_CURVES
 70
0
 62
7
  6
CONTINUOUS
370
-3
390
F
  0
LAYER
  5
207
100
AcDbSymbolTableRecord
100
AcDbLayerTableRecord
  2
03___PRT_ALL_CURVES
 70
0
 62
7
  6
CONTINUOUS
370
-3
390
F
  0
LAYER
  5
208
100
AcDbSymbolTableRecord
100
AcDbLayerTableRecord
  2
04_ALL_DTM_PNT
 70
0
 62
7
  6
CONTINUOUS
370
-3
390
F
  0
LAYER
  5
209
100
AcDbSymbolTableRecord
100
AcDbLayerTableRecord
  2
04__ASM_ALL_DTM_PNT
 70
0
 62
7
  6
CONTINUOUS
370
-3
390
F
  0
LAYER
  5
20A
100
AcDbSymbolTableRecord
100
AcDbLayerTableRecord
  2
04___PRT_ALL_DTM_PNT
 70
0
 62
7
  6
CONTINUOUS
370
-3
390
F
  0
LAYER
  5
20B
100
AcDbSymbolTableRecord
100
AcDbLayerTableRecord
  2
05_ALL_DTM_CSYS
 70
0
 62
7
  6
CONTINUOUS
370
-3
390
F
  0
LAYER
  5
20C
100
AcDbSymbolTableRecord
100
AcDbLayerTableRecord
  2
05__ASM_ALL_DTM_CSYS
 70
0
 62
7
  6
CONTINUOUS
370
-3
390
F
  0
LAYER
  5
20D
100
AcDbSymbolTableRecord
100
AcDbLayerTableRecord
  2
05__ASM_DEF_DTM_CSYS
 70
0
 62
7
  6
CONTINUOUS
370
-3
390
F
  0
LAYER
  5
20E
100
AcDbSymbolTableRecord
100
AcDbLayerTableRecord
  2
05___PRT_ALL_DTM_CSYS
 70
0
 62
7
  6
CONTINUOUS
370
-3
390
F
  0
LAYER
  5
20F
100
AcDbSymbolTableRecord
100
AcDbLayerTableRecord
  2
05___PRT_DEF_DTM_CSYS
 70
0
 62
7
  6
CONTINUOUS
370
-3
390
F
  0
LAYER
  5
210
100
AcDbSymbolTableRecord
100
AcDbLayerTableRecord
  2
06_ALL_SURFS
 70
0
 62
7
  6
CONTINUOUS
370
-3
390
F
  0
LAYER
  5
211
100
AcDbSymbolTableRecord
100
AcDbLayerTableRecord
  2
06__ASM_ALL_SURFS
 70
0
 62
7
  6
CONTINUOUS
370
-3
390
F
  0
LAYER
  5
212
100
AcDbSymbolTableRecord
100
AcDbLayerTableRecord
  2
06___PRT_ALL_SURFS
 70
0
 62
7
  6
CONTINUOUS
370
-3
390
F
  0
LAYER
  5
213
100
AcDbSymbolTableRecord
100
AcDbLayerTableRecord
  2
07__ASM_ALL_SKELETONS
 70
0
 62
7
  6
CONTINUOUS
370
-3
390
F
  0
LAYER
  5
214
100
AcDbSymbolTableRecord
100
AcDbLayerTableRecord
  2
COLOR2
 70
0
 62
7
  6
CONTINUOUS
370
-3
390
F
  0
LAYER
  5
215
100
AcDbSymbolTableRecord
100
AcDbLayerTableRecord
  2
NONE
 70
0
 62
7
  6
CONTINUOUS
370
-3
390
F
  0
LAYER
  5
216
100
AcDbSymbolTableRecord
100
AcDbLayerTableRecord
  2
NONE_1
 70
0
 62
7
  6
CONTINUOUS
370
-3
390
F
  0
LAYER
  5
217
100
AcDbSymbolTableRecord
100
AcDbLayerTableRecord
  2
NONE_2
 70
0
 62
7
  6
CONTINUOUS
370
-3
390
F
  0
LAYER
  5
218
100
AcDbSymbolTableRecord
100
AcDbLayerTableRecord
  2
NONE_3
 70
0
 62
7
  6
CONTINUOUS
370
-3
390
F
  0
LAYER
  5
219
100
AcDbSymbolTableRecord
100
AcDbLayerTableRecord
  2
NONE_4
 70
0
 62
7
  6
CONTINUOUS
370
-3
390
F
  0
LAYER
  5
21A
100
AcDbSymbolTableRecord
100
AcDbLayerTableRecord
  2
NONE_5
 70
0
 62
7
  6
CONTINUOUS
370
-3
390
F
  0
LAYER
  5
21B
100
AcDbSymbolTableRecord
100
AcDbLayerTableRecord
  2
REXNORD-STANDARD_DUTY_BALL_BEAR
 70
0
 62
7
  6
CONTINUOUS
370
-3
390
F
  0
LAYER
  5
21C
100
AcDbSymbolTableRecord
100
AcDbLayerTableRecord
  2
_3324
 70
0
 62
7
  6
CONTINUOUS
370
-3
390
F
  0
LAYER
  5
21D
100
AcDbSymbolTableRecord
100
AcDbLayerTableRecord
  2
_3324_1
 70
0
 62
7
  6
CONTINUOUS
370
-3
390
F
  0
LAYER
  5
21E
100
AcDbSymbolTableRecord
100
AcDbLayerTableRecord
  2
_4081
 70
0
 62
7
  6
CONTINUOUS
370
-3
390
F
  0
LAYER
  5
21F
100
AcDbSymbolTableRecord
100
AcDbLayerTableRecord
  2
_4081_1
 70
0
 62
7
  6
CONTINUOUS
370
-3
390
F
  0
LAYER
  5
220
100
AcDbSymbolTableRecord
100
AcDbLayerTableRecord
  2
_6543
 70
0
 62
7
  6
CONTINUOUS
370
-3
390
F
  0
LAYER
  5
221
100
AcDbSymbolTableRecord
100
AcDbLayerTableRecord
  2
_6543_1
 70
0
 62
7
  6
CONTINUOUS
370
-3
390
F
  0
LAYER
  5
222
100
AcDbSymbolTableRecord
100
AcDbLayerTableRecord
  2
_798
 70
0
 62
7
  6
CONTINUOUS
370
-3
390
F
  0
LAYER
  5
223
100
AcDbSymbolTableRecord
100
AcDbLayerTableRecord
  2
_798_1
 70
0
 62
7
  6
CONTINUOUS
370
-3
390
F
  0
LAYER
  5
224
100
AcDbSymbolTableRecord
100
AcDbLayerTableRecord
  2
_8964
 70
0
 62
7
  6
CONTINUOUS
370
-3
390
F
  0
LAYER
  5
225
100
AcDbSymbolTableRecord
100
AcDbLayerTableRecord
  2
_8964_1
 70
0
 62
7
  6
CONTINUOUS
370
-3
390
F
  0
LAYER
  5
226
100
AcDbSymbolTableRecord
100
AcDbLayerTableRecord
  2
_960
 70
0
 62
7
  6
CONTINUOUS
370
-3
390
F
  0
LAYER
  5
227
100
AcDbSymbolTableRecord
100
AcDbLayerTableRecord
  2
_960_1
 70
0
 62
7
  6
CONTINUOUS
370
-3
390
F
  0
LAYER
  5
228
100
AcDbSymbolTableRecord
100
AcDbLayerTableRecord
  2
___SHELL
 70
0
 62
7
  6
CONTINUOUS
370
-3
390
F
  0
ENDTAB
  0
TABLE
  2
STYLE
  5
3
100
AcDbSymbolTable
 70
1
  0
STYLE
  5
11
100
AcDbSymbolTableRecord
100
AcDbTextStyleTableRecord
  2
STANDARD
 70
0
 40
0.0
 41
0.8
 50
0.0
 71
0
 42
0.2
  3
txt
  4

  0
STYLE
  5
229
100
AcDbSymbolTableRecord
100
AcDbTextStyleTableRecord
  2
TEXTSTYLE_1
 70
0
 40
0.0
 41
0.8
 50
0.0
 71
0
 42
0.2
  3
gdt
  4

  0
ENDTAB
  0
TABLE
  2
VIEW
  5
6
100
AcDbSymbolTable
 70
0
  0
ENDTAB
  0
TABLE
  2
UCS
  5
7
100
AcDbSymbolTable
 70
0
  0
ENDTAB
  0
TABLE
  2
APPID
  5
9
100
AcDbSymbolTable
 70
1
  0
APPID
  5
22A
100
AcDbSymbolTableRecord
100
AcDbRegAppTableRecord
  2
ACAD
 70
0
  0
ENDTAB
  0
TABLE
  2
BLOCK_RECORD
  5
1
100
AcDbSymbolTable
 70
0
  0
BLOCK_RECORD
  5
22B
100
AcDbSymbolTableRecord
100
AcDbBlockTableRecord
  2
*Model_Space
  0
BLOCK_RECORD
  5
22C
100
AcDbSymbolTableRecord
100
AcDbBlockTableRecord
  2
*Paper_Space
  0
BLOCK_RECORD
  5
22D
100
AcDbSymbolTableRecord
100
AcDbBlockTableRecord
  2
_NONE
  0
ENDTAB
  0
TABLE
  2
DIMSTYLE
  5
A
100
AcDbSymbolTable
 70
1
100
AcDbDimStyleTable
 71
0
  0
DIMSTYLE
105
22E
100
AcDbSymbolTableRecord
100
AcDbDimStyleTableRecord
  2
STANDARD
 70
0
  3

  4

 40
1.0
 41
0.1875
 42
0.0625
 43
0.38
 44
0.125
 45
0.0
 46
0.0
 47
0.0001
 48
0.0001
140
0.15625
141
0.09
142
0.0
143
25.4
144
1.0
145
0.0
146
1.0
147
0.09
 71
0.0
 72
0.0
 73
1
 74
1
 75
0
 76
0
 77
0
 78
4
 79
1
170
0
171
3
172
0
173
0
174
0
175
0
176
0
177
0
178
0
270
2
179
4
271
4
272
4
273
2
274
2
275
0
280
0
281
0
282
0
283
1
284
4
285
0
286
0
287
3
288
0
340
11
278
46
  0
ENDTAB
  0
ENDSEC
  0
SECTION
  2
BLOCKS
  0
BLOCK
  5
20
100
AcDbEntity
  8
0
100
AcDbBlockBegin
  2
*Model_Space
 70
0
 10
0.0
 20
0.0
 30
0.0
  3
*Model_Space
  1

  0
ENDBLK
  5
21
100
AcDbEntity
  8
0
100
AcDbBlockEnd
  0
BLOCK
  5
1C
100
AcDbEntity
  8
0
100
AcDbBlockBegin
  2
*Paper_Space
 70
0
 10
0.0
 20
0.0
 30
0.0
  3
*Paper_Space
  1

  0
ENDBLK
  5
1D
100
AcDbEntity
  8
0
100
AcDbBlockEnd
  0
BLOCK
  5
22F
100
AcDbEntity
  8
0
100
AcDbBlockBegin
  2
_NONE
 70
64
 10
0.0
 20
0.0
  3
_NONE
  1

  0
ENDBLK
  5
230
100
AcDbEntity
  8
0
  6
BYBLOCK
 62
0
100
AcDbBlockEnd
  0
ENDSEC
  0
SECTION
  2
ENTITIES
  0
MTEXT
  5
231
100
AcDbEntity
  8
0
100
AcDbMText
 62
7
  6
CONTINUOUS
  7
STANDARD
 71
1
 72
1
 10
15.9560215477
 20
0.9479130325
 30
0.0
 11
1.0
 21
0.0
 31
0.0
 44
0.9
  1
SCALE: 1:1.000
 40
0.3
 41
3.36
  0
LEADER
  5
232
100
AcDbEntity
  8
0
100
AcDbLeader
 62
2
  6
CONTINUOUS
  3
STANDARD
 71
1
 72
0
 73
0
 75
0
 40
0.15625
 41
1.5
 76
3
 10
4.0053672762
 20
4.8482448968
 30
0.0
 10
10.753425556
 20
3.0293179925
 30
0.0
 10
11.003425556
 20
3.0293179925
 30
0.0
340
233
1001
ACAD
1000
DSTYLE
1002
{
1070
77
1070
0
1070
341
1005
22D
1002
}
  0
MTEXT
  5
233
102
{ACAD_REACTORS
330
232
102
}
100
AcDbEntity
  8
0
100
AcDbMText
 62
2
  6
CONTINUOUS
  7
STANDARD
 71
1
 72
1
 10
11.003425556
 20
3.1074429925
 30
0.0
 11
1.0
 21
0.0
 31
0.0
 44
0.9
  1
 0.375 BOLTS
 40
0.15625
 41
1.5
  0
LINE
  5
234
100
AcDbEntity
  8
0
100
AcDbLine
 62
7
  6
CONTINUOUS
 10
0.0
 20
0.0
 11
0.0
 21
17.0
  0
LINE
  5
235
100
AcDbEntity
  8
0
100
AcDbLine
 62
7
  6
CONTINUOUS
 10
0.0
 20
0.0
 11
22.0
 21
0.0
  0
LINE
  5
236
100
AcDbEntity
  8
0
100
AcDbLine
 62
7
  6
CONTINUOUS
 10
0.0
 20
17.0
 11
22.0
 21
17.0
  0
LINE
  5
237
100
AcDbEntity
  8
0
100
AcDbLine
 62
7
  6
CONTINUOUS
 10
22.0
 20
0.0
 11
22.0
 21
17.0
  0
LINE
  5
238
100
AcDbEntity
  8
0
100
AcDbLine
 62
7
  6
CONTINUOUS
 10
3.8178672762
 20
4.7982448968
 11
3.8178672762
 21
4.3482448968
  0
LINE
  5
239
100
AcDbEntity
  8
0
100
AcDbLine
 62
7
  6
CONTINUOUS
 10
4.6616172762
 20
4.7982448968
 11
4.6616172762
 21
4.3482448968
  0
LINE
  5
23A
100
AcDbEntity
  8
0
100
AcDbLine
 62
7
  6
CONTINUOUS
 10
4.9426578612
 20
4.3482448968
 11
4.9426578612
 21
4.3682448968
  0
LINE
  5
23B
100
AcDbEntity
  8
0
100
AcDbLine
 62
7
  6
CONTINUOUS
 10
4.6616172762
 20
4.8482448968
 11
5.040018873
 21
5.9205233035
  0
LINE
  5
23C
100
AcDbEntity
  8
0
100
AcDbLine
 62
7
  6
CONTINUOUS
 10
3.8178672762
 20
4.3482448968
 11
4.9426578612
 21
4.3482448968
  0
LINE
  5
23D
100
AcDbEntity
  8
0
100
AcDbLine
 62
7
  6
CONTINUOUS
 10
7.3180766911
 20
4.3482448968
 11
8.4428672762
 21
4.3482448968
  0
LINE
  5
23E
100
AcDbEntity
  8
0
100
AcDbLine
 62
7
  6
CONTINUOUS
 10
7.3180769226
 20
4.3682448968
 11
4.9426576298
 21
4.3682448968
  0
LINE
  5
23F
100
AcDbEntity
  8
0
100
AcDbLine
 62
7
  6
CONTINUOUS
 10
8.3928672762
 20
4.8482448968
 11
7.5299142553
 21
4.8482448968
  0
LINE
  5
240
100
AcDbEntity
  8
0
100
AcDbLine
 62
7
  6
CONTINUOUS
 10
3.8678672762
 20
4.8482448968
 11
4.730820297
 21
4.8482448968
  0
LINE
  5
241
100
AcDbEntity
  8
0
100
AcDbLine
 62
7
  6
CONTINUOUS
 10
6.0703672762
 20
6.0457448968
 11
6.0603672762
 21
6.0357448968
  0
LINE
  5
242
100
AcDbEntity
  8
0
100
AcDbLine
 62
7
  6
CONTINUOUS
 10
6.8897082027
 20
6.5247254867
 11
6.8331396602
 21
6.4681569442
  0
LINE
  5
243
100
AcDbEntity
  8
0
100
AcDbLine
 62
7
  6
CONTINUOUS
 10
6.0603672762
 20
6.0357448968
 11
6.0603672762
 21
6.030820793
  0
LINE
  5
244
100
AcDbEntity
  8
0
100
AcDbLine
 62
7
  6
CONTINUOUS
 10
6.8595711443
 20
6.4417254601
 11
6.8524489129
 21
6.4346032288
  0
LINE
  5
245
100
AcDbEntity
  8
0
100
AcDbLine
 62
7
  6
CONTINUOUS
 10
6.8905495761
 20
6.4107470283
 11
6.9471181186
 21
6.4673155708
  0
LINE
  5
246
100
AcDbEntity
  8
0
100
AcDbLine
 62
7
  6
CONTINUOUS
 10
5.5383609251
 20
5.3202722065
 11
5.4819793678
 21
5.2997509979
  0
LINE
  5
247
100
AcDbEntity
  8
0
100
AcDbLine
 62
7
  6
CONTINUOUS
 10
6.7223736273
 20
5.751217587
 11
6.7787551845
 21
5.7717387956
  0
LINE
  5
248
100
AcDbEntity
  8
0
100
AcDbLine
 62
7
  6
CONTINUOUS
 10
6.6303672762
 20
5.4657448968
 11
6.6254430279
 21
5.4657448968
  0
LINE
  5
249
100
AcDbEntity
  8
0
100
AcDbLine
 62
7
  6
CONTINUOUS
 10
6.7787551845
 20
5.2997509979
 11
6.7223736273
 21
5.3202722065
  0
LINE
  5
24A
100
AcDbEntity
  8
0
100
AcDbLine
 62
7
  6
CONTINUOUS
 10
5.4819793678
 20
5.7717387956
 11
5.5383609251
 21
5.751217587
  0
LINE
  5
24B
100
AcDbEntity
  8
0
100
AcDbLine
 62
7
  6
CONTINUOUS
 10
6.2003672762
 20
6.0357448968
 11
6.2003672762
 21
6.0308207842
  0
LINE
  5
24C
100
AcDbEntity
  8
0
100
AcDbLine
 62
7
  6
CONTINUOUS
 10
7.0619379503
 20
6.3524957391
 11
7.0053694078
 21
6.2959271967
  0
LINE
  5
24D
100
AcDbEntity
  8
0
100
AcDbLine
 62
7
  6
CONTINUOUS
 10
7.030036481
 20
6.2586374063
 11
7.0363478396
 21
6.2649487649
  0
LINE
  5
24E
100
AcDbEntity
  8
0
100
AcDbLine
 62
7
  6
CONTINUOUS
 10
7.1193478661
 20
6.2950858233
 11
7.0627793236
 21
6.2385172808
  0
LINE
  5
24F
100
AcDbEntity
  8
0
100
AcDbLine
 62
7
  6
CONTINUOUS
 10
6.6303672762
 20
5.6057448968
 11
6.6254430279
 21
5.6057448968
  0
LINE
  5
250
100
AcDbEntity
  8
0
100
AcDbLine
 62
7
  6
CONTINUOUS
 10
6.6303672762
 20
5.6057448968
 11
6.6303672762
 21
5.4657448968
  0
LINE
  5
251
100
AcDbEntity
  8
0
100
AcDbLine
 62
7
  6
CONTINUOUS
 10
6.6403672762
 20
5.4757456138
 11
6.6403672762
 21
5.5957441797
  0
LINE
  5
252
100
AcDbEntity
  8
0
100
AcDbLine
 62
7
  6
CONTINUOUS
 10
6.6403672762
 20
5.4757448968
 11
6.6303672762
 21
5.4657448968
  0
LINE
  5
253
100
AcDbEntity
  8
0
100
AcDbLine
 62
7
  6
CONTINUOUS
 10
6.2003672762
 20
6.0357448968
 11
6.0603672762
 21
6.0357448968
  0
LINE
  5
254
100
AcDbEntity
  8
0
100
AcDbLine
 62
7
  6
CONTINUOUS
 10
6.1903665591
 20
6.0457448968
 11
6.0703679932
 21
6.0457448968
  0
LINE
  5
255
100
AcDbEntity
  8
0
100
AcDbLine
 62
7
  6
CONTINUOUS
 10
6.1903672762
 20
6.0457448968
 11
6.2003672762
 21
6.0357448968
  0
LINE
  5
256
100
AcDbEntity
  8
0
100
AcDbLine
 62
7
  6
CONTINUOUS
 10
6.6403672762
 20
5.5957448968
 11
6.6303672762
 21
5.6057448968
  0
LINE
  5
257
100
AcDbEntity
  8
0
100
AcDbLine
 62
7
  6
CONTINUOUS
 10
7.3180766911
 20
4.3682448968
 11
7.3180766911
 21
4.3482448968
  0
LINE
  5
258
100
AcDbEntity
  8
0
100
AcDbLine
 62
7
  6
CONTINUOUS
 10
6.8331396602
 20
6.4681569442
 11
6.8905495761
 21
6.4107470283
  0
LINE
  5
259
100
AcDbEntity
  8
0
100
AcDbLine
 62
7
  6
CONTINUOUS
 10
7.0053694078
 20
6.2959271967
 11
7.0627793236
 21
6.2385172808
  0
LINE
  5
25A
100
AcDbEntity
  8
0
100
AcDbLine
 62
7
  6
CONTINUOUS
 10
7.5991172762
 20
4.8482448968
 11
7.2207156793
 21
5.9205233035
  0
LINE
  5
25B
100
AcDbEntity
  8
0
100
AcDbLine
 62
7
  6
CONTINUOUS
 10
7.1193478661
 20
6.2950858233
 11
6.8897082027
 21
6.5247254867
  0
LINE
  5
25C
100
AcDbEntity
  8
0
100
AcDbLine
 62
7
  6
CONTINUOUS
 10
7.1741783952
 20
6.4099609217
 11
7.0045833011
 21
6.5795560158
  0
LINE
  5
25D
100
AcDbEntity
  8
0
100
AcDbLine
 62
7
  6
CONTINUOUS
 10
7.5991172762
 20
4.3482448968
 11
7.5991172762
 21
4.7982448968
  0
LINE
  5
25E
100
AcDbEntity
  8
0
100
AcDbLine
 62
7
  6
CONTINUOUS
 10
7.2122406514
 20
6.5751918651
 11
7.1698142445
 21
6.617618272
  0
LINE
  5
25F
100
AcDbEntity
  8
0
100
AcDbLine
 62
7
  6
CONTINUOUS
 10
8.4428672762
 20
4.3482448968
 11
8.4428672762
 21
4.7982448968
  0
LINE
  5
260
100
AcDbEntity
  8
0
100
AcDbLine
 62
7
  6
CONTINUOUS
 10
3.7583720839
 20
11.9937977814
 11
3.7583720839
 21
13.2062977814
  0
LINE
  5
261
100
AcDbEntity
  8
0
100
AcDbLine
 62
7
  6
CONTINUOUS
 10
4.6021220839
 20
12.0316657596
 11
4.6021220839
 21
12.1809850702
  0
LINE
  5
262
100
AcDbEntity
  8
0
100
AcDbLine
 62
7
  6
CONTINUOUS
 10
4.6021220839
 20
13.0191104926
 11
4.6021220839
 21
13.1684298031
  0
LINE
  5
263
100
AcDbEntity
  8
0
100
AcDbLine
 62
7
  6
CONTINUOUS
 10
5.5808720839
 20
11.9594227814
 11
5.5708720839
 21
11.9694227814
  0
LINE
  5
264
100
AcDbEntity
  8
0
100
AcDbLine
 62
7
  6
CONTINUOUS
 10
5.5808720839
 20
13.0531727814
 11
5.5708720839
 21
13.0431727814
  0
LINE
  5
265
100
AcDbEntity
  8
0
100
AcDbLine
 62
7
  6
CONTINUOUS
 10
8.3333720839
 20
11.9437977814
 11
7.5396220839
 21
11.9437977814
  0
LINE
  5
266
100
AcDbEntity
  8
0
100
AcDbLine
 62
7
  6
CONTINUOUS
 10
3.8083720839
 20
11.9437977814
 11
4.6021220839
 21
11.9437977814
  0
LINE
  5
267
100
AcDbEntity
  8
0
100
AcDbLine
 62
7
  6
CONTINUOUS
 10
5.5808720839
 20
11.9594227814
 11
6.5608720839
 21
11.9594227814
  0
LINE
  5
268
100
AcDbEntity
  8
0
100
AcDbLine
 62
7
  6
CONTINUOUS
 10
5.5708720839
 20
11.9694227814
 11
6.5708720839
 21
11.9694227814
  0
LINE
  5
269
100
AcDbEntity
  8
0
100
AcDbLine
 62
7
  6
CONTINUOUS
 10
5.5708720839
 20
11.9694227814
 11
5.5708720839
 21
12.1625477814
  0
LINE
  5
26A
100
AcDbEntity
  8
0
100
AcDbLine
 62
7
  6
CONTINUOUS
 10
5.5708720839
 20
13.0375477814
 11
5.5708720839
 21
13.0431727814
  0
LINE
  5
26B
100
AcDbEntity
  8
0
100
AcDbLine
 62
7
  6
CONTINUOUS
 10
4.6021220839
 20
11.9437977814
 11
4.8161987824
 21
12.1368164686
  0
LINE
  5
26C
100
AcDbEntity
  8
0
100
AcDbLine
 62
7
  6
CONTINUOUS
 10
6.0308720839
 20
12.0813287706
 11
6.0708720839
 21
12.0582347598
  0
LINE
  5
26D
100
AcDbEntity
  8
0
100
AcDbLine
 62
7
  6
CONTINUOUS
 10
4.8161989927
 20
13.0632789045
 11
4.6021220839
 21
13.2562977814
  0
LINE
  5
26E
100
AcDbEntity
  8
0
100
AcDbLine
 62
7
  6
CONTINUOUS
 10
4.8831624374
 20
12.1625477814
 11
7.2585819617
 21
12.1625477814
  0
LINE
  5
26F
100
AcDbEntity
  8
0
100
AcDbLine
 62
7
  6
CONTINUOUS
 10
6.1108720839
 20
12.1275167921
 11
6.0708720839
 21
12.1506108029
  0
LINE
  5
270
100
AcDbEntity
  8
0
100
AcDbLine
 62
7
  6
CONTINUOUS
 10
8.0083720839
 20
12.4125477814
 11
7.6333720839
 21
12.4125477814
  0
LINE
  5
271
100
AcDbEntity
  8
0
100
AcDbLine
 62
7
  6
CONTINUOUS
 10
4.5083720839
 20
12.4125477814
 11
4.1333720839
 21
12.4125477814
  0
LINE
  5
272
100
AcDbEntity
  8
0
100
AcDbLine
 62
7
  6
CONTINUOUS
 10
6.8310543838
 20
12.4594227814
 11
7.0024427579
 21
12.4594227814
  0
LINE
  5
273
100
AcDbEntity
  8
0
100
AcDbLine
 62
7
  6
CONTINUOUS
 10
6.0308720839
 20
12.0813287706
 11
6.0308720839
 21
12.1275167921
  0
LINE
  5
274
100
AcDbEntity
  8
0
100
AcDbLine
 62
7
  6
CONTINUOUS
 10
6.8302130104
 20
12.6000477814
 11
6.7736444679
 21
12.6000477814
  0
LINE
  5
275
100
AcDbEntity
  8
0
100
AcDbLine
 62
7
  6
CONTINUOUS
 10
6.1108720839
 20
12.1275167921
 11
6.1108720839
 21
12.0813287706
  0
LINE
  5
276
100
AcDbEntity
  8
0
100
AcDbLine
 62
7
  6
CONTINUOUS
 10
7.0024427579
 20
12.7406727814
 11
6.8310543838
 21
12.7406727814
  0
LINE
  5
277
100
AcDbEntity
  8
0
100
AcDbLine
 62
7
  6
CONTINUOUS
 10
4.1333720839
 20
12.7875477814
 11
4.5083720839
 21
12.7875477814
  0
LINE
  5
278
100
AcDbEntity
  8
0
100
AcDbLine
 62
7
  6
CONTINUOUS
 10
7.6333720839
 20
12.7875477814
 11
8.0083720839
 21
12.7875477814
  0
LINE
  5
279
100
AcDbEntity
  8
0
100
AcDbLine
 62
7
  6
CONTINUOUS
 10
6.5708720839
 20
13.0431727814
 11
6.5708720839
 21
13.0375477814
  0
LINE
  5
27A
100
AcDbEntity
  8
0
100
AcDbLine
 62
7
  6
CONTINUOUS
 10
6.5708720839
 20
12.1625477814
 11
6.5708720839
 21
11.9694227814
  0
LINE
  5
27B
100
AcDbEntity
  8
0
100
AcDbLine
 62
7
  6
CONTINUOUS
 10
7.3255453853
 20
13.0632790941
 11
7.5396220839
 21
13.2562977814
  0
LINE
  5
27C
100
AcDbEntity
  8
0
100
AcDbLine
 62
7
  6
CONTINUOUS
 10
6.0708720839
 20
12.1506108029
 11
6.0308720839
 21
12.1275167921
  0
LINE
  5
27D
100
AcDbEntity
  8
0
100
AcDbLine
 62
7
  6
CONTINUOUS
 10
6.0708720839
 20
12.0582347598
 11
6.1108720839
 21
12.0813287706
  0
LINE
  5
27E
100
AcDbEntity
  8
0
100
AcDbLine
 62
7
  6
CONTINUOUS
 10
7.2585817303
 20
13.0375477814
 11
4.883162206
 21
13.0375477814
  0
LINE
  5
27F
100
AcDbEntity
  8
0
100
AcDbLine
 62
7
  6
CONTINUOUS
 10
5.5708720839
 20
13.0431727814
 11
6.5708720839
 21
13.0431727814
  0
LINE
  5
280
100
AcDbEntity
  8
0
100
AcDbLine
 62
7
  6
CONTINUOUS
 10
6.5608720839
 20
13.0531727814
 11
5.5808720839
 21
13.0531727814
  0
LINE
  5
281
100
AcDbEntity
  8
0
100
AcDbLine
 62
7
  6
CONTINUOUS
 10
7.5396220839
 20
11.9437977814
 11
7.325545175
 21
12.1368166582
  0
LINE
  5
282
100
AcDbEntity
  8
0
100
AcDbLine
 62
7
  6
CONTINUOUS
 10
6.5808720839
 20
12.0444227814
 11
6.5808720839
 21
12.1625477814
  0
LINE
  5
283
100
AcDbEntity
  8
0
100
AcDbLine
 62
7
  6
CONTINUOUS
 10
6.8310543838
 20
12.7406727814
 11
6.7736444679
 21
12.6000477814
  0
LINE
  5
284
100
AcDbEntity
  8
0
100
AcDbLine
 62
7
  6
CONTINUOUS
 10
6.9853305462
 20
12.702081758
 11
6.9886287972
 21
12.7048189186
  0
LINE
  5
285
100
AcDbEntity
  8
0
100
AcDbLine
 62
7
  6
CONTINUOUS
 10
3.8083720839
 20
13.2562977814
 11
4.6021220839
 21
13.2562977814
  0
LINE
  5
286
100
AcDbEntity
  8
0
100
AcDbLine
 62
7
  6
CONTINUOUS
 10
7.5396220839
 20
13.2562977814
 11
8.3333720839
 21
13.2562977814
  0
LINE
  5
287
100
AcDbEntity
  8
0
100
AcDbLine
 62
7
  6
CONTINUOUS
 10
6.9886287972
 20
12.4952766441
 11
6.9853305462
 21
12.4980138048
  0
LINE
  5
288
100
AcDbEntity
  8
0
100
AcDbLine
 62
7
  6
CONTINUOUS
 10
6.7736444679
 20
12.6000477814
 11
6.8310543838
 21
12.4594227814
  0
LINE
  5
289
100
AcDbEntity
  8
0
100
AcDbLine
 62
7
  6
CONTINUOUS
 10
6.8302130104
 20
12.6000477814
 11
6.8876229263
 21
12.7406727814
  0
LINE
  5
28A
100
AcDbEntity
  8
0
100
AcDbLine
 62
7
  6
CONTINUOUS
 10
6.5808720839
 20
12.0444227814
 11
6.5708720839
 21
12.0344227814
  0
LINE
  5
28B
100
AcDbEntity
  8
0
100
AcDbLine
 62
7
  6
CONTINUOUS
 10
6.5708720839
 20
11.9694227814
 11
6.5608720839
 21
11.9594227814
  0
LINE
  5
28C
100
AcDbEntity
  8
0
100
AcDbLine
 62
7
  6
CONTINUOUS
 10
6.5708720839
 20
13.0431727814
 11
6.5608720839
 21
13.0531727814
  0
LINE
  5
28D
100
AcDbEntity
  8
0
100
AcDbLine
 62
7
  6
CONTINUOUS
 10
6.8876229263
 20
12.4594227814
 11
6.8302130104
 21
12.6000477814
  0
LINE
  5
28E
100
AcDbEntity
  8
0
100
AcDbLine
 62
7
  6
CONTINUOUS
 10
7.0115521187
 20
12.481736067
 11
7.0024427579
 21
12.4594227814
  0
LINE
  5
28F
100
AcDbEntity
  8
0
100
AcDbLine
 62
7
  6
CONTINUOUS
 10
7.0024427579
 20
12.7406727814
 11
7.0114400145
 21
12.7186340937
  0
LINE
  5
290
100
AcDbEntity
  8
0
100
AcDbLine
 62
7
  6
CONTINUOUS
 10
7.5396220839
 20
13.1684298031
 11
7.5396220839
 21
13.0191104926
  0
LINE
  5
291
100
AcDbEntity
  8
0
100
AcDbLine
 62
7
  6
CONTINUOUS
 10
7.5396220839
 20
12.1809850702
 11
7.5396220839
 21
12.0316657596
  0
LINE
  5
292
100
AcDbEntity
  8
0
100
AcDbLine
 62
7
  6
CONTINUOUS
 10
8.3833720839
 20
13.2062977814
 11
8.3833720839
 21
11.9937977814
  0
LINE
  5
293
100
AcDbEntity
  8
0
100
AcDbLine
 62
7
  6
CONTINUOUS
 10
14.9041052569
 20
4.2887497044
 11
16.2166052569
 21
4.2887497044
  0
LINE
  5
294
100
AcDbEntity
  8
0
100
AcDbLine
 62
7
  6
CONTINUOUS
 10
15.4197302569
 20
6.4078203785
 11
15.4417689446
 21
6.4168176351
  0
LINE
  5
295
100
AcDbEntity
  8
0
100
AcDbLine
 62
7
  6
CONTINUOUS
 10
14.9197302569
 20
5.9662497044
 11
14.9297302569
 21
5.9762497044
  0
LINE
  5
296
100
AcDbEntity
  8
0
100
AcDbLine
 62
7
  6
CONTINUOUS
 10
15.0047302569
 20
5.9862497044
 11
14.9947302569
 21
5.9762497044
  0
LINE
  5
297
100
AcDbEntity
  8
0
100
AcDbLine
 62
7
  6
CONTINUOUS
 10
15.7009802569
 20
6.2930005468
 11
15.5603552569
 21
6.235590631
  0
LINE
  5
298
100
AcDbEntity
  8
0
100
AcDbLine
 62
7
  6
CONTINUOUS
 10
14.9197302569
 20
4.9862497044
 11
14.9297302569
 21
4.9762497044
  0
LINE
  5
299
100
AcDbEntity
  8
0
100
AcDbLine
 62
7
  6
CONTINUOUS
 10
14.9041052569
 20
4.2887497044
 11
14.9041052569
 21
4.7387497044
  0
LINE
  5
29A
100
AcDbEntity
  8
0
100
AcDbLine
 62
7
  6
CONTINUOUS
 10
14.9197302569
 20
5.9662369159
 11
14.9197302569
 21
4.986262493
  0
LINE
  5
29B
100
AcDbEntity
  8
0
100
AcDbLine
 62
7
  6
CONTINUOUS
 10
14.9297302569
 20
5.9762497044
 11
14.9297302569
 21
4.9762497044
  0
LINE
  5
29C
100
AcDbEntity
  8
0
100
AcDbLine
 62
7
  6
CONTINUOUS
 10
15.5603552569
 20
6.1790220885
 11
15.7009802569
 21
6.2364320043
  0
LINE
  5
29D
100
AcDbEntity
  8
0
100
AcDbLine
 62
7
  6
CONTINUOUS
 10
14.9541052569
 20
4.7887497044
 11
16.1666052569
 21
4.7887497044
  0
LINE
  5
29E
100
AcDbEntity
  8
0
100
AcDbLine
 62
7
  6
CONTINUOUS
 10
15.1228552569
 20
6.5924997044
 11
15.1228552569
 21
5.464936859
  0
LWPOLYLINE
  5
29F
100
AcDbEntity
  8
0
100
AcDbPolyline
 62
7
  6
CONTINUOUS
 90
4
 70
0
 10
15.1228552769
 20
5.4649231596
 10
15.1187035387
 20
5.3708722932
 10
15.1060813532
 20
5.2804948648
 10
15.0887185177
 20
5.2114195032
  0
LINE
  5
2A0
100
AcDbEntity
  8
0
100
AcDbLine
 62
7
  6
CONTINUOUS
 10
15.0416362462
 20
5.5162497044
 11
15.0185422354
 21
5.4762497044
  0
LINE
  5
2A1
100
AcDbEntity
  8
0
100
AcDbLine
 62
7
  6
CONTINUOUS
 10
15.6651263942
 20
6.3940064178
 11
15.6623892335
 21
6.3907081668
  0
LINE
  5
2A2
100
AcDbEntity
  8
0
100
AcDbLine
 62
7
  6
CONTINUOUS
 10
15.0138917379
 20
4.9762497044
 11
14.9297302569
 21
4.9762497044
  0
LINE
  5
2A3
100
AcDbEntity
  8
0
100
AcDbLine
 62
7
  6
CONTINUOUS
 10
15.0185422354
 20
5.4762497044
 11
15.0416362462
 21
5.4362497044
  0
LINE
  5
2A4
100
AcDbEntity
  8
0
100
AcDbLine
 62
7
  6
CONTINUOUS
 10
15.0887149188
 20
5.2114082728
 11
14.954232647
 21
4.7887497044
  0
LINE
  5
2A5
100
AcDbEntity
  8
0
100
AcDbLine
 62
7
  6
CONTINUOUS
 10
15.0878242677
 20
5.4362497044
 11
15.1109182785
 21
5.4762497044
  0
LINE
  5
2A6
100
AcDbEntity
  8
0
100
AcDbLine
 62
7
  6
CONTINUOUS
 10
15.1109182785
 20
5.4762497044
 11
15.0878242677
 21
5.5162497044
  0
LINE
  5
2A7
100
AcDbEntity
  8
0
100
AcDbLine
 62
7
  6
CONTINUOUS
 10
15.4197302569
 20
6.4078203785
 11
15.4197302569
 21
6.2364320043
  0
LINE
  5
2A8
100
AcDbEntity
  8
0
100
AcDbLine
 62
7
  6
CONTINUOUS
 10
15.5603552569
 20
6.235590631
 11
15.5603552569
 21
6.1790220885
  0
LINE
  5
2A9
100
AcDbEntity
  8
0
100
AcDbLine
 62
7
  6
CONTINUOUS
 10
15.0878242677
 20
5.4362497044
 11
15.0416362462
 21
5.4362497044
  0
LINE
  5
2AA
100
AcDbEntity
  8
0
100
AcDbLine
 62
7
  6
CONTINUOUS
 10
15.0416362462
 20
5.5162497044
 11
15.0878242677
 21
5.5162497044
  0
LINE
  5
2AB
100
AcDbEntity
  8
0
100
AcDbLine
 62
7
  6
CONTINUOUS
 10
15.7009802569
 20
6.2364320043
 11
15.7009802569
 21
6.4078203785
  0
LINE
  5
2AC
100
AcDbEntity
  8
0
100
AcDbLine
 62
7
  6
CONTINUOUS
 10
15.9978553044
 20
5.4645440284
 11
15.9978552569
 21
6.5924997044
  0
LINE
  5
2AD
100
AcDbEntity
  8
0
100
AcDbLine
 62
7
  6
CONTINUOUS
 10
16.0034802569
 20
5.9762497044
 11
16.0034802569
 21
5.3601342961
  0
LINE
  5
2AE
100
AcDbEntity
  8
0
100
AcDbLine
 62
7
  6
CONTINUOUS
 10
16.0134802569
 20
5.2889127059
 11
16.0134802569
 21
5.9662369159
  0
LINE
  5
2AF
100
AcDbEntity
  8
0
100
AcDbLine
 62
7
  6
CONTINUOUS
 10
16.1664778669
 20
4.7887497044
 11
16.0319955951
 21
5.2114082728
  0
LWPOLYLINE
  5
2B0
100
AcDbEntity
  8
0
100
AcDbPolyline
 62
7
  6
CONTINUOUS
 90
4
 70
0
 10
16.0319918419
 20
5.2114199843
 10
16.0147458138
 20
5.2798992085
 10
16.0020680821
 20
5.3701920298
 10
15.9978553068
 20
5.4645518873
  0
LINE
  5
2B1
100
AcDbEntity
  8
0
100
AcDbLine
 62
7
  6
CONTINUOUS
 10
16.0034802569
 20
5.9762497044
 11
15.9978552569
 21
5.9762497044
  0
LINE
  5
2B2
100
AcDbEntity
  8
0
100
AcDbLine
 62
7
  6
CONTINUOUS
 10
15.1228552569
 20
5.9762497044
 11
14.9297302569
 21
5.9762497044
  0
LINE
  5
2B3
100
AcDbEntity
  8
0
100
AcDbLine
 62
7
  6
CONTINUOUS
 10
15.1228552569
 20
5.9862497044
 11
15.0047302569
 21
5.9862497044
  0
LINE
  5
2B4
100
AcDbEntity
  8
0
100
AcDbLine
 62
7
  6
CONTINUOUS
 10
15.4583212803
 20
6.3907081668
 11
15.4555841197
 21
6.3940064178
  0
LINE
  5
2B5
100
AcDbEntity
  8
0
100
AcDbLine
 62
7
  6
CONTINUOUS
 10
16.2166052569
 20
4.7387497044
 11
16.2166052569
 21
4.2887497044
  0
LINE
  5
2B6
100
AcDbEntity
  8
0
100
AcDbLine
 62
7
  6
CONTINUOUS
 10
15.4197302569
 20
6.2364320043
 11
15.5603552569
 21
6.1790220885
  0
LINE
  5
2B7
100
AcDbEntity
  8
0
100
AcDbLine
 62
7
  6
CONTINUOUS
 10
15.5603552569
 20
6.235590631
 11
15.4197302569
 21
6.2930005468
  0
LINE
  5
2B8
100
AcDbEntity
  8
0
100
AcDbLine
 62
7
  6
CONTINUOUS
 10
16.0134802569
 20
5.9662497044
 11
16.0034802569
 21
5.9762497044
  0
LINE
  5
2B9
100
AcDbEntity
  8
0
100
AcDbLine
 62
7
  6
CONTINUOUS
 10
15.6786669713
 20
6.4169297392
 11
15.7009802569
 21
6.4078203785
  0
LINE
  5
2BA
100
AcDbEntity
  8
0
100
AcDbLine
 62
7
  6
CONTINUOUS
 10
15.1628552569
 20
6.6324997044
 11
15.9578552569
 21
6.6324997044
  0
LINE
  5
2BB
100
AcDbEntity
  8
0
100
AcDbLine
 62
7
  6
CONTINUOUS
 10
13.2654389305
 20
11.3792118552
 11
13.1281700905
 21
11.658936341
  0
LINE
  5
2BC
100
AcDbEntity
  8
0
100
AcDbLine
 62
7
  6
CONTINUOUS
 10
13.125285631
 20
11.695725845
 11
13.4187910481
 21
12.6455097229
  0
LINE
  5
2BD
100
AcDbEntity
  8
0
100
AcDbLine
 62
7
  6
CONTINUOUS
 10
13.892045521
 20
11.6417971309
 11
14.029314361
 21
11.3620726452
  0
LINE
  5
2BE
100
AcDbEntity
  8
0
100
AcDbLine
 62
7
  6
CONTINUOUS
 10
13.6151939065
 20
12.0400621182
 11
13.6731744431
 21
12.2276872036
  0
LINE
  5
2BF
100
AcDbEntity
  8
0
100
AcDbLine
 62
7
  6
CONTINUOUS
 10
13.9520379143
 20
12.2971413549
 11
13.9596929709
 21
12.535114056
  0
LWPOLYLINE
  5
2C0
100
AcDbEntity
  8
0
100
AcDbPolyline
 62
7
  6
CONTINUOUS
 90
4
 70
0
 10
13.952038966
 20
12.2971685422
 10
13.9492029796
 20
12.2360382311
 10
13.9443167466
 20
12.1688775407
 10
13.938231987
 20
12.1069666594
  0
LINE
  5
2C1
100
AcDbEntity
  8
0
100
AcDbLine
 62
7
  6
CONTINUOUS
 10
13.8969601385
 20
11.7364955412
 11
13.9382321367
 21
12.106964041
  0
LINE
  5
2C2
100
AcDbEntity
  8
0
100
AcDbLine
 62
7
  6
CONTINUOUS
 10
13.9778147893
 20
12.6443000937
 11
14.1702575164
 21
13.2670449868
  0
LINE
  5
2C3
100
AcDbEntity
  8
0
100
AcDbLine
 62
7
  6
CONTINUOUS
 10
14.3411218898
 20
11.5334254067
 11
14.3350210525
 21
11.545857606
  0
LINE
  5
2C4
100
AcDbEntity
  8
0
100
AcDbLine
 62
7
  6
CONTINUOUS
 10
17.4660231949
 20
11.3620726452
 11
16.7349310309
 21
11.3620726452
  0
LINE
  5
2C5
100
AcDbEntity
  8
0
100
AcDbLine
 62
7
  6
CONTINUOUS
 10
14.029314361
 20
11.3620726452
 11
13.298222197
 21
11.3620726452
  0
LINE
  5
2C6
100
AcDbEntity
  8
0
100
AcDbLine
 62
7
  6
CONTINUOUS
 10
16.5229268943
 20
11.545857606
 11
14.3350208393
 21
11.545857606
  0
LINE
  5
2C7
100
AcDbEntity
  8
0
100
AcDbLine
 62
7
  6
CONTINUOUS
 10
14.6454396059
 20
12.5820223705
 11
14.5483780067
 21
12.2679309203
  0
LINE
  5
2C8
100
AcDbEntity
  8
0
100
AcDbLine
 62
7
  6
CONTINUOUS
 10
14.3411218898
 20
11.5334254067
 11
14.34496373
 21
11.545857606
  0
LINE
  5
2C9
100
AcDbEntity
  8
0
100
AcDbLine
 62
7
  6
CONTINUOUS
 10
14.8607633085
 20
12.5249872911
 11
14.871943873
 21
12.5611676113
  0
LINE
  5
2CA
100
AcDbEntity
  8
0
100
AcDbLine
 62
7
  6
CONTINUOUS
 10
14.8734143486
 20
12.5176642977
 11
14.881095129
 21
12.5425193122
  0
LINE
  5
2CB
100
AcDbEntity
  8
0
100
AcDbLine
 62
7
  6
CONTINUOUS
 10
14.9456287526
 20
12.5611676113
 11
14.934448188
 21
12.5249872911
  0
LINE
  5
2CC
100
AcDbEntity
  8
0
100
AcDbLine
 62
7
  6
CONTINUOUS
 10
14.428800927
 20
12.4996891244
 11
14.5121478782
 21
12.5683386569
  0
LINE
  5
2CD
100
AcDbEntity
  8
0
100
AcDbLine
 62
7
  6
CONTINUOUS
 10
15.5764603274
 20
13.2290529601
 11
15.6808913662
 21
13.3035217308
  0
LINE
  5
2CE
100
AcDbEntity
  8
0
100
AcDbLine
 62
7
  6
CONTINUOUS
 10
14.881095129
 20
12.5425193122
 11
14.871943873
 21
12.5611676113
  0
LINE
  5
2CF
100
AcDbEntity
  8
0
100
AcDbLine
 62
7
  6
CONTINUOUS
 10
15.5764603274
 20
13.2290529601
 11
15.5416130232
 21
13.1938893902
  0
LINE
  5
2D0
100
AcDbEntity
  8
0
100
AcDbLine
 62
7
  6
CONTINUOUS
 10
17.1276260276
 20
12.0400621182
 11
16.7822281548
 21
12.0400621182
  0
LINE
  5
2D1
100
AcDbEntity
  8
0
100
AcDbLine
 62
7
  6
CONTINUOUS
 10
13.9039125486
 20
12.0400621182
 11
13.5585146758
 21
12.0400621182
  0
LINE
  5
2D2
100
AcDbEntity
  8
0
100
AcDbLine
 62
7
  6
CONTINUOUS
 10
14.9235278511
 20
12.5606094723
 11
14.9143765951
 21
12.5792577714
  0
LINE
  5
2D3
100
AcDbEntity
  8
0
100
AcDbLine
 62
7
  6
CONTINUOUS
 10
15.5779629085
 20
13.0480474675
 11
15.6128102127
 21
13.0832110375
  0
LINE
  5
2D4
100
AcDbEntity
  8
0
100
AcDbLine
 62
7
  6
CONTINUOUS
 10
15.7535911368
 20
13.0118378855
 11
15.7187438326
 21
12.9766743156
  0
LINE
  5
2D5
100
AcDbEntity
  8
0
100
AcDbLine
 62
7
  6
CONTINUOUS
 10
15.8580221756
 20
13.0863066562
 11
15.7535911368
 21
13.0118378855
  0
LINE
  5
2D6
100
AcDbEntity
  8
0
100
AcDbLine
 62
7
  6
CONTINUOUS
 10
15.7187438326
 20
12.9766743156
 11
15.8231748714
 21
13.0511430863
  0
LINE
  5
2D7
100
AcDbEntity
  8
0
100
AcDbLine
 62
7
  6
CONTINUOUS
 10
14.9143765951
 20
12.5792577714
 11
14.871943873
 21
12.5611676113
  0
LINE
  5
2D8
100
AcDbEntity
  8
0
100
AcDbLine
 62
7
  6
CONTINUOUS
 10
14.881095129
 20
12.5425193122
 11
14.9235278511
 21
12.5606094723
  0
LINE
  5
2D9
100
AcDbEntity
  8
0
100
AcDbLine
 62
7
  6
CONTINUOUS
 10
14.892015466
 20
12.506897131
 11
14.934448188
 21
12.5249872911
  0
LINE
  5
2DA
100
AcDbEntity
  8
0
100
AcDbLine
 62
7
  6
CONTINUOUS
 10
15.5463004464
 20
12.2192821287
 11
15.5186686166
 21
12.2192821287
  0
LINE
  5
2DB
100
AcDbEntity
  8
0
100
AcDbLine
 62
7
  6
CONTINUOUS
 10
13.7001298582
 20
12.2302080479
 11
13.9487788084
 21
12.2302080479
  0
LINE
  5
2DC
100
AcDbEntity
  8
0
100
AcDbLine
 62
7
  6
CONTINUOUS
 10
16.9238433372
 20
12.2302080479
 11
17.26924121
 21
12.2302080479
  0
LINE
  5
2DD
100
AcDbEntity
  8
0
100
AcDbLine
 62
7
  6
CONTINUOUS
 10
15.539689054
 20
12.2622366875
 11
15.519803699
 21
12.2622366875
  0
LINE
  5
2DE
100
AcDbEntity
  8
0
100
AcDbLine
 62
7
  6
CONTINUOUS
 10
13.6492895471
 20
12.3338097093
 11
13.953217437
 21
12.3338097093
  0
LINE
  5
2DF
100
AcDbEntity
  8
0
100
AcDbLine
 62
7
  6
CONTINUOUS
 10
16.8730030261
 20
12.3338097093
 11
17.2184008989
 21
12.3338097093
  0
LINE
  5
2E0
100
AcDbEntity
  8
0
100
AcDbLine
 62
7
  6
CONTINUOUS
 10
15.5173279249
 20
12.1898760472
 11
15.5351198818
 21
12.1831018086
  0
LINE
  5
2E1
100
AcDbEntity
  8
0
100
AcDbLine
 62
7
  6
CONTINUOUS
 10
15.539689054
 20
12.2622366875
 11
15.521897097
 21
12.2690109262
  0
LINE
  5
2E2
100
AcDbEntity
  8
0
100
AcDbLine
 62
7
  6
CONTINUOUS
 10
14.8607633085
 20
12.5249872911
 11
14.892015466
 21
12.506897131
  0
LINE
  5
2E3
100
AcDbEntity
  8
0
100
AcDbLine
 62
7
  6
CONTINUOUS
 10
14.9235278511
 20
12.5606094723
 11
14.9421289684
 21
12.5498423056
  0
LINE
  5
2E4
100
AcDbEntity
  8
0
100
AcDbLine
 62
7
  6
CONTINUOUS
 10
14.9456287526
 20
12.5611676113
 11
14.9143765951
 21
12.5792577714
  0
LINE
  5
2E5
100
AcDbEntity
  8
0
100
AcDbLine
 62
7
  6
CONTINUOUS
 10
15.8580221756
 20
13.0863066562
 11
15.8231748714
 21
13.0511430863
  0
LINE
  5
2E6
100
AcDbEntity
  8
0
100
AcDbLine
 62
7
  6
CONTINUOUS
 10
13.9556375407
 20
11.7217538996
 11
13.9399741031
 21
11.7120439748
  0
LINE
  5
2E7
100
AcDbEntity
  8
0
100
AcDbLine
 62
7
  6
CONTINUOUS
 10
15.5383870955
 20
12.2804299383
 11
15.5308229199
 21
12.2894922002
  0
LINE
  5
2E8
100
AcDbEntity
  8
0
100
AcDbLine
 62
7
  6
CONTINUOUS
 10
15.5383859791
 20
12.2804238272
 11
15.5430324688
 21
12.273055982
  0
LINE
  5
2E9
100
AcDbEntity
  8
0
100
AcDbLine
 62
7
  6
CONTINUOUS
 10
15.5107165325
 20
12.232830606
 11
15.5173279249
 21
12.1898760472
  0
LINE
  5
2EA
100
AcDbEntity
  8
0
100
AcDbLine
 62
7
  6
CONTINUOUS
 10
15.5146327369
 20
12.2455034481
 11
15.5186686166
 21
12.2192821287
  0
LINE
  5
2EB
100
AcDbEntity
  8
0
100
AcDbLine
 62
7
  6
CONTINUOUS
 10
15.5107165325
 20
12.232830606
 11
15.521897097
 21
12.2690109262
  0
LINE
  5
2EC
100
AcDbEntity
  8
0
100
AcDbLine
 62
7
  6
CONTINUOUS
 10
15.5147524122
 20
12.2066092867
 11
15.5186686166
 21
12.2192821287
  0
LINE
  5
2ED
100
AcDbEntity
  8
0
100
AcDbLine
 62
7
  6
CONTINUOUS
 10
15.5463004464
 20
12.2192821287
 11
15.5351198818
 21
12.1831018086
  0
LINE
  5
2EE
100
AcDbEntity
  8
0
100
AcDbLine
 62
7
  6
CONTINUOUS
 10
15.6008604502
 20
12.286774999
 11
15.503798851
 21
11.9726835488
  0
LINE
  5
2EF
100
AcDbEntity
  8
0
100
AcDbLine
 62
7
  6
CONTINUOUS
 10
17.6343630882
 20
12.6807473543
 11
16.8922038349
 21
12.6807473543
  0
LINE
  5
2F0
100
AcDbEntity
  8
0
100
AcDbLine
 62
7
  6
CONTINUOUS
 10
13.9890778447
 20
12.6807473543
 11
13.4665620903
 21
12.6807473543
  0
LINE
  5
2F1
100
AcDbEntity
  8
0
100
AcDbLine
 62
7
  6
CONTINUOUS
 10
16.5844763625
 20
11.513269674
 11
16.7349310309
 21
11.3620726452
  0
LINE
  5
2F2
100
AcDbEntity
  8
0
100
AcDbLine
 62
7
  6
CONTINUOUS
 10
16.5434360544
 20
11.7120439748
 11
16.5337738043
 21
11.7217538996
  0
LINE
  5
2F3
100
AcDbEntity
  8
0
100
AcDbLine
 62
7
  6
CONTINUOUS
 10
15.7796811149
 20
12.2343569443
 11
15.763633233
 21
12.271587244
  0
LINE
  5
2F4
100
AcDbEntity
  8
0
100
AcDbLine
 62
7
  6
CONTINUOUS
 10
15.7671865886
 20
12.2062968044
 11
15.7341521779
 21
12.3004587126
  0
LINE
  5
2F5
100
AcDbEntity
  8
0
100
AcDbLine
 62
7
  6
CONTINUOUS
 10
15.5463004464
 20
12.2192821287
 11
15.539689054
 21
12.2622366875
  0
LINE
  5
2F6
100
AcDbEntity
  8
0
100
AcDbLine
 62
7
  6
CONTINUOUS
 10
15.661817718
 20
13.2287191914
 11
15.6615661784
 21
13.2354904678
  0
LINE
  5
2F7
100
AcDbEntity
  8
0
100
AcDbLine
 62
7
  6
CONTINUOUS
 10
15.7341521779
 20
12.3004587126
 11
15.7380961339
 21
12.3132213588
  0
LINE
  5
2F8
100
AcDbEntity
  8
0
100
AcDbLine
 62
7
  6
CONTINUOUS
 10
15.5383870955
 20
12.1716827964
 11
15.5308229199
 21
12.1626205346
  0
LINE
  5
2F9
100
AcDbEntity
  8
0
100
AcDbLine
 62
7
  6
CONTINUOUS
 10
14.029314361
 20
11.3620726452
 11
14.2732158609
 21
11.513269674
  0
LINE
  5
2FA
100
AcDbEntity
  8
0
100
AcDbLine
 62
7
  6
CONTINUOUS
 10
15.5416130232
 20
13.1938893902
 11
15.5779629085
 21
13.0480474675
  0
LINE
  5
2FB
100
AcDbEntity
  8
0
100
AcDbLine
 62
7
  6
CONTINUOUS
 10
15.6128102127
 20
13.0832110375
 11
15.5764603274
 21
13.2290529601
  0
LINE
  5
2FC
100
AcDbEntity
  8
0
100
AcDbLine
 62
7
  6
CONTINUOUS
 10
15.7187438326
 20
12.9766743156
 11
15.5779629085
 21
13.0480474675
  0
LINE
  5
2FD
100
AcDbEntity
  8
0
100
AcDbLine
 62
7
  6
CONTINUOUS
 10
16.5229266812
 20
11.545857606
 11
16.5290275185
 21
11.5334254067
  0
LINE
  5
2FE
100
AcDbEntity
  8
0
100
AcDbLine
 62
7
  6
CONTINUOUS
 10
15.8504873035
 20
13.1165378448
 11
15.8580221756
 21
13.0863066562
  0
LINE
  5
2FF
100
AcDbEntity
  8
0
100
AcDbLine
 62
7
  6
CONTINUOUS
 10
15.7955517362
 20
13.1027099936
 11
15.7887213857
 21
13.1029038125
  0
LINE
  5
300
100
AcDbEntity
  8
0
100
AcDbLine
 62
7
  6
CONTINUOUS
 10
15.6128102127
 20
13.0832110375
 11
15.7535911368
 21
13.0118378855
  0
LINE
  5
301
100
AcDbEntity
  8
0
100
AcDbLine
 62
7
  6
CONTINUOUS
 10
16.7349310309
 20
11.3620726452
 11
16.5976621909
 21
11.6417971309
  0
LINE
  5
302
100
AcDbEntity
  8
0
100
AcDbLine
 62
7
  6
CONTINUOUS
 10
15.6818434064
 20
13.3030390652
 11
15.6808913662
 21
13.3035217308
  0
LINE
  5
303
100
AcDbEntity
  8
0
100
AcDbLine
 62
7
  6
CONTINUOUS
 10
16.8689321645
 20
12.6581643644
 11
16.5671095791
 21
12.8171085573
  0
LWPOLYLINE
  5
304
100
AcDbEntity
  8
0
100
AcDbPolyline
 62
7
  6
CONTINUOUS
 90
3
 70
0
 10
16.5670684184
 20
12.8171265548
 10
16.5175315079
 20
12.8478328369
 10
16.4586055844
 20
12.8936911038
  0
LINE
  5
305
100
AcDbEntity
  8
0
100
AcDbLine
 62
7
  6
CONTINUOUS
 10
16.8815739082
 20
12.1420305881
 11
17.0238162186
 21
12.2302080479
  0
LINE
  5
306
100
AcDbEntity
  8
0
100
AcDbLine
 62
7
  6
CONTINUOUS
 10
16.4586055844
 20
12.8936911038
 11
16.4004595513
 21
12.9471070647
  0
LINE
  5
307
100
AcDbEntity
  8
0
100
AcDbLine
 62
7
  6
CONTINUOUS
 10
16.400458864
 20
12.9471079412
 11
16.1592768894
 21
13.1850479059
  0
LINE
  5
308
100
AcDbEntity
  8
0
100
AcDbLine
 62
7
  6
CONTINUOUS
 10
16.8788522686
 20
12.6321648464
 11
16.8427070921
 21
12.5151990123
  0
LINE
  5
309
100
AcDbEntity
  8
0
100
AcDbLine
 62
7
  6
CONTINUOUS
 10
16.6398251525
 20
11.8586728153
 11
16.603679976
 21
11.7417069812
  0
LINE
  5
30A
100
AcDbEntity
  8
0
100
AcDbLine
 62
7
  6
CONTINUOUS
 10
17.8165185108
 20
12.373050004
 11
17.6792496708
 21
12.6527744898
  0
LINE
  5
30B
100
AcDbEntity
  8
0
100
AcDbLine
 62
7
  6
CONTINUOUS
 10
17.8176849779
 20
12.3510228686
 11
17.5241795607
 21
11.4012389907
  0
ARC
  5
30C
100
AcDbEntity
  8
0
100
AcDbCircle
 62
7
  6
CONTINUOUS
 10
6.1303672762
 20
5.5357448968
 40
1.15625
100
AcDbArc
 50
19.4376777947
 51
160.5623222054
  0
CIRCLE
  5
30D
100
AcDbEntity
  8
0
100
AcDbCircle
 62
7
  6
CONTINUOUS
 10
6.1303672762
 20
5.5357448968
 40
0.75
  0
ARC
  5
30E
100
AcDbEntity
  8
0
100
AcDbCircle
 62
7
  6
CONTINUOUS
 10
6.1303672762
 20
5.5357448968
 40
0.69
100
AcDbArc
 50
160.0
 51
200.0
  0
ARC
  5
30F
100
AcDbEntity
  8
0
100
AcDbCircle
 62
7
  6
CONTINUOUS
 10
6.1303672762
 20
5.5357448968
 40
0.69
100
AcDbArc
 50
340.0
 51
20.0
  0
CIRCLE
  5
310
100
AcDbEntity
  8
0
100
AcDbCircle
 62
7
  6
CONTINUOUS
 10
6.1303672762
 20
5.5357448968
 40
0.63
  0
CIRCLE
  5
311
100
AcDbEntity
  8
0
100
AcDbCircle
 62
7
  6
CONTINUOUS
 10
6.1303672762
 20
5.5357448968
 40
0.5
  0
CIRCLE
  5
312
100
AcDbEntity
  8
0
100
AcDbCircle
 62
7
  6
CONTINUOUS
 10
6.1303672762
 20
5.5357448968
 40
0.49
  0
CIRCLE
  5
313
100
AcDbEntity
  8
0
100
AcDbCircle
 62
7
  6
CONTINUOUS
 10
6.1303672762
 20
5.5357448968
 40
0.25
  0
ARC
  5
314
100
AcDbEntity
  8
0
100
AcDbCircle
 62
7
  6
CONTINUOUS
 10
7.1415299733
 20
6.504481187
 40
0.1
100
AcDbArc
 50
289.0555202273
 51
45.0
  0
ARC
  5
315
100
AcDbEntity
  8
0
100
AcDbCircle
 62
7
  6
CONTINUOUS
 10
7.0991035664
 20
6.5469075938
 40
0.1
100
AcDbArc
 50
45.0000000001
 51
160.9444797724
  0
ARC
  5
316
100
AcDbEntity
  8
0
100
AcDbCircle
 62
7
  6
CONTINUOUS
 10
7.203884639
 20
6.3144751161
 40
0.1
100
AcDbArc
 50
107.2812514849
 51
182.2960852275
  0
ARC
  5
317
100
AcDbEntity
  8
0
100
AcDbCircle
 62
7
  6
CONTINUOUS
 10
6.9090974955
 20
6.6092622596
 40
0.1
100
AcDbArc
 50
267.7039147722
 51
342.7187485154
  0
ARC
  5
318
100
AcDbEntity
  8
0
100
AcDbCircle
 62
7
  6
CONTINUOUS
 10
8.3928672762
 20
4.7982448968
 40
0.05
100
AcDbArc
 50
0.0
 51
90.0
  0
ARC
  5
319
100
AcDbEntity
  8
0
100
AcDbCircle
 62
7
  6
CONTINUOUS
 10
3.8678672762
 20
4.7982448968
 40
0.05
100
AcDbArc
 50
90.0
 51
180.0
  0
ARC
  5
31A
100
AcDbEntity
  8
0
100
AcDbCircle
 62
7
  6
CONTINUOUS
 10
7.0660032494
 20
12.1044054315
 40
0.5000484183
100
AcDbArc
 50
173.3076097927
 51
188.0449889829
  0
ARC
  5
31B
100
AcDbEntity
  8
0
100
AcDbCircle
 62
7
  6
CONTINUOUS
 10
7.5396220839
 20
12.6000477814
 40
0.4190627112
100
AcDbArc
 50
194.2978408956
 51
270.0
  0
ARC
  5
31C
100
AcDbEntity
  8
0
100
AcDbCircle
 62
7
  6
CONTINUOUS
 10
7.5396220839
 20
12.6000477814
 40
0.4190627112
100
AcDbArc
 50
90.0
 51
165.7499218174
  0
ARC
  5
31D
100
AcDbEntity
  8
0
100
AcDbCircle
 62
7
  6
CONTINUOUS
 10
4.6021220839
 20
12.6000477814
 40
0.4190627112
100
AcDbArc
 50
270.0
 51
90.0
  0
ARC
  5
31E
100
AcDbEntity
  8
0
100
AcDbCircle
 62
7
  6
CONTINUOUS
 10
7.6333720839
 20
12.6000477814
 40
0.1875
100
AcDbArc
 50
90.0
 51
270.0
  0
ARC
  5
31F
100
AcDbEntity
  8
0
100
AcDbCircle
 62
7
  6
CONTINUOUS
 10
8.0083720839
 20
12.6000477814
 40
0.1875
100
AcDbArc
 50
270.0
 51
90.0
  0
ARC
  5
320
100
AcDbEntity
  8
0
100
AcDbCircle
 62
7
  6
CONTINUOUS
 10
4.5083720839
 20
12.6000477814
 40
0.1875
100
AcDbArc
 50
270.0
 51
90.0
  0
ARC
  5
321
100
AcDbEntity
  8
0
100
AcDbCircle
 62
7
  6
CONTINUOUS
 10
4.1333720839
 20
12.6000477814
 40
0.1875
100
AcDbArc
 50
90.0
 51
270.0
  0
ARC
  5
322
100
AcDbEntity
  8
0
100
AcDbCircle
 62
7
  6
CONTINUOUS
 10
6.9260620311
 20
12.6384861259
 40
0.108018029
100
AcDbArc
 50
44.5128382428
 51
46.2205965802
  0
ARC
  5
323
100
AcDbEntity
  8
0
100
AcDbCircle
 62
7
  6
CONTINUOUS
 10
6.9263925727
 20
12.5612756072
 40
0.107548305
100
AcDbArc
 50
313.7753104746
 51
315.5882963205
  0
ARC
  5
324
100
AcDbEntity
  8
0
100
AcDbCircle
 62
7
  6
CONTINUOUS
 10
7.2585814988
 20
12.0625477814
 40
0.1
100
AcDbArc
 50
47.9609638749
 51
89.9998673941
  0
ARC
  5
325
100
AcDbEntity
  8
0
100
AcDbCircle
 62
7
  6
CONTINUOUS
 10
4.8831626689
 20
12.0625477814
 40
0.1
100
AcDbArc
 50
90.0001326059
 51
132.0390361251
  0
ARC
  5
326
100
AcDbEntity
  8
0
100
AcDbCircle
 62
7
  6
CONTINUOUS
 10
4.8831626689
 20
13.1375477814
 40
0.1
100
AcDbArc
 50
227.9609638749
 51
269.9998673941
  0
ARC
  5
327
100
AcDbEntity
  8
0
100
AcDbCircle
 62
7
  6
CONTINUOUS
 10
7.2585814988
 20
13.1375477814
 40
0.1
100
AcDbArc
 50
270.0001326059
 51
312.0390361251
  0
ARC
  5
328
100
AcDbEntity
  8
0
100
AcDbCircle
 62
7
  6
CONTINUOUS
 10
6.8893248619
 20
12.6655275237
 40
0.0795843105
100
AcDbArc
 50
99.7105199676
 51
106.9521971026
  0
ARC
  5
329
100
AcDbEntity
  8
0
100
AcDbCircle
 62
7
  6
CONTINUOUS
 10
6.8892910539
 20
12.5344587238
 40
0.0794708756
100
AcDbArc
 50
253.0856232051
 51
260.682902538
  0
ARC
  5
32A
100
AcDbEntity
  8
0
100
AcDbCircle
 62
7
  6
CONTINUOUS
 10
6.8885073392
 20
12.6705723967
 40
0.0744738397
100
AcDbArc
 50
90.9554447741
 51
99.7452256324
  0
ARC
  5
32B
100
AcDbEntity
  8
0
100
AcDbCircle
 62
7
  6
CONTINUOUS
 10
6.8885095186
 20
12.5294728669
 40
0.0744242744
100
AcDbArc
 50
260.6552056121
 51
269.0543777255
  0
ARC
  5
32C
100
AcDbEntity
  8
0
100
AcDbCircle
 62
7
  6
CONTINUOUS
 10
6.8884628684
 20
12.5278944514
 40
0.0728453068
100
AcDbArc
 50
269.0705761287
 51
270.0003843896
  0
ARC
  5
32D
100
AcDbEntity
  8
0
100
AcDbCircle
 62
7
  6
CONTINUOUS
 10
6.8884574098
 20
12.6722143721
 40
0.0728312635
100
AcDbArc
 50
89.9949512011
 51
90.9377105526
  0
ARC
  5
32E
100
AcDbEntity
  8
0
100
AcDbCircle
 62
7
  6
CONTINUOUS
 10
6.8885040624
 20
12.6738124519
 40
0.0712331948
100
AcDbArc
 50
72.2686980501
 51
90.032362574
  0
ARC
  5
32F
100
AcDbEntity
  8
0
100
AcDbCircle
 62
7
  6
CONTINUOUS
 10
6.888527018
 20
12.5260711076
 40
0.0710219916
100
AcDbArc
 50
269.9486426644
 51
287.7868067463
  0
ARC
  5
330
100
AcDbEntity
  8
0
100
AcDbCircle
 62
7
  6
CONTINUOUS
 10
6.0708720839
 20
12.1044227814
 40
0.07
100
AcDbArc
 50
123.2956634359
 51
56.7043365641
  0
ARC
  5
331
100
AcDbEntity
  8
0
100
AcDbCircle
 62
7
  6
CONTINUOUS
 10
6.0708720839
 20
12.1044227814
 40
0.06
100
AcDbArc
 50
101.4440531296
 51
78.4971917455
  0
ARC
  5
332
100
AcDbEntity
  8
0
100
AcDbCircle
 62
7
  6
CONTINUOUS
 10
8.3333720839
 20
11.9937977814
 40
0.05
100
AcDbArc
 50
270.0
 51
360.0
  0
ARC
  5
333
100
AcDbEntity
  8
0
100
AcDbCircle
 62
7
  6
CONTINUOUS
 10
8.3333720839
 20
13.2062977814
 40
0.05
100
AcDbArc
 50
0.0
 51
90.0
  0
ARC
  5
334
100
AcDbEntity
  8
0
100
AcDbCircle
 62
7
  6
CONTINUOUS
 10
3.8083720839
 20
11.9937977814
 40
0.05
100
AcDbArc
 50
180.0
 51
270.0
  0
ARC
  5
335
100
AcDbEntity
  8
0
100
AcDbCircle
 62
7
  6
CONTINUOUS
 10
3.8083720839
 20
13.2062977814
 40
0.05
100
AcDbArc
 50
90.0
 51
180.0
  0
ARC
  5
336
100
AcDbEntity
  8
0
100
AcDbCircle
 62
7
  6
CONTINUOUS
 10
15.0647116116
 20
6.4712912299
 40
0.4999593854
100
AcDbArc
 50
261.953720339
 51
276.7147132164
  0
ARC
  5
337
100
AcDbEntity
  8
0
100
AcDbCircle
 62
7
  6
CONTINUOUS
 10
15.5219169124
 20
6.3314396517
 40
0.108018029
100
AcDbArc
 50
134.5128382431
 51
136.2205965802
  0
ARC
  5
338
100
AcDbEntity
  8
0
100
AcDbCircle
 62
7
  6
CONTINUOUS
 10
15.5991274311
 20
6.3317701933
 40
0.107548305
100
AcDbArc
 50
43.7753104744
 51
45.5882963205
  0
ARC
  5
339
100
AcDbEntity
  8
0
100
AcDbCircle
 62
7
  6
CONTINUOUS
 10
15.496040367
 20
6.2949732284
 40
0.0807786733
100
AcDbArc
 50
189.9111540677
 51
196.9029882819
  0
ARC
  5
33A
100
AcDbEntity
  8
0
100
AcDbCircle
 62
7
  6
CONTINUOUS
 10
15.6247817467
 20
6.2949418203
 40
0.080660584
100
AcDbArc
 50
343.1289335277
 51
350.542099905
  0
ARC
  5
33B
100
AcDbEntity
  8
0
100
AcDbCircle
 62
7
  6
CONTINUOUS
 10
15.490613006
 20
6.2939606576
 40
0.0752580531
100
AcDbArc
 50
181.006326908
 51
189.8629645958
  0
ARC
  5
33C
100
AcDbEntity
  8
0
100
AcDbCircle
 62
7
  6
CONTINUOUS
 10
15.6302350353
 20
6.29395662
 40
0.0751195713
100
AcDbArc
 50
350.5998446205
 51
359.0061606646
  0
ARC
  5
33D
100
AcDbEntity
  8
0
100
AcDbCircle
 62
7
  6
CONTINUOUS
 10
15.4882113196
 20
6.2938423714
 40
0.0728546995
100
AcDbArc
 50
180.0010959699
 51
180.9464886522
  0
ARC
  5
33E
100
AcDbEntity
  8
0
100
AcDbCircle
 62
7
  6
CONTINUOUS
 10
15.6325171583
 20
6.2938487726
 40
0.0728359529
100
AcDbArc
 50
359.0598474024
 51
359.9942385693
  0
ARC
  5
33F
100
AcDbEntity
  8
0
100
AcDbCircle
 62
7
  6
CONTINUOUS
 10
15.4869312848
 20
6.2938596235
 40
0.0715746671
100
AcDbArc
 50
170.4732348095
 51
180.0149259131
  0
ARC
  5
340
100
AcDbEntity
  8
0
100
AcDbCircle
 62
7
  6
CONTINUOUS
 10
15.486417462
 20
6.2938937275
 40
0.0710623048
100
AcDbArc
 50
162.2627943035
 51
170.4317855599
  0
ARC
  5
341
100
AcDbEntity
  8
0
100
AcDbCircle
 62
7
  6
CONTINUOUS
 10
15.6343953395
 20
6.2939144546
 40
0.0709578089
100
AcDbArc
 50
359.9410502772
 51
17.7870909809
  0
ARC
  5
342
100
AcDbEntity
  8
0
100
AcDbCircle
 62
7
  6
CONTINUOUS
 10
15.0647302569
 20
5.4762497044
 40
0.07
100
AcDbArc
 50
33.2956634359
 51
326.7043365641
  0
ARC
  5
343
100
AcDbEntity
  8
0
100
AcDbCircle
 62
7
  6
CONTINUOUS
 10
15.0647302569
 20
5.4762497044
 40
0.06
100
AcDbArc
 50
11.4440531296
 51
341.8376237326
  0
ARC
  5
344
100
AcDbEntity
  8
0
100
AcDbCircle
 62
7
  6
CONTINUOUS
 10
16.1666052569
 20
4.7387497044
 40
0.05
100
AcDbArc
 50
0.0
 51
90.0
  0
ARC
  5
345
100
AcDbEntity
  8
0
100
AcDbCircle
 62
7
  6
CONTINUOUS
 10
14.9541052569
 20
4.7387497044
 40
0.05
100
AcDbArc
 50
89.9999999996
 51
180.0
  0
ARC
  5
346
100
AcDbEntity
  8
0
100
AcDbCircle
 62
7
  6
CONTINUOUS
 10
15.9578552569
 20
6.5924997044
 40
0.04
100
AcDbArc
 50
0.0000000001
 51
90.0
  0
ARC
  5
347
100
AcDbEntity
  8
0
100
AcDbCircle
 62
7
  6
CONTINUOUS
 10
15.1628552569
 20
6.5924997044
 40
0.04
100
AcDbArc
 50
90.0
 51
180.0
  0
ARC
  5
348
100
AcDbEntity
  8
0
100
AcDbCircle
 62
7
  6
CONTINUOUS
 10
15.226619905
 20
12.9028903566
 40
1.0742066797
100
AcDbArc
 50
235.6722324881
 51
240.4020033882
  0
ARC
  5
349
100
AcDbEntity
  8
0
100
AcDbCircle
 62
7
  6
CONTINUOUS
 10
15.1949210849
 20
12.8557946747
 40
1.0174381555
100
AcDbArc
 50
235.194119572
 51
235.6507873902
  0
ARC
  5
34A
100
AcDbEntity
  8
0
100
AcDbCircle
 62
7
  6
CONTINUOUS
 10
14.9181335865
 20
11.6914369561
 40
0.7117729935
100
AcDbArc
 50
57.4237111426
 51
58.6704621641
  0
ARC
  5
34B
100
AcDbEntity
  8
0
100
AcDbCircle
 62
7
  6
CONTINUOUS
 10
14.9253579137
 20
11.7028476285
 40
0.6982677666
100
AcDbArc
 50
57.2837914648
 51
57.4191164173
  0
ARC
  5
34C
100
AcDbEntity
  8
0
100
AcDbCircle
 62
7
  6
CONTINUOUS
 10
14.928669689
 20
11.7079930264
 40
0.6921487025
100
AcDbArc
 50
56.6037421161
 51
57.284239484
  0
ARC
  5
34D
100
AcDbEntity
  8
0
100
AcDbCircle
 62
7
  6
CONTINUOUS
 10
14.9616676361
 20
12.3312815555
 40
0.4483150736
100
AcDbArc
 50
221.3427784137
 51
222.4230272922
  0
ARC
  5
34E
100
AcDbEntity
  8
0
100
AcDbCircle
 62
7
  6
CONTINUOUS
 10
15.1989649314
 20
12.2553469294
 40
0.4454289884
100
AcDbArc
 50
283.2320594055
 51
284.3350832652
  0
ARC
  5
34F
100
AcDbEntity
  8
0
100
AcDbCircle
 62
7
  6
CONTINUOUS
 10
16.654357707
 20
12.0944754052
 40
0.3130401644
100
AcDbArc
 50
162.8206892156
 51
164.8601442074
  0
ARC
  5
350
100
AcDbEntity
  8
0
100
AcDbCircle
 62
7
  6
CONTINUOUS
 10
14.8325733156
 20
12.2514128256
 40
0.2974657815
100
AcDbArc
 50
206.1512176936
 51
208.0324412815
  0
ARC
  5
351
100
AcDbEntity
  8
0
100
AcDbCircle
 62
7
  6
CONTINUOUS
 10
15.4727299301
 20
12.2124912473
 40
0.2951688465
100
AcDbArc
 50
11.4071683246
 51
12.9293953316
  0
ARC
  5
352
100
AcDbEntity
  8
0
100
AcDbCircle
 62
7
  6
CONTINUOUS
 10
14.8209326394
 20
12.2344840833
 40
0.2769130769
100
AcDbArc
 50
204.0592303085
 51
206.1426805417
  0
ARC
  5
353
100
AcDbEntity
  8
0
100
AcDbCircle
 62
7
  6
CONTINUOUS
 10
15.507494055
 20
12.3113193583
 40
0.2269181754
100
AcDbArc
 50
357.2566896504
 51
2.4595926736
  0
ARC
  5
354
100
AcDbEntity
  8
0
100
AcDbCircle
 62
7
  6
CONTINUOUS
 10
15.7845958604
 20
13.23614341
 40
0.1230314147
100
AcDbArc
 50
162.877240139
 51
180.3040768729
  0
ARC
  5
355
100
AcDbEntity
  8
0
100
AcDbCircle
 62
7
  6
CONTINUOUS
 10
15.686292309
 20
13.1766747947
 40
0.1072643917
100
AcDbArc
 50
98.2125280403
 51
101.282889238
  0
ARC
  5
356
100
AcDbEntity
  8
0
100
AcDbCircle
 62
7
  6
CONTINUOUS
 10
14.9219343608
 20
12.5017439848
 40
0.0888075708
100
AcDbArc
 50
129.3440719812
 51
131.0464038088
  0
ARC
  5
357
100
AcDbEntity
  8
0
100
AcDbCircle
 62
7
  6
CONTINUOUS
 10
15.7550687618
 20
13.1202338531
 40
0.0873973953
100
AcDbArc
 50
305.4887018463
 51
314.9085246331
  0
ARC
  5
358
100
AcDbEntity
  8
0
100
AcDbCircle
 62
7
  6
CONTINUOUS
 10
15.7554593401
 20
13.1198200952
 40
0.0868286198
100
AcDbArc
 50
314.9187409954
 51
318.1776756989
  0
ARC
  5
359
100
AcDbEntity
  8
0
100
AcDbCircle
 62
7
  6
CONTINUOUS
 10
15.7212576577
 20
13.0770841594
 40
0.0854154039
100
AcDbArc
 50
315.313487962
 51
325.06717989
  0
ARC
  5
35A
100
AcDbEntity
  8
0
100
AcDbCircle
 62
7
  6
CONTINUOUS
 10
14.9232484012
 20
12.5133324366
 40
0.0783618195
100
AcDbArc
 50
90.0419028547
 51
94.0495412419
  0
ARC
  5
35B
100
AcDbEntity
  8
0
100
AcDbCircle
 62
7
  6
CONTINUOUS
 10
13.1730605146
 20
11.6809638187
 40
0.0500034126
100
AcDbArc
 50
162.8293029118
 51
206.136926241
  0
ARC
  5
35C
100
AcDbEntity
  8
0
100
AcDbCircle
 62
7
  6
CONTINUOUS
 10
17.6343630837
 20
12.6307473472
 40
0.0500000071
100
AcDbArc
 50
26.1385183124
 51
89.9999949121
  0
ARC
  5
35D
100
AcDbEntity
  8
0
100
AcDbCircle
 62
7
  6
CONTINUOUS
 10
13.4665612888
 20
12.630748682
 40
0.0499980504
100
AcDbArc
 50
90.0124362823
 51
162.8288110038
  0
ARC
  5
35E
100
AcDbEntity
  8
0
100
AcDbCircle
 62
7
  6
CONTINUOUS
 10
14.8774383945
 20
12.5304490552
 40
0.0313131011
100
AcDbArc
 50
208.6467403386
 51
213.7608621822
  0
SPLINE
  5
35F
100
AcDbEntity
  8
0
100
AcDbSpline
 62
7
  6
CONTINUOUS
 70
0
 71
3
 72
25
 73
21
 74
0
 42
0.0000001
 43
0.0000001
 44
0.0000000001
 40
0.0
 40
0.0
 40
0.0
 40
0.0
 40
0.0623672525
 40
0.1247420896
 40
0.1871206295
 40
0.2495075045
 40
0.311904242
 40
0.3743026849
 40
0.4055234567
 40
0.4367418155
 40
0.4991373147
 40
0.5303527126
 40
0.561563963
 40
0.6239618499
 40
0.6863883239
 40
0.7488872835
 40
0.8114780421
 40
0.8742178916
 40
0.9371176598
 40
1.0
 40
1.0
 40
1.0
 40
1.0
 10
6.9886287972
 20
12.7048189186
 30
0.0
 10
6.9931252156
 20
12.7083601247
 30
0.0
 10
7.0026398532
 20
12.7148090835
 30
0.0
 10
7.0181501663
 20
12.7223141477
 30
0.0
 10
7.0346019286
 20
12.7274601183
 30
0.0
 10
7.0516369783
 20
12.730108411
 30
0.0
 10
7.0688775032
 20
12.7301972657
 30
0.0
 10
7.0831021112
 20
12.7281213217
 30
0.0
 10
7.094193885
 20
12.7252177316
 30
0.0
 10
7.1050382776
 20
12.7214978368
 30
0.0
 10
7.1154412291
 20
12.7165861921
 30
0.0
 10
7.1252140546
 20
12.7105954253
 30
0.0
 10
7.1345280258
 20
12.7039116684
 30
0.0
 10
7.1452458508
 20
12.694337825
 30
0.0
 10
7.1563798833
 20
12.6811704421
 30
0.0
 10
7.1656456212
 20
12.6666086532
 30
0.0
 10
7.1729328072
 20
12.6509346811
 30
0.0
 10
7.1781758934
 20
12.6344269483
 30
0.0
 10
7.1813287936
 20
12.6173736361
 30
0.0
 10
7.182034781
 20
12.6058185044
 30
0.0
 10
7.182034781
 20
12.6000477814
 30
0.0
  0
SPLINE
  5
360
100
AcDbEntity
  8
0
100
AcDbSpline
 62
7
  6
CONTINUOUS
 70
0
 71
3
 72
27
 73
23
 74
0
 42
0.0000001
 43
0.0000001
 44
0.0000000001
 40
0.0
 40
0.0
 40
0.0
 40
0.0
 40
0.062880419
 40
0.1257799903
 40
0.1885084412
 40
0.2510786404
 40
0.3135505617
 40
0.3447733272
 40
0.3759863922
 40
0.4383515846
 40
0.5007141631
 40
0.5630832171
 40
0.6254627923
 40
0.6566786665
 40
0.6878996283
 40
0.7191259224
 40
0.7503537323
 40
0.7815793898
 40
0.8128034897
 40
0.8752096448
 40
0.9376122442
 40
1.0
 40
1.0
 40
1.0
 40
1.0
 10
7.182034781
 20
12.6000477814
 30
0.0
 10
7.182034781
 20
12.5942767517
 30
0.0
 10
7.1813282863
 20
12.582720864
 30
0.0
 10
7.1781756461
 20
12.5656673837
 30
0.0
 10
7.1729326643
 20
12.5491608795
 30
0.0
 10
7.1656479771
 20
12.5334914151
 30
0.0
 10
7.1579242034
 20
12.5213522804
 30
0.0
 10
7.1508187181
 20
12.5123461212
 30
0.0
 10
7.1431157032
 20
12.5038588343
 30
0.0
 10
7.1324095299
 20
12.4942836994
 30
0.0
 10
7.1180587062
 20
12.4847480567
 30
0.0
 10
7.1024786537
 20
12.4773831063
 30
0.0
 10
7.0887216957
 20
12.4732257746
 30
0.0
 10
7.0774476727
 20
12.4711469527
 30
0.0
 10
7.0688925673
 20
12.4702249088
 30
0.0
 10
7.0602919675
 20
12.4699443376
 30
0.0
 10
7.0516938779
 20
12.4703038815
 30
0.0
 10
7.0431462888
 20
12.4713049437
 30
0.0
 10
7.0318885351
 20
12.4734886443
 30
0.0
 10
7.0181633981
 20
12.477773536
 30
0.0
 10
7.0026476209
 20
12.4852837351
 30
0.0
 10
6.9931270702
 20
12.4917339774
 30
0.0
 10
6.9886287972
 20
12.4952766441
 30
0.0
  0
SPLINE
  5
361
100
AcDbEntity
  8
0
100
AcDbSpline
 62
7
  6
CONTINUOUS
 70
0
 71
3
 72
13
 73
9
 74
0
 42
0.0000001
 43
0.0000001
 44
0.0000000001
 40
0.0
 40
0.0
 40
0.0
 40
0.0
 40
0.1170102759
 40
0.2368859071
 40
0.3593768151
 40
0.4841843619
 40
0.7393548751
 40
1.0
 40
1.0
 40
1.0
 40
1.0
 10
6.8166970054
 20
12.4926189344
 30
0.0
 10
6.8142505686
 20
12.4955105189
 30
0.0
 10
6.8095420887
 20
12.5015756515
 30
0.0
 10
6.8031638287
 20
12.5113178577
 30
0.0
 10
6.797435034
 20
12.521745322
 30
0.0
 10
6.7906897803
 20
12.5365601083
 30
0.0
 10
6.784220011
 20
12.5563427155
 30
0.0
 10
6.7813298272
 20
12.5728526054
 30
0.0
 10
6.7804567021
 20
12.5812444558
 30
0.0
  0
SPLINE
  5
362
100
AcDbEntity
  8
0
100
AcDbSpline
 62
7
  6
CONTINUOUS
 70
0
 71
3
 72
13
 73
9
 74
0
 42
0.0000001
 43
0.0000001
 44
0.0000000001
 40
0.0
 40
0.0
 40
0.0
 40
0.0
 40
0.2367190952
 40
0.3592102934
 40
0.4840123262
 40
0.6108224991
 40
0.7393375912
 40
1.0
 40
1.0
 40
1.0
 40
1.0
 10
6.8166838476
 20
12.7074598583
 30
0.0
 10
6.8117399556
 20
12.7016125595
 30
0.0
 10
6.8049803266
 20
12.6920814029
 30
0.0
 10
6.7974376133
 20
12.6783515825
 30
0.0
 10
6.7924157548
 20
12.6673280567
 30
0.0
 10
6.7881559054
 20
12.6557812377
 30
0.0
 10
6.7835188768
 20
12.6397370677
 30
0.0
 10
6.7813366186
 20
12.6272820541
 30
0.0
 10
6.780461778
 20
12.6188958441
 30
0.0
  0
SPLINE
  5
363
100
AcDbEntity
  8
0
100
AcDbSpline
 62
7
  6
CONTINUOUS
 70
0
 71
3
 72
15
 73
11
 74
0
 42
0.0000001
 43
0.0000001
 44
0.0000000001
 40
0.0
 40
0.0
 40
0.0
 40
0.0
 40
0.1105346387
 40
0.2231081216
 40
0.3391028717
 40
0.4597832905
 40
0.5860414401
 40
0.7183093071
 40
0.8565616466
 40
1.0
 40
1.0
 40
1.0
 40
1.0
 10
6.9450328421
 20
12.7406727814
 30
0.0
 10
6.940691838
 20
12.7406727814
 30
0.0
 10
6.9319097937
 20
12.739846189
 30
0.0
 10
6.9190302119
 20
12.7362016941
 30
0.0
 10
6.9066258971
 20
12.7301951217
 30
0.0
 10
6.8949152307
 20
12.7219711505
 30
0.0
 10
6.8840901881
 20
12.7116716106
 30
0.0
 10
6.8743149073
 20
12.6994807346
 30
0.0
 10
6.8657687098
 20
12.6856084611
 30
0.0
 10
6.8610471272
 20
12.6755756343
 30
0.0
 10
6.8589179683
 20
12.6703602814
 30
0.0
  0
SPLINE
  5
364
100
AcDbEntity
  8
0
100
AcDbSpline
 62
7
  6
CONTINUOUS
 70
0
 71
3
 72
13
 73
9
 74
0
 42
0.0000001
 43
0.0000001
 44
0.0000000001
 40
0.0
 40
0.0
 40
0.0
 40
0.0
 40
0.2652033411
 40
0.5179314533
 40
0.6407289411
 40
0.7616864859
 40
0.8812766752
 40
1.0
 40
1.0
 40
1.0
 40
1.0
 10
7.0007979417
 20
12.7164761141
 30
0.0
 10
6.9968235692
 20
12.7202837889
 30
0.0
 10
6.9884629143
 20
12.7271303622
 30
0.0
 10
6.9767762475
 20
12.7336458162
 30
0.0
 10
6.9671224952
 20
12.7372913485
 30
0.0
 10
6.9598226688
 20
12.7392357488
 30
0.0
 10
6.9524466077
 20
12.740409236
 30
0.0
 10
6.9474968128
 20
12.7406727814
 30
0.0
 10
6.9450328421
 20
12.7406727814
 30
0.0
  0
SPLINE
  5
365
100
AcDbEntity
  8
0
100
AcDbSpline
 62
7
  6
CONTINUOUS
 70
0
 71
3
 72
14
 73
10
 74
0
 42
0.0000001
 43
0.0000001
 44
0.0000000001
 40
0.0
 40
0.0
 40
0.0
 40
0.0
 40
0.2253526598
 40
0.3456913392
 40
0.4705194119
 40
0.5992237419
 40
0.7310657986
 40
0.8651147918
 40
1.0
 40
1.0
 40
1.0
 40
1.0
 10
6.9853306163
 20
12.4980139653
 30
0.0
 10
6.9789498303
 20
12.5035878263
 30
0.0
 10
6.9703838396
 20
12.5136114022
 30
0.0
 10
6.9613701874
 20
12.5288518807
 30
0.0
 10
6.9555481613
 20
12.5416788789
 30
0.0
 10
6.9509294607
 20
12.5554352628
 30
0.0
 10
6.9475731604
 20
12.5699092375
 30
0.0
 10
6.9455456092
 20
12.5848599351
 30
0.0
 10
6.9450881088
 20
12.5949765842
 30
0.0
 10
6.9450881088
 20
12.6000477814
 30
0.0
  0
SPLINE
  5
366
100
AcDbEntity
  8
0
100
AcDbSpline
 62
7
  6
CONTINUOUS
 70
0
 71
3
 72
10
 73
6
 74
0
 42
0.0000001
 43
0.0000001
 44
0.0000000001
 40
0.0
 40
0.0
 40
0.0
 40
0.0
 40
0.2427936407
 40
0.6177858724
 40
1.0
 40
1.0
 40
1.0
 40
1.0
 10
6.8589179683
 20
12.6703602814
 30
0.0
 10
6.8567169829
 20
12.6649689902
 30
0.0
 10
6.8518503967
 20
12.6509431868
 30
0.0
 10
6.8468489924
 20
12.6274011277
 30
0.0
 10
6.845595951
 20
12.6092149582
 30
0.0
 10
6.845595951
 20
12.6000477814
 30
0.0
  0
SPLINE
  5
367
100
AcDbEntity
  8
0
100
AcDbSpline
 62
7
  6
CONTINUOUS
 70
0
 71
3
 72
10
 73
6
 74
0
 42
0.0000001
 43
0.0000001
 44
0.0000000001
 40
0.0
 40
0.0
 40
0.0
 40
0.0
 40
0.2553454147
 40
0.6335354937
 40
1.0
 40
1.0
 40
1.0
 40
1.0
 10
6.845595951
 20
12.6000477814
 30
0.0
 10
6.845595951
 20
12.5939235881
 30
0.0
 10
6.8462986105
 20
12.5787217665
 30
0.0
 10
6.8501727166
 20
12.554974022
 30
0.0
 10
6.855595937
 20
12.5378725629
 30
0.0
 10
6.8589179683
 20
12.5297352814
 30
0.0
  0
SPLINE
  5
368
100
AcDbEntity
  8
0
100
AcDbSpline
 62
7
  6
CONTINUOUS
 70
0
 71
3
 72
13
 73
9
 74
0
 42
0.0000001
 43
0.0000001
 44
0.0000000001
 40
0.0
 40
0.0
 40
0.0
 40
0.0
 40
0.1187233248
 40
0.2383135141
 40
0.3592710589
 40
0.4820685467
 40
0.7347966589
 40
1.0
 40
1.0
 40
1.0
 40
1.0
 10
6.9450328421
 20
12.4594227814
 30
0.0
 10
6.9474968128
 20
12.4594227814
 30
0.0
 10
6.9524466077
 20
12.4596863268
 30
0.0
 10
6.9598226688
 20
12.4608598139
 30
0.0
 10
6.9671224952
 20
12.4628042142
 30
0.0
 10
6.9767762475
 20
12.4664497465
 30
0.0
 10
6.9884629143
 20
12.4729652006
 30
0.0
 10
6.9968235692
 20
12.4798117739
 30
0.0
 10
7.0007979417
 20
12.4836194486
 30
0.0
  0
SPLINE
  5
369
100
AcDbEntity
  8
0
100
AcDbSpline
 62
7
  6
CONTINUOUS
 70
0
 71
3
 72
14
 73
10
 74
0
 42
0.0000001
 43
0.0000001
 44
0.0000000001
 40
0.0
 40
0.0
 40
0.0
 40
0.0
 40
0.1348852082
 40
0.2689342014
 40
0.4007762581
 40
0.5294805881
 40
0.6543086608
 40
0.7746473402
 40
1.0
 40
1.0
 40
1.0
 40
1.0
 10
6.9450881088
 20
12.6000477814
 30
0.0
 10
6.9450881088
 20
12.6051189785
 30
0.0
 10
6.9455456092
 20
12.6152356277
 30
0.0
 10
6.9475731604
 20
12.6301863253
 30
0.0
 10
6.9509294607
 20
12.6446603
 30
0.0
 10
6.9555481613
 20
12.6584166838
 30
0.0
 10
6.9613701874
 20
12.6712436821
 30
0.0
 10
6.9703838396
 20
12.6864841606
 30
0.0
 10
6.9789498303
 20
12.6965077365
 30
0.0
 10
6.9853306163
 20
12.7020815975
 30
0.0
  0
SPLINE
  5
36A
100
AcDbEntity
  8
0
100
AcDbSpline
 62
7
  6
CONTINUOUS
 70
0
 71
3
 72
9
 73
5
 74
0
 42
0.0000001
 43
0.0000001
 44
0.0000000001
 40
0.0
 40
0.0
 40
0.0
 40
0.0
 40
0.2496947535
 40
1.0
 40
1.0
 40
1.0
 40
1.0
 10
4.640368741
 20
13.2062674626
 30
0.0
 10
4.641274964
 20
13.2062648962
 30
0.0
 10
4.6449036906
 20
13.2061206904
 30
0.0
 10
4.6485045015
 20
13.2054799417
 30
0.0
 10
4.6511385429
 20
13.2047891741
 30
0.0
  0
SPLINE
  5
36B
100
AcDbEntity
  8
0
100
AcDbSpline
 62
7
  6
CONTINUOUS
 70
0
 71
3
 72
9
 73
5
 74
0
 42
0.0000001
 43
0.0000001
 44
0.0000000001
 40
0.0
 40
0.0
 40
0.0
 40
0.0
 40
0.4999928866
 40
1.0
 40
1.0
 40
1.0
 40
1.0
 10
4.6511385429
 20
13.2047891741
 30
0.0
 10
4.654863084
 20
13.203812427
 30
0.0
 10
4.6621193601
 20
13.2009922885
 30
0.0
 10
4.6684653035
 20
13.1964805231
 30
0.0
 10
4.6713251047
 20
13.193902031
 30
0.0
  0
SPLINE
  5
36C
100
AcDbEntity
  8
0
100
AcDbSpline
 62
7
  6
CONTINUOUS
 70
0
 71
3
 72
18
 73
14
 74
0
 42
0.0000001
 43
0.0000001
 44
0.0000000001
 40
0.0
 40
0.0
 40
0.0
 40
0.0
 40
0.1248356642
 40
0.1874353953
 40
0.2500269922
 40
0.3750047088
 40
0.5000027273
 40
0.5625551945
 40
0.6250290269
 40
0.7498890411
 40
0.8125378082
 40
0.8752021918
 40
1.0
 40
1.0
 40
1.0
 40
1.0
 10
4.6021220839
 20
13.1684298031
 30
0.0
 10
4.6021221926
 20
13.1709228268
 30
0.0
 10
4.6024677906
 20
13.1746787312
 30
0.0
 10
4.6036303328
 20
13.1795408868
 30
0.0
 10
4.6052725048
 20
13.1842670993
 30
0.0
 10
4.608200176
 20
13.1898317748
 30
0.0
 10
4.6122104812
 20
13.1946764443
 30
0.0
 10
4.615955601
 20
13.19799061
 30
0.0
 10
4.6200248421
 20
13.2008932438
 30
0.0
 10
4.6245231368
 20
13.203144126
 30
0.0
 10
4.6292606112
 20
13.2047465341
 30
0.0
 10
4.6341204853
 20
13.2059195508
 30
0.0
 10
4.6378764833
 20
13.2062896799
 30
0.0
 10
4.640368741
 20
13.206282622
 30
0.0
  0
SPLINE
  5
36D
100
AcDbEntity
  8
0
100
AcDbSpline
 62
7
  6
CONTINUOUS
 70
0
 71
3
 72
18
 73
14
 74
0
 42
0.0000001
 43
0.0000001
 44
0.0000000001
 40
0.0
 40
0.0
 40
0.0
 40
0.0
 40
0.1248203419
 40
0.1874858606
 40
0.2501341945
 40
0.3750121779
 40
0.4374917423
 40
0.5000445514
 40
0.6250350152
 40
0.7499930211
 40
0.8125765664
 40
0.8751699306
 40
1.0
 40
1.0
 40
1.0
 40
1.0
 10
7.5015385698
 20
13.2062674983
 30
0.0
 10
7.5040244568
 20
13.2062650033
 30
0.0
 10
7.5077693181
 20
13.2058890316
 30
0.0
 10
7.5126144681
 20
13.204710624
 30
0.0
 10
7.5173348678
 20
13.2030987791
 30
0.0
 10
7.5218122378
 20
13.2008360639
 30
0.0
 10
7.5258625144
 20
13.1979299165
 30
0.0
 10
7.5295893666
 20
13.1946159407
 30
0.0
 10
7.533579735
 20
13.189778112
 30
0.0
 10
7.5364899097
 20
13.1842246638
 30
0.0
 10
7.5381222151
 20
13.1795103495
 30
0.0
 10
7.5392783273
 20
13.1746611997
 30
0.0
 10
7.5396220839
 20
13.1709158851
 30
0.0
 10
7.5396220839
 20
13.1684298031
 30
0.0
  0
SPLINE
  5
36E
100
AcDbEntity
  8
0
100
AcDbSpline
 62
7
  6
CONTINUOUS
 70
0
 71
3
 72
9
 73
5
 74
0
 42
0.0000001
 43
0.0000001
 44
0.0000000001
 40
0.0
 40
0.0
 40
0.0
 40
0.0
 40
0.500010927
 40
1.0
 40
1.0
 40
1.0
 40
1.0
 10
7.470419063
 20
13.193902031
 30
0.0
 10
7.4732809039
 20
13.1964823254
 30
0.0
 10
7.4796317185
 20
13.2009966955
 30
0.0
 10
7.4868938441
 20
13.2038174948
 30
0.0
 10
7.4906214665
 20
13.2047929872
 30
0.0
  0
SPLINE
  5
36F
100
AcDbEntity
  8
0
100
AcDbSpline
 62
7
  6
CONTINUOUS
 70
0
 71
3
 72
9
 73
5
 74
0
 42
0.0000001
 43
0.0000001
 44
0.0000000001
 40
0.0
 40
0.0
 40
0.0
 40
0.0
 40
0.2506780544
 40
1.0
 40
1.0
 40
1.0
 40
1.0
 10
7.4906214665
 20
13.2047929872
 30
0.0
 10
7.4915132927
 20
13.2050263718
 30
0.0
 10
7.4950946972
 20
13.205859872
 30
0.0
 10
7.4987829711
 20
13.206270264
 30
0.0
 10
7.5015385698
 20
13.2062674983
 30
0.0
  0
SPLINE
  5
370
100
AcDbEntity
  8
0
100
AcDbSpline
 62
7
  6
CONTINUOUS
 70
0
 71
3
 72
18
 73
14
 74
0
 42
0.0000001
 43
0.0000001
 44
0.0000000001
 40
0.0
 40
0.0
 40
0.0
 40
0.0
 40
0.1248355496
 40
0.1874354949
 40
0.2500272527
 40
0.3750048312
 40
0.5000027087
 40
0.5625552138
 40
0.6250290829
 40
0.7498890787
 40
0.8125378244
 40
0.875202198
 40
1.0
 40
1.0
 40
1.0
 40
1.0
 10
7.5396220839
 20
12.0316657596
 30
0.0
 10
7.5396220839
 20
12.0291727374
 30
0.0
 10
7.5392764684
 20
12.025416814
 30
0.0
 10
7.5381138363
 20
12.0205546756
 30
0.0
 10
7.5364716281
 20
12.0158284707
 30
0.0
 10
7.5335439885
 20
12.010263782
 30
0.0
 10
7.5295336861
 20
12.0054191095
 30
0.0
 10
7.5257885624
 20
12.0021049479
 30
0.0
 10
7.521719317
 20
11.9992023153
 30
0.0
 10
7.517221021
 20
11.9969514324
 30
0.0
 10
7.5124835454
 20
11.9953490254
 30
0.0
 10
7.5076236698
 20
11.9941760107
 30
0.0
 10
7.5038676707
 20
11.9938058832
 30
0.0
 10
7.5013754123
 20
11.9938129419
 30
0.0
  0
SPLINE
  5
371
100
AcDbEntity
  8
0
100
AcDbSpline
 62
7
  6
CONTINUOUS
 70
0
 71
3
 72
9
 73
5
 74
0
 42
0.0000001
 43
0.0000001
 44
0.0000000001
 40
0.0
 40
0.0
 40
0.0
 40
0.0
 40
0.249694756
 40
1.0
 40
1.0
 40
1.0
 40
1.0
 10
7.5013754123
 20
11.9938281024
 30
0.0
 10
7.5004691895
 20
11.993830669
 30
0.0
 10
7.4968404637
 20
11.9939748755
 30
0.0
 10
7.4932396538
 20
11.994615624
 30
0.0
 10
7.490605613
 20
11.9953063917
 30
0.0
  0
SPLINE
  5
372
100
AcDbEntity
  8
0
100
AcDbSpline
 62
7
  6
CONTINUOUS
 70
0
 71
3
 72
9
 73
5
 74
0
 42
0.0000001
 43
0.0000001
 44
0.0000000001
 40
0.0
 40
0.0
 40
0.0
 40
0.0
 40
0.4999928868
 40
1.0
 40
1.0
 40
1.0
 40
1.0
 10
7.490605613
 20
11.9953063917
 30
0.0
 10
7.486881074
 20
11.9962831388
 30
0.0
 10
7.4796248025
 20
11.9991032778
 30
0.0
 10
7.4732788627
 20
12.003615041
 30
0.0
 10
7.470419063
 20
12.0061935317
 30
0.0
  0
SPLINE
  5
373
100
AcDbEntity
  8
0
100
AcDbSpline
 62
7
  6
CONTINUOUS
 70
0
 71
3
 72
9
 73
5
 74
0
 42
0.0000001
 43
0.0000001
 44
0.0000000001
 40
0.0
 40
0.0
 40
0.0
 40
0.0
 40
0.5000109271
 40
1.0
 40
1.0
 40
1.0
 40
1.0
 10
4.6713251047
 20
12.0061935317
 30
0.0
 10
4.6684632627
 20
12.0036132363
 30
0.0
 10
4.6621124453
 20
11.9990988644
 30
0.0
 10
4.6548503159
 20
11.9962780656
 30
0.0
 10
4.6511226919
 20
11.9953025731
 30
0.0
  0
SPLINE
  5
374
100
AcDbEntity
  8
0
100
AcDbSpline
 62
7
  6
CONTINUOUS
 70
0
 71
3
 72
9
 73
5
 74
0
 42
0.0000001
 43
0.0000001
 44
0.0000000001
 40
0.0
 40
0.0
 40
0.0
 40
0.0
 40
0.2506780577
 40
1.0
 40
1.0
 40
1.0
 40
1.0
 10
4.6511226919
 20
11.9953025731
 30
0.0
 10
4.6502308656
 20
11.9950691886
 30
0.0
 10
4.6466494606
 20
11.9942356885
 30
0.0
 10
4.642961186
 20
11.9938252964
 30
0.0
 10
4.6402055868
 20
11.9938280627
 30
0.0
  0
SPLINE
  5
375
100
AcDbEntity
  8
0
100
AcDbSpline
 62
7
  6
CONTINUOUS
 70
0
 71
3
 72
18
 73
14
 74
0
 42
0.0000001
 43
0.0000001
 44
0.0000000001
 40
0.0
 40
0.0
 40
0.0
 40
0.0
 40
0.1248203406
 40
0.1874858602
 40
0.2501341951
 40
0.3750121777
 40
0.4374917413
 40
0.5000445503
 40
0.625035015
 40
0.7499930211
 40
0.8125765663
 40
0.8751699305
 40
1.0
 40
1.0
 40
1.0
 40
1.0
 10
4.6402055868
 20
11.9938280627
 30
0.0
 10
4.6377197003
 20
11.9938305582
 30
0.0
 10
4.6339748398
 20
11.9942065315
 30
0.0
 10
4.6291296912
 20
11.995384941
 30
0.0
 10
4.6244092929
 20
11.9969967871
 30
0.0
 10
4.619931924
 20
11.9992595026
 30
0.0
 10
4.6158816486
 20
12.00216565
 30
0.0
 10
4.6121547975
 20
12.0054796258
 30
0.0
 10
4.6081644306
 20
12.0103174542
 30
0.0
 10
4.6052542569
 20
12.0158709016
 30
0.0
 10
4.6036219521
 20
12.0205852152
 30
0.0
 10
4.6024658403
 20
12.0254343641
 30
0.0
 10
4.6021220839
 20
12.0291796781
 30
0.0
 10
4.6021220839
 20
12.0316657596
 30
0.0
  0
SPLINE
  5
376
100
AcDbEntity
  8
0
100
AcDbSpline
 62
7
  6
CONTINUOUS
 70
0
 71
3
 72
15
 73
11
 74
0
 42
0.0000001
 43
0.0000001
 44
0.0000000001
 40
0.0
 40
0.0
 40
0.0
 40
0.0
 40
0.1434383534
 40
0.2816906929
 40
0.4139585599
 40
0.5402167095
 40
0.6608971283
 40
0.7768918784
 40
0.8894653613
 40
1.0
 40
1.0
 40
1.0
 40
1.0
 10
6.8589179683
 20
12.5297352814
 30
0.0
 10
6.8610471272
 20
12.5245199285
 30
0.0
 10
6.8657687098
 20
12.5144871016
 30
0.0
 10
6.8743149073
 20
12.5006148281
 30
0.0
 10
6.8840901881
 20
12.4884239521
 30
0.0
 10
6.8949152307
 20
12.4781244122
 30
0.0
 10
6.9066258971
 20
12.469900441
 30
0.0
 10
6.9190302119
 20
12.4638938686
 30
0.0
 10
6.9319097937
 20
12.4602493737
 30
0.0
 10
6.940691838
 20
12.4594227814
 30
0.0
 10
6.9450328421
 20
12.4594227814
 30
0.0
  0
SPLINE
  5
377
100
AcDbEntity
  8
0
100
AcDbSpline
 62
7
  6
CONTINUOUS
 70
0
 71
3
 72
27
 73
23
 74
0
 42
0.0000001
 43
0.0000001
 44
0.0000000001
 40
0.0
 40
0.0
 40
0.0
 40
0.0
 40
0.062880419
 40
0.1257799903
 40
0.1885084412
 40
0.2510786404
 40
0.3135505617
 40
0.3447733272
 40
0.3759863922
 40
0.4383515846
 40
0.5007141631
 40
0.5630832171
 40
0.6254627923
 40
0.6566786665
 40
0.6878996283
 40
0.7191259224
 40
0.7503537323
 40
0.7815793898
 40
0.8128034897
 40
0.8752096448
 40
0.9376122442
 40
1.0
 40
1.0
 40
1.0
 40
1.0
 10
15.5603552569
 20
6.5874124015
 30
0.0
 10
15.5661262866
 20
6.5874124015
 30
0.0
 10
15.5776821743
 20
6.5867059068
 30
0.0
 10
15.5947356546
 20
6.5835532667
 30
0.0
 10
15.6112421588
 20
6.5783102849
 30
0.0
 10
15.6269116232
 20
6.5710255977
 30
0.0
 10
15.6390507579
 20
6.563301824
 30
0.0
 10
15.6480569172
 20
6.5561963387
 30
0.0
 10
15.656544204
 20
6.5484933238
 30
0.0
 10
15.6661193389
 20
6.5377871505
 30
0.0
 10
15.6756549816
 20
6.5234363268
 30
0.0
 10
15.683019932
 20
6.5078562743
 30
0.0
 10
15.6871772637
 20
6.4940993163
 30
0.0
 10
15.6892560856
 20
6.4828252933
 30
0.0
 10
15.6901781295
 20
6.4742701879
 30
0.0
 10
15.6904587007
 20
6.4656695881
 30
0.0
 10
15.6900991568
 20
6.4570714985
 30
0.0
 10
15.6890980946
 20
6.4485239093
 30
0.0
 10
15.686914394
 20
6.4372661557
 30
0.0
 10
15.6826295023
 20
6.4235410187
 30
0.0
 10
15.6751193032
 20
6.4080252414
 30
0.0
 10
15.6686690609
 20
6.3985046908
 30
0.0
 10
15.6651263942
 20
6.3940064178
 30
0.0
  0
SPLINE
  5
378
100
AcDbEntity
  8
0
100
AcDbSpline
 62
7
  6
CONTINUOUS
 70
0
 71
3
 72
25
 73
21
 74
0
 42
0.0000001
 43
0.0000001
 44
0.0000000001
 40
0.0
 40
0.0
 40
0.0
 40
0.0
 40
0.0623672525
 40
0.1247420896
 40
0.1871206295
 40
0.2495075045
 40
0.311904242
 40
0.3743026849
 40
0.4055234567
 40
0.4367418155
 40
0.4991373147
 40
0.5303527126
 40
0.561563963
 40
0.6239618499
 40
0.6863883239
 40
0.7488872835
 40
0.8114780421
 40
0.8742178916
 40
0.9371176598
 40
1.0
 40
1.0
 40
1.0
 40
1.0
 10
15.4555841197
 20
6.3940064178
 30
0.0
 10
15.4520429136
 20
6.3985028362
 30
0.0
 10
15.4455939548
 20
6.4080174738
 30
0.0
 10
15.4380888906
 20
6.4235277869
 30
0.0
 10
15.43294292
 20
6.4399795492
 30
0.0
 10
15.4302946273
 20
6.4570145989
 30
0.0
 10
15.4302057726
 20
6.4742551238
 30
0.0
 10
15.4322817166
 20
6.4884797318
 30
0.0
 10
15.4351853067
 20
6.4995715056
 30
0.0
 10
15.4389052015
 20
6.5104158982
 30
0.0
 10
15.4438168462
 20
6.5208188496
 30
0.0
 10
15.449807613
 20
6.5305916752
 30
0.0
 10
15.4564913699
 20
6.5399056464
 30
0.0
 10
15.4660652133
 20
6.5506234714
 30
0.0
 10
15.4792325962
 20
6.5617575039
 30
0.0
 10
15.4937943851
 20
6.5710232418
 30
0.0
 10
15.5094683572
 20
6.5783104278
 30
0.0
 10
15.52597609
 20
6.583553514
 30
0.0
 10
15.5430294022
 20
6.5867064142
 30
0.0
 10
15.5545845339
 20
6.5874124015
 30
0.0
 10
15.5603552569
 20
6.5874124015
 30
0.0
  0
SPLINE
  5
379
100
AcDbEntity
  8
0
100
AcDbSpline
 62
7
  6
CONTINUOUS
 70
0
 71
3
 72
13
 73
9
 74
0
 42
0.0000001
 43
0.0000001
 44
0.0000000001
 40
0.0
 40
0.0
 40
0.0
 40
0.0
 40
0.2606564882
 40
0.5158253488
 40
0.6406351511
 40
0.7631277285
 40
0.8829998142
 40
1.0
 40
1.0
 40
1.0
 40
1.0
 10
15.5791932487
 20
6.1858381733
 30
0.0
 10
15.5875851111
 20
6.1867130771
 30
0.0
 10
15.6040944219
 20
6.1896065599
 30
0.0
 10
15.6238754663
 20
6.1960809702
 30
0.0
 10
15.6386886757
 20
6.2028290365
 30
0.0
 10
15.6491148429
 20
6.2085597193
 30
0.0
 10
15.6588551875
 20
6.2149397054
 30
0.0
 10
15.6649185758
 20
6.219649479
 30
0.0
 10
15.6678091336
 20
6.2220965041
 30
0.0
  0
SPLINE
  5
37A
100
AcDbEntity
  8
0
100
AcDbSpline
 62
7
  6
CONTINUOUS
 70
0
 71
3
 72
13
 73
9
 74
0
 42
0.0000001
 43
0.0000001
 44
0.0000000001
 40
0.0
 40
0.0
 40
0.0
 40
0.0
 40
0.2606418233
 40
0.515809181
 40
0.6406186413
 40
0.7631116531
 40
0.8829880414
 40
1.0
 40
1.0
 40
1.0
 40
1.0
 10
15.5415932166
 20
6.1858299515
 30
0.0
 10
15.5331983422
 20
6.1867014127
 30
0.0
 10
15.5166822688
 20
6.189589222
 30
0.0
 10
15.4968918214
 20
6.1960580411
 30
0.0
 10
15.4820709553
 20
6.2028036945
 30
0.0
 10
15.4716388465
 20
6.2085329992
 30
0.0
 10
15.4618926612
 20
6.2149128916
 30
0.0
 10
15.4558249864
 20
6.2196225866
 30
0.0
 10
15.4529321707
 20
6.2220696979
 30
0.0
  0
SPLINE
  5
37B
100
AcDbEntity
  8
0
100
AcDbSpline
 62
7
  6
CONTINUOUS
 70
0
 71
3
 72
15
 73
11
 74
0
 42
0.0000001
 43
0.0000001
 44
0.0000000001
 40
0.0
 40
0.0
 40
0.0
 40
0.0
 40
0.1105346387
 40
0.2231081216
 40
0.3391028717
 40
0.4597832905
 40
0.5860414401
 40
0.7183093071
 40
0.8565616466
 40
1.0
 40
1.0
 40
1.0
 40
1.0
 10
15.4197302569
 20
6.3504104627
 30
0.0
 10
15.4197302569
 20
6.3460694585
 30
0.0
 10
15.4205568493
 20
6.3372874143
 30
0.0
 10
15.4242013442
 20
6.3244078325
 30
0.0
 10
15.4302079166
 20
6.3120035177
 30
0.0
 10
15.4384318878
 20
6.3002928513
 30
0.0
 10
15.4487314277
 20
6.2894678086
 30
0.0
 10
15.4609223037
 20
6.2796925279
 30
0.0
 10
15.4747945772
 20
6.2711463304
 30
0.0
 10
15.484827404
 20
6.2664247478
 30
0.0
 10
15.4900427569
 20
6.2642955889
 30
0.0
  0
SPLINE
  5
37C
100
AcDbEntity
  8
0
100
AcDbSpline
 62
7
  6
CONTINUOUS
 70
0
 71
3
 72
14
 73
10
 74
0
 42
0.0000001
 43
0.0000001
 44
0.0000000001
 40
0.0
 40
0.0
 40
0.0
 40
0.0
 40
0.1348852082
 40
0.2689342014
 40
0.4007762581
 40
0.5294805881
 40
0.6543086608
 40
0.7746473402
 40
1.0
 40
1.0
 40
1.0
 40
1.0
 10
15.5603552569
 20
6.3504657294
 30
0.0
 10
15.5552840598
 20
6.3504657294
 30
0.0
 10
15.5451674106
 20
6.3509232298
 30
0.0
 10
15.530216713
 20
6.352950781
 30
0.0
 10
15.5157427383
 20
6.3563070813
 30
0.0
 10
15.5019863545
 20
6.3609257819
 30
0.0
 10
15.4891593562
 20
6.366747808
 30
0.0
 10
15.4739188777
 20
6.3757614602
 30
0.0
 10
15.4638953018
 20
6.3843274509
 30
0.0
 10
15.4583214408
 20
6.3907082369
 30
0.0
  0
SPLINE
  5
37D
100
AcDbEntity
  8
0
100
AcDbSpline
 62
7
  6
CONTINUOUS
 70
0
 71
3
 72
10
 73
6
 74
0
 42
0.0000001
 43
0.0000001
 44
0.0000000001
 40
0.0
 40
0.0
 40
0.0
 40
0.0
 40
0.2427936407
 40
0.6177858724
 40
1.0
 40
1.0
 40
1.0
 40
1.0
 10
15.4900427569
 20
6.2642955889
 30
0.0
 10
15.4954340481
 20
6.2620946035
 30
0.0
 10
15.5094598515
 20
6.2572280172
 30
0.0
 10
15.5330019106
 20
6.252226613
 30
0.0
 10
15.5511880801
 20
6.2509735716
 30
0.0
 10
15.5603552569
 20
6.2509735716
 30
0.0
  0
SPLINE
  5
37E
100
AcDbEntity
  8
0
100
AcDbSpline
 62
7
  6
CONTINUOUS
 70
0
 71
3
 72
10
 73
6
 74
0
 42
0.0000001
 43
0.0000001
 44
0.0000000001
 40
0.0
 40
0.0
 40
0.0
 40
0.0
 40
0.2553454147
 40
0.6335354937
 40
1.0
 40
1.0
 40
1.0
 40
1.0
 10
15.5603552569
 20
6.2509735716
 30
0.0
 10
15.5664794502
 20
6.2509735716
 30
0.0
 10
15.5816812718
 20
6.2516762311
 30
0.0
 10
15.6054290163
 20
6.2555503372
 30
0.0
 10
15.6225304754
 20
6.2609735576
 30
0.0
 10
15.6306677569
 20
6.2642955889
 30
0.0
  0
SPLINE
  5
37F
100
AcDbEntity
  8
0
100
AcDbSpline
 62
7
  6
CONTINUOUS
 70
0
 71
3
 72
13
 73
9
 74
0
 42
0.0000001
 43
0.0000001
 44
0.0000000001
 40
0.0
 40
0.0
 40
0.0
 40
0.0
 40
0.2652033411
 40
0.5179314533
 40
0.6407289411
 40
0.7616864859
 40
0.8812766752
 40
1.0
 40
1.0
 40
1.0
 40
1.0
 10
15.4439269242
 20
6.4061755623
 30
0.0
 10
15.4401192494
 20
6.4022011898
 30
0.0
 10
15.4332726762
 20
6.3938405349
 30
0.0
 10
15.4267572221
 20
6.3821538681
 30
0.0
 10
15.4231116898
 20
6.3725001158
 30
0.0
 10
15.4211672895
 20
6.3652002894
 30
0.0
 10
15.4199938024
 20
6.3578242283
 30
0.0
 10
15.4197302569
 20
6.3528744334
 30
0.0
 10
15.4197302569
 20
6.3504104627
 30
0.0
  0
SPLINE
  5
380
100
AcDbEntity
  8
0
100
AcDbSpline
 62
7
  6
CONTINUOUS
 70
0
 71
3
 72
30
 73
26
 74
0
 42
0.0000001
 43
0.0000001
 44
0.0000000001
 40
0.0
 40
0.0
 40
0.0
 40
0.0
 40
0.0613869319
 40
0.1229256314
 40
0.1847112102
 40
0.2468331904
 40
0.3094460266
 40
0.3409523502
 40
0.3725850279
 40
0.4043317106
 40
0.4361622187
 40
0.468055157
 40
0.4999865589
 40
0.5319189956
 40
0.5638138571
 40
0.5956447077
 40
0.6273899491
 40
0.6590207275
 40
0.6905256701
 40
0.7219109397
 40
0.7531696447
 40
0.8152918555
 40
0.8770745438
 40
0.938612502
 40
1.0
 40
1.0
 40
1.0
 40
1.0
 10
15.3802836395
 20
5.8610281112
 30
0.0
 10
15.3854957829
 20
5.8680566211
 30
0.0
 10
15.3965053949
 20
5.8817194145
 30
0.0
 10
15.4148227603
 20
5.9006847804
 30
0.0
 10
15.4350229384
 20
5.9178104533
 30
0.0
 10
15.4571102881
 20
5.9327119582
 30
0.0
 10
15.4769910067
 20
5.9428887411
 30
0.0
 10
15.4936617735
 20
5.9495044416
 30
0.0
 10
15.5065451531
 20
5.9536558731
 30
0.0
 10
15.5197236537
 20
5.9569406426
 30
0.0
 10
15.5331328134
 20
5.9593246306
 30
0.0
 10
15.5467029766
 20
5.9607639187
 30
0.0
 10
15.5603553507
 20
5.9612393572
 30
0.0
 10
15.5740077368
 20
5.9607587114
 30
0.0
 10
15.5875782419
 20
5.9593193534
 30
0.0
 10
15.6009881583
 20
5.956939416
 30
0.0
 10
15.6141674343
 20
5.9536589534
 30
0.0
 10
15.6270502842
 20
5.949508993
 30
0.0
 10
15.6395808384
 20
5.9445322395
 30
0.0
 10
15.6517200613
 20
5.9387889991
 30
0.0
 10
15.667304549
 20
5.930201464
 30
0.0
 10
15.6856861051
 20
5.9178050747
 30
0.0
 10
15.70588823
 20
5.9006853584
 30
0.0
 10
15.7242058296
 20
5.8817198667
 30
0.0
 10
15.7352146829
 20
5.8680566859
 30
0.0
 10
15.7404268744
 20
5.8610281112
 30
0.0
  0
SPLINE
  5
381
100
AcDbEntity
  8
0
100
AcDbSpline
 62
7
  6
CONTINUOUS
 70
0
 71
3
 72
13
 73
9
 74
0
 42
0.0000001
 43
0.0000001
 44
0.0000000001
 40
0.0
 40
0.0
 40
0.0
 40
0.0
 40
0.1187233248
 40
0.2383135141
 40
0.3592710589
 40
0.4820685467
 40
0.7347966589
 40
1.0
 40
1.0
 40
1.0
 40
1.0
 10
15.7009802569
 20
6.3504104627
 30
0.0
 10
15.7009802569
 20
6.3528744334
 30
0.0
 10
15.7007167115
 20
6.3578242283
 30
0.0
 10
15.6995432244
 20
6.3652002894
 30
0.0
 10
15.6975988241
 20
6.3725001158
 30
0.0
 10
15.6939532918
 20
6.3821538681
 30
0.0
 10
15.6874378377
 20
6.3938405349
 30
0.0
 10
15.6805912644
 20
6.4022011898
 30
0.0
 10
15.6767835897
 20
6.4061755623
 30
0.0
  0
SPLINE
  5
382
100
AcDbEntity
  8
0
100
AcDbSpline
 62
7
  6
CONTINUOUS
 70
0
 71
3
 72
14
 73
10
 74
0
 42
0.0000001
 43
0.0000001
 44
0.0000000001
 40
0.0
 40
0.0
 40
0.0
 40
0.0
 40
0.2253526598
 40
0.3456913392
 40
0.4705194119
 40
0.5992237419
 40
0.7310657986
 40
0.8651147918
 40
1.0
 40
1.0
 40
1.0
 40
1.0
 10
15.662389073
 20
6.3907082369
 30
0.0
 10
15.656815212
 20
6.3843274509
 30
0.0
 10
15.6467916361
 20
6.3757614602
 30
0.0
 10
15.6315511576
 20
6.366747808
 30
0.0
 10
15.6187241594
 20
6.3609257819
 30
0.0
 10
15.6049677755
 20
6.3563070813
 30
0.0
 10
15.5904938008
 20
6.352950781
 30
0.0
 10
15.5755431032
 20
6.3509232298
 30
0.0
 10
15.5654264541
 20
6.3504657294
 30
0.0
 10
15.5603552569
 20
6.3504657294
 30
0.0
  0
SPLINE
  5
383
100
AcDbEntity
  8
0
100
AcDbSpline
 62
7
  6
CONTINUOUS
 70
0
 71
3
 72
15
 73
11
 74
0
 42
0.0000001
 43
0.0000001
 44
0.0000000001
 40
0.0
 40
0.0
 40
0.0
 40
0.0
 40
0.1434383534
 40
0.2816906929
 40
0.4139585599
 40
0.5402167095
 40
0.6608971283
 40
0.7768918784
 40
0.8894653613
 40
1.0
 40
1.0
 40
1.0
 40
1.0
 10
15.6306677569
 20
6.2642955889
 30
0.0
 10
15.6358831098
 20
6.2664247478
 30
0.0
 10
15.6459159367
 20
6.2711463304
 30
0.0
 10
15.6597882102
 20
6.2796925279
 30
0.0
 10
15.6719790862
 20
6.2894678086
 30
0.0
 10
15.6822786261
 20
6.3002928513
 30
0.0
 10
15.6905025973
 20
6.3120035177
 30
0.0
 10
15.6965091697
 20
6.3244078325
 30
0.0
 10
15.7001536646
 20
6.3372874143
 30
0.0
 10
15.7009802569
 20
6.3460694585
 30
0.0
 10
15.7009802569
 20
6.3504104627
 30
0.0
  0
SPLINE
  5
384
100
AcDbEntity
  8
0
100
AcDbSpline
 62
7
  6
CONTINUOUS
 70
0
 71
3
 72
9
 73
5
 74
0
 42
0.0000001
 43
0.0000001
 44
0.0000000001
 40
0.0
 40
0.0
 40
0.0
 40
0.0
 40
0.4810395007
 40
1.0
 40
1.0
 40
1.0
 40
1.0
 10
15.5430324688
 20
12.273055982
 30
0.0
 10
15.5436481475
 20
12.2718013608
 30
0.0
 10
15.5448207528
 20
12.2691399669
 30
0.0
 10
15.5458139272
 20
12.2664076662
 30
0.0
 10
15.5462890984
 20
12.2649767851
 30
0.0
  0
SPLINE
  5
385
100
AcDbEntity
  8
0
100
AcDbSpline
 62
7
  6
CONTINUOUS
 70
0
 71
3
 72
11
 73
7
 74
0
 42
0.0000001
 43
0.0000001
 44
0.0000000001
 40
0.0
 40
0.0
 40
0.0
 40
0.0
 40
0.2262816232
 40
0.4740161908
 40
0.7350208955
 40
1.0
 40
1.0
 40
1.0
 40
1.0
 10
15.5462890984
 20
12.2649767851
 30
0.0
 10
15.5473994718
 20
12.2616331215
 30
0.0
 10
15.549271273
 20
12.2544752072
 30
0.0
 10
15.5510739903
 20
12.2431596137
 30
0.0
 10
15.5519518657
 20
12.2311316245
 30
0.0
 10
15.5518977301
 20
12.2229319651
 30
0.0
 10
15.5517021319
 20
12.2188108726
 30
0.0
  0
SPLINE
  5
386
100
AcDbEntity
  8
0
100
AcDbSpline
 62
7
  6
CONTINUOUS
 70
0
 71
3
 72
14
 73
10
 74
0
 42
0.0000001
 43
0.0000001
 44
0.0000000001
 40
0.0
 40
0.0
 40
0.0
 40
0.0
 40
0.2973101106
 40
0.4380760251
 40
0.5711586763
 40
0.6949430911
 40
0.8081892872
 40
0.9100041987
 40
1.0
 40
1.0
 40
1.0
 40
1.0
 10
15.5517021319
 20
12.2188108726
 30
0.0
 10
15.5514687927
 20
12.2138946083
 30
0.0
 10
15.5507788641
 20
12.2066576309
 30
0.0
 10
15.5490948287
 20
12.197349553
 30
0.0
 10
15.5475326479
 20
12.190950088
 30
0.0
 10
15.5456696403
 20
12.1851074045
 30
0.0
 10
15.5435368945
 20
12.1799110847
 30
0.0
 10
15.5411698542
 20
12.1754402433
 30
0.0
 10
15.5393414465
 20
12.1728283106
 30
0.0
 10
15.538386778
 20
12.1716845457
 30
0.0
  0
SPLINE
  5
387
100
AcDbEntity
  8
0
100
AcDbSpline
 62
7
  6
CONTINUOUS
 70
0
 71
3
 72
33
 73
29
 74
0
 42
0.0000001
 43
0.0000001
 44
0.0000000001
 40
0.0
 40
0.0
 40
0.0
 40
0.0
 40
0.0622836547
 40
0.0934788465
 40
0.1246672219
 40
0.155850924
 40
0.1870344657
 40
0.2182219627
 40
0.2494104956
 40
0.2806024641
 40
0.3118017123
 40
0.3430048007
 40
0.3742197894
 40
0.4054541229
 40
0.436707851
 40
0.4992335313
 40
0.5618764695
 40
0.5932708069
 40
0.624681476
 40
0.6874447599
 40
0.7501407196
 40
0.7814769087
 40
0.8127785473
 40
0.844043356
 40
0.8752788476
 40
0.9064947748
 40
0.9377089357
 40
1.0
 40
1.0
 40
1.0
 40
1.0
 10
15.6670176734
 20
13.2723663162
 30
0.0
 10
15.6694589427
 20
13.2802662664
 30
0.0
 10
15.6743683801
 20
13.2917909387
 30
0.0
 10
15.6831518928
 20
13.3058426611
 30
0.0
 10
15.6908178334
 20
13.3156478211
 30
0.0
 10
15.6994603362
 20
13.3245988169
 30
0.0
 10
15.7089972258
 20
13.3325911021
 30
0.0
 10
15.71931476
 20
13.3395464153
 30
0.0
 10
15.7303004232
 20
13.3453926018
 30
0.0
 10
15.7418360006
 20
13.3500636953
 30
0.0
 10
15.7537895777
 20
13.3535329166
 30
0.0
 10
15.7660378124
 20
13.3557647072
 30
0.0
 10
15.7784521601
 20
13.3567502915
 30
0.0
 10
15.790910481
 20
13.356503629
 30
0.0
 10
15.8074128717
 20
13.3545407146
 30
0.0
 10
15.8275954463
 20
13.3491069677
 30
0.0
 10
15.8464116407
 20
13.3399851611
 30
0.0
 10
15.8602810933
 20
13.3307298437
 30
0.0
 10
15.8732628372
 20
13.3202400239
 30
0.0
 10
15.887627471
 20
13.3049955181
 30
0.0
 10
15.8989941204
 20
13.287408722
 30
0.0
 10
15.9060178944
 20
13.272302622
 30
0.0
 10
15.910201242
 20
13.2605390868
 30
0.0
 10
15.9132515065
 20
13.2484461026
 30
0.0
 10
15.915119676
 20
13.2361264252
 30
0.0
 10
15.9157794243
 20
13.2236872087
 30
0.0
 10
15.9150103854
 20
13.2071295001
 30
0.0
 10
15.9125625408
 20
13.1948450545
 30
0.0
 10
15.9101209811
 20
13.1869441644
 30
0.0
  0
SPLINE
  5
388
100
AcDbEntity
  8
0
100
AcDbSpline
 62
7
  6
CONTINUOUS
 70
0
 71
3
 72
17
 73
13
 74
0
 42
0.0000001
 43
0.0000001
 44
0.0000000001
 40
0.0
 40
0.0
 40
0.0
 40
0.0
 40
0.1249359604
 40
0.1874811867
 40
0.2500141673
 40
0.3749535717
 40
0.4999015618
 40
0.6248549471
 40
0.749824333
 40
0.8123842401
 40
0.8749630644
 40
1.0
 40
1.0
 40
1.0
 40
1.0
 10
15.9101209811
 20
13.1869441644
 30
0.0
 10
15.9082502847
 20
13.1808905886
 30
0.0
 10
15.9047154059
 20
13.1720081083
 30
0.0
 10
15.8986607228
 20
13.1608567945
 30
0.0
 10
15.8917304427
 20
13.1502243837
 30
0.0
 10
15.8815059997
 20
13.1380243418
 30
0.0
 10
15.8670549999
 20
13.1255500533
 30
0.0
 10
15.8508034144
 20
13.1155323111
 30
0.0
 10
15.8360965105
 20
13.1094393832
 30
0.0
 10
15.8238776384
 20
13.1059928609
 30
0.0
 10
15.8114252178
 20
13.1035136631
 30
0.0
 10
15.8018928183
 20
13.1027396882
 30
0.0
 10
15.7955517362
 20
13.1027099936
 30
0.0
  0
SPLINE
  5
389
100
AcDbEntity
  8
0
100
AcDbSpline
 62
7
  6
CONTINUOUS
 70
0
 71
3
 72
15
 73
11
 74
0
 42
0.0000001
 43
0.0000001
 44
0.0000000001
 40
0.0
 40
0.0
 40
0.0
 40
0.0
 40
0.108909907
 40
0.2200537734
 40
0.3353678989
 40
0.4561873401
 40
0.5832558509
 40
0.7166252485
 40
0.8558525651
 40
1.0
 40
1.0
 40
1.0
 40
1.0
 10
14.8434053352
 20
12.5060234118
 30
0.0
 10
14.8422753864
 20
12.5083271675
 30
0.0
 10
14.8404843266
 20
12.5132405873
 30
0.0
 10
14.8393584525
 20
12.5211134926
 30
0.0
 10
14.8398065787
 20
12.5293319169
 30
0.0
 10
14.8417876421
 20
12.537698828
 30
0.0
 10
14.845260178
 20
12.546021378
 30
0.0
 10
14.8501207725
 20
12.5541217572
 30
0.0
 10
14.8562681185
 20
12.5618108414
 30
0.0
 10
14.8610558437
 20
12.5664904846
 30
0.0
 10
14.8636170886
 20
12.5687207001
 30
0.0
  0
SPLINE
  5
38A
100
AcDbEntity
  8
0
100
AcDbSpline
 62
7
  6
CONTINUOUS
 70
0
 71
3
 72
9
 73
5
 74
0
 42
0.0000001
 43
0.0000001
 44
0.0000000001
 40
0.0
 40
0.0
 40
0.0
 40
0.0
 40
0.2540200653
 40
1.0
 40
1.0
 40
1.0
 40
1.0
 10
14.902438117
 20
12.5890105228
 30
0.0
 10
14.9037091739
 20
12.5893337829
 30
0.0
 10
14.9087397243
 20
12.5904976168
 30
0.0
 10
14.9138725882
 20
12.5912274885
 30
0.0
 10
14.9177145679
 20
12.591498615
 30
0.0
  0
SPLINE
  5
38B
100
AcDbEntity
  8
0
100
AcDbSpline
 62
7
  6
CONTINUOUS
 70
0
 71
3
 72
18
 73
14
 74
0
 42
0.0000001
 43
0.0000001
 44
0.0000000001
 40
0.0
 40
0.0
 40
0.0
 40
0.0
 40
0.0563355619
 40
0.1128605543
 40
0.1697626303
 40
0.2272182918
 40
0.2853925853
 40
0.3444367274
 40
0.4655305692
 40
0.5913466475
 40
0.7223664086
 40
0.8587441307
 40
1.0
 40
1.0
 40
1.0
 40
1.0
 10
16.6592926612
 20
12.1043350148
 30
0.0
 10
16.6605014067
 20
12.1018710732
 30
0.0
 10
16.6631322659
 20
12.0970344135
 30
0.0
 10
16.6676879736
 20
12.0901209973
 30
0.0
 10
16.6728373959
 20
12.0835677174
 30
0.0
 10
16.6785590323
 20
12.0773983226
 30
0.0
 10
16.6848330008
 20
12.0716358753
 30
0.0
 10
16.6939788691
 20
12.0644687572
 30
0.0
 10
16.7067294119
 20
12.056637677
 30
0.0
 10
16.7236630641
 20
12.0492745018
 30
0.0
 10
16.7421171156
 20
12.043951756
 30
0.0
 10
16.7618090444
 20
12.0407538154
 30
0.0
 10
16.7753466856
 20
12.0400621182
 30
0.0
 10
16.7822281548
 20
12.0400621182
 30
0.0
  0
SPLINE
  5
38C
100
AcDbEntity
  8
0
100
AcDbSpline
 62
7
  6
CONTINUOUS
 70
0
 71
3
 72
34
 73
30
 74
0
 42
0.0000001
 43
0.0000001
 44
0.0000000001
 40
0.0
 40
0.0
 40
0.0
 40
0.0
 40
0.0265116617
 40
0.0543659943
 40
0.1139684944
 40
0.145670987
 40
0.1785417612
 40
0.2124821881
 40
0.247367908
 40
0.2830645757
 40
0.3194239535
 40
0.3934762407
 40
0.4682203917
 40
0.5054336083
 40
0.5423077996
 40
0.6143623557
 40
0.6831902372
 40
0.7160824145
 40
0.7478088539
 40
0.7782896509
 40
0.8074747548
 40
0.8353378535
 40
0.8618935156
 40
0.8871958649
 40
0.9113395895
 40
0.9344748531
 40
0.9567969048
 40
0.9785465148
 40
1.0
 40
1.0
 40
1.0
 40
1.0
 10
15.2539330141
 20
12.1124739655
 30
0.0
 10
15.2517814724
 20
12.1168583465
 30
0.0
 10
15.2469099521
 20
12.1256294594
 30
0.0
 10
15.2351128445
 20
12.1430210759
 30
0.0
 10
15.2205705813
 20
12.1595961584
 30
0.0
 10
15.2038389216
 20
12.1752072433
 30
0.0
 10
15.1898017438
 20
12.1867298596
 30
0.0
 10
15.1746362492
 20
12.1977452539
 30
0.0
 10
15.1584451623
 20
12.2081835384
 30
0.0
 10
15.1413352145
 20
12.2179667027
 30
0.0
 10
15.1173129299
 20
12.2301275204
 30
0.0
 10
15.0857715232
 20
12.2432571459
 30
0.0
 10
15.0529865579
 20
12.2534046691
 30
0.0
 10
15.0262757983
 20
12.2596286497
 30
0.0
 10
14.999784874
 20
12.2644742424
 30
0.0
 10
14.9671720401
 20
12.2680015664
 30
0.0
 10
14.9350875876
 20
12.2680861277
 30
0.0
 10
14.9105840215
 20
12.2659497939
 30
0.0
 10
14.8932497178
 20
12.2633266706
 30
0.0
 10
14.8768008961
 20
12.2596721844
 30
0.0
 10
14.8613464477
 20
12.2550172895
 30
0.0
 10
14.8469921641
 20
12.2493849308
 30
0.0
 10
14.8338352776
 20
12.2428124966
 30
0.0
 10
14.8219624597
 20
12.235345733
 30
0.0
 10
14.8114614379
 20
12.227022663
 30
0.0
 10
14.8024037861
 20
12.2179020936
 30
0.0
 10
14.7948573092
 20
12.2080402448
 30
0.0
 10
14.7888899727
 20
12.1975041331
 30
0.0
 10
14.7859816942
 20
12.1900609641
 30
0.0
 10
14.7848139925
 20
12.1862853597
 30
0.0
  0
SPLINE
  5
38D
100
AcDbEntity
  8
0
100
AcDbSpline
 62
7
  6
CONTINUOUS
 70
0
 71
3
 72
15
 73
11
 74
0
 42
0.0000001
 43
0.0000001
 44
0.0000000001
 40
0.0
 40
0.0
 40
0.0
 40
0.0
 40
0.1380519798
 40
0.2714271614
 40
0.4004159149
 40
0.5254404898
 40
0.6471320659
 40
0.7662327653
 40
0.8835646071
 40
1.0
 40
1.0
 40
1.0
 40
1.0
 10
14.5655579318
 20
12.1203072346
 30
0.0
 10
14.5624717429
 20
12.1265962264
 30
0.0
 10
14.5568514631
 20
12.1391881977
 30
0.0
 10
14.5500559805
 20
12.1583603159
 30
0.0
 10
14.5450759528
 20
12.1774034952
 30
0.0
 10
14.5419469418
 20
12.1962384078
 30
0.0
 10
14.5406781513
 20
12.2147884275
 30
0.0
 10
14.541276264
 20
12.2329843847
 30
0.0
 10
14.5437459286
 20
12.250752013
 30
0.0
 10
14.546635673
 20
12.2622851618
 30
0.0
 10
14.5483795898
 20
12.2679304312
 30
0.0
  0
SPLINE
  5
38E
100
AcDbEntity
  8
0
100
AcDbSpline
 62
7
  6
CONTINUOUS
 70
0
 71
3
 72
9
 73
5
 74
0
 42
0.0000001
 43
0.0000001
 44
0.0000000001
 40
0.0
 40
0.0
 40
0.0
 40
0.0
 40
0.245754078
 40
1.0
 40
1.0
 40
1.0
 40
1.0
 10
16.7008469353
 20
12.0608512106
 30
0.0
 10
16.7010846851
 20
12.0627226858
 30
0.0
 10
16.7022258102
 20
12.070315218
 30
0.0
 10
16.7040475054
 20
12.0778024386
 30
0.0
 10
16.7057569652
 20
12.0833342524
 30
0.0
  0
SPLINE
  5
38F
100
AcDbEntity
  8
0
100
AcDbSpline
 62
7
  6
CONTINUOUS
 70
0
 71
3
 72
9
 73
5
 74
0
 42
0.0000001
 43
0.0000001
 44
0.0000000001
 40
0.0
 40
0.0
 40
0.0
 40
0.0
 40
0.4989179631
 40
1.0
 40
1.0
 40
1.0
 40
1.0
 10
15.7819850238
 20
13.0170177108
 30
0.0
 10
15.7787642246
 20
13.0137675603
 30
0.0
 10
15.7717561671
 20
13.0077771446
 30
0.0
 10
15.7638498804
 20
13.0030382311
 30
0.0
 10
15.7597319027
 20
13.0009983023
 30
0.0
  0
SPLINE
  5
390
100
AcDbEntity
  8
0
100
AcDbSpline
 62
7
  6
CONTINUOUS
 70
0
 71
3
 72
9
 73
5
 74
0
 42
0.0000001
 43
0.0000001
 44
0.0000000001
 40
0.0
 40
0.0
 40
0.0
 40
0.0
 40
0.2479752596
 40
1.0
 40
1.0
 40
1.0
 40
1.0
 10
15.7597319027
 20
13.0009983023
 30
0.0
 10
15.758681057
 20
13.0004777434
 30
0.0
 10
15.7544009293
 20
12.9984649883
 30
0.0
 10
15.7499573936
 20
12.9968019409
 30
0.0
 10
15.7465601909
 20
12.9957496561
 30
0.0
  0
SPLINE
  5
391
100
AcDbEntity
  8
0
100
AcDbSpline
 62
7
  6
CONTINUOUS
 70
0
 71
3
 72
9
 73
5
 74
0
 42
0.0000001
 43
0.0000001
 44
0.0000000001
 40
0.0
 40
0.0
 40
0.0
 40
0.0
 40
0.4905025134
 40
1.0
 40
1.0
 40
1.0
 40
1.0
 10
15.6765484356
 20
12.9972242576
 30
0.0
 10
15.6664805769
 20
13.0002016913
 30
0.0
 10
15.6465208486
 20
13.0082953962
 30
0.0
 10
15.6282523567
 20
13.0196567477
 30
0.0
 10
15.6194884984
 20
13.0261470615
 30
0.0
  0
SPLINE
  5
392
100
AcDbEntity
  8
0
100
AcDbSpline
 62
7
  6
CONTINUOUS
 70
0
 71
3
 72
13
 73
9
 74
0
 42
0.0000001
 43
0.0000001
 44
0.0000000001
 40
0.0
 40
0.0
 40
0.0
 40
0.0
 40
0.2630743748
 40
0.3914867622
 40
0.5176190976
 40
0.7628386494
 40
0.8823592422
 40
1.0
 40
1.0
 40
1.0
 40
1.0
 10
15.568764374
 20
13.0816850209
 30
0.0
 10
15.5649831121
 20
13.0880554015
 30
0.0
 10
15.5599672235
 20
13.0979248288
 30
0.0
 10
15.5548156864
 20
13.1115718959
 30
0.0
 10
15.5508461788
 20
13.125084087
 30
0.0
 10
15.5485273498
 20
13.1387880235
 30
0.0
 10
15.5480219395
 20
13.152375978
 30
0.0
 10
15.5483780968
 20
13.1590565139
 30
0.0
 10
15.5487088372
 20
13.1623526849
 30
0.0
  0
SPLINE
  5
393
100
AcDbEntity
  8
0
100
AcDbSpline
 62
7
  6
CONTINUOUS
 70
0
 71
3
 72
18
 73
14
 74
0
 42
0.0000001
 43
0.0000001
 44
0.0000000001
 40
0.0
 40
0.0
 40
0.0
 40
0.0
 40
0.0563355619
 40
0.1128605543
 40
0.1697626303
 40
0.2272182918
 40
0.2853925853
 40
0.3444367274
 40
0.4655305692
 40
0.5913466475
 40
0.7223664086
 40
0.8587441307
 40
1.0
 40
1.0
 40
1.0
 40
1.0
 10
13.4355791822
 20
12.1043350148
 30
0.0
 10
13.4367879277
 20
12.1018710732
 30
0.0
 10
13.4394187869
 20
12.0970344135
 30
0.0
 10
13.4439744945
 20
12.0901209973
 30
0.0
 10
13.4491239168
 20
12.0835677174
 30
0.0
 10
13.4548455533
 20
12.0773983226
 30
0.0
 10
13.4611195218
 20
12.0716358753
 30
0.0
 10
13.4702653901
 20
12.0644687572
 30
0.0
 10
13.4830159328
 20
12.056637677
 30
0.0
 10
13.4999495851
 20
12.0492745018
 30
0.0
 10
13.5184036366
 20
12.043951756
 30
0.0
 10
13.5380955654
 20
12.0407538154
 30
0.0
 10
13.5516332066
 20
12.0400621182
 30
0.0
 10
13.5585146758
 20
12.0400621182
 30
0.0
  0
SPLINE
  5
394
100
AcDbEntity
  8
0
100
AcDbSpline
 62
7
  6
CONTINUOUS
 70
0
 71
3
 72
9
 73
5
 74
0
 42
0.0000001
 43
0.0000001
 44
0.0000000001
 40
0.0
 40
0.0
 40
0.0
 40
0.0
 40
0.245754078
 40
1.0
 40
1.0
 40
1.0
 40
1.0
 10
13.4771334563
 20
12.0608512106
 30
0.0
 10
13.4773712061
 20
12.0627226858
 30
0.0
 10
13.4785123312
 20
12.070315218
 30
0.0
 10
13.4803340264
 20
12.0778024386
 30
0.0
 10
13.4820434862
 20
12.0833342524
 30
0.0
  0
SPLINE
  5
395
100
AcDbEntity
  8
0
100
AcDbSpline
 62
7
  6
CONTINUOUS
 70
0
 71
3
 72
15
 73
11
 74
0
 42
0.0000001
 43
0.0000001
 44
0.0000000001
 40
0.0
 40
0.0
 40
0.0
 40
0.0
 40
0.1127784282
 40
0.2270860552
 40
0.344224796
 40
0.4653167524
 40
0.5911991537
 40
0.7224073401
 40
0.858881044
 40
1.0
 40
1.0
 40
1.0
 40
1.0
 10
13.2654391284
 20
11.3792119495
 30
0.0
 10
13.2660844933
 20
11.377897142
 30
0.0
 10
13.2676137371
 20
11.3753560446
 30
0.0
 10
13.2705344704
 20
11.3719467557
 30
0.0
 10
13.2740431398
 20
11.3689760042
 30
0.0
 10
13.2780879252
 20
11.3664941703
 30
0.0
 10
13.282604875
 20
11.3645279616
 30
0.0
 10
13.2875298712
 20
11.3631113885
 30
0.0
 10
13.2927811342
 20
11.3622585472
 30
0.0
 10
13.296389483
 20
11.3620726452
 30
0.0
 10
13.298222197
 20
11.3620726452
 30
0.0
  0
SPLINE
  5
396
100
AcDbEntity
  8
0
100
AcDbSpline
 62
7
  6
CONTINUOUS
 70
0
 71
3
 72
11
 73
7
 74
0
 42
0.0000001
 43
0.0000001
 44
0.0000000001
 40
0.0
 40
0.0
 40
0.0
 40
0.0
 40
0.2720502337
 40
0.5290677804
 40
0.7709701748
 40
1.0
 40
1.0
 40
1.0
 40
1.0
 10
16.5290275185
 20
11.5334254067
 30
0.0
 10
16.5345082865
 20
11.5334254067
 30
0.0
 10
16.5451909874
 20
11.532614198
 30
0.0
 10
16.5603317078
 20
11.5287828985
 30
0.0
 10
16.5736686974
 20
11.5224476816
 30
0.0
 10
16.5812217724
 20
11.5165403471
 30
0.0
 10
16.5844763625
 20
11.513269674
 30
0.0
  0
SPLINE
  5
397
100
AcDbEntity
  8
0
100
AcDbSpline
 62
7
  6
CONTINUOUS
 70
0
 71
3
 72
15
 73
11
 74
0
 42
0.0000001
 43
0.0000001
 44
0.0000000001
 40
0.0
 40
0.0
 40
0.0
 40
0.0
 40
0.1242834758
 40
0.2533972171
 40
0.3848453028
 40
0.5164025774
 40
0.6456768474
 40
0.7087959342
 40
0.7705888578
 40
1.0
 40
1.0
 40
1.0
 40
1.0
 10
17.4660231949
 20
11.3620726452
 30
0.0
 10
17.4691034301
 20
11.3620726452
 30
0.0
 10
17.475392012
 20
11.3626116703
 30
0.0
 10
17.484696393
 20
11.3648501371
 30
0.0
 10
17.4937523902
 20
11.3684679688
 30
0.0
 10
17.5022119268
 20
11.3733226415
 30
0.0
 10
17.5085637789
 20
11.3782830556
 30
0.0
 10
17.5130571954
 20
11.3827103217
 30
0.0
 10
17.5188077039
 20
11.3893381867
 30
0.0
 10
17.5225008687
 20
11.3958067412
 30
0.0
 10
17.5241795607
 20
11.4012389907
 30
0.0
  0
SPLINE
  5
398
100
AcDbEntity
  8
0
100
AcDbSpline
 62
7
  6
CONTINUOUS
 70
0
 71
3
 72
11
 73
7
 74
0
 42
0.0000001
 43
0.0000001
 44
0.0000000001
 40
0.0
 40
0.0
 40
0.0
 40
0.0
 40
0.2640340299
 40
0.5170418852
 40
0.7609842547
 40
1.0
 40
1.0
 40
1.0
 40
1.0
 10
17.8176849779
 20
12.3510228686
 30
0.0
 10
17.8182713735
 20
12.3529204456
 30
0.0
 10
17.8191272007
 20
12.3567360436
 30
0.0
 10
17.8193920951
 20
12.3624859618
 30
0.0
 10
17.8185733049
 20
12.3679970348
 30
0.0
 10
17.8173105247
 20
12.3714359299
 30
0.0
 10
17.8165183129
 20
12.3730499097
 30
0.0
  0
SPLINE
  5
399
100
AcDbEntity
  8
0
100
AcDbSpline
 62
7
  6
CONTINUOUS
 70
0
 71
3
 72
13
 73
9
 74
0
 42
0.0000001
 43
0.0000001
 44
0.0000000001
 40
0.0
 40
0.0
 40
0.0
 40
0.0
 40
0.2416488655
 40
0.3656481925
 40
0.4911822551
 40
0.7451133404
 40
0.8727450298
 40
1.0
 40
1.0
 40
1.0
 40
1.0
 10
16.7080715294
 20
12.0883810574
 30
0.0
 10
16.7228559201
 20
12.0887658364
 30
0.0
 10
16.7452181957
 20
12.0910214834
 30
0.0
 10
16.7746845439
 20
12.0970453586
 30
0.0
 10
16.8044187764
 20
12.1051998563
 30
0.0
 10
16.8335056259
 20
12.1163102474
 30
0.0
 10
16.8614268226
 20
12.1301316423
 30
0.0
 10
16.8749543786
 20
12.1379270741
 30
0.0
 10
16.8815739082
 20
12.1420305881
 30
0.0
  0
SPLINE
  5
39A
100
AcDbEntity
  8
0
100
AcDbSpline
 62
7
  6
CONTINUOUS
 70
0
 71
3
 72
35
 73
31
 74
0
 42
0.0000001
 43
0.0000001
 44
0.0000000001
 40
0.0
 40
0.0
 40
0.0
 40
0.0
 40
0.0251239512
 40
0.051310084
 40
0.0785537798
 40
0.1068436387
 40
0.1361599599
 40
0.1664658203
 40
0.2297832458
 40
0.2626672094
 40
0.2962477462
 40
0.3304294099
 40
0.3651090251
 40
0.400179657
 40
0.4355294146
 40
0.4710443968
 40
0.506609039
 40
0.5774081664
 40
0.6470256029
 40
0.7145930005
 40
0.7473678254
 40
0.7793461939
 40
0.8104502679
 40
0.8406146901
 40
0.8697844632
 40
0.8979220723
 40
0.9250043103
 40
0.9510285189
 40
0.9760133185
 40
1.0
 40
1.0
 40
1.0
 40
1.0
 10
15.763633233
 20
12.271587244
 30
0.0
 10
15.7582083494
 20
12.2826419946
 30
0.0
 10
15.7461632434
 20
12.3047550227
 30
0.0
 10
15.7252018668
 20
12.337089252
 30
0.0
 10
15.7010742386
 20
12.3690998302
 30
0.0
 10
15.6739066343
 20
12.4006230455
 30
0.0
 10
15.6438307774
 20
12.431514577
 30
0.0
 10
15.5993969052
 20
12.4722523381
 30
0.0
 10
15.5503668578
 20
12.510414992
 30
0.0
 10
15.4975323677
 20
12.545863935
 30
0.0
 10
15.4553410461
 20
12.5714599152
 30
0.0
 10
15.41129807
 20
12.59560095
 30
0.0
 10
15.3656154903
 20
12.6181747167
 30
0.0
 10
15.3185126614
 20
12.6390650586
 30
0.0
 10
15.2702211736
 20
12.6581784058
 30
0.0
 10
15.2209711836
 20
12.6754154885
 30
0.0
 10
15.1544580182
 20
12.695757346
 30
0.0
 10
15.0705182362
 20
12.7160431202
 30
0.0
 10
14.9697079714
 20
12.731897783
 30
0.0
 10
14.8864949391
 20
12.7378189385
 30
0.0
 10
14.8216197305
 20
12.7379262931
 30
0.0
 10
14.7746677208
 20
12.7357470702
 30
0.0
 10
14.7291591841
 20
12.7313145439
 30
0.0
 10
14.6853120855
 20
12.724657671
 30
0.0
 10
14.6433389725
 20
12.7157982913
 30
0.0
 10
14.6034406603
 20
12.7047862515
 30
0.0
 10
14.565810191
 20
12.6916675654
 30
0.0
 10
14.530628181
 20
12.6765029967
 30
0.0
 10
14.4980659217
 20
12.659368278
 30
0.0
 10
14.4778109712
 20
12.6464210461
 30
0.0
 10
14.4682098637
 20
12.639635899
 30
0.0
  0
SPLINE
  5
39B
100
AcDbEntity
  8
0
100
AcDbSpline
 62
7
  6
CONTINUOUS
 70
0
 71
3
 72
11
 73
7
 74
0
 42
0.0000001
 43
0.0000001
 44
0.0000000001
 40
0.0
 40
0.0
 40
0.0
 40
0.0
 40
0.2553926416
 40
0.5098608101
 40
0.7592763407
 40
1.0
 40
1.0
 40
1.0
 40
1.0
 10
14.2732158609
 20
11.513269674
 30
0.0
 10
14.2784015629
 20
11.5164843437
 30
0.0
 10
14.2891967899
 20
11.5222151708
 30
0.0
 10
14.306241403
 20
11.5285700491
 30
0.0
 10
14.3236475052
 20
11.5324911082
 30
0.0
 10
14.3353710497
 20
11.5334254067
 30
0.0
 10
14.3411218898
 20
11.5334254067
 30
0.0
  0
SPLINE
  5
39C
100
AcDbEntity
  8
0
100
AcDbSpline
 62
7
  6
CONTINUOUS
 70
0
 71
3
 72
9
 73
5
 74
0
 42
0.0000001
 43
0.0000001
 44
0.0000000001
 40
0.0
 40
0.0
 40
0.0
 40
0.0
 40
0.5079027315
 40
1.0
 40
1.0
 40
1.0
 40
1.0
 10
15.7620681405
 20
12.2708697363
 30
0.0
 10
15.7642402888
 20
12.2600989589
 30
0.0
 10
15.7673147052
 20
12.2386273321
 30
0.0
 10
15.7677031322
 20
12.2169299643
 30
0.0
 10
15.7671865886
 20
12.2062968044
 30
0.0
  0
SPLINE
  5
39D
100
AcDbEntity
  8
0
100
AcDbSpline
 62
7
  6
CONTINUOUS
 70
0
 71
3
 72
39
 73
35
 74
0
 42
0.0000001
 43
0.0000001
 44
0.0000000001
 40
0.0
 40
0.0
 40
0.0
 40
0.0
 40
0.0312501937
 40
0.0634584159
 40
0.0965321111
 40
0.1303911549
 40
0.1649554226
 40
0.200127332
 40
0.2357976658
 40
0.2718525403
 40
0.3081740799
 40
0.3446415124
 40
0.4175041001
 40
0.4894755684
 40
0.5596193468
 40
0.5937471602
 40
0.6271120476
 40
0.6596331743
 40
0.6912404928
 40
0.7218805913
 40
0.7515157594
 40
0.7801279967
 40
0.8077208597
 40
0.8343199226
 40
0.8599763668
 40
0.8847662274
 40
0.8968706248
 40
0.9087991149
 40
0.9321844698
 40
0.9550648725
 40
0.9663700297
 40
0.977611664
 40
0.9888134693
 40
1.0
 40
1.0
 40
1.0
 40
1.0
 10
16.1592768894
 20
13.1850479059
 30
0.0
 10
16.142512078
 20
13.2015873619
 30
0.0
 10
16.1074489663
 20
13.2341533473
 30
0.0
 10
16.0514671637
 20
13.2806604761
 30
0.0
 10
15.9915544179
 20
13.3253525281
 30
0.0
 10
15.9280307381
 20
13.3680110511
 30
0.0
 10
15.8612080034
 20
13.4084332179
 30
0.0
 10
15.7914214832
 20
13.446431705
 30
0.0
 10
15.7190213834
 20
13.4818139043
 30
0.0
 10
15.644377355
 20
13.5144039549
 30
0.0
 10
15.5678666762
 20
13.5440407203
 30
0.0
 10
15.4639279246
 20
13.5794002819
 30
0.0
 10
15.3319357754
 20
13.6153549892
 30
0.0
 10
15.1724393222
 20
13.6447937562
 30
0.0
 10
15.0400332184
 20
13.6575141246
 30
0.0
 10
14.9363100146
 20
13.6601561822
 30
0.0
 10
14.8609274975
 20
13.658401067
 30
0.0
 10
14.7876262045
 20
13.6529350165
 30
0.0
 10
14.7167619055
 20
13.6437657264
 30
0.0
 10
14.6486781533
 20
13.6309252339
 30
0.0
 10
14.5837021213
 20
13.6144517408
 30
0.0
 10
14.5221460256
 20
13.5943951776
 30
0.0
 10
14.4643074901
 20
13.570816873
 30
0.0
 10
14.4104736697
 20
13.5437811635
 30
0.0
 10
14.3609254518
 20
13.5133729193
 30
0.0
 10
14.3231342989
 20
13.4850635259
 30
0.0
 10
14.295425211
 20
13.4608353536
 30
0.0
 10
14.2697714061
 20
13.4359390962
 30
0.0
 10
14.2407850927
 20
13.4029041868
 30
0.0
 10
14.216010983
 20
13.3671563632
 30
0.0
 10
14.1991246049
 20
13.3373562526
 30
0.0
 10
14.1879472547
 20
13.3144924536
 30
0.0
 10
14.1782332736
 20
13.2910679026
 30
0.0
 10
14.1727465088
 20
13.2750993692
 30
0.0
 10
14.1702575164
 20
13.2670449868
 30
0.0
  0
SPLINE
  5
39E
100
AcDbEntity
  8
0
100
AcDbSpline
 62
7
  6
CONTINUOUS
 70
0
 71
3
 72
16
 73
12
 74
0
 42
0.0000001
 43
0.0000001
 44
0.0000000001
 40
0.0
 40
0.0
 40
0.0
 40
0.0
 40
0.0614389925
 40
0.1243432416
 40
0.2532222249
 40
0.3845524448
 40
0.515994042
 40
0.6451479438
 40
0.7698506863
 40
0.8884617274
 40
1.0
 40
1.0
 40
1.0
 40
1.0
 10
17.1276260276
 20
12.0400621182
 30
0.0
 10
17.1333418474
 20
12.0400621182
 30
0.0
 10
17.1449150484
 20
12.0405538712
 30
0.0
 10
17.1683183153
 20
12.0434096727
 30
0.0
 10
17.1976592287
 20
12.0504842456
 30
0.0
 10
17.2316038838
 20
12.0640456497
 30
0.0
 10
17.2633431909
 20
12.0822403654
 30
0.0
 10
17.2916816474
 20
12.1043969323
 30
0.0
 10
17.3155685492
 20
12.1296998843
 30
0.0
 10
17.3340862112
 20
12.1572153981
 30
0.0
 10
17.3426487126
 20
12.1770218189
 30
0.0
 10
17.3457123996
 20
12.1869359138
 30
0.0
  0
SPLINE
  5
39F
100
AcDbEntity
  8
0
100
AcDbSpline
 62
7
  6
CONTINUOUS
 70
0
 71
3
 72
14
 73
10
 74
0
 42
0.0000001
 43
0.0000001
 44
0.0000000001
 40
0.0
 40
0.0
 40
0.0
 40
0.0
 40
0.2640966488
 40
0.3918604383
 40
0.5169364325
 40
0.6397510525
 40
0.7608190775
 40
0.8807065102
 40
1.0
 40
1.0
 40
1.0
 40
1.0
 10
17.3457123996
 20
12.1869359138
 30
0.0
 10
17.3479138941
 20
12.1940599527
 30
0.0
 10
17.3503564853
 20
12.2049219606
 30
0.0
 10
17.3516416769
 20
12.2194753445
 30
0.0
 10
17.3515933006
 20
12.2300981051
 30
0.0
 10
17.3505462329
 20
12.2404786943
 30
0.0
 10
17.3485069343
 20
12.2505627864
 30
0.0
 10
17.3454822534
 20
12.2602915905
 30
0.0
 10
17.3428198086
 20
12.2665129745
 30
0.0
 10
17.3413363925
 20
12.2695368127
 30
0.0
  0
SPLINE
  5
3A0
100
AcDbEntity
  8
0
100
AcDbSpline
 62
7
  6
CONTINUOUS
 70
0
 71
3
 72
12
 73
8
 74
0
 42
0.0000001
 43
0.0000001
 44
0.0000000001
 40
0.0
 40
0.0
 40
0.0
 40
0.0
 40
0.2621415719
 40
0.5181374754
 40
0.7652649574
 40
0.8844714305
 40
1.0
 40
1.0
 40
1.0
 40
1.0
 10
16.8490944472
 20
12.6686384853
 30
0.0
 10
16.8526187456
 20
12.6704092681
 30
0.0
 10
16.8597262274
 20
12.6736384447
 30
0.0
 10
16.8706027888
 20
12.6774625195
 30
0.0
 10
16.8797380402
 20
12.679632381
 30
0.0
 10
16.8869324191
 20
12.6805731315
 30
0.0
 10
16.8904656059
 20
12.6807474074
 30
0.0
 10
16.8922038364
 20
12.6807473556
 30
0.0
  0
SPLINE
  5
3A1
100
AcDbEntity
  8
0
100
AcDbSpline
 62
7
  6
CONTINUOUS
 70
0
 71
3
 72
11
 73
7
 74
0
 42
0.0000001
 43
0.0000001
 44
0.0000000001
 40
0.0
 40
0.0
 40
0.0
 40
0.0
 40
0.2519956695
 40
0.5022826789
 40
0.7514239717
 40
1.0
 40
1.0
 40
1.0
 40
1.0
 10
13.9596929709
 20
12.535114056
 30
0.0
 10
13.9599927201
 20
12.5444323346
 30
0.0
 10
13.9611904681
 20
12.5629923536
 30
0.0
 10
13.9648158004
 20
12.5905755922
 30
0.0
 10
13.9702597289
 20
12.617729492
 30
0.0
 10
13.9750995227
 20
12.6355134877
 30
0.0
 10
13.9778147893
 20
12.6443000937
 30
0.0
  0
SPLINE
  5
3A2
100
AcDbEntity
  8
0
100
AcDbSpline
 62
7
  6
CONTINUOUS
 70
0
 71
3
 72
23
 73
19
 74
0
 42
0.0000001
 43
0.0000001
 44
0.0000000001
 40
0.0
 40
0.0
 40
0.0
 40
0.0
 40
0.0555753252
 40
0.113746213
 40
0.1742701527
 40
0.2368394337
 40
0.3011023466
 40
0.3666655325
 40
0.4331118209
 40
0.500003202
 40
0.5668951197
 40
0.6333411746
 40
0.6989051755
 40
0.7631661644
 40
0.8257355025
 40
0.8862592299
 40
0.9444309566
 40
1.0
 40
1.0
 40
1.0
 40
1.0
 10
15.3009216638
 20
11.8217436447
 30
0.0
 10
15.2877657539
 20
11.8186491059
 30
0.0
 10
15.260546808
 20
11.8135148991
 30
0.0
 10
15.2183765138
 20
11.8089488315
 30
0.0
 10
15.1742875842
 20
11.8073849672
 30
0.0
 10
15.1287166592
 20
11.8088275753
 30
0.0
 10
15.0821110341
 20
11.8132721502
 30
0.0
 10
15.0349286572
 20
11.8206650136
 30
0.0
 10
14.9876361106
 20
11.8309417048
 30
0.0
 10
14.9406983257
 20
11.8439939821
 30
0.0
 10
14.8945799314
 20
11.8596978779
 30
0.0
 10
14.8497352252
 20
11.8778958969
 30
0.0
 10
14.8066071178
 20
11.8984086308
 30
0.0
 10
14.7656213332
 20
11.9210354489
 30
0.0
 10
14.7271795369
 20
11.9455503551
 30
0.0
 10
14.691662979
 20
11.9717202411
 30
0.0
 10
14.6594183298
 20
11.9992765054
 30
0.0
 10
14.6398443855
 20
12.0188729597
 30
0.0
 10
14.6307284974
 20
12.0288486015
 30
0.0
  0
SPLINE
  5
3A3
100
AcDbEntity
  8
0
100
AcDbSpline
 62
7
  6
CONTINUOUS
 70
0
 71
3
 72
10
 73
6
 74
0
 42
0.0000001
 43
0.0000001
 44
0.0000000001
 40
0.0
 40
0.0
 40
0.0
 40
0.0
 40
0.5174888801
 40
0.7631874385
 40
1.0
 40
1.0
 40
1.0
 40
1.0
 10
14.6251299216
 20
12.0349752148
 30
0.0
 10
14.6141204665
 20
12.0470230557
 30
0.0
 10
14.5987908998
 20
12.0656755894
 30
0.0
 10
14.5811626613
 20
12.0918458267
 30
0.0
 10
14.5735152653
 20
12.1050197915
 30
0.0
 10
14.5700057338
 20
12.1116124102
 30
0.0
  0
SPLINE
  5
3A4
100
AcDbEntity
  8
0
100
AcDbSpline
 62
7
  6
CONTINUOUS
 70
0
 71
3
 72
13
 73
9
 74
0
 42
0.0000001
 43
0.0000001
 44
0.0000000001
 40
0.0
 40
0.0
 40
0.0
 40
0.0
 40
0.1164751147
 40
0.2338494759
 40
0.353011747
 40
0.4747898186
 40
0.7287547047
 40
1.0
 40
1.0
 40
1.0
 40
1.0
 10
15.2625215387
 20
12.0386625713
 30
0.0
 10
15.2633943009
 20
12.041484529
 30
0.0
 10
15.2648403265
 20
12.0472501664
 30
0.0
 10
15.2660729952
 20
12.0561335653
 30
0.0
 10
15.2663728511
 20
12.0652321857
 30
0.0
 10
15.2655170479
 20
12.0777727501
 30
0.0
 10
15.2619885008
 20
12.0938970091
 30
0.0
 10
15.2569634407
 20
12.1062986054
 30
0.0
 10
15.2539330141
 20
12.1124739655
 30
0.0
  0
SPLINE
  5
3A5
100
AcDbEntity
  8
0
100
AcDbSpline
 62
7
  6
CONTINUOUS
 70
0
 71
3
 72
11
 73
7
 74
0
 42
0.0000001
 43
0.0000001
 44
0.0000000001
 40
0.0
 40
0.0
 40
0.0
 40
0.0
 40
0.267268261
 40
0.5217541886
 40
0.7652063051
 40
1.0
 40
1.0
 40
1.0
 40
1.0
 10
14.5428816018
 20
12.4343986848
 30
0.0
 10
14.5374339121
 20
12.4454999093
 30
0.0
 10
14.5278889338
 20
12.467733906
 30
0.0
 10
14.5177278371
 20
12.5017372017
 30
0.0
 10
14.5121927443
 20
12.5352794093
 30
0.0
 10
14.5116207743
 20
12.5574881119
 30
0.0
 10
14.5121478782
 20
12.5683386569
 30
0.0
  0
SPLINE
  5
3A6
100
AcDbEntity
  8
0
100
AcDbSpline
 62
7
  6
CONTINUOUS
 70
0
 71
3
 72
9
 73
5
 74
0
 42
0.0000001
 43
0.0000001
 44
0.0000000001
 40
0.0
 40
0.0
 40
0.0
 40
0.0
 40
0.5114667849
 40
1.0
 40
1.0
 40
1.0
 40
1.0
 10
14.5800838609
 20
12.3731431035
 30
0.0
 10
14.5729029197
 20
12.3830426054
 30
0.0
 10
14.559595473
 20
12.4029431597
 30
0.0
 10
14.5480277371
 20
12.4239119636
 30
0.0
 10
14.5428816018
 20
12.4343986848
 30
0.0
  0
SPLINE
  5
3A7
100
AcDbEntity
  8
0
100
AcDbSpline
 62
7
  6
CONTINUOUS
 70
0
 71
3
 72
18
 73
14
 74
0
 42
0.0000001
 43
0.0000001
 44
0.0000000001
 40
0.0
 40
0.0
 40
0.0
 40
0.0
 40
0.053931713
 40
0.1081195775
 40
0.1628148187
 40
0.2182556554
 40
0.2746652938
 40
0.3322493919
 40
0.4515601778
 40
0.5774151183
 40
0.7105686788
 40
0.8514098575
 40
1.0
 40
1.0
 40
1.0
 40
1.0
 10
15.5037972679
 20
11.972684038
 30
0.0
 10
15.5024357538
 20
11.9682766526
 30
0.0
 10
15.4993315572
 20
11.9595517147
 30
0.0
 10
15.4935679428
 20
11.9468574888
 30
0.0
 10
15.4867088273
 20
11.9345715413
 30
0.0
 10
15.4787738701
 20
11.9227232517
 30
0.0
 10
15.4697810796
 20
11.911339907
 30
0.0
 10
15.4562503544
 20
11.8966509898
 30
0.0
 10
15.4366591249
 20
11.8795789821
 30
0.0
 10
15.4096331264
 20
11.8616407082
 30
0.0
 10
15.3790685382
 20
11.8461401613
 30
0.0
 10
15.3452546308
 20
11.8332135103
 30
0.0
 10
15.3213725594
 20
11.8265532625
 30
0.0
 10
15.3090009799
 20
11.8236432146
 30
0.0
  0
SPLINE
  5
3A8
100
AcDbEntity
  8
0
100
AcDbSpline
 62
7
  6
CONTINUOUS
 70
0
 71
3
 72
11
 73
7
 74
0
 42
0.0000001
 43
0.0000001
 44
0.0000000001
 40
0.0
 40
0.0
 40
0.0
 40
0.0
 40
0.2192456425
 40
0.4522511997
 40
0.710077653
 40
1.0
 40
1.0
 40
1.0
 40
1.0
 10
15.5192978794
 20
12.1560571828
 30
0.0
 10
15.5202972188
 20
12.1560580458
 30
0.0
 10
15.5223679733
 20
12.1563598041
 30
0.0
 10
15.5253629264
 20
12.1576664344
 30
0.0
 10
15.5282480232
 20
12.1597893768
 30
0.0
 10
15.5299758254
 20
12.1616074679
 30
0.0
 10
15.5308226597
 20
12.1626219666
 30
0.0
  0
SPLINE
  5
3A9
100
AcDbEntity
  8
0
100
AcDbSpline
 62
7
  6
CONTINUOUS
 70
0
 71
3
 72
11
 73
7
 74
0
 42
0.0000001
 43
0.0000001
 44
0.0000000001
 40
0.0
 40
0.0
 40
0.0
 40
0.0
 40
0.2902345343
 40
0.5480167421
 40
0.7809048313
 40
1.0
 40
1.0
 40
1.0
 40
1.0
 10
15.5308224547
 20
12.2894896429
 30
0.0
 10
15.5299752596
 20
12.2905058985
 30
0.0
 10
15.5282470976
 20
12.2923260929
 30
0.0
 10
15.5253599632
 20
12.2944477741
 30
0.0
 10
15.5223672008
 20
12.2957567781
 30
0.0
 10
15.5202966518
 20
12.2960564145
 30
0.0
 10
15.5192978796
 20
12.296055552
 30
0.0
  0
SPLINE
  5
3AA
100
AcDbEntity
  8
0
100
AcDbSpline
 62
7
  6
CONTINUOUS
 70
0
 71
3
 72
9
 73
5
 74
0
 42
0.0000001
 43
0.0000001
 44
0.0000000001
 40
0.0
 40
0.0
 40
0.0
 40
0.0
 40
0.2463180752
 40
1.0
 40
1.0
 40
1.0
 40
1.0
 10
13.9039125486
 20
12.0400621182
 30
0.0
 10
13.906138835
 20
12.0400621182
 30
0.0
 10
13.9151766638
 20
12.0402120358
 30
0.0
 10
13.9242032127
 20
12.0409477791
 30
0.0
 10
13.9309610506
 20
12.0418048615
 30
0.0
  0
SPLINE
  5
3AB
100
AcDbEntity
  8
0
100
AcDbSpline
 62
7
  6
CONTINUOUS
 70
0
 71
3
 72
16
 73
12
 74
0
 42
0.0000001
 43
0.0000001
 44
0.0000000001
 40
0.0
 40
0.0
 40
0.0
 40
0.0
 40
0.1115382726
 40
0.2301493137
 40
0.3548520562
 40
0.484005958
 40
0.6154475552
 40
0.7467777751
 40
0.8756567584
 40
0.9385610075
 40
1.0
 40
1.0
 40
1.0
 40
1.0
 10
13.4820434862
 20
12.0833342524
 30
0.0
 10
13.4851071732
 20
12.0932483473
 30
0.0
 10
13.4936696746
 20
12.1130547681
 30
0.0
 10
13.5121873366
 20
12.1405702819
 30
0.0
 10
13.5360742384
 20
12.1658732339
 30
0.0
 10
13.5644126949
 20
12.1880298007
 30
0.0
 10
13.596152002
 20
12.2062245165
 30
0.0
 10
13.6300966571
 20
12.2197859206
 30
0.0
 10
13.6594375705
 20
12.2268604934
 30
0.0
 10
13.6828408374
 20
12.229716295
 30
0.0
 10
13.6944140384
 20
12.2302080479
 30
0.0
 10
13.7001298582
 20
12.2302080479
 30
0.0
  0
SPLINE
  5
3AC
100
AcDbEntity
  8
0
100
AcDbSpline
 62
7
  6
CONTINUOUS
 70
0
 71
3
 72
11
 73
7
 74
0
 42
0.0000001
 43
0.0000001
 44
0.0000000001
 40
0.0
 40
0.0
 40
0.0
 40
0.0
 40
0.2657269582
 40
0.5213105575
 40
0.765890822
 40
1.0
 40
1.0
 40
1.0
 40
1.0
 10
17.26924121
 20
12.2302080479
 30
0.0
 10
17.2767284731
 20
12.2302080479
 30
0.0
 10
17.2914332067
 20
12.2293918771
 30
0.0
 10
17.3127347592
 20
12.225600134
 30
0.0
 10
17.3325075005
 20
12.2193020801
 30
0.0
 10
17.3446912252
 20
12.2133754017
 30
0.0
 10
17.3503729507
 20
12.2100242414
 30
0.0
  0
SPLINE
  5
3AD
100
AcDbEntity
  8
0
100
AcDbSpline
 62
7
  6
CONTINUOUS
 70
0
 71
3
 72
16
 73
12
 74
0
 42
0.0000001
 43
0.0000001
 44
0.0000000001
 40
0.0
 40
0.0
 40
0.0
 40
0.0
 40
0.1115382726
 40
0.2301493137
 40
0.3548520562
 40
0.484005958
 40
0.6154475552
 40
0.7467777751
 40
0.8756567584
 40
0.9385610075
 40
1.0
 40
1.0
 40
1.0
 40
1.0
 10
16.7057569652
 20
12.0833342524
 30
0.0
 10
16.7088206522
 20
12.0932483473
 30
0.0
 10
16.7173831536
 20
12.1130547681
 30
0.0
 10
16.7359008156
 20
12.1405702819
 30
0.0
 10
16.7597877174
 20
12.1658732339
 30
0.0
 10
16.7881261739
 20
12.1880298007
 30
0.0
 10
16.819865481
 20
12.2062245165
 30
0.0
 10
16.8538101361
 20
12.2197859206
 30
0.0
 10
16.8831510495
 20
12.2268604934
 30
0.0
 10
16.9065543164
 20
12.229716295
 30
0.0
 10
16.9181275174
 20
12.2302080479
 30
0.0
 10
16.9238433372
 20
12.2302080479
 30
0.0
  0
SPLINE
  5
3AE
100
AcDbEntity
  8
0
100
AcDbSpline
 62
7
  6
CONTINUOUS
 70
0
 71
3
 72
15
 73
11
 74
0
 42
0.0000001
 43
0.0000001
 44
0.0000000001
 40
0.0
 40
0.0
 40
0.0
 40
0.0
 40
0.141115166
 40
0.2775833273
 40
0.4087865818
 40
0.5346688133
 40
0.655761567
 40
0.7728969663
 40
0.8872030452
 40
1.0
 40
1.0
 40
1.0
 40
1.0
 10
14.9231910918
 20
12.5916942352
 30
0.0
 10
14.925756851
 20
12.5916942352
 30
0.0
 10
14.930808423
 20
12.5914340908
 30
0.0
 10
14.9381600654
 20
12.5902403956
 30
0.0
 10
14.9450549401
 20
12.5882571647
 30
0.0
 10
14.9513786598
 20
12.5855044744
 30
0.0
 10
14.9570415301
 20
12.5820301947
 30
0.0
 10
14.9619542485
 20
12.5778718573
 30
0.0
 10
14.9660439033
 20
12.5730988971
 30
0.0
 10
14.9681844318
 20
12.5695406085
 30
0.0
 10
14.9690875632
 20
12.5676992912
 30
0.0
  0
SPLINE
  5
3AF
100
AcDbEntity
  8
0
100
AcDbSpline
 62
7
  6
CONTINUOUS
 70
0
 71
3
 72
15
 73
11
 74
0
 42
0.0000001
 43
0.0000001
 44
0.0000000001
 40
0.0
 40
0.0
 40
0.0
 40
0.0
 40
0.1285012329
 40
0.2524481049
 40
0.3734590055
 40
0.4933826865
 40
0.6143797873
 40
0.7383732827
 40
0.8667420239
 40
1.0
 40
1.0
 40
1.0
 40
1.0
 10
16.8689264373
 20
12.6581581528
 30
0.0
 10
16.8700805917
 20
12.6575532606
 30
0.0
 10
16.8722646813
 20
12.6561913827
 30
0.0
 10
16.8750863395
 20
12.6536348213
 30
0.0
 10
16.8773341434
 20
12.6506671496
 30
0.0
 10
16.8789501424
 20
12.6473459829
 30
0.0
 10
16.8799113968
 20
12.6437503099
 30
0.0
 10
16.8802139501
 20
12.6399567569
 30
0.0
 10
16.879870022
 20
12.6360459705
 30
0.0
 10
16.8792512352
 20
12.6334559029
 30
0.0
 10
16.8788522686
 20
12.6321648464
 30
0.0
  0
SPLINE
  5
3B0
100
AcDbEntity
  8
0
100
AcDbSpline
 62
7
  6
CONTINUOUS
 70
0
 71
3
 72
18
 73
14
 74
0
 42
0.0000001
 43
0.0000001
 44
0.0000000001
 40
0.0
 40
0.0
 40
0.0
 40
0.0
 40
0.0563355619
 40
0.1128605543
 40
0.1697626303
 40
0.2272182918
 40
0.2853925853
 40
0.3444367274
 40
0.4655305692
 40
0.5913466475
 40
0.7223664086
 40
0.8587441307
 40
1.0
 40
1.0
 40
1.0
 40
1.0
 10
17.3413363925
 20
12.2695368127
 30
0.0
 10
17.340127647
 20
12.2720007544
 30
0.0
 10
17.3374967878
 20
12.2768374141
 30
0.0
 10
17.3329410801
 20
12.2837508302
 30
0.0
 10
17.3277916578
 20
12.2903041101
 30
0.0
 10
17.3220700213
 20
12.2964735049
 30
0.0
 10
17.3157960528
 20
12.3022359522
 30
0.0
 10
17.3066501846
 20
12.3094030703
 30
0.0
 10
17.2938996418
 20
12.3172341505
 30
0.0
 10
17.2769659896
 20
12.3245973257
 30
0.0
 10
17.2585119381
 20
12.3299200716
 30
0.0
 10
17.2388200093
 20
12.3331180122
 30
0.0
 10
17.2252823681
 20
12.3338097093
 30
0.0
 10
17.2184008989
 20
12.3338097093
 30
0.0
  0
SPLINE
  5
3B1
100
AcDbEntity
  8
0
100
AcDbSpline
 62
7
  6
CONTINUOUS
 70
0
 71
3
 72
23
 73
19
 74
0
 42
0.0000001
 43
0.0000001
 44
0.0000000001
 40
0.0
 40
0.0
 40
0.0
 40
0.0
 40
0.0548768672
 40
0.1116051155
 40
0.1700855296
 40
0.23023096
 40
0.2919185278
 40
0.3549532296
 40
0.4191027915
 40
0.484106192
 40
0.5496839051
 40
0.6155403121
 40
0.6813726741
 40
0.7468731459
 40
0.8117450061
 40
0.8757329396
 40
0.9385864901
 40
1.0
 40
1.0
 40
1.0
 40
1.0
 10
16.355283805
 20
12.1869359138
 30
0.0
 10
16.3586550286
 20
12.1978451976
 30
0.0
 10
16.3667089901
 20
12.2196766343
 30
0.0
 10
16.3821758508
 20
12.2515638595
 30
0.0
 10
16.4010991953
 20
12.282817727
 30
0.0
 10
16.4232752266
 20
12.3131357816
 30
0.0
 10
16.4485004646
 20
12.3422305471
 30
0.0
 10
16.4765241227
 20
12.3698374518
 30
0.0
 10
16.5070886147
 20
12.3956808534
 30
0.0
 10
16.539891138
 20
12.4195257497
 30
0.0
 10
16.5746260982
 20
12.4411341751
 30
0.0
 10
16.6109548815
 20
12.4603114731
 30
0.0
 10
16.6485360607
 20
12.4768609295
 30
0.0
 10
16.687002484
 20
12.4906385869
 30
0.0
 10
16.7259942385
 20
12.5015007966
 30
0.0
 10
16.7651427983
 20
12.509352529
 30
0.0
 10
16.8040616679
 20
12.5141021194
 30
0.0
 10
16.8299287021
 20
12.5151990123
 30
0.0
 10
16.8427070921
 20
12.5151990123
 30
0.0
  0
SPLINE
  5
3B2
100
AcDbEntity
  8
0
100
AcDbSpline
 62
7
  6
CONTINUOUS
 70
0
 71
3
 72
16
 73
12
 74
0
 42
0.0000001
 43
0.0000001
 44
0.0000000001
 40
0.0
 40
0.0
 40
0.0
 40
0.0
 40
0.0614389925
 40
0.1243432416
 40
0.2532222249
 40
0.3845524448
 40
0.515994042
 40
0.6451479438
 40
0.7698506863
 40
0.8884617274
 40
1.0
 40
1.0
 40
1.0
 40
1.0
 10
16.8730030261
 20
12.3338097093
 30
0.0
 10
16.8672872063
 20
12.3338097093
 30
0.0
 10
16.8557140053
 20
12.3333179564
 30
0.0
 10
16.8323107384
 20
12.3304621548
 30
0.0
 10
16.802969825
 20
12.3233875819
 30
0.0
 10
16.7690251699
 20
12.3098261779
 30
0.0
 10
16.7372858628
 20
12.2916314621
 30
0.0
 10
16.7089474063
 20
12.2694748953
 30
0.0
 10
16.6850605045
 20
12.2441719432
 30
0.0
 10
16.6665428425
 20
12.2166564294
 30
0.0
 10
16.6579803411
 20
12.1968500087
 30
0.0
 10
16.6549166541
 20
12.1869359138
 30
0.0
  0
SPLINE
  5
3B3
100
AcDbEntity
  8
0
100
AcDbSpline
 62
7
  6
CONTINUOUS
 70
0
 71
3
 72
14
 73
10
 74
0
 42
0.0000001
 43
0.0000001
 44
0.0000000001
 40
0.0
 40
0.0
 40
0.0
 40
0.0
 40
0.2640966488
 40
0.3918604383
 40
0.5169364325
 40
0.6397510525
 40
0.7608190775
 40
0.8807065102
 40
1.0
 40
1.0
 40
1.0
 40
1.0
 10
16.6549166541
 20
12.1869359138
 30
0.0
 10
16.6527151596
 20
12.1798118749
 30
0.0
 10
16.6502725684
 20
12.1689498669
 30
0.0
 10
16.6489873768
 20
12.154396483
 30
0.0
 10
16.6490357531
 20
12.1437737225
 30
0.0
 10
16.6500828208
 20
12.1333931332
 30
0.0
 10
16.6521221194
 20
12.1233090411
 30
0.0
 10
16.6551468002
 20
12.1135802371
 30
0.0
 10
16.6578092451
 20
12.1073588531
 30
0.0
 10
16.6592926612
 20
12.1043350148
 30
0.0
  0
SPLINE
  5
3B4
100
AcDbEntity
  8
0
100
AcDbSpline
 62
7
  6
CONTINUOUS
 70
0
 71
3
 72
26
 73
22
 74
0
 42
0.0000001
 43
0.0000001
 44
0.0000000001
 40
0.0
 40
0.0
 40
0.0
 40
0.0
 40
0.057745906
 40
0.1224571719
 40
0.1927091974
 40
0.2670533414
 40
0.3439785945
 40
0.4218938213
 40
0.4992590886
 40
0.5746152986
 40
0.6466245549
 40
0.714096554
 40
0.776110181
 40
0.8320310309
 40
0.8816595905
 40
0.9042133893
 40
0.9253729269
 40
0.9452933149
 40
0.9641818784
 40
0.9823102152
 40
1.0
 40
1.0
 40
1.0
 40
1.0
 10
15.5023532369
 20
12.1712234837
 30
0.0
 10
15.5011766544
 20
12.1736211066
 30
0.0
 10
15.4989467507
 20
12.178836709
 30
0.0
 10
15.496068997
 20
12.1872787347
 30
0.0
 10
15.4935478659
 20
12.1966319067
 30
0.0
 10
15.4914772703
 20
12.20667182
 30
0.0
 10
15.4899462417
 20
12.2171667809
 30
0.0
 10
15.4890401991
 20
12.2278749754
 30
0.0
 10
15.4888280879
 20
12.2385480547
 30
0.0
 10
15.4893650319
 20
12.2489377833
 30
0.0
 10
15.49066971
 20
12.2588004802
 30
0.0
 10
15.492746902
 20
12.2679006971
 30
0.0
 10
15.4955492816
 20
12.276026815
 30
0.0
 10
15.4990197935
 20
12.2829830917
 30
0.0
 10
15.5024889335
 20
12.2878312071
 30
0.0
 10
15.5055230987
 20
12.2909133327
 30
0.0
 10
15.5078184173
 20
12.2927668131
 30
0.0
 10
15.5101871704
 20
12.2942255548
 30
0.0
 10
15.5126124513
 20
12.2952770848
 30
0.0
 10
15.5150726996
 20
12.2959113723
 30
0.0
 10
15.5167324256
 20
12.2960546293
 30
0.0
 10
15.5175505808
 20
12.2960548998
 30
0.0
  0
SPLINE
  5
3B5
100
AcDbEntity
  8
0
100
AcDbSpline
 62
7
  6
CONTINUOUS
 70
0
 71
3
 72
17
 73
13
 74
0
 42
0.0000001
 43
0.0000001
 44
0.0000000001
 40
0.0
 40
0.0
 40
0.0
 40
0.0
 40
0.1184419
 40
0.1797933192
 40
0.242337697
 40
0.3701127917
 40
0.5000276826
 40
0.6299390572
 40
0.7577068509
 40
0.8202476637
 40
0.8815906807
 40
1.0
 40
1.0
 40
1.0
 40
1.0
 10
15.7887212224
 20
13.1029047271
 30
0.0
 10
15.781106467
 20
13.1033701292
 30
0.0
 10
15.7695888468
 20
13.1053185669
 30
0.0
 10
15.7547058725
 20
13.1100687429
 30
0.0
 10
15.7397531058
 20
13.1163831537
 30
0.0
 10
15.7218879655
 20
13.1269110824
 30
0.0
 10
15.7026951721
 20
13.1430500444
 30
0.0
 10
15.6863921154
 20
13.1621030039
 30
0.0
 10
15.675711711
 20
13.1798764324
 30
0.0
 10
15.6692710731
 20
13.1947739444
 30
0.0
 10
15.6643949795
 20
13.2096130017
 30
0.0
 10
15.6623468302
 20
13.2211107542
 30
0.0
 10
15.6618174963
 20
13.228719229
 30
0.0
  0
SPLINE
  5
3B6
100
AcDbEntity
  8
0
100
AcDbSpline
 62
7
  6
CONTINUOUS
 70
0
 71
3
 72
10
 73
6
 74
0
 42
0.0000001
 43
0.0000001
 44
0.0000000001
 40
0.0
 40
0.0
 40
0.0
 40
0.0
 40
0.5182633422
 40
0.7637563973
 40
1.0
 40
1.0
 40
1.0
 40
1.0
 10
14.6250856123
 20
12.0351414764
 30
0.0
 10
14.6143784897
 20
12.0473127559
 30
0.0
 10
14.5995604345
 20
12.0661550346
 30
0.0
 10
14.5827739809
 20
12.0925683887
 30
0.0
 10
14.5756032145
 20
12.1058402882
 30
0.0
 10
14.5723478785
 20
12.1124739655
 30
0.0
  0
SPLINE
  5
3B7
100
AcDbEntity
  8
0
100
AcDbSpline
 62
7
  6
CONTINUOUS
 70
0
 71
3
 72
13
 73
9
 74
0
 42
0.0000001
 43
0.0000001
 44
0.0000000001
 40
0.0
 40
0.0
 40
0.0
 40
0.0
 40
0.1164751147
 40
0.2338494759
 40
0.353011747
 40
0.4747898186
 40
0.7287547047
 40
1.0
 40
1.0
 40
1.0
 40
1.0
 10
14.7848139925
 20
12.1862853597
 30
0.0
 10
14.7839412303
 20
12.183463402
 30
0.0
 10
14.7824952047
 20
12.1776977645
 30
0.0
 10
14.781262536
 20
12.1688143656
 30
0.0
 10
14.7809626801
 20
12.1597157453
 30
0.0
 10
14.7818184833
 20
12.1471751809
 30
0.0
 10
14.7853470304
 20
12.1310509219
 30
0.0
 10
14.7903720905
 20
12.1186493256
 30
0.0
 10
14.7934025171
 20
12.1124739655
 30
0.0
  0
SPLINE
  5
3B8
100
AcDbEntity
  8
0
100
AcDbSpline
 62
7
  6
CONTINUOUS
 70
0
 71
3
 72
26
 73
22
 74
0
 42
0.0000001
 43
0.0000001
 44
0.0000000001
 40
0.0
 40
0.0
 40
0.0
 40
0.0
 40
0.0588502044
 40
0.124570295
 40
0.1959213879
 40
0.2715659883
 40
0.350066229
 40
0.429806495
 40
0.5091249533
 40
0.5863913269
 40
0.6600352049
 40
0.7286501735
 40
0.7910020605
 40
0.8462235373
 40
0.871004509
 40
0.8938886911
 40
0.9149384947
 40
0.9342728222
 40
0.9686078297
 40
0.9844525903
 40
1.0
 40
1.0
 40
1.0
 40
1.0
 10
15.51398451
 20
12.1790567528
 30
0.0
 10
15.5129680078
 20
12.1811281666
 30
0.0
 10
15.5111097624
 20
12.1856582232
 30
0.0
 10
15.5088901092
 20
12.1930212156
 30
0.0
 10
15.5071424415
 20
12.2011847004
 30
0.0
 10
15.5059032873
 20
12.2099451783
 30
0.0
 10
15.5052078721
 20
12.2190948883
 30
0.0
 10
15.5050665487
 20
12.2284136691
 30
0.0
 10
15.5054908703
 20
12.2376755146
 30
0.0
 10
15.5064629135
 20
12.246656116
 30
0.0
 10
15.5079656525
 20
12.2551381264
 30
0.0
 10
15.5099537934
 20
12.262919699
 30
0.0
 10
15.5123873508
 20
12.2698130735
 30
0.0
 10
15.514811489
 20
12.2748595566
 30
0.0
 10
15.5169574599
 20
12.2782802038
 30
0.0
 10
15.5185799929
 20
12.2804353191
 30
0.0
 10
15.5202663533
 20
12.2822627756
 30
0.0
 10
15.5224941433
 20
12.2841694696
 30
0.0
 10
15.5249366099
 20
12.2855079487
 30
0.0
 10
15.5274693372
 20
12.2860576648
 30
0.0
 10
15.5287101139
 20
12.2860737455
 30
0.0
 10
15.52931732
 20
12.2860200049
 30
0.0
  0
SPLINE
  5
3B9
100
AcDbEntity
  8
0
100
AcDbSpline
 62
7
  6
CONTINUOUS
 70
0
 71
3
 72
11
 73
7
 74
0
 42
0.0000001
 43
0.0000001
 44
0.0000000001
 40
0.0
 40
0.0
 40
0.0
 40
0.0
 40
0.2190573712
 40
0.4533824433
 40
0.7117040003
 40
1.0
 40
1.0
 40
1.0
 40
1.0
 10
15.52931732
 20
12.2860200049
 30
0.0
 10
15.5301114456
 20
12.2859497211
 30
0.0
 10
15.5317412886
 20
12.28558359
 30
0.0
 10
15.5340814995
 20
12.284429417
 30
0.0
 10
15.5363466469
 20
12.2826882445
 30
0.0
 10
15.5377147985
 20
12.2812333834
 30
0.0
 10
15.5383866443
 20
12.2804274839
 30
0.0
  0
SPLINE
  5
3BA
100
AcDbEntity
  8
0
100
AcDbSpline
 62
7
  6
CONTINUOUS
 70
0
 71
3
 72
26
 73
22
 74
0
 42
0.0000001
 43
0.0000001
 44
0.0000000001
 40
0.0
 40
0.0
 40
0.0
 40
0.0
 40
0.0228671045
 40
0.045828513
 40
0.0689771114
 40
0.0924014838
 40
0.1161851488
 40
0.1404061133
 40
0.1904027209
 40
0.2163182473
 40
0.2428994272
 40
0.298174317
 40
0.356438529
 40
0.4177704048
 40
0.482137096
 40
0.5494267666
 40
0.6194446418
 40
0.6919422286
 40
0.7666120652
 40
0.8431117357
 40
1.0
 40
1.0
 40
1.0
 40
1.0
 10
14.5483795898
 20
12.2679304312
 30
0.0
 10
14.5496480216
 20
12.2720364979
 30
0.0
 10
14.5525150484
 20
12.2801692186
 30
0.0
 10
14.5577771064
 20
12.292030123
 30
0.0
 10
14.5639920029
 20
12.3035403929
 30
0.0
 10
14.5711437578
 20
12.3146762499
 30
0.0
 10
14.5792180672
 20
12.3254159007
 30
0.0
 10
14.5913175535
 20
12.3393184759
 30
0.0
 10
14.6051283222
 20
12.3521963765
 30
0.0
 10
14.6203788878
 20
12.363975864
 30
0.0
 10
14.6371274059
 20
12.3753850056
 30
0.0
 10
14.6601330781
 20
12.388313072
 30
0.0
 10
14.6903131337
 20
12.4014451044
 30
0.0
 10
14.7231868786
 20
12.4122922018
 30
0.0
 10
14.7584867565
 20
12.4207829711
 30
0.0
 10
14.7959342788
 20
12.4268424241
 30
0.0
 10
14.8352293436
 20
12.4304356306
 30
0.0
 10
14.8760575041
 20
12.4315237074
 30
0.0
 10
14.918094298
 20
12.4301095984
 30
0.0
 10
14.975771218
 20
12.4248462598
 30
0.0
 10
15.0190824906
 20
12.41725038
 30
0.0
 10
15.0478251413
 20
12.410676898
 30
0.0
  0
SPLINE
  5
3BB
100
AcDbEntity
  8
0
100
AcDbSpline
 62
7
  6
CONTINUOUS
 70
0
 71
3
 72
13
 73
9
 74
0
 42
0.0000001
 43
0.0000001
 44
0.0000000001
 40
0.0
 40
0.0
 40
0.0
 40
0.0
 40
0.2532749358
 40
0.3800839734
 40
0.5064657543
 40
0.6320291987
 40
0.756394307
 40
1.0
 40
1.0
 40
1.0
 40
1.0
 10
15.0478251413
 20
12.410676898
 30
0.0
 10
15.0698870674
 20
12.4056313065
 30
0.0
 10
15.1027153416
 20
12.3967502295
 30
0.0
 10
15.1456449257
 20
12.3824044211
 30
0.0
 10
15.1773104029
 20
12.3704326062
 30
0.0
 10
15.2082773704
 20
12.3573037394
 30
0.0
 10
15.248164418
 20
12.338476255
 30
0.0
 10
15.2770344853
 20
12.3226326171
 30
0.0
 10
15.2956352058
 20
12.3113260296
 30
0.0
  0
SPLINE
  5
3BC
100
AcDbEntity
  8
0
100
AcDbSpline
 62
7
  6
CONTINUOUS
 70
0
 71
3
 72
14
 73
10
 74
0
 42
0.0000001
 43
0.0000001
 44
0.0000000001
 40
0.0
 40
0.0
 40
0.0
 40
0.0
 40
0.2781126328
 40
0.4110031942
 40
0.53916531
 40
0.6622917064
 40
0.7802035678
 40
0.8927920025
 40
1.0
 40
1.0
 40
1.0
 40
1.0
 10
15.2956352058
 20
12.3113260296
 30
0.0
 10
15.3173033447
 20
12.2981548889
 30
0.0
 10
15.3483708669
 20
12.2770134581
 30
0.0
 10
15.3863871651
 20
12.2458099002
 30
0.0
 10
15.4120220909
 20
12.2219002847
 30
0.0
 10
15.4350313371
 20
12.1972914575
 30
0.0
 10
15.4552632501
 20
12.1721442123
 30
0.0
 10
15.472566831
 20
12.1466335209
 30
0.0
 10
15.4823127115
 20
12.1290823769
 30
0.0
 10
15.4866189258
 20
12.1203072346
 30
0.0
  0
SPLINE
  5
3BD
100
AcDbEntity
  8
0
100
AcDbSpline
 62
7
  6
CONTINUOUS
 70
0
 71
3
 72
11
 73
7
 74
0
 42
0.0000001
 43
0.0000001
 44
0.0000000001
 40
0.0
 40
0.0
 40
0.0
 40
0.0
 40
0.2500760139
 40
0.497766778
 40
0.7465228748
 40
1.0
 40
1.0
 40
1.0
 40
1.0
 10
14.5121478782
 20
12.5683386569
 30
0.0
 10
14.5126545537
 20
12.5787686796
 30
0.0
 10
14.5151582247
 20
12.5994911085
 30
0.0
 10
14.5234964093
 20
12.629646426
 30
0.0
 10
14.53633935
 20
12.6583306349
 30
0.0
 10
14.54766899
 20
12.676078393
 30
0.0
 10
14.5539639269
 20
12.684587332
 30
0.0
  0
SPLINE
  5
3BE
100
AcDbEntity
  8
0
100
AcDbSpline
 62
7
  6
CONTINUOUS
 70
0
 71
3
 72
19
 73
15
 74
0
 42
0.0000001
 43
0.0000001
 44
0.0000000001
 40
0.0
 40
0.0
 40
0.0
 40
0.0
 40
0.0576724596
 40
0.1148436841
 40
0.171766519
 40
0.2287017708
 40
0.2859273526
 40
0.3437274746
 40
0.402373113
 40
0.462116456
 40
0.5856639698
 40
0.7159033234
 40
0.8538252289
 40
1.0
 40
1.0
 40
1.0
 40
1.0
 10
15.7341521779
 20
12.3004587126
 30
0.0
 10
15.7338582846
 20
12.294408856
 30
0.0
 10
15.7327719527
 20
12.2823795727
 30
0.0
 10
15.7296224612
 20
12.2645955799
 30
0.0
 10
15.7249712821
 20
12.2472224334
 30
0.0
 10
15.718825565
 20
12.2303142043
 30
0.0
 10
15.7112007621
 20
12.2139180831
 30
0.0
 10
15.7021221104
 20
12.1980738201
 30
0.0
 10
15.6916115002
 20
12.1828188429
 30
0.0
 10
15.6755472879
 20
12.1631023644
 30
0.0
 10
15.6518221359
 20
12.1400787712
 30
0.0
 10
15.6184952931
 20
12.1157623399
 30
0.0
 10
15.5803426416
 20
12.0946324402
 30
0.0
 10
15.5527407868
 20
12.0831359709
 30
0.0
 10
15.5383026894
 20
12.0779186152
 30
0.0
  0
SPLINE
  5
3BF
100
AcDbEntity
  8
0
100
AcDbSpline
 62
7
  6
CONTINUOUS
 70
0
 71
3
 72
20
 73
16
 74
0
 42
0.0000001
 43
0.0000001
 44
0.0000000001
 40
0.0
 40
0.0
 40
0.0
 40
0.0
 40
0.0504778748
 40
0.1017826959
 40
0.1546541844
 40
0.2096493838
 40
0.3269472829
 40
0.3896097893
 40
0.4546212613
 40
0.5216062892
 40
0.59010404
 40
0.7291766789
 40
0.8673187939
 40
0.9346945319
 40
1.0
 40
1.0
 40
1.0
 40
1.0
 10
14.9690875632
 20
12.5676992912
 30
0.0
 10
14.9700934856
 20
12.5656484021
 30
0.0
 10
14.9717326338
 20
12.5613098778
 30
0.0
 10
14.9729663308
 20
12.5543835855
 30
0.0
 10
14.9729536545
 20
12.5471440218
 30
0.0
 10
14.9712724704
 20
12.5370564733
 30
0.0
 10
14.9671087298
 20
12.5270961019
 30
0.0
 10
14.9610269545
 20
12.5178104059
 30
0.0
 10
14.9553621952
 20
12.5110368799
 30
0.0
 10
14.9488116442
 20
12.504734861
 30
0.0
 10
14.9389973036
 20
12.4970854676
 30
0.0
 10
14.9252793844
 20
12.4893485256
 30
0.0
 10
14.9103719713
 20
12.484406978
 30
0.0
 10
14.8982660258
 20
12.4823840598
 30
0.0
 10
14.8922571068
 20
12.4820284678
 30
0.0
 10
14.8893018065
 20
12.4820284678
 30
0.0
  0
SPLINE
  5
3C0
100
AcDbEntity
  8
0
100
AcDbSpline
 62
7
  6
CONTINUOUS
 70
0
 71
3
 72
11
 73
7
 74
0
 42
0.0000001
 43
0.0000001
 44
0.0000000001
 40
0.0
 40
0.0
 40
0.0
 40
0.0
 40
0.2644157633
 40
0.5191924748
 40
0.7643731629
 40
1.0
 40
1.0
 40
1.0
 40
1.0
 10
14.5418722675
 20
12.2383184975
 30
0.0
 10
14.5336138204
 20
12.2474753739
 30
0.0
 10
14.5179179128
 20
12.2659343546
 30
0.0
 10
14.4965928546
 20
12.2945300637
 30
0.0
 10
14.4780138404
 20
12.323399623
 30
0.0
 10
14.467302494
 20
12.3431284062
 30
0.0
 10
14.4624616719
 20
12.3529929644
 30
0.0
  0
SPLINE
  5
3C1
100
AcDbEntity
  8
0
100
AcDbSpline
 62
7
  6
CONTINUOUS
 70
0
 71
3
 72
15
 73
11
 74
0
 42
0.0000001
 43
0.0000001
 44
0.0000000001
 40
0.0
 40
0.0
 40
0.0
 40
0.0
 40
0.116435393
 40
0.2337672347
 40
0.3528679341
 40
0.4745595101
 40
0.599584085
 40
0.7285728384
 40
0.8619480201
 40
1.0
 40
1.0
 40
1.0
 40
1.0
 10
15.6008588665
 20
12.2867754864
 30
0.0
 10
15.6026027835
 20
12.2924207558
 30
0.0
 10
15.6054925279
 20
12.3039539048
 30
0.0
 10
15.6079621928
 20
12.3217215332
 30
0.0
 10
15.6085603056
 20
12.3399174906
 30
0.0
 10
15.6072915152
 20
12.3584675105
 30
0.0
 10
15.6041625042
 20
12.3773024234
 30
0.0
 10
15.5991824766
 20
12.3963456029
 30
0.0
 10
15.5923869939
 20
12.4155177214
 30
0.0
 10
15.586766714
 20
12.4281096929
 30
0.0
 10
15.5836805251
 20
12.4343986848
 30
0.0
  0
SPLINE
  5
3C2
100
AcDbEntity
  8
0
100
AcDbSpline
 62
7
  6
CONTINUOUS
 70
0
 71
3
 72
11
 73
7
 74
0
 42
0.0000001
 43
0.0000001
 44
0.0000000001
 40
0.0
 40
0.0
 40
0.0
 40
0.0
 40
0.2347936039
 40
0.4782456139
 40
0.7327316135
 40
1.0
 40
1.0
 40
1.0
 40
1.0
 10
14.428800927
 20
12.4996891244
 30
0.0
 10
14.4282236229
 20
12.4878051968
 30
0.0
 10
14.428850004
 20
12.4634813869
 30
0.0
 10
14.4349122013
 20
12.4267446709
 30
0.0
 10
14.446041077
 20
12.389502968
 30
0.0
 10
14.4564951508
 20
12.3651514561
 30
0.0
 10
14.4624616719
 20
12.3529929644
 30
0.0
  0
SPLINE
  5
3C3
100
AcDbEntity
  8
0
100
AcDbSpline
 62
7
  6
CONTINUOUS
 70
0
 71
3
 72
15
 73
11
 74
0
 42
0.0000001
 43
0.0000001
 44
0.0000000001
 40
0.0
 40
0.0
 40
0.0
 40
0.0
 40
0.1635555447
 40
0.315002073
 40
0.4542058198
 40
0.5813723802
 40
0.6973830936
 40
0.8040410861
 40
0.9038475751
 40
1.0
 40
1.0
 40
1.0
 40
1.0
 10
15.5023532369
 20
12.1712234837
 30
0.0
 10
15.5029266251
 20
12.1700550414
 30
0.0
 10
15.5041058442
 20
12.1678400404
 30
0.0
 10
15.5060514648
 20
12.1647889425
 30
0.0
 10
15.5080923401
 20
12.1621570306
 30
0.0
 10
15.5102160227
 20
12.159967223
 30
0.0
 10
15.5124124228
 20
12.1582405785
 30
0.0
 10
15.5146678163
 20
12.1569894493
 30
0.0
 10
15.5169683116
 20
12.1562276021
 30
0.0
 10
15.5185327136
 20
12.156056522
 30
0.0
 10
15.5192978794
 20
12.1560571828
 30
0.0
  0
SPLINE
  5
3C4
100
AcDbEntity
  8
0
100
AcDbSpline
 62
7
  6
CONTINUOUS
 70
0
 71
3
 72
15
 73
11
 74
0
 42
0.0000001
 43
0.0000001
 44
0.0000000001
 40
0.0
 40
0.0
 40
0.0
 40
0.0
 40
0.109328564
 40
0.220193994
 40
0.3346692122
 40
0.4544032258
 40
0.580537135
 40
0.7136511229
 40
0.8537527093
 40
1.0
 40
1.0
 40
1.0
 40
1.0
 10
14.8444311425
 20
12.5039341815
 30
0.0
 10
14.8452754027
 20
12.5022143032
 30
0.0
 10
14.8472930108
 20
12.4988958976
 30
0.0
 10
14.8512080814
 20
12.4944903831
 30
0.0
 10
14.8559526253
 20
12.4906973648
 30
0.0
 10
14.8614558537
 20
12.4875541117
 30
0.0
 10
14.8676430355
 20
12.4850879977
 30
0.0
 10
14.8744299574
 20
12.4833158077
 30
0.0
 10
14.8817170828
 20
12.482256131
 30
0.0
 10
14.8867389045
 20
12.4820284678
 30
0.0
 10
14.8893018065
 20
12.4820284678
 30
0.0
  0
SPLINE
  5
3C5
100
AcDbEntity
  8
0
100
AcDbSpline
 62
7
  6
CONTINUOUS
 70
0
 71
3
 72
13
 73
9
 74
0
 42
0.0000001
 43
0.0000001
 44
0.0000000001
 40
0.0
 40
0.0
 40
0.0
 40
0.0
 40
0.1839798119
 40
0.2903356384
 40
0.4080434826
 40
0.5379106798
 40
0.6800500366
 40
1.0
 40
1.0
 40
1.0
 40
1.0
 10
15.515255904
 20
12.1564064329
 30
0.0
 10
15.5140762407
 20
12.1567644538
 30
0.0
 10
15.5123332203
 20
12.1577303997
 30
0.0
 10
15.5102468452
 20
12.1594976273
 30
0.0
 10
15.5086133925
 20
12.1612246404
 30
0.0
 10
15.5069971437
 20
12.1632788768
 30
0.0
 10
15.5047797881
 20
12.1665710735
 30
0.0
 10
15.5032977129
 20
12.1692988439
 30
0.0
 10
15.5023532369
 20
12.1712234837
 30
0.0
  0
SPLINE
  5
3C6
100
AcDbEntity
  8
0
100
AcDbSpline
 62
7
  6
CONTINUOUS
 70
0
 71
3
 72
30
 73
26
 74
0
 42
0.0000001
 43
0.0000001
 44
0.0000000001
 40
0.0
 40
0.0
 40
0.0
 40
0.0
 40
0.1528304182
 40
0.2292573928
 40
0.3048518549
 40
0.3789415593
 40
0.4151655252
 40
0.4507049235
 40
0.4854628879
 40
0.5193415571
 40
0.5522655804
 40
0.5841919418
 40
0.6151010479
 40
0.6449913705
 40
0.6739020629
 40
0.7018997365
 40
0.7290538984
 40
0.7554624701
 40
0.7812444972
 40
0.8065012783
 40
0.8313266921
 40
0.8558319309
 40
0.9041857108
 40
0.9521242444
 40
1.0
 40
1.0
 40
1.0
 40
1.0
 10
16.0220560902
 20
12.7124199165
 30
0.0
 10
16.0156866856
 20
12.7294188875
 30
0.0
 10
16.0069824158
 20
12.7552672559
 30
0.0
 10
15.9980625734
 20
12.7903790689
 30
0.0
 10
15.9930781264
 20
12.8167905787
 30
0.0
 10
15.9906400948
 20
12.8387667455
 30
0.0
 10
15.9899209082
 20
12.8560822019
 30
0.0
 10
15.990039355
 20
12.8687402797
 30
0.0
 10
15.9908402548
 20
12.8810950522
 30
0.0
 10
15.9923395045
 20
12.8930727976
 30
0.0
 10
15.9945612097
 20
12.9045968378
 30
0.0
 10
15.997506393
 20
12.9155936265
 30
0.0
 10
16.0011492316
 20
12.9259994168
 30
0.0
 10
16.0054755358
 20
12.9357508869
 30
0.0
 10
16.0104504203
 20
12.9447957406
 30
0.0
 10
16.0160170783
 20
12.9531008787
 30
0.0
 10
16.0221296772
 20
12.9606345664
 30
0.0
 10
16.0287334299
 20
12.9673776541
 30
0.0
 10
16.0357605149
 20
12.9733345861
 30
0.0
 10
16.0431505496
 20
12.9785126949
 30
0.0
 10
16.0508486537
 20
12.9829226092
 30
0.0
 10
16.0613961931
 20
12.9877870184
 30
0.0
 10
16.0751482376
 20
12.9921206377
 30
0.0
 10
16.0921370767
 20
12.9946873041
 30
0.0
 10
16.1035551717
 20
12.9948154433
 30
0.0
 10
16.109234639
 20
12.9945298037
 30
0.0
  0
SPLINE
  5
3C7
100
AcDbEntity
  8
0
100
AcDbSpline
 62
7
  6
CONTINUOUS
 70
0
 71
3
 72
26
 73
22
 74
0
 42
0.0000001
 43
0.0000001
 44
0.0000000001
 40
0.0
 40
0.0
 40
0.0
 40
0.0
 40
0.0155025501
 40
0.0315079143
 40
0.0484577875
 40
0.066715105
 40
0.0865425579
 40
0.1081005695
 40
0.1566939364
 40
0.212696159
 40
0.275571824
 40
0.3444325849
 40
0.4180548196
 40
0.495065053
 40
0.5739331762
 40
0.6530813053
 40
0.730900231
 40
0.805833718
 40
0.8765020421
 40
0.9416205968
 40
1.0
 40
1.0
 40
1.0
 40
1.0
 10
15.5192978796
 20
12.296055552
 30
0.0
 10
15.5185935605
 20
12.2960549437
 30
0.0
 10
15.5171584729
 20
12.2959090019
 30
0.0
 10
15.5150404132
 20
12.2952661951
 30
0.0
 10
15.512956368
 20
12.2942077853
 30
0.0
 10
15.5109203888
 20
12.2927420317
 30
0.0
 10
15.5089416339
 20
12.2908813211
 30
0.0
 10
15.5062834119
 20
12.2877669524
 30
0.0
 10
15.5032066319
 20
12.2828981315
 30
0.0
 10
15.5000344455
 20
12.2759656857
 30
0.0
 10
15.4973030535
 20
12.2678717031
 30
0.0
 10
15.4950852901
 20
12.2587995243
 30
0.0
 10
15.4934249866
 20
12.248958588
 30
0.0
 10
15.492370707
 20
12.2385782947
 30
0.0
 10
15.4919402457
 20
12.2279026672
 30
0.0
 10
15.4921523215
 20
12.2171838153
 30
0.0
 10
15.4929923573
 20
12.2066747868
 30
0.0
 10
15.4944483354
 20
12.1966217972
 30
0.0
 10
15.4964797586
 20
12.1872566324
 30
0.0
 10
15.4990451812
 20
12.1788062522
 30
0.0
 10
15.501184776
 20
12.1736045565
 30
0.0
 10
15.5023532369
 20
12.1712234837
 30
0.0
  0
SPLINE
  5
3C8
100
AcDbEntity
  8
0
100
AcDbSpline
 62
7
  6
CONTINUOUS
 70
0
 71
3
 72
16
 73
12
 74
0
 42
0.0000001
 43
0.0000001
 44
0.0000000001
 40
0.0
 40
0.0
 40
0.0
 40
0.0
 40
0.1113702302
 40
0.2298459639
 40
0.3545755669
 40
0.4839899273
 40
0.6155541086
 40
0.7467724277
 40
0.8117335783
 40
0.8758444449
 40
1.0
 40
1.0
 40
1.0
 40
1.0
 10
16.603679976
 20
11.7417069812
 30
0.0
 10
16.6030576289
 20
11.7396930654
 30
0.0
 10
16.6013491812
 20
11.7356587881
 30
0.0
 10
16.5976388676
 20
11.7300277584
 30
0.0
 10
16.5927992298
 20
11.7248537353
 30
0.0
 10
16.5870117104
 20
11.7203573225
 30
0.0
 10
16.580507919
 20
11.7167216027
 30
0.0
 10
16.574682074
 20
11.7145260978
 30
0.0
 10
16.5699164824
 20
11.7132644943
 30
0.0
 10
16.5652089529
 20
11.7123538479
 30
0.0
 10
16.5616394283
 20
11.7120501861
 30
0.0
 10
16.5592895662
 20
11.7120558504
 30
0.0
  0
SPLINE
  5
3C9
100
AcDbEntity
  8
0
100
AcDbSpline
 62
7
  6
CONTINUOUS
 70
0
 71
3
 72
17
 73
13
 74
0
 42
0.0000001
 43
0.0000001
 44
0.0000000001
 40
0.0
 40
0.0
 40
0.0
 40
0.0
 40
0.1430719091
 40
0.2793964493
 40
0.4083046344
 40
0.4701122582
 40
0.5303765818
 40
0.6473629303
 40
0.7050160689
 40
0.7625866776
 40
0.8790540825
 40
1.0
 40
1.0
 40
1.0
 40
1.0
 10
13.923981303
 20
11.712067695
 30
0.0
 10
13.9219962644
 20
11.7120693902
 30
0.0
 10
13.9181126522
 20
11.7123571469
 30
0.0
 10
13.9125736097
 20
11.7136429372
 30
0.0
 10
13.9083601054
 20
11.7154032578
 30
0.0
 10
13.9053872198
 20
11.7172295771
 30
0.0
 10
13.9027716807
 20
11.7192781376
 30
0.0
 10
13.9005769827
 20
11.7217401159
 30
0.0
 10
13.8989238423
 20
11.7245139951
 30
0.0
 10
13.8976404062
 20
11.7274699352
 30
0.0
 10
13.8967317345
 20
11.7315044872
 30
0.0
 10
13.8967752832
 20
11.7348279784
 30
0.0
 10
13.8969613651
 20
11.7364956831
 30
0.0
  0
SPLINE
  5
3CA
100
AcDbEntity
  8
0
100
AcDbSpline
 62
7
  6
CONTINUOUS
 70
0
 71
3
 72
13
 73
9
 74
0
 42
0.0000001
 43
0.0000001
 44
0.0000000001
 40
0.0
 40
0.0
 40
0.0
 40
0.0
 40
0.2549477913
 40
0.3824374713
 40
0.5091206875
 40
0.6347392027
 40
0.7590030725
 40
1.0
 40
1.0
 40
1.0
 40
1.0
 10
13.9556375407
 20
11.7217538996
 30
0.0
 10
13.9532187663
 20
11.720254494
 30
0.0
 10
13.9494434817
 20
11.7182296995
 30
0.0
 10
13.9441976676
 20
11.7160364082
 30
0.0
 10
13.9401837204
 20
11.7146625894
 30
0.0
 10
13.9361234462
 20
11.7135620403
 30
0.0
 10
13.9307533577
 20
11.7124688499
 30
0.0
 10
13.9266713966
 20
11.7120653977
 30
0.0
 10
13.923981303
 20
11.712067695
 30
0.0
  0
SPLINE
  5
3CB
100
AcDbEntity
  8
0
100
AcDbSpline
 62
7
  6
CONTINUOUS
 70
0
 71
3
 72
14
 73
10
 74
0
 42
0.0000001
 43
0.0000001
 44
0.0000000001
 40
0.0
 40
0.0
 40
0.0
 40
0.0
 40
0.137752347
 40
0.2717337456
 40
0.4019773518
 40
0.5284054719
 40
0.6511352919
 40
0.7704717165
 40
1.0
 40
1.0
 40
1.0
 40
1.0
 10
16.5592932361
 20
11.7120677261
 30
0.0
 10
16.5580092829
 20
11.712070821
 30
0.0
 10
16.5554751626
 20
11.7121996718
 30
0.0
 10
16.5517624262
 20
11.7127367572
 30
0.0
 10
16.5482123987
 20
11.7135660009
 30
0.0
 10
16.5448458272
 20
11.7146629463
 30
0.0
 10
16.5416891436
 20
11.7160325455
 30
0.0
 10
16.5378543288
 20
11.7181911904
 30
0.0
 10
16.5352828459
 20
11.7202374122
 30
0.0
 10
16.5337738043
 20
11.7217538996
 30
0.0
  0
SPLINE
  5
3CC
100
AcDbEntity
  8
0
100
AcDbSpline
 62
7
  6
CONTINUOUS
 70
0
 71
3
 72
16
 73
12
 74
0
 42
0.0000001
 43
0.0000001
 44
0.0000000001
 40
0.0
 40
0.0
 40
0.0
 40
0.0
 40
0.0614389925
 40
0.1243432416
 40
0.2532222249
 40
0.3845524448
 40
0.515994042
 40
0.6451479438
 40
0.7698506863
 40
0.8884617274
 40
1.0
 40
1.0
 40
1.0
 40
1.0
 10
13.6492895471
 20
12.3338097093
 30
0.0
 10
13.6435737273
 20
12.3338097093
 30
0.0
 10
13.6320005263
 20
12.3333179564
 30
0.0
 10
13.6085972594
 20
12.3304621548
 30
0.0
 10
13.5792563459
 20
12.3233875819
 30
0.0
 10
13.5453116909
 20
12.3098261779
 30
0.0
 10
13.5135723838
 20
12.2916314621
 30
0.0
 10
13.4852339273
 20
12.2694748953
 30
0.0
 10
13.4613470255
 20
12.2441719432
 30
0.0
 10
13.4428293634
 20
12.2166564294
 30
0.0
 10
13.4342668621
 20
12.1968500087
 30
0.0
 10
13.4312031751
 20
12.1869359138
 30
0.0
  0
SPLINE
  5
3CD
100
AcDbEntity
  8
0
100
AcDbSpline
 62
7
  6
CONTINUOUS
 70
0
 71
3
 72
14
 73
10
 74
0
 42
0.0000001
 43
0.0000001
 44
0.0000000001
 40
0.0
 40
0.0
 40
0.0
 40
0.0
 40
0.2640966488
 40
0.3918604383
 40
0.5169364325
 40
0.6397510525
 40
0.7608190775
 40
0.8807065102
 40
1.0
 40
1.0
 40
1.0
 40
1.0
 10
13.4312031751
 20
12.1869359138
 30
0.0
 10
13.4290016806
 20
12.1798118749
 30
0.0
 10
13.4265590894
 20
12.1689498669
 30
0.0
 10
13.4252738978
 20
12.154396483
 30
0.0
 10
13.4253222741
 20
12.1437737225
 30
0.0
 10
13.4263693418
 20
12.1333931332
 30
0.0
 10
13.4284086404
 20
12.1233090411
 30
0.0
 10
13.4314333212
 20
12.1135802371
 30
0.0
 10
13.4340957661
 20
12.1073588531
 30
0.0
 10
13.4355791822
 20
12.1043350148
 30
0.0
  0
SPLINE
  5
3CE
100
AcDbEntity
  8
0
100
AcDbSpline
 62
7
  6
CONTINUOUS
 70
0
 71
3
 72
11
 73
7
 74
0
 42
0.0000001
 43
0.0000001
 44
0.0000000001
 40
0.0
 40
0.0
 40
0.0
 40
0.0
 40
0.2914573025
 40
0.5484157581
 40
0.7800249638
 40
1.0
 40
1.0
 40
1.0
 40
1.0
 10
15.538386778
 20
12.1716845457
 30
0.0
 10
15.5376071266
 20
12.1707504646
 30
0.0
 10
15.536014035
 20
12.1690889602
 30
0.0
 10
15.5333275758
 20
12.1672030572
 30
0.0
 10
15.5305298349
 20
12.1661384173
 30
0.0
 10
15.5286143793
 20
12.1660117728
 30
0.0
 10
15.5276996589
 20
12.1660927298
 30
0.0
  0
SPLINE
  5
3CF
100
AcDbEntity
  8
0
100
AcDbSpline
 62
7
  6
CONTINUOUS
 70
0
 71
3
 72
13
 73
9
 74
0
 42
0.0000001
 43
0.0000001
 44
0.0000000001
 40
0.0
 40
0.0
 40
0.0
 40
0.0
 40
0.0959588618
 40
0.1964992931
 40
0.3613151153
 40
0.5487036903
 40
0.7615171472
 40
1.0
 40
1.0
 40
1.0
 40
1.0
 10
15.5276996589
 20
12.1660927298
 30
0.0
 10
15.5270736899
 20
12.166148131
 30
0.0
 10
15.52580058
 20
12.1663961573
 30
0.0
 10
15.5235963237
 20
12.167288592
 30
0.0
 10
15.5211253055
 20
12.1689776554
 30
0.0
 10
15.5185351196
 20
12.1716445185
 30
0.0
 10
15.5160979125
 20
12.175058402
 30
0.0
 10
15.5146725398
 20
12.1776546956
 30
0.0
 10
15.51398451
 20
12.1790567528
 30
0.0
  0
SPLINE
  5
3D0
100
AcDbEntity
  8
0
100
AcDbSpline
 62
7
  6
CONTINUOUS
 70
0
 71
3
 72
10
 73
6
 74
0
 42
0.0000001
 43
0.0000001
 44
0.0000000001
 40
0.0
 40
0.0
 40
0.0
 40
0.0
 40
0.2466387857
 40
0.4949468038
 40
1.0
 40
1.0
 40
1.0
 40
1.0
 10
15.8201654376
 20
13.0619207848
 30
0.0
 10
15.8223120975
 20
13.0643199063
 30
0.0
 10
15.8263551207
 20
13.0693803306
 30
0.0
 10
15.8333429627
 20
13.0804258678
 30
0.0
 10
15.8372147441
 20
13.0895704091
 30
0.0
 10
15.8391611081
 20
13.0958688454
 30
0.0
  0
SPLINE
  5
3D1
100
AcDbEntity
  8
0
100
AcDbSpline
 62
7
  6
CONTINUOUS
 70
0
 71
3
 72
9
 73
5
 74
0
 42
0.0000001
 43
0.0000001
 44
0.0000000001
 40
0.0
 40
0.0
 40
0.0
 40
0.0
 40
0.2468272247
 40
1.0
 40
1.0
 40
1.0
 40
1.0
 10
15.8391611081
 20
13.0958688454
 30
0.0
 10
15.8395942579
 20
13.0972705186
 30
0.0
 10
15.8412217198
 20
13.1029881053
 30
0.0
 10
15.8423430928
 20
13.1088478676
 30
0.0
 10
15.8429128085
 20
13.1132881223
 30
0.0
  0
SPLINE
  5
3D2
100
AcDbEntity
  8
0
100
AcDbSpline
 62
7
  6
CONTINUOUS
 70
0
 71
3
 72
15
 73
11
 74
0
 42
0.0000001
 43
0.0000001
 44
0.0000000001
 40
0.0
 40
0.0
 40
0.0
 40
0.0
 40
0.1195353491
 40
0.242195709
 40
0.3671256024
 40
0.4936214206
 40
0.6209670698
 40
0.748404216
 40
0.8751099548
 40
1.0
 40
1.0
 40
1.0
 40
1.0
 10
15.5946352701
 20
13.1561319988
 30
0.0
 10
15.5960255462
 20
13.1505539746
 30
0.0
 10
15.5995372203
 20
13.1394155081
 30
0.0
 10
15.6067201306
 20
13.123249584
 30
0.0
 10
15.6157942026
 20
13.107674568
 30
0.0
 10
15.626582624
 20
13.0929565799
 30
0.0
 10
15.6389140064
 20
13.079342629
 30
0.0
 10
15.6525786119
 20
13.0670511105
 30
0.0
 10
15.6673462254
 20
13.0563121246
 30
0.0
 10
15.6778436174
 20
13.0502403839
 30
0.0
 10
15.6832006748
 20
13.0475244615
 30
0.0
  0
SPLINE
  5
3D3
100
AcDbEntity
  8
0
100
AcDbSpline
 62
7
  6
CONTINUOUS
 70
0
 71
3
 72
11
 73
7
 74
0
 42
0.0000001
 43
0.0000001
 44
0.0000000001
 40
0.0
 40
0.0
 40
0.0
 40
0.0
 40
0.2560418527
 40
0.5076813337
 40
0.7554732281
 40
1.0
 40
1.0
 40
1.0
 40
1.0
 10
15.6653056784
 20
13.2818661016
 30
0.0
 10
15.6619508673
 20
13.2811959651
 30
0.0
 10
15.6553585034
 20
13.2795410446
 30
0.0
 10
15.6458570705
 20
13.2760801573
 30
0.0
 10
15.6369110966
 20
13.2717051756
 30
0.0
 10
15.6313360039
 20
13.2681842779
 30
0.0
 10
15.6286758468
 20
13.2662873454
 30
0.0
  0
SPLINE
  5
3D4
100
AcDbEntity
  8
0
100
AcDbSpline
 62
7
  6
CONTINUOUS
 70
0
 71
3
 72
14
 73
10
 74
0
 42
0.0000001
 43
0.0000001
 44
0.0000000001
 40
0.0
 40
0.0
 40
0.0
 40
0.0
 40
0.1090982542
 40
0.2228990404
 40
0.3413800586
 40
0.4644887716
 40
0.5921321056
 40
0.7241335968
 40
1.0
 40
1.0
 40
1.0
 40
1.0
 10
14.382041742
 20
12.271587244
 30
0.0
 10
14.3875769962
 20
12.260307582
 30
0.0
 10
14.3998921831
 20
12.2377450329
 30
0.0
 10
14.4213716289
 20
12.2047742627
 30
0.0
 10
14.446140026
 20
12.1721477437
 30
0.0
 10
14.4740616664
 20
12.1400374822
 30
0.0
 10
14.5049977896
 20
12.1085970082
 30
0.0
 10
14.5507249465
 20
12.0671763854
 30
0.0
 10
14.588082803
 20
12.0385206459
 30
0.0
 10
14.6141695818
 20
12.0203857377
 30
0.0
  0
SPLINE
  5
3D5
100
AcDbEntity
  8
0
100
AcDbSpline
 62
7
  6
CONTINUOUS
 70
0
 71
3
 72
30
 73
26
 74
0
 42
0.0000001
 43
0.0000001
 44
0.0000000001
 40
0.0
 40
0.0
 40
0.0
 40
0.0
 40
0.0831400954
 40
0.1636517555
 40
0.2411079624
 40
0.3151642106
 40
0.3508432469
 40
0.3855890904
 40
0.452215397
 40
0.4841216267
 40
0.5151013432
 40
0.5451818927
 40
0.5744051207
 40
0.6304667912
 40
0.6838975042
 40
0.709885838
 40
0.7355250481
 40
0.7609384654
 40
0.7862544583
 40
0.811604154
 40
0.837116581
 40
0.8629164211
 40
0.8891229549
 40
0.9431523356
 40
1.0
 40
1.0
 40
1.0
 40
1.0
 10
15.218531965
 20
11.808635804
 30
0.0
 10
15.2420998365
 20
11.8068173024
 30
0.0
 10
15.2886178204
 20
11.804685625
 30
0.0
 10
15.3572061698
 20
11.8061257313
 30
0.0
 10
15.4229494437
 20
11.8122443543
 30
0.0
 10
15.4754616836
 20
11.8212962685
 30
0.0
 10
15.5154138273
 20
11.8309043842
 30
0.0
 10
15.5528569782
 20
11.8417225283
 30
0.0
 10
15.5884998048
 20
11.8548136986
 30
0.0
 10
15.6219322569
 20
11.870283369
 30
0.0
 10
15.6452645556
 20
11.8827353778
 30
0.0
 10
15.6671534181
 20
11.8961768752
 30
0.0
 10
15.6939659248
 20
11.9151006725
 30
0.0
 10
15.7238567758
 20
11.9410416929
 30
0.0
 10
15.7489299794
 20
11.9705132208
 30
0.0
 10
15.7653297116
 20
11.9955146432
 30
0.0
 10
15.7757642998
 20
12.014804737
 30
0.0
 10
15.7844168458
 20
12.0347487147
 30
0.0
 10
15.7912616147
 20
12.0552971256
 30
0.0
 10
15.7962775681
 20
12.0763954444
 30
0.0
 10
15.7994580949
 20
12.0979855022
 30
0.0
 10
15.8007945114
 20
12.1200117509
 30
0.0
 10
15.800102948
 20
12.1501816288
 30
0.0
 10
15.7944511731
 20
12.1889127922
 30
0.0
 10
15.7853292081
 20
12.2192077911
 30
0.0
 10
15.7796941492
 20
12.2343562576
 30
0.0
  0
SPLINE
  5
3D6
100
AcDbEntity
  8
0
100
AcDbSpline
 62
7
  6
CONTINUOUS
 70
0
 71
3
 72
11
 73
7
 74
0
 42
0.0000001
 43
0.0000001
 44
0.0000000001
 40
0.0
 40
0.0
 40
0.0
 40
0.0
 40
0.2475563892
 40
0.4951048955
 40
0.7451640518
 40
1.0
 40
1.0
 40
1.0
 40
1.0
 10
15.6286758468
 20
13.2662873454
 30
0.0
 10
15.6247490002
 20
13.2634871488
 30
0.0
 10
15.6173428705
 20
13.2572257789
 30
0.0
 10
15.6079286646
 20
13.2460888768
 30
0.0
 10
15.600411324
 20
13.2334296687
 30
0.0
 10
15.5967872427
 20
13.2242342562
 30
0.0
 10
15.5953213949
 20
13.2194907709
 30
0.0
  0
SPLINE
  5
3D7
100
AcDbEntity
  8
0
100
AcDbSpline
 62
7
  6
CONTINUOUS
 70
0
 71
3
 72
11
 73
7
 74
0
 42
0.0000001
 43
0.0000001
 44
0.0000000001
 40
0.0
 40
0.0
 40
0.0
 40
0.0
 40
0.2318633658
 40
0.4759378972
 40
0.7320755053
 40
1.0
 40
1.0
 40
1.0
 40
1.0
 10
15.5836805251
 20
12.4343986848
 30
0.0
 10
15.5791495986
 20
12.4436317421
 30
0.0
 10
15.5688325563
 20
12.4620972624
 30
0.0
 10
15.5504024366
 20
12.4888821127
 30
0.0
 10
15.5287558857
 20
12.5152423463
 30
0.0
 10
15.5126477447
 20
12.5320364902
 30
0.0
 10
15.5041294568
 20
12.5403237724
 30
0.0
  0
SPLINE
  5
3D8
100
AcDbEntity
  8
0
100
AcDbSpline
 62
7
  6
CONTINUOUS
 70
0
 71
3
 72
19
 73
15
 74
0
 42
0.0000001
 43
0.0000001
 44
0.0000000001
 40
0.0
 40
0.0
 40
0.0
 40
0.0
 40
0.1509042903
 40
0.2233195863
 40
0.2936544661
 40
0.4280135627
 40
0.5542793483
 40
0.6731380443
 40
0.7301907419
 40
0.7858820623
 40
0.8404416925
 40
0.8941268259
 40
0.9472146683
 40
1.0
 40
1.0
 40
1.0
 40
1.0
 10
14.871132322
 20
12.737269265
 30
0.0
 10
14.8568414271
 20
12.7348643019
 30
0.0
 10
14.8358214654
 20
12.7304175847
 30
0.0
 10
14.8087176437
 20
12.7225947604
 30
0.0
 10
14.7835458073
 20
12.7139315663
 30
0.0
 10
14.7543390657
 20
12.7012103866
 30
0.0
 10
14.7228437323
 20
12.6826872021
 30
0.0
 10
14.6999956748
 20
12.6646099932
 30
0.0
 10
14.6842715345
 20
12.6488505681
 30
0.0
 10
14.6738737098
 20
12.6365769918
 30
0.0
 10
14.664744868
 20
12.6237266138
 30
0.0
 10
14.6569087012
 20
12.6103367456
 30
0.0
 10
14.6503914459
 20
12.5964462287
 30
0.0
 10
14.6469373709
 20
12.5868652024
 30
0.0
 10
14.6454411896
 20
12.5820218831
 30
0.0
  0
SPLINE
  5
3D9
100
AcDbEntity
  8
0
100
AcDbSpline
 62
7
  6
CONTINUOUS
 70
0
 71
3
 72
11
 73
7
 74
0
 42
0.0000001
 43
0.0000001
 44
0.0000000001
 40
0.0
 40
0.0
 40
0.0
 40
0.0
 40
0.2385075079
 40
0.4844003853
 40
0.7382436042
 40
1.0
 40
1.0
 40
1.0
 40
1.0
 10
15.5953213949
 20
13.2194907709
 30
0.0
 10
15.5938168184
 20
13.2146219596
 30
0.0
 10
15.5915275104
 20
13.2044820082
 30
0.0
 10
15.5903000729
 20
13.1887071221
 30
0.0
 10
15.5912485876
 20
13.1724188069
 30
0.0
 10
15.5932827084
 20
13.1615587061
 30
0.0
 10
15.5946352701
 20
13.1561319988
 30
0.0
  0
SPLINE
  5
3DA
100
AcDbEntity
  8
0
100
AcDbSpline
 62
7
  6
CONTINUOUS
 70
0
 71
3
 72
14
 73
10
 74
0
 42
0.0000001
 43
0.0000001
 44
0.0000000001
 40
0.0
 40
0.0
 40
0.0
 40
0.0
 40
0.1374586345
 40
0.2719302812
 40
0.5286995133
 40
0.6513590959
 40
0.7704114718
 40
0.8864307951
 40
1.0
 40
1.0
 40
1.0
 40
1.0
 10
15.6832006748
 20
13.0475244615
 30
0.0
 10
15.6884588059
 20
13.0448586927
 30
0.0
 10
15.6991602315
 20
13.0401444772
 30
0.0
 10
15.720830809
 20
13.0333750944
 30
0.0
 10
15.7429810309
 20
13.0305688864
 30
0.0
 10
15.7643507327
 20
13.0322675496
 30
0.0
 10
15.7793716149
 20
13.0356718837
 30
0.0
 10
15.7933297011
 20
13.0411917569
 30
0.0
 10
15.8018409525
 20
13.0462443656
 30
0.0
 10
15.8058066562
 20
13.0490722709
 30
0.0
  0
SPLINE
  5
3DB
100
AcDbEntity
  8
0
100
AcDbSpline
 62
7
  6
CONTINUOUS
 70
0
 71
3
 72
22
 73
18
 74
0
 42
0.0000001
 43
0.0000001
 44
0.0000000001
 40
0.0
 40
0.0
 40
0.0
 40
0.0
 40
0.0652758753
 40
0.1327348237
 40
0.201549443
 40
0.2710141272
 40
0.4090238484
 40
0.4764836062
 40
0.5422201417
 40
0.6059163168
 40
0.6673976266
 40
0.7266629282
 40
0.7838703189
 40
0.8393375612
 40
0.8934951417
 40
0.9468665415
 40
1.0
 40
1.0
 40
1.0
 40
1.0
 10
14.8893018065
 20
12.4820284678
 30
0.0
 10
14.8922704151
 20
12.4820284678
 30
0.0
 10
14.8983103103
 20
12.4823445467
 30
0.0
 10
14.9073896779
 20
12.4836866996
 30
0.0
 10
14.916495707
 20
12.485898006
 30
0.0
 10
14.9284011799
 20
12.4899503235
 30
0.0
 10
14.939667194
 20
12.4955793399
 30
0.0
 10
14.9497671864
 20
12.5026898873
 30
0.0
 10
14.9565083038
 20
12.5086130046
 30
0.0
 10
14.9623351086
 20
12.5150784523
 30
0.0
 10
14.9671274122
 20
12.5219928114
 30
0.0
 10
14.970788267
 20
12.5292421269
 30
0.0
 10
14.9732344544
 20
12.5367025017
 30
0.0
 10
14.9744197467
 20
12.5442316662
 30
0.0
 10
14.9743137262
 20
12.551681244
 30
0.0
 10
14.9729306289
 20
12.5588929134
 30
0.0
 10
14.9711772333
 20
12.5634404467
 30
0.0
 10
14.9701124676
 20
12.5656096055
 30
0.0
  0
SPLINE
  5
3DC
100
AcDbEntity
  8
0
100
AcDbSpline
 62
7
  6
CONTINUOUS
 70
0
 71
3
 72
15
 73
11
 74
0
 42
0.0000001
 43
0.0000001
 44
0.0000000001
 40
0.0
 40
0.0
 40
0.0
 40
0.0
 40
0.141115166
 40
0.2775833273
 40
0.4087865818
 40
0.5346688133
 40
0.655761567
 40
0.7728969663
 40
0.8872030452
 40
1.0
 40
1.0
 40
1.0
 40
1.0
 10
14.8893018065
 20
12.4820284678
 30
0.0
 10
14.8867360474
 20
12.4820284678
 30
0.0
 10
14.8816844754
 20
12.4822886122
 30
0.0
 10
14.874332833
 20
12.4834823075
 30
0.0
 10
14.8674379582
 20
12.4854655383
 30
0.0
 10
14.8611142385
 20
12.4882182286
 30
0.0
 10
14.8554513682
 20
12.4916925083
 30
0.0
 10
14.8505386498
 20
12.4958508457
 30
0.0
 10
14.846448995
 20
12.5006238059
 30
0.0
 10
14.8443084666
 20
12.5041820945
 30
0.0
 10
14.8434053352
 20
12.5060234118
 30
0.0
  0
SPLINE
  5
3DD
100
AcDbEntity
  8
0
100
AcDbSpline
 62
7
  6
CONTINUOUS
 70
0
 71
3
 72
14
 73
10
 74
0
 42
0.0000001
 43
0.0000001
 44
0.0000000001
 40
0.0
 40
0.0
 40
0.0
 40
0.0
 40
0.2707060772
 40
0.3997763029
 40
0.5250315642
 40
0.647005394
 40
0.7663407156
 40
0.883750362
 40
1.0
 40
1.0
 40
1.0
 40
1.0
 10
15.4749876527
 20
12.1124739655
 30
0.0
 10
15.4806184794
 20
12.100999547
 30
0.0
 10
15.487806825
 20
12.083444124
 30
0.0
 10
15.4943643816
 20
12.0595146943
 30
0.0
 10
15.4975881861
 20
12.0420179797
 30
0.0
 10
15.499182049
 20
12.0247596828
 30
0.0
 10
15.4991423532
 20
12.0077958171
 30
0.0
 10
15.4974628407
 20
11.9911873123
 30
0.0
 10
15.4952475851
 20
11.9803567064
 30
0.0
 10
15.4938743583
 20
11.9750424595
 30
0.0
  0
SPLINE
  5
3DE
100
AcDbEntity
  8
0
100
AcDbSpline
 62
7
  6
CONTINUOUS
 70
0
 71
3
 72
19
 73
15
 74
0
 42
0.0000001
 43
0.0000001
 44
0.0000000001
 40
0.0
 40
0.0
 40
0.0
 40
0.0
 40
0.0544793371
 40
0.1090759625
 40
0.1640511456
 40
0.2196567858
 40
0.2761301489
 40
0.333692396
 40
0.452772526
 40
0.5146812681
 40
0.5783177204
 40
0.7110754513
 40
0.8515883347
 40
1.0
 40
1.0
 40
1.0
 40
1.0
 10
15.4938743583
 20
11.9750424595
 30
0.0
 10
15.4927365966
 20
11.9706394383
 30
0.0
 10
15.4900837808
 20
11.9619158493
 30
0.0
 10
15.4849950168
 20
11.9491854643
 30
0.0
 10
15.4788080803
 20
11.9368450699
 30
0.0
 10
15.4715430896
 20
11.9249244071
 30
0.0
 10
15.4632177183
 20
11.9134504801
 30
0.0
 10
15.4505905929
 20
11.8986237113
 30
0.0
 10
15.435990943
 20
11.8849642632
 30
0.0
 10
15.4197547089
 20
11.8725642787
 30
0.0
 10
15.4018043481
 20
11.8605939701
 30
0.0
 10
15.377013148
 20
11.8471720986
 30
0.0
 10
15.3443854932
 20
11.833814987
 30
0.0
 10
15.3212525381
 20
11.8268543243
 30
0.0
 10
15.3092497248
 20
11.8237866808
 30
0.0
  0
SPLINE
  5
3DF
100
AcDbEntity
  8
0
100
AcDbSpline
 62
7
  6
CONTINUOUS
 70
0
 71
3
 72
23
 73
19
 74
0
 42
0.0000001
 43
0.0000001
 44
0.0000000001
 40
0.0
 40
0.0
 40
0.0
 40
0.0
 40
0.0666746811
 40
0.1313426827
 40
0.1942279981
 40
0.2555981862
 40
0.3157574252
 40
0.3750489674
 40
0.433841963
 40
0.4925208568
 40
0.5514727353
 40
0.611072671
 40
0.671678765
 40
0.7336253057
 40
0.7972129832
 40
0.8626987228
 40
0.9302550625
 40
1.0
 40
1.0
 40
1.0
 40
1.0
 10
14.4682098637
 20
12.639635899
 30
0.0
 10
14.4606563105
 20
12.6342977679
 30
0.0
 10
14.4461541278
 20
12.623232531
 30
0.0
 10
14.4260762083
 20
12.6052206791
 30
0.0
 10
14.4080868897
 20
12.5861159963
 30
0.0
 10
14.3922445445
 20
12.5659838972
 30
0.0
 10
14.3786093405
 20
12.5448843168
 30
0.0
 10
14.3672282512
 20
12.5228884314
 30
0.0
 10
14.3581372415
 20
12.5000711267
 30
0.0
 10
14.3513761955
 20
12.4765069763
 30
0.0
 10
14.3469632389
 20
12.452279609
 30
0.0
 10
14.3449081749
 20
12.4274724278
 30
0.0
 10
14.34522326
 20
12.4021686459
 30
0.0
 10
14.3479005177
 20
12.3764512086
 30
0.0
 10
14.3529284019
 20
12.3504011414
 30
0.0
 10
14.3602943613
 20
12.3241067257
 30
0.0
 10
14.3699579264
 20
12.2976603376
 30
0.0
 10
14.3777793405
 20
12.2802731051
 30
0.0
 10
14.382041742
 20
12.271587244
 30
0.0
  0
SPLINE
  5
3E0
100
AcDbEntity
  8
0
100
AcDbSpline
 62
7
  6
CONTINUOUS
 70
0
 71
3
 72
15
 73
11
 74
0
 42
0.0000001
 43
0.0000001
 44
0.0000000001
 40
0.0
 40
0.0
 40
0.0
 40
0.0
 40
0.139822629
 40
0.2755706098
 40
0.406709884
 40
0.5330260418
 40
0.6548433558
 40
0.7727210909
 40
0.8874496728
 40
1.0
 40
1.0
 40
1.0
 40
1.0
 10
14.8886720511
 20
12.4960778366
 30
0.0
 10
14.8866861356
 20
12.4960778366
 30
0.0
 10
14.8827693241
 20
12.4962600592
 30
0.0
 10
14.8770438958
 20
12.4970949211
 30
0.0
 10
14.8716217585
 20
12.4984795636
 30
0.0
 10
14.8665782349
 20
12.5004077372
 30
0.0
 10
14.8619732907
 20
12.5028496232
 30
0.0
 10
14.8578608281
 20
12.5057801393
 30
0.0
 10
14.8542947369
 20
12.5091672145
 30
0.0
 10
14.8522939996
 20
12.5117183913
 30
0.0
 10
14.8514058009
 20
12.5130474927
 30
0.0
  0
SPLINE
  5
3E1
100
AcDbEntity
  8
0
100
AcDbSpline
 62
7
  6
CONTINUOUS
 70
0
 71
3
 72
19
 73
15
 74
0
 42
0.0000001
 43
0.0000001
 44
0.0000000001
 40
0.0
 40
0.0
 40
0.0
 40
0.0
 40
0.0505467312
 40
0.1017594433
 40
0.1544255557
 40
0.2091639593
 40
0.2663759298
 40
0.326252467
 40
0.4534482983
 40
0.5888159805
 40
0.7282341634
 40
0.8668621236
 40
0.9344822336
 40
1.0
 40
1.0
 40
1.0
 40
1.0
 10
14.8499582618
 20
12.5154373061
 30
0.0
 10
14.8490078162
 20
12.5171778749
 30
0.0
 10
14.8474289579
 20
12.5208760197
 30
0.0
 10
14.8461314905
 20
12.5268284055
 30
0.0
 10
14.8459307857
 20
12.5330811436
 30
0.0
 10
14.8468148216
 20
12.5395071833
 30
0.0
 10
14.8487640598
 20
12.5459871928
 30
0.0
 10
14.8528055142
 20
12.5547071384
 30
0.0
 10
14.8603432817
 20
12.5650341173
 30
0.0
 10
14.872281818
 20
12.5755063793
 30
0.0
 10
14.8864432002
 20
12.5836222405
 30
0.0
 10
14.8993934422
 20
12.5879788084
 30
0.0
 10
14.9099217528
 20
12.5897629985
 30
0.0
 10
14.9151494725
 20
12.5900770658
 30
0.0
 10
14.9177200099
 20
12.5900770658
 30
0.0
  0
SPLINE
  5
3E2
100
AcDbEntity
  8
0
100
AcDbSpline
 62
7
  6
CONTINUOUS
 70
0
 71
3
 72
9
 73
5
 74
0
 42
0.0000001
 43
0.0000001
 44
0.0000000001
 40
0.0
 40
0.0
 40
0.0
 40
0.0
 40
0.2586933127
 40
1.0
 40
1.0
 40
1.0
 40
1.0
 10
14.9177200099
 20
12.5900770658
 30
0.0
 10
14.9191601567
 20
12.5900770658
 30
0.0
 10
14.9247238375
 20
12.5898891797
 30
0.0
 10
14.9302752109
 20
12.5889390511
 30
0.0
 10
14.9342226099
 20
12.5877353091
 30
0.0
  0
SPLINE
  5
3E3
100
AcDbEntity
  8
0
100
AcDbSpline
 62
7
  6
CONTINUOUS
 70
0
 71
3
 72
24
 73
20
 74
0
 42
0.0000001
 43
0.0000001
 44
0.0000000001
 40
0.0
 40
0.0
 40
0.0
 40
0.0
 40
0.0586918624
 40
0.1141943214
 40
0.1674055984
 40
0.1935783184
 40
0.2196679183
 40
0.2722490048
 40
0.3266272297
 40
0.3838456772
 40
0.4444856451
 40
0.5086345427
 40
0.5759867659
 40
0.6458927755
 40
0.7174836753
 40
0.7897161318
 40
0.8615671376
 40
0.9320437424
 40
1.0
 40
1.0
 40
1.0
 40
1.0
 10
14.9342226099
 20
12.5877353091
 30
0.0
 10
14.9369622158
 20
12.5868998783
 30
0.0
 10
14.9421652208
 20
12.5847929511
 30
0.0
 10
14.9490084111
 20
12.5802219084
 30
0.0
 10
14.9535584931
 20
12.5753727013
 30
0.0
 10
14.9563487542
 20
12.5710339283
 30
0.0
 10
14.958571932
 20
12.5664132261
 30
0.0
 10
14.9602849354
 20
12.5600788019
 30
0.0
 10
14.9605042299
 20
12.5520031018
 30
0.0
 10
14.9589322469
 20
12.5436871589
 30
0.0
 10
14.9556274814
 20
12.5353911734
 30
0.0
 10
14.9507202488
 20
12.5273542797
 30
0.0
 10
14.9443561311
 20
12.5198184509
 30
0.0
 10
14.9367379342
 20
12.5130017073
 30
0.0
 10
14.9280952819
 20
12.5071113428
 30
0.0
 10
14.9186920731
 20
12.5023218235
 30
0.0
 10
14.9088084383
 20
12.4987770551
 30
0.0
 10
14.8987512407
 20
12.4965995303
 30
0.0
 10
14.8919883076
 20
12.4960778366
 30
0.0
 10
14.8886720511
 20
12.4960778366
 30
0.0
  0
SPLINE
  5
3E4
100
AcDbEntity
  8
0
100
AcDbSpline
 62
7
  6
CONTINUOUS
 70
0
 71
3
 72
15
 73
11
 74
0
 42
0.0000001
 43
0.0000001
 44
0.0000000001
 40
0.0
 40
0.0
 40
0.0
 40
0.0
 40
0.1373022052
 40
0.26998982
 40
0.3984119377
 40
0.5231069512
 40
0.6447840879
 40
0.7642411498
 40
0.8823457262
 40
1.0
 40
1.0
 40
1.0
 40
1.0
 10
14.5680765245
 20
12.1215919341
 30
0.0
 10
14.5653165422
 20
12.1277774219
 30
0.0
 10
14.5603454751
 20
12.1401515979
 30
0.0
 10
14.5545328297
 20
12.1589504774
 30
0.0
 10
14.5505298051
 20
12.1775843397
 30
0.0
 10
14.5483601251
 20
12.1959746803
 30
0.0
 10
14.5480280358
 20
12.2140493842
 30
0.0
 10
14.5495425873
 20
12.2317397963
 30
0.0
 10
14.5528975172
 20
12.248971841
 30
0.0
 10
14.5563495135
 20
12.2601062837
 30
0.0
 10
14.5583658898
 20
12.2655488242
 30
0.0
  0
SPLINE
  5
3E5
100
AcDbEntity
  8
0
100
AcDbSpline
 62
7
  6
CONTINUOUS
 70
0
 71
3
 72
23
 73
19
 74
0
 42
0.0000001
 43
0.0000001
 44
0.0000000001
 40
0.0
 40
0.0
 40
0.0
 40
0.0
 40
0.022788664
 40
0.0457306106
 40
0.0923819621
 40
0.1406161329
 40
0.1909553615
 40
0.2437980135
 40
0.2994184919
 40
0.3579704738
 40
0.4195054026
 40
0.4839767915
 40
0.5512653303
 40
0.6211774446
 40
0.6934707187
 40
0.7678487974
 40
0.8439840113
 40
1.0
 40
1.0
 40
1.0
 40
1.0
 10
14.5583658898
 20
12.2655488242
 30
0.0
 10
14.5597997304
 20
12.2694190025
 30
0.0
 10
14.5629780143
 20
12.2770779608
 30
0.0
 10
14.5705544622
 20
12.2920098491
 30
0.0
 10
14.5823376892
 20
12.3099020961
 30
0.0
 10
14.5998237599
 20
12.3296556034
 30
0.0
 10
14.6205812121
 20
12.347686416
 30
0.0
 10
14.6444374571
 20
12.3638604455
 30
0.0
 10
14.671201831
 20
12.378066232
 30
0.0
 10
14.7006659822
 20
12.3902069117
 30
0.0
 10
14.732605331
 20
12.4001930753
 30
0.0
 10
14.766775274
 20
12.4079589647
 30
0.0
 10
14.8029162743
 20
12.413441092
 30
0.0
 10
14.840751946
 20
12.4166076077
 30
0.0
 10
14.8799923594
 20
12.4174262057
 30
0.0
 10
14.9203394416
 20
12.4159005985
 30
0.0
 10
14.9756309858
 20
12.4107029586
 30
0.0
 10
15.0171379015
 20
12.4033908998
 30
0.0
 10
15.0446849238
 20
12.3971009308
 30
0.0
  0
SPLINE
  5
3E6
100
AcDbEntity
  8
0
100
AcDbSpline
 62
7
  6
CONTINUOUS
 70
0
 71
3
 72
13
 73
9
 74
0
 42
0.0000001
 43
0.0000001
 44
0.0000000001
 40
0.0
 40
0.0
 40
0.0
 40
0.0
 40
0.2532871987
 40
0.3801054287
 40
0.5064952557
 40
0.6320633051
 40
0.7564268618
 40
1.0
 40
1.0
 40
1.0
 40
1.0
 10
15.0446849238
 20
12.3971009308
 30
0.0
 10
15.0663712222
 20
12.3921491744
 30
0.0
 10
15.098640484
 20
12.3834271313
 30
0.0
 10
15.1408370262
 20
12.3693288616
 30
0.0
 10
15.1719605033
 20
12.357559755
 30
0.0
 10
15.2023949274
 20
12.3446501051
 30
0.0
 10
15.2415899334
 20
12.3261347658
 30
0.0
 10
15.2699547592
 20
12.3105500629
 30
0.0
 10
15.2882267477
 20
12.2994269611
 30
0.0
  0
SPLINE
  5
3E7
100
AcDbEntity
  8
0
100
AcDbSpline
 62
7
  6
CONTINUOUS
 70
0
 71
3
 72
14
 73
10
 74
0
 42
0.0000001
 43
0.0000001
 44
0.0000000001
 40
0.0
 40
0.0
 40
0.0
 40
0.0
 40
0.2768296204
 40
0.4091890758
 40
0.5370274234
 40
0.6601351056
 40
0.7783824705
 40
0.8916841814
 40
1.0
 40
1.0
 40
1.0
 40
1.0
 10
15.3096464782
 20
12.2858567754
 30
0.0
 10
15.3283087521
 20
12.2735523291
 30
0.0
 10
15.355042186
 20
12.2539937911
 30
0.0
 10
15.3877586974
 20
12.2255039265
 30
0.0
 10
15.4098557547
 20
12.2038014669
 30
0.0
 10
15.4297543677
 20
12.1815735122
 30
0.0
 10
15.4473390946
 20
12.1589375613
 30
0.0
 10
15.4625028224
 20
12.1360320869
 30
0.0
 10
15.4711345261
 20
12.1203258118
 30
0.0
 10
15.4749876527
 20
12.1124739655
 30
0.0
  0
SPLINE
  5
3E8
100
AcDbEntity
  8
0
100
AcDbSpline
 62
7
  6
CONTINUOUS
 70
0
 71
3
 72
34
 73
30
 74
0
 42
0.0000001
 43
0.0000001
 44
0.0000000001
 40
0.0
 40
0.0
 40
0.0
 40
0.0
 40
0.0265116617
 40
0.0543659943
 40
0.1139684944
 40
0.145670987
 40
0.1785417612
 40
0.2124821881
 40
0.247367908
 40
0.2830645757
 40
0.3194239535
 40
0.3934762407
 40
0.4682203917
 40
0.5054336083
 40
0.5423077996
 40
0.6143623557
 40
0.6831902372
 40
0.7160824145
 40
0.7478088539
 40
0.7782896509
 40
0.8074747548
 40
0.8353378535
 40
0.8618935156
 40
0.8871958649
 40
0.9113395895
 40
0.9344748531
 40
0.9567969048
 40
0.9785465148
 40
1.0
 40
1.0
 40
1.0
 40
1.0
 10
14.7934025171
 20
12.1124739655
 30
0.0
 10
14.7955540588
 20
12.1080895844
 30
0.0
 10
14.8004255791
 20
12.0993184716
 30
0.0
 10
14.8122226867
 20
12.0819268551
 30
0.0
 10
14.8267649499
 20
12.0653517726
 30
0.0
 10
14.8434966096
 20
12.0497406877
 30
0.0
 10
14.8575337874
 20
12.0382180713
 30
0.0
 10
14.872699282
 20
12.0272026771
 30
0.0
 10
14.8888903689
 20
12.0167643925
 30
0.0
 10
14.9060003167
 20
12.0069812283
 30
0.0
 10
14.9300226013
 20
11.9948204106
 30
0.0
 10
14.961564008
 20
11.9816907851
 30
0.0
 10
14.9943489733
 20
11.9715432618
 30
0.0
 10
15.0210597329
 20
11.9653192812
 30
0.0
 10
15.0475506572
 20
11.9604736885
 30
0.0
 10
15.0801634911
 20
11.9569463645
 30
0.0
 10
15.1122479436
 20
11.9568618032
 30
0.0
 10
15.1367515097
 20
11.958998137
 30
0.0
 10
15.1540858134
 20
11.9616212604
 30
0.0
 10
15.1705346351
 20
11.9652757466
 30
0.0
 10
15.1859890835
 20
11.9699306415
 30
0.0
 10
15.2003433671
 20
11.9755630002
 30
0.0
 10
15.2135002536
 20
11.9821354343
 30
0.0
 10
15.2253730715
 20
11.989602198
 30
0.0
 10
15.2358740933
 20
11.9979252679
 30
0.0
 10
15.2449317451
 20
12.0070458373
 30
0.0
 10
15.252478222
 20
12.0169076862
 30
0.0
 10
15.2584455585
 20
12.0274437979
 30
0.0
 10
15.261353837
 20
12.0348869669
 30
0.0
 10
15.2625215387
 20
12.0386625713
 30
0.0
  0
SPLINE
  5
3E9
100
AcDbEntity
  8
0
100
AcDbSpline
 62
7
  6
CONTINUOUS
 70
0
 71
3
 72
15
 73
11
 74
0
 42
0.0000001
 43
0.0000001
 44
0.0000000001
 40
0.0
 40
0.0
 40
0.0
 40
0.0
 40
0.1380519798
 40
0.2714271614
 40
0.4004159149
 40
0.5254404898
 40
0.6471320659
 40
0.7662327653
 40
0.8835646071
 40
1.0
 40
1.0
 40
1.0
 40
1.0
 10
15.4866189258
 20
12.1203072346
 30
0.0
 10
15.4897051148
 20
12.1140182427
 30
0.0
 10
15.4953253946
 20
12.1014262715
 30
0.0
 10
15.5021208772
 20
12.0822541532
 30
0.0
 10
15.5071009048
 20
12.063210974
 30
0.0
 10
15.5102299158
 20
12.0443760613
 30
0.0
 10
15.5114987063
 20
12.0258260416
 30
0.0
 10
15.5109005937
 20
12.0076300844
 30
0.0
 10
15.508430929
 20
11.9898624562
 30
0.0
 10
15.5055411847
 20
11.9783293074
 30
0.0
 10
15.5037972679
 20
11.972684038
 30
0.0
  0
ELLIPSE
  5
3EA
100
AcDbEntity
  8
0
100
AcDbEllipse
 62
7
  6
CONTINUOUS
 10
7.543662361
 20
4.7982448968
 30
0.0
 11
0.0554549152
 21
0.0
 31
0.0
 40
0.9016333331
 41
6.2831853072
 42
7.853981634
  0
ELLIPSE
  5
3EB
100
AcDbEntity
  8
0
100
AcDbEllipse
 62
7
  6
CONTINUOUS
 10
4.7170721913
 20
4.7982448968
 30
0.0
 11
0.0554549152
 21
-0.0
 31
0.0
 40
0.9016333331
 41
1.5707963268
 42
3.1415926536
  0
ELLIPSE
  5
3EC
100
AcDbEntity
  8
0
100
AcDbEllipse
 62
7
  6
CONTINUOUS
 10
15.5603552569
 20
4.7887497044
 30
0.0
 11
-0.0
 21
1.1875
 31
0.0
 40
0.3528949147
 41
-1.5707963268
 42
-0.4441614933
  0
ELLIPSE
  5
3ED
100
AcDbEntity
  8
0
100
AcDbEllipse
 62
7
  6
CONTINUOUS
 10
15.5603552569
 20
4.7887497044
 30
0.0
 11
-0.0
 21
1.1875
 31
0.0
 40
0.3528949147
 41
0.4441614933
 42
1.5707963268
  0
ELLIPSE
  5
3EE
100
AcDbEntity
  8
0
100
AcDbEllipse
 62
7
  6
CONTINUOUS
 10
16.5586881478
 20
11.6809634764
 30
0.0
 11
-0.0412065349
 21
0.0496289481
 31
0.0
 40
0.147551623
 41
-2.5926998486
 42
-1.0219035218
  0
ELLIPSE
  5
3EF
100
AcDbEntity
  8
0
100
AcDbEllipse
 62
7
  6
CONTINUOUS
 10
16.7412661223
 20
12.1869359138
 30
0.0
 11
-0.7219138052
 21
0.7815796304
 31
0.0
 40
0.2831142053
 41
-1.4081294931
 42
-0.2814946596
  0
ELLIPSE
  5
3F0
100
AcDbEntity
  8
0
100
AcDbEllipse
 62
7
  6
CONTINUOUS
 10
16.7412661223
 20
12.1869359138
 30
0.0
 11
-0.7219138052
 21
0.7815796304
 31
0.0
 40
0.2831142053
 41
0.606828327
 42
1.7334631605
  0
ELLIPSE
  5
3F1
100
AcDbEntity
  8
0
100
AcDbEllipse
 62
7
  6
CONTINUOUS
 10
13.9552261965
 20
11.6809634764
 30
0.0
 11
0.0621835711
 21
0.0409123955
 31
0.0
 40
0.46223263
 41
1.5124397774
 42
3.0832361042
  0
ENDSEC
  0
SECTION
  2
OBJECTS
  0
DICTIONARY
  5
C
100
AcDbDictionary
280
0
281
1
  3
ACAD_GROUP
350
D
  3
ACAD_MLINESTYLE
350
17
  3
ACAD_LAYOUT
350
1A
  3
ACAD_PLOTSETTINGS
350
19
  3
ACAD_PLOTSTYLENAME
350
E
  0
DICTIONARY
  5
D
102
{ACAD_REACTORS
330
C
102
}
100
AcDbDictionary
280
0
281
1
  0
ACDBDICTIONARYWDFLT
  5
E
102
{ACAD_REACTORS
330
C
102
}
100
AcDbDictionary
281
1
  3
Normal
350
F
100
AcDbDictionaryWithDefault
340
F
  0
DICTIONARY
  5
17
102
{ACAD_REACTORS
330
C
102
}
100
AcDbDictionary
280
0
281
1
  3
Standard
350
18
  0
DICTIONARY
  5
19
102
{ACAD_REACTORS
330
C
102
}
100
AcDbDictionary
281
1
  0
DICTIONARY
  5
1A
102
{ACAD_REACTORS
330
C
102
}
100
AcDbDictionary
281
1
  3
Model
350
3F2
  3
Layout1
350
3F3
  0
ACDBPLACEHOLDER
  5
F
102
{ACAD_REACTORS
330
E
102
}
  0
MLINESTYLE
  5
18
102
{ACAD_REACTORS
330
17
102
}
100
AcDbMlineStyle
  2
STANDARD
 70
0
  3

 62
256
 51
90.0
 52
90.0
 71
2
 49
0.5
 62
256
  6
BYLAYER
 49
-0.5
 62
256
  6
BYLAYER
  0
LAYOUT
  5
3F2
102
{ACAD_REACTORS
330
1A
102
}
100
AcDbPlotSettings
  1

  2
none_device
  4
ANSI_C_(22.00_x_17.00_Inches)
  6

 40
0.0
 41
0.0
 42
0.0
 43
0.0
 44
558.8
 45
431.8
 46
0.0
 47
0.0
 48
0.0
 49
0.0
140
0.0
141
0.0
142
1.0
143
1.0
 70
1024
 72
0
 73
0
 74
0
  7

 75
0
147
1.0
148
0.0
149
0.0
100
AcDbLayout
  1
Model
 70
0
 71
0
 10
0.0
 20
0.0
 11
22.0
 21
17.0
 12
0.0
 22
0.0
 32
0.0
 14
0.0
 24
0.0
 34
0.0
 15
0.0
 25
0.0
 35
0.0
146
0.0
 13
0.0
 23
0.0
 33
0.0
 16
1.0
 26
0.0
 36
0.0
 17
0.0
 27
1.0
 37
0.0
 76
0
330
22B
345
0
346
0
  0
LAYOUT
  5
3F3
102
{ACAD_REACTORS
330
1A
102
}
100
AcDbPlotSettings
  1

  2
none_device
  4
ANSI_C_(22.00_x_17.00_Inches)
  6

 40
0.0
 41
0.0
 42
0.0
 43
0.0
 44
558.8
 45
431.8
 46
0.0
 47
0.0
 48
0.0
 49
0.0
140
0.0
141
0.0
142
1.0
143
1.0
 70
0
 72
0
 73
0
 74
0
  7

 75
0
147
1.0
148
0.0
149
0.0
100
AcDbLayout
  1
Layout1
 70
0
 71
1
 10
0.0
 20
0.0
 11
22.0
 21
17.0
 12
0.0
 22
0.0
 32
0.0
 14
0.0
 24
0.0
 34
0.0
 15
0.0
 25
0.0
 35
0.0
146
0.0
 13
0.0
 23
0.0
 33
0.0
 16
1.0
 26
0.0
 36
0.0
 17
0.0
 27
1.0
 37
0.0
 76
0
330
22C
345
0
346
0
  0
ENDSEC
  0
EOF